999
DXF file: 001-m31342-p-50.dxf
999
Pro/ENGINEER 2011490 by Parametric Technology Corporation
  0
SECTION
  2
HEADER
  9
$ACADVER
  1
AC1015
  9
$DWGCODEPAGE
  3
ANSI_1252
  9
$EXTMAX
 10
841.0
 20
594.0
 30
0.0
  9
$EXTMIN
 10
0.0
 20
0.0
 30
0.0
  9
$LIMMIN
 10
0.0
 20
0.0
  9
$LIMMAX
 10
841.0
 20
594.0
  9
$VIEWCTR
 10
420.5
 20
297.0
  9
$VIEWSIZE
 40
594.0
  9
$CLAYER
  8
0
  9
$LTSCALE
 40
46.255
  9
$CELTYPE
  6
BYLAYER
  9
$DIMSCALE
 40
1.0
  9
$DIMASZ
 40
3.5
  9
$DIMEXO
 40
5.25625
  9
$DIMDLI
 40
31.958
  9
$DIMEXE
 40
15.138
  9
$DIMCEN
 40
7.569
  9
$DIMLFAC
 40
1.0
  9
$DIMBLK
  1
_FILLED
  9
$DIMTXT
 40
3.5
  9
$DIMTOL
 70
1
  9
$DIMLIM
 70
0
  9
$DIMTFAC
 40
1.0
  9
$DIMTP
 40
0.005
  9
$DIMTM
 40
0.005
  9
$PDMODE
 70
3
  9
$PDSIZE
 40
0.3125
  9
$HANDSEED
  5
5A9
  9
$TILEMODE
 70
1
  9
$MEASUREMENT
 70
1
  9
$INSUNITS
 70
4
  0
ENDSEC
  0
SECTION
  2
CLASSES
  0
CLASS
  1
ACDBDICTIONARYWDFLT
  2
AcDbDictionaryWithDefault
  3
AutoCAD 2000
 90
0
280
0
281
0
  0
CLASS
  1
ACDBPLACEHOLDER
  2
AcDbPlaceHolder
  3
AutoCAD 2000
 90
0
280
0
281
0
  0
CLASS
  1
LAYOUT
  2
AcDbLayout
  3
AutoCAD 2000
 90
0
280
0
281
0
  0
ENDSEC
  0
SECTION
  2
TABLES
  0
TABLE
  2
VPORT
  5
8
100
AcDbSymbolTable
 70
2
  0
VPORT
  5
1F4
100
AcDbSymbolTableRecord
100
AcDbViewportTableRecord
  2
*ACTIVE
 70
0
 10
0.0
 20
0.0
 11
1.0
 21
1.0
 12
420.5
 22
297.0
 13
0.0
 23
0.0
 14
1.0
 24
1.0
 15
0.0
 25
0.0
 16
0.0
 26
0.0
 36
1.0
 17
0.0
 27
0.0
 37
0.0
 40
594.0
 41
1.4158249158
 42
50.0
 43
0.0
 44
0.0
 50
0.0
 51
0.0
 71
0
 72
100
 73
1
 74
1
 75
0
 76
0
 77
0
 78
0
  0
ENDTAB
  0
TABLE
  2
LTYPE
  5
5
100
AcDbSymbolTable
 70
6
  0
LTYPE
  5
14
100
AcDbSymbolTableRecord
100
AcDbLinetypeTableRecord
  2
BYBLOCK
 70
0
  3

 72
65
 73
0
 40
0.0
  0
LTYPE
  5
15
100
AcDbSymbolTableRecord
100
AcDbLinetypeTableRecord
  2
BYLAYER
 70
0
  3

 72
65
 73
0
 40
0.0
  0
LTYPE
  5
16
100
AcDbSymbolTableRecord
100
AcDbLinetypeTableRecord
  2
CONTINUOUS
 70
64
  3
Solid line
 72
65
 73
0
 40
0.0
  0
LTYPE
  5
1F5
100
AcDbSymbolTableRecord
100
AcDbLinetypeTableRecord
  2
CENTER
 70
64
  3
____ _ ____ _ ____ _ ____ _ ____ _ ____ _ ____
 72
65
 73
4
 40
0.6
 49
0.375
 74
0
 49
-0.075
 74
0
 49
0.075
 74
0
 49
-0.075
 74
0
  0
LTYPE
  5
1F6
100
AcDbSymbolTableRecord
100
AcDbLinetypeTableRecord
  2
HIDDEN
 70
64
  3
- - - - - - - - - - - - - - - - - - - -
 72
65
 73
2
 40
0.2
 49
0.1
 74
0
 49
-0.1
 74
0
  0
LTYPE
  5
1F7
100
AcDbSymbolTableRecord
100
AcDbLinetypeTableRecord
  2
PHANTOM
 70
64
  3
_____ _ _ _____ _ _ _____ _ _ _____
 72
65
 73
6
 40
0.8
 49
0.45
 74
0
 49
-0.05
 74
0
 49
0.1
 74
0
 49
-0.05
 74
0
 49
0.1
 74
0
 49
-0.05
 74
0
  0
LTYPE
  5
1F8
100
AcDbSymbolTableRecord
100
AcDbLinetypeTableRecord
  2
DOT
 70
64
  3
. . . . . . . . . . . . . . . . . . . .
 72
65
 73
2
 40
0.2
 49
0.1
 74
0
 49
-0.1
 74
0
  0
LTYPE
  5
1F9
100
AcDbSymbolTableRecord
100
AcDbLinetypeTableRecord
  2
DASHED
 70
64
  3
- - - - - - - - - - - - - - - - - - - -
 72
65
 73
2
 40
0.2
 49
0.1
 74
0
 49
-0.1
 74
0
  0
ENDTAB
  0
TABLE
  2
LAYER
  5
2
100
AcDbSymbolTable
 70
36
  0
LAYER
  5
10
100
AcDbSymbolTableRecord
100
AcDbLayerTableRecord
  2
0
 70
0
 62
7
  6
CONTINUOUS
370
-3
390
F
  0
LAYER
  5
1FA
100
AcDbSymbolTableRecord
100
AcDbLayerTableRecord
  2
DEFAULT_1
 70
0
 62
7
  6
CENTER
370
-3
390
F
  0
LAYER
  5
1FB
100
AcDbSymbolTableRecord
100
AcDbLayerTableRecord
  2
DEFAULT_2
 70
0
 62
8
  6
HIDDEN
370
-3
390
F
  0
LAYER
  5
1FC
100
AcDbSymbolTableRecord
100
AcDbLayerTableRecord
  2
DEFAULT_3
 70
0
 62
7
  6
PHANTOM
370
-3
390
F
  0
LAYER
  5
1FD
100
AcDbSymbolTableRecord
100
AcDbLayerTableRecord
  2
BEZUGSACHSEN
 70
0
 62
7
  6
CONTINUOUS
370
-3
390
F
  0
LAYER
  5
1FE
100
AcDbSymbolTableRecord
100
AcDbLayerTableRecord
  2
BEZUGSEBENEN
 70
0
 62
7
  6
CONTINUOUS
370
-3
390
F
  0
LAYER
  5
1FF
100
AcDbSymbolTableRecord
100
AcDbLayerTableRecord
  2
BG_STARTBEZUEGE
 70
0
 62
7
  6
CONTINUOUS
370
-3
390
F
  0
LAYER
  5
200
100
AcDbSymbolTableRecord
100
AcDbLayerTableRecord
  2
FASEN
 70
0
 62
7
  6
CONTINUOUS
370
-3
390
F
  0
LAYER
  5
201
100
AcDbSymbolTableRecord
100
AcDbLayerTableRecord
  2
HILFEN
 70
0
 62
7
  6
CONTINUOUS
370
-3
390
F
  0
LAYER
  5
202
100
AcDbSymbolTableRecord
100
AcDbLayerTableRecord
  2
KONSTRUKTIONSELEMENTE
 70
0
 62
7
  6
CONTINUOUS
370
-3
390
F
  0
LAYER
  5
203
100
AcDbSymbolTableRecord
100
AcDbLayerTableRecord
  2
NORM
 70
0
 62
7
  6
CONTINUOUS
370
-3
390
F
  0
LAYER
  5
204
100
AcDbSymbolTableRecord
100
AcDbLayerTableRecord
  2
PLATZIERUNG
 70
0
 62
7
  6
CONTINUOUS
370
-3
390
F
  0
LAYER
  5
205
100
AcDbSymbolTableRecord
100
AcDbLayerTableRecord
  2
PLAZIERUNG
 70
0
 62
7
  6
CONTINUOUS
370
-3
390
F
  0
LAYER
  5
206
100
AcDbSymbolTableRecord
100
AcDbLayerTableRecord
  2
RUNDUNGEN
 70
0
 62
7
  6
CONTINUOUS
370
-3
390
F
  0
LAYER
  5
207
100
AcDbSymbolTableRecord
100
AcDbLayerTableRecord
  2
TEIL_STARTBEZUEGE
 70
0
 62
7
  6
CONTINUOUS
370
-3
390
F
  0
LAYER
  5
208
100
AcDbSymbolTableRecord
100
AcDbLayerTableRecord
  2
T_STARTBEZUEGE
 70
0
 62
7
  6
CONTINUOUS
370
-3
390
F
  0
LAYER
  5
209
100
AcDbSymbolTableRecord
100
AcDbLayerTableRecord
  2
ZEICHNUNGSBEMASSUNGEN
 70
0
 62
7
  6
CONTINUOUS
370
-3
390
F
  0
ENDTAB
  0
TABLE
  2
STYLE
  5
3
100
AcDbSymbolTable
 70
1
  0
STYLE
  5
11
100
AcDbSymbolTableRecord
100
AcDbTextStyleTableRecord
  2
STANDARD
 70
0
 40
0.0
 41
0.7
 50
0.0
 71
0
 42
0.2
  3
txt
  4

  0
STYLE
  5
20A
100
AcDbSymbolTableRecord
100
AcDbTextStyleTableRecord
  2
TEXTSTYLE_1
 70
0
 40
0.0
 41
0.8
 50
0.0
 71
0
 42
0.2
  3
gdt
  4

  0
ENDTAB
  0
TABLE
  2
VIEW
  5
6
100
AcDbSymbolTable
 70
0
  0
ENDTAB
  0
TABLE
  2
UCS
  5
7
100
AcDbSymbolTable
 70
0
  0
ENDTAB
  0
TABLE
  2
APPID
  5
9
100
AcDbSymbolTable
 70
1
  0
APPID
  5
20B
100
AcDbSymbolTableRecord
100
AcDbRegAppTableRecord
  2
ACAD
 70
0
  0
ENDTAB
  0
TABLE
  2
BLOCK_RECORD
  5
1
100
AcDbSymbolTable
 70
0
  0
BLOCK_RECORD
  5
20C
100
AcDbSymbolTableRecord
100
AcDbBlockTableRecord
  2
*Model_Space
  0
BLOCK_RECORD
  5
20D
100
AcDbSymbolTableRecord
100
AcDbBlockTableRecord
  2
*Paper_Space
  0
ENDTAB
  0
TABLE
  2
DIMSTYLE
  5
A
100
AcDbSymbolTable
 70
1
100
AcDbDimStyleTable
 71
0
  0
DIMSTYLE
105
20E
100
AcDbSymbolTableRecord
100
AcDbDimStyleTableRecord
  2
STANDARD
 70
0
  3

  4

 40
1.0
 41
3.5
 42
0.0625
 43
0.38
 44
0.18
 45
0.0
 46
0.0
 47
0.005
 48
0.005
140
3.5
141
0.09
142
0.0
143
25.4
144
1.0
145
0.0
146
1.0
147
0.09
 71
1.0
 72
0.0
 73
0
 74
0
 75
0
 76
0
 77
1
 78
8
170
0
171
2
172
0
173
0
174
0
175
0
176
0
177
0
178
5
270
2
271
3
272
3
273
2
274
2
275
0
280
0
281
0
282
0
283
1
284
8
285
0
286
0
287
3
288
0
340
11
  0
ENDTAB
  0
ENDSEC
  0
SECTION
  2
BLOCKS
  0
BLOCK
  5
20
100
AcDbEntity
  8
0
100
AcDbBlockBegin
  2
*Model_Space
 70
0
 10
0.0
 20
0.0
 30
0.0
  3
*Model_Space
  1

  0
ENDBLK
  5
21
100
AcDbEntity
  8
0
100
AcDbBlockEnd
  0
BLOCK
  5
1C
100
AcDbEntity
  8
0
100
AcDbBlockBegin
  2
*Paper_Space
 70
0
 10
0.0
 20
0.0
 30
0.0
  3
*Paper_Space
  1

  0
ENDBLK
  5
1D
100
AcDbEntity
  8
0
100
AcDbBlockEnd
  0
ENDSEC
  0
SECTION
  2
ENTITIES
  0
MTEXT
  5
20F
100
AcDbEntity
  8
0
100
AcDbMText
 62
5
  6
CONTINUOUS
  7
STANDARD
 71
2
 72
1
 10
283.5122950504
 20
89.5019585511
 30
0.0
 11
0.0
 21
1.0
 31
0.0
 44
0.9
  1
RUD WPPH-B\P8t
 40
10.5
 41
91.0
  0
MTEXT
  5
210
100
AcDbEntity
  8
0
100
AcDbMText
 62
5
  6
CONTINUOUS
  7
STANDARD
 71
2
 72
1
 10
496.004533295
 20
273.4908899384
 30
0.0
 11
1.0
 21
0.0
 31
0.0
 44
0.9
  1
RUD\PWPPH-B 8t
 40
10.0
 41
73.5714285714
  0
LINE
  5
211
100
AcDbEntity
  8
0
100
AcDbLine
 62
7
  6
CONTINUOUS
 10
0.0
 20
0.0
 11
0.0
 21
594.0
  0
LINE
  5
212
100
AcDbEntity
  8
0
100
AcDbLine
 62
7
  6
CONTINUOUS
 10
0.0
 20
0.0
 11
841.0
 21
0.0
  0
LINE
  5
213
100
AcDbEntity
  8
0
100
AcDbLine
 62
7
  6
CONTINUOUS
 10
0.0
 20
594.0
 11
841.0
 21
594.0
  0
LINE
  5
214
100
AcDbEntity
  8
0
100
AcDbLine
 62
7
  6
CONTINUOUS
 10
841.0
 20
0.0
 11
841.0
 21
594.0
  0
LINE
  5
215
100
AcDbEntity
  8
0
100
AcDbLine
 62
7
  6
CONTINUOUS
 10
251.211507629
 20
235.5006436129
 11
332.0609860734
 21
235.5006436129
  0
LINE
  5
216
100
AcDbEntity
  8
0
100
AcDbLine
 62
7
  6
CONTINUOUS
 10
335.6362468512
 20
238.5006436129
 11
247.6362468512
 21
238.5006436129
  0
LINE
  5
217
100
AcDbEntity
  8
0
100
AcDbLine
 62
7
  6
CONTINUOUS
 10
251.211507629
 20
235.5006436129
 11
247.6362468512
 21
238.5006436129
  0
LINE
  5
218
100
AcDbEntity
  8
BEZUGSACHSEN
100
AcDbLine
 62
7
  6
CONTINUOUS
 10
279.318782751
 20
477.9363991622
 11
278.3836017462
 21
477.582229022
  0
LINE
  5
219
100
AcDbEntity
  8
BEZUGSACHSEN
100
AcDbLine
 62
7
  6
CONTINUOUS
 10
274.0194225345
 20
475.929434584
 11
273.0842415297
 21
475.5752644438
  0
LINE
  5
21A
100
AcDbEntity
  8
BEZUGSACHSEN
100
AcDbLine
 62
7
  6
CONTINUOUS
 10
265.5127530795
 20
469.8310837449
 11
266.0080380728
 21
470.0145644091
  0
LINE
  5
21B
100
AcDbEntity
  8
BEZUGSACHSEN
100
AcDbLine
 62
7
  6
CONTINUOUS
 10
289.4746297941
 20
475.1061427571
 11
290.2920175927
 21
475.3412850345
  0
LINE
  5
21C
100
AcDbEntity
  8
0
100
AcDbLine
 62
7
  6
CONTINUOUS
 10
329.7413646177
 20
246.0006436129
 11
331.1330821674
 21
246.0006436129
  0
LINE
  5
21D
100
AcDbEntity
  8
0
100
AcDbLine
 62
7
  6
CONTINUOUS
 10
334.3028321376
 20
246.0006436129
 11
335.1642550758
 21
246.0006436129
  0
LINE
  5
21E
100
AcDbEntity
  8
0
100
AcDbLine
 62
7
  6
CONTINUOUS
 10
335.6362468512
 20
247.7878776213
 11
335.6589682573
 21
247.7878776213
  0
LINE
  5
21F
100
AcDbEntity
  8
0
100
AcDbLine
 62
7
  6
CONTINUOUS
 10
335.6362468512
 20
249.0644733926
 11
335.7298973175
 21
249.0644733926
  0
LINE
  5
220
100
AcDbEntity
  8
0
100
AcDbLine
 62
7
  6
CONTINUOUS
 10
335.6362468512
 20
249.8304307481
 11
335.7298973175
 21
249.8304307481
  0
LINE
  5
221
100
AcDbEntity
  8
0
100
AcDbLine
 62
7
  6
CONTINUOUS
 10
335.6334058504
 20
250.3410689851
 11
336.1334377738
 21
250.3410689851
  0
LINE
  5
222
100
AcDbEntity
  8
0
100
AcDbLine
 62
7
  6
CONTINUOUS
 10
335.8820093601
 20
251.3623458167
 11
335.1642550758
 21
251.3623458167
  0
LINE
  5
223
100
AcDbEntity
  8
0
100
AcDbLine
 62
7
  6
CONTINUOUS
 10
333.1603362452
 20
251.3623458167
 11
331.1330821674
 21
251.3623458167
  0
LINE
  5
224
100
AcDbEntity
  8
0
100
AcDbLine
 62
7
  6
CONTINUOUS
 10
335.9983928392
 20
251.6176649352
 11
336.1334377738
 21
251.6176649352
  0
LINE
  5
225
100
AcDbEntity
  8
BEZUGSACHSEN
100
AcDbLine
 62
7
  6
CONTINUOUS
 10
258.8995178375
 20
464.5624836059
 11
258.2447400711
 21
464.0196363301
  0
LINE
  5
226
100
AcDbEntity
  8
BEZUGSACHSEN
100
AcDbLine
 62
7
  6
CONTINUOUS
 10
264.8464022182
 20
470.3861187736
 11
261.7434176143
 21
467.8619384021
  0
LINE
  5
227
100
AcDbEntity
  8
BEZUGSACHSEN
100
AcDbLine
 62
7
  6
CONTINUOUS
 10
263.0562233548
 20
467.8327740835
 11
265.5127530795
 21
469.8310837449
  0
LINE
  5
228
100
AcDbEntity
  8
BEZUGSACHSEN
100
AcDbLine
 62
7
  6
CONTINUOUS
 10
259.0124739729
 20
463.6163103446
 11
259.4584054453
 21
463.8993606948
  0
LINE
  5
229
100
AcDbEntity
  8
BEZUGSACHSEN
100
AcDbLine
 62
7
  6
CONTINUOUS
 10
272.9291407324
 20
470.60270064
 11
270.90278743
 21
469.4458343101
  0
LINE
  5
22A
100
AcDbEntity
  8
BEZUGSACHSEN
100
AcDbLine
 62
7
  6
CONTINUOUS
 10
271.3247447069
 20
468.7067389631
 11
273.3510980093
 21
469.863605293
  0
LINE
  5
22B
100
AcDbEntity
  8
BEZUGSACHSEN
100
AcDbLine
 62
7
  6
CONTINUOUS
 10
265.6002690153
 20
470.7799476015
 11
264.8464022182
 21
470.3861187736
  0
LINE
  5
22C
100
AcDbEntity
  8
BEZUGSACHSEN
100
AcDbLine
 62
7
  6
CONTINUOUS
 10
290.0456505761
 20
476.3463153124
 11
289.5605649904
 21
476.1373551406
  0
LINE
  5
22D
100
AcDbEntity
  8
BEZUGSACHSEN
100
AcDbLine
 62
7
  6
CONTINUOUS
 10
278.4114198535
 20
469.0382705628
 11
279.6583266708
 21
469.5104969661
  0
LINE
  5
22E
100
AcDbEntity
  8
BEZUGSACHSEN
100
AcDbLine
 62
7
  6
CONTINUOUS
 10
306.3762468512
 20
474.988248732
 11
305.6362468512
 21
474.7118684484
  0
LINE
  5
22F
100
AcDbEntity
  8
BEZUGSACHSEN
100
AcDbLine
 62
7
  6
CONTINUOUS
 10
299.8728071201
 20
471.8475608999
 11
301.1172689114
 21
472.306171359
  0
LINE
  5
230
100
AcDbEntity
  8
BEZUGSACHSEN
100
AcDbLine
 62
7
  6
CONTINUOUS
 10
305.9717850599
 20
474.0845056818
 11
307.2162468512
 21
474.5431161409
  0
LINE
  5
231
100
AcDbEntity
  8
BEZUGSACHSEN
100
AcDbLine
 62
7
  6
CONTINUOUS
 10
300.9752365858
 20
472.9220710614
 11
298.8562468512
 21
472.2085442841
  0
LINE
  5
232
100
AcDbEntity
  8
0
100
AcDbLine
 62
7
  6
CONTINUOUS
 10
335.908134142
 20
252.8942605277
 11
335.1642550758
 21
252.8942605277
  0
LINE
  5
233
100
AcDbEntity
  8
0
100
AcDbLine
 62
7
  6
CONTINUOUS
 10
333.2558034621
 20
252.8942605277
 11
331.1330821674
 21
252.8942605277
  0
LINE
  5
234
100
AcDbEntity
  8
0
100
AcDbLine
 62
7
  6
CONTINUOUS
 10
333.0004825246
 20
253.1495796462
 11
333.5319506028
 21
253.1495796462
  0
LINE
  5
235
100
AcDbEntity
  8
0
100
AcDbLine
 62
7
  6
CONTINUOUS
 10
335.4761545105
 20
253.1495796462
 11
335.9779597587
 21
253.1495796462
  0
LINE
  5
236
100
AcDbEntity
  8
0
100
AcDbLine
 62
7
  6
CONTINUOUS
 10
333.1783941236
 20
253.6602178832
 11
333.7076147871
 21
253.6602178832
  0
LINE
  5
237
100
AcDbEntity
  8
0
100
AcDbLine
 62
7
  6
CONTINUOUS
 10
335.5160542801
 20
253.6602178832
 11
336.0174083952
 21
253.6602178832
  0
LINE
  5
238
100
AcDbEntity
  8
0
100
AcDbLine
 62
7
  6
CONTINUOUS
 10
333.2648126829
 20
254.4261752387
 11
333.7929484917
 21
254.4261752387
  0
LINE
  5
239
100
AcDbEntity
  8
0
100
AcDbLine
 62
7
  6
CONTINUOUS
 10
335.5338550191
 20
254.4261752387
 11
336.0350081274
 21
254.4261752387
  0
LINE
  5
23A
100
AcDbEntity
  8
0
100
AcDbLine
 62
7
  6
CONTINUOUS
 10
333.2648126829
 20
255.1921333094
 11
333.7929484917
 21
255.1921333094
  0
LINE
  5
23B
100
AcDbEntity
  8
0
100
AcDbLine
 62
7
  6
CONTINUOUS
 10
335.5338550191
 20
255.1921333094
 11
336.0350081274
 21
255.1921333094
  0
LINE
  5
23C
100
AcDbEntity
  8
0
100
AcDbLine
 62
7
  6
CONTINUOUS
 10
333.1783941236
 20
255.9580906649
 11
333.7076147871
 21
255.9580906649
  0
LINE
  5
23D
100
AcDbEntity
  8
0
100
AcDbLine
 62
7
  6
CONTINUOUS
 10
335.5160542801
 20
255.9580906649
 11
336.0174083952
 21
255.9580906649
  0
LINE
  5
23E
100
AcDbEntity
  8
0
100
AcDbLine
 62
7
  6
CONTINUOUS
 10
333.0004825246
 20
256.4687289019
 11
333.5319506028
 21
256.4687289019
  0
LINE
  5
23F
100
AcDbEntity
  8
0
100
AcDbLine
 62
7
  6
CONTINUOUS
 10
335.4761545105
 20
256.4687289019
 11
335.9779597587
 21
256.4687289019
  0
LINE
  5
240
100
AcDbEntity
  8
0
100
AcDbLine
 62
7
  6
CONTINUOUS
 10
335.908134142
 20
256.7240480204
 11
335.1642550758
 21
256.7240480204
  0
LINE
  5
241
100
AcDbEntity
  8
0
100
AcDbLine
 62
7
  6
CONTINUOUS
 10
333.2558034621
 20
256.7240480204
 11
331.1330821674
 21
256.7240480204
  0
LINE
  5
242
100
AcDbEntity
  8
0
100
AcDbLine
 62
7
  6
CONTINUOUS
 10
329.7413646177
 20
258.0006436129
 11
333.1603362452
 21
258.0006436129
  0
LINE
  5
243
100
AcDbEntity
  8
0
100
AcDbLine
 62
7
  6
CONTINUOUS
 10
334.3028321376
 20
258.0006436129
 11
335.8820093601
 21
258.0006436129
  0
LINE
  5
244
100
AcDbEntity
  8
0
100
AcDbLine
 62
7
  6
CONTINUOUS
 10
332.624049915
 20
260.0006436129
 11
333.7076147871
 21
260.0006436129
  0
LINE
  5
245
100
AcDbEntity
  8
0
100
AcDbLine
 62
7
  6
CONTINUOUS
 10
334.8558893308
 20
260.0006436129
 11
336.1334377684
 21
260.0006436129
  0
LINE
  5
246
100
AcDbEntity
  8
0
100
AcDbLine
 62
7
  6
CONTINUOUS
 10
335.6440949487
 20
260.2559627538
 11
336.1018234245
 21
260.2559627538
  0
LINE
  5
247
100
AcDbEntity
  8
0
100
AcDbLine
 62
7
  6
CONTINUOUS
 10
335.6143482598
 20
260.7666010579
 11
336.0511936301
 21
260.7666010579
  0
LINE
  5
248
100
AcDbEntity
  8
BEZUGSACHSEN
100
AcDbLine
 62
7
  6
CONTINUOUS
 10
267.1239321489
 20
467.8504551406
 11
264.6674024242
 21
465.8521454791
  0
LINE
  5
249
100
AcDbEntity
  8
BEZUGSACHSEN
100
AcDbLine
 62
7
  6
CONTINUOUS
 10
265.3118739316
 20
465.0598941854
 11
267.6391123845
 21
466.953029464
  0
LINE
  5
24A
100
AcDbEntity
  8
BEZUGSACHSEN
100
AcDbLine
 62
7
  6
CONTINUOUS
 10
266.7917783574
 20
461.6559691943
 11
267.5675245084
 21
462.2870142872
  0
LINE
  5
24B
100
AcDbEntity
  8
BEZUGSACHSEN
100
AcDbLine
 62
7
  6
CONTINUOUS
 10
313.4150563881
 20
473.7484893151
 11
311.9534441237
 21
473.2161960227
  0
LINE
  5
24C
100
AcDbEntity
  8
BEZUGSACHSEN
100
AcDbLine
 62
7
  6
CONTINUOUS
 10
311.2729425602
 20
472.0367253096
 11
312.7345550629
 21
472.569019015
  0
LINE
  5
24D
100
AcDbEntity
  8
BEZUGSACHSEN
100
AcDbLine
 62
7
  6
CONTINUOUS
 10
316.2072170492
 20
469.7520497433
 11
316.786204432
 21
469.9434531995
  0
LINE
  5
24E
100
AcDbEntity
  8
0
100
AcDbLine
 62
7
  6
CONTINUOUS
 10
336.1362468512
 20
261.5325585028
 11
336.1334377684
 21
261.5325585028
  0
LINE
  5
24F
100
AcDbEntity
  8
0
100
AcDbLine
 62
7
  6
CONTINUOUS
 10
335.5521582555
 20
261.7878776213
 11
335.9779597587
 21
261.7878776213
  0
LINE
  5
250
100
AcDbEntity
  8
0
100
AcDbLine
 62
7
  6
CONTINUOUS
 10
335.4863941834
 20
262.8091542741
 11
335.9328325213
 21
262.8091542741
  0
LINE
  5
251
100
AcDbEntity
  8
0
100
AcDbLine
 62
7
  6
CONTINUOUS
 10
335.4055282921
 20
264.0857498666
 11
335.9081340693
 21
264.0857498666
  0
LINE
  5
252
100
AcDbEntity
  8
0
100
AcDbLine
 62
7
  6
CONTINUOUS
 10
334.9396820216
 20
265.3623458167
 11
333.7076147871
 21
265.3623458167
  0
LINE
  5
253
100
AcDbEntity
  8
0
100
AcDbLine
 62
7
  6
CONTINUOUS
 10
335.0549927491
 20
266.8942605277
 11
333.7076147871
 21
266.8942605277
  0
LINE
  5
254
100
AcDbEntity
  8
0
100
AcDbLine
 62
7
  6
CONTINUOUS
 10
334.7059577361
 20
267.1495796462
 11
335.2166322982
 21
267.1495796462
  0
LINE
  5
255
100
AcDbEntity
  8
0
100
AcDbLine
 62
7
  6
CONTINUOUS
 10
334.8074177874
 20
267.6602178832
 11
335.3169061869
 21
267.6602178832
  0
LINE
  5
256
100
AcDbEntity
  8
0
100
AcDbLine
 62
7
  6
CONTINUOUS
 10
334.8558893308
 20
268.4261752387
 11
335.3648129844
 21
268.4261752387
  0
LINE
  5
257
100
AcDbEntity
  8
0
100
AcDbLine
 62
7
  6
CONTINUOUS
 10
334.8558893308
 20
269.1921333094
 11
335.3648129844
 21
269.1921333094
  0
LINE
  5
258
100
AcDbEntity
  8
0
100
AcDbLine
 62
7
  6
CONTINUOUS
 10
334.8074177874
 20
269.9580906649
 11
335.3169061869
 21
269.9580906649
  0
LINE
  5
259
100
AcDbEntity
  8
0
100
AcDbLine
 62
7
  6
CONTINUOUS
 10
334.7059577361
 20
270.4687289019
 11
335.2166322982
 21
270.4687289019
  0
LINE
  5
25A
100
AcDbEntity
  8
BEZUGSACHSEN
100
AcDbLine
 62
7
  6
CONTINUOUS
 10
258.2447400711
 20
464.0196363301
 11
255.7385857389
 21
460.9020747088
  0
LINE
  5
25B
100
AcDbEntity
  8
BEZUGSACHSEN
100
AcDbLine
 62
7
  6
CONTINUOUS
 10
257.0284352261
 20
461.1482408516
 11
259.0124739729
 21
463.6163103446
  0
LINE
  5
25C
100
AcDbEntity
  8
BEZUGSACHSEN
100
AcDbLine
 62
7
  6
CONTINUOUS
 10
261.0024070571
 20
462.0166372585
 11
259.0183683103
 21
459.5485677655
  0
LINE
  5
25D
100
AcDbEntity
  8
BEZUGSACHSEN
100
AcDbLine
 62
7
  6
CONTINUOUS
 10
259.8143413953
 20
458.9086986506
 11
261.6939571446
 21
461.2468698666
  0
LINE
  5
25E
100
AcDbEntity
  8
BEZUGSACHSEN
100
AcDbLine
 62
7
  6
CONTINUOUS
 10
261.9737089815
 20
455.8897660442
 11
262.6002475646
 21
456.6691564495
  0
LINE
  5
25F
100
AcDbEntity
  8
BEZUGSACHSEN
100
AcDbLine
 62
7
  6
CONTINUOUS
 10
267.6391123845
 20
466.953029464
 11
268.1781553458
 21
467.6109420565
  0
LINE
  5
260
100
AcDbEntity
  8
BEZUGSACHSEN
100
AcDbLine
 62
7
  6
CONTINUOUS
 10
290.2920175927
 20
475.3412850345
 11
290.9165169158
 21
475.9027101358
  0
LINE
  5
261
100
AcDbEntity
  8
BEZUGSACHSEN
100
AcDbLine
 62
7
  6
CONTINUOUS
 10
316.0043734368
 20
470.5669436124
 11
315.2131337266
 21
470.1093845827
  0
LINE
  5
262
100
AcDbEntity
  8
BEZUGSACHSEN
100
AcDbLine
 62
7
  6
CONTINUOUS
 10
316.551084047
 20
464.0350633857
 11
315.9720965899
 21
463.8436598363
  0
LINE
  5
263
100
AcDbEntity
  8
0
100
AcDbLine
 62
7
  6
CONTINUOUS
 10
335.0549927491
 20
270.7240480204
 11
333.7076147871
 21
270.7240480204
  0
LINE
  5
264
100
AcDbEntity
  8
0
100
AcDbLine
 62
7
  6
CONTINUOUS
 10
332.624049915
 20
272.0006436129
 11
334.9980964427
 21
272.0006436129
  0
LINE
  5
265
100
AcDbEntity
  8
0
100
AcDbLine
 62
7
  6
CONTINUOUS
 10
335.4055282921
 20
272.0006436129
 11
336.0350081274
 21
272.0006436129
  0
LINE
  5
266
100
AcDbEntity
  8
BEZUGSACHSEN
100
AcDbLine
 62
7
  6
CONTINUOUS
 10
267.4043933064
 20
468.2980195693
 11
267.1239321489
 21
467.8504551406
  0
LINE
  5
267
100
AcDbEntity
  8
BEZUGSACHSEN
100
AcDbLine
 62
7
  6
CONTINUOUS
 10
290.3512135185
 20
476.711871145
 11
290.0456505761
 21
476.3463153124
  0
LINE
  5
268
100
AcDbEntity
  8
BEZUGSACHSEN
100
AcDbLine
 62
7
  6
CONTINUOUS
 10
315.7585325467
 20
469.4567324311
 11
316.2072170492
 21
469.7520497433
  0
LINE
  5
269
100
AcDbEntity
  8
BEZUGSACHSEN
100
AcDbLine
 62
7
  6
CONTINUOUS
 10
314.0605161568
 20
467.3274906393
 11
314.5092005107
 21
467.6228077651
  0
LINE
  5
26A
100
AcDbEntity
  8
BEZUGSACHSEN
100
AcDbLine
 62
7
  6
CONTINUOUS
 10
316.7539275851
 20
463.2201694234
 11
317.5451670724
 21
463.6777281735
  0
LINE
  5
26B
100
AcDbEntity
  8
RUNDUNGEN
100
AcDbLine
 62
7
  6
CONTINUOUS
 10
331.6362468512
 20
282.5006436129
 11
320.1362265894
 21
282.5006436129
  0
LINE
  5
26C
100
AcDbEntity
  8
RUNDUNGEN
100
AcDbLine
 62
7
  6
CONTINUOUS
 10
263.1362782288
 20
282.5006436129
 11
251.6362468512
 21
282.5006436129
  0
LINE
  5
26D
100
AcDbEntity
  8
BEZUGSACHSEN
100
AcDbLine
 62
7
  6
CONTINUOUS
 10
261.6939571446
 20
461.2468698666
 11
262.0834105492
 21
462.0030068474
  0
LINE
  5
26E
100
AcDbEntity
  8
0
100
AcDbLine
 62
7
  6
CONTINUOUS
 10
250.6640646382
 20
411.6918388672
 11
250.1640643997
 21
411.1812006302
  0
LINE
  5
26F
100
AcDbEntity
  8
BEZUGSACHSEN
100
AcDbLine
 62
7
  6
CONTINUOUS
 10
314.9914732786
 20
468.7621803123
 11
315.7585325467
 21
469.4567324311
  0
LINE
  5
270
100
AcDbEntity
  8
BEZUGSACHSEN
100
AcDbLine
 62
7
  6
CONTINUOUS
 10
326.237686729
 20
462.673920408
 11
319.5728200554
 21
458.2490416274
  0
LINE
  5
271
100
AcDbEntity
  8
BEZUGSACHSEN
100
AcDbLine
 62
7
  6
CONTINUOUS
 10
320.9767639443
 20
457.980811434
 11
323.1038490972
 21
459.393006819
  0
LINE
  5
272
100
AcDbEntity
  8
BEZUGSACHSEN
100
AcDbLine
 62
7
  6
CONTINUOUS
 10
323.9546830393
 20
459.9578848939
 11
325.9399626345
 21
461.2759339989
  0
LINE
  5
273
100
AcDbEntity
  8
BEZUGSACHSEN
100
AcDbLine
 62
7
  6
CONTINUOUS
 10
316.9997682523
 20
464.3303803251
 11
316.551084047
 21
464.0350633857
  0
LINE
  5
274
100
AcDbEntity
  8
0
100
AcDbLine
 62
7
  6
CONTINUOUS
 10
250.9140643997
 20
412.4577962227
 11
250.6640646382
 21
411.6918388672
  0
LINE
  5
275
100
AcDbEntity
  8
BEZUGSACHSEN
100
AcDbLine
 62
7
  6
CONTINUOUS
 10
261.1830141678
 20
462.5129773137
 11
261.0024070571
 21
462.0166372585
  0
LINE
  5
276
100
AcDbEntity
  8
BEZUGSACHSEN
100
AcDbLine
 62
7
  6
CONTINUOUS
 10
290.9165169158
 20
475.9027101358
 11
291.3614935956
 21
476.6207308981
  0
LINE
  5
277
100
AcDbEntity
  8
0
100
AcDbLine
 62
7
  6
CONTINUOUS
 10
251.4140646382
 20
410.4152432747
 11
252.1640646382
 21
411.4365197487
  0
LINE
  5
278
100
AcDbEntity
  8
BEZUGSACHSEN
100
AcDbLine
 62
7
  6
CONTINUOUS
 10
315.2131337266
 20
470.1093845827
 11
314.339945461
 21
469.281757242
  0
LINE
  5
279
100
AcDbEntity
  8
BEZUGSACHSEN
100
AcDbLine
 62
7
  6
CONTINUOUS
 10
319.8131655341
 20
463.4598658455
 11
319.1853636182
 21
462.8852576051
  0
LINE
  5
27A
100
AcDbEntity
  8
BEZUGSACHSEN
100
AcDbLine
 62
7
  6
CONTINUOUS
 10
327.3937512535
 20
457.2397730532
 11
327.1101399395
 21
457.0514803616
  0
LINE
  5
27B
100
AcDbEntity
  8
BEZUGSACHSEN
100
AcDbLine
 62
7
  6
CONTINUOUS
 10
324.5576379149
 20
455.3568460051
 11
324.1322209439
 21
455.0744069677
  0
LINE
  5
27C
100
AcDbEntity
  8
BEZUGSACHSEN
100
AcDbLine
 62
7
  6
CONTINUOUS
 10
324.5435251344
 20
454.1471522877
 11
325.2525534194
 21
454.6178840167
  0
LINE
  5
27D
100
AcDbEntity
  8
BEZUGSACHSEN
100
AcDbLine
 62
7
  6
CONTINUOUS
 10
327.5214441301
 20
456.1242256816
 11
328.0886671554
 21
456.5008113286
  0
LINE
  5
27E
100
AcDbEntity
  8
0
100
AcDbLine
 62
7
  6
CONTINUOUS
 10
250.4140648766
 20
409.9046050377
 11
251.4140646382
 21
410.4152432747
  0
LINE
  5
27F
100
AcDbEntity
  8
0
100
AcDbLine
 62
7
  6
CONTINUOUS
 10
250.1640643997
 20
411.1812006302
 11
249.4140643997
 21
410.9258815117
  0
LINE
  5
280
100
AcDbEntity
  8
0
100
AcDbLine
 62
7
  6
CONTINUOUS
 10
268.1362468512
 20
303.0741529012
 11
267.1362468512
 21
303.0741529012
  0
LINE
  5
281
100
AcDbEntity
  8
0
100
AcDbLine
 62
7
  6
CONTINUOUS
 10
268.1362468512
 20
303.9441529012
 11
267.1362468512
 21
303.9441529012
  0
LINE
  5
282
100
AcDbEntity
  8
0
100
AcDbLine
 62
7
  6
CONTINUOUS
 10
268.1362468512
 20
304.6673173914
 11
267.1362468512
 21
304.6673173914
  0
LINE
  5
283
100
AcDbEntity
  8
0
100
AcDbLine
 62
7
  6
CONTINUOUS
 10
243.1640646382
 20
416.032264597
 11
243.1640646382
 21
404.032264597
  0
LINE
  5
284
100
AcDbEntity
  8
0
100
AcDbLine
 62
7
  6
CONTINUOUS
 10
243.1640646382
 20
400.032264597
 11
243.1640646382
 21
392.1173708506
  0
LINE
  5
285
100
AcDbEntity
  8
0
100
AcDbLine
 62
7
  6
CONTINUOUS
 10
243.1640646382
 20
385.032264597
 11
243.1640646382
 21
373.032264597
  0
LINE
  5
286
100
AcDbEntity
  8
0
100
AcDbLine
 62
7
  6
CONTINUOUS
 10
244.6640646382
 20
374.5641794868
 11
244.6640646382
 21
383.500349886
  0
LINE
  5
287
100
AcDbEntity
  8
0
100
AcDbLine
 62
7
  6
CONTINUOUS
 10
244.6640646382
 20
392.1173708506
 11
244.6640646382
 21
400.032264597
  0
LINE
  5
288
100
AcDbEntity
  8
0
100
AcDbLine
 62
7
  6
CONTINUOUS
 10
244.6640646382
 20
404.032264597
 11
244.6640646382
 21
409.3939668007
  0
LINE
  5
289
100
AcDbEntity
  8
0
100
AcDbLine
 62
7
  6
CONTINUOUS
 10
244.6640646382
 20
410.9258815117
 11
244.6640646382
 21
414.7556690045
  0
LINE
  5
28A
100
AcDbEntity
  8
BEZUGSACHSEN
100
AcDbLine
 62
7
  6
CONTINUOUS
 10
268.1781553458
 20
467.6109420565
 11
268.3730839393
 21
468.4277646325
  0
LINE
  5
28B
100
AcDbEntity
  8
0
100
AcDbLine
 62
7
  6
CONTINUOUS
 10
250.6640646382
 20
392.1173708506
 11
250.4140648766
 21
391.0960943766
  0
LINE
  5
28C
100
AcDbEntity
  8
0
100
AcDbLine
 62
7
  6
CONTINUOUS
 10
252.1640646382
 20
411.4365197487
 11
252.4140643997
 21
412.2024771042
  0
LINE
  5
28D
100
AcDbEntity
  8
0
100
AcDbLine
 62
7
  6
CONTINUOUS
 10
251.4140646382
 20
389.8194986053
 11
251.9140648766
 21
390.8407752581
  0
LINE
  5
28E
100
AcDbEntity
  8
0
100
AcDbLine
 62
7
  6
CONTINUOUS
 10
250.4140648766
 20
391.0960943766
 11
249.9140646382
 21
390.3301370211
  0
LINE
  5
28F
100
AcDbEntity
  8
BEZUGSACHSEN
100
AcDbLine
 62
7
  6
CONTINUOUS
 10
314.339945461
 20
469.281757242
 11
313.5970633555
 21
468.3502140396
  0
LINE
  5
290
100
AcDbEntity
  8
BEZUGSACHSEN
100
AcDbLine
 62
7
  6
CONTINUOUS
 10
314.7792212485
 20
468.4960251116
 11
314.9914732786
 21
468.7621803123
  0
LINE
  5
291
100
AcDbEntity
  8
BEZUGSACHSEN
100
AcDbLine
 62
7
  6
CONTINUOUS
 10
313.7421381116
 20
466.9282578383
 11
314.0605161568
 21
467.3274906393
  0
LINE
  5
292
100
AcDbEntity
  8
0
100
AcDbLine
 62
7
  6
CONTINUOUS
 10
250.4140648766
 20
388.7982220419
 11
251.4140646382
 21
389.8194986053
  0
LINE
  5
293
100
AcDbEntity
  8
BEZUGSACHSEN
100
AcDbLine
 62
7
  6
CONTINUOUS
 10
320.7607467654
 20
461.1640352342
 11
321.3885486812
 21
461.7386434746
  0
LINE
  5
294
100
AcDbEntity
  8
0
100
AcDbLine
 62
7
  6
CONTINUOUS
 10
249.9140646382
 20
390.3301370211
 11
249.1640646382
 21
389.8194986053
  0
LINE
  5
295
100
AcDbEntity
  8
0
100
AcDbLine
 62
7
  6
CONTINUOUS
 10
268.1362468512
 20
307.6074519875
 11
267.1362468512
 21
307.6074519875
  0
LINE
  5
296
100
AcDbEntity
  8
0
100
AcDbLine
 62
7
  6
CONTINUOUS
 10
268.1362468512
 20
313.1074519875
 11
267.1362468512
 21
313.1074519875
  0
LINE
  5
297
100
AcDbEntity
  8
0
100
AcDbLine
 62
7
  6
CONTINUOUS
 10
268.1362468512
 20
316.1074519875
 11
267.1362468512
 21
316.1074519875
  0
LINE
  5
298
100
AcDbEntity
  8
0
100
AcDbLine
 62
7
  6
CONTINUOUS
 10
247.6362468512
 20
278.5006436129
 11
247.6362468512
 21
238.5006436129
  0
LINE
  5
299
100
AcDbEntity
  8
0
100
AcDbLine
 62
7
  6
CONTINUOUS
 10
250.6640646382
 20
400.032264597
 11
250.6640646382
 21
392.1173708506
  0
LINE
  5
29A
100
AcDbEntity
  8
0
100
AcDbLine
 62
7
  6
CONTINUOUS
 10
250.9140643997
 20
413.2237542935
 11
250.9140643997
 21
412.4577962227
  0
LINE
  5
29B
100
AcDbEntity
  8
0
100
AcDbLine
 62
7
  6
CONTINUOUS
 10
251.6640643997
 20
380.9471579857
 11
251.6640643997
 21
377.1173708506
  0
LINE
  5
29C
100
AcDbEntity
  8
0
100
AcDbLine
 62
7
  6
CONTINUOUS
 10
252.1640646382
 20
392.1173708506
 11
252.1640646382
 21
400.032264597
  0
LINE
  5
29D
100
AcDbEntity
  8
0
100
AcDbLine
 62
7
  6
CONTINUOUS
 10
252.4140643997
 20
412.2024771042
 11
252.4140643997
 21
413.2237542935
  0
LINE
  5
29E
100
AcDbEntity
  8
0
100
AcDbLine
 62
7
  6
CONTINUOUS
 10
253.1640643997
 20
377.1173708506
 11
253.1640643997
 21
380.9471579857
  0
LINE
  5
29F
100
AcDbEntity
  8
0
100
AcDbLine
 62
7
  6
CONTINUOUS
 10
251.9140648766
 20
390.8407752581
 11
252.1640646382
 21
392.1173708506
  0
LINE
  5
2A0
100
AcDbEntity
  8
0
100
AcDbLine
 62
7
  6
CONTINUOUS
 10
252.9140646382
 20
375.8407752581
 11
253.1640643997
 21
377.1173708506
  0
LINE
  5
2A1
100
AcDbEntity
  8
0
100
AcDbLine
 62
7
  6
CONTINUOUS
 10
251.6640643997
 20
377.1173708506
 11
251.4140646382
 21
376.0960943766
  0
LINE
  5
2A2
100
AcDbEntity
  8
0
100
AcDbLine
 62
7
  6
CONTINUOUS
 10
252.4140643997
 20
374.8194986053
 11
252.9140646382
 21
375.8407752581
  0
LINE
  5
2A3
100
AcDbEntity
  8
BEZUGSACHSEN
100
AcDbLine
 62
7
  6
CONTINUOUS
 10
311.9534441237
 20
473.2161960227
 11
311.2729425602
 21
472.0367253096
  0
LINE
  5
2A4
100
AcDbEntity
  8
BEZUGSACHSEN
100
AcDbLine
 62
7
  6
CONTINUOUS
 10
312.7345550629
 20
472.569019015
 11
309.4171106264
 21
466.8191004758
  0
LINE
  5
2A5
100
AcDbEntity
  8
BEZUGSACHSEN
100
AcDbLine
 62
7
  6
CONTINUOUS
 10
310.2832842313
 20
466.3193572556
 11
314.281229993
 21
473.2487460949
  0
LINE
  5
2A6
100
AcDbEntity
  8
0
100
AcDbLine
 62
7
  6
CONTINUOUS
 10
251.4140646382
 20
376.0960943766
 11
250.9140643997
 21
375.3301370211
  0
LINE
  5
2A7
100
AcDbEntity
  8
BEZUGSACHSEN
100
AcDbLine
 62
7
  6
CONTINUOUS
 10
317.3181462975
 20
464.7296131261
 11
316.9997682523
 21
464.3303803251
  0
LINE
  5
2A8
100
AcDbEntity
  8
BEZUGSACHSEN
100
AcDbLine
 62
7
  6
CONTINUOUS
 10
317.5451670724
 20
463.6777281735
 11
318.0757972964
 21
464.3431163615
  0
LINE
  5
2A9
100
AcDbEntity
  8
0
100
AcDbLine
 62
7
  6
CONTINUOUS
 10
251.4140646382
 20
373.7982220419
 11
252.4140643997
 21
374.8194986053
  0
LINE
  5
2AA
100
AcDbEntity
  8
0
100
AcDbLine
 62
7
  6
CONTINUOUS
 10
249.4140643997
 20
388.2875837378
 11
250.4140648766
 21
388.7982220419
  0
LINE
  5
2AB
100
AcDbEntity
  8
0
100
AcDbLine
 62
7
  6
CONTINUOUS
 10
268.1362468512
 20
321.6074519875
 11
267.1362468512
 21
321.6074519875
  0
LINE
  5
2AC
100
AcDbEntity
  8
0
100
AcDbLine
 62
7
  6
CONTINUOUS
 10
244.9140645785
 20
391.0960943766
 11
244.6640646382
 21
392.1173708506
  0
LINE
  5
2AD
100
AcDbEntity
  8
0
100
AcDbLine
 62
7
  6
CONTINUOUS
 10
243.1640646382
 20
392.1173708506
 11
243.4140646456
 21
390.8407752581
  0
LINE
  5
2AE
100
AcDbEntity
  8
BEZUGSACHSEN
100
AcDbLine
 62
7
  6
CONTINUOUS
 10
262.0834105492
 20
462.0030068474
 11
262.1031162958
 21
462.8425348845
  0
LINE
  5
2AF
100
AcDbEntity
  8
BEZUGSACHSEN
100
AcDbLine
 62
7
  6
CONTINUOUS
 10
267.4481512744
 20
468.7724514976
 11
267.4043933064
 21
468.2980195693
  0
LINE
  5
2B0
100
AcDbEntity
  8
BEZUGSACHSEN
100
AcDbLine
 62
7
  6
CONTINUOUS
 10
290.4772576207
 20
477.2340229381
 11
290.3512135185
 21
476.711871145
  0
LINE
  5
2B1
100
AcDbEntity
  8
BEZUGSACHSEN
100
AcDbLine
 62
7
  6
CONTINUOUS
 10
291.3614935956
 20
476.6207308981
 11
291.4875376978
 21
477.1428826912
  0
LINE
  5
2B2
100
AcDbEntity
  8
BEZUGSACHSEN
100
AcDbLine
 62
7
  6
CONTINUOUS
 10
313.5970633555
 20
468.3502140396
 11
312.9844872613
 21
467.3147547892
  0
LINE
  5
2B3
100
AcDbEntity
  8
BEZUGSACHSEN
100
AcDbLine
 62
7
  6
CONTINUOUS
 10
324.8908715165
 20
455.7781344447
 11
324.5576379149
 21
455.3568460051
  0
LINE
  5
2B4
100
AcDbEntity
  8
BEZUGSACHSEN
100
AcDbLine
 62
7
  6
CONTINUOUS
 10
325.2525534194
 20
454.6178840167
 11
325.5857870211
 21
455.0391724564
  0
LINE
  5
2B5
100
AcDbEntity
  8
BEZUGSACHSEN
100
AcDbLine
 62
7
  6
CONTINUOUS
 10
327.7269850538
 20
457.6610616247
 11
327.3937512535
 21
457.2397730532
  0
LINE
  5
2B6
100
AcDbEntity
  8
BEZUGSACHSEN
100
AcDbLine
 62
7
  6
CONTINUOUS
 10
328.0886671554
 20
456.5008113286
 11
328.4219005584
 21
456.9220996363
  0
LINE
  5
2B7
100
AcDbEntity
  8
0
100
AcDbLine
 62
7
  6
CONTINUOUS
 10
250.9140643997
 20
375.3301370211
 11
250.1640643997
 21
374.8194986053
  0
LINE
  5
2B8
100
AcDbEntity
  8
0
100
AcDbLine
 62
7
  6
CONTINUOUS
 10
250.4140648766
 20
373.2875837378
 11
251.4140646382
 21
373.7982220419
  0
LINE
  5
2B9
100
AcDbEntity
  8
0
100
AcDbLine
 62
7
  6
CONTINUOUS
 10
243.4140646456
 20
390.8407752581
 11
243.9140646382
 21
389.8194986053
  0
LINE
  5
2BA
100
AcDbEntity
  8
0
100
AcDbLine
 62
7
  6
CONTINUOUS
 10
251.4140646382
 20
381.9684344597
 11
251.6640643997
 21
380.9471579857
  0
LINE
  5
2BB
100
AcDbEntity
  8
0
100
AcDbLine
 62
7
  6
CONTINUOUS
 10
253.1640643997
 20
380.9471579857
 11
252.9140646382
 21
382.2237542935
  0
LINE
  5
2BC
100
AcDbEntity
  8
BEZUGSACHSEN
100
AcDbLine
 62
7
  6
CONTINUOUS
 10
268.3730839393
 20
468.4277646325
 11
268.3313093432
 21
469.2714547082
  0
LINE
  5
2BD
100
AcDbEntity
  8
0
100
AcDbLine
 62
7
  6
CONTINUOUS
 10
267.1362468512
 20
303.0741529012
 11
267.1362468512
 21
305.7094453479
  0
LINE
  5
2BE
100
AcDbEntity
  8
0
100
AcDbLine
 62
7
  6
CONTINUOUS
 10
267.1362468512
 20
307.6076264391
 11
267.1362468512
 21
313.1074519875
  0
LINE
  5
2BF
100
AcDbEntity
  8
0
100
AcDbLine
 62
7
  6
CONTINUOUS
 10
267.1362468512
 20
316.1076264391
 11
267.1362468512
 21
321.6074519875
  0
LINE
  5
2C0
100
AcDbEntity
  8
RUNDUNGEN
100
AcDbLine
 62
7
  6
CONTINUOUS
 10
268.1362468512
 20
334.000429597
 11
268.1362468512
 21
287.5006861192
  0
LINE
  5
2C1
100
AcDbEntity
  8
0
100
AcDbLine
 62
7
  6
CONTINUOUS
 10
245.4140646382
 20
390.3301370211
 11
244.9140645785
 21
391.0960943766
  0
LINE
  5
2C2
100
AcDbEntity
  8
0
100
AcDbLine
 62
7
  6
CONTINUOUS
 10
250.9140643997
 20
382.7343925305
 11
251.4140646382
 21
381.9684344597
  0
LINE
  5
2C3
100
AcDbEntity
  8
0
100
AcDbLine
 62
7
  6
CONTINUOUS
 10
252.9140646382
 20
382.2237542935
 11
252.4140643997
 21
383.2450307675
  0
LINE
  5
2C4
100
AcDbEntity
  8
0
100
AcDbLine
 62
7
  6
CONTINUOUS
 10
252.6640648766
 20
404.032264597
 11
250.4140648766
 21
409.9046050377
  0
LINE
  5
2C5
100
AcDbEntity
  8
0
100
AcDbLine
 62
7
  6
CONTINUOUS
 10
248.9140645189
 20
409.3939668007
 11
250.9140643997
 21
404.032264597
  0
LINE
  5
2C6
100
AcDbEntity
  8
0
100
AcDbLine
 62
7
  6
CONTINUOUS
 10
250.6640646382
 20
413.989711649
 11
250.9140643997
 21
413.2237542935
  0
LINE
  5
2C7
100
AcDbEntity
  8
0
100
AcDbLine
 62
7
  6
CONTINUOUS
 10
252.4140643997
 20
413.2237542935
 11
252.1640646382
 21
413.989711649
  0
LINE
  5
2C8
100
AcDbEntity
  8
BEZUGSACHSEN
100
AcDbLine
 62
7
  6
CONTINUOUS
 10
261.1265361001
 20
462.9860639443
 11
261.1830141678
 21
462.5129773137
  0
LINE
  5
2C9
100
AcDbEntity
  8
BEZUGSACHSEN
100
AcDbLine
 62
7
  6
CONTINUOUS
 10
278.3836017462
 20
477.582229022
 11
278.6731675879
 21
470.2294622351
  0
LINE
  5
2CA
100
AcDbEntity
  8
BEZUGSACHSEN
100
AcDbLine
 62
7
  6
CONTINUOUS
 10
312.9844872613
 20
467.3147547892
 11
312.7144664492
 21
466.4415373495
  0
LINE
  5
2CB
100
AcDbEntity
  8
BEZUGSACHSEN
100
AcDbLine
 62
7
  6
CONTINUOUS
 10
313.5540662263
 20
466.4251091757
 11
313.7421381116
 21
466.9282578383
  0
LINE
  5
2CC
100
AcDbEntity
  8
BEZUGSACHSEN
100
AcDbLine
 62
7
  6
CONTINUOUS
 10
317.5062183314
 20
465.2327619751
 11
317.3181462975
 21
464.7296131261
  0
LINE
  5
2CD
100
AcDbEntity
  8
BEZUGSACHSEN
100
AcDbLine
 62
7
  6
CONTINUOUS
 10
319.7254565275
 20
466.9463428852
 11
319.9135284127
 21
467.4494915479
  0
LINE
  5
2CE
100
AcDbEntity
  8
0
100
AcDbLine
 62
7
  6
CONTINUOUS
 10
243.9140646382
 20
389.8194986053
 11
244.9140645785
 21
388.7982220419
  0
LINE
  5
2CF
100
AcDbEntity
  8
0
100
AcDbLine
 62
7
  6
CONTINUOUS
 10
252.4140643997
 20
383.2450307675
 11
251.4140646382
 21
384.2663072415
  0
LINE
  5
2D0
100
AcDbEntity
  8
BEZUGSACHSEN
100
AcDbLine
 62
7
  6
CONTINUOUS
 10
279.6583266708
 20
469.5104969661
 11
279.318782751
 21
477.9363991622
  0
LINE
  5
2D1
100
AcDbEntity
  8
BEZUGSACHSEN
100
AcDbLine
 62
7
  6
CONTINUOUS
 10
318.0757972964
 20
464.3431163615
 11
318.3458180342
 21
465.216333708
  0
LINE
  5
2D2
100
AcDbEntity
  8
BEZUGSACHSEN
100
AcDbLine
 62
7
  6
CONTINUOUS
 10
325.5857870211
 20
455.0391724564
 11
325.8764547253
 21
455.8323120067
  0
LINE
  5
2D3
100
AcDbEntity
  8
0
100
AcDbLine
 62
7
  6
CONTINUOUS
 10
250.1640643997
 20
383.2450307675
 11
250.9140643997
 21
382.7343925305
  0
LINE
  5
2D4
100
AcDbEntity
  8
0
100
AcDbLine
 62
7
  6
CONTINUOUS
 10
246.1640646382
 20
389.8194986053
 11
245.4140646382
 21
390.3301370211
  0
LINE
  5
2D5
100
AcDbEntity
  8
0
100
AcDbLine
 62
7
  6
CONTINUOUS
 10
252.1640646382
 20
413.989711649
 11
251.4140646382
 21
415.010988123
  0
LINE
  5
2D6
100
AcDbEntity
  8
BEZUGSACHSEN
100
AcDbLine
 62
7
  6
CONTINUOUS
 10
262.1031162958
 20
462.8425348845
 11
261.885736864
 21
463.6588094971
  0
LINE
  5
2D7
100
AcDbEntity
  8
BEZUGSACHSEN
100
AcDbLine
 62
7
  6
CONTINUOUS
 10
285.1393774724
 20
479.2038152169
 11
285.7677504048
 21
471.2285316823
  0
LINE
  5
2D8
100
AcDbEntity
  8
BEZUGSACHSEN
100
AcDbLine
 62
7
  6
CONTINUOUS
 10
286.7646608466
 20
471.3070782988
 11
286.4838984686
 21
474.8705029074
  0
LINE
  5
2D9
100
AcDbEntity
  8
BEZUGSACHSEN
100
AcDbLine
 62
7
  6
CONTINUOUS
 10
286.403680657
 20
475.8886240883
 11
286.2031360906
 21
478.433927516
  0
LINE
  5
2DA
100
AcDbEntity
  8
BEZUGSACHSEN
100
AcDbLine
 62
7
  6
CONTINUOUS
 10
290.4371486774
 20
477.7430840039
 11
290.4772576207
 21
477.2340229381
  0
LINE
  5
2DB
100
AcDbEntity
  8
BEZUGSACHSEN
100
AcDbLine
 62
7
  6
CONTINUOUS
 10
291.4875376978
 20
477.1428826912
 11
291.4340591192
 21
477.8216306205
  0
LINE
  5
2DC
100
AcDbEntity
  8
BEZUGSACHSEN
100
AcDbLine
 62
7
  6
CONTINUOUS
 10
328.4219005584
 20
456.9220996363
 11
328.7125682626
 21
457.7152391867
  0
LINE
  5
2DD
100
AcDbEntity
  8
KONSTRUKTIONSELEMENTE
100
AcDbLine
 62
7
  6
CONTINUOUS
 10
239.8280337141
 20
366.0006436129
 11
257.8550242887
 21
366.0006436129
  0
LINE
  5
2DE
100
AcDbEntity
  8
KONSTRUKTIONSELEMENTE
100
AcDbLine
 62
7
  6
CONTINUOUS
 10
325.4174694137
 20
366.0006436129
 11
343.4444599883
 21
366.0006436129
  0
LINE
  5
2DF
100
AcDbEntity
  8
0
100
AcDbLine
 62
7
  6
CONTINUOUS
 10
251.4140646382
 20
384.2663072415
 11
250.4140648766
 21
384.7769454785
  0
LINE
  5
2E0
100
AcDbEntity
  8
0
100
AcDbLine
 62
7
  6
CONTINUOUS
 10
244.9140645785
 20
388.7982220419
 11
245.9140646978
 21
388.2875837378
  0
LINE
  5
2E1
100
AcDbEntity
  8
0
100
AcDbLine
 62
7
  6
CONTINUOUS
 10
250.1640643997
 20
414.500349886
 11
250.6640646382
 21
413.989711649
  0
LINE
  5
2E2
100
AcDbEntity
  8
BEZUGSACHSEN
100
AcDbLine
 62
7
  6
CONTINUOUS
 10
312.7144664492
 20
466.4415373495
 11
312.6808778493
 21
465.5974816951
  0
LINE
  5
2E3
100
AcDbEntity
  8
BEZUGSACHSEN
100
AcDbLine
 62
7
  6
CONTINUOUS
 10
313.4962974444
 20
465.8180469366
 11
313.5540662263
 21
466.4251091757
  0
LINE
  5
2E4
100
AcDbEntity
  8
BEZUGSACHSEN
100
AcDbLine
 62
7
  6
CONTINUOUS
 10
319.1316974175
 20
468.0729819608
 11
319.0739316923
 21
467.4659174365
  0
LINE
  5
2E5
100
AcDbEntity
  8
BEZUGSACHSEN
100
AcDbLine
 62
7
  6
CONTINUOUS
 10
324.9901114747
 20
456.2441320331
 11
324.8908715165
 21
455.7781344447
  0
LINE
  5
2E6
100
AcDbEntity
  8
BEZUGSACHSEN
100
AcDbLine
 62
7
  6
CONTINUOUS
 10
327.826225012
 20
458.1270592131
 11
327.7269850538
 21
457.6610616247
  0
LINE
  5
2E7
100
AcDbEntity
  8
0
100
AcDbLine
 62
7
  6
CONTINUOUS
 10
243.1640646382
 20
373.032264597
 11
249.1640646382
 21
373.032264597
  0
LINE
  5
2E8
100
AcDbEntity
  8
0
100
AcDbLine
 62
7
  6
CONTINUOUS
 10
249.1640646382
 20
374.5641794868
 11
244.6640646382
 21
374.5641794868
  0
LINE
  5
2E9
100
AcDbEntity
  8
0
100
AcDbLine
 62
7
  6
CONTINUOUS
 10
250.4140648766
 20
384.7769454785
 11
249.1640646382
 21
385.032264597
  0
LINE
  5
2EA
100
AcDbEntity
  8
0
100
AcDbLine
 62
7
  6
CONTINUOUS
 10
245.9140646978
 20
388.2875837378
 11
247.1640647574
 21
388.032264597
  0
LINE
  5
2EB
100
AcDbEntity
  8
0
100
AcDbLine
 62
7
  6
CONTINUOUS
 10
249.1640646382
 20
383.500349886
 11
250.1640643997
 21
383.2450307675
  0
LINE
  5
2EC
100
AcDbEntity
  8
0
100
AcDbLine
 62
7
  6
CONTINUOUS
 10
247.1640647574
 20
389.5641794868
 11
246.1640646382
 21
389.8194986053
  0
LINE
  5
2ED
100
AcDbEntity
  8
0
100
AcDbLine
 62
7
  6
CONTINUOUS
 10
251.4140646382
 20
415.010988123
 11
250.4140648766
 21
415.7769454785
  0
LINE
  5
2EE
100
AcDbEntity
  8
BEZUGSACHSEN
100
AcDbLine
 62
7
  6
CONTINUOUS
 10
267.2552067924
 20
469.2737515272
 11
267.4481512744
 21
468.7724514976
  0
LINE
  5
2EF
100
AcDbEntity
  8
BEZUGSACHSEN
100
AcDbLine
 62
7
  6
CONTINUOUS
 10
268.3313093432
 20
469.2714547082
 11
268.1383648613
 21
469.7727547378
  0
LINE
  5
2F0
100
AcDbEntity
  8
BEZUGSACHSEN
100
AcDbLine
 62
7
  6
CONTINUOUS
 10
281.7730580053
 20
478.4527802587
 11
283.494011644
 21
470.6400778726
  0
LINE
  5
2F1
100
AcDbEntity
  8
BEZUGSACHSEN
100
AcDbLine
 62
7
  6
CONTINUOUS
 10
284.4705994422
 20
470.8551970775
 11
282.7496458035
 21
478.6678994635
  0
LINE
  5
2F2
100
AcDbEntity
  8
RUNDUNGEN
100
AcDbLine
 62
7
  6
CONTINUOUS
 10
315.1362468512
 20
287.5007321307
 11
315.1362468512
 21
334.00050924
  0
LINE
  5
2F3
100
AcDbEntity
  8
BEZUGSACHSEN
100
AcDbLine
 62
7
  6
CONTINUOUS
 10
319.9135284127
 20
467.4494915479
 11
319.9471169754
 21
468.2935471557
  0
LINE
  5
2F4
100
AcDbEntity
  8
0
100
AcDbLine
 62
7
  6
CONTINUOUS
 10
250.1640643997
 20
374.8194986053
 11
249.1640646382
 21
374.5641794868
  0
LINE
  5
2F5
100
AcDbEntity
  8
0
100
AcDbLine
 62
7
  6
CONTINUOUS
 10
249.1640646382
 20
373.032264597
 11
250.4140648766
 21
373.2875837378
  0
LINE
  5
2F6
100
AcDbEntity
  8
0
100
AcDbLine
 62
7
  6
CONTINUOUS
 10
244.6640646382
 20
383.500349886
 11
249.1640646382
 21
383.500349886
  0
LINE
  5
2F7
100
AcDbEntity
  8
0
100
AcDbLine
 62
7
  6
CONTINUOUS
 10
249.1640646382
 20
385.032264597
 11
243.1640646382
 21
385.032264597
  0
LINE
  5
2F8
100
AcDbEntity
  8
0
100
AcDbLine
 62
7
  6
CONTINUOUS
 10
247.1640647574
 20
388.032264597
 11
248.1640645189
 21
388.032264597
  0
LINE
  5
2F9
100
AcDbEntity
  8
0
100
AcDbLine
 62
7
  6
CONTINUOUS
 10
248.1640645189
 20
389.5641794868
 11
247.1640647574
 21
389.5641794868
  0
LINE
  5
2FA
100
AcDbEntity
  8
BEZUGSACHSEN
100
AcDbLine
 62
7
  6
CONTINUOUS
 10
317.457861024
 20
465.7067465206
 11
317.5062183314
 21
465.2327619751
  0
LINE
  5
2FB
100
AcDbEntity
  8
BEZUGSACHSEN
100
AcDbLine
 62
7
  6
CONTINUOUS
 10
318.3458180342
 20
465.216333708
 11
318.2732805818
 21
465.9273117155
  0
LINE
  5
2FC
100
AcDbEntity
  8
BEZUGSACHSEN
100
AcDbLine
 62
7
  6
CONTINUOUS
 10
328.7125682626
 20
457.7152391867
 11
328.769242522
 21
458.5530880176
  0
LINE
  5
2FD
100
AcDbEntity
  8
0
100
AcDbLine
 62
7
  6
CONTINUOUS
 10
249.1640646382
 20
389.8194986053
 11
248.1640645189
 21
389.5641794868
  0
LINE
  5
2FE
100
AcDbEntity
  8
0
100
AcDbLine
 62
7
  6
CONTINUOUS
 10
248.1640645189
 20
388.032264597
 11
249.4140643997
 21
388.2875837378
  0
LINE
  5
2FF
100
AcDbEntity
  8
0
100
AcDbLine
 62
7
  6
CONTINUOUS
 10
249.4140643997
 20
414.7556690045
 11
250.1640643997
 21
414.500349886
  0
LINE
  5
300
100
AcDbEntity
  8
BEZUGSACHSEN
100
AcDbLine
 62
7
  6
CONTINUOUS
 10
260.8329725552
 20
463.4358967788
 11
261.1265361001
 21
462.9860639443
  0
LINE
  5
301
100
AcDbEntity
  8
BEZUGSACHSEN
100
AcDbLine
 62
7
  6
CONTINUOUS
 10
261.885736864
 20
463.6588094971
 11
261.5921733191
 21
464.1086423316
  0
LINE
  5
302
100
AcDbEntity
  8
BEZUGSACHSEN
100
AcDbLine
 62
7
  6
CONTINUOUS
 10
270.90278743
 20
469.4458343101
 11
271.3247447069
 21
468.7067389631
  0
LINE
  5
303
100
AcDbEntity
  8
BEZUGSACHSEN
100
AcDbLine
 62
7
  6
CONTINUOUS
 10
273.3510980093
 20
469.863605293
 11
272.9291407324
 21
470.60270064
  0
LINE
  5
304
100
AcDbEntity
  8
0
100
AcDbLine
 62
7
  6
CONTINUOUS
 10
329.7413646177
 20
258.0006436129
 11
329.7413646177
 21
246.0006436129
  0
LINE
  5
305
100
AcDbEntity
  8
0
100
AcDbLine
 62
7
  6
CONTINUOUS
 10
330.3176377259
 20
258.0006436129
 11
330.3176377259
 21
246.0006436129
  0
LINE
  5
306
100
AcDbEntity
  8
0
100
AcDbLine
 62
7
  6
CONTINUOUS
 10
331.1330821674
 20
256.7240480204
 11
331.1330821674
 21
252.8942605277
  0
LINE
  5
307
100
AcDbEntity
  8
0
100
AcDbLine
 62
7
  6
CONTINUOUS
 10
331.1330821674
 20
251.3623458167
 11
331.1330821674
 21
246.0006436129
  0
LINE
  5
308
100
AcDbEntity
  8
0
100
AcDbLine
 62
7
  6
CONTINUOUS
 10
332.624049915
 20
272.0006436129
 11
332.624049915
 21
260.0006436129
  0
LINE
  5
309
100
AcDbEntity
  8
0
100
AcDbLine
 62
7
  6
CONTINUOUS
 10
333.1603362452
 20
272.0006436129
 11
333.1603362452
 21
260.0006436129
  0
LINE
  5
30A
100
AcDbEntity
  8
0
100
AcDbLine
 62
7
  6
CONTINUOUS
 10
333.2648126829
 20
255.1921333094
 11
333.2648126829
 21
254.4261752387
  0
LINE
  5
30B
100
AcDbEntity
  8
0
100
AcDbLine
 62
7
  6
CONTINUOUS
 10
333.7076147871
 20
270.7240480204
 11
333.7076147871
 21
266.8942605277
  0
LINE
  5
30C
100
AcDbEntity
  8
0
100
AcDbLine
 62
7
  6
CONTINUOUS
 10
333.7076147871
 20
265.3623458167
 11
333.7076147871
 21
260.0006436129
  0
LINE
  5
30D
100
AcDbEntity
  8
0
100
AcDbLine
 62
7
  6
CONTINUOUS
 10
333.7929484917
 20
255.1921333094
 11
333.7929484917
 21
254.4261752387
  0
LINE
  5
30E
100
AcDbEntity
  8
0
100
AcDbLine
 62
7
  6
CONTINUOUS
 10
334.2705932625
 20
255.1921333094
 11
334.2705932625
 21
254.1708561202
  0
LINE
  5
30F
100
AcDbEntity
  8
0
100
AcDbLine
 62
7
  6
CONTINUOUS
 10
334.3028321376
 20
258.0006436129
 11
334.3028321376
 21
246.0006436129
  0
LINE
  5
310
100
AcDbEntity
  8
0
100
AcDbLine
 62
7
  6
CONTINUOUS
 10
334.8182743626
 20
258.0006436129
 11
334.8182743626
 21
246.0006436129
  0
LINE
  5
311
100
AcDbEntity
  8
0
100
AcDbLine
 62
7
  6
CONTINUOUS
 10
334.8558893308
 20
269.1921333094
 11
334.8558893308
 21
268.4261752387
  0
LINE
  5
312
100
AcDbEntity
  8
0
100
AcDbLine
 62
7
  6
CONTINUOUS
 10
335.1642550758
 20
256.7240480204
 11
335.1642550758
 21
252.8942605277
  0
LINE
  5
313
100
AcDbEntity
  8
0
100
AcDbLine
 62
7
  6
CONTINUOUS
 10
335.1642550758
 20
251.3623458167
 11
335.1642550758
 21
246.0006436129
  0
LINE
  5
314
100
AcDbEntity
  8
0
100
AcDbLine
 62
7
  6
CONTINUOUS
 10
335.3648129844
 20
269.1921333094
 11
335.3648129844
 21
268.4261752387
  0
LINE
  5
315
100
AcDbEntity
  8
0
100
AcDbLine
 62
7
  6
CONTINUOUS
 10
335.4055282921
 20
272.0006436129
 11
335.4055282921
 21
271.1944147341
  0
LINE
  5
316
100
AcDbEntity
  8
0
100
AcDbLine
 62
7
  6
CONTINUOUS
 10
335.4055282921
 20
266.2402565404
 11
335.4055282921
 21
264.0857498666
  0
LINE
  5
317
100
AcDbEntity
  8
0
100
AcDbLine
 62
7
  6
CONTINUOUS
 10
335.5338550191
 20
255.1921333094
 11
335.5338550191
 21
254.4261752387
  0
LINE
  5
318
100
AcDbEntity
  8
0
100
AcDbLine
 62
7
  6
CONTINUOUS
 10
335.6213295132
 20
269.1921333094
 11
335.6213295132
 21
268.1708561202
  0
LINE
  5
319
100
AcDbEntity
  8
0
100
AcDbLine
 62
7
  6
CONTINUOUS
 10
335.6362468512
 20
278.5006436129
 11
335.6362468512
 21
272.0006436129
  0
LINE
  5
31A
100
AcDbEntity
  8
0
100
AcDbLine
 62
7
  6
CONTINUOUS
 10
335.6362468512
 20
260.0006436129
 11
335.6362468512
 21
258.0006436129
  0
LINE
  5
31B
100
AcDbEntity
  8
0
100
AcDbLine
 62
7
  6
CONTINUOUS
 10
335.6362468512
 20
251.3623458167
 11
335.6362468512
 21
238.5006436129
  0
LINE
  5
31C
100
AcDbEntity
  8
0
100
AcDbLine
 62
7
  6
CONTINUOUS
 10
335.7298973175
 20
249.0644733926
 11
335.7298973175
 21
249.8304307481
  0
LINE
  5
31D
100
AcDbEntity
  8
0
100
AcDbLine
 62
7
  6
CONTINUOUS
 10
335.9081340693
 20
272.0006436129
 11
335.9081340693
 21
264.0857498666
  0
LINE
  5
31E
100
AcDbEntity
  8
0
100
AcDbLine
 62
7
  6
CONTINUOUS
 10
336.0350081274
 20
272.0006436129
 11
336.0350081274
 21
264.0857498666
  0
LINE
  5
31F
100
AcDbEntity
  8
0
100
AcDbLine
 62
7
  6
CONTINUOUS
 10
336.0350081274
 20
255.1921333094
 11
336.0350081274
 21
254.4261752387
  0
LINE
  5
320
100
AcDbEntity
  8
0
100
AcDbLine
 62
7
  6
CONTINUOUS
 10
336.1109587831
 20
255.1921333094
 11
336.1109587831
 21
254.1708561202
  0
LINE
  5
321
100
AcDbEntity
  8
0
100
AcDbLine
 62
7
  6
CONTINUOUS
 10
336.1334377738
 20
251.6176649352
 11
336.1334377738
 21
250.3410689851
  0
LINE
  5
322
100
AcDbEntity
  8
0
100
AcDbLine
 62
7
  6
CONTINUOUS
 10
336.1362468512
 20
261.5325585028
 11
336.1362468512
 21
260.0006436129
  0
LINE
  5
323
100
AcDbEntity
  8
0
100
AcDbLine
 62
7
  6
CONTINUOUS
 10
252.1640646382
 20
400.032264597
 11
250.6640646382
 21
400.032264597
  0
LINE
  5
324
100
AcDbEntity
  8
0
100
AcDbLine
 62
7
  6
CONTINUOUS
 10
244.6640646382
 20
400.032264597
 11
243.1640646382
 21
400.032264597
  0
LINE
  5
325
100
AcDbEntity
  8
0
100
AcDbLine
 62
7
  6
CONTINUOUS
 10
243.1640646382
 20
404.032264597
 11
244.6640646382
 21
404.032264597
  0
LINE
  5
326
100
AcDbEntity
  8
0
100
AcDbLine
 62
7
  6
CONTINUOUS
 10
250.9140643997
 20
404.032264597
 11
252.6640648766
 21
404.032264597
  0
LINE
  5
327
100
AcDbEntity
  8
0
100
AcDbLine
 62
7
  6
CONTINUOUS
 10
250.4140648766
 20
415.7769454785
 11
249.1640646382
 21
416.032264597
  0
LINE
  5
328
100
AcDbEntity
  8
BEZUGSACHSEN
100
AcDbLine
 62
7
  6
CONTINUOUS
 10
261.7434176143
 20
467.8619384021
 11
266.7917783574
 21
461.6559691943
  0
LINE
  5
329
100
AcDbEntity
  8
BEZUGSACHSEN
100
AcDbLine
 62
7
  6
CONTINUOUS
 10
267.5675245084
 20
462.2870142872
 11
265.3118739316
 21
465.0598941854
  0
LINE
  5
32A
100
AcDbEntity
  8
BEZUGSACHSEN
100
AcDbLine
 62
7
  6
CONTINUOUS
 10
264.6674024242
 20
465.8521454791
 11
263.0562233548
 21
467.8327740835
  0
LINE
  5
32B
100
AcDbEntity
  8
BEZUGSACHSEN
100
AcDbLine
 62
7
  6
CONTINUOUS
 10
290.2308867637
 20
478.2390533918
 11
290.4371486774
 21
477.7430840039
  0
LINE
  5
32C
100
AcDbEntity
  8
BEZUGSACHSEN
100
AcDbLine
 62
7
  6
CONTINUOUS
 10
291.4340591192
 20
477.8216306205
 11
291.2277972055
 21
478.3176000083
  0
LINE
  5
32D
100
AcDbEntity
  8
BEZUGSACHSEN
100
AcDbLine
 62
7
  6
CONTINUOUS
 10
325.8764547253
 20
455.8323120067
 11
325.8338890265
 21
456.2041632493
  0
LINE
  5
32E
100
AcDbEntity
  8
0
100
AcDbLine
 62
7
  6
CONTINUOUS
 10
244.6640646382
 20
409.3939668007
 11
248.9140645189
 21
409.3939668007
  0
LINE
  5
32F
100
AcDbEntity
  8
0
100
AcDbLine
 62
7
  6
CONTINUOUS
 10
249.4140643997
 20
410.9258815117
 11
244.6640646382
 21
410.9258815117
  0
LINE
  5
330
100
AcDbEntity
  8
0
100
AcDbLine
 62
7
  6
CONTINUOUS
 10
244.6640646382
 20
414.7556690045
 11
249.4140643997
 21
414.7556690045
  0
LINE
  5
331
100
AcDbEntity
  8
0
100
AcDbLine
 62
7
  6
CONTINUOUS
 10
249.1640646382
 20
416.032264597
 11
243.1640646382
 21
416.032264597
  0
LINE
  5
332
100
AcDbEntity
  8
BEZUGSACHSEN
100
AcDbLine
 62
7
  6
CONTINUOUS
 10
255.7385857389
 20
460.9020747088
 11
261.9737089815
 21
455.8897660442
  0
LINE
  5
333
100
AcDbEntity
  8
BEZUGSACHSEN
100
AcDbLine
 62
7
  6
CONTINUOUS
 10
262.6002475646
 20
456.6691564495
 11
259.8143413953
 21
458.9086986506
  0
LINE
  5
334
100
AcDbEntity
  8
BEZUGSACHSEN
100
AcDbLine
 62
7
  6
CONTINUOUS
 10
259.0183683103
 20
459.5485677655
 11
257.0284352261
 21
461.1482408516
  0
LINE
  5
335
100
AcDbEntity
  8
BEZUGSACHSEN
100
AcDbLine
 62
7
  6
CONTINUOUS
 10
266.9329707378
 20
469.669877544
 11
267.2552067924
 21
469.2737515272
  0
LINE
  5
336
100
AcDbEntity
  8
BEZUGSACHSEN
100
AcDbLine
 62
7
  6
CONTINUOUS
 10
268.1383648613
 20
469.7727547378
 11
267.7087168888
 21
470.3009226369
  0
LINE
  5
337
100
AcDbEntity
  8
BEZUGSACHSEN
100
AcDbLine
 62
7
  6
CONTINUOUS
 10
312.6808778493
 20
465.5974816951
 11
313.0140275938
 21
464.6786719295
  0
LINE
  5
338
100
AcDbEntity
  8
BEZUGSACHSEN
100
AcDbLine
 62
7
  6
CONTINUOUS
 10
313.6749609118
 20
465.2401465295
 11
313.4962974444
 21
465.8180469366
  0
LINE
  5
339
100
AcDbEntity
  8
BEZUGSACHSEN
100
AcDbLine
 62
7
  6
CONTINUOUS
 10
317.2791975565
 20
466.2846469277
 11
317.457861024
 21
465.7067465206
  0
LINE
  5
33A
100
AcDbEntity
  8
BEZUGSACHSEN
100
AcDbLine
 62
7
  6
CONTINUOUS
 10
324.8553622079
 20
456.7548325461
 11
324.9901114747
 21
456.2441320331
  0
LINE
  5
33B
100
AcDbEntity
  8
KONSTRUKTIONSELEMENTE
100
AcDbLine
 62
7
  6
CONTINUOUS
 10
239.8280337141
 20
421.0006436129
 11
257.8550242887
 21
421.0006436129
  0
LINE
  5
33C
100
AcDbEntity
  8
KONSTRUKTIONSELEMENTE
100
AcDbLine
 62
7
  6
CONTINUOUS
 10
325.4174694137
 20
421.0006436129
 11
343.4444599883
 21
421.0006436129
  0
LINE
  5
33D
100
AcDbEntity
  8
BEZUGSACHSEN
100
AcDbLine
 62
7
  6
CONTINUOUS
 10
260.434985641
 20
463.755831635
 11
260.8329725552
 21
463.4358967788
  0
LINE
  5
33E
100
AcDbEntity
  8
BEZUGSACHSEN
100
AcDbLine
 62
7
  6
CONTINUOUS
 10
261.5921733191
 20
464.1086423316
 11
261.0615242241
 21
464.5352220403
  0
LINE
  5
33F
100
AcDbEntity
  8
BEZUGSACHSEN
100
AcDbLine
 62
7
  6
CONTINUOUS
 10
278.6731675879
 20
470.2294622351
 11
274.0194225345
 21
475.929434584
  0
LINE
  5
340
100
AcDbEntity
  8
BEZUGSACHSEN
100
AcDbLine
 62
7
  6
CONTINUOUS
 10
273.0842415297
 20
475.5752644438
 11
278.4114198535
 21
469.0382705628
  0
LINE
  5
341
100
AcDbEntity
  8
BEZUGSACHSEN
100
AcDbLine
 62
7
  6
CONTINUOUS
 10
318.2732805818
 20
465.9273117155
 11
317.9401337919
 21
466.8461190678
  0
LINE
  5
342
100
AcDbEntity
  8
BEZUGSACHSEN
100
AcDbLine
 62
7
  6
CONTINUOUS
 10
319.9471169754
 20
468.2935471557
 11
319.6139701855
 21
469.2123545079
  0
LINE
  5
343
100
AcDbEntity
  8
BEZUGSACHSEN
100
AcDbLine
 62
7
  6
CONTINUOUS
 10
318.9530339501
 20
468.6508823679
 11
319.1316974175
 21
468.0729819608
  0
LINE
  5
344
100
AcDbEntity
  8
BEZUGSACHSEN
100
AcDbLine
 62
7
  6
CONTINUOUS
 10
327.6914757452
 20
458.637759726
 11
327.826225012
 21
458.1270592131
  0
LINE
  5
345
100
AcDbEntity
  8
BEZUGSACHSEN
100
AcDbLine
 62
7
  6
CONTINUOUS
 10
313.9597503943
 20
464.7953237227
 11
313.6749609118
 21
465.2401465295
  0
LINE
  5
346
100
AcDbEntity
  8
BEZUGSACHSEN
100
AcDbLine
 62
7
  6
CONTINUOUS
 10
328.769242522
 20
458.5530880176
 11
328.4501261193
 21
459.3414870712
  0
LINE
  5
347
100
AcDbEntity
  8
BEZUGSACHSEN
100
AcDbLine
 62
7
  6
CONTINUOUS
 10
324.0259244961
 20
454.0035624546
 11
324.5435251344
 21
454.1471522877
  0
LINE
  5
348
100
AcDbEntity
  8
BEZUGSACHSEN
100
AcDbLine
 62
7
  6
CONTINUOUS
 10
324.1322209439
 20
455.0744069677
 11
323.6146204049
 21
454.9308172006
  0
LINE
  5
349
100
AcDbEntity
  8
BEZUGSACHSEN
100
AcDbLine
 62
7
  6
CONTINUOUS
 10
327.0038435911
 20
455.9806359145
 11
327.5214441301
 21
456.1242256816
  0
LINE
  5
34A
100
AcDbEntity
  8
BEZUGSACHSEN
100
AcDbLine
 62
7
  6
CONTINUOUS
 10
327.1101399395
 20
457.0514803616
 11
326.5925394006
 21
456.9078905945
  0
LINE
  5
34B
100
AcDbEntity
  8
BEZUGSACHSEN
100
AcDbLine
 62
7
  6
CONTINUOUS
 10
266.4814437124
 20
469.9608288082
 11
266.9329707378
 21
469.669877544
  0
LINE
  5
34C
100
AcDbEntity
  8
BEZUGSACHSEN
100
AcDbLine
 62
7
  6
CONTINUOUS
 10
267.7087168888
 20
470.3009226369
 11
267.2571898633
 21
470.591873901
  0
LINE
  5
34D
100
AcDbEntity
  8
BEZUGSACHSEN
100
AcDbLine
 62
7
  6
CONTINUOUS
 10
291.2277972055
 20
478.3176000083
 11
290.6758634435
 21
478.957074154
  0
LINE
  5
34E
100
AcDbEntity
  8
BEZUGSACHSEN
100
AcDbLine
 62
7
  6
CONTINUOUS
 10
313.0140275938
 20
464.6786719295
 11
313.5594264046
 21
464.0260197662
  0
LINE
  5
34F
100
AcDbEntity
  8
BEZUGSACHSEN
100
AcDbLine
 62
7
  6
CONTINUOUS
 10
319.5728200554
 20
458.2490416274
 11
321.7852594457
 21
454.9166082906
  0
LINE
  5
350
100
AcDbEntity
  8
BEZUGSACHSEN
100
AcDbLine
 62
7
  6
CONTINUOUS
 10
322.728277055
 20
455.3426371611
 11
320.9767639443
 21
457.980811434
  0
LINE
  5
351
100
AcDbEntity
  8
BEZUGSACHSEN
100
AcDbLine
 62
7
  6
CONTINUOUS
 10
323.1038490972
 20
459.393006819
 11
324.8553622079
 21
456.7548325461
  0
LINE
  5
352
100
AcDbEntity
  8
BEZUGSACHSEN
100
AcDbLine
 62
7
  6
CONTINUOUS
 10
325.7061961499
 20
457.3197106209
 11
323.9546830393
 21
459.9578848939
  0
LINE
  5
353
100
AcDbEntity
  8
BEZUGSACHSEN
100
AcDbLine
 62
7
  6
CONTINUOUS
 10
325.9399626345
 20
461.2759339989
 11
327.6914757452
 21
458.637759726
  0
LINE
  5
354
100
AcDbEntity
  8
BEZUGSACHSEN
100
AcDbLine
 62
7
  6
CONTINUOUS
 10
316.994408074
 20
466.7294697345
 11
317.2791975565
 21
466.2846469277
  0
LINE
  5
355
100
AcDbEntity
  8
BEZUGSACHSEN
100
AcDbLine
 62
7
  6
CONTINUOUS
 10
318.6682444676
 20
469.0957051747
 11
318.9530339501
 21
468.6508823679
  0
LINE
  5
356
100
AcDbEntity
  8
BEZUGSACHSEN
100
AcDbLine
 62
7
  6
CONTINUOUS
 10
315.93850799
 20
462.9996041819
 11
316.7539275851
 21
463.2201694234
  0
LINE
  5
357
100
AcDbEntity
  8
BEZUGSACHSEN
100
AcDbLine
 62
7
  6
CONTINUOUS
 10
259.9325761009
 20
463.9458679155
 11
260.434985641
 21
463.755831635
  0
LINE
  5
358
100
AcDbEntity
  8
BEZUGSACHSEN
100
AcDbLine
 62
7
  6
CONTINUOUS
 10
261.0615242241
 20
464.5352220403
 11
260.559114684
 21
464.7252583208
  0
LINE
  5
359
100
AcDbEntity
  8
BEZUGSACHSEN
100
AcDbLine
 62
7
  6
CONTINUOUS
 10
289.8718452802
 20
478.5522450131
 11
290.2308867637
 21
478.2390533918
  0
LINE
  5
35A
100
AcDbEntity
  8
BEZUGSACHSEN
100
AcDbLine
 62
7
  6
CONTINUOUS
 10
321.7852594457
 20
454.9166082906
 11
322.3879871748
 21
454.3165019369
  0
LINE
  5
35B
100
AcDbEntity
  8
BEZUGSACHSEN
100
AcDbLine
 62
7
  6
CONTINUOUS
 10
319.1853636182
 20
462.8852576051
 11
320.7607467654
 21
461.1640352342
  0
LINE
  5
35C
100
AcDbEntity
  8
BEZUGSACHSEN
100
AcDbLine
 62
7
  6
CONTINUOUS
 10
321.3885486812
 20
461.7386434746
 11
319.8131655341
 21
463.4598658455
  0
LINE
  5
35D
100
AcDbEntity
  8
BEZUGSACHSEN
100
AcDbLine
 62
7
  6
CONTINUOUS
 10
317.9401337919
 20
466.8461190678
 11
317.3947319894
 21
467.4987735978
  0
LINE
  5
35E
100
AcDbEntity
  8
BEZUGSACHSEN
100
AcDbLine
 62
7
  6
CONTINUOUS
 10
319.6139701855
 20
469.2123545079
 11
319.0685713654
 21
469.8650066596
  0
LINE
  5
35F
100
AcDbEntity
  8
BEZUGSACHSEN
100
AcDbLine
 62
7
  6
CONTINUOUS
 10
328.4501261193
 20
459.3414870712
 11
326.237686729
 21
462.673920408
  0
LINE
  5
360
100
AcDbEntity
  8
BEZUGSACHSEN
100
AcDbLine
 62
7
  6
CONTINUOUS
 10
316.8197929947
 20
470.7875088073
 11
316.0043734368
 21
470.5669436124
  0
LINE
  5
361
100
AcDbEntity
  8
BEZUGSACHSEN
100
AcDbLine
 62
7
  6
CONTINUOUS
 10
260.559114684
 20
464.7252583208
 11
259.7151966691
 21
464.7621425281
  0
LINE
  5
362
100
AcDbEntity
  8
BEZUGSACHSEN
100
AcDbLine
 62
7
  6
CONTINUOUS
 10
323.1821468947
 20
454.0435312055
 11
324.0259244961
 21
454.0035624546
  0
LINE
  5
363
100
AcDbEntity
  8
BEZUGSACHSEN
100
AcDbLine
 62
7
  6
CONTINUOUS
 10
326.1600660393
 20
456.0206046983
 11
327.0038435911
 21
455.9806359145
  0
LINE
  5
364
100
AcDbEntity
  8
BEZUGSACHSEN
100
AcDbLine
 62
7
  6
CONTINUOUS
 10
323.6146204049
 20
454.9308172006
 11
323.1466376357
 21
455.0202293398
  0
LINE
  5
365
100
AcDbEntity
  8
BEZUGSACHSEN
100
AcDbLine
 62
7
  6
CONTINUOUS
 10
326.5925394006
 20
456.9078905945
 11
326.1245567307
 21
456.9973027996
  0
LINE
  5
366
100
AcDbEntity
  8
BEZUGSACHSEN
100
AcDbLine
 62
7
  6
CONTINUOUS
 10
267.2571898633
 20
470.591873901
 11
266.4396691162
 21
470.8045188838
  0
LINE
  5
367
100
AcDbEntity
  8
BEZUGSACHSEN
100
AcDbLine
 62
7
  6
CONTINUOUS
 10
322.3879871748
 20
454.3165019369
 11
323.1821468947
 21
454.0435312055
  0
LINE
  5
368
100
AcDbEntity
  8
BEZUGSACHSEN
100
AcDbLine
 62
7
  6
CONTINUOUS
 10
314.2109512398
 20
463.5064452149
 11
314.9686050818
 21
463.1199458972
  0
LINE
  5
369
100
AcDbEntity
  8
BEZUGSACHSEN
100
AcDbLine
 62
7
  6
CONTINUOUS
 10
325.8338890265
 20
456.2041632493
 11
326.1600660393
 21
456.0206046983
  0
LINE
  5
36A
100
AcDbEntity
  8
BEZUGSACHSEN
100
AcDbLine
 62
7
  6
CONTINUOUS
 10
309.4171106264
 20
466.8191004758
 11
310.2832842313
 21
466.3193572556
  0
LINE
  5
36B
100
AcDbEntity
  8
BEZUGSACHSEN
100
AcDbLine
 62
7
  6
CONTINUOUS
 10
290.6758634435
 20
478.957074154
 11
289.9711463089
 21
479.4137702335
  0
LINE
  5
36C
100
AcDbEntity
  8
BEZUGSACHSEN
100
AcDbLine
 62
7
  6
CONTINUOUS
 10
323.1466376357
 20
455.0202293398
 11
322.728277055
 21
455.3426371611
  0
LINE
  5
36D
100
AcDbEntity
  8
BEZUGSACHSEN
100
AcDbLine
 62
7
  6
CONTINUOUS
 10
326.1245567307
 20
456.9973027996
 11
325.7061961499
 21
457.3197106209
  0
LINE
  5
36E
100
AcDbEntity
  8
BEZUGSACHSEN
100
AcDbLine
 62
7
  6
CONTINUOUS
 10
313.5594264046
 20
464.0260197662
 11
314.2109512398
 21
463.5064452149
  0
LINE
  5
36F
100
AcDbEntity
  8
BEZUGSACHSEN
100
AcDbLine
 62
7
  6
CONTINUOUS
 10
314.8718875495
 20
464.0679174482
 11
313.9597503943
 21
464.7953237227
  0
LINE
  5
370
100
AcDbEntity
  8
BEZUGSACHSEN
100
AcDbLine
 62
7
  6
CONTINUOUS
 10
316.0822709188
 20
467.456876009
 11
316.994408074
 21
466.7294697345
  0
LINE
  5
371
100
AcDbEntity
  8
BEZUGSACHSEN
100
AcDbLine
 62
7
  6
CONTINUOUS
 10
317.3947319894
 20
467.4987735978
 11
316.7432071542
 21
468.0183481491
  0
LINE
  5
372
100
AcDbEntity
  8
BEZUGSACHSEN
100
AcDbLine
 62
7
  6
CONTINUOUS
 10
319.0739316923
 20
467.4659174365
 11
319.7254565275
 21
466.9463428852
  0
LINE
  5
373
100
AcDbEntity
  8
BEZUGSACHSEN
100
AcDbLine
 62
7
  6
CONTINUOUS
 10
317.8864134724
 20
469.7191955876
 11
318.6682444676
 21
469.0957051747
  0
LINE
  5
374
100
AcDbEntity
  8
BEZUGSACHSEN
100
AcDbLine
 62
7
  6
CONTINUOUS
 10
319.0685713654
 20
469.8650066596
 11
318.5473497078
 21
470.2806677276
  0
LINE
  5
375
100
AcDbEntity
  8
BEZUGSACHSEN
100
AcDbLine
 62
7
  6
CONTINUOUS
 10
259.7151966691
 20
464.7621425281
 11
258.8995178375
 21
464.5624836059
  0
LINE
  5
376
100
AcDbEntity
  8
BEZUGSACHSEN
100
AcDbLine
 62
7
  6
CONTINUOUS
 10
283.494011644
 20
470.6400778726
 11
284.4705994422
 21
470.8551970775
  0
LINE
  5
377
100
AcDbEntity
  8
BEZUGSACHSEN
100
AcDbLine
 62
7
  6
CONTINUOUS
 10
314.5092005107
 20
467.6228077651
 11
314.9820618784
 21
467.6811336209
  0
LINE
  5
378
100
AcDbEntity
  8
BEZUGSACHSEN
100
AcDbLine
 62
7
  6
CONTINUOUS
 10
259.4584054453
 20
463.8993606948
 11
259.9325761009
 21
463.9458679155
  0
LINE
  5
379
100
AcDbEntity
  8
BEZUGSACHSEN
100
AcDbLine
 62
7
  6
CONTINUOUS
 10
285.7677504048
 20
471.2285316823
 11
286.7646608466
 21
471.3070782988
  0
LINE
  5
37A
100
AcDbEntity
  8
BEZUGSACHSEN
100
AcDbLine
 62
7
  6
CONTINUOUS
 10
266.4396691162
 20
470.8045188838
 11
265.6002690153
 21
470.7799476015
  0
LINE
  5
37B
100
AcDbEntity
  8
BEZUGSACHSEN
100
AcDbLine
 62
7
  6
CONTINUOUS
 10
315.9720965899
 20
463.8436598363
 11
315.3689290622
 21
463.8892498421
  0
LINE
  5
37C
100
AcDbEntity
  8
BEZUGSACHSEN
100
AcDbLine
 62
7
  6
CONTINUOUS
 10
314.9820618784
 20
467.6811336209
 11
315.5852294061
 21
467.6355436152
  0
LINE
  5
37D
100
AcDbEntity
  8
BEZUGSACHSEN
100
AcDbLine
 62
7
  6
CONTINUOUS
 10
315.985556304
 20
468.4048451
 11
314.7792212485
 21
468.4960251116
  0
LINE
  5
37E
100
AcDbEntity
  8
BEZUGSACHSEN
100
AcDbLine
 62
7
  6
CONTINUOUS
 10
316.786204432
 20
469.9434531995
 11
317.3893719598
 21
469.8978631937
  0
LINE
  5
37F
100
AcDbEntity
  8
BEZUGSACHSEN
100
AcDbLine
 62
7
  6
CONTINUOUS
 10
266.0080380728
 20
470.0145644091
 11
266.4814437124
 21
469.9608288082
  0
LINE
  5
380
100
AcDbEntity
  8
BEZUGSACHSEN
100
AcDbLine
 62
7
  6
CONTINUOUS
 10
314.9686050818
 20
463.1199458972
 11
315.93850799
 21
462.9996041819
  0
LINE
  5
381
100
AcDbEntity
  8
BEZUGSACHSEN
100
AcDbLine
 62
7
  6
CONTINUOUS
 10
317.7896988576
 20
470.6671646786
 11
316.8197929947
 21
470.7875088073
  0
LINE
  5
382
100
AcDbEntity
  8
BEZUGSACHSEN
100
AcDbLine
 62
7
  6
CONTINUOUS
 10
298.8562468512
 20
472.2085442841
 11
299.8728071201
 21
471.8475608999
  0
LINE
  5
383
100
AcDbEntity
  8
BEZUGSACHSEN
100
AcDbLine
 62
7
  6
CONTINUOUS
 10
315.3689290622
 20
463.8892498421
 11
314.8718875495
 21
464.0679174482
  0
LINE
  5
384
100
AcDbEntity
  8
BEZUGSACHSEN
100
AcDbLine
 62
7
  6
CONTINUOUS
 10
315.5852294061
 20
467.6355436152
 11
316.0822709188
 21
467.456876009
  0
LINE
  5
385
100
AcDbEntity
  8
BEZUGSACHSEN
100
AcDbLine
 62
7
  6
CONTINUOUS
 10
317.3893719598
 20
469.8978631937
 11
317.8864134724
 21
469.7191955876
  0
LINE
  5
386
100
AcDbEntity
  8
BEZUGSACHSEN
100
AcDbLine
 62
7
  6
CONTINUOUS
 10
316.7432071542
 20
468.0183481491
 11
315.985556304
 21
468.4048451
  0
LINE
  5
387
100
AcDbEntity
  8
BEZUGSACHSEN
100
AcDbLine
 62
7
  6
CONTINUOUS
 10
318.5473497078
 20
470.2806677276
 11
317.7896988576
 21
470.6671646786
  0
LINE
  5
388
100
AcDbEntity
  8
BEZUGSACHSEN
100
AcDbLine
 62
7
  6
CONTINUOUS
 10
307.2162468512
 20
474.5431161409
 11
306.3762468512
 21
474.988248732
  0
LINE
  5
389
100
AcDbEntity
  8
BEZUGSACHSEN
100
AcDbLine
 62
7
  6
CONTINUOUS
 10
314.281229993
 20
473.2487460949
 11
313.4150563881
 21
473.7484893151
  0
LINE
  5
38A
100
AcDbEntity
  8
BEZUGSACHSEN
100
AcDbLine
 62
7
  6
CONTINUOUS
 10
282.7496458035
 20
478.6678994635
 11
281.7730580053
 21
478.4527802587
  0
LINE
  5
38B
100
AcDbEntity
  8
BEZUGSACHSEN
100
AcDbLine
 62
7
  6
CONTINUOUS
 10
286.4838984686
 20
474.8705029074
 11
289.4746297941
 21
475.1061427571
  0
LINE
  5
38C
100
AcDbEntity
  8
BEZUGSACHSEN
100
AcDbLine
 62
7
  6
CONTINUOUS
 10
289.5605649904
 20
476.1373551406
 11
286.403680657
 21
475.8886240883
  0
LINE
  5
38D
100
AcDbEntity
  8
BEZUGSACHSEN
100
AcDbLine
 62
7
  6
CONTINUOUS
 10
286.2031360906
 20
478.433927516
 11
289.360020424
 21
478.6826585683
  0
LINE
  5
38E
100
AcDbEntity
  8
BEZUGSACHSEN
100
AcDbLine
 62
7
  6
CONTINUOUS
 10
289.1270192397
 20
479.5180016831
 11
285.1393774724
 21
479.2038152169
  0
LINE
  5
38F
100
AcDbEntity
  8
BEZUGSACHSEN
100
AcDbLine
 62
7
  6
CONTINUOUS
 10
289.9711463089
 20
479.4137702335
 11
289.1270192397
 21
479.5180016831
  0
LINE
  5
390
100
AcDbEntity
  8
BEZUGSACHSEN
100
AcDbLine
 62
7
  6
CONTINUOUS
 10
289.360020424
 20
478.6826585683
 11
289.8718452802
 21
478.5522450131
  0
LINE
  5
391
100
AcDbEntity
  8
0
100
AcDbLine
 62
7
  6
CONTINUOUS
 10
332.0609860734
 20
235.5006436129
 11
335.6362468512
 21
238.5006436129
  0
LINE
  5
392
100
AcDbEntity
  8
0
100
AcDbLine
 62
7
  6
CONTINUOUS
 10
455.4333380393
 20
235.5006436129
 11
536.2828164837
 21
235.5006436129
  0
LINE
  5
393
100
AcDbEntity
  8
0
100
AcDbLine
 62
7
  6
CONTINUOUS
 10
539.8580772615
 20
238.5006436129
 11
451.8580772615
 21
238.5006436129
  0
LINE
  5
394
100
AcDbEntity
  8
0
100
AcDbLine
 62
7
  6
CONTINUOUS
 10
455.4333380393
 20
235.5006436129
 11
451.8580772615
 21
238.5006436129
  0
LINE
  5
395
100
AcDbEntity
  8
RUNDUNGEN
100
AcDbLine
 62
7
  6
CONTINUOUS
 10
523.9249972723
 20
282.5006436129
 11
467.7911577699
 21
282.5006436129
  0
LINE
  5
396
100
AcDbEntity
  8
0
100
AcDbLine
 62
7
  6
CONTINUOUS
 10
465.7693537355
 20
316.0256435533
 11
466.4076518894
 21
315.7756436129
  0
LINE
  5
397
100
AcDbEntity
  8
0
100
AcDbLine
 62
7
  6
CONTINUOUS
 10
466.1523324132
 20
316.5256436129
 11
465.7693537355
 21
316.7756437322
  0
LINE
  5
398
100
AcDbEntity
  8
0
100
AcDbLine
 62
7
  6
CONTINUOUS
 10
465.2587154985
 20
316.4006437322
 11
465.7693537355
 21
316.0256435533
  0
LINE
  5
399
100
AcDbEntity
  8
0
100
AcDbLine
 62
7
  6
CONTINUOUS
 10
464.7480772615
 20
313.9006436129
 11
465.6416941762
 21
313.1506436129
  0
LINE
  5
39A
100
AcDbEntity
  8
0
100
AcDbLine
 62
7
  6
CONTINUOUS
 10
466.6629710079
 20
313.1506436129
 11
465.7693537355
 21
313.9006436129
  0
LINE
  5
39B
100
AcDbEntity
  8
0
100
AcDbLine
 62
7
  6
CONTINUOUS
 10
464.9980772615
 20
310.2751642873
 11
465.5380772615
 21
309.5386972137
  0
LINE
  5
39C
100
AcDbEntity
  8
0
100
AcDbLine
 62
7
  6
CONTINUOUS
 10
466.0383422161
 20
308.8564219042
 11
468.8258149783
 21
305.0547887415
  0
LINE
  5
39D
100
AcDbEntity
  8
0
100
AcDbLine
 62
7
  6
CONTINUOUS
 10
469.3260799329
 20
304.3725134321
 11
470.2780772615
 21
303.0741529012
  0
LINE
  5
39E
100
AcDbEntity
  8
0
100
AcDbLine
 62
7
  6
CONTINUOUS
 10
470.2780772615
 20
303.9441529012
 11
469.7478311192
 21
304.6673173914
  0
LINE
  5
39F
100
AcDbEntity
  8
0
100
AcDbLine
 62
7
  6
CONTINUOUS
 10
469.2500229059
 20
305.3462421286
 11
466.4438680356
 21
309.1733544716
  0
LINE
  5
3A0
100
AcDbEntity
  8
0
100
AcDbLine
 62
7
  6
CONTINUOUS
 10
465.9460598223
 20
309.8522792088
 11
464.9980772615
 21
311.1451642873
  0
LINE
  5
3A1
100
AcDbEntity
  8
0
100
AcDbLine
 62
7
  6
CONTINUOUS
 10
451.8580772615
 20
309.1608976508
 11
451.8580772615
 21
238.5006436129
  0
LINE
  5
3A2
100
AcDbEntity
  8
0
100
AcDbLine
 62
7
  6
CONTINUOUS
 10
529.8462138213
 20
313.1074519875
 11
528.3353782509
 21
313.1074519875
  0
LINE
  5
3A3
100
AcDbEntity
  8
0
100
AcDbLine
 62
7
  6
CONTINUOUS
 10
521.4071750206
 20
313.1074519875
 11
519.8963394502
 21
313.1074519875
  0
LINE
  5
3A4
100
AcDbEntity
  8
0
100
AcDbLine
 62
7
  6
CONTINUOUS
 10
465.6416941762
 20
313.1506436129
 11
466.6629710079
 21
313.1506436129
  0
LINE
  5
3A5
100
AcDbEntity
  8
0
100
AcDbLine
 62
7
  6
CONTINUOUS
 10
465.7693537355
 20
313.9006436129
 11
470.7480772615
 21
313.9006436129
  0
LINE
  5
3A6
100
AcDbEntity
  8
0
100
AcDbLine
 62
7
  6
CONTINUOUS
 10
470.7480772615
 20
314.6506436129
 11
464.7480772615
 21
314.6506436129
  0
LINE
  5
3A7
100
AcDbEntity
  8
0
100
AcDbLine
 62
7
  6
CONTINUOUS
 10
467.3012688041
 20
315.6506435533
 11
468.1948857188
 21
315.6506435533
  0
LINE
  5
3A8
100
AcDbEntity
  8
0
100
AcDbLine
 62
7
  6
CONTINUOUS
 10
467.5565879226
 20
316.2756434937
 11
467.3012688041
 21
316.2756434937
  0
LINE
  5
3A9
100
AcDbEntity
  8
0
100
AcDbLine
 62
7
  6
CONTINUOUS
 10
468.9608432532
 20
316.4006437322
 11
468.5778645754
 21
316.4006437322
  0
LINE
  5
3AA
100
AcDbEntity
  8
0
100
AcDbLine
 62
7
  6
CONTINUOUS
 10
466.4076518894
 20
315.7756436129
 11
467.3012688041
 21
315.6506435533
  0
LINE
  5
3AB
100
AcDbEntity
  8
0
100
AcDbLine
 62
7
  6
CONTINUOUS
 10
467.3012688041
 20
316.2756434937
 11
466.5353114486
 21
316.4006437322
  0
LINE
  5
3AC
100
AcDbEntity
  8
0
100
AcDbLine
 62
7
  6
CONTINUOUS
 10
466.5353114486
 20
316.4006437322
 11
466.1523324132
 21
316.5256436129
  0
LINE
  5
3AD
100
AcDbEntity
  8
0
100
AcDbLine
 62
7
  6
CONTINUOUS
 10
468.5778645754
 20
316.4006437322
 11
468.1948857188
 21
316.5256436129
  0
LINE
  5
3AE
100
AcDbEntity
  8
0
100
AcDbLine
 62
7
  6
CONTINUOUS
 10
468.9608432532
 20
319.5256436129
 11
469.3438219309
 21
319.4006433745
  0
LINE
  5
3AF
100
AcDbEntity
  8
0
100
AcDbLine
 62
7
  6
CONTINUOUS
 10
469.7268006981
 20
319.9006436129
 11
469.0885028124
 21
320.1506433745
  0
LINE
  5
3B0
100
AcDbEntity
  8
0
100
AcDbLine
 62
7
  6
CONTINUOUS
 10
469.3438219309
 20
319.4006433745
 11
469.7268006981
 21
319.1506436129
  0
LINE
  5
3B1
100
AcDbEntity
  8
0
100
AcDbLine
 62
7
  6
CONTINUOUS
 10
470.2374389798
 20
319.5256436129
 11
469.7268006981
 21
319.9006436129
  0
LINE
  5
3B2
100
AcDbEntity
  8
0
100
AcDbLine
 62
7
  6
CONTINUOUS
 10
468.1948857188
 20
316.5256436129
 11
467.9395666003
 21
316.7756437322
  0
LINE
  5
3B3
100
AcDbEntity
  8
0
100
AcDbLine
 62
7
  6
CONTINUOUS
 10
465.7693537355
 20
316.7756437322
 11
465.514034617
 21
317.1506437322
  0
LINE
  5
3B4
100
AcDbEntity
  8
0
100
AcDbLine
 62
7
  6
CONTINUOUS
 10
467.0459496856
 20
317.0256434937
 11
467.5565879226
 21
316.2756434937
  0
LINE
  5
3B5
100
AcDbEntity
  8
0
100
AcDbLine
 62
7
  6
CONTINUOUS
 10
467.9395666003
 20
316.7756437322
 11
467.6842474818
 21
317.1506437322
  0
LINE
  5
3B6
100
AcDbEntity
  8
0
100
AcDbLine
 62
7
  6
CONTINUOUS
 10
469.7268006981
 20
319.1506436129
 11
469.9821198166
 21
318.7756436129
  0
LINE
  5
3B7
100
AcDbEntity
  8
0
100
AcDbLine
 62
7
  6
CONTINUOUS
 10
464.8757368207
 20
317.0256434937
 11
465.2587154985
 21
316.4006437322
  0
LINE
  5
3B8
100
AcDbEntity
  8
0
100
AcDbLine
 62
7
  6
CONTINUOUS
 10
470.620417691
 20
318.9006434937
 11
470.2374389798
 21
319.5256436129
  0
LINE
  5
3B9
100
AcDbEntity
  8
RUNDUNGEN
100
AcDbLine
 62
7
  6
CONTINUOUS
 10
455.8580772615
 20
318.1182124593
 11
455.8580772615
 21
347.670560417
  0
LINE
  5
3BA
100
AcDbEntity
  8
0
100
AcDbLine
 62
7
  6
CONTINUOUS
 10
468.1948857188
 20
315.6506435533
 11
469.0885028124
 21
315.7756436129
  0
LINE
  5
3BB
100
AcDbEntity
  8
0
100
AcDbLine
 62
7
  6
CONTINUOUS
 10
468.5778645754
 20
319.5256436129
 11
468.9608432532
 21
319.5256436129
  0
LINE
  5
3BC
100
AcDbEntity
  8
0
100
AcDbLine
 62
7
  6
CONTINUOUS
 10
469.0885028124
 20
320.1506433745
 11
468.4502048373
 21
320.1506433745
  0
LINE
  5
3BD
100
AcDbEntity
  8
0
100
AcDbLine
 62
7
  6
CONTINUOUS
 10
525.6212766357
 20
320.6074519875
 11
524.1104410653
 21
320.6074519875
  0
LINE
  5
3BE
100
AcDbEntity
  8
0
100
AcDbLine
 62
7
  6
CONTINUOUS
 10
529.8462138213
 20
321.6074519875
 11
528.3353782509
 21
321.6074519875
  0
LINE
  5
3BF
100
AcDbEntity
  8
0
100
AcDbLine
 62
7
  6
CONTINUOUS
 10
521.4071750206
 20
321.6074519875
 11
519.8963394502
 21
321.6074519875
  0
LINE
  5
3C0
100
AcDbEntity
  8
0
100
AcDbLine
 62
7
  6
CONTINUOUS
 10
465.514034617
 20
317.1506437322
 11
465.3863750577
 21
317.5256437322
  0
LINE
  5
3C1
100
AcDbEntity
  8
0
100
AcDbLine
 62
7
  6
CONTINUOUS
 10
467.6842474818
 20
317.1506437322
 11
467.5565879226
 21
317.5256437322
  0
LINE
  5
3C2
100
AcDbEntity
  8
0
100
AcDbLine
 62
7
  6
CONTINUOUS
 10
469.9821198166
 20
318.7756436129
 11
470.1097793758
 21
318.4006436129
  0
LINE
  5
3C3
100
AcDbEntity
  8
0
100
AcDbLine
 62
7
  6
CONTINUOUS
 10
464.7480772615
 20
317.6506436129
 11
464.8757368207
 21
317.0256434937
  0
LINE
  5
3C4
100
AcDbEntity
  8
0
100
AcDbLine
 62
7
  6
CONTINUOUS
 10
466.9182901264
 20
317.6506436129
 11
467.0459496856
 21
317.0256434937
  0
LINE
  5
3C5
100
AcDbEntity
  8
0
100
AcDbLine
 62
7
  6
CONTINUOUS
 10
464.7480772615
 20
318.1506434937
 11
464.7480772615
 21
317.6506436129
  0
LINE
  5
3C6
100
AcDbEntity
  8
0
100
AcDbLine
 62
7
  6
CONTINUOUS
 10
464.7480772615
 20
314.6506436129
 11
464.7480772615
 21
313.9006436129
  0
LINE
  5
3C7
100
AcDbEntity
  8
0
100
AcDbLine
 62
7
  6
CONTINUOUS
 10
464.9980772615
 20
311.1451642873
 11
464.9980772615
 21
310.2751642873
  0
LINE
  5
3C8
100
AcDbEntity
  8
0
100
AcDbLine
 62
7
  6
CONTINUOUS
 10
465.3863750577
 20
317.5256437322
 11
465.3863750577
 21
318.2756437322
  0
LINE
  5
3C9
100
AcDbEntity
  8
0
100
AcDbLine
 62
7
  6
CONTINUOUS
 10
466.1523324132
 20
319.2756438514
 11
466.1523324132
 21
319.9006436129
  0
LINE
  5
3CA
100
AcDbEntity
  8
0
100
AcDbLine
 62
7
  6
CONTINUOUS
 10
466.9182901264
 20
318.2756437322
 11
466.9182901264
 21
317.6506436129
  0
LINE
  5
3CB
100
AcDbEntity
  8
0
100
AcDbLine
 62
7
  6
CONTINUOUS
 10
467.5565879226
 20
317.5256437322
 11
467.5565879226
 21
318.4006436129
  0
LINE
  5
3CC
100
AcDbEntity
  8
0
100
AcDbLine
 62
7
  6
CONTINUOUS
 10
470.1097793758
 20
318.4006436129
 11
470.1097793758
 21
317.5256437322
  0
LINE
  5
3CD
100
AcDbEntity
  8
0
100
AcDbLine
 62
7
  6
CONTINUOUS
 10
470.2780772615
 20
303.0741529012
 11
470.2780772615
 21
303.9441529012
  0
LINE
  5
3CE
100
AcDbEntity
  8
RUNDUNGEN
100
AcDbLine
 62
7
  6
CONTINUOUS
 10
460.6637909842
 20
355.7950260465
 11
456.5814690843
 21
349.9648661624
  0
LINE
  5
3CF
100
AcDbEntity
  8
0
100
AcDbLine
 62
7
  6
CONTINUOUS
 10
470.7480772615
 20
318.2756437322
 11
470.620417691
 21
318.9006434937
  0
LINE
  5
3D0
100
AcDbEntity
  8
0
100
AcDbLine
 62
7
  6
CONTINUOUS
 10
470.7480772615
 20
313.9006436129
 11
470.7480772615
 21
314.6506436129
  0
LINE
  5
3D1
100
AcDbEntity
  8
0
100
AcDbLine
 62
7
  6
CONTINUOUS
 10
470.7480772615
 20
317.6506436129
 11
470.7480772615
 21
318.2756437322
  0
LINE
  5
3D2
100
AcDbEntity
  8
0
100
AcDbLine
 62
7
  6
CONTINUOUS
 10
464.8757368207
 20
318.7756436129
 11
464.7480772615
 21
318.1506434937
  0
LINE
  5
3D3
100
AcDbEntity
  8
0
100
AcDbLine
 62
7
  6
CONTINUOUS
 10
467.0459496856
 20
318.9006434937
 11
466.9182901264
 21
318.2756437322
  0
LINE
  5
3D4
100
AcDbEntity
  8
KONSTRUKTIONSELEMENTE
100
AcDbLine
 62
7
  6
CONTINUOUS
 10
483.8580772615
 20
475.5006436129
 11
483.8580772615
 21
435.9243670206
  0
LINE
  5
3D5
100
AcDbEntity
  8
KONSTRUKTIONSELEMENTE
100
AcDbLine
 62
7
  6
CONTINUOUS
 10
483.8580772615
 20
351.0782453069
 11
483.8580772615
 21
311.5006436129
  0
LINE
  5
3D6
100
AcDbEntity
  8
KONSTRUKTIONSELEMENTE
100
AcDbLine
 62
7
  6
CONTINUOUS
 10
487.8580772615
 20
421.0006436129
 11
487.8580772615
 21
366.0006436129
  0
LINE
  5
3D7
100
AcDbEntity
  8
0
100
AcDbLine
 62
7
  6
CONTINUOUS
 10
470.620417691
 20
317.0256434937
 11
470.7480772615
 21
317.6506436129
  0
LINE
  5
3D8
100
AcDbEntity
  8
KONSTRUKTIONSELEMENTE
100
AcDbLine
 62
7
  6
CONTINUOUS
 10
483.858003359
 20
351.0721645747
 11
487.8580772615
 21
366.0006436129
  0
LINE
  5
3D9
100
AcDbEntity
  8
0
100
AcDbLine
 62
7
  6
CONTINUOUS
 10
465.3863750577
 20
318.2756437322
 11
465.514034617
 21
318.6506437322
  0
LINE
  5
3DA
100
AcDbEntity
  8
0
100
AcDbLine
 62
7
  6
CONTINUOUS
 10
467.5565879226
 20
318.4006436129
 11
467.6842474818
 21
318.7756436129
  0
LINE
  5
3DB
100
AcDbEntity
  8
0
100
AcDbLine
 62
7
  6
CONTINUOUS
 10
470.1097793758
 20
317.5256437322
 11
469.9821198166
 21
317.1506437322
  0
LINE
  5
3DC
100
AcDbEntity
  8
RUNDUNGEN
100
AcDbLine
 62
7
  6
CONTINUOUS
 10
455.1882042804
 20
316.2685928054
 11
452.5279502426
 21
311.6608976508
  0
LINE
  5
3DD
100
AcDbEntity
  8
KONSTRUKTIONSELEMENTE
100
AcDbLine
 62
7
  6
CONTINUOUS
 10
507.8581516528
 20
435.9291244756
 11
503.8580772615
 21
421.0006436129
  0
LINE
  5
3DE
100
AcDbEntity
  8
0
100
AcDbLine
 62
7
  6
CONTINUOUS
 10
465.2587154985
 20
319.4006433745
 11
464.8757368207
 21
318.7756436129
  0
LINE
  5
3DF
100
AcDbEntity
  8
0
100
AcDbLine
 62
7
  6
CONTINUOUS
 10
467.4289283633
 20
319.5256436129
 11
467.0459496856
 21
318.9006434937
  0
LINE
  5
3E0
100
AcDbEntity
  8
0
100
AcDbLine
 62
7
  6
CONTINUOUS
 10
465.514034617
 20
318.6506437322
 11
465.7693537355
 21
319.0256437322
  0
LINE
  5
3E1
100
AcDbEntity
  8
0
100
AcDbLine
 62
7
  6
CONTINUOUS
 10
467.6842474818
 20
318.7756436129
 11
467.9395666003
 21
319.1506436129
  0
LINE
  5
3E2
100
AcDbEntity
  8
0
100
AcDbLine
 62
7
  6
CONTINUOUS
 10
463.9166916041
 20
357.5006436129
 11
477.5619027979
 21
357.5006436129
  0
LINE
  5
3E3
100
AcDbEntity
  8
0
100
AcDbLine
 62
7
  6
CONTINUOUS
 10
514.154251725
 20
357.5006436129
 11
527.7994629139
 21
357.5006436129
  0
LINE
  5
3E4
100
AcDbEntity
  8
KONSTRUKTIONSELEMENTE
100
AcDbLine
 62
7
  6
CONTINUOUS
 10
503.8580772615
 20
421.0006436129
 11
503.8580772615
 21
366.0006436129
  0
LINE
  5
3E5
100
AcDbEntity
  8
0
100
AcDbLine
 62
7
  6
CONTINUOUS
 10
504.8580772615
 20
416.032264597
 11
504.8580772615
 21
404.032264597
  0
LINE
  5
3E6
100
AcDbEntity
  8
0
100
AcDbLine
 62
7
  6
CONTINUOUS
 10
504.8580772615
 20
400.032264597
 11
504.8580772615
 21
388.032264597
  0
LINE
  5
3E7
100
AcDbEntity
  8
0
100
AcDbLine
 62
7
  6
CONTINUOUS
 10
504.8580772615
 20
385.032264597
 11
504.8580772615
 21
373.032264597
  0
LINE
  5
3E8
100
AcDbEntity
  8
0
100
AcDbLine
 62
7
  6
CONTINUOUS
 10
470.2374389798
 20
316.4006437322
 11
470.620417691
 21
317.0256434937
  0
LINE
  5
3E9
100
AcDbEntity
  8
0
100
AcDbLine
 62
7
  6
CONTINUOUS
 10
469.9821198166
 20
317.1506437322
 11
469.7268006981
 21
316.7756437322
  0
LINE
  5
3EA
100
AcDbEntity
  8
KONSTRUKTIONSELEMENTE
100
AcDbLine
 62
7
  6
CONTINUOUS
 10
487.8580772615
 20
421.0006436129
 11
483.8580196658
 21
435.9290617932
  0
LINE
  5
3EB
100
AcDbEntity
  8
KONSTRUKTIONSELEMENTE
100
AcDbLine
 62
7
  6
CONTINUOUS
 10
503.8580772615
 20
366.0006436129
 11
507.8581348357
 21
351.0722255126
  0
LINE
  5
3EC
100
AcDbEntity
  8
KONSTRUKTIONSELEMENTE
100
AcDbLine
 62
7
  6
CONTINUOUS
 10
507.8580772615
 20
472.2036884813
 11
507.8580772615
 21
470.8045188838
  0
LINE
  5
3ED
100
AcDbEntity
  8
KONSTRUKTIONSELEMENTE
100
AcDbLine
 62
7
  6
CONTINUOUS
 10
507.8580772615
 20
458.2692685876
 11
507.8580772615
 21
435.923008727
  0
LINE
  5
3EE
100
AcDbEntity
  8
KONSTRUKTIONSELEMENTE
100
AcDbLine
 62
7
  6
CONTINUOUS
 10
507.8580772615
 20
351.0769184235
 11
507.8580772615
 21
311.5006436129
  0
LINE
  5
3EF
100
AcDbEntity
  8
BEZUGSACHSEN
100
AcDbLine
 62
7
  6
CONTINUOUS
 10
508.8580772615
 20
479.5180016831
 11
508.8580772615
 21
454.0035624546
  0
LINE
  5
3F0
100
AcDbEntity
  8
0
100
AcDbLine
 62
7
  6
CONTINUOUS
 10
467.8119070411
 20
319.9006436129
 11
467.4289283633
 21
319.5256436129
  0
LINE
  5
3F1
100
AcDbEntity
  8
0
100
AcDbLine
 62
7
  6
CONTINUOUS
 10
467.9395666003
 20
319.1506436129
 11
468.1948857188
 21
319.4006433745
  0
LINE
  5
3F2
100
AcDbEntity
  8
0
100
AcDbLine
 62
7
  6
CONTINUOUS
 10
465.7693537355
 20
319.7756433745
 11
465.2587154985
 21
319.4006433745
  0
LINE
  5
3F3
100
AcDbEntity
  8
0
100
AcDbLine
 62
7
  6
CONTINUOUS
 10
503.8580772615
 20
373.032264597
 11
504.8580772615
 21
373.032264597
  0
LINE
  5
3F4
100
AcDbEntity
  8
RUNDUNGEN
100
AcDbLine
 62
7
  6
CONTINUOUS
 10
539.1882042804
 20
311.6608976508
 11
536.5279502426
 21
316.2685928054
  0
LINE
  5
3F5
100
AcDbEntity
  8
0
100
AcDbLine
 62
7
  6
CONTINUOUS
 10
469.7268006981
 20
316.0256435533
 11
470.2374389798
 21
316.4006437322
  0
LINE
  5
3F6
100
AcDbEntity
  8
0
100
AcDbLine
 62
7
  6
CONTINUOUS
 10
465.7693537355
 20
319.0256437322
 11
466.1523324132
 21
319.2756438514
  0
LINE
  5
3F7
100
AcDbEntity
  8
0
100
AcDbLine
 62
7
  6
CONTINUOUS
 10
469.7268006981
 20
316.7756437322
 11
469.3438219309
 21
316.5256436129
  0
LINE
  5
3F8
100
AcDbEntity
  8
0
100
AcDbLine
 62
7
  6
CONTINUOUS
 10
503.8580772615
 20
385.032264597
 11
504.8580772615
 21
385.032264597
  0
LINE
  5
3F9
100
AcDbEntity
  8
0
100
AcDbLine
 62
7
  6
CONTINUOUS
 10
503.8580772615
 20
388.032264597
 11
504.8580772615
 21
388.032264597
  0
LINE
  5
3FA
100
AcDbEntity
  8
0
100
AcDbLine
 62
7
  6
CONTINUOUS
 10
503.8580772615
 20
388.2875837378
 11
504.8580772615
 21
388.2875837378
  0
LINE
  5
3FB
100
AcDbEntity
  8
0
100
AcDbLine
 62
7
  6
CONTINUOUS
 10
503.8580772615
 20
388.7982220419
 11
504.8580772615
 21
388.7982220419
  0
LINE
  5
3FC
100
AcDbEntity
  8
RUNDUNGEN
100
AcDbLine
 62
7
  6
CONTINUOUS
 10
531.0523635229
 20
355.7950260693
 11
535.1346854386
 21
349.9648661624
  0
LINE
  5
3FD
100
AcDbEntity
  8
0
100
AcDbLine
 62
7
  6
CONTINUOUS
 10
524.1104410653
 20
320.6074519875
 11
524.1104410653
 21
317.6911485416
  0
LINE
  5
3FE
100
AcDbEntity
  8
0
100
AcDbLine
 62
7
  6
CONTINUOUS
 10
525.6212766357
 20
317.6887534047
 11
525.6212766357
 21
320.6074519875
  0
LINE
  5
3FF
100
AcDbEntity
  8
0
100
AcDbLine
 62
7
  6
CONTINUOUS
 10
468.4502048373
 20
320.1506433745
 11
467.8119070411
 21
319.9006436129
  0
LINE
  5
400
100
AcDbEntity
  8
0
100
AcDbLine
 62
7
  6
CONTINUOUS
 10
469.0885028124
 20
315.7756436129
 11
469.7268006981
 21
316.0256435533
  0
LINE
  5
401
100
AcDbEntity
  8
0
100
AcDbLine
 62
7
  6
CONTINUOUS
 10
466.1523324132
 20
319.9006436129
 11
465.7693537355
 21
319.7756433745
  0
LINE
  5
402
100
AcDbEntity
  8
0
100
AcDbLine
 62
7
  6
CONTINUOUS
 10
468.1948857188
 20
319.4006433745
 11
468.5778645754
 21
319.5256436129
  0
LINE
  5
403
100
AcDbEntity
  8
0
100
AcDbLine
 62
7
  6
CONTINUOUS
 10
469.3438219309
 20
316.5256436129
 11
468.9608432532
 21
316.4006437322
  0
LINE
  5
404
100
AcDbEntity
  8
0
100
AcDbLine
 62
7
  6
CONTINUOUS
 10
503.8580772615
 20
389.8194986053
 11
504.8580772615
 21
389.8194986053
  0
LINE
  5
405
100
AcDbEntity
  8
0
100
AcDbLine
 62
7
  6
CONTINUOUS
 10
503.8580772615
 20
390.8407752581
 11
504.8580772615
 21
390.8407752581
  0
LINE
  5
406
100
AcDbEntity
  8
0
100
AcDbLine
 62
7
  6
CONTINUOUS
 10
503.8580772615
 20
392.1173708506
 11
504.8580772615
 21
392.1173708506
  0
LINE
  5
407
100
AcDbEntity
  8
RUNDUNGEN
100
AcDbLine
 62
7
  6
CONTINUOUS
 10
535.8580772615
 20
347.670560417
 11
535.8580772615
 21
318.1180148773
  0
LINE
  5
408
100
AcDbEntity
  8
0
100
AcDbLine
 62
7
  6
CONTINUOUS
 10
539.8580772615
 20
309.1608976508
 11
539.8580772615
 21
238.5006436129
  0
LINE
  5
409
100
AcDbEntity
  8
0
100
AcDbLine
 62
7
  6
CONTINUOUS
 10
503.8580772615
 20
400.032264597
 11
504.8580772615
 21
400.032264597
  0
LINE
  5
40A
100
AcDbEntity
  8
0
100
AcDbLine
 62
7
  6
CONTINUOUS
 10
503.8580772615
 20
404.032264597
 11
504.8580772615
 21
404.032264597
  0
LINE
  5
40B
100
AcDbEntity
  8
0
100
AcDbLine
 62
7
  6
CONTINUOUS
 10
503.8580772615
 20
416.032264597
 11
504.8580772615
 21
416.032264597
  0
LINE
  5
40C
100
AcDbEntity
  8
BEZUGSACHSEN
100
AcDbLine
 62
7
  6
CONTINUOUS
 10
507.8580772615
 20
454.0035624546
 11
508.8580772615
 21
454.0035624546
  0
LINE
  5
40D
100
AcDbEntity
  8
BEZUGSACHSEN
100
AcDbLine
 62
7
  6
CONTINUOUS
 10
507.8580772615
 20
454.0435312055
 11
508.8580772615
 21
454.0435312055
  0
LINE
  5
40E
100
AcDbEntity
  8
BEZUGSACHSEN
100
AcDbLine
 62
7
  6
CONTINUOUS
 10
507.8580772615
 20
454.3165019369
 11
508.8580772615
 21
454.3165019369
  0
LINE
  5
40F
100
AcDbEntity
  8
BEZUGSACHSEN
100
AcDbLine
 62
7
  6
CONTINUOUS
 10
507.8580772615
 20
454.9166082906
 11
508.8580772615
 21
454.9166082906
  0
LINE
  5
410
100
AcDbEntity
  8
BEZUGSACHSEN
100
AcDbLine
 62
7
  6
CONTINUOUS
 10
507.8580772615
 20
455.8897660442
 11
508.8580772615
 21
455.8897660442
  0
LINE
  5
411
100
AcDbEntity
  8
BEZUGSACHSEN
100
AcDbLine
 62
7
  6
CONTINUOUS
 10
507.1032004071
 20
460.9020747088
 11
508.8580772615
 21
460.9020747088
  0
LINE
  5
412
100
AcDbEntity
  8
BEZUGSACHSEN
100
AcDbLine
 62
7
  6
CONTINUOUS
 10
507.1396927566
 20
464.0196363301
 11
508.8580772615
 21
464.0196363301
  0
LINE
  5
413
100
AcDbEntity
  8
BEZUGSACHSEN
100
AcDbLine
 62
7
  6
CONTINUOUS
 10
507.191064609
 20
464.5624836059
 11
508.8580772615
 21
464.5624836059
  0
LINE
  5
414
100
AcDbEntity
  8
BEZUGSACHSEN
100
AcDbLine
 62
7
  6
CONTINUOUS
 10
507.3462784762
 20
464.7621425281
 11
508.8580772615
 21
464.7621425281
  0
LINE
  5
415
100
AcDbEntity
  8
BEZUGSACHSEN
100
AcDbLine
 62
7
  6
CONTINUOUS
 10
507.1032004008
 20
467.8619384021
 11
508.8580772615
 21
467.8619384021
  0
LINE
  5
416
100
AcDbEntity
  8
BEZUGSACHSEN
100
AcDbLine
 62
7
  6
CONTINUOUS
 10
507.1396927584
 20
470.3861187736
 11
508.8580772615
 21
470.3861187736
  0
LINE
  5
417
100
AcDbEntity
  8
BEZUGSACHSEN
100
AcDbLine
 62
7
  6
CONTINUOUS
 10
507.191064619
 20
470.7799476015
 11
508.8580772615
 21
470.7799476015
  0
LINE
  5
418
100
AcDbEntity
  8
BEZUGSACHSEN
100
AcDbLine
 62
7
  6
CONTINUOUS
 10
507.3462784803
 20
470.8045188838
 11
508.8580772615
 21
470.8045188838
  0
LINE
  5
419
100
AcDbEntity
  8
BEZUGSACHSEN
100
AcDbLine
 62
7
  6
CONTINUOUS
 10
507.09634583
 20
475.5752644438
 11
508.8580772615
 21
475.5752644438
  0
LINE
  5
41A
100
AcDbEntity
  8
BEZUGSACHSEN
100
AcDbLine
 62
7
  6
CONTINUOUS
 10
507.1204195698
 20
475.929434584
 11
508.8580772615
 21
475.929434584
  0
LINE
  5
41B
100
AcDbEntity
  8
BEZUGSACHSEN
100
AcDbLine
 62
7
  6
CONTINUOUS
 10
507.1204195698
 20
477.582229022
 11
508.8580772615
 21
477.582229022
  0
LINE
  5
41C
100
AcDbEntity
  8
BEZUGSACHSEN
100
AcDbLine
 62
7
  6
CONTINUOUS
 10
507.09634583
 20
477.9363991622
 11
508.8580772615
 21
477.9363991622
  0
LINE
  5
41D
100
AcDbEntity
  8
0
100
AcDbLine
 62
7
  6
CONTINUOUS
 10
539.8580772615
 20
238.5006436129
 11
536.2828164837
 21
235.5006436129
  0
LINE
  5
41E
100
AcDbEntity
  8
BEZUGSACHSEN
100
AcDbLine
 62
7
  6
CONTINUOUS
 10
507.1421451145
 20
478.4527802587
 11
508.8580772615
 21
478.4527802587
  0
LINE
  5
41F
100
AcDbEntity
  8
BEZUGSACHSEN
100
AcDbLine
 62
7
  6
CONTINUOUS
 10
507.1421451145
 20
478.6678994635
 11
508.8580772615
 21
478.6678994635
  0
LINE
  5
420
100
AcDbEntity
  8
BEZUGSACHSEN
100
AcDbLine
 62
7
  6
CONTINUOUS
 10
507.1032003883
 20
479.2038152169
 11
508.8580772615
 21
479.2038152169
  0
LINE
  5
421
100
AcDbEntity
  8
BEZUGSACHSEN
100
AcDbLine
 62
7
  6
CONTINUOUS
 10
507.1396927621
 20
479.5180016831
 11
508.8580772615
 21
479.5180016831
  0
LINE
  5
422
100
AcDbEntity
  8
RUNDUNGEN
100
AcDbLine
 62
7
  6
CONTINUOUS
 10
274.2006510854
 20
49.0693383109
 11
309.0718427575
 21
49.0693383109
  0
LINE
  5
423
100
AcDbEntity
  8
BEZUGSACHSEN
100
AcDbLine
 62
7
  6
CONTINUOUS
 10
255.7385857389
 20
77.8242151653
 11
255.7385857389
 21
76.0693383109
  0
LINE
  5
424
100
AcDbEntity
  8
BEZUGSACHSEN
100
AcDbLine
 62
7
  6
CONTINUOUS
 10
258.2447400711
 20
77.7877228158
 11
258.2447400711
 21
76.0693383109
  0
LINE
  5
425
100
AcDbEntity
  8
0
100
AcDbLine
 62
7
  6
CONTINUOUS
 10
268.1362468512
 20
55.0561389367
 11
267.1362468512
 21
55.0561389367
  0
LINE
  5
426
100
AcDbEntity
  8
0
100
AcDbLine
 62
7
  6
CONTINUOUS
 10
268.1362468512
 20
55.0812017512
 11
267.1362468512
 21
55.0812017512
  0
LINE
  5
427
100
AcDbEntity
  8
BEZUGSACHSEN
100
AcDbLine
 62
7
  6
CONTINUOUS
 10
258.8995178375
 20
77.7363509635
 11
258.8995178375
 21
76.0693383109
  0
LINE
  5
428
100
AcDbEntity
  8
BEZUGSACHSEN
100
AcDbLine
 62
7
  6
CONTINUOUS
 10
259.7151966691
 20
77.5811370962
 11
259.7151966691
 21
76.0693383109
  0
LINE
  5
429
100
AcDbEntity
  8
BEZUGSACHSEN
100
AcDbLine
 62
7
  6
CONTINUOUS
 10
260.559114684
 20
77.4051346457
 11
260.559114684
 21
76.0693383109
  0
LINE
  5
42A
100
AcDbEntity
  8
BEZUGSACHSEN
100
AcDbLine
 62
7
  6
CONTINUOUS
 10
261.0615242241
 20
77.2960316143
 11
261.0615242241
 21
76.0693383109
  0
LINE
  5
42B
100
AcDbEntity
  8
BEZUGSACHSEN
100
AcDbLine
 62
7
  6
CONTINUOUS
 10
261.5921733191
 20
77.1822794571
 11
261.5921733191
 21
76.0693383109
  0
LINE
  5
42C
100
AcDbEntity
  8
BEZUGSACHSEN
100
AcDbLine
 62
7
  6
CONTINUOUS
 10
261.7434176143
 20
77.8242151716
 11
261.7434176143
 21
76.0693383109
  0
LINE
  5
42D
100
AcDbEntity
  8
0
100
AcDbLine
 62
7
  6
CONTINUOUS
 10
268.1362468512
 20
56.5920373215
 11
267.1362468512
 21
56.5920373215
  0
LINE
  5
42E
100
AcDbEntity
  8
0
100
AcDbLine
 62
7
  6
CONTINUOUS
 10
268.1362468512
 20
59.3061389367
 11
267.1362468512
 21
59.3061389367
  0
LINE
  5
42F
100
AcDbEntity
  8
0
100
AcDbLine
 62
7
  6
CONTINUOUS
 10
268.1362468512
 20
60.8169745071
 11
267.1362468512
 21
60.8169745071
  0
LINE
  5
430
100
AcDbEntity
  8
BEZUGSACHSEN
100
AcDbLine
 62
7
  6
CONTINUOUS
 10
264.8464022182
 20
77.787722814
 11
264.8464022182
 21
76.0693383109
  0
LINE
  5
431
100
AcDbEntity
  8
BEZUGSACHSEN
100
AcDbLine
 62
7
  6
CONTINUOUS
 10
265.6002690153
 20
77.7363509534
 11
265.6002690153
 21
76.0693383109
  0
LINE
  5
432
100
AcDbEntity
  8
BEZUGSACHSEN
100
AcDbLine
 62
7
  6
CONTINUOUS
 10
266.4396691162
 20
77.5811370922
 11
266.4396691162
 21
76.0693383109
  0
LINE
  5
433
100
AcDbEntity
  8
0
100
AcDbLine
 62
7
  6
CONTINUOUS
 10
267.1362468512
 20
55.0563089164
 11
267.1362468512
 21
56.5920373215
  0
LINE
  5
434
100
AcDbEntity
  8
0
100
AcDbLine
 62
7
  6
CONTINUOUS
 10
267.1362468512
 20
56.6114175875
 11
267.1362468512
 21
65.055968957
  0
LINE
  5
435
100
AcDbEntity
  8
0
100
AcDbLine
 62
7
  6
CONTINUOUS
 10
267.1362468512
 20
114.0094404134
 11
267.1362468512
 21
114.137807835
  0
LINE
  5
436
100
AcDbEntity
  8
0
100
AcDbLine
 62
7
  6
CONTINUOUS
 10
267.1362468512
 20
114.1793383109
 11
267.1362468512
 21
120.4491997968
  0
LINE
  5
437
100
AcDbEntity
  8
BEZUGSACHSEN
100
AcDbLine
 62
7
  6
CONTINUOUS
 10
267.2571898633
 20
77.4051346418
 11
267.2571898633
 21
76.0693383109
  0
LINE
  5
438
100
AcDbEntity
  8
BEZUGSACHSEN
100
AcDbLine
 62
7
  6
CONTINUOUS
 10
267.7087168888
 20
77.2960316178
 11
267.7087168888
 21
76.0693383109
  0
LINE
  5
439
100
AcDbEntity
  8
RUNDUNGEN
100
AcDbLine
 62
7
  6
CONTINUOUS
 10
268.1362468512
 20
101.0693383109
 11
268.1362468512
 21
123.9942577811
  0
LINE
  5
43A
100
AcDbEntity
  8
BEZUGSACHSEN
100
AcDbLine
 62
7
  6
CONTINUOUS
 10
268.1383648613
 20
77.1822794596
 11
268.1383648613
 21
76.0693383109
  0
LINE
  5
43B
100
AcDbEntity
  8
BEZUGSACHSEN
100
AcDbLine
 62
7
  6
CONTINUOUS
 10
268.3313093432
 20
77.1218146361
 11
268.3313093432
 21
76.0693383109
  0
LINE
  5
43C
100
AcDbEntity
  8
BEZUGSACHSEN
100
AcDbLine
 62
7
  6
CONTINUOUS
 10
268.3730839393
 20
77.0762952804
 11
268.3730839393
 21
76.0693383109
  0
LINE
  5
43D
100
AcDbEntity
  8
RUNDUNGEN
100
AcDbLine
 62
7
  6
CONTINUOUS
 10
268.1362468512
 20
54.1444188407
 11
268.1362468512
 21
76.0693383109
  0
LINE
  5
43E
100
AcDbEntity
  8
0
100
AcDbLine
 62
7
  6
CONTINUOUS
 10
268.1362468512
 20
63.5202405518
 11
267.1362468512
 21
63.5202405518
  0
LINE
  5
43F
100
AcDbEntity
  8
0
100
AcDbLine
 62
7
  6
CONTINUOUS
 10
268.1362468512
 20
65.0310761222
 11
267.1362468512
 21
65.0310761222
  0
LINE
  5
440
100
AcDbEntity
  8
0
100
AcDbLine
 62
7
  6
CONTINUOUS
 10
268.1362468512
 20
65.0561389367
 11
267.1362468512
 21
65.0561389367
  0
LWPOLYLINE
  5
441
100
AcDbEntity
  8
RUNDUNGEN
100
AcDbPolyline
 62
7
  6
CONTINUOUS
 90
8
 70
0
 10
268.1362868406
 20
107.2791267964
 10
268.1405908188
 20
107.1162942792
 10
268.1806737502
 20
106.7189269072
 10
268.2619709228
 20
106.3278082044
 10
268.3833069825
 20
105.9472400728
 10
268.5432489659
 20
105.5804576855
 10
268.7402381885
 20
105.2310618535
 10
268.9720282145
 20
104.9026450154
  0
LINE
  5
442
100
AcDbEntity
  8
BEZUGSACHSEN
100
AcDbLine
 62
7
  6
CONTINUOUS
 10
270.90278743
 20
77.0702703564
 11
270.90278743
 21
76.0693383109
  0
LINE
  5
443
100
AcDbEntity
  8
BEZUGSACHSEN
100
AcDbLine
 62
7
  6
CONTINUOUS
 10
272.9291407324
 20
77.0704699542
 11
272.9291407324
 21
76.0693383109
  0
LINE
  5
444
100
AcDbEntity
  8
BEZUGSACHSEN
100
AcDbLine
 62
7
  6
CONTINUOUS
 10
273.0842415297
 20
77.8310697424
 11
273.0842415297
 21
76.0693383109
  0
LINE
  5
445
100
AcDbEntity
  8
0
100
AcDbLine
 62
7
  6
CONTINUOUS
 10
329.7413646177
 20
67.0693383109
 11
330.3176377259
 21
67.0693383109
  0
LINE
  5
446
100
AcDbEntity
  8
BEZUGSACHSEN
100
AcDbLine
 62
7
  6
CONTINUOUS
 10
274.0194225345
 20
77.8069960026
 11
274.0194225345
 21
76.0693383109
  0
LINE
  5
447
100
AcDbEntity
  8
0
100
AcDbLine
 62
7
  6
CONTINUOUS
 10
332.624049915
 20
73.0693383109
 11
333.1603362452
 21
73.0693383109
  0
LINE
  5
448
100
AcDbEntity
  8
BEZUGSACHSEN
100
AcDbLine
 62
7
  6
CONTINUOUS
 10
278.3836017462
 20
77.8069960026
 11
278.3836017462
 21
76.0693383109
  0
LINE
  5
449
100
AcDbEntity
  8
BEZUGSACHSEN
100
AcDbLine
 62
7
  6
CONTINUOUS
 10
279.318782751
 20
77.8310697424
 11
279.318782751
 21
76.0693383109
  0
LINE
  5
44A
100
AcDbEntity
  8
BEZUGSACHSEN
100
AcDbLine
 62
7
  6
CONTINUOUS
 10
279.6583266708
 20
77.0693383109
 11
279.6583266708
 21
76.0693383109
  0
LINE
  5
44B
100
AcDbEntity
  8
BEZUGSACHSEN
100
AcDbLine
 62
7
  6
CONTINUOUS
 10
281.7730580053
 20
77.7852704579
 11
281.7730580053
 21
76.0693383109
  0
LWPOLYLINE
  5
44C
100
AcDbEntity
  8
RUNDUNGEN
100
AcDbPolyline
 62
7
  6
CONTINUOUS
 90
8
 70
0
 10
268.9619800295
 20
73.2231686979
 10
268.732816487
 20
72.8958390287
 10
268.5381049124
 20
72.5478586453
 10
268.3800541486
 20
72.1827663749
 10
268.2602000414
 20
71.8041029089
 10
268.1799583836
 20
71.415089318
 10
268.1404771169
 20
71.0199969774
 10
268.1362870813
 20
70.8595988405
  0
LINE
  5
44D
100
AcDbEntity
  8
BEZUGSACHSEN
100
AcDbLine
 62
7
  6
CONTINUOUS
 10
328.769242522
 20
76.0693383109
 11
309.4171106264
 21
76.0693383109
  0
LINE
  5
44E
100
AcDbEntity
  8
BEZUGSACHSEN
100
AcDbLine
 62
7
  6
CONTINUOUS
 10
307.2162468512
 20
76.0693383109
 11
298.8562468512
 21
76.0693383109
  0
LINE
  5
44F
100
AcDbEntity
  8
BEZUGSACHSEN
100
AcDbLine
 62
7
  6
CONTINUOUS
 10
291.4875376978
 20
76.0693383109
 11
285.1393774724
 21
76.0693383109
  0
LINE
  5
450
100
AcDbEntity
  8
BEZUGSACHSEN
100
AcDbLine
 62
7
  6
CONTINUOUS
 10
284.4705994422
 20
76.0693383109
 11
281.7730580053
 21
76.0693383109
  0
LINE
  5
451
100
AcDbEntity
  8
BEZUGSACHSEN
100
AcDbLine
 62
7
  6
CONTINUOUS
 10
279.6583266708
 20
76.0693383109
 11
270.90278743
 21
76.0693383109
  0
LINE
  5
452
100
AcDbEntity
  8
BEZUGSACHSEN
100
AcDbLine
 62
7
  6
CONTINUOUS
 10
268.3730839393
 20
76.0693383109
 11
255.7385857389
 21
76.0693383109
  0
LINE
  5
453
100
AcDbEntity
  8
KONSTRUKTIONSELEMENTE
100
AcDbLine
 62
7
  6
CONTINUOUS
 10
332.0578848844
 20
77.0693383109
 11
328.769242522
 21
77.0693383109
  0
LINE
  5
454
100
AcDbEntity
  8
KONSTRUKTIONSELEMENTE
100
AcDbLine
 62
7
  6
CONTINUOUS
 10
322.7374367516
 20
77.0693383109
 11
319.9471169754
 21
77.0693383109
  0
LINE
  5
455
100
AcDbEntity
  8
KONSTRUKTIONSELEMENTE
100
AcDbLine
 62
7
  6
CONTINUOUS
 10
311.2729425602
 20
77.0693383109
 11
307.2162468512
 21
77.0693383109
  0
LINE
  5
456
100
AcDbEntity
  8
KONSTRUKTIONSELEMENTE
100
AcDbLine
 62
7
  6
CONTINUOUS
 10
301.2283651019
 20
77.0693383109
 11
291.4875376978
 21
77.0693383109
  0
LINE
  5
457
100
AcDbEntity
  8
KONSTRUKTIONSELEMENTE
100
AcDbLine
 62
7
  6
CONTINUOUS
 10
285.1393774724
 20
77.0693383109
 11
283.6282192734
 21
77.0693383109
  0
LINE
  5
458
100
AcDbEntity
  8
KONSTRUKTIONSELEMENTE
100
AcDbLine
 62
7
  6
CONTINUOUS
 10
281.7730580053
 20
77.0693383109
 11
279.4894069198
 21
77.0693383109
  0
LINE
  5
459
100
AcDbEntity
  8
KONSTRUKTIONSELEMENTE
100
AcDbLine
 62
7
  6
CONTINUOUS
 10
278.3836017462
 20
77.0693383109
 11
276.7488411043
 21
77.0693383109
  0
LINE
  5
45A
100
AcDbEntity
  8
KONSTRUKTIONSELEMENTE
100
AcDbLine
 62
7
  6
CONTINUOUS
 10
273.0842415297
 20
77.0693383109
 11
268.3730839393
 21
77.0693383109
  0
LINE
  5
45B
100
AcDbEntity
  8
KONSTRUKTIONSELEMENTE
100
AcDbLine
 62
7
  6
CONTINUOUS
 10
255.7385857389
 20
77.0693383109
 11
251.2143459287
 21
77.0693383109
  0
LINE
  5
45C
100
AcDbEntity
  8
BEZUGSACHSEN
100
AcDbLine
 62
7
  6
CONTINUOUS
 10
282.7496458035
 20
77.7852704579
 11
282.7496458035
 21
76.0693383109
  0
LINE
  5
45D
100
AcDbEntity
  8
BEZUGSACHSEN
100
AcDbLine
 62
7
  6
CONTINUOUS
 10
284.4705994422
 20
77.0693383109
 11
284.4705994422
 21
76.0693383109
  0
LINE
  5
45E
100
AcDbEntity
  8
BEZUGSACHSEN
100
AcDbLine
 62
7
  6
CONTINUOUS
 10
285.1393774724
 20
77.8242151841
 11
285.1393774724
 21
76.0693383109
  0
LINE
  5
45F
100
AcDbEntity
  8
RUNDUNGEN
100
AcDbLine
 62
7
  6
CONTINUOUS
 10
269.4155837583
 20
73.7795433455
 11
269.3928234326
 21
73.7502867598
  0
LINE
  5
460
100
AcDbEntity
  8
RUNDUNGEN
100
AcDbLine
 62
7
  6
CONTINUOUS
 10
269.3928234326
 20
73.7502867598
 11
269.3252392776
 21
73.6643278817
  0
LWPOLYLINE
  5
461
100
AcDbEntity
  8
RUNDUNGEN
100
AcDbPolyline
 62
7
  6
CONTINUOUS
 90
3
 70
0
 10
269.3252392776
 20
73.6643278817
 10
269.2508425978
 20
73.5718965563
 10
269.175557491
 20
73.4805567832
  0
LINE
  5
462
100
AcDbEntity
  8
RUNDUNGEN
100
AcDbLine
 62
7
  6
CONTINUOUS
 10
269.0842788882
 20
73.3727436041
 11
268.9619800295
 21
73.2231686979
  0
LWPOLYLINE
  5
463
100
AcDbEntity
  8
RUNDUNGEN
100
AcDbPolyline
 62
7
  6
CONTINUOUS
 90
3
 70
0
 10
269.175557491
 20
73.4805567832
 10
269.0993861997
 20
73.3903398347
 10
269.0843823143
 20
73.3728257323
  0
LINE
  5
464
100
AcDbEntity
  8
KONSTRUKTIONSELEMENTE
100
AcDbLine
 62
7
  6
CONTINUOUS
 10
345.0840017732
 20
81.0693383109
 11
343.4444599883
 21
81.0693383109
  0
LINE
  5
465
100
AcDbEntity
  8
KONSTRUKTIONSELEMENTE
100
AcDbLine
 62
7
  6
CONTINUOUS
 10
239.8280337141
 20
81.0693383109
 11
238.1884919292
 21
81.0693383109
  0
LINE
  5
466
100
AcDbEntity
  8
RUNDUNGEN
100
AcDbLine
 62
7
  6
CONTINUOUS
 10
269.0842057218
 20
104.7660182283
 11
269.1044943374
 21
104.7423548991
  0
LINE
  5
467
100
AcDbEntity
  8
RUNDUNGEN
100
AcDbLine
 62
7
  6
CONTINUOUS
 10
269.1044943374
 20
104.7423548991
 11
269.1806389469
 21
104.6520232534
  0
LINE
  5
468
100
AcDbEntity
  8
RUNDUNGEN
100
AcDbLine
 62
7
  6
CONTINUOUS
 10
269.1806389469
 20
104.6520232534
 11
269.2559018562
 21
104.5605632667
  0
LINE
  5
469
100
AcDbEntity
  8
RUNDUNGEN
100
AcDbLine
 62
7
  6
CONTINUOUS
 10
268.9720282145
 20
104.9026450154
 11
269.0842057218
 21
104.7660182283
  0
LINE
  5
46A
100
AcDbEntity
  8
RUNDUNGEN
100
AcDbLine
 62
7
  6
CONTINUOUS
 10
269.2559018562
 20
104.5605632667
 11
269.3302806295
 21
104.4680060778
  0
LINE
  5
46B
100
AcDbEntity
  8
RUNDUNGEN
100
AcDbLine
 62
7
  6
CONTINUOUS
 10
269.3302806295
 20
104.4680060778
 11
269.4044804475
 21
104.3734699896
  0
LINE
  5
46C
100
AcDbEntity
  8
RUNDUNGEN
100
AcDbLine
 62
7
  6
CONTINUOUS
 10
269.4044804475
 20
104.3734699896
 11
269.4155865548
 21
104.3591296742
  0
LINE
  5
46D
100
AcDbEntity
  8
BEZUGSACHSEN
100
AcDbLine
 62
7
  6
CONTINUOUS
 10
289.1270192397
 20
77.7877228104
 11
289.1270192397
 21
76.0693383109
  0
LINE
  5
46E
100
AcDbEntity
  8
BEZUGSACHSEN
100
AcDbLine
 62
7
  6
CONTINUOUS
 10
289.9711463089
 20
77.7363509334
 11
289.9711463089
 21
76.0693383109
  0
LINE
  5
46F
100
AcDbEntity
  8
BEZUGSACHSEN
100
AcDbLine
 62
7
  6
CONTINUOUS
 10
290.6758634435
 20
77.5811370841
 11
290.6758634435
 21
76.0693383109
  0
LINE
  5
470
100
AcDbEntity
  8
BEZUGSACHSEN
100
AcDbLine
 62
7
  6
CONTINUOUS
 10
291.2277972055
 20
77.4051346338
 11
291.2277972055
 21
76.0693383109
  0
LINE
  5
471
100
AcDbEntity
  8
BEZUGSACHSEN
100
AcDbLine
 62
7
  6
CONTINUOUS
 10
291.4340591192
 20
77.2960316247
 11
291.4340591192
 21
76.0693383109
  0
LINE
  5
472
100
AcDbEntity
  8
BEZUGSACHSEN
100
AcDbLine
 62
7
  6
CONTINUOUS
 10
291.4875376978
 20
77.1822794645
 11
291.4875376978
 21
76.0693383109
  0
LINE
  5
473
100
AcDbEntity
  8
RUNDUNGEN
100
AcDbLine
 62
7
  6
CONTINUOUS
 10
311.6287280542
 20
101.7531722233
 11
311.6286534818
 21
101.7531251442
  0
LINE
  5
474
100
AcDbEntity
  8
RUNDUNGEN
100
AcDbLine
 62
7
  6
CONTINUOUS
 10
271.6438495027
 20
101.7531192841
 11
271.6437656482
 21
101.7531722233
  0
LINE
  5
475
100
AcDbEntity
  8
BEZUGSACHSEN
100
AcDbLine
 62
7
  6
CONTINUOUS
 10
298.8562468512
 20
77.0693383109
 11
298.8562468512
 21
76.0693383109
  0
LINE
  5
476
100
AcDbEntity
  8
BEZUGSACHSEN
100
AcDbLine
 62
7
  6
CONTINUOUS
 10
300.9612468512
 20
77.0693383109
 11
300.9612468512
 21
76.0693383109
  0
LWPOLYLINE
  5
477
100
AcDbEntity
  8
RUNDUNGEN
100
AcDbPolyline
 62
7
  6
CONTINUOUS
 90
8
 70
0
 10
314.3105136963
 20
104.9155079563
 10
314.53967727
 20
105.2428376818
 10
314.734388838
 20
105.5908180847
 10
314.8924395787
 20
105.9559103262
 10
315.0122936638
 20
106.334573726
 10
315.0925353105
 20
106.7235872587
 10
315.1320165798
 20
107.1186795793
 10
315.1362066302
 20
107.2790801976
  0
LWPOLYLINE
  5
478
100
AcDbEntity
  8
RUNDUNGEN
100
AcDbPolyline
 62
7
  6
CONTINUOUS
 90
3
 70
0
 10
313.8569116342
 20
104.3591354872
 10
313.8737605203
 20
104.3808735726
 10
313.9472732728
 20
104.4743724357
  0
LWPOLYLINE
  5
479
100
AcDbEntity
  8
RUNDUNGEN
100
AcDbPolyline
 62
7
  6
CONTINUOUS
 90
3
 70
0
 10
313.9472732728
 20
104.4743724357
 10
314.021672273
 20
104.5668060509
 10
314.0969550945
 20
104.6581424687
  0
LINE
  5
47A
100
AcDbEntity
  8
RUNDUNGEN
100
AcDbLine
 62
7
  6
CONTINUOUS
 10
314.1882148194
 20
104.7659330275
 11
314.3105136963
 21
104.9155079563
  0
LWPOLYLINE
  5
47B
100
AcDbEntity
  8
RUNDUNGEN
100
AcDbPolyline
 62
7
  6
CONTINUOUS
 90
3
 70
0
 10
314.0969550945
 20
104.6581424687
 10
314.1731194388
 20
104.7483507529
 10
314.1881114436
 20
104.7658509625
  0
LINE
  5
47C
100
AcDbEntity
  8
KONSTRUKTIONSELEMENTE
100
AcDbLine
 62
7
  6
CONTINUOUS
 10
345.0840017732
 20
97.0693383109
 11
343.4444599883
 21
97.0693383109
  0
LINE
  5
47D
100
AcDbEntity
  8
KONSTRUKTIONSELEMENTE
100
AcDbLine
 62
7
  6
CONTINUOUS
 10
239.8280337141
 20
97.0693383109
 11
238.1884919292
 21
97.0693383109
  0
LINE
  5
47E
100
AcDbEntity
  8
RUNDUNGEN
100
AcDbLine
 62
7
  6
CONTINUOUS
 10
314.1882879911
 20
73.3726583735
 11
314.1679937353
 21
73.3963283017
  0
LINE
  5
47F
100
AcDbEntity
  8
RUNDUNGEN
100
AcDbLine
 62
7
  6
CONTINUOUS
 10
314.1679937353
 20
73.3963283017
 11
314.0918462328
 21
73.4866635963
  0
LINE
  5
480
100
AcDbEntity
  8
RUNDUNGEN
100
AcDbLine
 62
7
  6
CONTINUOUS
 10
314.0918462328
 20
73.4866635963
 11
314.0165824607
 21
73.5781248955
  0
LINE
  5
481
100
AcDbEntity
  8
RUNDUNGEN
100
AcDbLine
 62
7
  6
CONTINUOUS
 10
314.300465574
 20
73.2360314898
 11
314.1882879911
 21
73.3726583735
  0
LWPOLYLINE
  5
482
100
AcDbEntity
  8
RUNDUNGEN
100
AcDbPolyline
 62
7
  6
CONTINUOUS
 90
3
 70
0
 10
314.0165824607
 20
73.5781248955
 10
313.9422046053
 20
73.6706812259
 10
313.8694505454
 20
73.7633634959
  0
LINE
  5
483
100
AcDbEntity
  8
RUNDUNGEN
100
AcDbLine
 62
7
  6
CONTINUOUS
 10
313.8694505454
 20
73.7633634959
 11
313.8569153003
 21
73.7795364012
  0
LINE
  5
484
100
AcDbEntity
  8
BEZUGSACHSEN
100
AcDbLine
 62
7
  6
CONTINUOUS
 10
305.6362468512
 20
77.185411935
 11
305.6362468512
 21
76.0693383109
  0
LINE
  5
485
100
AcDbEntity
  8
BEZUGSACHSEN
100
AcDbLine
 62
7
  6
CONTINUOUS
 10
306.3762468512
 20
77.2691904057
 11
306.3762468512
 21
76.0693383109
  0
LINE
  5
486
100
AcDbEntity
  8
KONSTRUKTIONSELEMENTE
100
AcDbLine
 62
7
  6
CONTINUOUS
 10
332.0581117852
 20
101.0693383109
 11
251.214609748
 21
101.0693383109
  0
LINE
  5
487
100
AcDbEntity
  8
0
100
AcDbLine
 62
7
  6
CONTINUOUS
 10
333.8233301825
 20
101.5693383109
 11
334.3445598593
 21
101.5693383109
  0
LINE
  5
488
100
AcDbEntity
  8
0
100
AcDbLine
 62
7
  6
CONTINUOUS
 10
333.4326279598
 20
102.8193392646
 11
333.9586696761
 21
102.8193392646
  0
LINE
  5
489
100
AcDbEntity
  8
0
100
AcDbLine
 62
7
  6
CONTINUOUS
 10
333.0902876675
 20
103.8193383109
 11
333.6206189437
 21
103.8193383109
  0
LINE
  5
48A
100
AcDbEntity
  8
BEZUGSACHSEN
100
AcDbLine
 62
7
  6
CONTINUOUS
 10
307.2162468512
 20
77.249632307
 11
307.2162468512
 21
76.0693383109
  0
LINE
  5
48B
100
AcDbEntity
  8
BEZUGSACHSEN
100
AcDbLine
 62
7
  6
CONTINUOUS
 10
309.4171106264
 20
77.0693383109
 11
309.4171106264
 21
76.0693383109
  0
LINE
  5
48C
100
AcDbEntity
  8
BEZUGSACHSEN
100
AcDbLine
 62
7
  6
CONTINUOUS
 10
311.2729425602
 20
77.1684350491
 11
311.2729425602
 21
76.0693383109
  0
LINE
  5
48D
100
AcDbEntity
  8
0
100
AcDbLine
 62
7
  6
CONTINUOUS
 10
332.720763765
 20
104.8193373573
 11
333.2558039132
 21
104.8193373573
  0
LINE
  5
48E
100
AcDbEntity
  8
0
100
AcDbLine
 62
7
  6
CONTINUOUS
 10
332.5255792008
 20
105.3193383109
 11
333.0631402901
 21
105.3193383109
  0
LINE
  5
48F
100
AcDbEntity
  8
0
100
AcDbLine
 62
7
  6
CONTINUOUS
 10
332.425338916
 20
105.5693373573
 11
332.9642038715
 21
105.5693373573
  0
LINE
  5
490
100
AcDbEntity
  8
0
100
AcDbLine
 62
7
  6
CONTINUOUS
 10
332.2194946266
 20
106.0693383109
 11
332.7610568811
 21
106.0693383109
  0
LINE
  5
491
100
AcDbEntity
  8
0
100
AcDbLine
 62
7
  6
CONTINUOUS
 10
331.3225160606
 20
108.0693392646
 11
331.8761519674
 21
108.0693392646
  0
LWPOLYLINE
  5
492
100
AcDbEntity
  8
RUNDUNGEN
100
AcDbPolyline
 62
7
  6
CONTINUOUS
 90
8
 70
0
 10
315.136206867
 20
70.8595484967
 10
315.1319028791
 20
71.0223824066
 10
315.0918199491
 20
71.4197497228
 10
315.0105227996
 20
71.8108683412
 10
314.8891867761
 20
72.1914363948
 10
314.7292448267
 20
72.5582187461
 10
314.5322556216
 20
72.9076145927
 10
314.300465574
 20
73.2360314898
  0
LINE
  5
493
100
AcDbEntity
  8
BEZUGSACHSEN
100
AcDbLine
 62
7
  6
CONTINUOUS
 10
311.9534441237
 20
77.4251023063
 11
311.9534441237
 21
76.0693383109
  0
LINE
  5
494
100
AcDbEntity
  8
BEZUGSACHSEN
100
AcDbLine
 62
7
  6
CONTINUOUS
 10
313.4150563881
 20
77.7842330833
 11
313.4150563881
 21
76.0693383109
  0
LINE
  5
495
100
AcDbEntity
  8
BEZUGSACHSEN
100
AcDbLine
 62
7
  6
CONTINUOUS
 10
314.281229993
 20
77.788387119
 11
314.281229993
 21
76.0693383109
  0
LINE
  5
496
100
AcDbEntity
  8
BEZUGSACHSEN
100
AcDbLine
 62
7
  6
CONTINUOUS
 10
314.339945461
 20
77.0952124013
 11
314.339945461
 21
76.0693383109
  0
LINE
  5
497
100
AcDbEntity
  8
RUNDUNGEN
100
AcDbLine
 62
7
  6
CONTINUOUS
 10
315.1362468512
 20
54.1444188407
 11
315.1362468512
 21
76.0693383109
  0
LINE
  5
498
100
AcDbEntity
  8
BEZUGSACHSEN
100
AcDbLine
 62
7
  6
CONTINUOUS
 10
315.2131337266
 20
77.2311749627
 11
315.2131337266
 21
76.0693383109
  0
LINE
  5
499
100
AcDbEntity
  8
BEZUGSACHSEN
100
AcDbLine
 62
7
  6
CONTINUOUS
 10
316.0043734368
 20
77.3987204385
 11
316.0043734368
 21
76.0693383109
  0
LINE
  5
49A
100
AcDbEntity
  8
RUNDUNGEN
100
AcDbLine
 62
7
  6
CONTINUOUS
 10
315.1362468512
 20
123.9942577811
 11
315.1362468512
 21
101.0693383109
  0
LINE
  5
49B
100
AcDbEntity
  8
0
100
AcDbLine
 62
7
  6
CONTINUOUS
 10
330.6994973384
 20
109.3193373573
 11
331.2618388168
 21
109.3193373573
  0
LINE
  5
49C
100
AcDbEntity
  8
0
100
AcDbLine
 62
7
  6
CONTINUOUS
 10
329.1462455182
 20
112.0693383109
 11
329.7315221488
 21
112.0693383109
  0
LINE
  5
49D
100
AcDbEntity
  8
BEZUGSACHSEN
100
AcDbLine
 62
7
  6
CONTINUOUS
 10
316.8197929947
 20
77.5746941852
 11
316.8197929947
 21
76.0693383109
  0
LINE
  5
49E
100
AcDbEntity
  8
BEZUGSACHSEN
100
AcDbLine
 62
7
  6
CONTINUOUS
 10
317.7896988576
 20
77.7295521813
 11
317.7896988576
 21
76.0693383109
  0
LINE
  5
49F
100
AcDbEntity
  8
BEZUGSACHSEN
100
AcDbLine
 62
7
  6
CONTINUOUS
 10
318.5473497078
 20
77.7846940418
 11
318.5473497078
 21
76.0693383109
  0
LINE
  5
4A0
100
AcDbEntity
  8
BEZUGSACHSEN
100
AcDbLine
 62
7
  6
CONTINUOUS
 10
319.0685713654
 20
77.7846940523
 11
319.0685713654
 21
76.0693383109
  0
LINE
  5
4A1
100
AcDbEntity
  8
BEZUGSACHSEN
100
AcDbLine
 62
7
  6
CONTINUOUS
 10
319.6139701855
 20
77.7295522167
 11
319.6139701855
 21
76.0693383109
  0
LINE
  5
4A2
100
AcDbEntity
  8
BEZUGSACHSEN
100
AcDbLine
 62
7
  6
CONTINUOUS
 10
319.9471169754
 20
77.5746941852
 11
319.9471169754
 21
76.0693383109
  0
LINE
  5
4A3
100
AcDbEntity
  8
0
100
AcDbLine
 62
7
  6
CONTINUOUS
 10
268.1362468512
 20
114.0093383109
 11
267.1362468512
 21
114.0093383109
  0
LINE
  5
4A4
100
AcDbEntity
  8
0
100
AcDbLine
 62
7
  6
CONTINUOUS
 10
268.1362468512
 20
114.1793383109
 11
267.1362468512
 21
114.1793383109
  0
LINE
  5
4A5
100
AcDbEntity
  8
0
100
AcDbLine
 62
7
  6
CONTINUOUS
 10
268.1362468512
 20
114.3069978814
 11
267.1362468512
 21
114.3069978814
  0
LINE
  5
4A6
100
AcDbEntity
  8
0
100
AcDbLine
 62
7
  6
CONTINUOUS
 10
268.1362468512
 20
114.6899765926
 11
267.1362468512
 21
114.6899765926
  0
LINE
  5
4A7
100
AcDbEntity
  8
0
100
AcDbLine
 62
7
  6
CONTINUOUS
 10
268.1362468512
 20
115.2006148743
 11
267.1362468512
 21
115.2006148743
  0
LINE
  5
4A8
100
AcDbEntity
  8
0
100
AcDbLine
 62
7
  6
CONTINUOUS
 10
268.1362468512
 20
115.83891276
 11
267.1362468512
 21
115.83891276
  0
LINE
  5
4A9
100
AcDbEntity
  8
0
100
AcDbLine
 62
7
  6
CONTINUOUS
 10
268.1362468512
 20
116.4772107351
 11
267.1362468512
 21
116.4772107351
  0
LINE
  5
4AA
100
AcDbEntity
  8
0
100
AcDbLine
 62
7
  6
CONTINUOUS
 10
268.1362468512
 20
117.1155085313
 11
267.1362468512
 21
117.1155085313
  0
LINE
  5
4AB
100
AcDbEntity
  8
0
100
AcDbLine
 62
7
  6
CONTINUOUS
 10
268.1362468512
 20
117.4984872091
 11
267.1362468512
 21
117.4984872091
  0
LINE
  5
4AC
100
AcDbEntity
  8
0
100
AcDbLine
 62
7
  6
CONTINUOUS
 10
268.1362468512
 20
117.8814658868
 11
267.1362468512
 21
117.8814658868
  0
LINE
  5
4AD
100
AcDbEntity
  8
0
100
AcDbLine
 62
7
  6
CONTINUOUS
 10
268.1362468512
 20
118.0091254461
 11
267.1362468512
 21
118.0091254461
  0
LINE
  5
4AE
100
AcDbEntity
  8
BEZUGSACHSEN
100
AcDbLine
 62
7
  6
CONTINUOUS
 10
321.3885486812
 20
77.0704035848
 11
321.3885486812
 21
76.0693383109
  0
LINE
  5
4AF
100
AcDbEntity
  8
0
100
AcDbLine
 62
7
  6
CONTINUOUS
 10
268.1362468512
 20
118.3921041238
 11
267.1362468512
 21
118.3921041238
  0
LINE
  5
4B0
100
AcDbEntity
  8
0
100
AcDbLine
 62
7
  6
CONTINUOUS
 10
268.1362468512
 20
118.7750831592
 11
267.1362468512
 21
118.7750831592
  0
LINE
  5
4B1
100
AcDbEntity
  8
0
100
AcDbLine
 62
7
  6
CONTINUOUS
 10
268.1362468512
 20
119.1580618369
 11
267.1362468512
 21
119.1580618369
  0
LINE
  5
4B2
100
AcDbEntity
  8
0
100
AcDbLine
 62
7
  6
CONTINUOUS
 10
268.1362468512
 20
119.6687000739
 11
267.1362468512
 21
119.6687000739
  0
LINE
  5
4B3
100
AcDbEntity
  8
0
100
AcDbLine
 62
7
  6
CONTINUOUS
 10
268.1362468512
 20
120.0516787517
 11
267.1362468512
 21
120.0516787517
  0
LINE
  5
4B4
100
AcDbEntity
  8
0
100
AcDbLine
 62
7
  6
CONTINUOUS
 10
268.1362468512
 20
120.1793383109
 11
267.1362468512
 21
120.1793383109
  0
LINE
  5
4B5
100
AcDbEntity
  8
0
100
AcDbLine
 62
7
  6
CONTINUOUS
 10
268.1362468512
 20
120.4493383109
 11
267.1362468512
 21
120.4493383109
  0
LINE
  5
4B6
100
AcDbEntity
  8
BEZUGSACHSEN
100
AcDbLine
 62
7
  6
CONTINUOUS
 10
326.237686729
 20
77.824215134
 11
326.237686729
 21
76.0693383109
  0
LINE
  5
4B7
100
AcDbEntity
  8
BEZUGSACHSEN
100
AcDbLine
 62
7
  6
CONTINUOUS
 10
328.4501261193
 20
77.7877228249
 11
328.4501261193
 21
76.0693383109
  0
LINE
  5
4B8
100
AcDbEntity
  8
BEZUGSACHSEN
100
AcDbLine
 62
7
  6
CONTINUOUS
 10
328.769242522
 20
77.7363509066
 11
328.769242522
 21
76.0693383109
  0
LINE
  5
4B9
100
AcDbEntity
  8
RUNDUNGEN
100
AcDbLine
 62
7
  6
CONTINUOUS
 10
274.2006509393
 20
129.0693383109
 11
309.0718426136
 21
129.0693383109
  0
ARC
  5
4BA
100
AcDbEntity
  8
RUNDUNGEN
100
AcDbCircle
 62
7
  6
CONTINUOUS
 10
263.1362468512
 20
287.5006436129
 40
5.0
100
AcDbArc
 50
270.000359561
 51
0.0004870856
  0
ARC
  5
4BB
100
AcDbEntity
  8
RUNDUNGEN
100
AcDbCircle
 62
7
  6
CONTINUOUS
 10
251.6362468512
 20
278.5006436129
 40
4.0
100
AcDbArc
 50
90.0
 51
180.0
  0
ARC
  5
4BC
100
AcDbEntity
  8
KONSTRUKTIONSELEMENTE
100
AcDbCircle
 62
7
  6
CONTINUOUS
 10
113.6397581218
 20
393.5006436129
 40
234.5
100
AcDbArc
 50
346.5709883805
 51
13.4290116195
  0
ARC
  5
4BD
100
AcDbEntity
  8
KONSTRUKTIONSELEMENTE
100
AcDbCircle
 62
7
  6
CONTINUOUS
 10
113.6397581218
 20
393.5006436129
 40
231.44427191
100
AcDbArc
 50
353.1760456275
 51
6.8239543725
  0
ARC
  5
4BE
100
AcDbEntity
  8
KONSTRUKTIONSELEMENTE
100
AcDbCircle
 62
7
  6
CONTINUOUS
 10
113.6397581218
 20
393.5006436129
 40
213.55572809
100
AcDbArc
 50
352.601362855
 51
7.398637145
  0
ARC
  5
4BF
100
AcDbEntity
  8
KONSTRUKTIONSELEMENTE
100
AcDbCircle
 62
7
  6
CONTINUOUS
 10
113.6397581218
 20
393.5006436129
 40
210.5
100
AcDbArc
 50
346.5709883805
 51
13.4290116195
  0
ARC
  5
4C0
100
AcDbEntity
  8
KONSTRUKTIONSELEMENTE
100
AcDbCircle
 62
7
  6
CONTINUOUS
 10
291.6362468512
 20
351.0006436129
 40
51.5
100
AcDbArc
 50
193.4290116195
 51
242.843895484
  0
ARC
  5
4C1
100
AcDbEntity
  8
KONSTRUKTIONSELEMENTE
100
AcDbCircle
 62
7
  6
CONTINUOUS
 10
291.6362468512
 20
351.0006436129
 40
51.5
100
AcDbArc
 50
297.156104516
 51
346.5709883805
  0
ARC
  5
4C2
100
AcDbEntity
  8
KONSTRUKTIONSELEMENTE
100
AcDbCircle
 62
7
  6
CONTINUOUS
 10
291.6362468512
 20
351.0006436129
 40
27.5
100
AcDbArc
 50
193.4290116195
 51
211.8301357452
  0
ARC
  5
4C3
100
AcDbEntity
  8
KONSTRUKTIONSELEMENTE
100
AcDbCircle
 62
7
  6
CONTINUOUS
 10
291.6362468512
 20
351.0006436129
 40
27.5
100
AcDbArc
 50
328.1698642517
 51
346.5709883805
  0
ARC
  5
4C4
100
AcDbEntity
  8
RUNDUNGEN
100
AcDbCircle
 62
7
  6
CONTINUOUS
 10
291.6362468512
 20
334.0006436129
 40
23.5
100
AcDbArc
 50
359.9996723829
 51
180.0
  0
ARC
  5
4C5
100
AcDbEntity
  8
RUNDUNGEN
100
AcDbCircle
 62
7
  6
CONTINUOUS
 10
320.1362468512
 20
287.5006436129
 40
5.0
100
AcDbArc
 50
179.9989856612
 51
269.9997678175
  0
ARC
  5
4C6
100
AcDbEntity
  8
RUNDUNGEN
100
AcDbCircle
 62
7
  6
CONTINUOUS
 10
331.6362468512
 20
278.5006436129
 40
4.0
100
AcDbArc
 50
0.0
 51
90.0
  0
ARC
  5
4C7
100
AcDbEntity
  8
KONSTRUKTIONSELEMENTE
100
AcDbCircle
 62
7
  6
CONTINUOUS
 10
469.6327355806
 20
393.5006436129
 40
234.5
100
AcDbArc
 50
166.5709883805
 51
193.4290116195
  0
ARC
  5
4C8
100
AcDbEntity
  8
KONSTRUKTIONSELEMENTE
100
AcDbCircle
 62
7
  6
CONTINUOUS
 10
469.6327355806
 20
393.5006436129
 40
231.44427191
100
AcDbArc
 50
173.1760456275
 51
186.8239543725
  0
ARC
  5
4C9
100
AcDbEntity
  8
KONSTRUKTIONSELEMENTE
100
AcDbCircle
 62
7
  6
CONTINUOUS
 10
469.6327355806
 20
393.5006436129
 40
213.55572809
100
AcDbArc
 50
172.601362855
 51
187.398637145
  0
ARC
  5
4CA
100
AcDbEntity
  8
KONSTRUKTIONSELEMENTE
100
AcDbCircle
 62
7
  6
CONTINUOUS
 10
469.6327355806
 20
393.5006436129
 40
210.5
100
AcDbArc
 50
166.5709883805
 51
193.4290116195
  0
ARC
  5
4CB
100
AcDbEntity
  8
KONSTRUKTIONSELEMENTE
100
AcDbCircle
 62
7
  6
CONTINUOUS
 10
291.6362468512
 20
436.0006436129
 40
51.5
100
AcDbArc
 50
13.4290116195
 51
166.5709883805
  0
ARC
  5
4CC
100
AcDbEntity
  8
KONSTRUKTIONSELEMENTE
100
AcDbCircle
 62
7
  6
CONTINUOUS
 10
291.6362468512
 20
436.0006436129
 40
27.5
100
AcDbArc
 50
13.4290116195
 51
166.5709883805
  0
ARC
  5
4CD
100
AcDbEntity
  8
BEZUGSACHSEN
100
AcDbCircle
 62
7
  6
CONTINUOUS
 10
303.5462468512
 20
473.1906436129
 40
2.585
100
AcDbArc
 50
200.008260062
 51
20.2299077309
  0
ARC
  5
4CE
100
AcDbEntity
  8
BEZUGSACHSEN
100
AcDbCircle
 62
7
  6
CONTINUOUS
 10
303.5462468512
 20
473.1906436129
 40
2.585
100
AcDbArc
 50
36.0493290536
 51
185.9635951441
  0
CIRCLE
  5
4CF
100
AcDbEntity
  8
BEZUGSACHSEN
100
AcDbCircle
 62
7
  6
CONTINUOUS
 10
303.5462468512
 20
473.1906436129
 40
1.76
  0
ARC
  5
4D0
100
AcDbEntity
  8
RUNDUNGEN
100
AcDbCircle
 62
7
  6
CONTINUOUS
 10
450.8580772615
 20
318.7686073811
 40
5.0000036446
100
AcDbArc
 50
329.9998553518
 51
359.9998329743
  0
ARC
  5
4D1
100
AcDbEntity
  8
RUNDUNGEN
100
AcDbCircle
 62
7
  6
CONTINUOUS
 10
456.8580793595
 20
309.1609012847
 40
5.0
100
AcDbArc
 50
150.0000480838
 51
180.0000416417
  0
ARC
  5
4D2
100
AcDbEntity
  8
RUNDUNGEN
100
AcDbCircle
 62
7
  6
CONTINUOUS
 10
463.9403253745
 20
353.5006149227
 40
4.0
100
AcDbArc
 50
90.0003221495
 51
145.0
  0
ARC
  5
4D3
100
AcDbEntity
  8
RUNDUNGEN
100
AcDbCircle
 62
7
  6
CONTINUOUS
 10
459.8580772615
 20
347.670560417
 40
4.0
100
AcDbArc
 50
145.0
 51
180.0
  0
ARC
  5
4D4
100
AcDbEntity
  8
0
100
AcDbCircle
 62
7
  6
CONTINUOUS
 10
467.6980772615
 20
307.1506436129
 40
3.22
100
AcDbArc
 50
132.1294150686
 51
300.3705849314
  0
ARC
  5
4D5
100
AcDbEntity
  8
0
100
AcDbCircle
 62
7
  6
CONTINUOUS
 10
467.6980772615
 20
307.1506436129
 40
3.22
100
AcDbArc
 50
309.5364903521
 51
122.9635096479
  0
ARC
  5
4D6
100
AcDbEntity
  8
0
100
AcDbCircle
 62
7
  6
CONTINUOUS
 10
467.6980772615
 20
307.1506436129
 40
2.38
100
AcDbArc
 50
310.6984581435
 51
121.8015418565
  0
ARC
  5
4D7
100
AcDbEntity
  8
0
100
AcDbCircle
 62
7
  6
CONTINUOUS
 10
467.6980772615
 20
307.1506436129
 40
2.38
100
AcDbArc
 50
134.2161911632
 51
298.2838088368
  0
ARC
  5
4D8
100
AcDbEntity
  8
RUNDUNGEN
100
AcDbCircle
 62
7
  6
CONTINUOUS
 10
477.5619027979
 20
353.5006436129
 40
4.0
100
AcDbArc
 50
50.8832562204
 51
90.0
  0
ARC
  5
4D9
100
AcDbEntity
  8
BEZUGSACHSEN
100
AcDbCircle
 62
7
  6
CONTINUOUS
 10
435.4550848883
 20
463.2997399546
 40
71.6882225754
100
AcDbArc
 50
358.0833431335
 51
0.5753764816
  0
ARC
  5
4DA
100
AcDbEntity
  8
BEZUGSACHSEN
100
AcDbCircle
 62
7
  6
CONTINUOUS
 10
460.1335832736
 20
469.8033373767
 40
47.0097220057
100
AcDbArc
 50
357.6331361775
 51
0.7103162569
  0
ARC
  5
4DB
100
AcDbEntity
  8
BEZUGSACHSEN
100
AcDbCircle
 62
7
  6
CONTINUOUS
 10
469.133489459
 20
467.8901728035
 40
38.202781858
100
AcDbArc
 50
354.1850683446
 51
355.0028644211
  0
ARC
  5
4DC
100
AcDbEntity
  8
BEZUGSACHSEN
100
AcDbCircle
 62
7
  6
CONTINUOUS
 10
486.9875246637
 20
473.215074903
 40
20.349763431
100
AcDbArc
 50
352.0090514364
 51
353.1273077865
  0
ARC
  5
4DD
100
AcDbEntity
  8
RUNDUNGEN
100
AcDbCircle
 62
7
  6
CONTINUOUS
 10
495.8580772615
 20
306.0006436129
 40
18.5
100
AcDbArc
 50
130.4496711649
 51
49.5503332656
  0
ARC
  5
4DE
100
AcDbEntity
  8
KONSTRUKTIONSELEMENTE
100
AcDbCircle
 62
7
  6
CONTINUOUS
 10
495.8580772615
 20
311.5006436129
 40
12.0
100
AcDbArc
 50
180.0
 51
360.0
  0
ARC
  5
4DF
100
AcDbEntity
  8
0
100
AcDbCircle
 62
7
  6
CONTINUOUS
 10
495.8580772615
 20
376.0006436129
 40
25.0
100
AcDbArc
 50
296.8684518787
 51
309.1167437796
  0
ARC
  5
4E0
100
AcDbEntity
  8
0
100
AcDbCircle
 62
7
  6
CONTINUOUS
 10
495.8580772615
 20
376.0006436129
 40
25.0
100
AcDbArc
 50
230.8832562204
 51
243.1315481213
  0
ARC
  5
4E1
100
AcDbEntity
  8
RUNDUNGEN
100
AcDbCircle
 62
7
  6
CONTINUOUS
 10
514.154251725
 20
353.5006436129
 40
4.0
100
AcDbArc
 50
90.0
 51
129.1167437796
  0
ARC
  5
4E2
100
AcDbEntity
  8
RUNDUNGEN
100
AcDbCircle
 62
7
  6
CONTINUOUS
 10
540.8580772615
 20
318.7685928054
 40
5.0
100
AcDbArc
 50
180.4067696059
 51
210.0
  0
ARC
  5
4E3
100
AcDbEntity
  8
RUNDUNGEN
100
AcDbCircle
 62
7
  6
CONTINUOUS
 10
534.8580751485
 20
309.1609013106
 40
5.0
100
AcDbArc
 50
359.9999580615
 51
29.9999515735
  0
ARC
  5
4E4
100
AcDbEntity
  8
0
100
AcDbCircle
 62
7
  6
CONTINUOUS
 10
524.8712766357
 20
321.1074519875
 40
5.0
100
AcDbArc
 50
174.2608295227
 51
5.7391704773
  0
ARC
  5
4E5
100
AcDbEntity
  8
0
100
AcDbCircle
 62
7
  6
CONTINUOUS
 10
524.8712766357
 20
312.6074519875
 40
5.0
100
AcDbArc
 50
174.2608295227
 51
5.7391704773
  0
ARC
  5
4E6
100
AcDbEntity
  8
0
100
AcDbCircle
 62
7
  6
CONTINUOUS
 10
524.8712766357
 20
321.1074519875
 40
3.5
100
AcDbArc
 50
282.3736251162
 51
8.2132107017
  0
ARC
  5
4E7
100
AcDbEntity
  8
0
100
AcDbCircle
 62
7
  6
CONTINUOUS
 10
524.8712766357
 20
321.1074519875
 40
3.5
100
AcDbArc
 50
171.7867892983
 51
257.4447123387
  0
ARC
  5
4E8
100
AcDbEntity
  8
0
100
AcDbCircle
 62
7
  6
CONTINUOUS
 10
524.8712766357
 20
312.6074519875
 40
3.5
100
AcDbArc
 50
171.7867892983
 51
8.2132107017
  0
ARC
  5
4E9
100
AcDbEntity
  8
RUNDUNGEN
100
AcDbCircle
 62
7
  6
CONTINUOUS
 10
527.7758292232
 20
353.5006148159
 40
4.0
100
AcDbArc
 50
35.0
 51
89.9996766278
  0
ARC
  5
4EA
100
AcDbEntity
  8
RUNDUNGEN
100
AcDbCircle
 62
7
  6
CONTINUOUS
 10
531.8580772615
 20
347.670560417
 40
4.0
100
AcDbArc
 50
0.0
 51
35.0
  0
ARC
  5
4EB
100
AcDbEntity
  8
BEZUGSACHSEN
100
AcDbCircle
 62
7
  6
CONTINUOUS
 10
492.9270068782
 20
476.7953741291
 40
14.2152068031
100
AcDbArc
 50
3.1731172955
 51
4.603965747
  0
ARC
  5
4EC
100
AcDbEntity
  8
BEZUGSACHSEN
100
AcDbCircle
 62
7
  6
CONTINUOUS
 10
492.9270068782
 20
476.7162894769
 40
14.2152068032
100
AcDbArc
 50
355.396034253
 51
356.8268827045
  0
ARC
  5
4ED
100
AcDbEntity
  8
BEZUGSACHSEN
100
AcDbCircle
 62
7
  6
CONTINUOUS
 10
495.0916005986
 20
473.3171892139
 40
12.7625644135
100
AcDbArc
 50
11.8152864904
 51
19.5229011516
  0
ARC
  5
4EE
100
AcDbEntity
  8
KONSTRUKTIONSELEMENTE
100
AcDbCircle
 62
7
  6
CONTINUOUS
 10
495.8580772615
 20
475.5006436129
 40
12.0
100
AcDbArc
 50
19.5984407097
 51
180.0
  0
ARC
  5
4EF
100
AcDbEntity
  8
BEZUGSACHSEN
100
AcDbCircle
 62
7
  6
CONTINUOUS
 10
495.8634612701
 20
475.0153728399
 40
11.994794418
100
AcDbArc
 50
17.7373134389
 51
17.9504400611
  0
ARC
  5
4F0
100
AcDbEntity
  8
BEZUGSACHSEN
100
AcDbCircle
 62
7
  6
CONTINUOUS
 10
495.8824326074
 20
475.021664349
 40
11.9748075339
100
AcDbArc
 50
17.949777843
 51
20.4411899338
  0
ARC
  5
4F1
100
AcDbEntity
  8
BEZUGSACHSEN
100
AcDbCircle
 62
7
  6
CONTINUOUS
 10
496.3304674338
 20
474.4477169563
 40
11.5296579378
100
AcDbArc
 50
17.6217688074
 51
17.9615736801
  0
ARC
  5
4F2
100
AcDbEntity
  8
BEZUGSACHSEN
100
AcDbCircle
 62
7
  6
CONTINUOUS
 10
496.3379369047
 20
474.4501922999
 40
11.5217891583
100
AcDbArc
 50
17.9613186961
 51
20.3279370104
  0
ARC
  5
4F3
100
AcDbEntity
  8
BEZUGSACHSEN
100
AcDbCircle
 62
7
  6
CONTINUOUS
 10
506.3407028306
 20
476.6541010204
 40
5.9353848704
100
AcDbArc
 50
278.2371037066
 51
279.7541252388
  0
ARC
  5
4F4
100
AcDbEntity
  8
BEZUGSACHSEN
100
AcDbCircle
 62
7
  6
CONTINUOUS
 10
501.5675294603
 20
478.5603398611
 40
5.5756532137
100
AcDbArc
 50
358.8946418788
 51
1.1053581212
  0
ARC
  5
4F5
100
AcDbEntity
  8
BEZUGSACHSEN
100
AcDbCircle
 62
7
  6
CONTINUOUS
 10
504.8019606708
 20
466.5799220052
 40
3.1269594373
100
AcDbArc
 50
319.8211461416
 51
324.4562147628
  0
ARC
  5
4F6
100
AcDbEntity
  8
0
100
AcDbCircle
 62
7
  6
CONTINUOUS
 10
249.6362468512
 20
89.0693383109
 40
25.0
100
AcDbArc
 50
320.8832562204
 51
326.3576851342
  0
ARC
  5
4F7
100
AcDbEntity
  8
0
100
AcDbCircle
 62
7
  6
CONTINUOUS
 10
249.6362468512
 20
89.0693383109
 40
25.0
100
AcDbArc
 50
33.6423148658
 51
39.1167437796
  0
ARC
  5
4F8
100
AcDbEntity
  8
RUNDUNGEN
100
AcDbCircle
 62
7
  6
CONTINUOUS
 10
249.6362468512
 20
89.0693383109
 40
25.0
100
AcDbArc
 50
33.6423148658
 51
39.1167437796
  0
ARC
  5
4F9
100
AcDbEntity
  8
RUNDUNGEN
100
AcDbCircle
 62
7
  6
CONTINUOUS
 10
249.6362468512
 20
89.0693383109
 40
25.0
100
AcDbArc
 50
320.8832562204
 51
326.3576851342
  0
ARC
  5
4FA
100
AcDbEntity
  8
KONSTRUKTIONSELEMENTE
100
AcDbCircle
 62
7
  6
CONTINUOUS
 10
251.2146487804
 20
88.653383414
 40
12.4159514945
100
AcDbArc
 50
89.9900486988
 51
90.1049961074
  0
ARC
  5
4FB
100
AcDbEntity
  8
KONSTRUKTIONSELEMENTE
100
AcDbCircle
 62
7
  6
CONTINUOUS
 10
251.2147313966
 20
89.4637491105
 40
12.394408499
100
AcDbArc
 50
269.8942650933
 51
270.0083000578
  0
ARC
  5
4FC
100
AcDbEntity
  8
KONSTRUKTIONSELEMENTE
100
AcDbCircle
 62
7
  6
CONTINUOUS
 10
247.1327355806
 20
89.0693383109
 40
12.0
100
AcDbArc
 50
138.1896851042
 51
221.8103148958
  0
ARC
  5
4FD
100
AcDbEntity
  8
BEZUGSACHSEN
100
AcDbCircle
 62
7
  6
CONTINUOUS
 10
257.6661242526
 20
124.1253825225
 40
46.3412721379
100
AcDbArc
 50
267.6161273384
 51
270.7154120786
  0
ARC
  5
4FE
100
AcDbEntity
  8
RUNDUNGEN
100
AcDbCircle
 62
7
  6
CONTINUOUS
 10
263.6362468512
 20
89.0693383109
 40
15.0
100
AcDbArc
 50
53.1350677967
 51
57.7350895893
  0
ARC
  5
4FF
100
AcDbEntity
  8
BEZUGSACHSEN
100
AcDbCircle
 62
7
  6
CONTINUOUS
 10
263.3792597211
 20
89.1803194933
 40
12.1081871568
100
AcDbArc
 50
256.5314114303
 51
258.9644006146
  0
ARC
  5
500
100
AcDbEntity
  8
BEZUGSACHSEN
100
AcDbCircle
 62
7
  6
CONTINUOUS
 10
262.9029192406
 20
84.5914588982
 40
7.5242271936
100
AcDbArc
 50
255.8341933692
 51
259.9676960398
  0
ARC
  5
501
100
AcDbEntity
  8
BEZUGSACHSEN
100
AcDbCircle
 62
7
  6
CONTINUOUS
 10
262.5436947635
 20
81.0564244484
 40
3.9892847069
100
AcDbArc
 50
256.20083456
 51
258.4275233053
  0
ARC
  5
502
100
AcDbEntity
  8
RUNDUNGEN
100
AcDbCircle
 62
7
  6
CONTINUOUS
 10
274.200651077
 20
53.0693383109
 40
4.0
100
AcDbArc
 50
244.1580653705
 51
270.00000012
  0
ARC
  5
503
100
AcDbEntity
  8
RUNDUNGEN
100
AcDbCircle
 62
7
  6
CONTINUOUS
 10
272.1362468512
 20
70.7731638474
 40
4.0
100
AcDbArc
 50
140.8832562204
 51
180.0
  0
ARC
  5
504
100
AcDbEntity
  8
RUNDUNGEN
100
AcDbCircle
 62
7
  6
CONTINUOUS
 10
272.1362339295
 20
54.1444234985
 40
3.999994257
100
AcDbArc
 50
180.0000667175
 51
240.8237982757
  0
ARC
  5
505
100
AcDbEntity
  8
BEZUGSACHSEN
100
AcDbCircle
 62
7
  6
CONTINUOUS
 10
269.8165309057
 20
87.0081827289
 40
9.9382472868
100
AcDbArc
 50
255.0767814033
 51
257.7550744557
  0
ARC
  5
506
100
AcDbEntity
  8
BEZUGSACHSEN
100
AcDbCircle
 62
7
  6
CONTINUOUS
 10
269.2292334644
 20
82.1708261329
 40
5.1064265609
100
AcDbArc
 50
252.6765695283
 51
257.6650339091
  0
ARC
  5
507
100
AcDbEntity
  8
RUNDUNGEN
100
AcDbCircle
 62
7
  6
CONTINUOUS
 10
273.779103994
 20
73.0031486886
 40
4.0
100
AcDbArc
 50
129.9414125317
 51
146.3576851342
  0
ARC
  5
508
100
AcDbEntity
  8
BEZUGSACHSEN
100
AcDbCircle
 62
7
  6
CONTINUOUS
 10
268.8080600921
 20
78.9745042825
 40
1.9132593964
100
AcDbArc
 50
249.5109444335
 51
251.0414776443
  0
ARC
  5
509
100
AcDbEntity
  8
BEZUGSACHSEN
100
AcDbCircle
 62
7
  6
CONTINUOUS
 10
268.7822484669
 20
78.8973865175
 40
1.8319393001
100
AcDbArc
 50
251.0213719103
 51
255.749960233
  0
ARC
  5
50A
100
AcDbEntity
  8
BEZUGSACHSEN
100
AcDbCircle
 62
7
  6
CONTINUOUS
 10
262.9012582954
 20
132.9404567792
 40
55.3489586678
100
AcDbArc
 50
265.173990924
 51
265.853886477
  0
ARC
  5
50B
100
AcDbEntity
  8
BEZUGSACHSEN
100
AcDbCircle
 62
7
  6
CONTINUOUS
 10
271.2612129222
 20
106.0035103097
 40
28.8284336028
100
AcDbArc
 50
258.6754274759
 51
260.3720570499
  0
ARC
  5
50C
100
AcDbEntity
  8
BEZUGSACHSEN
100
AcDbCircle
 62
7
  6
CONTINUOUS
 10
264.4104566301
 20
104.47651625
 40
27.302140684
100
AcDbArc
 50
258.3548334829
 51
260.0973850899
  0
ARC
  5
50D
100
AcDbEntity
  8
BEZUGSACHSEN
100
AcDbCircle
 62
7
  6
CONTINUOUS
 10
263.93259645
 20
95.691978186
 40
18.5954033539
100
AcDbArc
 50
256.8913720214
 51
259.5478200384
  0
ARC
  5
50E
100
AcDbEntity
  8
BEZUGSACHSEN
100
AcDbCircle
 62
7
  6
CONTINUOUS
 10
270.5352529363
 20
94.618207999
 40
17.5224311074
100
AcDbArc
 50
256.4830056034
 51
259.2176858196
  0
ARC
  5
50F
100
AcDbEntity
  8
RUNDUNGEN
100
AcDbCircle
 62
7
  6
CONTINUOUS
 10
274.200651077
 20
125.0693383109
 40
4.0
100
AcDbArc
 50
90.0000019722
 51
115.8419366856
  0
ARC
  5
510
100
AcDbEntity
  8
RUNDUNGEN
100
AcDbCircle
 62
7
  6
CONTINUOUS
 10
272.1362468512
 20
123.9942577811
 40
4.0
100
AcDbArc
 50
119.176395855
 51
180.0
  0
ARC
  5
511
100
AcDbEntity
  8
RUNDUNGEN
100
AcDbCircle
 62
7
  6
CONTINUOUS
 10
272.1362468512
 20
107.3655127745
 40
4.0
100
AcDbArc
 50
180.0
 51
219.1167437796
  0
ARC
  5
512
100
AcDbEntity
  8
RUNDUNGEN
100
AcDbCircle
 62
7
  6
CONTINUOUS
 10
273.779103994
 20
105.1355279332
 40
4.0
100
AcDbArc
 50
213.6450003128
 51
237.7365100607
  0
ARC
  5
513
100
AcDbEntity
  8
BEZUGSACHSEN
100
AcDbCircle
 62
7
  6
CONTINUOUS
 10
288.2060985972
 20
195.0453089197
 40
117.2612024287
100
AcDbArc
 50
268.5013780335
 51
270.4499818134
  0
ARC
  5
514
100
AcDbEntity
  8
BEZUGSACHSEN
100
AcDbCircle
 62
7
  6
CONTINUOUS
 10
282.2613519044
 20
192.6642809312
 40
114.8800482167
100
AcDbArc
 50
269.7564654241
 51
270.2435345759
  0
ARC
  5
515
100
AcDbEntity
  8
BEZUGSACHSEN
100
AcDbCircle
 62
7
  6
CONTINUOUS
 10
276.3160611611
 20
176.30005224
 40
98.514754484
100
AcDbArc
 50
271.2025614647
 51
271.7466411499
  0
ARC
  5
516
100
AcDbEntity
  8
BEZUGSACHSEN
100
AcDbCircle
 62
7
  6
CONTINUOUS
 10
276.0869631196
 20
176.3000522401
 40
98.5147544841
100
AcDbArc
 50
268.2533588501
 51
268.7974385353
  0
ARC
  5
517
100
AcDbEntity
  8
BEZUGSACHSEN
100
AcDbCircle
 62
7
  6
CONTINUOUS
 10
270.200091071
 20
150.794445141
 40
73.2027560224
100
AcDbArc
 50
265.8059245065
 51
266.3973469079
  0
ARC
  5
518
100
AcDbEntity
  8
BEZUGSACHSEN
100
AcDbCircle
 62
7
  6
CONTINUOUS
 10
264.1298741542
 20
148.803880475
 40
71.0197723272
100
AcDbArc
 50
268.074344252
 51
270.5780746564
  0
ARC
  5
519
100
AcDbEntity
  8
0
100
AcDbCircle
 62
7
  6
CONTINUOUS
 10
291.6362468512
 20
89.0693383109
 40
44.5
100
AcDbArc
 50
22.4590156109
 51
31.1214551226
  0
ARC
  5
51A
100
AcDbEntity
  8
0
100
AcDbCircle
 62
7
  6
CONTINUOUS
 10
291.6362468512
 20
89.0693383109
 40
44.5
100
AcDbArc
 50
15.348430884
 51
21.7641306659
  0
ARC
  5
51B
100
AcDbEntity
  8
0
100
AcDbCircle
 62
7
  6
CONTINUOUS
 10
291.6362468512
 20
89.0693383109
 40
44.5
100
AcDbArc
 50
330.3709915468
 51
344.6515603348
  0
ARC
  5
51C
100
AcDbEntity
  8
RUNDUNGEN
100
AcDbCircle
 62
7
  6
CONTINUOUS
 10
291.6362468512
 20
89.0693383109
 40
44.0
100
AcDbArc
 50
15.6412520525
 51
164.3584659463
  0
ARC
  5
51D
100
AcDbEntity
  8
RUNDUNGEN
100
AcDbCircle
 62
7
  6
CONTINUOUS
 10
291.6362468512
 20
89.0693383109
 40
44.0
100
AcDbArc
 50
195.6415400604
 51
344.3587483084
  0
ARC
  5
51E
100
AcDbEntity
  8
BEZUGSACHSEN
100
AcDbCircle
 62
7
  6
CONTINUOUS
 10
293.5730422314
 20
85.7131086306
 40
8.6326476913
100
AcDbArc
 50
250.3905338389
 51
254.2362402428
  0
ARC
  5
51F
100
AcDbEntity
  8
BEZUGSACHSEN
100
AcDbCircle
 62
7
  6
CONTINUOUS
 10
292.6199642412
 20
79.7875374413
 40
2.7593427102
100
AcDbArc
 50
239.6999419246
 51
244.5465201044
  0
ARC
  5
520
100
AcDbEntity
  8
RUNDUNGEN
100
AcDbCircle
 62
7
  6
CONTINUOUS
 10
309.0718426253
 20
53.0693383109
 40
4.0
100
AcDbArc
 50
270.0000018936
 51
295.8419370084
  0
ARC
  5
521
100
AcDbEntity
  8
RUNDUNGEN
100
AcDbCircle
 62
7
  6
CONTINUOUS
 10
311.1362468512
 20
54.1444188407
 40
4.0
100
AcDbArc
 50
299.176395855
 51
360.0
  0
ARC
  5
522
100
AcDbEntity
  8
RUNDUNGEN
100
AcDbCircle
 62
7
  6
CONTINUOUS
 10
311.1362468512
 20
70.7731638474
 40
4.0
100
AcDbArc
 50
0.0
 51
39.1167437796
  0
ARC
  5
523
100
AcDbEntity
  8
BEZUGSACHSEN
100
AcDbCircle
 62
7
  6
CONTINUOUS
 10
313.3538765953
 20
87.9636877239
 40
10.892367385
100
AcDbArc
 50
279.8281474215
 51
284.0834729629
  0
ARC
  5
524
100
AcDbEntity
  8
BEZUGSACHSEN
100
AcDbCircle
 62
7
  6
CONTINUOUS
 10
313.744347288
 20
83.7922112575
 40
6.7234314798
100
AcDbArc
 50
275.0822340309
 51
282.6184717036
  0
ARC
  5
525
100
AcDbEntity
  8
BEZUGSACHSEN
100
AcDbCircle
 62
7
  6
CONTINUOUS
 10
313.8448552507
 20
81.8012239699
 40
4.7319825866
100
AcDbArc
 50
275.2914074833
 51
276.0056411724
  0
ARC
  5
526
100
AcDbEntity
  8
RUNDUNGEN
100
AcDbCircle
 62
7
  6
CONTINUOUS
 10
309.4933897083
 20
73.0031486886
 40
4.0
100
AcDbArc
 50
33.6448889392
 51
49.7067303292
  0
ARC
  5
527
100
AcDbEntity
  8
BEZUGSACHSEN
100
AcDbCircle
 62
7
  6
CONTINUOUS
 10
310.4602537661
 20
80.3096429679
 40
3.2446340726
100
AcDbArc
 50
284.5054227334
 51
285.7894761815
  0
ARC
  5
528
100
AcDbEntity
  8
BEZUGSACHSEN
100
AcDbCircle
 62
7
  6
CONTINUOUS
 10
311.739154147
 20
112.5105110935
 40
35.3033170417
100
AcDbArc
 50
278.2743919339
 51
279.8684968537
  0
ARC
  5
529
100
AcDbEntity
  8
BEZUGSACHSEN
100
AcDbCircle
 62
7
  6
CONTINUOUS
 10
303.4402007774
 20
99.892719609
 40
22.8132514157
100
AcDbArc
 50
275.5239521041
 51
277.3944276617
  0
ARC
  5
52A
100
AcDbEntity
  8
BEZUGSACHSEN
100
AcDbCircle
 62
7
  6
CONTINUOUS
 10
294.7849102449
 20
97.9148540274
 40
20.7447417518
100
AcDbArc
 50
256.5823576717
 51
258.5754968109
  0
ARC
  5
52B
100
AcDbEntity
  8
BEZUGSACHSEN
100
AcDbCircle
 62
7
  6
CONTINUOUS
 10
312.7799288891
 20
94.3172273757
 40
17.223034565
100
AcDbArc
 50
280.7904147916
 51
283.5657873545
  0
ARC
  5
52C
100
AcDbEntity
  8
BEZUGSACHSEN
100
AcDbCircle
 62
7
  6
CONTINUOUS
 10
308.7036022807
 20
93.8053507703
 40
16.699521303
100
AcDbArc
 50
281.221759903
 51
286.3874359363
  0
ARC
  5
52D
100
AcDbEntity
  8
RUNDUNGEN
100
AcDbCircle
 62
7
  6
CONTINUOUS
 10
309.0718337873
 20
125.0693425945
 40
4.0000000003
100
AcDbArc
 50
64.1580076131
 51
89.999584787
  0
ARC
  5
52E
100
AcDbEntity
  8
RUNDUNGEN
100
AcDbCircle
 62
7
  6
CONTINUOUS
 10
311.1362468512
 20
107.3655127745
 40
4.0
100
AcDbArc
 50
320.8832562204
 51
360.0
  0
ARC
  5
52F
100
AcDbEntity
  8
RUNDUNGEN
100
AcDbCircle
 62
7
  6
CONTINUOUS
 10
309.4933897083
 20
105.1355279332
 40
4.0
100
AcDbArc
 50
302.2636471777
 51
326.3551390299
  0
ARC
  5
530
100
AcDbEntity
  8
RUNDUNGEN
100
AcDbCircle
 62
7
  6
CONTINUOUS
 10
311.1362564222
 20
123.9942542832
 40
3.9999957462
100
AcDbArc
 50
0.000050104
 51
60.8237482715
  0
ARC
  5
531
100
AcDbEntity
  8
RUNDUNGEN
100
AcDbCircle
 62
7
  6
CONTINUOUS
 10
333.6362468512
 20
89.0693383109
 40
25.0
100
AcDbArc
 50
213.6423148658
 51
219.1167437796
  0
ARC
  5
532
100
AcDbEntity
  8
RUNDUNGEN
100
AcDbCircle
 62
7
  6
CONTINUOUS
 10
333.6362468512
 20
89.0693383109
 40
25.0
100
AcDbArc
 50
140.8832562204
 51
146.3576851342
  0
ARC
  5
533
100
AcDbEntity
  8
RUNDUNGEN
100
AcDbCircle
 62
7
  6
CONTINUOUS
 10
319.6362468512
 20
89.0693383109
 40
15.0
100
AcDbArc
 50
122.2649104107
 51
126.8667992565
  0
ARC
  5
534
100
AcDbEntity
  8
KONSTRUKTIONSELEMENTE
100
AcDbCircle
 62
7
  6
CONTINUOUS
 10
332.0577631439
 20
88.6747472975
 40
12.3945887049
100
AcDbArc
 50
89.8941663308
 51
90.0082951387
  0
ARC
  5
535
100
AcDbEntity
  8
KONSTRUKTIONSELEMENTE
100
AcDbCircle
 62
7
  6
CONTINUOUS
 10
336.1397581218
 20
89.0693383109
 40
12.0
100
AcDbArc
 50
318.1896851042
 51
41.8103148958
  0
ARC
  5
536
100
AcDbEntity
  8
BEZUGSACHSEN
100
AcDbCircle
 62
7
  6
CONTINUOUS
 10
322.0501633191
 20
82.5347665027
 40
5.3874967581
100
AcDbArc
 50
243.1154707793
 51
247.0232936089
  0
ARC
  5
537
100
AcDbEntity
  8
BEZUGSACHSEN
100
AcDbCircle
 62
7
  6
CONTINUOUS
 10
323.0910754373
 20
114.8458238587
 40
37.278785945
100
AcDbArc
 50
263.8055358626
 51
264.6480697565
  0
ARC
  5
538
100
AcDbEntity
  8
BEZUGSACHSEN
100
AcDbCircle
 62
7
  6
CONTINUOUS
 10
327.9393901455
 20
113.9086896419
 40
36.1245774374
100
AcDbArc
 50
267.2999955698
 51
270.8100853434
  0
ARC
  5
539
100
AcDbEntity
  8
BEZUGSACHSEN
100
AcDbCircle
 62
7
  6
CONTINUOUS
 10
330.7611505679
 20
91.126695854
 40
13.5376894436
100
AcDbArc
 50
260.1708739341
 51
261.5388964502
  0
ARC
  5
53A
100
AcDbEntity
  8
KONSTRUKTIONSELEMENTE
100
AcDbCircle
 62
7
  6
CONTINUOUS
 10
332.0578389544
 20
89.4831066694
 40
12.4137650699
100
AcDbArc
 50
269.9902189363
 51
270.1054113919
  0
ARC
  5
53B
100
AcDbEntity
  8
BEZUGSACHSEN
100
AcDbCircle
 62
7
  6
CONTINUOUS
 10
310.157974706
 20
221.6421265821
 40
144.4224572764
100
AcDbArc
 50
268.4995282705
 51
268.8328667796
  0
ARC
  5
53C
100
AcDbEntity
  8
BEZUGSACHSEN
100
AcDbCircle
 62
7
  6
CONTINUOUS
 10
295.1164816265
 20
169.2438426927
 40
91.6520350217
100
AcDbArc
 50
266.2530494178
 51
266.7817291355
  0
ARC
  5
53D
100
AcDbEntity
  8
BEZUGSACHSEN
100
AcDbCircle
 62
7
  6
CONTINUOUS
 10
313.415673771
 20
167.9621338318
 40
90.1779007507
100
AcDbArc
 50
269.9996077372
 51
270.5499515906
  0
ARC
  5
53E
100
AcDbEntity
  8
BEZUGSACHSEN
100
AcDbCircle
 62
7
  6
CONTINUOUS
 10
318.8079590454
 20
151.4425534491
 40
73.6583204376
100
AcDbArc
 50
269.7972822865
 51
270.2027200334
  0
ARC
  5
53F
100
AcDbEntity
  8
BEZUGSACHSEN
100
AcDbCircle
 62
7
  6
CONTINUOUS
 10
312.9848943178
 20
148.9803573737
 40
71.4126276455
100
AcDbArc
 50
273.8579052559
 51
274.4673943806
  0
SPLINE
  5
540
100
AcDbEntity
  8
KONSTRUKTIONSELEMENTE
100
AcDbSpline
 62
7
  6
CONTINUOUS
 70
0
 71
3
 72
28
 73
24
 74
0
 42
0.0000001
 43
0.0000001
 44
0.0000000001
 40
0.0
 40
0.0
 40
0.0
 40
0.0
 40
0.1243402228
 40
0.1866273209
 40
0.249009927
 40
0.3115206719
 40
0.3742120005
 40
0.405674978
 40
0.4372357647
 40
0.4689232557
 40
0.5007557081
 40
0.5326745545
 40
0.5486836882
 40
0.5646472554
 40
0.596268604
 40
0.6276729248
 40
0.6589198837
 40
0.6900688418
 40
0.7521756909
 40
0.8141870209
 40
0.8761488855
 40
0.9380827507
 40
1.0
 40
1.0
 40
1.0
 40
1.0
 10
239.8280337141
 20
366.0006436129
 30
0.0
 10
240.3487245898
 20
364.558437485
 30
0.0
 10
241.2094272551
 20
362.4202403371
 30
0.0
 10
242.5519316962
 20
359.6574052727
 30
0.0
 10
243.6747747117
 20
357.6388877928
 30
0.0
 10
244.9365543505
 20
355.6977463076
 30
0.0
 10
246.1354954708
 20
354.1768795975
 30
0.0
 10
247.2158894682
 20
353.0630139402
 30
0.0
 10
248.1025470608
 20
352.2996281338
 30
0.0
 10
249.0814325794
 20
351.6468509335
 30
0.0
 10
250.1675939028
 20
351.1720906562
 30
0.0
 10
251.1603916703
 20
351.0305833073
 30
0.0
 10
251.9456588403
 20
351.1368619628
 30
0.0
 10
252.6934840029
 20
351.3872731704
 30
0.0
 10
253.5169773149
 20
351.9393103419
 30
0.0
 10
254.2945372475
 20
352.8129182133
 30
0.0
 10
254.9160373023
 20
353.792507501
 30
0.0
 10
255.5907832978
 20
355.1739018625
 30
0.0
 10
256.2282623957
 20
356.9849633379
 30
0.0
 10
256.7972396657
 20
359.2093421315
 30
0.0
 10
257.236012703
 20
361.4605102036
 30
0.0
 10
257.5834230602
 20
363.7257999588
 30
0.0
 10
257.7701737211
 20
365.2418298962
 30
0.0
 10
257.8550242887
 20
366.0006436129
 30
0.0
  0
SPLINE
  5
541
100
AcDbEntity
  8
KONSTRUKTIONSELEMENTE
100
AcDbSpline
 62
7
  6
CONTINUOUS
 70
0
 71
3
 72
28
 73
24
 74
0
 42
0.0000001
 43
0.0000001
 44
0.0000000001
 40
0.0
 40
0.0
 40
0.0
 40
0.0
 40
0.0619172356
 40
0.1238510907
 40
0.1858129542
 40
0.2478242892
 40
0.3099311994
 40
0.3410802227
 40
0.3723272643
 40
0.4037315621
 40
0.4353531508
 40
0.4513167113
 40
0.467325827
 40
0.4992448653
 40
0.5310771413
 40
0.5627646425
 40
0.5943254185
 40
0.6257883542
 40
0.6884796568
 40
0.7509903273
 40
0.8133728837
 40
0.8756599222
 40
1.0
 40
1.0
 40
1.0
 40
1.0
 10
257.8550242887
 20
421.0006436129
 30
0.0
 10
257.7701737403
 20
421.7594571575
 30
0.0
 10
257.5834231564
 20
423.2754868073
 30
0.0
 10
257.2360124417
 20
425.540776162
 30
0.0
 10
256.7972403884
 20
427.791944371
 30
0.0
 10
256.2282620173
 20
430.0163236168
 30
0.0
 10
255.5907845827
 20
431.827387461
 30
0.0
 10
254.9160376512
 20
433.2087840918
 30
0.0
 10
254.2945375716
 20
434.1883756265
 30
0.0
 10
253.5169699298
 20
435.0619812907
 30
0.0
 10
252.6934729848
 20
435.6140188538
 30
0.0
 10
251.9456426719
 20
435.8644230651
 30
0.0
 10
251.1603736982
 20
435.9707006814
 30
0.0
 10
250.1675756339
 20
435.8291938386
 30
0.0
 10
249.0814147784
 20
435.354431252
 30
0.0
 10
248.1025339152
 20
434.7016509189
 30
0.0
 10
247.215878788
 20
433.9382633562
 30
0.0
 10
246.1354840978
 20
432.8243996588
 30
0.0
 10
244.9365493561
 20
431.3035300853
 30
0.0
 10
243.6747678621
 20
429.3623922366
 30
0.0
 10
242.5519292821
 20
427.3438747542
 30
0.0
 10
241.2094257894
 20
424.5810428654
 30
0.0
 10
240.3487239799
 20
422.4428480516
 30
0.0
 10
239.8280337141
 20
421.0006436129
 30
0.0
  0
SPLINE
  5
542
100
AcDbEntity
  8
KONSTRUKTIONSELEMENTE
100
AcDbSpline
 62
7
  6
CONTINUOUS
 70
0
 71
3
 72
28
 73
24
 74
0
 42
0.0000001
 43
0.0000001
 44
0.0000000001
 40
0.0
 40
0.0
 40
0.0
 40
0.0
 40
0.1243402244
 40
0.1866273236
 40
0.2490099309
 40
0.3115206775
 40
0.3742120078
 40
0.4056749864
 40
0.4372357734
 40
0.4689232616
 40
0.5007557067
 40
0.5326745433
 40
0.5486836797
 40
0.5646472516
 40
0.5962685993
 40
0.6276729207
 40
0.6589198797
 40
0.6900688381
 40
0.7521756878
 40
0.8141870186
 40
0.8761488839
 40
0.93808275
 40
1.0
 40
1.0
 40
1.0
 40
1.0
 10
343.4444599883
 20
421.0006436129
 30
0.0
 10
342.9237691059
 20
422.4428497594
 30
0.0
 10
342.0630664265
 20
424.5810469353
 30
0.0
 10
340.7205619666
 20
427.3438820431
 30
0.0
 10
339.5977189054
 20
429.3623995507
 30
0.0
 10
338.3359392558
 20
431.3035410979
 30
0.0
 10
337.1369980393
 20
432.8244078007
 30
0.0
 10
336.0566040235
 20
433.9382734903
 30
0.0
 10
335.1699464115
 20
434.7016592506
 30
0.0
 10
334.1910609552
 20
435.3544363206
 30
0.0
 10
333.1048998665
 20
435.8291965015
 30
0.0
 10
332.1121022923
 20
435.9707038834
 30
0.0
 10
331.3268351473
 20
435.8644252887
 30
0.0
 10
330.5790098569
 20
435.6140141979
 30
0.0
 10
329.7555165112
 20
435.0619769593
 30
0.0
 10
328.9779565394
 20
434.1883691393
 30
0.0
 10
328.3564564647
 20
433.2087798468
 30
0.0
 10
327.6817104479
 20
431.8273854832
 30
0.0
 10
327.0442313372
 20
430.0163239911
 30
0.0
 10
326.4752540521
 20
427.7919451749
 30
0.0
 10
326.0364810106
 20
425.5407770757
 30
0.0
 10
325.6890706455
 20
423.2754872941
 30
0.0
 10
325.5023199823
 20
421.7594573386
 30
0.0
 10
325.4174694137
 20
421.0006436129
 30
0.0
  0
SPLINE
  5
543
100
AcDbEntity
  8
KONSTRUKTIONSELEMENTE
100
AcDbSpline
 62
7
  6
CONTINUOUS
 70
0
 71
3
 72
28
 73
24
 74
0
 42
0.0000001
 43
0.0000001
 44
0.0000000001
 40
0.0
 40
0.0
 40
0.0
 40
0.0
 40
0.0619172342
 40
0.1238510876
 40
0.1858129483
 40
0.2478242794
 40
0.3099311781
 40
0.3410801903
 40
0.372327214
 40
0.4037315
 40
0.4353530176
 40
0.4513166023
 40
0.467325748
 40
0.4992447939
 40
0.5310771122
 40
0.5627646212
 40
0.5943254014
 40
0.6257883415
 40
0.6884796469
 40
0.7509903215
 40
0.8133728795
 40
0.8756599192
 40
1.0
 40
1.0
 40
1.0
 40
1.0
 10
325.4174694137
 20
366.0006436129
 30
0.0
 10
325.5023199605
 20
365.2418300826
 30
0.0
 10
325.6890705441
 20
363.7258004674
 30
0.0
 10
326.0364812034
 20
361.4605111685
 30
0.0
 10
326.4752533269
 20
359.2093430755
 30
0.0
 10
327.0442315265
 20
356.9849640008
 30
0.0
 10
327.6817090567
 20
355.1739005382
 30
0.0
 10
328.3564557484
 20
353.7925043306
 30
0.0
 10
328.9779555885
 20
352.8129132806
 30
0.0
 10
329.7555215993
 20
351.9393078668
 30
0.0
 10
330.5790171631
 20
351.3872697644
 30
0.0
 10
331.326846873
 20
351.1368642817
 30
0.0
 10
332.1121166106
 20
351.0305862444
 30
0.0
 10
333.104915702
 20
351.1720928095
 30
0.0
 10
334.1910773447
 20
351.6468554623
 30
0.0
 10
335.1699589624
 20
352.2996358606
 30
0.0
 10
336.0566143842
 20
353.063023422
 30
0.0
 10
337.1370090802
 20
354.1768873107
 30
0.0
 10
338.3359442548
 20
355.6977567246
 30
0.0
 10
339.5977255935
 20
357.6388948219
 30
0.0
 10
340.7205643881
 20
359.6574122823
 30
0.0
 10
342.063067878
 20
362.42024427
 30
0.0
 10
342.9237697086
 20
364.5584391359
 30
0.0
 10
343.4444599883
 20
366.0006436129
 30
0.0
  0
SPLINE
  5
544
100
AcDbEntity
  8
BEZUGSACHSEN
100
AcDbSpline
 62
7
  6
CONTINUOUS
 70
0
 71
3
 72
9
 73
5
 74
0
 42
0.0000001
 43
0.0000001
 44
0.0000000001
 40
0.0
 40
0.0
 40
0.0
 40
0.0
 40
0.5112601974
 40
1.0
 40
1.0
 40
1.0
 40
1.0
 10
507.1032004071
 20
460.9020747088
 30
0.0
 10
507.3434053965
 20
460.4970566884
 30
0.0
 10
507.7236527724
 20
459.6457307207
 30
0.0
 10
507.8580541479
 20
458.720353022
 30
0.0
 10
507.8580601145
 20
458.270204507
 30
0.0
  0
SPLINE
  5
545
100
AcDbEntity
  8
BEZUGSACHSEN
100
AcDbSpline
 62
7
  6
CONTINUOUS
 70
0
 71
3
 72
9
 73
5
 74
0
 42
0.0000001
 43
0.0000001
 44
0.0000000001
 40
0.0
 40
0.0
 40
0.0
 40
0.0
 40
0.5047722371
 40
1.0
 40
1.0
 40
1.0
 40
1.0
 10
507.09634583
 20
475.5752644438
 30
0.0
 10
507.3446792847
 20
475.0451707193
 30
0.0
 10
507.7279896995
 20
473.9397773753
 30
0.0
 10
507.8580213924
 20
472.7764608099
 30
0.0
 10
507.8580601524
 20
472.2021501954
 30
0.0
  0
SPLINE
  5
546
100
AcDbEntity
  8
BEZUGSACHSEN
100
AcDbSpline
 62
7
  6
CONTINUOUS
 70
0
 71
3
 72
9
 73
5
 74
0
 42
0.0000001
 43
0.0000001
 44
0.0000000001
 40
0.0
 40
0.0
 40
0.0
 40
0.0
 40
0.7433435734
 40
1.0
 40
1.0
 40
1.0
 40
1.0
 10
507.1396927621
 20
479.5180016831
 30
0.0
 10
507.1472953819
 20
479.4396678895
 30
0.0
 10
507.1403949158
 20
479.3316029823
 30
0.0
 10
507.1118252324
 20
479.2295837615
 30
0.0
 10
507.1032003883
 20
479.2038152169
 30
0.0
  0
SPLINE
  5
547
100
AcDbEntity
  8
BEZUGSACHSEN
100
AcDbSpline
 62
7
  6
CONTINUOUS
 70
0
 71
3
 72
9
 73
5
 74
0
 42
0.0000001
 43
0.0000001
 44
0.0000000001
 40
0.0
 40
0.0
 40
0.0
 40
0.0
 40
0.5049537649
 40
1.0
 40
1.0
 40
1.0
 40
1.0
 10
507.1032004008
 20
467.8619384021
 30
0.0
 10
507.3364779587
 20
467.374929287
 30
0.0
 10
507.7032030885
 20
466.3610972014
 30
0.0
 10
507.8447567876
 20
465.2914180451
 30
0.0
 10
507.8563236664
 20
464.762142944
 30
0.0
  0
SPLINE
  5
548
100
AcDbEntity
  8
KONSTRUKTIONSELEMENTE
100
AcDbSpline
 62
7
  6
CONTINUOUS
 70
0
 71
3
 72
12
 73
8
 74
0
 42
0.0000001
 43
0.0000001
 44
0.0000000001
 40
0.0
 40
0.0
 40
0.0
 40
0.0
 40
0.1794455768
 40
0.3891670555
 40
0.6469242811
 40
0.8073233006
 40
1.0
 40
1.0
 40
1.0
 40
1.0
 10
343.4444599883
 20
81.0693383109
 30
0.0
 10
342.8562478122
 20
80.6327884725
 30
0.0
 10
341.5210849058
 20
79.764338599
 30
0.0
 10
339.1528655525
 20
78.584311332
 30
0.0
 10
336.7240646129
 20
77.734705254
 30
0.0
 10
334.2851384629
 20
77.2032427744
 30
0.0
 10
332.8424884258
 20
77.0692266896
 30
0.0
 10
332.0559691754
 20
77.0693407471
 30
0.0
  0
SPLINE
  5
549
100
AcDbEntity
  8
KONSTRUKTIONSELEMENTE
100
AcDbSpline
 62
7
  6
CONTINUOUS
 70
0
 71
3
 72
12
 73
8
 74
0
 42
0.0000001
 43
0.0000001
 44
0.0000000001
 40
0.0
 40
0.0
 40
0.0
 40
0.0
 40
0.1926781925
 40
0.3530783452
 40
0.6108355881
 40
0.8205559065
 40
1.0
 40
1.0
 40
1.0
 40
1.0
 10
251.2168136282
 20
77.0693419312
 30
0.0
 10
250.4302697937
 20
77.0692044473
 30
0.0
 10
248.9875718351
 20
77.2032081652
 30
0.0
 10
246.5485729575
 20
77.7346612984
 30
0.0
 10
244.1197093656
 20
78.5842740459
 30
0.0
 10
241.7514411361
 20
79.7643188264
 30
0.0
 10
240.4162548583
 20
80.6327818166
 30
0.0
 10
239.8280337141
 20
81.0693383109
 30
0.0
  0
SPLINE
  5
54A
100
AcDbEntity
  8
KONSTRUKTIONSELEMENTE
100
AcDbSpline
 62
7
  6
CONTINUOUS
 70
0
 71
3
 72
12
 73
8
 74
0
 42
0.0000001
 43
0.0000001
 44
0.0000000001
 40
0.0
 40
0.0
 40
0.0
 40
0.0
 40
0.1926781147
 40
0.3530780708
 40
0.6108352614
 40
0.8205557128
 40
1.0
 40
1.0
 40
1.0
 40
1.0
 10
332.055724797
 20
101.0693348599
 30
0.0
 10
332.8422654527
 20
101.069469015
 30
0.0
 10
334.2849565369
 20
100.9354627942
 30
0.0
 10
336.7239444209
 20
100.4040080381
 30
0.0
 10
339.1527978652
 20
99.5543964331
 30
0.0
 10
341.5210579681
 20
98.3743544551
 30
0.0
 10
342.8562403493
 20
97.5058936881
 30
0.0
 10
343.4444599883
 20
97.0693383109
 30
0.0
  0
SPLINE
  5
54B
100
AcDbEntity
  8
KONSTRUKTIONSELEMENTE
100
AcDbSpline
 62
7
  6
CONTINUOUS
 70
0
 71
3
 72
12
 73
8
 74
0
 42
0.0000001
 43
0.0000001
 44
0.0000000001
 40
0.0
 40
0.0
 40
0.0
 40
0.0
 40
0.1794455571
 40
0.3891670156
 40
0.6469242231
 40
0.8073232446
 40
1.0
 40
1.0
 40
1.0
 40
1.0
 10
239.8280337141
 20
97.0693383109
 30
0.0
 10
240.4162459549
 20
97.5058881974
 30
0.0
 10
241.7514090247
 20
98.3743381626
 30
0.0
 10
244.1196287065
 20
99.5543655466
 30
0.0
 10
246.5484300794
 20
100.403971654
 30
0.0
 10
248.9873569559
 20
100.9354341544
 30
0.0
 10
250.4300075762
 20
101.0694500747
 30
0.0
 10
251.2165272277
 20
101.0693358789
 30
0.0
  0
SPLINE
  5
54C
100
AcDbEntity
  8
BEZUGSACHSEN
100
AcDbSpline
 62
7
  6
CONTINUOUS
 70
0
 71
3
 72
13
 73
9
 74
0
 42
0.0000001
 43
0.0000001
 44
0.0000000001
 40
0.0
 40
0.0
 40
0.0
 40
0.0
 40
0.2311658629
 40
0.5248918589
 40
0.6716439629
 40
0.805423995
 40
0.9174086938
 40
1.0
 40
1.0
 40
1.0
 40
1.0
 10
305.6362468512
 20
77.185411935
 30
0.0
 10
305.2983571501
 20
77.2304756511
 30
0.0
 10
304.5238174261
 20
77.2768706616
 30
0.0
 10
303.5330132017
 20
77.2476412667
 30
0.0
 10
302.6885688151
 20
77.183831395
 30
0.0
 10
302.1121778896
 20
77.1304065656
 30
0.0
 10
301.6300411304
 20
77.0870695106
 30
0.0
 10
301.3433433335
 20
77.0693741737
 30
0.0
 10
301.2215526593
 20
77.0693408583
 30
0.0
  0
SPLINE
  5
54D
100
AcDbEntity
  8
BEZUGSACHSEN
100
AcDbSpline
 62
7
  6
CONTINUOUS
 70
0
 71
3
 72
9
 73
5
 74
0
 42
0.0000001
 43
0.0000001
 44
0.0000000001
 40
0.0
 40
0.0
 40
0.0
 40
0.0
 40
0.2058688819
 40
1.0
 40
1.0
 40
1.0
 40
1.0
 10
268.3730839393
 20
77.0762952804
 30
0.0
 10
268.3693929551
 20
77.0784319513
 30
0.0
 10
268.3525200884
 20
77.0906463364
 30
0.0
 10
268.3400054042
 20
77.1078494351
 30
0.0
 10
268.3313093432
 20
77.1218146361
 30
0.0
  0
SPLINE
  5
54E
100
AcDbEntity
  8
BEZUGSACHSEN
100
AcDbSpline
 62
7
  6
CONTINUOUS
 70
0
 71
3
 72
9
 73
5
 74
0
 42
0.0000001
 43
0.0000001
 44
0.0000000001
 40
0.0
 40
0.0
 40
0.0
 40
0.0
 40
0.5033480354
 40
1.0
 40
1.0
 40
1.0
 40
1.0
 10
326.237686729
 20
77.824215134
 30
0.0
 10
325.6860531977
 20
77.5781757296
 30
0.0
 10
324.5374790306
 20
77.1985537124
 30
0.0
 10
323.3340695031
 20
77.0693613988
 30
0.0
 10
322.7380890823
 20
77.069355458
 30
0.0
  0
SPLINE
  5
54F
100
AcDbEntity
  8
BEZUGSACHSEN
100
AcDbSpline
 62
7
  6
CONTINUOUS
 70
0
 71
3
 72
9
 73
5
 74
0
 42
0.0000001
 43
0.0000001
 44
0.0000000001
 40
0.0
 40
0.0
 40
0.0
 40
0.0
 40
0.4899669347
 40
1.0
 40
1.0
 40
1.0
 40
1.0
 10
276.7481995232
 20
77.0693395187
 30
0.0
 10
276.2826768929
 20
77.0693364518
 30
0.0
 10
275.3284390158
 20
77.1982681906
 30
0.0
 10
274.4421130633
 20
77.5700193699
 30
0.0
 10
274.0194225345
 20
77.8069960026
 30
0.0
  0
SPLINE
  5
550
100
AcDbEntity
  8
BEZUGSACHSEN
100
AcDbSpline
 62
7
  6
CONTINUOUS
 70
0
 71
3
 72
12
 73
8
 74
0
 42
0.0000001
 43
0.0000001
 44
0.0000000001
 40
0.0
 40
0.0
 40
0.0
 40
0.0
 40
0.0318647904
 40
0.0849147541
 40
0.2735216105
 40
0.578463413
 40
1.0
 40
1.0
 40
1.0
 40
1.0
 10
279.4939888211
 20
77.0693554255
 30
0.0
 10
279.4855461007
 20
77.069366369
 30
0.0
 10
279.4650692163
 20
77.0843035301
 30
0.0
 10
279.4327601835
 20
77.1487445092
 30
0.0
 10
279.3953583841
 20
77.2903243602
 30
0.0
 10
279.3546931495
 20
77.5287477319
 30
0.0
 10
279.3310907967
 20
77.7200618673
 30
0.0
 10
279.318782751
 20
77.8310697424
 30
0.0
  0
SPLINE
  5
551
100
AcDbEntity
  8
BEZUGSACHSEN
100
AcDbSpline
 62
7
  6
CONTINUOUS
 70
0
 71
3
 72
11
 73
7
 74
0
 42
0.0000001
 43
0.0000001
 44
0.0000000001
 40
0.0
 40
0.0
 40
0.0
 40
0.0
 40
0.1935952112
 40
0.4140670143
 40
0.6797309759
 40
1.0
 40
1.0
 40
1.0
 40
1.0
 10
283.6280281538
 20
77.0693575882
 30
0.0
 10
283.5519300941
 20
77.069358442
 30
0.0
 10
283.3880742886
 20
77.1049879614
 30
0.0
 10
283.1606304295
 20
77.2522781115
 30
0.0
 10
282.942371158
 20
77.4848590498
 30
0.0
 10
282.8139840735
 20
77.6770619811
 30
0.0
 10
282.7496458035
 20
77.7852704579
 30
0.0
  0
SPLINE
  5
552
100
AcDbEntity
  8
BEZUGSACHSEN
100
AcDbSpline
 62
7
  6
CONTINUOUS
 70
0
 71
3
 72
9
 73
5
 74
0
 42
0.0000001
 43
0.0000001
 44
0.0000000001
 40
0.0
 40
0.0
 40
0.0
 40
0.0
 40
0.2240841501
 40
1.0
 40
1.0
 40
1.0
 40
1.0
 10
291.4875376978
 20
77.1822794645
 30
0.0
 10
291.4828858123
 20
77.1904398663
 30
0.0
 10
291.462991075
 20
77.2273499783
 30
0.0
 10
291.4461238611
 20
77.2658270508
 30
0.0
 10
291.4340591192
 20
77.2960316247
 30
0.0
  0
SPLINE
  5
553
100
AcDbEntity
  8
BEZUGSACHSEN
100
AcDbSpline
 62
7
  6
CONTINUOUS
 70
0
 71
3
 72
9
 73
5
 74
0
 42
0.0000001
 43
0.0000001
 44
0.0000000001
 40
0.0
 40
0.0
 40
0.0
 40
0.0
 40
0.255243415
 40
1.0
 40
1.0
 40
1.0
 40
1.0
 10
311.9534441237
 20
77.4251023063
 30
0.0
 10
311.9035278401
 20
77.4002305099
 30
0.0
 10
311.7058719993
 20
77.3070742184
 30
0.0
 10
311.4997171871
 20
77.2317098125
 30
0.0
 10
311.3431300755
 20
77.1874354656
 30
0.0
  0
SPLINE
  5
554
100
AcDbEntity
  8
RUNDUNGEN
100
AcDbSpline
 62
7
  6
CONTINUOUS
 70
0
 71
3
 72
9
 73
5
 74
0
 42
0.0000001
 43
0.0000001
 44
0.0000000001
 40
0.0
 40
0.0
 40
0.0
 40
0.0
 40
0.4933252081
 40
1.0
 40
1.0
 40
1.0
 40
1.0
 10
268.1362888695
 20
70.8586416946
 30
0.0
 10
268.1383454992
 20
71.29246929
 30
0.0
 10
268.2974506964
 20
72.1771705901
 30
0.0
 10
268.743892138
 20
72.9570110665
 30
0.0
 10
269.0262747053
 20
73.301677038
 30
0.0
  0
LINE
  5
555
100
AcDbEntity
  8
RUNDUNGEN
100
AcDbLine
 62
7
  6
CONTINUOUS
 10
269.0262747053
 20
73.301677038
 11
269.032570589
 21
73.3093420698
  0
SPLINE
  5
556
100
AcDbEntity
  8
RUNDUNGEN
100
AcDbSpline
 62
7
  6
CONTINUOUS
 70
0
 71
3
 72
9
 73
5
 74
0
 42
0.0000001
 43
0.0000001
 44
0.0000000001
 40
0.0
 40
0.0
 40
0.0
 40
0.0
 40
0.4933252189
 40
1.0
 40
1.0
 40
1.0
 40
1.0
 10
315.1362048417
 20
107.2800372351
 30
0.0
 10
315.1341484829
 20
106.8462092552
 30
0.0
 10
314.9750435217
 20
105.961507092
 30
0.0
 10
314.5286018173
 20
105.1816658316
 30
0.0
 10
314.2462189952
 20
104.836999585
 30
0.0
  0
LINE
  5
557
100
AcDbEntity
  8
RUNDUNGEN
100
AcDbLine
 62
7
  6
CONTINUOUS
 10
314.2462189952
 20
104.836999585
 11
314.2399233686
 21
104.8293348662
  0
LINE
  5
558
100
AcDbEntity
  8
RUNDUNGEN
100
AcDbLine
 62
7
  6
CONTINUOUS
 10
269.0326107731
 20
104.8292858349
 11
269.0262747769
 21
104.8369996998
  0
SPLINE
  5
559
100
AcDbEntity
  8
RUNDUNGEN
100
AcDbSpline
 62
7
  6
CONTINUOUS
 70
0
 71
3
 72
9
 73
5
 74
0
 42
0.0000001
 43
0.0000001
 44
0.0000000001
 40
0.0
 40
0.0
 40
0.0
 40
0.0
 40
0.506674859
 40
1.0
 40
1.0
 40
1.0
 40
1.0
 10
269.0262747769
 20
104.8369996998
 30
0.0
 10
268.7438897355
 20
105.1816740191
 30
0.0
 10
268.2974382807
 20
105.9615271317
 30
0.0
 10
268.1383397382
 20
106.8462475579
 30
0.0
 10
268.1362886466
 20
107.2800828769
 30
0.0
  0
LINE
  5
55A
100
AcDbEntity
  8
RUNDUNGEN
100
AcDbLine
 62
7
  6
CONTINUOUS
 10
314.2399231088
 20
73.3093420136
 11
314.2462189703
 21
73.3016770072
  0
SPLINE
  5
55B
100
AcDbEntity
  8
RUNDUNGEN
100
AcDbSpline
 62
7
  6
CONTINUOUS
 70
0
 71
3
 72
9
 73
5
 74
0
 42
0.0000001
 43
0.0000001
 44
0.0000000001
 40
0.0
 40
0.0
 40
0.0
 40
0.0
 40
0.5066748543
 40
1.0
 40
1.0
 40
1.0
 40
1.0
 10
314.2462189703
 20
73.3016770072
 30
0.0
 10
314.5286067241
 20
72.9570046347
 30
0.0
 10
314.9750544265
 20
72.1771479029
 30
0.0
 10
315.1341541144
 20
71.2924280303
 30
0.0
 10
315.1362050606
 20
70.858592495
 30
0.0
  0
ELLIPSE
  5
55C
100
AcDbEntity
  8
0
100
AcDbEllipse
 62
7
  6
CONTINUOUS
 10
291.6362468512
 20
254.4261754771
 30
0.0
 11
-0.0
 21
45.4468083978
 31
0.0
 40
0.9791666691
 41
-1.7208339036
 42
-1.7173882018
  0
ELLIPSE
  5
55D
100
AcDbEntity
  8
0
100
AcDbEllipse
 62
7
  6
CONTINUOUS
 10
291.6362468512
 20
264.3835909945
 30
0.0
 11
0.0
 21
113.61680694
 31
0.0
 40
0.3916674055
 41
-1.7173882018
 42
-1.7060396731
  0
ELLIPSE
  5
55E
100
AcDbEntity
  8
0
100
AcDbEllipse
 62
7
  6
CONTINUOUS
 10
291.6362468512
 20
234.5113110004
 30
0.0
 11
0.0
 21
113.6168228544
 31
0.0
 40
0.3916673507
 41
-1.4355529804
 42
-1.4309822241
  0
ELLIPSE
  5
55F
100
AcDbEntity
  8
0
100
AcDbEllipse
 62
7
  6
CONTINUOUS
 10
291.6362468512
 20
258.7665900266
 30
0.0
 11
0.0
 21
136.3401492307
 31
0.0
 40
0.3263895503
 41
-1.6101323129
 42
-1.6045105678
  0
ELLIPSE
  5
560
100
AcDbEntity
  8
0
100
AcDbEllipse
 62
7
  6
CONTINUOUS
 10
291.6362468512
 20
255.787877204
 30
0.0
 11
0.0
 21
60.5957374573
 31
0.0
 40
0.7343750875
 41
-1.6270056963
 42
-1.6101323129
  0
ELLIPSE
  5
561
100
AcDbEntity
  8
0
100
AcDbEllipse
 62
7
  6
CONTINUOUS
 10
291.6362468512
 20
254.2985147664
 30
0.0
 11
44.5
 21
0.0
 31
0.0
 40
0.7659569903
 41
-0.0787330137
 42
-0.0562093695
  0
ELLIPSE
  5
562
100
AcDbEntity
  8
0
100
AcDbEllipse
 62
7
  6
CONTINUOUS
 10
291.6362468512
 20
252.3325588371
 30
0.0
 11
44.5
 21
0.0
 31
0.0
 40
0.2042553727
 41
-0.1069453174
 42
-0.0787330137
  0
ELLIPSE
  5
563
100
AcDbEntity
  8
0
100
AcDbEllipse
 62
7
  6
CONTINUOUS
 10
291.6362468512
 20
257.0304305925
 30
0.0
 11
44.5
 21
-0.0
 31
0.0
 40
0.2042553727
 41
0.0787330137
 42
0.1069453174
  0
ELLIPSE
  5
564
100
AcDbEntity
  8
0
100
AcDbEllipse
 62
7
  6
CONTINUOUS
 10
291.6362468512
 20
255.0644746633
 30
0.0
 11
44.5
 21
0.0
 31
0.0
 40
0.7659569903
 41
0.0562093695
 42
0.0787330137
  0
ELLIPSE
  5
565
100
AcDbEntity
  8
0
100
AcDbEllipse
 62
7
  6
CONTINUOUS
 10
291.6362468512
 20
253.5751122256
 30
0.0
 11
-0.0
 21
60.5957374573
 31
0.0
 40
0.7343750875
 41
-1.5314603407
 42
-1.5145869573
  0
ELLIPSE
  5
566
100
AcDbEntity
  8
0
100
AcDbEllipse
 62
7
  6
CONTINUOUS
 10
291.6362468512
 20
250.5963994031
 30
0.0
 11
0.0
 21
136.3401492307
 31
0.0
 40
0.3263895503
 41
-1.5370820858
 42
-1.5314603407
  0
ELLIPSE
  5
567
100
AcDbEntity
  8
0
100
AcDbEllipse
 62
7
  6
CONTINUOUS
 10
291.6362468512
 20
293.2347192353
 30
0.0
 11
0.0
 21
136.3405393033
 31
0.0
 40
0.3263886165
 41
-1.8672546126
 42
-1.8613856171
  0
ELLIPSE
  5
568
100
AcDbEntity
  8
0
100
AcDbEllipse
 62
7
  6
CONTINUOUS
 10
291.6362468512
 20
271.107024314
 30
0.0
 11
-0.0
 21
60.5957374573
 31
0.0
 40
0.7343750875
 41
-1.8849259092
 42
-1.8672546126
  0
ELLIPSE
  5
569
100
AcDbEntity
  8
0
100
AcDbEllipse
 62
7
  6
CONTINUOUS
 10
291.6362468512
 20
262.9155384398
 30
0.0
 11
44.5
 21
0.0
 31
0.0
 40
0.7659575381
 41
-0.3378513444
 42
-0.3141295824
  0
ELLIPSE
  5
56A
100
AcDbEntity
  8
0
100
AcDbEllipse
 62
7
  6
CONTINUOUS
 10
291.6362468512
 20
254.6304299102
 30
0.0
 11
44.5
 21
0.0
 31
0.0
 40
0.2042552558
 41
-0.3677862006
 42
-0.3378513444
  0
ELLIPSE
  5
56B
100
AcDbEntity
  8
0
100
AcDbEllipse
 62
7
  6
CONTINUOUS
 10
291.6362468512
 20
254.7325595195
 30
0.0
 11
44.5
 21
-0.0
 31
0.0
 40
0.2042552558
 41
0.3378513444
 42
0.3677862006
  0
ELLIPSE
  5
56C
100
AcDbEntity
  8
0
100
AcDbEllipse
 62
7
  6
CONTINUOUS
 10
291.6362468512
 20
246.4474509898
 30
0.0
 11
44.5
 21
0.0
 31
0.0
 40
0.7659575381
 41
0.3141295824
 42
0.3378513444
  0
ELLIPSE
  5
56D
100
AcDbEntity
  8
0
100
AcDbEllipse
 62
7
  6
CONTINUOUS
 10
291.6362468512
 20
238.2559651156
 30
0.0
 11
-0.0
 21
60.5957374573
 31
0.0
 40
0.7343750875
 41
-1.274338041
 42
-1.2566667444
  0
ELLIPSE
  5
56E
100
AcDbEntity
  8
0
100
AcDbEllipse
 62
7
  6
CONTINUOUS
 10
291.6362468512
 20
216.1282701943
 30
0.0
 11
0.0
 21
136.3405393033
 31
0.0
 40
0.3263886165
 41
-1.2802070364
 42
-1.274338041
  0
ELLIPSE
  5
56F
100
AcDbEntity
  8
0
100
AcDbEllipse
 62
7
  6
CONTINUOUS
 10
291.6362468512
 20
251.830387376
 30
0.0
 11
0.0
 21
181.7879058377
 31
0.0
 40
0.244790762
 41
-1.5089591616
 42
-1.5033294364
  0
ELLIPSE
  5
570
100
AcDbEntity
  8
0
100
AcDbEllipse
 62
7
  6
CONTINUOUS
 10
291.6362468512
 20
258.8517152421
 30
0.0
 11
0.0
 21
68.1700746153
 31
0.0
 40
0.6527791007
 41
-1.5202129714
 42
-1.5089591616
  0
ELLIPSE
  5
571
100
AcDbEntity
  8
0
100
AcDbEllipse
 62
7
  6
CONTINUOUS
 10
291.6362468512
 20
260.7666011143
 30
0.0
 11
44.5
 21
-0.0
 31
0.0
 40
0.6808512211
 41
0.033714241
 42
0.0505833553
  0
ELLIPSE
  5
572
100
AcDbEntity
  8
0
100
AcDbEllipse
 62
7
  6
CONTINUOUS
 10
291.6362468512
 20
261.4048987
 30
0.0
 11
44.5
 21
0.0
 31
0.0
 40
0.255319362
 41
0.0112362022
 42
0.033714241
  0
ELLIPSE
  5
573
100
AcDbEntity
  8
0
100
AcDbEllipse
 62
7
  6
CONTINUOUS
 10
291.6362468512
 20
269.9580910545
 30
0.0
 11
44.5
 21
-0.0
 31
0.0
 40
0.2042552558
 41
0.1979188211
 42
0.2266547548
  0
ELLIPSE
  5
574
100
AcDbEntity
  8
0
100
AcDbEllipse
 62
7
  6
CONTINUOUS
 10
291.6362468512
 20
265.0431962185
 30
0.0
 11
44.5
 21
-0.0
 31
0.0
 40
0.7659575381
 41
0.1750499286
 42
0.1979188211
  0
ELLIPSE
  5
575
100
AcDbEntity
  8
0
100
AcDbEllipse
 62
7
  6
CONTINUOUS
 10
291.6362468512
 20
260.4261769076
 30
0.0
 11
-0.0
 21
60.5957374573
 31
0.0
 40
0.7343750875
 41
-1.4128368959
 42
-1.3957463982
  0
ELLIPSE
  5
576
100
AcDbEntity
  8
0
100
AcDbEllipse
 62
7
  6
CONTINUOUS
 10
291.6362468512
 20
248.5112642577
 30
0.0
 11
0.0
 21
136.3405393033
 31
0.0
 40
0.3263886165
 41
-1.4185231473
 42
-1.4128368959
  0
ELLIPSE
  5
577
100
AcDbEntity
  8
0
100
AcDbEllipse
 62
7
  6
CONTINUOUS
 10
291.6362468512
 20
288.851725172
 30
0.0
 11
0.0
 21
136.3405393033
 31
0.0
 40
0.3263886165
 41
-1.7287557577
 42
-1.7230695063
  0
ELLIPSE
  5
578
100
AcDbEntity
  8
0
100
AcDbEllipse
 62
7
  6
CONTINUOUS
 10
291.6362468512
 20
276.936812522
 30
0.0
 11
0.0
 21
60.5957374573
 31
0.0
 40
0.7343750875
 41
-1.7458462554
 42
-1.7287557577
  0
ELLIPSE
  5
579
100
AcDbEntity
  8
0
100
AcDbEllipse
 62
7
  6
CONTINUOUS
 10
291.6362468512
 20
270.341069571
 30
0.0
 11
44.5
 21
-0.0
 31
0.0
 40
0.5106383587
 41
-0.1979188211
 42
-0.1750499286
  0
ELLIPSE
  5
57A
100
AcDbEntity
  8
0
100
AcDbEllipse
 62
7
  6
CONTINUOUS
 10
291.6362468512
 20
243.0361051841
 30
0.0
 11
0.0
 21
116.1418442726
 31
0.0
 40
0.3831521729
 41
-1.4242044572
 42
-1.3728775057
  0
ELLIPSE
  5
57B
100
AcDbEntity
  8
0
100
AcDbEllipse
 62
7
  6
CONTINUOUS
 10
291.6362468512
 20
246.0006640357
 30
0.0
 11
0.0
 21
136.3401492307
 31
0.0
 40
0.3263895503
 41
-1.5033294364
 42
-1.4976975366
  0
ELLIPSE
  5
57C
100
AcDbEntity
  8
0
100
AcDbEllipse
 62
7
  6
CONTINUOUS
 10
291.6362468512
 20
252.6389389591
 30
0.0
 11
-0.0
 21
45.4468464344
 31
0.0
 40
0.9791658496
 41
-1.4976975366
 42
-1.4864266161
  0
ELLIPSE
  5
57D
100
AcDbEntity
  8
0
100
AcDbEllipse
 62
7
  6
CONTINUOUS
 10
291.6362468512
 20
255.1921334718
 30
0.0
 11
44.5
 21
-0.0
 31
0.0
 40
0.3404254913
 41
0.0843697107
 42
0.1012967307
  0
ELLIPSE
  5
57E
100
AcDbEntity
  8
0
100
AcDbEllipse
 62
7
  6
CONTINUOUS
 10
291.6362468512
 20
241.1070718125
 30
0.0
 11
0.0
 21
224.6803957359
 31
0.0
 40
0.1958337302
 41
-1.4689051603
 42
-1.4683444591
  0
ELLIPSE
  5
57F
100
AcDbEntity
  8
0
100
AcDbEllipse
 62
7
  6
CONTINUOUS
 10
291.6362468512
 20
258.2559620974
 30
0.0
 11
44.5
 21
-0.0
 31
0.0
 40
0.3404254913
 41
-0.3617725358
 42
-0.3438122292
  0
ELLIPSE
  5
580
100
AcDbEntity
  8
0
100
AcDbEllipse
 62
7
  6
CONTINUOUS
 10
291.6362468512
 20
268.4687196949
 30
0.0
 11
-0.0
 21
45.4467814222
 31
0.0
 40
0.9791672503
 41
-1.914608556
 42
-1.9026992607
  0
ELLIPSE
  5
581
100
AcDbEntity
  8
0
100
AcDbEllipse
 62
7
  6
CONTINUOUS
 10
291.6362468512
 20
298.0857868697
 30
0.0
 11
0.0
 21
136.3405393033
 31
0.0
 40
0.3263886165
 41
-1.9026992607
 42
-1.8967630204
  0
ELLIPSE
  5
582
100
AcDbEntity
  8
0
100
AcDbEllipse
 62
7
  6
CONTINUOUS
 10
291.6362468512
 20
211.5325216785
 30
0.0
 11
0.0
 21
136.3405393033
 31
0.0
 40
0.3263886165
 41
-1.2448296331
 42
-1.2388933929
  0
ELLIPSE
  5
583
100
AcDbEntity
  8
0
100
AcDbEllipse
 62
7
  6
CONTINUOUS
 10
291.6362468512
 20
241.1495888532
 30
0.0
 11
-0.0
 21
45.4467814222
 31
0.0
 40
0.9791672503
 41
-1.2388933929
 42
-1.2269840976
  0
ELLIPSE
  5
584
100
AcDbEntity
  8
0
100
AcDbEllipse
 62
7
  6
CONTINUOUS
 10
291.6362468512
 20
251.3623464508
 30
0.0
 11
44.5
 21
0.0
 31
0.0
 40
0.3404254913
 41
0.3438122292
 42
0.3617725358
  0
ELLIPSE
  5
585
100
AcDbEntity
  8
0
100
AcDbEllipse
 62
7
  6
CONTINUOUS
 10
291.6362468512
 20
255.1921334718
 30
0.0
 11
44.0
 21
-0.0
 31
0.0
 40
0.3404254913
 41
0.085330778
 42
0.1024518514
  0
ELLIPSE
  5
586
100
AcDbEntity
  8
0
100
AcDbEllipse
 62
7
  6
CONTINUOUS
 10
291.6362468512
 20
252.6389389591
 30
0.0
 11
-0.0
 21
44.9362077105
 31
0.0
 40
0.9791658496
 41
-1.4968653603
 42
-1.4854655488
  0
ELLIPSE
  5
587
100
AcDbEntity
  8
0
100
AcDbEllipse
 62
7
  6
CONTINUOUS
 10
291.6362468512
 20
246.0006640357
 30
0.0
 11
0.0
 21
134.8082374416
 31
0.0
 40
0.3263895503
 41
-1.5025615818
 42
-1.4968653603
  0
ELLIPSE
  5
588
100
AcDbEntity
  8
0
100
AcDbEllipse
 62
7
  6
CONTINUOUS
 10
291.6362468512
 20
263.6176445124
 30
0.0
 11
0.0
 21
134.8082374416
 31
0.0
 40
0.3263895503
 41
-1.6447272933
 42
-1.6390310718
  0
ELLIPSE
  5
589
100
AcDbEntity
  8
0
100
AcDbEllipse
 62
7
  6
CONTINUOUS
 10
291.6362468512
 20
256.9793695891
 30
0.0
 11
-0.0
 21
44.9362077105
 31
0.0
 40
0.9791658496
 41
-1.6561271047
 42
-1.6447272933
  0
ELLIPSE
  5
58A
100
AcDbEntity
  8
0
100
AcDbEllipse
 62
7
  6
CONTINUOUS
 10
291.6362468512
 20
254.4261750764
 30
0.0
 11
44.0
 21
0.0
 31
0.0
 40
0.3404254913
 41
-0.1024518514
 42
-0.085330778
  0
ELLIPSE
  5
58B
100
AcDbEntity
  8
0
100
AcDbEllipse
 62
7
  6
CONTINUOUS
 10
291.6362468512
 20
251.3623464508
 30
0.0
 11
44.0
 21
-0.0
 31
0.0
 40
0.3404254913
 41
0.3478837529
 42
0.3660763706
  0
ELLIPSE
  5
58C
100
AcDbEntity
  8
0
100
AcDbEllipse
 62
7
  6
CONTINUOUS
 10
291.6362468512
 20
241.1495888532
 30
0.0
 11
-0.0
 21
44.9361434287
 31
0.0
 40
0.9791672503
 41
-1.2349742309
 42
-1.2229125739
  0
ELLIPSE
  5
58D
100
AcDbEntity
  8
0
100
AcDbEllipse
 62
7
  6
CONTINUOUS
 10
291.6362468512
 20
211.5325216785
 30
0.0
 11
0.0
 21
134.8086231314
 31
0.0
 40
0.3263886165
 41
-1.2409859386
 42
-1.2349742309
  0
ELLIPSE
  5
58E
100
AcDbEntity
  8
0
100
AcDbEllipse
 62
7
  6
CONTINUOUS
 10
291.6362468512
 20
298.0857868697
 30
0.0
 11
0.0
 21
134.8086231314
 31
0.0
 40
0.3263886165
 41
-1.9066184227
 42
-1.900606715
  0
ELLIPSE
  5
58F
100
AcDbEntity
  8
0
100
AcDbEllipse
 62
7
  6
CONTINUOUS
 10
291.6362468512
 20
268.4687196949
 30
0.0
 11
0.0
 21
44.9361434287
 31
0.0
 40
0.9791672503
 41
-1.9186800797
 42
-1.9066184227
  0
ELLIPSE
  5
590
100
AcDbEntity
  8
0
100
AcDbEllipse
 62
7
  6
CONTINUOUS
 10
291.6362468512
 20
258.2559620974
 30
0.0
 11
44.0
 21
0.0
 31
0.0
 40
0.3404254913
 41
-0.3660763706
 42
-0.3478837529
  0
ELLIPSE
  5
591
100
AcDbEntity
  8
0
100
AcDbEllipse
 62
7
  6
CONTINUOUS
 10
291.6362468512
 20
259.8985158203
 30
0.0
 11
44.5
 21
-0.0
 31
0.0
 40
0.2042553906
 41
0.0112362022
 42
0.0393359861
  0
ELLIPSE
  5
592
100
AcDbEntity
  8
0
100
AcDbEllipse
 62
7
  6
CONTINUOUS
 10
291.6362468512
 20
259.3623461478
 30
0.0
 11
44.5
 21
-0.0
 31
0.0
 40
0.5106380606
 41
0.0393359861
 42
0.0618371652
  0
ELLIPSE
  5
593
100
AcDbEntity
  8
0
100
AcDbEllipse
 62
7
  6
CONTINUOUS
 10
291.6362468512
 20
257.9580873431
 30
0.0
 11
-0.0
 21
45.4468504131
 31
0.0
 40
0.9791657639
 41
-1.5089591616
 42
-1.4864266161
  0
ELLIPSE
  5
594
100
AcDbEntity
  8
0
100
AcDbEllipse
 62
7
  6
CONTINUOUS
 10
291.6362468512
 20
254.1283073515
 30
0.0
 11
0.0
 21
90.8935787589
 31
0.0
 40
0.4895835394
 41
-1.4864266161
 42
-1.4751449254
  0
ELLIPSE
  5
595
100
AcDbEntity
  8
0
100
AcDbEllipse
 62
7
  6
CONTINUOUS
 10
291.6362468512
 20
241.1070718125
 30
0.0
 11
0.0
 21
227.2335820511
 31
0.0
 40
0.1958337302
 41
-1.4751449254
 42
-1.4694995799
  0
ELLIPSE
  5
596
100
AcDbEntity
  8
0
100
AcDbEllipse
 62
7
  6
CONTINUOUS
 10
291.6362468512
 20
270.2134091494
 30
0.0
 11
44.5
 21
0.0
 31
0.0
 40
0.3404254913
 41
-0.2208931195
 42
-0.2036519951
  0
ELLIPSE
  5
597
100
AcDbEntity
  8
0
100
AcDbEllipse
 62
7
  6
CONTINUOUS
 10
291.6362468512
 20
276.3410637728
 30
0.0
 11
-0.0
 21
45.4467814222
 31
0.0
 40
0.9791672503
 41
-1.7744483219
 42
-1.7629885745
  0
ELLIPSE
  5
598
100
AcDbEntity
  8
0
100
AcDbEllipse
 62
7
  6
CONTINUOUS
 10
291.6362468512
 20
293.7027928063
 30
0.0
 11
0.0
 21
136.3405393033
 31
0.0
 40
0.3263886165
 41
-1.7629885745
 42
-1.7572683755
  0
ELLIPSE
  5
599
100
AcDbEntity
  8
0
100
AcDbEllipse
 62
7
  6
CONTINUOUS
 10
291.6362468512
 20
243.9155157418
 30
0.0
 11
0.0
 21
136.3405393033
 31
0.0
 40
0.3263886165
 41
-1.384324278
 42
-1.3786040791
  0
ELLIPSE
  5
59A
100
AcDbEntity
  8
0
100
AcDbEllipse
 62
7
  6
CONTINUOUS
 10
291.6362468512
 20
261.2772447753
 30
0.0
 11
0.0
 21
45.4467814222
 31
0.0
 40
0.9791672503
 41
-1.3786040791
 42
-1.3671443317
  0
ELLIPSE
  5
59B
100
AcDbEntity
  8
0
100
AcDbEllipse
 62
7
  6
CONTINUOUS
 10
291.6362468512
 20
267.4048993988
 30
0.0
 11
44.5
 21
-0.0
 31
0.0
 40
0.3404254913
 41
0.2036519951
 42
0.2208931195
  0
ELLIPSE
  5
59C
100
AcDbEntity
  8
0
100
AcDbEllipse
 62
7
  6
CONTINUOUS
 10
291.6362468512
 20
237.883620065
 30
0.0
 11
0.0
 21
117.9574555133
 31
0.0
 40
0.3730158455
 41
-1.3821799351
 42
-1.3356816095
  0
ELLIPSE
  5
59D
100
AcDbEntity
  8
0
100
AcDbEllipse
 62
7
  6
CONTINUOUS
 10
291.6362468512
 20
267.4048993988
 30
0.0
 11
44.0
 21
-0.0
 31
0.0
 40
0.3404254913
 41
0.2059993268
 42
0.2234456423
  0
ELLIPSE
  5
59E
100
AcDbEntity
  8
0
100
AcDbEllipse
 62
7
  6
CONTINUOUS
 10
291.6362468512
 20
261.2772447753
 30
0.0
 11
-0.0
 21
44.9361434287
 31
0.0
 40
0.9791672503
 41
-1.3763923044
 42
-1.364797
  0
ELLIPSE
  5
59F
100
AcDbEntity
  8
0
100
AcDbEllipse
 62
7
  6
CONTINUOUS
 10
291.6362468512
 20
243.9155157418
 30
0.0
 11
0.0
 21
134.8086231314
 31
0.0
 40
0.3263886165
 41
-1.3821799351
 42
-1.3763923044
  0
ELLIPSE
  5
5A0
100
AcDbEntity
  8
0
100
AcDbEllipse
 62
7
  6
CONTINUOUS
 10
291.6362468512
 20
293.7027928063
 30
0.0
 11
0.0
 21
134.8086231314
 31
0.0
 40
0.3263886165
 41
-1.7652003492
 42
-1.7594127185
  0
ELLIPSE
  5
5A1
100
AcDbEntity
  8
0
100
AcDbEllipse
 62
7
  6
CONTINUOUS
 10
291.6362468512
 20
276.3410637728
 30
0.0
 11
-0.0
 21
44.9361434287
 31
0.0
 40
0.9791672503
 41
-1.7767956536
 42
-1.7652003492
  0
ELLIPSE
  5
5A2
100
AcDbEntity
  8
0
100
AcDbEllipse
 62
7
  6
CONTINUOUS
 10
291.6362468512
 20
270.2134091494
 30
0.0
 11
44.0
 21
-0.0
 31
0.0
 40
0.3404254913
 41
-0.2234456423
 42
-0.2059993268
  0
ELLIPSE
  5
5A3
100
AcDbEntity
  8
0
100
AcDbEllipse
 62
7
  6
CONTINUOUS
 10
291.6362468512
 20
254.4261750764
 30
0.0
 11
44.5
 21
-0.0
 31
0.0
 40
0.3404254913
 41
-0.1012967307
 42
-0.0843697107
  0
ELLIPSE
  5
5A4
100
AcDbEntity
  8
0
100
AcDbEllipse
 62
7
  6
CONTINUOUS
 10
291.6362468512
 20
256.9793695891
 30
0.0
 11
-0.0
 21
45.4468464344
 31
0.0
 40
0.9791658496
 41
-1.6551660375
 42
-1.643895117
  0
ELLIPSE
  5
5A5
100
AcDbEntity
  8
0
100
AcDbEllipse
 62
7
  6
CONTINUOUS
 10
291.6362468512
 20
263.6176445124
 30
0.0
 11
0.0
 21
136.3401492307
 31
0.0
 40
0.3263895503
 41
-1.643895117
 42
-1.6382632172
  0
ELLIPSE
  5
5A6
100
AcDbEntity
  8
0
100
AcDbEllipse
 62
7
  6
CONTINUOUS
 10
291.6362468512
 20
237.883620065
 30
0.0
 11
0.0
 21
119.2978811442
 31
0.0
 40
0.3730158455
 41
-1.384324278
 42
-1.3383722625
  0
ENDSEC
  0
SECTION
  2
OBJECTS
  0
DICTIONARY
  5
C
100
AcDbDictionary
280
0
281
1
  3
ACAD_GROUP
350
D
  3
ACAD_MLINESTYLE
350
17
  3
ACAD_LAYOUT
350
1A
  3
ACAD_PLOTSETTINGS
350
19
  3
ACAD_PLOTSTYLENAME
350
E
  0
DICTIONARY
  5
D
102
{ACAD_REACTORS
330
C
102
}
100
AcDbDictionary
280
0
281
1
  0
ACDBDICTIONARYWDFLT
  5
E
102
{ACAD_REACTORS
330
C
102
}
100
AcDbDictionary
281
1
  3
Normal
350
F
100
AcDbDictionaryWithDefault
340
F
  0
DICTIONARY
  5
17
102
{ACAD_REACTORS
330
C
102
}
100
AcDbDictionary
280
0
281
1
  3
Standard
350
18
  0
DICTIONARY
  5
19
102
{ACAD_REACTORS
330
C
102
}
100
AcDbDictionary
281
1
  0
DICTIONARY
  5
1A
102
{ACAD_REACTORS
330
C
102
}
100
AcDbDictionary
281
1
  3
Model
350
5A7
  3
Layout1
350
5A8
  0
ACDBPLACEHOLDER
  5
F
102
{ACAD_REACTORS
330
E
102
}
  0
MLINESTYLE
  5
18
102
{ACAD_REACTORS
330
17
102
}
100
AcDbMlineStyle
  2
STANDARD
 70
0
  3

 62
256
 51
90.0
 52
90.0
 71
2
 49
0.5
 62
256
  6
BYLAYER
 49
-0.5
 62
256
  6
BYLAYER
  0
LAYOUT
  5
5A7
102
{ACAD_REACTORS
330
1A
102
}
100
AcDbPlotSettings
  1

  2
none_device
  4
ISO_A1_(594.00_x_841.00_MM)
  6

 40
0.0
 41
0.0
 42
0.0
 43
0.0
 44
841.0
 45
594.0
 46
0.0
 47
0.0
 48
0.0
 49
0.0
140
0.0
141
0.0
142
1.0
143
1.0
 70
1024
 72
1
 73
0
 74
0
  7

 75
0
147
1.0
148
0.0
149
0.0
100
AcDbLayout
  1
Model
 70
0
 71
0
 10
0.0
 20
0.0
 11
841.0
 21
594.0
 12
0.0
 22
0.0
 32
0.0
 14
0.0
 24
0.0
 34
0.0
 15
0.0
 25
0.0
 35
0.0
146
0.0
 13
0.0
 23
0.0
 33
0.0
 16
1.0
 26
0.0
 36
0.0
 17
0.0
 27
1.0
 37
0.0
 76
0
330
20C
345
0
346
0
  0
LAYOUT
  5
5A8
102
{ACAD_REACTORS
330
1A
102
}
100
AcDbPlotSettings
  1

  2
none_device
  4
ISO_A1_(594.00_x_841.00_MM)
  6

 40
0.0
 41
0.0
 42
0.0
 43
0.0
 44
841.0
 45
594.0
 46
0.0
 47
0.0
 48
0.0
 49
0.0
140
0.0
141
0.0
142
1.0
143
1.0
 70
0
 72
1
 73
0
 74
0
  7

 75
0
147
1.0
148
0.0
149
0.0
100
AcDbLayout
  1
Layout1
 70
0
 71
1
 10
0.0
 20
0.0
 11
841.0
 21
594.0
 12
0.0
 22
0.0
 32
0.0
 14
0.0
 24
0.0
 34
0.0
 15
0.0
 25
0.0
 35
0.0
146
0.0
 13
0.0
 23
0.0
 33
0.0
 16
1.0
 26
0.0
 36
0.0
 17
0.0
 27
1.0
 37
0.0
 76
0
330
20D
345
0
346
0
  0
ENDSEC
  0
EOF
