999
DXF file: 001-m31395-p-50.dxf
999
Pro/ENGINEER 2011490 by Parametric Technology Corporation
  0
SECTION
  2
HEADER
  9
$ACADVER
  1
AC1015
  9
$DWGCODEPAGE
  3
ANSI_1252
  9
$EXTMAX
 10
594.0
 20
420.0
 30
0.0
  9
$EXTMIN
 10
0.0
 20
0.0
 30
0.0
  9
$LIMMIN
 10
0.0
 20
0.0
  9
$LIMMAX
 10
594.0
 20
420.0
  9
$VIEWCTR
 10
297.0
 20
210.0
  9
$VIEWSIZE
 40
420.0
  9
$CLAYER
  8
0
  9
$LTSCALE
 40
32.67
  9
$CELTYPE
  6
BYLAYER
  9
$DIMSCALE
 40
1.0
  9
$DIMASZ
 40
3.5
  9
$DIMEXO
 40
3.7125
  9
$DIMDLI
 40
22.572
  9
$DIMEXE
 40
10.692
  9
$DIMCEN
 40
5.346
  9
$DIMLFAC
 40
1.0
  9
$DIMBLK
  1
_FILLED
  9
$DIMTXT
 40
3.5
  9
$DIMTOL
 70
1
  9
$DIMLIM
 70
0
  9
$DIMTFAC
 40
1.0
  9
$DIMTP
 40
0.005
  9
$DIMTM
 40
0.005
  9
$PDMODE
 70
3
  9
$PDSIZE
 40
0.3125
  9
$HANDSEED
  5
5AE
  9
$TILEMODE
 70
1
  9
$MEASUREMENT
 70
1
  9
$INSUNITS
 70
4
  0
ENDSEC
  0
SECTION
  2
CLASSES
  0
CLASS
  1
ACDBDICTIONARYWDFLT
  2
AcDbDictionaryWithDefault
  3
AutoCAD 2000
 90
0
280
0
281
0
  0
CLASS
  1
ACDBPLACEHOLDER
  2
AcDbPlaceHolder
  3
AutoCAD 2000
 90
0
280
0
281
0
  0
CLASS
  1
LAYOUT
  2
AcDbLayout
  3
AutoCAD 2000
 90
0
280
0
281
0
  0
ENDSEC
  0
SECTION
  2
TABLES
  0
TABLE
  2
VPORT
  5
8
100
AcDbSymbolTable
 70
2
  0
VPORT
  5
1F4
100
AcDbSymbolTableRecord
100
AcDbViewportTableRecord
  2
*ACTIVE
 70
0
 10
0.0
 20
0.0
 11
1.0
 21
1.0
 12
297.0
 22
210.0
 13
0.0
 23
0.0
 14
1.0
 24
1.0
 15
0.0
 25
0.0
 16
0.0
 26
0.0
 36
1.0
 17
0.0
 27
0.0
 37
0.0
 40
420.0
 41
1.4142857143
 42
50.0
 43
0.0
 44
0.0
 50
0.0
 51
0.0
 71
0
 72
100
 73
1
 74
1
 75
0
 76
0
 77
0
 78
0
  0
ENDTAB
  0
TABLE
  2
LTYPE
  5
5
100
AcDbSymbolTable
 70
6
  0
LTYPE
  5
14
100
AcDbSymbolTableRecord
100
AcDbLinetypeTableRecord
  2
BYBLOCK
 70
0
  3

 72
65
 73
0
 40
0.0
  0
LTYPE
  5
15
100
AcDbSymbolTableRecord
100
AcDbLinetypeTableRecord
  2
BYLAYER
 70
0
  3

 72
65
 73
0
 40
0.0
  0
LTYPE
  5
16
100
AcDbSymbolTableRecord
100
AcDbLinetypeTableRecord
  2
CONTINUOUS
 70
64
  3
Solid line
 72
65
 73
0
 40
0.0
  0
LTYPE
  5
1F5
100
AcDbSymbolTableRecord
100
AcDbLinetypeTableRecord
  2
CENTER
 70
64
  3
____ _ ____ _ ____ _ ____ _ ____ _ ____ _ ____
 72
65
 73
4
 40
0.6
 49
0.375
 74
0
 49
-0.075
 74
0
 49
0.075
 74
0
 49
-0.075
 74
0
  0
LTYPE
  5
1F6
100
AcDbSymbolTableRecord
100
AcDbLinetypeTableRecord
  2
HIDDEN
 70
64
  3
- - - - - - - - - - - - - - - - - - - -
 72
65
 73
2
 40
0.2
 49
0.1
 74
0
 49
-0.1
 74
0
  0
LTYPE
  5
1F7
100
AcDbSymbolTableRecord
100
AcDbLinetypeTableRecord
  2
PHANTOM
 70
64
  3
_____ _ _ _____ _ _ _____ _ _ _____
 72
65
 73
6
 40
0.8
 49
0.45
 74
0
 49
-0.05
 74
0
 49
0.1
 74
0
 49
-0.05
 74
0
 49
0.1
 74
0
 49
-0.05
 74
0
  0
LTYPE
  5
1F8
100
AcDbSymbolTableRecord
100
AcDbLinetypeTableRecord
  2
DOT
 70
64
  3
. . . . . . . . . . . . . . . . . . . .
 72
65
 73
2
 40
0.2
 49
0.1
 74
0
 49
-0.1
 74
0
  0
LTYPE
  5
1F9
100
AcDbSymbolTableRecord
100
AcDbLinetypeTableRecord
  2
DASHED
 70
64
  3
- - - - - - - - - - - - - - - - - - - -
 72
65
 73
2
 40
0.2
 49
0.1
 74
0
 49
-0.1
 74
0
  0
ENDTAB
  0
TABLE
  2
LAYER
  5
2
100
AcDbSymbolTable
 70
36
  0
LAYER
  5
10
100
AcDbSymbolTableRecord
100
AcDbLayerTableRecord
  2
0
 70
0
 62
7
  6
CONTINUOUS
370
-3
390
F
  0
LAYER
  5
1FA
100
AcDbSymbolTableRecord
100
AcDbLayerTableRecord
  2
DEFAULT_1
 70
0
 62
7
  6
CENTER
370
-3
390
F
  0
LAYER
  5
1FB
100
AcDbSymbolTableRecord
100
AcDbLayerTableRecord
  2
DEFAULT_2
 70
0
 62
8
  6
HIDDEN
370
-3
390
F
  0
LAYER
  5
1FC
100
AcDbSymbolTableRecord
100
AcDbLayerTableRecord
  2
DEFAULT_3
 70
0
 62
7
  6
PHANTOM
370
-3
390
F
  0
LAYER
  5
1FD
100
AcDbSymbolTableRecord
100
AcDbLayerTableRecord
  2
BEZUGSACHSEN
 70
0
 62
7
  6
CONTINUOUS
370
-3
390
F
  0
LAYER
  5
1FE
100
AcDbSymbolTableRecord
100
AcDbLayerTableRecord
  2
BEZUGSEBENEN
 70
0
 62
7
  6
CONTINUOUS
370
-3
390
F
  0
LAYER
  5
1FF
100
AcDbSymbolTableRecord
100
AcDbLayerTableRecord
  2
BG_STARTBEZUEGE
 70
0
 62
7
  6
CONTINUOUS
370
-3
390
F
  0
LAYER
  5
200
100
AcDbSymbolTableRecord
100
AcDbLayerTableRecord
  2
FASEN
 70
0
 62
7
  6
CONTINUOUS
370
-3
390
F
  0
LAYER
  5
201
100
AcDbSymbolTableRecord
100
AcDbLayerTableRecord
  2
HILFEN
 70
0
 62
7
  6
CONTINUOUS
370
-3
390
F
  0
LAYER
  5
202
100
AcDbSymbolTableRecord
100
AcDbLayerTableRecord
  2
KONSTRUKTIONSELEMENTE
 70
0
 62
7
  6
CONTINUOUS
370
-3
390
F
  0
LAYER
  5
203
100
AcDbSymbolTableRecord
100
AcDbLayerTableRecord
  2
NORM
 70
0
 62
7
  6
CONTINUOUS
370
-3
390
F
  0
LAYER
  5
204
100
AcDbSymbolTableRecord
100
AcDbLayerTableRecord
  2
PLATZIERUNG
 70
0
 62
7
  6
CONTINUOUS
370
-3
390
F
  0
LAYER
  5
205
100
AcDbSymbolTableRecord
100
AcDbLayerTableRecord
  2
PLAZIERUNG
 70
0
 62
7
  6
CONTINUOUS
370
-3
390
F
  0
LAYER
  5
206
100
AcDbSymbolTableRecord
100
AcDbLayerTableRecord
  2
RUNDUNGEN
 70
0
 62
7
  6
CONTINUOUS
370
-3
390
F
  0
LAYER
  5
207
100
AcDbSymbolTableRecord
100
AcDbLayerTableRecord
  2
TEIL_STARTBEZUEGE
 70
0
 62
7
  6
CONTINUOUS
370
-3
390
F
  0
LAYER
  5
208
100
AcDbSymbolTableRecord
100
AcDbLayerTableRecord
  2
T_STARTBEZUEGE
 70
0
 62
7
  6
CONTINUOUS
370
-3
390
F
  0
LAYER
  5
209
100
AcDbSymbolTableRecord
100
AcDbLayerTableRecord
  2
ZEICHNUNGSBEMASSUNGEN
 70
0
 62
7
  6
CONTINUOUS
370
-3
390
F
  0
ENDTAB
  0
TABLE
  2
STYLE
  5
3
100
AcDbSymbolTable
 70
1
  0
STYLE
  5
11
100
AcDbSymbolTableRecord
100
AcDbTextStyleTableRecord
  2
STANDARD
 70
0
 40
0.0
 41
0.7
 50
0.0
 71
0
 42
0.2
  3
txt
  4

  0
STYLE
  5
20A
100
AcDbSymbolTableRecord
100
AcDbTextStyleTableRecord
  2
TEXTSTYLE_1
 70
0
 40
0.0
 41
0.8
 50
0.0
 71
0
 42
0.2
  3
gdt
  4

  0
ENDTAB
  0
TABLE
  2
VIEW
  5
6
100
AcDbSymbolTable
 70
0
  0
ENDTAB
  0
TABLE
  2
UCS
  5
7
100
AcDbSymbolTable
 70
0
  0
ENDTAB
  0
TABLE
  2
APPID
  5
9
100
AcDbSymbolTable
 70
1
  0
APPID
  5
20B
100
AcDbSymbolTableRecord
100
AcDbRegAppTableRecord
  2
ACAD
 70
0
  0
ENDTAB
  0
TABLE
  2
BLOCK_RECORD
  5
1
100
AcDbSymbolTable
 70
0
  0
BLOCK_RECORD
  5
20C
100
AcDbSymbolTableRecord
100
AcDbBlockTableRecord
  2
*Model_Space
  0
BLOCK_RECORD
  5
20D
100
AcDbSymbolTableRecord
100
AcDbBlockTableRecord
  2
*Paper_Space
  0
ENDTAB
  0
TABLE
  2
DIMSTYLE
  5
A
100
AcDbSymbolTable
 70
1
100
AcDbDimStyleTable
 71
0
  0
DIMSTYLE
105
20E
100
AcDbSymbolTableRecord
100
AcDbDimStyleTableRecord
  2
STANDARD
 70
0
  3

  4

 40
1.0
 41
3.5
 42
0.0625
 43
0.38
 44
0.18
 45
0.0
 46
0.0
 47
0.005
 48
0.005
140
3.5
141
0.09
142
0.0
143
25.4
144
1.0
145
0.0
146
1.0
147
0.09
 71
1.0
 72
0.0
 73
0
 74
0
 75
0
 76
0
 77
1
 78
8
170
0
171
2
172
0
173
0
174
0
175
0
176
0
177
0
178
5
270
2
271
3
272
3
273
2
274
2
275
0
280
0
281
0
282
0
283
1
284
8
285
0
286
0
287
3
288
0
340
11
  0
ENDTAB
  0
ENDSEC
  0
SECTION
  2
BLOCKS
  0
BLOCK
  5
20
100
AcDbEntity
  8
0
100
AcDbBlockBegin
  2
*Model_Space
 70
0
 10
0.0
 20
0.0
 30
0.0
  3
*Model_Space
  1

  0
ENDBLK
  5
21
100
AcDbEntity
  8
0
100
AcDbBlockEnd
  0
BLOCK
  5
1C
100
AcDbEntity
  8
0
100
AcDbBlockBegin
  2
*Paper_Space
 70
0
 10
0.0
 20
0.0
 30
0.0
  3
*Paper_Space
  1

  0
ENDBLK
  5
1D
100
AcDbEntity
  8
0
100
AcDbBlockEnd
  0
ENDSEC
  0
SECTION
  2
ENTITIES
  0
MTEXT
  5
20F
100
AcDbEntity
  8
0
100
AcDbMText
 62
5
  6
CONTINUOUS
  7
STANDARD
 71
2
 72
1
 10
192.0904816177
 20
45.7098509613
 30
0.0
 11
0.0
 21
1.0
 31
0.0
 44
0.9
  1
RUD WPPH-B\P5t
 40
10.0
 41
86.6666666667
  0
MTEXT
  5
210
100
AcDbEntity
  8
0
100
AcDbMText
 62
5
  6
CONTINUOUS
  7
STANDARD
 71
2
 72
1
 10
368.2804694217
 20
188.0869190055
 30
0.0
 11
1.0
 21
0.0
 31
0.0
 44
0.9
  1
RUD\PWPPH-B 5t
 40
8.0
 41
58.2857142857
  0
LINE
  5
211
100
AcDbEntity
  8
0
100
AcDbLine
 62
7
  6
CONTINUOUS
 10
0.0
 20
0.0
 11
0.0
 21
420.0
  0
LINE
  5
212
100
AcDbEntity
  8
0
100
AcDbLine
 62
7
  6
CONTINUOUS
 10
0.0
 20
0.0
 11
594.0
 21
0.0
  0
LINE
  5
213
100
AcDbEntity
  8
0
100
AcDbLine
 62
7
  6
CONTINUOUS
 10
0.0
 20
420.0
 11
594.0
 21
420.0
  0
LINE
  5
214
100
AcDbEntity
  8
0
100
AcDbLine
 62
7
  6
CONTINUOUS
 10
594.0
 20
0.0
 11
594.0
 21
420.0
  0
LINE
  5
215
100
AcDbEntity
  8
0
100
AcDbLine
 62
7
  6
CONTINUOUS
 10
164.1927109503
 20
152.8043411252
 11
239.5421893948
 21
152.8043411252
  0
LINE
  5
216
100
AcDbEntity
  8
0
100
AcDbLine
 62
7
  6
CONTINUOUS
 10
243.1174501726
 20
155.8043411252
 11
160.6174501726
 21
155.8043411252
  0
LINE
  5
217
100
AcDbEntity
  8
0
100
AcDbLine
 62
7
  6
CONTINUOUS
 10
239.8880038245
 20
157.6793411252
 11
240.609989777
 21
157.6793411252
  0
LINE
  5
218
100
AcDbEntity
  8
0
100
AcDbLine
 62
7
  6
CONTINUOUS
 10
242.418295956
 20
157.6793411252
 11
242.8651158835
 21
157.6793411252
  0
LINE
  5
219
100
AcDbEntity
  8
0
100
AcDbLine
 62
7
  6
CONTINUOUS
 10
164.1927109503
 20
152.8043411252
 11
160.6174501726
 21
155.8043411252
  0
LINE
  5
21A
100
AcDbEntity
  8
0
100
AcDbLine
 62
7
  6
CONTINUOUS
 10
179.5609453917
 20
368.0387050701
 11
179.0344225419
 21
367.7843413128
  0
LINE
  5
21B
100
AcDbEntity
  8
0
100
AcDbLine
 62
7
  6
CONTINUOUS
 10
189.8225557209
 20
370.2633872415
 11
188.3239306379
 21
369.6911329644
  0
LINE
  5
21C
100
AcDbEntity
  8
0
100
AcDbLine
 62
7
  6
CONTINUOUS
 10
179.4803416025
 20
367.3885699399
 11
179.8246399401
 21
367.5039679169
  0
LINE
  5
21D
100
AcDbEntity
  8
0
100
AcDbLine
 62
7
  6
CONTINUOUS
 10
243.1081688254
 20
160.9346601543
 11
243.3582247496
 21
160.9346601543
  0
LINE
  5
21E
100
AcDbEntity
  8
0
100
AcDbLine
 62
7
  6
CONTINUOUS
 10
243.2542970415
 20
161.700617778
 11
242.8651158835
 21
161.700617778
  0
LINE
  5
21F
100
AcDbEntity
  8
0
100
AcDbLine
 62
7
  6
CONTINUOUS
 10
241.7422542473
 20
161.700617778
 11
240.609989777
 21
161.700617778
  0
LINE
  5
220
100
AcDbEntity
  8
0
100
AcDbLine
 62
7
  6
CONTINUOUS
 10
243.3130093253
 20
161.8921071169
 11
243.3582247496
 21
161.8921071169
  0
LINE
  5
221
100
AcDbEntity
  8
0
100
AcDbLine
 62
7
  6
CONTINUOUS
 10
243.2677445804
 20
162.8495538112
 11
242.8651158835
 21
162.8495538112
  0
LINE
  5
222
100
AcDbEntity
  8
0
100
AcDbLine
 62
7
  6
CONTINUOUS
 10
241.7958528416
 20
162.8495538112
 11
240.609989777
 21
162.8495538112
  0
LINE
  5
223
100
AcDbEntity
  8
0
100
AcDbLine
 62
7
  6
CONTINUOUS
 10
241.6920656278
 20
163.0410431501
 11
241.9509567077
 21
163.0410431501
  0
LINE
  5
224
100
AcDbEntity
  8
0
100
AcDbLine
 62
7
  6
CONTINUOUS
 10
243.0525791077
 20
163.0410431501
 11
243.3029705072
 21
163.0410431501
  0
LINE
  5
225
100
AcDbEntity
  8
0
100
AcDbLine
 62
7
  6
CONTINUOUS
 10
241.7914013172
 20
163.4240218279
 11
242.0496523895
 21
163.4240218279
  0
LINE
  5
226
100
AcDbEntity
  8
0
100
AcDbLine
 62
7
  6
CONTINUOUS
 10
243.0719231549
 20
163.4240218279
 11
243.3221977143
 21
163.4240218279
  0
LINE
  5
227
100
AcDbEntity
  8
0
100
AcDbLine
 62
7
  6
CONTINUOUS
 10
241.8396572683
 20
163.9984898445
 11
242.0975985703
 21
163.9984898445
  0
LINE
  5
228
100
AcDbEntity
  8
0
100
AcDbLine
 62
7
  6
CONTINUOUS
 10
243.0803122577
 20
163.9984898445
 11
243.3305361799
 21
163.9984898445
  0
LINE
  5
229
100
AcDbEntity
  8
0
100
AcDbLine
 62
7
  6
CONTINUOUS
 10
241.8396572683
 20
164.5729583976
 11
242.0975985703
 21
164.5729583976
  0
LINE
  5
22A
100
AcDbEntity
  8
0
100
AcDbLine
 62
7
  6
CONTINUOUS
 10
243.0803122577
 20
164.5729583976
 11
243.3305361799
 21
164.5729583976
  0
LINE
  5
22B
100
AcDbEntity
  8
0
100
AcDbLine
 62
7
  6
CONTINUOUS
 10
241.7914013172
 20
165.1474264142
 11
242.0496523895
 21
165.1474264142
  0
LINE
  5
22C
100
AcDbEntity
  8
0
100
AcDbLine
 62
7
  6
CONTINUOUS
 10
243.0719231549
 20
165.1474264142
 11
243.3221977143
 21
165.1474264142
  0
LINE
  5
22D
100
AcDbEntity
  8
0
100
AcDbLine
 62
7
  6
CONTINUOUS
 10
241.6920656278
 20
165.5304050919
 11
241.9509567077
 21
165.5304050919
  0
LINE
  5
22E
100
AcDbEntity
  8
0
100
AcDbLine
 62
7
  6
CONTINUOUS
 10
243.0525791077
 20
165.5304050919
 11
243.3029705072
 21
165.5304050919
  0
LINE
  5
22F
100
AcDbEntity
  8
0
100
AcDbLine
 62
7
  6
CONTINUOUS
 10
243.2677445804
 20
165.7218944308
 11
242.8651158835
 21
165.7218944308
  0
LINE
  5
230
100
AcDbEntity
  8
0
100
AcDbLine
 62
7
  6
CONTINUOUS
 10
241.7958528416
 20
165.7218944308
 11
240.609989777
 21
165.7218944308
  0
LINE
  5
231
100
AcDbEntity
  8
0
100
AcDbLine
 62
7
  6
CONTINUOUS
 10
239.8880038245
 20
166.6793411252
 11
241.7422542473
 21
166.6793411252
  0
LINE
  5
232
100
AcDbEntity
  8
0
100
AcDbLine
 62
7
  6
CONTINUOUS
 10
242.418295956
 20
166.6793411252
 11
243.2542970415
 21
166.6793411252
  0
LINE
  5
233
100
AcDbEntity
  8
0
100
AcDbLine
 62
7
  6
CONTINUOUS
 10
179.0344225419
 20
367.7843413128
 11
176.8477263106
 21
366.1167503582
  0
LINE
  5
234
100
AcDbEntity
  8
0
100
AcDbLine
 62
7
  6
CONTINUOUS
 10
177.7492069122
 20
366.068393635
 11
179.4803416025
 21
367.3885699399
  0
LINE
  5
235
100
AcDbEntity
  8
0
100
AcDbLine
 62
7
  6
CONTINUOUS
 10
174.9695584353
 20
364.184426367
 11
174.4890639643
 21
363.8511807048
  0
LINE
  5
236
100
AcDbEntity
  8
0
100
AcDbLine
 62
7
  6
CONTINUOUS
 10
174.9911689436
 20
363.5296697365
 11
175.3132994289
 21
363.6972704193
  0
LINE
  5
237
100
AcDbEntity
  8
0
100
AcDbLine
 62
7
  6
CONTINUOUS
 10
212.9774501726
 20
372.8857834881
 11
211.9874501726
 21
372.4880067362
  0
LINE
  5
238
100
AcDbEntity
  8
0
100
AcDbLine
 62
7
  6
CONTINUOUS
 10
212.1893250272
 20
371.7649279622
 11
213.8274501726
 21
372.4231179619
  0
LINE
  5
239
100
AcDbEntity
  8
0
100
AcDbLine
 62
7
  6
CONTINUOUS
 10
188.5326555789
 20
369.1445220529
 11
190.0312806619
 21
369.71677633
  0
LINE
  5
23A
100
AcDbEntity
  8
0
100
AcDbLine
 62
7
  6
CONTINUOUS
 10
201.6298318411
 20
373.0764956226
 11
201.290589562
 21
372.9469861075
  0
LINE
  5
23B
100
AcDbEntity
  8
0
100
AcDbLine
 62
7
  6
CONTINUOUS
 10
207.7686204412
 20
370.7433506207
 11
205.7974501726
 21
370.0305750795
  0
LINE
  5
23C
100
AcDbEntity
  8
0
100
AcDbLine
 62
7
  6
CONTINUOUS
 10
207.1774501726
 20
369.7956788126
 11
208.1195232217
 21
370.1101608939
  0
LINE
  5
23D
100
AcDbEntity
  8
0
100
AcDbLine
 62
7
  6
CONTINUOUS
 10
241.8869766565
 20
171.6793411252
 11
242.4073610629
 21
171.6793411252
  0
LINE
  5
23E
100
AcDbEntity
  8
0
100
AcDbLine
 62
7
  6
CONTINUOUS
 10
242.9043523735
 20
171.6793411252
 11
243.3356232232
 21
171.6793411252
  0
LINE
  5
23F
100
AcDbEntity
  8
0
100
AcDbLine
 62
7
  6
CONTINUOUS
 10
243.262272369
 20
171.8708304808
 11
243.3617551282
 21
171.8708304808
  0
LINE
  5
240
100
AcDbEntity
  8
0
100
AcDbLine
 62
7
  6
CONTINUOUS
 10
243.2513279705
 20
172.2538092089
 11
243.3674031087
 21
172.2538092089
  0
LINE
  5
241
100
AcDbEntity
  8
0
100
AcDbLine
 62
7
  6
CONTINUOUS
 10
243.2285064635
 20
173.0197666314
 11
243.3594957275
 21
173.0197666314
  0
LINE
  5
242
100
AcDbEntity
  8
0
100
AcDbLine
 62
7
  6
CONTINUOUS
 10
243.2036055848
 20
173.785724121
 11
243.3504568641
 21
173.785724121
  0
LINE
  5
243
100
AcDbEntity
  8
0
100
AcDbLine
 62
7
  6
CONTINUOUS
 10
243.1690934081
 20
174.7431708154
 11
243.3446652973
 21
174.7431708154
  0
LINE
  5
244
100
AcDbEntity
  8
0
100
AcDbLine
 62
7
  6
CONTINUOUS
 10
242.9758719707
 20
175.700617778
 11
242.4073610629
 21
175.700617778
  0
LINE
  5
245
100
AcDbEntity
  8
0
100
AcDbLine
 62
7
  6
CONTINUOUS
 10
174.4890639643
 20
363.8511807048
 11
172.5886970419
 21
361.8634418989
  0
LINE
  5
246
100
AcDbEntity
  8
0
100
AcDbLine
 62
7
  6
CONTINUOUS
 10
173.4867118722
 20
361.9560432608
 11
174.9911689436
 21
363.5296697365
  0
LINE
  5
247
100
AcDbEntity
  8
0
100
AcDbLine
 62
7
  6
CONTINUOUS
 10
176.2599384799
 20
362.3166694913
 11
174.7554814084
 21
360.7430430156
  0
LINE
  5
248
100
AcDbEntity
  8
0
100
AcDbLine
 62
7
  6
CONTINUOUS
 10
175.2629891281
 20
360.2578430082
 11
176.68826432
 21
361.7486471125
  0
LINE
  5
249
100
AcDbEntity
  8
0
100
AcDbLine
 62
7
  6
CONTINUOUS
 10
180.5447614326
 20
365.9928062937
 11
178.8136267423
 21
364.6726299888
  0
LINE
  5
24A
100
AcDbEntity
  8
0
100
AcDbLine
 62
7
  6
CONTINUOUS
 10
179.2393945949
 20
364.1143246346
 11
180.8794167684
 21
365.3650178505
  0
LINE
  5
24B
100
AcDbEntity
  8
0
100
AcDbLine
 62
7
  6
CONTINUOUS
 10
180.1829082198
 20
361.7433578955
 11
180.7295822776
 21
362.1602556342
  0
LINE
  5
24C
100
AcDbEntity
  8
0
100
AcDbLine
 62
7
  6
CONTINUOUS
 10
219.1896214194
 20
369.7457262762
 11
219.5631331179
 21
369.9361220554
  0
LINE
  5
24D
100
AcDbEntity
  8
0
100
AcDbLine
 62
7
  6
CONTINUOUS
 10
217.2019124085
 20
372.0968993767
 11
216.2449259031
 21
371.6195756939
  0
LINE
  5
24E
100
AcDbEntity
  8
0
100
AcDbLine
 62
7
  6
CONTINUOUS
 10
215.8718575536
 20
370.760951749
 11
216.8288441896
 21
371.2382757325
  0
LINE
  5
24F
100
AcDbEntity
  8
0
100
AcDbLine
 62
7
  6
CONTINUOUS
 10
243.026013581
 20
176.8495538112
 11
242.4073610629
 21
176.8495538112
  0
LINE
  5
250
100
AcDbEntity
  8
0
100
AcDbLine
 62
7
  6
CONTINUOUS
 10
242.8430526489
 20
177.0410431501
 11
243.0947166148
 21
177.0410431501
  0
LINE
  5
251
100
AcDbEntity
  8
0
100
AcDbLine
 62
7
  6
CONTINUOUS
 10
242.8847864464
 20
177.4240218279
 11
243.1361959131
 21
177.4240218279
  0
LINE
  5
252
100
AcDbEntity
  8
0
100
AcDbLine
 62
7
  6
CONTINUOUS
 10
242.9043523735
 20
177.9984898445
 11
243.1556427008
 21
177.9984898445
  0
LINE
  5
253
100
AcDbEntity
  8
0
100
AcDbLine
 62
7
  6
CONTINUOUS
 10
242.9043523735
 20
178.5729583976
 11
243.1556427008
 21
178.5729583976
  0
LINE
  5
254
100
AcDbEntity
  8
0
100
AcDbLine
 62
7
  6
CONTINUOUS
 10
242.8847864464
 20
179.1474264142
 11
243.1361959131
 21
179.1474264142
  0
LINE
  5
255
100
AcDbEntity
  8
0
100
AcDbLine
 62
7
  6
CONTINUOUS
 10
242.8430526489
 20
179.5304050919
 11
243.0947166148
 21
179.5304050919
  0
LINE
  5
256
100
AcDbEntity
  8
0
100
AcDbLine
 62
7
  6
CONTINUOUS
 10
243.026013581
 20
179.7218944308
 11
242.4073610629
 21
179.7218944308
  0
LINE
  5
257
100
AcDbEntity
  8
0
100
AcDbLine
 62
7
  6
CONTINUOUS
 10
241.8869766565
 20
180.6793411252
 11
243.001377775
 21
180.6793411252
  0
LINE
  5
258
100
AcDbEntity
  8
0
100
AcDbLine
 62
7
  6
CONTINUOUS
 10
243.0945271306
 20
180.6793411252
 11
243.3666971558
 21
180.6793411252
  0
LINE
  5
259
100
AcDbEntity
  8
0
100
AcDbLine
 62
7
  6
CONTINUOUS
 10
180.8794167684
 20
365.3650178505
 11
181.2640170007
 21
365.8054833926
  0
LINE
  5
25A
100
AcDbEntity
  8
0
100
AcDbLine
 62
7
  6
CONTINUOUS
 10
176.5641746535
 20
358.0627080541
 11
177.0392663841
 21
358.5596427555
  0
LINE
  5
25B
100
AcDbEntity
  8
0
100
AcDbLine
 62
7
  6
CONTINUOUS
 10
201.7700045227
 20
372.3790261309
 11
202.2151985221
 21
372.7466105863
  0
LINE
  5
25C
100
AcDbEntity
  8
0
100
AcDbLine
 62
7
  6
CONTINUOUS
 10
221.2491365457
 20
367.3492656826
 11
221.6226527933
 21
367.5396588507
  0
LINE
  5
25D
100
AcDbEntity
  8
0
100
AcDbLine
 62
7
  6
CONTINUOUS
 10
220.0669370339
 20
365.0594141453
 11
220.4404487324
 21
365.2498099245
  0
LINE
  5
25E
100
AcDbEntity
  8
0
100
AcDbLine
 62
7
  6
CONTINUOUS
 10
176.68826432
 20
361.7486471125
 11
176.999589551
 21
362.2436261106
  0
LINE
  5
25F
100
AcDbEntity
  8
0
100
AcDbLine
 62
7
  6
CONTINUOUS
 10
180.7471371528
 20
366.2943060554
 11
180.5447614326
 21
365.9928062937
  0
LINE
  5
260
100
AcDbEntity
  8
0
100
AcDbLine
 62
7
  6
CONTINUOUS
 10
201.8502885565
 20
373.3187593233
 11
201.6298318411
 21
373.0764956226
  0
LINE
  5
261
100
AcDbEntity
  8
0
100
AcDbLine
 62
7
  6
CONTINUOUS
 10
221.4581609272
 20
368.1737833513
 11
221.0263910716
 21
367.8818988385
  0
LINE
  5
262
100
AcDbEntity
  8
0
100
AcDbLine
 62
7
  6
CONTINUOUS
 10
220.2177032991
 20
365.7824431514
 11
220.0018206458
 21
365.6364995894
  0
LINE
  5
263
100
AcDbEntity
  8
0
100
AcDbLine
 62
7
  6
CONTINUOUS
 10
228.0828632593
 20
362.7295138248
 11
227.759350511
 21
362.5514289447
  0
LINE
  5
264
100
AcDbEntity
  8
0
100
AcDbLine
 62
7
  6
CONTINUOUS
 10
228.1814514809
 20
361.9962884246
 11
228.5049642292
 21
362.1743733046
  0
LINE
  5
265
100
AcDbEntity
  8
0
100
AcDbLine
 62
7
  6
CONTINUOUS
 10
226.4039870005
 20
360.9349613206
 11
226.0804742522
 21
360.7568764406
  0
LINE
  5
266
100
AcDbEntity
  8
0
100
AcDbLine
 62
7
  6
CONTINUOUS
 10
226.5025751662
 20
360.2017358606
 11
226.8260879705
 21
360.3798208005
  0
LINE
  5
267
100
AcDbEntity
  8
RUNDUNGEN
100
AcDbLine
 62
7
  6
CONTINUOUS
 10
240.1174501726
 20
198.1793411252
 11
225.3674493568
 21
198.1793411252
  0
LINE
  5
268
100
AcDbEntity
  8
RUNDUNGEN
100
AcDbLine
 62
7
  6
CONTINUOUS
 10
178.3674501726
 20
198.1793411252
 11
163.6174501726
 21
198.1793411252
  0
LINE
  5
269
100
AcDbEntity
  8
0
100
AcDbLine
 62
7
  6
CONTINUOUS
 10
176.4128997252
 20
362.6460035099
 11
176.2599384799
 21
362.3166694913
  0
LINE
  5
26A
100
AcDbEntity
  8
0
100
AcDbLine
 62
7
  6
CONTINUOUS
 10
202.2151985221
 20
372.7466105863
 11
202.541606958
 21
373.2269492274
  0
LINE
  5
26B
100
AcDbEntity
  8
0
100
AcDbLine
 62
7
  6
CONTINUOUS
 10
219.0251250042
 20
370.3798533879
 11
218.692735135
 21
370.0309271363
  0
LINE
  5
26C
100
AcDbEntity
  8
0
100
AcDbLine
 62
7
  6
CONTINUOUS
 10
220.4404487324
 20
365.2498099245
 11
220.7145895835
 21
365.4972422913
  0
LINE
  5
26D
100
AcDbEntity
  8
0
100
AcDbLine
 62
7
  6
CONTINUOUS
 10
163.8799499937
 20
311.1234898445
 11
163.6924501726
 21
310.5490218279
  0
LINE
  5
26E
100
AcDbEntity
  8
0
100
AcDbLine
 62
7
  6
CONTINUOUS
 10
164.2549501726
 20
309.5915751335
 11
164.8174501726
 21
310.357532489
  0
LINE
  5
26F
100
AcDbEntity
  8
0
100
AcDbLine
 62
7
  6
CONTINUOUS
 10
226.6082036835
 20
366.3525902902
 11
222.850718526
 21
362.3362106652
  0
LINE
  5
270
100
AcDbEntity
  8
0
100
AcDbLine
 62
7
  6
CONTINUOUS
 10
221.6226527933
 20
367.5396588507
 11
221.9550426625
 21
367.8885851023
  0
LINE
  5
271
100
AcDbEntity
  8
0
100
AcDbLine
 62
7
  6
CONTINUOUS
 10
163.6924501726
 20
310.5490218279
 11
163.3174499937
 21
310.1660431501
  0
LINE
  5
272
100
AcDbEntity
  8
0
100
AcDbLine
 62
7
  6
CONTINUOUS
 10
163.5049503514
 20
309.2085964557
 11
164.2549501726
 21
309.5915751335
  0
LINE
  5
273
100
AcDbEntity
  8
0
100
AcDbLine
 62
7
  6
CONTINUOUS
 10
163.3174499937
 20
310.1660431501
 11
162.7549499937
 21
309.9745538112
  0
LINE
  5
274
100
AcDbEntity
  8
0
100
AcDbLine
 62
7
  6
CONTINUOUS
 10
183.3674501726
 20
217.8993411252
 11
182.8674501726
 21
217.8993411252
  0
LINE
  5
275
100
AcDbEntity
  8
0
100
AcDbLine
 62
7
  6
CONTINUOUS
 10
158.0674501726
 20
313.8043411252
 11
158.0674501726
 21
304.8043411252
  0
LINE
  5
276
100
AcDbEntity
  8
0
100
AcDbLine
 62
7
  6
CONTINUOUS
 10
158.0674501726
 20
301.8043411252
 11
158.0674501726
 21
295.8681708154
  0
LINE
  5
277
100
AcDbEntity
  8
0
100
AcDbLine
 62
7
  6
CONTINUOUS
 10
158.0674501726
 20
289.8043411252
 11
158.0674501726
 21
280.8043411252
  0
LINE
  5
278
100
AcDbEntity
  8
0
100
AcDbLine
 62
7
  6
CONTINUOUS
 10
159.1924501726
 20
281.9532772925
 11
159.1924501726
 21
288.6554050919
  0
LINE
  5
279
100
AcDbEntity
  8
0
100
AcDbLine
 62
7
  6
CONTINUOUS
 10
159.1924501726
 20
295.8681708154
 11
159.1924501726
 21
301.8043411252
  0
LINE
  5
27A
100
AcDbEntity
  8
0
100
AcDbLine
 62
7
  6
CONTINUOUS
 10
159.1924501726
 20
304.8043411252
 11
159.1924501726
 21
308.825617778
  0
LINE
  5
27B
100
AcDbEntity
  8
0
100
AcDbLine
 62
7
  6
CONTINUOUS
 10
159.1924501726
 20
309.9745538112
 11
159.1924501726
 21
312.8468944308
  0
LINE
  5
27C
100
AcDbEntity
  8
0
100
AcDbLine
 62
7
  6
CONTINUOUS
 10
160.6174501726
 20
195.1793411252
 11
160.6174501726
 21
155.8043411252
  0
LINE
  5
27D
100
AcDbEntity
  8
0
100
AcDbLine
 62
7
  6
CONTINUOUS
 10
164.6299503514
 20
294.910724121
 11
164.8174501726
 21
295.8681708154
  0
LINE
  5
27E
100
AcDbEntity
  8
0
100
AcDbLine
 62
7
  6
CONTINUOUS
 10
163.6924501726
 20
295.8681708154
 11
163.5049503514
 21
295.1022134599
  0
LINE
  5
27F
100
AcDbEntity
  8
0
100
AcDbLine
 62
7
  6
CONTINUOUS
 10
181.2640170007
 20
365.8054833926
 11
181.4155826201
 21
366.362568028
  0
LINE
  5
280
100
AcDbEntity
  8
0
100
AcDbLine
 62
7
  6
CONTINUOUS
 10
164.8174501726
 20
310.357532489
 11
165.0049499937
 21
310.9320005056
  0
LINE
  5
281
100
AcDbEntity
  8
0
100
AcDbLine
 62
7
  6
CONTINUOUS
 10
164.2549501726
 20
294.1447666314
 11
164.6299503514
 21
294.910724121
  0
LINE
  5
282
100
AcDbEntity
  8
0
100
AcDbLine
 62
7
  6
CONTINUOUS
 10
163.5049503514
 20
295.1022134599
 11
163.1299501726
 21
294.5277454433
  0
LINE
  5
283
100
AcDbEntity
  8
0
100
AcDbLine
 62
7
  6
CONTINUOUS
 10
222.335778544
 20
365.8882965523
 11
221.9878012122
 21
365.4179122774
  0
LINE
  5
284
100
AcDbEntity
  8
0
100
AcDbLine
 62
7
  6
CONTINUOUS
 10
223.8324449342
 20
362.3792543331
 11
225.0316423499
 21
363.6610776444
  0
LINE
  5
285
100
AcDbEntity
  8
0
100
AcDbLine
 62
7
  6
CONTINUOUS
 10
225.511321249
 20
364.1738068971
 11
226.6305722375
 21
365.3701753928
  0
LINE
  5
286
100
AcDbEntity
  8
0
100
AcDbLine
 62
7
  6
CONTINUOUS
 10
228.2427562257
 20
362.9004235757
 11
228.0828632593
 21
362.7295138248
  0
LINE
  5
287
100
AcDbEntity
  8
0
100
AcDbLine
 62
7
  6
CONTINUOUS
 10
226.6438264501
 20
361.191325947
 11
226.4039870005
 21
360.9349613206
  0
LINE
  5
288
100
AcDbEntity
  8
0
100
AcDbLine
 62
7
  6
CONTINUOUS
 10
226.8260879705
 20
360.3798208005
 11
227.2258203864
 21
360.8070951777
  0
LINE
  5
289
100
AcDbEntity
  8
0
100
AcDbLine
 62
7
  6
CONTINUOUS
 10
228.5049642292
 20
362.1743733046
 11
228.8247503859
 21
362.5161930458
  0
LINE
  5
28A
100
AcDbEntity
  8
0
100
AcDbLine
 62
7
  6
CONTINUOUS
 10
163.5049503514
 20
293.3788092089
 11
164.2549501726
 21
294.1447666314
  0
LINE
  5
28B
100
AcDbEntity
  8
0
100
AcDbLine
 62
7
  6
CONTINUOUS
 10
163.1299501726
 20
294.5277454433
 11
162.5674501726
 21
294.1447666314
  0
LINE
  5
28C
100
AcDbEntity
  8
0
100
AcDbLine
 62
7
  6
CONTINUOUS
 10
183.3674501726
 20
222.2993411252
 11
182.8674501726
 21
222.2993411252
  0
LINE
  5
28D
100
AcDbEntity
  8
0
100
AcDbLine
 62
7
  6
CONTINUOUS
 10
183.3674501726
 20
224.6993411252
 11
182.8674501726
 21
224.6993411252
  0
LINE
  5
28E
100
AcDbEntity
  8
0
100
AcDbLine
 62
7
  6
CONTINUOUS
 10
163.6924501726
 20
301.8043411252
 11
163.6924501726
 21
295.8681708154
  0
LINE
  5
28F
100
AcDbEntity
  8
0
100
AcDbLine
 62
7
  6
CONTINUOUS
 10
163.8799499937
 20
311.6979583976
 11
163.8799499937
 21
311.1234898445
  0
LINE
  5
290
100
AcDbEntity
  8
0
100
AcDbLine
 62
7
  6
CONTINUOUS
 10
164.4424499937
 20
286.7405111667
 11
164.4424499937
 21
283.8681708154
  0
LINE
  5
291
100
AcDbEntity
  8
0
100
AcDbLine
 62
7
  6
CONTINUOUS
 10
164.8174501726
 20
295.8681708154
 11
164.8174501726
 21
301.8043411252
  0
LINE
  5
292
100
AcDbEntity
  8
0
100
AcDbLine
 62
7
  6
CONTINUOUS
 10
165.0049499937
 20
310.9320005056
 11
165.0049499937
 21
311.6979583976
  0
LINE
  5
293
100
AcDbEntity
  8
0
100
AcDbLine
 62
7
  6
CONTINUOUS
 10
165.5674499937
 20
283.8681708154
 11
165.5674499937
 21
286.7405111667
  0
LINE
  5
294
100
AcDbEntity
  8
0
100
AcDbLine
 62
7
  6
CONTINUOUS
 10
176.999589551
 20
362.2436261106
 11
177.0625634361
 21
362.8175158364
  0
LINE
  5
295
100
AcDbEntity
  8
0
100
AcDbLine
 62
7
  6
CONTINUOUS
 10
180.7874390474
 20
366.6193736205
 11
180.7471371528
 21
366.2943060554
  0
LINE
  5
296
100
AcDbEntity
  8
0
100
AcDbLine
 62
7
  6
CONTINUOUS
 10
165.3799501726
 20
282.910724121
 11
165.5674499937
 21
283.8681708154
  0
LINE
  5
297
100
AcDbEntity
  8
0
100
AcDbLine
 62
7
  6
CONTINUOUS
 10
164.4424499937
 20
283.8681708154
 11
164.2549501726
 21
283.1022134599
  0
LINE
  5
298
100
AcDbEntity
  8
0
100
AcDbLine
 62
7
  6
CONTINUOUS
 10
165.0049499937
 20
282.1447666314
 11
165.3799501726
 21
282.910724121
  0
LINE
  5
299
100
AcDbEntity
  8
0
100
AcDbLine
 62
7
  6
CONTINUOUS
 10
219.6008531962
 20
368.1604134348
 11
219.3678387642
 21
367.7544480556
  0
LINE
  5
29A
100
AcDbEntity
  8
0
100
AcDbLine
 62
7
  6
CONTINUOUS
 10
221.5746683063
 20
368.3767663252
 11
221.4581609272
 21
368.1737833513
  0
LINE
  5
29B
100
AcDbEntity
  8
0
100
AcDbLine
 62
7
  6
CONTINUOUS
 10
220.450717731
 20
366.1884085306
 11
220.2177032991
 21
365.7824431514
  0
LINE
  5
29C
100
AcDbEntity
  8
0
100
AcDbLine
 62
7
  6
CONTINUOUS
 10
164.2549501726
 20
283.1022134599
 11
163.8799499937
 21
282.5277454433
  0
LINE
  5
29D
100
AcDbEntity
  8
0
100
AcDbLine
 62
7
  6
CONTINUOUS
 10
223.2774392974
 20
364.4638735397
 11
223.6254166292
 21
364.9342578147
  0
LINE
  5
29E
100
AcDbEntity
  8
0
100
AcDbLine
 62
7
  6
CONTINUOUS
 10
164.2549501726
 20
281.3788092089
 11
165.0049499937
 21
282.1447666314
  0
LINE
  5
29F
100
AcDbEntity
  8
0
100
AcDbLine
 62
7
  6
CONTINUOUS
 10
163.8799499937
 20
282.5277454433
 11
163.3174499937
 21
282.1447666314
  0
LINE
  5
2A0
100
AcDbEntity
  8
0
100
AcDbLine
 62
7
  6
CONTINUOUS
 10
162.7549499937
 20
292.9958304808
 11
163.5049503514
 21
293.3788092089
  0
LINE
  5
2A1
100
AcDbEntity
  8
0
100
AcDbLine
 62
7
  6
CONTINUOUS
 10
183.3674501726
 20
229.0993411252
 11
182.8674501726
 21
229.0993411252
  0
LINE
  5
2A2
100
AcDbEntity
  8
0
100
AcDbLine
 62
7
  6
CONTINUOUS
 10
159.3799501279
 20
295.1022134599
 11
159.1924501726
 21
295.8681708154
  0
LINE
  5
2A3
100
AcDbEntity
  8
0
100
AcDbLine
 62
7
  6
CONTINUOUS
 10
158.0674501726
 20
295.8681708154
 11
158.2549501781
 21
294.910724121
  0
LINE
  5
2A4
100
AcDbEntity
  8
0
100
AcDbLine
 62
7
  6
CONTINUOUS
 10
201.9519623291
 20
373.6737773056
 11
201.8502885565
 21
373.3187593233
  0
LINE
  5
2A5
100
AcDbEntity
  8
0
100
AcDbLine
 62
7
  6
CONTINUOUS
 10
202.541606958
 20
373.2269492274
 11
202.6432807306
 21
373.5819672097
  0
LINE
  5
2A6
100
AcDbEntity
  8
0
100
AcDbLine
 62
7
  6
CONTINUOUS
 10
216.2449259031
 20
371.6195756939
 11
215.8718575536
 21
370.760951749
  0
LINE
  5
2A7
100
AcDbEntity
  8
0
100
AcDbLine
 62
7
  6
CONTINUOUS
 10
216.8288441896
 20
371.2382757325
 11
215.0101363613
 21
367.0524848657
  0
LINE
  5
2A8
100
AcDbEntity
  8
0
100
AcDbLine
 62
7
  6
CONTINUOUS
 10
215.6406881751
 20
366.7785128598
 11
217.8324642224
 21
371.8229273708
  0
LINE
  5
2A9
100
AcDbEntity
  8
0
100
AcDbLine
 62
7
  6
CONTINUOUS
 10
221.9550426625
 20
367.8885851023
 11
222.0715500417
 21
368.0915680762
  0
LINE
  5
2AA
100
AcDbEntity
  8
0
100
AcDbLine
 62
7
  6
CONTINUOUS
 10
220.7145895835
 20
365.4972422913
 11
220.9476040155
 21
365.9032076704
  0
LINE
  5
2AB
100
AcDbEntity
  8
0
100
AcDbLine
 62
7
  6
CONTINUOUS
 10
163.5049503514
 20
280.9958304808
 11
164.2549501726
 21
281.3788092089
  0
LINE
  5
2AC
100
AcDbEntity
  8
0
100
AcDbLine
 62
7
  6
CONTINUOUS
 10
158.2549501781
 20
294.910724121
 11
158.6299501726
 21
294.1447666314
  0
LINE
  5
2AD
100
AcDbEntity
  8
0
100
AcDbLine
 62
7
  6
CONTINUOUS
 10
164.2549501726
 20
287.5064685222
 11
164.4424499937
 21
286.7405111667
  0
LINE
  5
2AE
100
AcDbEntity
  8
0
100
AcDbLine
 62
7
  6
CONTINUOUS
 10
165.5674499937
 20
286.7405111667
 11
165.3799501726
 21
287.6979583976
  0
LINE
  5
2AF
100
AcDbEntity
  8
0
100
AcDbLine
 62
7
  6
CONTINUOUS
 10
176.402094471
 20
362.9733818252
 11
176.4128997252
 21
362.6460035099
  0
LINE
  5
2B0
100
AcDbEntity
  8
0
100
AcDbLine
 62
7
  6
CONTINUOUS
 10
181.4155826201
 20
366.362568028
 11
181.405074414
 21
366.9432204668
  0
LINE
  5
2B1
100
AcDbEntity
  8
0
100
AcDbLine
 62
7
  6
CONTINUOUS
 10
182.8674501726
 20
217.8995711622
 11
182.8674501726
 21
222.2993411252
  0
LINE
  5
2B2
100
AcDbEntity
  8
0
100
AcDbLine
 62
7
  6
CONTINUOUS
 10
182.8674501726
 20
224.6995711622
 11
182.8674501726
 21
229.0993411252
  0
LINE
  5
2B3
100
AcDbEntity
  8
RUNDUNGEN
100
AcDbLine
 62
7
  6
CONTINUOUS
 10
183.3674501726
 20
239.6793411252
 11
183.3674501726
 21
203.1793773923
  0
LINE
  5
2B4
100
AcDbEntity
  8
0
100
AcDbLine
 62
7
  6
CONTINUOUS
 10
194.0236929223
 20
374.5105637176
 11
193.6400738389
 21
369.4661843405
  0
LINE
  5
2B5
100
AcDbEntity
  8
0
100
AcDbLine
 62
7
  6
CONTINUOUS
 10
226.7999927128
 20
361.5259704393
 11
226.6438264501
 21
361.191325947
  0
LINE
  5
2B6
100
AcDbEntity
  8
0
100
AcDbLine
 62
7
  6
CONTINUOUS
 10
227.2258203864
 20
360.8070951777
 11
227.3819866491
 21
361.1417396701
  0
LINE
  5
2B7
100
AcDbEntity
  8
0
100
AcDbLine
 62
7
  6
CONTINUOUS
 10
228.3989226004
 20
363.2350681877
 11
228.2427562257
 21
362.9004235757
  0
LINE
  5
2B8
100
AcDbEntity
  8
0
100
AcDbLine
 62
7
  6
CONTINUOUS
 10
163.8799499937
 20
288.0809370753
 11
164.2549501726
 21
287.5064685222
  0
LINE
  5
2B9
100
AcDbEntity
  8
0
100
AcDbLine
 62
7
  6
CONTINUOUS
 10
159.7549501726
 20
294.5277454433
 11
159.3799501279
 21
295.1022134599
  0
LINE
  5
2BA
100
AcDbEntity
  8
0
100
AcDbLine
 62
7
  6
CONTINUOUS
 10
165.3799501726
 20
287.6979583976
 11
165.0049499937
 21
288.4639157531
  0
LINE
  5
2BB
100
AcDbEntity
  8
0
100
AcDbLine
 62
7
  6
CONTINUOUS
 10
165.1924503514
 20
304.8043411252
 11
163.5049503514
 21
309.2085964557
  0
LINE
  5
2BC
100
AcDbEntity
  8
0
100
AcDbLine
 62
7
  6
CONTINUOUS
 10
162.3799500831
 20
308.825617778
 11
163.8799499937
 21
304.8043411252
  0
LINE
  5
2BD
100
AcDbEntity
  8
0
100
AcDbLine
 62
7
  6
CONTINUOUS
 10
163.6924501726
 20
312.2724264142
 11
163.8799499937
 21
311.6979583976
  0
LINE
  5
2BE
100
AcDbEntity
  8
0
100
AcDbLine
 62
7
  6
CONTINUOUS
 10
165.0049499937
 20
311.6979583976
 11
164.8174501726
 21
312.2724264142
  0
LINE
  5
2BF
100
AcDbEntity
  8
0
100
AcDbLine
 62
7
  6
CONTINUOUS
 10
194.2560285748
 20
368.8972800823
 11
194.6903674664
 21
374.6784961512
  0
LINE
  5
2C0
100
AcDbEntity
  8
0
100
AcDbLine
 62
7
  6
CONTINUOUS
 10
220.9476040155
 20
365.9032076704
 11
221.0812385427
 21
366.3662149304
  0
LINE
  5
2C1
100
AcDbEntity
  8
0
100
AcDbLine
 62
7
  6
CONTINUOUS
 10
222.0715500417
 20
368.0915680762
 11
222.2051890364
 21
368.5545725829
  0
LINE
  5
2C2
100
AcDbEntity
  8
0
100
AcDbLine
 62
7
  6
CONTINUOUS
 10
228.8247503859
 20
362.5161930458
 11
228.9809165367
 21
362.8508374185
  0
LINE
  5
2C3
100
AcDbEntity
  8
0
100
AcDbLine
 62
7
  6
CONTINUOUS
 10
158.6299501726
 20
294.1447666314
 11
159.3799501279
 21
293.3788092089
  0
LINE
  5
2C4
100
AcDbEntity
  8
0
100
AcDbLine
 62
7
  6
CONTINUOUS
 10
165.0049499937
 20
288.4639157531
 11
164.2549501726
 21
289.2298731086
  0
LINE
  5
2C5
100
AcDbEntity
  8
0
100
AcDbLine
 62
7
  6
CONTINUOUS
 10
177.0625634361
 20
362.8175158364
 11
176.9617708216
 21
363.3894498587
  0
LINE
  5
2C6
100
AcDbEntity
  8
0
100
AcDbLine
 62
7
  6
CONTINUOUS
 10
198.3423611642
 20
375.1811266347
 11
198.5434247327
 21
369.6848030051
  0
LINE
  5
2C7
100
AcDbEntity
  8
0
100
AcDbLine
 62
7
  6
CONTINUOUS
 10
199.2304651864
 20
369.7099359512
 11
199.1406282715
 21
372.165740161
  0
LINE
  5
2C8
100
AcDbEntity
  8
0
100
AcDbLine
 62
7
  6
CONTINUOUS
 10
199.114960585
 20
372.867398413
 11
199.0507913566
 21
374.6215443708
  0
LINE
  5
2C9
100
AcDbEntity
  8
0
100
AcDbLine
 62
7
  6
CONTINUOUS
 10
217.1370169786
 20
367.5506835232
 11
217.0616338257
 21
367.1891689846
  0
LINE
  5
2CA
100
AcDbEntity
  8
0
100
AcDbLine
 62
7
  6
CONTINUOUS
 10
163.3174499937
 20
288.4639157531
 11
163.8799499937
 21
288.0809370753
  0
LINE
  5
2CB
100
AcDbEntity
  8
0
100
AcDbLine
 62
7
  6
CONTINUOUS
 10
160.3174501726
 20
294.1447666314
 11
159.7549501726
 21
294.5277454433
  0
LINE
  5
2CC
100
AcDbEntity
  8
0
100
AcDbLine
 62
7
  6
CONTINUOUS
 10
164.8174501726
 20
312.2724264142
 11
164.2549501726
 21
313.0383837697
  0
LINE
  5
2CD
100
AcDbEntity
  8
0
100
AcDbLine
 62
7
  6
CONTINUOUS
 10
201.9391284739
 20
374.0246067593
 11
201.9519623291
 21
373.6737773056
  0
LINE
  5
2CE
100
AcDbEntity
  8
0
100
AcDbLine
 62
7
  6
CONTINUOUS
 10
202.6432807306
 20
373.5819672097
 11
202.6261689276
 21
374.0497397053
  0
LINE
  5
2CF
100
AcDbEntity
  8
0
100
AcDbLine
 62
7
  6
CONTINUOUS
 10
217.6167737589
 20
367.0054595404
 11
217.6339009885
 21
367.2654839686
  0
LINE
  5
2D0
100
AcDbEntity
  8
KONSTRUKTIONSELEMENTE
100
AcDbLine
 62
7
  6
CONTINUOUS
 10
154.0932441566
 20
276.8043411252
 11
170.6706024392
 21
276.8043411252
  0
LINE
  5
2D1
100
AcDbEntity
  8
KONSTRUKTIONSELEMENTE
100
AcDbLine
 62
7
  6
CONTINUOUS
 10
233.0642979059
 20
276.8043411252
 11
249.6416561885
 21
276.8043411252
  0
LINE
  5
2D2
100
AcDbEntity
  8
0
100
AcDbLine
 62
7
  6
CONTINUOUS
 10
164.2549501726
 20
289.2298731086
 11
163.5049503514
 21
289.6128517863
  0
LINE
  5
2D3
100
AcDbEntity
  8
0
100
AcDbLine
 62
7
  6
CONTINUOUS
 10
159.3799501279
 20
293.3788092089
 11
160.1299502173
 21
292.9958304808
  0
LINE
  5
2D4
100
AcDbEntity
  8
0
100
AcDbLine
 62
7
  6
CONTINUOUS
 10
163.3174499937
 20
312.6554050919
 11
163.6924501726
 21
312.2724264142
  0
LINE
  5
2D5
100
AcDbEntity
  8
0
100
AcDbLine
 62
7
  6
CONTINUOUS
 10
196.193302112
 20
374.865247681
 11
196.9556576078
 21
369.4183390074
  0
LINE
  5
2D6
100
AcDbEntity
  8
0
100
AcDbLine
 62
7
  6
CONTINUOUS
 10
220.484976821
 20
366.7084549182
 11
220.450717731
 21
366.1884085306
  0
LINE
  5
2D7
100
AcDbEntity
  8
0
100
AcDbLine
 62
7
  6
CONTINUOUS
 10
227.3819866491
 20
361.1417396701
 11
227.4507488553
 21
361.7184019942
  0
LINE
  5
2D8
100
AcDbEntity
  8
0
100
AcDbLine
 62
7
  6
CONTINUOUS
 10
228.9809165367
 20
362.8508374185
 11
229.0496787429
 21
363.4274997426
  0
LINE
  5
2D9
100
AcDbEntity
  8
0
100
AcDbLine
 62
7
  6
CONTINUOUS
 10
158.0674501726
 20
280.8043411252
 11
162.5674501726
 21
280.8043411252
  0
LINE
  5
2DA
100
AcDbEntity
  8
0
100
AcDbLine
 62
7
  6
CONTINUOUS
 10
162.5674501726
 20
281.9532772925
 11
159.1924501726
 21
281.9532772925
  0
LINE
  5
2DB
100
AcDbEntity
  8
0
100
AcDbLine
 62
7
  6
CONTINUOUS
 10
163.5049503514
 20
289.6128517863
 11
162.5674501726
 21
289.8043411252
  0
LINE
  5
2DC
100
AcDbEntity
  8
0
100
AcDbLine
 62
7
  6
CONTINUOUS
 10
160.1299502173
 20
292.9958304808
 11
161.067450262
 21
292.8043411252
  0
LINE
  5
2DD
100
AcDbEntity
  8
0
100
AcDbLine
 62
7
  6
CONTINUOUS
 10
162.5674501726
 20
288.6554050919
 11
163.3174499937
 21
288.4639157531
  0
LINE
  5
2DE
100
AcDbEntity
  8
0
100
AcDbLine
 62
7
  6
CONTINUOUS
 10
161.067450262
 20
293.9532772925
 11
160.3174501726
 21
294.1447666314
  0
LINE
  5
2DF
100
AcDbEntity
  8
0
100
AcDbLine
 62
7
  6
CONTINUOUS
 10
164.2549501726
 20
313.0383837697
 11
163.5049503514
 21
313.6128517863
  0
LINE
  5
2E0
100
AcDbEntity
  8
0
100
AcDbLine
 62
7
  6
CONTINUOUS
 10
180.6656676379
 20
366.9680093866
 11
180.7874390474
 21
366.6193736205
  0
LINE
  5
2E1
100
AcDbEntity
  8
0
100
AcDbLine
 62
7
  6
CONTINUOUS
 10
181.405074414
 20
366.9432204668
 11
181.2833030045
 21
367.2918562328
  0
LINE
  5
2E2
100
AcDbEntity
  8
0
100
AcDbLine
 62
7
  6
CONTINUOUS
 10
197.6365211919
 20
369.5136334444
 11
196.8741656962
 21
374.9605421179
  0
LINE
  5
2E3
100
AcDbEntity
  8
0
100
AcDbLine
 62
7
  6
CONTINUOUS
 10
217.0616338257
 20
367.1891689846
 11
217.0856284253
 21
366.770614084
  0
LINE
  5
2E4
100
AcDbEntity
  8
0
100
AcDbLine
 62
7
  6
CONTINUOUS
 10
221.0812385427
 20
366.3662149304
 11
221.0572484921
 21
366.78476722
  0
LINE
  5
2E5
100
AcDbEntity
  8
0
100
AcDbLine
 62
7
  6
CONTINUOUS
 10
221.5506737067
 20
368.7953212259
 11
221.5746683063
 21
368.3767663252
  0
LINE
  5
2E6
100
AcDbEntity
  8
RUNDUNGEN
100
AcDbLine
 62
7
  6
CONTINUOUS
 10
220.3674501726
 20
203.1794099616
 11
220.3674501726
 21
239.6793411252
  0
LINE
  5
2E7
100
AcDbEntity
  8
0
100
AcDbLine
 62
7
  6
CONTINUOUS
 10
163.3174499937
 20
282.1447666314
 11
162.5674501726
 21
281.9532772925
  0
LINE
  5
2E8
100
AcDbEntity
  8
0
100
AcDbLine
 62
7
  6
CONTINUOUS
 10
162.5674501726
 20
280.8043411252
 11
163.5049503514
 21
280.9958304808
  0
LINE
  5
2E9
100
AcDbEntity
  8
0
100
AcDbLine
 62
7
  6
CONTINUOUS
 10
159.1924501726
 20
288.6554050919
 11
162.5674501726
 21
288.6554050919
  0
LINE
  5
2EA
100
AcDbEntity
  8
0
100
AcDbLine
 62
7
  6
CONTINUOUS
 10
162.5674501726
 20
289.8043411252
 11
158.0674501726
 21
289.8043411252
  0
LINE
  5
2EB
100
AcDbEntity
  8
0
100
AcDbLine
 62
7
  6
CONTINUOUS
 10
161.067450262
 20
292.8043411252
 11
161.8174500831
 21
292.8043411252
  0
LINE
  5
2EC
100
AcDbEntity
  8
0
100
AcDbLine
 62
7
  6
CONTINUOUS
 10
161.8174500831
 20
293.9532772925
 11
161.067450262
 21
293.9532772925
  0
LINE
  5
2ED
100
AcDbEntity
  8
0
100
AcDbLine
 62
7
  6
CONTINUOUS
 10
176.2275224908
 20
363.2988042002
 11
176.402094471
 21
362.9733818252
  0
LINE
  5
2EE
100
AcDbEntity
  8
0
100
AcDbLine
 62
7
  6
CONTINUOUS
 10
176.9617708216
 20
363.3894498587
 11
176.7871988413
 21
363.7148722337
  0
LINE
  5
2EF
100
AcDbEntity
  8
0
100
AcDbLine
 62
7
  6
CONTINUOUS
 10
188.3239306379
 20
369.6911329644
 11
188.5326555789
 21
369.1445220529
  0
LINE
  5
2F0
100
AcDbEntity
  8
0
100
AcDbLine
 62
7
  6
CONTINUOUS
 10
190.0312806619
 20
369.71677633
 11
189.8225557209
 21
370.2633872415
  0
LINE
  5
2F1
100
AcDbEntity
  8
0
100
AcDbLine
 62
7
  6
CONTINUOUS
 10
226.7925352514
 20
361.8534432663
 11
226.7999927128
 21
361.5259704393
  0
LINE
  5
2F2
100
AcDbEntity
  8
0
100
AcDbLine
 62
7
  6
CONTINUOUS
 10
228.391465139
 20
363.5625410147
 11
228.3989226004
 21
363.2350681877
  0
LINE
  5
2F3
100
AcDbEntity
  8
0
100
AcDbLine
 62
7
  6
CONTINUOUS
 10
161.8174500831
 20
292.8043411252
 11
162.7549499937
 21
292.9958304808
  0
LINE
  5
2F4
100
AcDbEntity
  8
0
100
AcDbLine
 62
7
  6
CONTINUOUS
 10
164.8174501726
 20
301.8043411252
 11
163.6924501726
 21
301.8043411252
  0
LINE
  5
2F5
100
AcDbEntity
  8
0
100
AcDbLine
 62
7
  6
CONTINUOUS
 10
159.1924501726
 20
301.8043411252
 11
158.0674501726
 21
301.8043411252
  0
LINE
  5
2F6
100
AcDbEntity
  8
0
100
AcDbLine
 62
7
  6
CONTINUOUS
 10
162.7549499937
 20
312.8468944308
 11
163.3174499937
 21
312.6554050919
  0
LINE
  5
2F7
100
AcDbEntity
  8
0
100
AcDbLine
 62
7
  6
CONTINUOUS
 10
243.3674501577
 20
172.2218932519
 11
243.3674031087
 21
172.2538092089
  0
LINE
  5
2F8
100
AcDbEntity
  8
0
100
AcDbLine
 62
7
  6
CONTINUOUS
 10
239.8880038245
 20
166.6793411252
 11
239.8880038245
 21
157.6793411252
  0
LINE
  5
2F9
100
AcDbEntity
  8
0
100
AcDbLine
 62
7
  6
CONTINUOUS
 10
240.1590941696
 20
166.6793411252
 11
240.1590941696
 21
157.6793411252
  0
LINE
  5
2FA
100
AcDbEntity
  8
0
100
AcDbLine
 62
7
  6
CONTINUOUS
 10
240.609989777
 20
165.7218944308
 11
240.609989777
 21
162.8495538112
  0
LINE
  5
2FB
100
AcDbEntity
  8
0
100
AcDbLine
 62
7
  6
CONTINUOUS
 10
240.609989777
 20
161.700617778
 11
240.609989777
 21
157.6793411252
  0
LINE
  5
2FC
100
AcDbEntity
  8
0
100
AcDbLine
 62
7
  6
CONTINUOUS
 10
241.8396572683
 20
164.5729583976
 11
241.8396572683
 21
163.9984898445
  0
LINE
  5
2FD
100
AcDbEntity
  8
0
100
AcDbLine
 62
7
  6
CONTINUOUS
 10
241.8869766565
 20
180.6793411252
 11
241.8869766565
 21
171.6793411252
  0
LINE
  5
2FE
100
AcDbEntity
  8
0
100
AcDbLine
 62
7
  6
CONTINUOUS
 10
242.0975985703
 20
164.5729583976
 11
242.0975985703
 21
163.9984898445
  0
LINE
  5
2FF
100
AcDbEntity
  8
0
100
AcDbLine
 62
7
  6
CONTINUOUS
 10
242.1446149188
 20
180.6793411252
 11
242.1446149188
 21
171.6793411252
  0
LINE
  5
300
100
AcDbEntity
  8
0
100
AcDbLine
 62
7
  6
CONTINUOUS
 10
242.3658586661
 20
164.5729583976
 11
242.3658586661
 21
163.8070005056
  0
LINE
  5
301
100
AcDbEntity
  8
0
100
AcDbLine
 62
7
  6
CONTINUOUS
 10
242.4073610629
 20
179.7218944308
 11
242.4073610629
 21
176.8495538112
  0
LINE
  5
302
100
AcDbEntity
  8
0
100
AcDbLine
 62
7
  6
CONTINUOUS
 10
242.4073610629
 20
175.700617778
 11
242.4073610629
 21
171.6793411252
  0
LINE
  5
303
100
AcDbEntity
  8
0
100
AcDbLine
 62
7
  6
CONTINUOUS
 10
242.418295956
 20
166.6793411252
 11
242.418295956
 21
157.6793411252
  0
LINE
  5
304
100
AcDbEntity
  8
0
100
AcDbLine
 62
7
  6
CONTINUOUS
 10
242.6725796755
 20
166.6793411252
 11
242.6725796755
 21
157.6793411252
  0
LINE
  5
305
100
AcDbEntity
  8
0
100
AcDbLine
 62
7
  6
CONTINUOUS
 10
242.8651158835
 20
165.7218944308
 11
242.8651158835
 21
162.8495538112
  0
LINE
  5
306
100
AcDbEntity
  8
0
100
AcDbLine
 62
7
  6
CONTINUOUS
 10
242.8651158835
 20
161.700617778
 11
242.8651158835
 21
157.6793411252
  0
LINE
  5
307
100
AcDbEntity
  8
0
100
AcDbLine
 62
7
  6
CONTINUOUS
 10
242.9043523735
 20
178.5729583976
 11
242.9043523735
 21
177.9984898445
  0
LINE
  5
308
100
AcDbEntity
  8
0
100
AcDbLine
 62
7
  6
CONTINUOUS
 10
243.0803122577
 20
164.5729583976
 11
243.0803122577
 21
163.9984898445
  0
LINE
  5
309
100
AcDbEntity
  8
0
100
AcDbLine
 62
7
  6
CONTINUOUS
 10
243.0945271306
 20
180.6793411252
 11
243.0945271306
 21
180.5262952514
  0
LINE
  5
30A
100
AcDbEntity
  8
0
100
AcDbLine
 62
7
  6
CONTINUOUS
 10
243.1174501726
 20
195.1793411252
 11
243.1174501726
 21
180.6793411252
  0
LINE
  5
30B
100
AcDbEntity
  8
0
100
AcDbLine
 62
7
  6
CONTINUOUS
 10
243.1174501726
 20
171.6793411252
 11
243.1174501726
 21
166.6793411252
  0
LINE
  5
30C
100
AcDbEntity
  8
0
100
AcDbLine
 62
7
  6
CONTINUOUS
 10
243.1174501726
 20
161.700617778
 11
243.1174501726
 21
155.8043411252
  0
LINE
  5
30D
100
AcDbEntity
  8
0
100
AcDbLine
 62
7
  6
CONTINUOUS
 10
243.1556427008
 20
178.5729583976
 11
243.1556427008
 21
177.9984898445
  0
LINE
  5
30E
100
AcDbEntity
  8
0
100
AcDbLine
 62
7
  6
CONTINUOUS
 10
243.2542970282
 20
178.5729583976
 11
243.2542970282
 21
177.8070005056
  0
LINE
  5
30F
100
AcDbEntity
  8
0
100
AcDbLine
 62
7
  6
CONTINUOUS
 10
243.3305361799
 20
164.5729583976
 11
243.3305361799
 21
163.9984898445
  0
LINE
  5
310
100
AcDbEntity
  8
0
100
AcDbLine
 62
7
  6
CONTINUOUS
 10
243.3446652973
 20
180.6793411252
 11
243.3446652973
 21
174.7431708154
  0
LINE
  5
311
100
AcDbEntity
  8
0
100
AcDbLine
 62
7
  6
CONTINUOUS
 10
243.3582247496
 20
161.8921071169
 11
243.3582247496
 21
160.9346601543
  0
LINE
  5
312
100
AcDbEntity
  8
0
100
AcDbLine
 62
7
  6
CONTINUOUS
 10
243.3627435857
 20
164.5729583976
 11
243.3627435857
 21
163.8070005056
  0
LINE
  5
313
100
AcDbEntity
  8
0
100
AcDbLine
 62
7
  6
CONTINUOUS
 10
243.3666971558
 20
180.6793411252
 11
243.3666971558
 21
174.7431708154
  0
LINE
  5
314
100
AcDbEntity
  8
0
100
AcDbLine
 62
7
  6
CONTINUOUS
 10
243.3674031087
 20
173.9772134599
 11
243.3674501726
 21
173.0197666314
  0
LINE
  5
315
100
AcDbEntity
  8
0
100
AcDbLine
 62
7
  6
CONTINUOUS
 10
162.5674501726
 20
294.1447666314
 11
161.8174500831
 21
293.9532772925
  0
LINE
  5
316
100
AcDbEntity
  8
0
100
AcDbLine
 62
7
  6
CONTINUOUS
 10
158.0674501726
 20
304.8043411252
 11
159.1924501726
 21
304.8043411252
  0
LINE
  5
317
100
AcDbEntity
  8
0
100
AcDbLine
 62
7
  6
CONTINUOUS
 10
163.8799499937
 20
304.8043411252
 11
165.1924503514
 21
304.8043411252
  0
LINE
  5
318
100
AcDbEntity
  8
0
100
AcDbLine
 62
7
  6
CONTINUOUS
 10
159.1924501726
 20
308.825617778
 11
162.3799500831
 21
308.825617778
  0
LINE
  5
319
100
AcDbEntity
  8
0
100
AcDbLine
 62
7
  6
CONTINUOUS
 10
162.7549499937
 20
309.9745538112
 11
159.1924501726
 21
309.9745538112
  0
LINE
  5
31A
100
AcDbEntity
  8
0
100
AcDbLine
 62
7
  6
CONTINUOUS
 10
163.5049503514
 20
313.6128517863
 11
162.5674501726
 21
313.8043411252
  0
LINE
  5
31B
100
AcDbEntity
  8
0
100
AcDbLine
 62
7
  6
CONTINUOUS
 10
176.8477263106
 20
366.1167503582
 11
180.1829082198
 21
361.7433578955
  0
LINE
  5
31C
100
AcDbEntity
  8
0
100
AcDbLine
 62
7
  6
CONTINUOUS
 10
180.7295822776
 20
362.1602556342
 11
179.2393945949
 21
364.1143246346
  0
LINE
  5
31D
100
AcDbEntity
  8
0
100
AcDbLine
 62
7
  6
CONTINUOUS
 10
178.8136267423
 20
364.6726299888
 11
177.7492069122
 21
366.068393635
  0
LINE
  5
31E
100
AcDbEntity
  8
0
100
AcDbLine
 62
7
  6
CONTINUOUS
 10
201.8117870147
 20
374.371247029
 11
201.9391284739
 21
374.0246067593
  0
LINE
  5
31F
100
AcDbEntity
  8
0
100
AcDbLine
 62
7
  6
CONTINUOUS
 10
202.6261689276
 20
374.0497397053
 11
202.4988274684
 21
374.396379975
  0
LINE
  5
320
100
AcDbEntity
  8
0
100
AcDbLine
 62
7
  6
CONTINUOUS
 10
217.6990173766
 20
366.6883985245
 11
217.6167737589
 21
367.0054595404
  0
LINE
  5
321
100
AcDbEntity
  8
0
100
AcDbLine
 62
7
  6
CONTINUOUS
 10
229.0496787429
 20
363.4274997426
 11
228.9548173368
 21
363.9969905211
  0
LINE
  5
322
100
AcDbEntity
  8
0
100
AcDbLine
 62
7
  6
CONTINUOUS
 10
159.1924501726
 20
312.8468944308
 11
162.7549499937
 21
312.8468944308
  0
LINE
  5
323
100
AcDbEntity
  8
0
100
AcDbLine
 62
7
  6
CONTINUOUS
 10
162.5674501726
 20
313.8043411252
 11
158.0674501726
 21
313.8043411252
  0
LINE
  5
324
100
AcDbEntity
  8
KONSTRUKTIONSELEMENTE
100
AcDbLine
 62
7
  6
CONTINUOUS
 10
154.0932441566
 20
316.8043411252
 11
170.6706024392
 21
316.8043411252
  0
LINE
  5
325
100
AcDbEntity
  8
KONSTRUKTIONSELEMENTE
100
AcDbLine
 62
7
  6
CONTINUOUS
 10
233.0642979059
 20
316.8043411252
 11
249.6416561885
 21
316.8043411252
  0
LINE
  5
326
100
AcDbEntity
  8
0
100
AcDbLine
 62
7
  6
CONTINUOUS
 10
172.5886970419
 20
361.8634418989
 11
176.5641746535
 21
358.0627080541
  0
LINE
  5
327
100
AcDbEntity
  8
0
100
AcDbLine
 62
7
  6
CONTINUOUS
 10
177.0392663841
 20
358.5596427555
 11
175.2629891281
 21
360.2578430082
  0
LINE
  5
328
100
AcDbEntity
  8
0
100
AcDbLine
 62
7
  6
CONTINUOUS
 10
174.7554814084
 20
360.7430430156
 11
173.4867118722
 21
361.9560432608
  0
LINE
  5
329
100
AcDbEntity
  8
0
100
AcDbLine
 62
7
  6
CONTINUOUS
 10
175.9737683939
 20
363.5414044304
 11
176.2275224908
 21
363.2988042002
  0
LINE
  5
32A
100
AcDbEntity
  8
0
100
AcDbLine
 62
7
  6
CONTINUOUS
 10
180.4527835128
 20
367.2471623243
 11
180.6656676379
 21
366.9680093866
  0
LINE
  5
32B
100
AcDbEntity
  8
0
100
AcDbLine
 62
7
  6
CONTINUOUS
 10
181.2833030045
 20
367.2918562328
 11
180.9994575707
 21
367.664060063
  0
LINE
  5
32C
100
AcDbEntity
  8
0
100
AcDbLine
 62
7
  6
CONTINUOUS
 10
193.6400738389
 20
369.4661843405
 11
190.9125454737
 21
373.7268791343
  0
LINE
  5
32D
100
AcDbEntity
  8
0
100
AcDbLine
 62
7
  6
CONTINUOUS
 10
190.2458709296
 20
373.5589467007
 11
193.3671300304
 21
368.6733703844
  0
LINE
  5
32E
100
AcDbEntity
  8
0
100
AcDbLine
 62
7
  6
CONTINUOUS
 10
222.2051890364
 20
368.5545725829
 11
222.0406971703
 21
369.1886970836
  0
LINE
  5
32F
100
AcDbEntity
  8
0
100
AcDbLine
 62
7
  6
CONTINUOUS
 10
176.7871988413
 20
363.7148722337
 11
176.4488601246
 21
364.0383391319
  0
LINE
  5
330
100
AcDbEntity
  8
0
100
AcDbLine
 62
7
  6
CONTINUOUS
 10
217.0856284253
 20
366.770614084
 11
217.2672520498
 21
366.396511365
  0
LINE
  5
331
100
AcDbEntity
  8
0
100
AcDbLine
 62
7
  6
CONTINUOUS
 10
227.4507488553
 20
361.7184019942
 11
227.3633449107
 21
361.9604199457
  0
LINE
  5
332
100
AcDbEntity
  8
0
100
AcDbLine
 62
7
  6
CONTINUOUS
 10
202.4988274684
 20
374.396379975
 11
202.1381954505
 21
374.85158567
  0
LINE
  5
333
100
AcDbEntity
  8
0
100
AcDbLine
 62
7
  6
CONTINUOUS
 10
217.2672520498
 20
366.396511365
 11
217.5482511166
 21
365.9653695273
  0
LINE
  5
334
100
AcDbEntity
  8
0
100
AcDbLine
 62
7
  6
CONTINUOUS
 10
217.8395191923
 20
366.4728263135
 11
217.6990173766
 21
366.6883985245
  0
LINE
  5
335
100
AcDbEntity
  8
0
100
AcDbLine
 62
7
  6
CONTINUOUS
 10
226.621458008
 20
362.173740964
 11
226.7925352514
 21
361.8534432663
  0
LINE
  5
336
100
AcDbEntity
  8
0
100
AcDbLine
 62
7
  6
CONTINUOUS
 10
220.3033531761
 20
367.0825576016
 11
220.484976821
 21
366.7084549182
  0
LINE
  5
337
100
AcDbEntity
  8
0
100
AcDbLine
 62
7
  6
CONTINUOUS
 10
221.3690500618
 20
369.1694239093
 11
221.5506737067
 21
368.7953212259
  0
LINE
  5
338
100
AcDbEntity
  8
0
100
AcDbLine
 62
7
  6
CONTINUOUS
 10
175.6408326545
 20
363.7011820629
 11
175.9737683939
 21
363.5414044304
  0
LINE
  5
339
100
AcDbEntity
  8
0
100
AcDbLine
 62
7
  6
CONTINUOUS
 10
176.4488601246
 20
364.0383391319
 11
176.1159243851
 21
364.1981167644
  0
LINE
  5
33A
100
AcDbEntity
  8
0
100
AcDbLine
 62
7
  6
CONTINUOUS
 10
180.1487870698
 20
367.4568319125
 11
180.4527835128
 21
367.2471623243
  0
LINE
  5
33B
100
AcDbEntity
  8
0
100
AcDbLine
 62
7
  6
CONTINUOUS
 10
180.9994575707
 20
367.664060063
 11
180.6954611276
 21
367.8737296511
  0
LINE
  5
33C
100
AcDbEntity
  8
0
100
AcDbLine
 62
7
  6
CONTINUOUS
 10
221.0572484921
 20
366.78476722
 11
220.6768694237
 21
367.2729507697
  0
LINE
  5
33D
100
AcDbEntity
  8
0
100
AcDbLine
 62
7
  6
CONTINUOUS
 10
222.0406971703
 20
369.1886970836
 11
221.759693539
 21
369.6198415057
  0
LINE
  5
33E
100
AcDbEntity
  8
0
100
AcDbLine
 62
7
  6
CONTINUOUS
 10
228.2203878956
 20
363.8828387124
 11
228.391465139
 21
363.5625410147
  0
LINE
  5
33F
100
AcDbEntity
  8
0
100
AcDbLine
 62
7
  6
CONTINUOUS
 10
218.2781518688
 20
366.0861341085
 11
217.8395191923
 21
366.4728263135
  0
LINE
  5
340
100
AcDbEntity
  8
0
100
AcDbLine
 62
7
  6
CONTINUOUS
 10
222.850718526
 20
362.3362106652
 11
224.8589083385
 21
360.4574680865
  0
LINE
  5
341
100
AcDbEntity
  8
0
100
AcDbLine
 62
7
  6
CONTINUOUS
 10
225.4222605923
 20
360.8919176528
 11
223.8324449342
 21
362.3792543331
  0
LINE
  5
342
100
AcDbEntity
  8
0
100
AcDbLine
 62
7
  6
CONTINUOUS
 10
201.5742185083
 20
374.5967554963
 11
201.8117870147
 21
374.371247029
  0
LINE
  5
343
100
AcDbEntity
  8
0
100
AcDbLine
 62
7
  6
CONTINUOUS
 10
217.5482511166
 20
365.9653695273
 11
217.8875038016
 21
365.6357190522
  0
LINE
  5
344
100
AcDbEntity
  8
0
100
AcDbLine
 62
7
  6
CONTINUOUS
 10
228.9548173368
 20
363.9969905211
 11
228.6163934959
 21
364.4738477115
  0
LINE
  5
345
100
AcDbEntity
  8
0
100
AcDbLine
 62
7
  6
CONTINUOUS
 10
220.0018206458
 20
365.6364995894
 11
219.6865579654
 21
365.547597695
  0
LINE
  5
346
100
AcDbEntity
  8
0
100
AcDbLine
 62
7
  6
CONTINUOUS
 10
221.0263910716
 20
367.8818988385
 11
220.711128432
 21
367.7929970151
  0
LINE
  5
347
100
AcDbEntity
  8
0
100
AcDbLine
 62
7
  6
CONTINUOUS
 10
225.9317654789
 20
360.0947591512
 11
226.5025751662
 21
360.2017358606
  0
LINE
  5
348
100
AcDbEntity
  8
0
100
AcDbLine
 62
7
  6
CONTINUOUS
 10
227.6106418217
 20
361.8893117451
 11
228.1814514809
 21
361.9962884246
  0
LINE
  5
349
100
AcDbEntity
  8
0
100
AcDbLine
 62
7
  6
CONTINUOUS
 10
226.0804742522
 20
360.7568764406
 11
225.7532308021
 21
360.7425297059
  0
LINE
  5
34A
100
AcDbEntity
  8
0
100
AcDbLine
 62
7
  6
CONTINUOUS
 10
176.1159243851
 20
364.1981167644
 11
175.54004004
 21
364.2731160853
  0
LINE
  5
34B
100
AcDbEntity
  8
0
100
AcDbLine
 62
7
  6
CONTINUOUS
 10
180.6954611276
 20
367.8737296511
 11
180.1382788637
 21
368.0374843513
  0
LINE
  5
34C
100
AcDbEntity
  8
0
100
AcDbLine
 62
7
  6
CONTINUOUS
 10
217.8875038016
 20
365.6357190522
 11
218.682520947
 21
365.1793981982
  0
LINE
  5
34D
100
AcDbEntity
  8
0
100
AcDbLine
 62
7
  6
CONTINUOUS
 10
224.8589083385
 20
360.4574680865
 11
225.3572251527
 21
360.1515206545
  0
LINE
  5
34E
100
AcDbEntity
  8
0
100
AcDbLine
 62
7
  6
CONTINUOUS
 10
202.1381954505
 20
374.85158567
 11
201.6673337645
 21
375.1856594667
  0
LINE
  5
34F
100
AcDbEntity
  8
0
100
AcDbLine
 62
7
  6
CONTINUOUS
 10
221.9878012122
 20
365.4179122774
 11
223.2774392974
 21
364.4638735397
  0
LINE
  5
350
100
AcDbEntity
  8
0
100
AcDbLine
 62
7
  6
CONTINUOUS
 10
223.6254166292
 20
364.9342578147
 11
222.335778544
 21
365.8882965523
  0
LINE
  5
351
100
AcDbEntity
  8
0
100
AcDbLine
 62
7
  6
CONTINUOUS
 10
221.759693539
 20
369.6198415057
 11
221.122309988
 21
370.1206119658
  0
LINE
  5
352
100
AcDbEntity
  8
0
100
AcDbLine
 62
7
  6
CONTINUOUS
 10
219.7653450623
 20
367.5262889341
 11
220.3033531761
 21
367.0825576016
  0
LINE
  5
353
100
AcDbEntity
  8
0
100
AcDbLine
 62
7
  6
CONTINUOUS
 10
220.9304173853
 20
369.5561161143
 11
221.3690500618
 21
369.1694239093
  0
LINE
  5
354
100
AcDbEntity
  8
0
100
AcDbLine
 62
7
  6
CONTINUOUS
 10
225.0316423499
 20
363.6610776444
 11
226.621458008
 21
362.173740964
  0
LINE
  5
355
100
AcDbEntity
  8
0
100
AcDbLine
 62
7
  6
CONTINUOUS
 10
227.1011369071
 20
362.6864702168
 11
225.511321249
 21
364.1738068971
  0
LINE
  5
356
100
AcDbEntity
  8
0
100
AcDbLine
 62
7
  6
CONTINUOUS
 10
226.6305722375
 20
365.3701753928
 11
228.2203878956
 21
363.8828387124
  0
LINE
  5
357
100
AcDbEntity
  8
0
100
AcDbLine
 62
7
  6
CONTINUOUS
 10
228.6163934959
 20
364.4738477115
 11
226.6082036835
 21
366.3525902902
  0
LINE
  5
358
100
AcDbEntity
  8
0
100
AcDbLine
 62
7
  6
CONTINUOUS
 10
219.6556502834
 20
370.5576570345
 11
219.0251250042
 21
370.3798533879
  0
LINE
  5
359
100
AcDbEntity
  8
0
100
AcDbLine
 62
7
  6
CONTINUOUS
 10
193.3671300304
 20
368.6733703844
 11
194.2560285748
 21
368.8972800823
  0
LINE
  5
35A
100
AcDbEntity
  8
0
100
AcDbLine
 62
7
  6
CONTINUOUS
 10
201.2017496326
 20
372.2411389992
 11
201.7700045227
 21
372.3790261309
  0
LINE
  5
35B
100
AcDbEntity
  8
0
100
AcDbLine
 62
7
  6
CONTINUOUS
 10
175.54004004
 20
364.2731160853
 11
174.9695584353
 21
364.184426367
  0
LINE
  5
35C
100
AcDbEntity
  8
0
100
AcDbLine
 62
7
  6
CONTINUOUS
 10
196.9556576078
 20
369.4183390074
 11
197.6365211919
 21
369.5136334444
  0
LINE
  5
35D
100
AcDbEntity
  8
0
100
AcDbLine
 62
7
  6
CONTINUOUS
 10
220.6768694237
 20
367.2729507697
 11
221.2491365457
 21
367.3492656826
  0
LINE
  5
35E
100
AcDbEntity
  8
0
100
AcDbLine
 62
7
  6
CONTINUOUS
 10
219.6522989367
 20
365.0275514141
 11
220.0669370339
 21
365.0594141453
  0
LINE
  5
35F
100
AcDbEntity
  8
0
100
AcDbLine
 62
7
  6
CONTINUOUS
 10
219.5631331179
 20
369.9361220554
 11
219.9777711947
 21
369.9679847511
  0
LINE
  5
360
100
AcDbEntity
  8
0
100
AcDbLine
 62
7
  6
CONTINUOUS
 10
227.759350511
 20
362.5514289447
 11
227.4321071168
 21
362.5370822699
  0
LINE
  5
361
100
AcDbEntity
  8
0
100
AcDbLine
 62
7
  6
CONTINUOUS
 10
175.3132994289
 20
363.6972704193
 11
175.6408326545
 21
363.7011820629
  0
LINE
  5
362
100
AcDbEntity
  8
0
100
AcDbLine
 62
7
  6
CONTINUOUS
 10
180.1382788637
 20
368.0374843513
 11
179.5609453917
 21
368.0387050701
  0
LINE
  5
363
100
AcDbEntity
  8
0
100
AcDbLine
 62
7
  6
CONTINUOUS
 10
219.1382808582
 20
365.0527304304
 11
219.6522989367
 21
365.0275514141
  0
LINE
  5
364
100
AcDbEntity
  8
0
100
AcDbLine
 62
7
  6
CONTINUOUS
 10
219.6865579654
 20
365.547597695
 11
219.4295489338
 21
365.5601872165
  0
LINE
  5
365
100
AcDbEntity
  8
0
100
AcDbLine
 62
7
  6
CONTINUOUS
 10
225.3572251527
 20
360.1515206545
 11
225.9317654789
 21
360.0947591512
  0
LINE
  5
366
100
AcDbEntity
  8
0
100
AcDbLine
 62
7
  6
CONTINUOUS
 10
179.8246399401
 20
367.5039679169
 11
180.1487870698
 21
367.4568319125
  0
LINE
  5
367
100
AcDbEntity
  8
0
100
AcDbLine
 62
7
  6
CONTINUOUS
 10
205.7974501726
 20
370.0305750795
 11
207.1774501726
 21
369.7956788126
  0
LINE
  5
368
100
AcDbEntity
  8
0
100
AcDbLine
 62
7
  6
CONTINUOUS
 10
218.682520947
 20
365.1793981982
 11
219.1382808582
 21
365.0527304304
  0
LINE
  5
369
100
AcDbEntity
  8
0
100
AcDbLine
 62
7
  6
CONTINUOUS
 10
227.3633449107
 20
361.9604199457
 11
227.6106418217
 21
361.8893117451
  0
LINE
  5
36A
100
AcDbEntity
  8
0
100
AcDbLine
 62
7
  6
CONTINUOUS
 10
219.4295489338
 20
365.5601872165
 11
218.8744135905
 21
365.7438941208
  0
LINE
  5
36B
100
AcDbEntity
  8
0
100
AcDbLine
 62
7
  6
CONTINUOUS
 10
215.0101363613
 20
367.0524848657
 11
215.6406881751
 21
366.7785128598
  0
LINE
  5
36C
100
AcDbEntity
  8
0
100
AcDbLine
 62
7
  6
CONTINUOUS
 10
225.7532308021
 20
360.7425297059
 11
225.4222605923
 21
360.8919176528
  0
LINE
  5
36D
100
AcDbEntity
  8
0
100
AcDbLine
 62
7
  6
CONTINUOUS
 10
227.4321071168
 20
362.5370822699
 11
227.1011369071
 21
362.6864702168
  0
LINE
  5
36E
100
AcDbEntity
  8
0
100
AcDbLine
 62
7
  6
CONTINUOUS
 10
213.8274501726
 20
372.4231179619
 11
212.9774501726
 21
372.8857834881
  0
LINE
  5
36F
100
AcDbEntity
  8
0
100
AcDbLine
 62
7
  6
CONTINUOUS
 10
218.8744135905
 20
365.7438941208
 11
218.2781518688
 21
366.0861341085
  0
LINE
  5
370
100
AcDbEntity
  8
0
100
AcDbLine
 62
7
  6
CONTINUOUS
 10
217.6339009885
 20
367.2654839686
 11
217.1370169786
 21
367.5506835232
  0
LINE
  5
371
100
AcDbEntity
  8
0
100
AcDbLine
 62
7
  6
CONTINUOUS
 10
219.3678387642
 20
367.7544480556
 11
219.7653450623
 21
367.5262889341
  0
LINE
  5
372
100
AcDbEntity
  8
0
100
AcDbLine
 62
7
  6
CONTINUOUS
 10
219.9983594943
 20
367.9322543133
 11
219.6008531962
 21
368.1604134348
  0
LINE
  5
373
100
AcDbEntity
  8
0
100
AcDbLine
 62
7
  6
CONTINUOUS
 10
218.692735135
 20
370.0309271363
 11
219.1896214194
 21
369.7457262762
  0
LINE
  5
374
100
AcDbEntity
  8
0
100
AcDbLine
 62
7
  6
CONTINUOUS
 10
220.5329110872
 20
369.7842752357
 11
220.9304173853
 21
369.5561161143
  0
LINE
  5
375
100
AcDbEntity
  8
0
100
AcDbLine
 62
7
  6
CONTINUOUS
 10
221.122309988
 20
370.1206119658
 11
220.9235545644
 21
370.2346928321
  0
LINE
  5
376
100
AcDbEntity
  8
0
100
AcDbLine
 62
7
  6
CONTINUOUS
 10
194.6903674664
 20
374.6784961512
 11
194.0236929223
 21
374.5105637176
  0
LINE
  5
377
100
AcDbEntity
  8
0
100
AcDbLine
 62
7
  6
CONTINUOUS
 10
190.9125454737
 20
373.7268791343
 11
190.2458709296
 21
373.5589467007
  0
LINE
  5
378
100
AcDbEntity
  8
0
100
AcDbLine
 62
7
  6
CONTINUOUS
 10
196.8741656962
 20
374.9605421179
 11
196.193302112
 21
374.865247681
  0
LINE
  5
379
100
AcDbEntity
  8
0
100
AcDbLine
 62
7
  6
CONTINUOUS
 10
198.5434247327
 20
369.6848030051
 11
199.2304651864
 21
369.7099359512
  0
LINE
  5
37A
100
AcDbEntity
  8
0
100
AcDbLine
 62
7
  6
CONTINUOUS
 10
199.1406282715
 20
372.165740161
 11
201.2017496326
 21
372.2411389992
  0
LINE
  5
37B
100
AcDbEntity
  8
0
100
AcDbLine
 62
7
  6
CONTINUOUS
 10
201.290589562
 20
372.9469861075
 11
199.114960585
 21
372.867398413
  0
LINE
  5
37C
100
AcDbEntity
  8
0
100
AcDbLine
 62
7
  6
CONTINUOUS
 10
199.0507913566
 20
374.6215443708
 11
201.2264203337
 21
374.7011320652
  0
LINE
  5
37D
100
AcDbEntity
  8
0
100
AcDbLine
 62
7
  6
CONTINUOUS
 10
201.090522979
 20
375.281658419
 11
198.3423611642
 21
375.1811266347
  0
LINE
  5
37E
100
AcDbEntity
  8
0
100
AcDbLine
 62
7
  6
CONTINUOUS
 10
220.1696637974
 20
370.5324806026
 11
219.6556502834
 21
370.5576570345
  0
LINE
  5
37F
100
AcDbEntity
  8
0
100
AcDbLine
 62
7
  6
CONTINUOUS
 10
201.6673337645
 20
375.1856594667
 11
201.090522979
 21
375.281658419
  0
LINE
  5
380
100
AcDbEntity
  8
0
100
AcDbLine
 62
7
  6
CONTINUOUS
 10
220.711128432
 20
367.7929970151
 11
219.9983594943
 21
367.9322543133
  0
LINE
  5
381
100
AcDbEntity
  8
0
100
AcDbLine
 62
7
  6
CONTINUOUS
 10
201.2264203337
 20
374.7011320652
 11
201.5742185083
 21
374.5967554963
  0
LINE
  5
382
100
AcDbEntity
  8
0
100
AcDbLine
 62
7
  6
CONTINUOUS
 10
219.9777711947
 20
369.9679847511
 11
220.5329110872
 21
369.7842752357
  0
LINE
  5
383
100
AcDbEntity
  8
0
100
AcDbLine
 62
7
  6
CONTINUOUS
 10
220.9235545644
 20
370.2346928321
 11
220.1696637974
 21
370.5324806026
  0
LINE
  5
384
100
AcDbEntity
  8
0
100
AcDbLine
 62
7
  6
CONTINUOUS
 10
217.8324642224
 20
371.8229273708
 11
217.2019124085
 21
372.0968993767
  0
LINE
  5
385
100
AcDbEntity
  8
0
100
AcDbLine
 62
7
  6
CONTINUOUS
 10
239.5421893948
 20
152.8043411252
 11
243.1174501726
 21
155.8043411252
  0
LINE
  5
386
100
AcDbEntity
  8
0
100
AcDbLine
 62
7
  6
CONTINUOUS
 10
329.0941560842
 20
152.8043411252
 11
404.4436345286
 21
152.8043411252
  0
LINE
  5
387
100
AcDbEntity
  8
0
100
AcDbLine
 62
7
  6
CONTINUOUS
 10
408.0188953064
 20
155.8043411252
 11
325.5188953064
 21
155.8043411252
  0
LINE
  5
388
100
AcDbEntity
  8
0
100
AcDbLine
 62
7
  6
CONTINUOUS
 10
329.0941560842
 20
152.8043411252
 11
325.5188953064
 21
155.8043411252
  0
LINE
  5
389
100
AcDbEntity
  8
RUNDUNGEN
100
AcDbLine
 62
7
  6
CONTINUOUS
 10
396.9485656161
 20
198.1793411252
 11
336.5892249967
 21
198.1793411252
  0
LINE
  5
38A
100
AcDbEntity
  8
0
100
AcDbLine
 62
7
  6
CONTINUOUS
 10
346.4757134976
 20
216.8493411252
 11
345.8267782483
 21
217.2837654102
  0
LINE
  5
38B
100
AcDbEntity
  8
0
100
AcDbLine
 62
7
  6
CONTINUOUS
 10
345.3710543691
 20
216.7493411252
 11
346.0801809622
 21
216.2585016779
  0
LINE
  5
38C
100
AcDbEntity
  8
0
100
AcDbLine
 62
7
  6
CONTINUOUS
 10
340.6988953064
 20
225.9493411252
 11
341.5925122211
 21
225.1993411252
  0
LINE
  5
38D
100
AcDbEntity
  8
0
100
AcDbLine
 62
7
  6
CONTINUOUS
 10
342.6137890528
 20
225.1993411252
 11
341.7201717804
 21
225.9493411252
  0
LINE
  5
38E
100
AcDbEntity
  8
0
100
AcDbLine
 62
7
  6
CONTINUOUS
 10
340.1836990624
 20
221.4691397473
 11
340.9076499043
 21
220.8172914814
  0
LINE
  5
38F
100
AcDbEntity
  8
0
100
AcDbLine
 62
7
  6
CONTINUOUS
 10
341.3962008718
 20
221.3193411252
 11
340.6520904869
 21
221.9893411252
  0
LINE
  5
390
100
AcDbEntity
  8
0
100
AcDbLine
 62
7
  6
CONTINUOUS
 10
325.5188953064
 20
214.3754935479
 11
325.5188953064
 21
155.8043411252
  0
LINE
  5
391
100
AcDbEntity
  8
0
100
AcDbLine
 62
7
  6
CONTINUOUS
 10
395.5475135111
 20
222.2993411252
 11
394.3388450548
 21
222.2993411252
  0
LINE
  5
392
100
AcDbEntity
  8
0
100
AcDbLine
 62
7
  6
CONTINUOUS
 10
388.7962824706
 20
222.2993411252
 11
387.5876140143
 21
222.2993411252
  0
LINE
  5
393
100
AcDbEntity
  8
0
100
AcDbLine
 62
7
  6
CONTINUOUS
 10
341.5925122211
 20
225.1993411252
 11
342.6137890528
 21
225.1993411252
  0
LINE
  5
394
100
AcDbEntity
  8
0
100
AcDbLine
 62
7
  6
CONTINUOUS
 10
341.7201717804
 20
225.9493411252
 11
346.6988953064
 21
225.9493411252
  0
LINE
  5
395
100
AcDbEntity
  8
0
100
AcDbLine
 62
7
  6
CONTINUOUS
 10
346.6988953064
 20
226.6993411252
 11
340.6988953064
 21
226.6993411252
  0
LINE
  5
396
100
AcDbEntity
  8
0
100
AcDbLine
 62
7
  6
CONTINUOUS
 10
341.5925122211
 20
227.9493411848
 11
342.1031504581
 21
227.8243411252
  0
LINE
  5
397
100
AcDbEntity
  8
0
100
AcDbLine
 62
7
  6
CONTINUOUS
 10
342.8691081713
 20
231.9493411252
 11
342.3584699343
 21
232.0743413636
  0
LINE
  5
398
100
AcDbEntity
  8
0
100
AcDbLine
 62
7
  6
CONTINUOUS
 10
345.677618743
 20
232.0743413636
 11
345.2946399758
 21
232.1993408868
  0
LINE
  5
399
100
AcDbEntity
  8
0
100
AcDbLine
 62
7
  6
CONTINUOUS
 10
342.3584699343
 20
231.4493408868
 11
342.8691081713
 21
231.1993411252
  0
LINE
  5
39A
100
AcDbEntity
  8
0
100
AcDbLine
 62
7
  6
CONTINUOUS
 10
345.2946399758
 20
231.5743411252
 11
345.5499590943
 21
231.4493408868
  0
LINE
  5
39B
100
AcDbEntity
  8
0
100
AcDbLine
 62
7
  6
CONTINUOUS
 10
342.1031504581
 20
228.4493412444
 11
341.7201717804
 21
228.699341006
  0
LINE
  5
39C
100
AcDbEntity
  8
0
100
AcDbLine
 62
7
  6
CONTINUOUS
 10
343.252086849
 20
231.6993413636
 11
342.8691081713
 21
231.9493411252
  0
LINE
  5
39D
100
AcDbEntity
  8
0
100
AcDbLine
 62
7
  6
CONTINUOUS
 10
346.0605974207
 20
231.8243408868
 11
345.677618743
 21
232.0743413636
  0
LINE
  5
39E
100
AcDbEntity
  8
0
100
AcDbLine
 62
7
  6
CONTINUOUS
 10
341.0818739841
 20
228.4493412444
 11
341.5925122211
 21
227.9493411848
  0
LINE
  5
39F
100
AcDbEntity
  8
0
100
AcDbLine
 62
7
  6
CONTINUOUS
 10
342.8691081713
 20
231.1993411252
 11
343.1244272898
 21
230.949341006
  0
LINE
  5
3A0
100
AcDbEntity
  8
0
100
AcDbLine
 62
7
  6
CONTINUOUS
 10
345.5499590943
 20
231.4493408868
 11
345.8052783022
 21
231.1993411252
  0
LINE
  5
3A1
100
AcDbEntity
  8
0
100
AcDbLine
 62
7
  6
CONTINUOUS
 10
343.6350655268
 20
231.1993411252
 11
343.252086849
 21
231.6993413636
  0
LINE
  5
3A2
100
AcDbEntity
  8
0
100
AcDbLine
 62
7
  6
CONTINUOUS
 10
341.7201717804
 20
228.699341006
 11
341.4648526619
 21
229.074341006
  0
LINE
  5
3A3
100
AcDbEntity
  8
0
100
AcDbLine
 62
7
  6
CONTINUOUS
 10
340.8265548656
 20
228.9493411252
 11
341.0818739841
 21
228.4493412444
  0
LINE
  5
3A4
100
AcDbEntity
  8
RUNDUNGEN
100
AcDbLine
 62
7
  6
CONTINUOUS
 10
334.5188953064
 20
231.7056205668
 11
334.5188953064
 21
248.1758876905
  0
LINE
  5
3A5
100
AcDbEntity
  8
0
100
AcDbLine
 62
7
  6
CONTINUOUS
 10
392.1675637627
 20
228.2993411252
 11
390.9588953064
 21
228.2993411252
  0
LINE
  5
3A6
100
AcDbEntity
  8
0
100
AcDbLine
 62
7
  6
CONTINUOUS
 10
395.5475135111
 20
229.0993411252
 11
394.3388450548
 21
229.0993411252
  0
LINE
  5
3A7
100
AcDbEntity
  8
0
100
AcDbLine
 62
7
  6
CONTINUOUS
 10
388.7962824706
 20
229.0993411252
 11
387.5876140143
 21
229.0993411252
  0
LINE
  5
3A8
100
AcDbEntity
  8
0
100
AcDbLine
 62
7
  6
CONTINUOUS
 10
343.3797464083
 20
229.6993411252
 11
343.8903846453
 21
229.6993411252
  0
LINE
  5
3A9
100
AcDbEntity
  8
0
100
AcDbLine
 62
7
  6
CONTINUOUS
 10
342.1031504581
 20
231.4493408868
 11
342.3584699343
 21
231.4493408868
  0
LINE
  5
3AA
100
AcDbEntity
  8
0
100
AcDbLine
 62
7
  6
CONTINUOUS
 10
344.7840017388
 20
231.5743411252
 11
345.2946399758
 21
231.5743411252
  0
LINE
  5
3AB
100
AcDbEntity
  8
0
100
AcDbLine
 62
7
  6
CONTINUOUS
 10
342.3584699343
 20
232.0743413636
 11
342.1031504581
 21
232.0743413636
  0
LINE
  5
3AC
100
AcDbEntity
  8
0
100
AcDbLine
 62
7
  6
CONTINUOUS
 10
345.2946399758
 20
232.1993408868
 11
344.7840017388
 21
232.1993408868
  0
LINE
  5
3AD
100
AcDbEntity
  8
0
100
AcDbLine
 62
7
  6
CONTINUOUS
 10
346.3159165839
 20
231.4493408868
 11
346.0605974207
 21
231.8243408868
  0
LINE
  5
3AE
100
AcDbEntity
  8
0
100
AcDbLine
 62
7
  6
CONTINUOUS
 10
345.8052783022
 20
231.1993411252
 11
345.9329378615
 21
230.949341006
  0
LINE
  5
3AF
100
AcDbEntity
  8
0
100
AcDbLine
 62
7
  6
CONTINUOUS
 10
346.571235736
 20
230.949341006
 11
346.3159165839
 21
231.4493408868
  0
LINE
  5
3B0
100
AcDbEntity
  8
0
100
AcDbLine
 62
7
  6
CONTINUOUS
 10
343.1244272898
 20
230.949341006
 11
343.3797464083
 21
230.199341006
  0
LINE
  5
3B1
100
AcDbEntity
  8
0
100
AcDbLine
 62
7
  6
CONTINUOUS
 10
341.4648526619
 20
229.074341006
 11
341.3371931026
 21
229.6993411252
  0
LINE
  5
3B2
100
AcDbEntity
  8
0
100
AcDbLine
 62
7
  6
CONTINUOUS
 10
340.6988953064
 20
230.0743411252
 11
340.6988953064
 21
229.824341006
  0
LINE
  5
3B3
100
AcDbEntity
  8
0
100
AcDbLine
 62
7
  6
CONTINUOUS
 10
340.6988953064
 20
226.6993411252
 11
340.6988953064
 21
225.9493411252
  0
LINE
  5
3B4
100
AcDbEntity
  8
0
100
AcDbLine
 62
7
  6
CONTINUOUS
 10
341.3371931026
 20
229.6993411252
 11
341.3371931026
 21
230.199341006
  0
LINE
  5
3B5
100
AcDbEntity
  8
0
100
AcDbLine
 62
7
  6
CONTINUOUS
 10
342.1031504581
 20
227.8243411252
 11
342.1031504581
 21
228.4493412444
  0
LINE
  5
3B6
100
AcDbEntity
  8
0
100
AcDbLine
 62
7
  6
CONTINUOUS
 10
343.3797464083
 20
230.199341006
 11
343.3797464083
 21
229.6993411252
  0
LINE
  5
3B7
100
AcDbEntity
  8
0
100
AcDbLine
 62
7
  6
CONTINUOUS
 10
344.7840017388
 20
232.1993408868
 11
344.273363323
 21
232.0743413636
  0
LINE
  5
3B8
100
AcDbEntity
  8
0
100
AcDbLine
 62
7
  6
CONTINUOUS
 10
342.1031504581
 20
232.0743413636
 11
341.5925122211
 21
231.9493411252
  0
LINE
  5
3B9
100
AcDbEntity
  8
0
100
AcDbLine
 62
7
  6
CONTINUOUS
 10
346.6988953064
 20
230.4493411252
 11
346.571235736
 21
230.949341006
  0
LINE
  5
3BA
100
AcDbEntity
  8
0
100
AcDbLine
 62
7
  6
CONTINUOUS
 10
345.9329378615
 20
230.949341006
 11
346.0605974207
 21
230.3243412444
  0
LINE
  5
3BB
100
AcDbEntity
  8
0
100
AcDbLine
 62
7
  6
CONTINUOUS
 10
340.6988953064
 20
229.824341006
 11
340.8265548656
 21
228.9493411252
  0
LINE
  5
3BC
100
AcDbEntity
  8
0
100
AcDbLine
 62
7
  6
CONTINUOUS
 10
343.8903846453
 20
229.6993411252
 11
343.8903846453
 21
230.199341006
  0
LINE
  5
3BD
100
AcDbEntity
  8
0
100
AcDbLine
 62
7
  6
CONTINUOUS
 10
345.2946399758
 20
228.324341006
 11
345.2946399758
 21
227.6993410656
  0
LINE
  5
3BE
100
AcDbEntity
  8
0
100
AcDbLine
 62
7
  6
CONTINUOUS
 10
346.0605974207
 20
230.3243412444
 11
346.0605974207
 21
229.5743412444
  0
LINE
  5
3BF
100
AcDbEntity
  8
0
100
AcDbLine
 62
7
  6
CONTINUOUS
 10
346.6988953064
 20
225.9493411252
 11
346.6988953064
 21
226.6993411252
  0
LINE
  5
3C0
100
AcDbEntity
  8
0
100
AcDbLine
 62
7
  6
CONTINUOUS
 10
346.6988953064
 20
229.449341006
 11
346.6988953064
 21
230.4493411252
  0
LINE
  5
3C1
100
AcDbEntity
  8
0
100
AcDbLine
 62
7
  6
CONTINUOUS
 10
340.8265548656
 20
230.949341006
 11
340.6988953064
 21
230.0743411252
  0
LINE
  5
3C2
100
AcDbEntity
  8
0
100
AcDbLine
 62
7
  6
CONTINUOUS
 10
343.8903846453
 20
230.199341006
 11
344.0180442045
 21
230.949341006
  0
LINE
  5
3C3
100
AcDbEntity
  8
0
100
AcDbLine
 62
7
  6
CONTINUOUS
 10
341.3371931026
 20
230.199341006
 11
341.4648526619
 21
230.8243411252
  0
LINE
  5
3C4
100
AcDbEntity
  8
KONSTRUKTIONSELEMENTE
100
AcDbLine
 62
7
  6
CONTINUOUS
 10
356.2688953064
 20
372.3043411252
 11
356.2688953064
 21
331.7174237487
  0
LINE
  5
3C5
100
AcDbEntity
  8
KONSTRUKTIONSELEMENTE
100
AcDbLine
 62
7
  6
CONTINUOUS
 10
356.2688953064
 20
261.891246223
 11
356.2688953064
 21
221.3043411252
  0
LINE
  5
3C6
100
AcDbEntity
  8
0
100
AcDbLine
 62
7
  6
CONTINUOUS
 10
346.0605974207
 20
229.5743412444
 11
345.9329378615
 21
228.9493411252
  0
LINE
  5
3C7
100
AcDbEntity
  8
0
100
AcDbLine
 62
7
  6
CONTINUOUS
 10
346.571235736
 20
228.9493411252
 11
346.6988953064
 21
229.449341006
  0
LINE
  5
3C8
100
AcDbEntity
  8
KONSTRUKTIONSELEMENTE
100
AcDbLine
 62
7
  6
CONTINUOUS
 10
356.2688168894
 20
261.8758452386
 11
360.2688953064
 21
276.8043411252
  0
LINE
  5
3C9
100
AcDbEntity
  8
0
100
AcDbLine
 62
7
  6
CONTINUOUS
 10
343.8903846453
 20
231.8243408868
 11
343.6350655268
 21
231.1993411252
  0
LINE
  5
3CA
100
AcDbEntity
  8
RUNDUNGEN
100
AcDbLine
 62
7
  6
CONTINUOUS
 10
325.920819095
 20
215.8754935479
 11
334.0499842196
 21
229.9556205668
  0
LINE
  5
3CB
100
AcDbEntity
  8
RUNDUNGEN
100
AcDbLine
 62
7
  6
CONTINUOUS
 10
341.0973583904
 20
257.1077054074
 11
335.220761977
 21
250.1042505196
  0
LINE
  5
3CC
100
AcDbEntity
  8
0
100
AcDbLine
 62
7
  6
CONTINUOUS
 10
343.3935459003
 20
258.1793411252
 11
351.1244074592
 21
258.1793411252
  0
LINE
  5
3CD
100
AcDbEntity
  8
0
100
AcDbLine
 62
7
  6
CONTINUOUS
 10
382.2366036047
 20
258.1793411252
 11
390.1434580484
 21
258.1793411252
  0
LINE
  5
3CE
100
AcDbEntity
  8
KONSTRUKTIONSELEMENTE
100
AcDbLine
 62
7
  6
CONTINUOUS
 10
360.2688953064
 20
316.8043411252
 11
360.2688953064
 21
276.8043411252
  0
LINE
  5
3CF
100
AcDbEntity
  8
KONSTRUKTIONSELEMENTE
100
AcDbLine
 62
7
  6
CONTINUOUS
 10
377.2689741034
 20
331.7328384298
 11
373.2688953064
 21
316.8043411252
  0
LINE
  5
3D0
100
AcDbEntity
  8
0
100
AcDbLine
 62
7
  6
CONTINUOUS
 10
341.0818739841
 20
231.4493408868
 11
340.8265548656
 21
230.949341006
  0
LINE
  5
3D1
100
AcDbEntity
  8
0
100
AcDbLine
 62
7
  6
CONTINUOUS
 10
345.9329378615
 20
228.9493411252
 11
345.8052783022
 21
228.699341006
  0
LINE
  5
3D2
100
AcDbEntity
  8
0
100
AcDbLine
 62
7
  6
CONTINUOUS
 10
346.3159165839
 20
228.4493412444
 11
346.571235736
 21
228.9493411252
  0
LINE
  5
3D3
100
AcDbEntity
  8
0
100
AcDbLine
 62
7
  6
CONTINUOUS
 10
341.4648526619
 20
230.8243411252
 11
341.7201717804
 21
231.1993411252
  0
LINE
  5
3D4
100
AcDbEntity
  8
KONSTRUKTIONSELEMENTE
100
AcDbLine
 62
7
  6
CONTINUOUS
 10
373.2688953064
 20
316.8043411252
 11
373.2688953064
 21
276.8043411252
  0
LINE
  5
3D5
100
AcDbEntity
  8
0
100
AcDbLine
 62
7
  6
CONTINUOUS
 10
373.7688953064
 20
313.8043411252
 11
373.7688953064
 21
304.8043411252
  0
LINE
  5
3D6
100
AcDbEntity
  8
0
100
AcDbLine
 62
7
  6
CONTINUOUS
 10
373.7688953064
 20
301.8043411252
 11
373.7688953064
 21
292.8043411252
  0
LINE
  5
3D7
100
AcDbEntity
  8
0
100
AcDbLine
 62
7
  6
CONTINUOUS
 10
373.7688953064
 20
289.8043411252
 11
373.7688953064
 21
280.8043411252
  0
LINE
  5
3D8
100
AcDbEntity
  8
0
100
AcDbLine
 62
7
  6
CONTINUOUS
 10
344.0180442045
 20
230.949341006
 11
344.273363323
 21
231.3243413636
  0
LINE
  5
3D9
100
AcDbEntity
  8
0
100
AcDbLine
 62
7
  6
CONTINUOUS
 10
346.0605974207
 20
228.0743410656
 11
346.3159165839
 21
228.4493412444
  0
LINE
  5
3DA
100
AcDbEntity
  8
0
100
AcDbLine
 62
7
  6
CONTINUOUS
 10
341.5925122211
 20
231.9493411252
 11
341.0818739841
 21
231.4493408868
  0
LINE
  5
3DB
100
AcDbEntity
  8
KONSTRUKTIONSELEMENTE
100
AcDbLine
 62
7
  6
CONTINUOUS
 10
360.2688953064
 20
316.8043411252
 11
356.2688157777
 21
331.7328411604
  0
LINE
  5
3DC
100
AcDbEntity
  8
KONSTRUKTIONSELEMENTE
100
AcDbLine
 62
7
  6
CONTINUOUS
 10
373.2688953064
 20
276.8043411252
 11
377.268974834
 21
261.875841094
  0
LINE
  5
3DD
100
AcDbEntity
  8
0
100
AcDbLine
 62
7
  6
CONTINUOUS
 10
377.2686854258
 20
369.6911329644
 11
377.2688951321
 21
369.6290806882
  0
LINE
  5
3DE
100
AcDbEntity
  8
KONSTRUKTIONSELEMENTE
100
AcDbLine
 62
7
  6
CONTINUOUS
 10
377.2688953064
 20
370.8912884373
 11
377.2688953064
 21
370.2633872415
  0
LINE
  5
3DF
100
AcDbEntity
  8
KONSTRUKTIONSELEMENTE
100
AcDbLine
 62
7
  6
CONTINUOUS
 10
377.2688953064
 20
369.6290872235
 11
377.2688953064
 21
368.0387050701
  0
LINE
  5
3E0
100
AcDbEntity
  8
KONSTRUKTIONSELEMENTE
100
AcDbLine
 62
7
  6
CONTINUOUS
 10
377.2688953064
 20
359.7602082655
 11
377.2688953064
 21
331.7174300019
  0
LINE
  5
3E1
100
AcDbEntity
  8
KONSTRUKTIONSELEMENTE
100
AcDbLine
 62
7
  6
CONTINUOUS
 10
377.2688953064
 20
261.8912589888
 11
377.2688953064
 21
221.3043411252
  0
LINE
  5
3E2
100
AcDbEntity
  8
0
100
AcDbLine
 62
7
  6
CONTINUOUS
 10
377.7688953064
 20
375.281658419
 11
377.7688953064
 21
358.0627080541
  0
LINE
  5
3E3
100
AcDbEntity
  8
0
100
AcDbLine
 62
7
  6
CONTINUOUS
 10
346.0801809622
 20
216.2585016779
 11
346.4757134976
 21
216.8493411252
  0
LINE
  5
3E4
100
AcDbEntity
  8
0
100
AcDbLine
 62
7
  6
CONTINUOUS
 10
340.6520904869
 20
221.9893411252
 11
340.1836990624
 21
221.4691397473
  0
LINE
  5
3E5
100
AcDbEntity
  8
0
100
AcDbLine
 62
7
  6
CONTINUOUS
 10
345.8052783022
 20
228.699341006
 11
345.5499590943
 21
228.4493412444
  0
LINE
  5
3E6
100
AcDbEntity
  8
0
100
AcDbLine
 62
7
  6
CONTINUOUS
 10
341.7201717804
 20
231.1993411252
 11
342.1031504581
 21
231.4493408868
  0
LINE
  5
3E7
100
AcDbEntity
  8
0
100
AcDbLine
 62
7
  6
CONTINUOUS
 10
373.2688953064
 20
280.8043411252
 11
373.7688953064
 21
280.8043411252
  0
LINE
  5
3E8
100
AcDbEntity
  8
RUNDUNGEN
100
AcDbLine
 62
7
  6
CONTINUOUS
 10
398.3170286358
 20
250.1042505196
 11
392.4404326701
 21
257.1077048738
  0
LINE
  5
3E9
100
AcDbEntity
  8
RUNDUNGEN
100
AcDbLine
 62
7
  6
CONTINUOUS
 10
399.4878063931
 20
229.9556205668
 11
407.6169715177
 21
215.8754935479
  0
LINE
  5
3EA
100
AcDbEntity
  8
0
100
AcDbLine
 62
7
  6
CONTINUOUS
 10
390.9588953064
 20
228.2993411252
 11
390.9588953064
 21
225.9662983684
  0
LINE
  5
3EB
100
AcDbEntity
  8
0
100
AcDbLine
 62
7
  6
CONTINUOUS
 10
392.1675637627
 20
225.9643822589
 11
392.1675637627
 21
228.2993411252
  0
LINE
  5
3EC
100
AcDbEntity
  8
0
100
AcDbLine
 62
7
  6
CONTINUOUS
 10
344.273363323
 20
232.0743413636
 11
343.8903846453
 21
231.8243408868
  0
LINE
  5
3ED
100
AcDbEntity
  8
0
100
AcDbLine
 62
7
  6
CONTINUOUS
 10
345.677618743
 20
227.8243411252
 11
346.0605974207
 21
228.0743410656
  0
LINE
  5
3EE
100
AcDbEntity
  8
0
100
AcDbLine
 62
7
  6
CONTINUOUS
 10
344.273363323
 20
231.3243413636
 11
344.7840017388
 21
231.5743411252
  0
LINE
  5
3EF
100
AcDbEntity
  8
0
100
AcDbLine
 62
7
  6
CONTINUOUS
 10
373.2688953064
 20
289.8043411252
 11
373.7688953064
 21
289.8043411252
  0
LINE
  5
3F0
100
AcDbEntity
  8
0
100
AcDbLine
 62
7
  6
CONTINUOUS
 10
373.2688953064
 20
292.8043411252
 11
373.7688953064
 21
292.8043411252
  0
LINE
  5
3F1
100
AcDbEntity
  8
0
100
AcDbLine
 62
7
  6
CONTINUOUS
 10
373.2688953064
 20
292.9958304808
 11
373.7688953064
 21
292.9958304808
  0
LINE
  5
3F2
100
AcDbEntity
  8
0
100
AcDbLine
 62
7
  6
CONTINUOUS
 10
395.5670506538
 20
221.8516765271
 11
395.5475135111
 21
222.2993411252
  0
LINE
  5
3F3
100
AcDbEntity
  8
0
100
AcDbLine
 62
7
  6
CONTINUOUS
 10
395.5670506538
 20
228.6516765271
 11
395.5475135111
 21
229.0993411252
  0
LINE
  5
3F4
100
AcDbEntity
  8
RUNDUNGEN
100
AcDbLine
 62
7
  6
CONTINUOUS
 10
399.0188953064
 20
248.1758876905
 11
399.0188953064
 21
231.7056205668
  0
LINE
  5
3F5
100
AcDbEntity
  8
0
100
AcDbLine
 62
7
  6
CONTINUOUS
 10
345.5499590943
 20
228.4493412444
 11
345.2946399758
 21
228.324341006
  0
LINE
  5
3F6
100
AcDbEntity
  8
0
100
AcDbLine
 62
7
  6
CONTINUOUS
 10
345.2946399758
 20
227.6993410656
 11
345.677618743
 21
227.8243411252
  0
LINE
  5
3F7
100
AcDbEntity
  8
0
100
AcDbLine
 62
7
  6
CONTINUOUS
 10
373.2688953064
 20
293.3788092089
 11
373.7688953064
 21
293.3788092089
  0
LINE
  5
3F8
100
AcDbEntity
  8
0
100
AcDbLine
 62
7
  6
CONTINUOUS
 10
373.2688953064
 20
294.1447666314
 11
373.7688953064
 21
294.1447666314
  0
LINE
  5
3F9
100
AcDbEntity
  8
0
100
AcDbLine
 62
7
  6
CONTINUOUS
 10
373.2688953064
 20
294.910724121
 11
373.7688953064
 21
294.910724121
  0
LINE
  5
3FA
100
AcDbEntity
  8
0
100
AcDbLine
 62
7
  6
CONTINUOUS
 10
373.2688953064
 20
295.8681708154
 11
373.7688953064
 21
295.8681708154
  0
LINE
  5
3FB
100
AcDbEntity
  8
0
100
AcDbLine
 62
7
  6
CONTINUOUS
 10
408.0188953064
 20
214.3754935479
 11
408.0188953064
 21
155.8043411252
  0
LINE
  5
3FC
100
AcDbEntity
  8
0
100
AcDbLine
 62
7
  6
CONTINUOUS
 10
373.2688953064
 20
301.8043411252
 11
373.7688953064
 21
301.8043411252
  0
LINE
  5
3FD
100
AcDbEntity
  8
0
100
AcDbLine
 62
7
  6
CONTINUOUS
 10
373.2688953064
 20
304.8043411252
 11
373.7688953064
 21
304.8043411252
  0
LINE
  5
3FE
100
AcDbEntity
  8
0
100
AcDbLine
 62
7
  6
CONTINUOUS
 10
373.2688953064
 20
313.8043411252
 11
373.7688953064
 21
313.8043411252
  0
LINE
  5
3FF
100
AcDbEntity
  8
0
100
AcDbLine
 62
7
  6
CONTINUOUS
 10
377.2688953064
 20
358.0627080541
 11
377.7688953064
 21
358.0627080541
  0
LINE
  5
400
100
AcDbEntity
  8
0
100
AcDbLine
 62
7
  6
CONTINUOUS
 10
376.8196897542
 20
361.8634418989
 11
377.7688953064
 21
361.8634418989
  0
LINE
  5
401
100
AcDbEntity
  8
0
100
AcDbLine
 62
7
  6
CONTINUOUS
 10
376.8356136415
 20
363.8511807048
 11
377.7688953064
 21
363.8511807048
  0
LINE
  5
402
100
AcDbEntity
  8
0
100
AcDbLine
 62
7
  6
CONTINUOUS
 10
376.8656768612
 20
364.184426367
 11
377.7688953064
 21
364.184426367
  0
LINE
  5
403
100
AcDbEntity
  8
0
100
AcDbLine
 62
7
  6
CONTINUOUS
 10
376.9549954754
 20
364.2731160853
 11
377.7688953064
 21
364.2731160853
  0
LINE
  5
404
100
AcDbEntity
  8
0
100
AcDbLine
 62
7
  6
CONTINUOUS
 10
376.8196897515
 20
366.1167503582
 11
377.7688953064
 21
366.1167503582
  0
LINE
  5
405
100
AcDbEntity
  8
0
100
AcDbLine
 62
7
  6
CONTINUOUS
 10
376.8356136423
 20
367.7843413128
 11
377.7688953064
 21
367.7843413128
  0
LINE
  5
406
100
AcDbEntity
  8
0
100
AcDbLine
 62
7
  6
CONTINUOUS
 10
376.8656768656
 20
368.0387050701
 11
377.7688953064
 21
368.0387050701
  0
LINE
  5
407
100
AcDbEntity
  8
0
100
AcDbLine
 62
7
  6
CONTINUOUS
 10
377.2688953064
 20
368.6733703844
 11
377.7688953064
 21
368.6733703844
  0
LINE
  5
408
100
AcDbEntity
  8
0
100
AcDbLine
 62
7
  6
CONTINUOUS
 10
377.2688953064
 20
369.1445220529
 11
377.7688953064
 21
369.1445220529
  0
LINE
  5
409
100
AcDbEntity
  8
0
100
AcDbLine
 62
7
  6
CONTINUOUS
 10
377.2686854258
 20
369.6911329644
 11
377.7688953064
 21
369.6911329644
  0
LINE
  5
40A
100
AcDbEntity
  8
0
100
AcDbLine
 62
7
  6
CONTINUOUS
 10
377.2687179078
 20
370.2633872415
 11
377.7688953064
 21
370.2633872415
  0
LINE
  5
40B
100
AcDbEntity
  8
0
100
AcDbLine
 62
7
  6
CONTINUOUS
 10
376.8167111059
 20
373.5589467007
 11
377.7688953064
 21
373.5589467007
  0
LINE
  5
40C
100
AcDbEntity
  8
0
100
AcDbLine
 62
7
  6
CONTINUOUS
 10
376.8271894916
 20
373.7268791343
 11
377.7688953064
 21
373.7268791343
  0
LINE
  5
40D
100
AcDbEntity
  8
0
100
AcDbLine
 62
7
  6
CONTINUOUS
 10
376.8271894916
 20
374.5105637176
 11
377.7688953064
 21
374.5105637176
  0
LINE
  5
40E
100
AcDbEntity
  8
0
100
AcDbLine
 62
7
  6
CONTINUOUS
 10
376.8167111059
 20
374.6784961512
 11
377.7688953064
 21
374.6784961512
  0
LINE
  5
40F
100
AcDbEntity
  8
0
100
AcDbLine
 62
7
  6
CONTINUOUS
 10
408.0188953064
 20
155.8043411252
 11
404.4436345286
 21
152.8043411252
  0
LINE
  5
410
100
AcDbEntity
  8
0
100
AcDbLine
 62
7
  6
CONTINUOUS
 10
376.8366878582
 20
374.865247681
 11
377.7688953064
 21
374.865247681
  0
LINE
  5
411
100
AcDbEntity
  8
0
100
AcDbLine
 62
7
  6
CONTINUOUS
 10
376.8366878582
 20
374.9605421179
 11
377.7688953064
 21
374.9605421179
  0
LINE
  5
412
100
AcDbEntity
  8
0
100
AcDbLine
 62
7
  6
CONTINUOUS
 10
376.819689746
 20
375.1811266347
 11
377.7688953064
 21
375.1811266347
  0
LINE
  5
413
100
AcDbEntity
  8
0
100
AcDbLine
 62
7
  6
CONTINUOUS
 10
376.8356136439
 20
375.281658419
 11
377.7688953064
 21
375.281658419
  0
LINE
  5
414
100
AcDbEntity
  8
RUNDUNGEN
100
AcDbLine
 62
7
  6
CONTINUOUS
 10
186.3674501726
 20
12.9475935106
 11
217.3674501726
 21
12.9475935106
  0
LINE
  5
415
100
AcDbEntity
  8
0
100
AcDbLine
 62
7
  6
CONTINUOUS
 10
172.5886970419
 20
35.1467990628
 11
172.5886970419
 21
34.1975935106
  0
LINE
  5
416
100
AcDbEntity
  8
0
100
AcDbLine
 62
7
  6
CONTINUOUS
 10
174.4890639643
 20
35.1308751755
 11
174.4890639643
 21
34.1975935106
  0
LINE
  5
417
100
AcDbEntity
  8
0
100
AcDbLine
 62
7
  6
CONTINUOUS
 10
174.9695584353
 20
35.1008119558
 11
174.9695584353
 21
34.1975935106
  0
LINE
  5
418
100
AcDbEntity
  8
0
100
AcDbLine
 62
7
  6
CONTINUOUS
 10
175.54004004
 20
35.0114933416
 11
175.54004004
 21
34.1975935106
  0
LINE
  5
419
100
AcDbEntity
  8
0
100
AcDbLine
 62
7
  6
CONTINUOUS
 10
176.1159243851
 20
34.9091941119
 11
176.1159243851
 21
34.1975935106
  0
LINE
  5
41A
100
AcDbEntity
  8
0
100
AcDbLine
 62
7
  6
CONTINUOUS
 10
183.3674501726
 20
16.3989250543
 11
182.8674501726
 21
16.3989250543
  0
LINE
  5
41B
100
AcDbEntity
  8
0
100
AcDbLine
 62
7
  6
CONTINUOUS
 10
183.3674501726
 20
16.4189753058
 11
182.8674501726
 21
16.4189753058
  0
LINE
  5
41C
100
AcDbEntity
  8
0
100
AcDbLine
 62
7
  6
CONTINUOUS
 10
183.3674501726
 20
17.6276437622
 11
182.8674501726
 21
17.6276437622
  0
LINE
  5
41D
100
AcDbEntity
  8
0
100
AcDbLine
 62
7
  6
CONTINUOUS
 10
176.4488601246
 20
34.8449826994
 11
176.4488601246
 21
34.1975935106
  0
LINE
  5
41E
100
AcDbEntity
  8
0
100
AcDbLine
 62
7
  6
CONTINUOUS
 10
176.7871988413
 20
34.7766196095
 11
176.7871988413
 21
34.1975935106
  0
LINE
  5
41F
100
AcDbEntity
  8
0
100
AcDbLine
 62
7
  6
CONTINUOUS
 10
176.8477263106
 20
35.1467990655
 11
176.8477263106
 21
34.1975935106
  0
LINE
  5
420
100
AcDbEntity
  8
0
100
AcDbLine
 62
7
  6
CONTINUOUS
 10
179.0344225419
 20
35.1308751747
 11
179.0344225419
 21
34.1975935106
  0
LINE
  5
421
100
AcDbEntity
  8
0
100
AcDbLine
 62
7
  6
CONTINUOUS
 10
179.5609453917
 20
35.1008119514
 11
179.5609453917
 21
34.1975935106
  0
LINE
  5
422
100
AcDbEntity
  8
0
100
AcDbLine
 62
7
  6
CONTINUOUS
 10
180.1382788637
 20
35.0114933398
 11
180.1382788637
 21
34.1975935106
  0
LINE
  5
423
100
AcDbEntity
  8
0
100
AcDbLine
 62
7
  6
CONTINUOUS
 10
183.3674501726
 20
19.7989250543
 11
182.8674501726
 21
19.7989250543
  0
LINE
  5
424
100
AcDbEntity
  8
0
100
AcDbLine
 62
7
  6
CONTINUOUS
 10
183.3674501726
 20
21.0075935106
 11
182.8674501726
 21
21.0075935106
  0
LINE
  5
425
100
AcDbEntity
  8
0
100
AcDbLine
 62
7
  6
CONTINUOUS
 10
183.3674501726
 20
23.1702063464
 11
182.8674501726
 21
23.1702063464
  0
LWPOLYLINE
  5
426
100
AcDbEntity
  8
RUNDUNGEN
100
AcDbPolyline
 62
7
  6
CONTINUOUS
 90
14
 70
0
 10
183.3674468889
 20
60.5346256308
 10
183.3675838444
 20
60.5049047624
 10
183.374380741
 20
60.3285333736
 10
183.3908284235
 20
60.1572067855
 10
183.4160429651
 20
59.9917440098
 10
183.4491097444
 20
59.8326540741
 10
183.4890755871
 20
59.6803742813
 10
183.53508314
 20
59.5349111869
 10
183.5860640557
 20
59.396881877
 10
183.6411671571
 20
59.2661195264
 10
183.6992562175
 20
59.1430990849
 10
183.7595817447
 20
59.0273738438
 10
183.8211168851
 20
58.9190805196
 10
183.8868665082
 20
58.8119455362
  0
LINE
  5
427
100
AcDbEntity
  8
0
100
AcDbLine
 62
7
  6
CONTINUOUS
 10
180.6954611276
 20
34.9091941101
 11
180.6954611276
 21
34.1975935106
  0
LINE
  5
428
100
AcDbEntity
  8
0
100
AcDbLine
 62
7
  6
CONTINUOUS
 10
180.9994575707
 20
34.844982701
 11
180.9994575707
 21
34.1975935106
  0
LINE
  5
429
100
AcDbEntity
  8
0
100
AcDbLine
 62
7
  6
CONTINUOUS
 10
181.2833030045
 20
34.7766196107
 11
181.2833030045
 21
34.1975935106
  0
LINE
  5
42A
100
AcDbEntity
  8
0
100
AcDbLine
 62
7
  6
CONTINUOUS
 10
181.405074414
 20
34.7387578266
 11
181.405074414
 21
34.1975935106
  0
LINE
  5
42B
100
AcDbEntity
  8
0
100
AcDbLine
 62
7
  6
CONTINUOUS
 10
181.4155826201
 20
34.7069830953
 11
181.4155826201
 21
34.1975935106
  0
LINE
  5
42C
100
AcDbEntity
  8
0
100
AcDbLine
 62
7
  6
CONTINUOUS
 10
182.8674501726
 20
16.3991840555
 11
182.8674501726
 21
17.6276437622
  0
LINE
  5
42D
100
AcDbEntity
  8
0
100
AcDbLine
 62
7
  6
CONTINUOUS
 10
182.8674501726
 20
17.6736730455
 11
182.8674501726
 21
24.3986660531
  0
LINE
  5
42E
100
AcDbEntity
  8
0
100
AcDbLine
 62
7
  6
CONTINUOUS
 10
182.8674501726
 20
65.2675935106
 11
182.8674501726
 21
71.7827897545
  0
LINE
  5
42F
100
AcDbEntity
  8
0
100
AcDbLine
 62
7
  6
CONTINUOUS
 10
183.3674501726
 20
74.4475935106
 11
183.3674501726
 21
60.8420813577
  0
LINE
  5
430
100
AcDbEntity
  8
0
100
AcDbLine
 62
7
  6
CONTINUOUS
 10
183.3674501726
 20
29.7298852123
 11
183.3674501726
 21
15.9475935106
  0
LINE
  5
431
100
AcDbEntity
  8
RUNDUNGEN
100
AcDbLine
 62
7
  6
CONTINUOUS
 10
183.3674501726
 20
10.2288545415
 11
183.3674501726
 21
32.0351468255
  0
LINE
  5
432
100
AcDbEntity
  8
RUNDUNGEN
100
AcDbLine
 62
7
  6
CONTINUOUS
 10
183.3674501726
 20
58.360040152
 11
183.3674501726
 21
80.1663296954
  0
LINE
  5
433
100
AcDbEntity
  8
0
100
AcDbLine
 62
7
  6
CONTINUOUS
 10
183.3674501726
 20
24.3788748027
 11
182.8674501726
 21
24.3788748027
  0
LINE
  5
434
100
AcDbEntity
  8
0
100
AcDbLine
 62
7
  6
CONTINUOUS
 10
183.3674501726
 20
24.3989250543
 11
182.8674501726
 21
24.3989250543
  0
LINE
  5
435
100
AcDbEntity
  8
0
100
AcDbLine
 62
7
  6
CONTINUOUS
 10
188.3239306379
 20
34.6978033911
 11
188.3239306379
 21
34.1975935106
  0
LINE
  5
436
100
AcDbEntity
  8
0
100
AcDbLine
 62
7
  6
CONTINUOUS
 10
239.8880038245
 20
29.1975935106
 11
240.1590941696
 21
29.1975935106
  0
LINE
  5
437
100
AcDbEntity
  8
0
100
AcDbLine
 62
7
  6
CONTINUOUS
 10
189.8225557209
 20
34.6977709091
 11
189.8225557209
 21
34.1975935106
  0
LINE
  5
438
100
AcDbEntity
  8
0
100
AcDbLine
 62
7
  6
CONTINUOUS
 10
190.0312806619
 20
34.6975935106
 11
190.0312806619
 21
34.1975935106
  0
LINE
  5
439
100
AcDbEntity
  8
0
100
AcDbLine
 62
7
  6
CONTINUOUS
 10
190.2458709296
 20
35.1497777111
 11
190.2458709296
 21
34.1975935106
  0
LINE
  5
43A
100
AcDbEntity
  8
0
100
AcDbLine
 62
7
  6
CONTINUOUS
 10
190.9125454737
 20
35.1392993254
 11
190.9125454737
 21
34.1975935106
  0
LINE
  5
43B
100
AcDbEntity
  8
0
100
AcDbLine
 62
7
  6
CONTINUOUS
 10
193.6400738389
 20
34.6975935106
 11
193.6400738389
 21
34.1975935106
  0
LWPOLYLINE
  5
43C
100
AcDbEntity
  8
RUNDUNGEN
100
AcDbPolyline
 62
7
  6
CONTINUOUS
 90
11
 70
0
 10
183.7773085714
 20
31.4294662105
 10
183.709914323
 20
31.3091473242
 10
183.6455364386
 20
31.1825168381
 10
183.5846404817
 20
31.0479254208
 10
183.5282322803
 20
30.9042857722
 10
183.4777502771
 20
30.751224807
 10
183.4345916537
 20
30.5878303302
 10
183.4006068232
 20
30.4143189425
 10
183.3776154308
 20
30.2304952779
 10
183.3676821758
 20
30.0370150286
 10
183.3674443464
 20
30.0051569599
  0
LINE
  5
43D
100
AcDbEntity
  8
RUNDUNGEN
100
AcDbLine
 62
7
  6
CONTINUOUS
 10
183.8470966522
 20
31.5443742392
 11
183.7773085714
 21
31.4294662105
  0
LINE
  5
43E
100
AcDbEntity
  8
0
100
AcDbLine
 62
7
  6
CONTINUOUS
 10
222.335778544
 20
34.6977912113
 11
222.297440869
 21
34.6975936856
  0
LINE
  5
43F
100
AcDbEntity
  8
0
100
AcDbLine
 62
7
  6
CONTINUOUS
 10
241.4819992676
 20
33.6975935106
 11
241.7422542473
 21
33.6975935106
  0
LINE
  5
440
100
AcDbEntity
  8
0
100
AcDbLine
 62
7
  6
CONTINUOUS
 10
229.0496787429
 20
34.1975935106
 11
217.8395191923
 21
34.1975935106
  0
LINE
  5
441
100
AcDbEntity
  8
0
100
AcDbLine
 62
7
  6
CONTINUOUS
 10
217.8324642224
 20
34.1975935106
 11
215.0101363613
 21
34.1975935106
  0
LINE
  5
442
100
AcDbEntity
  8
0
100
AcDbLine
 62
7
  6
CONTINUOUS
 10
213.8274501726
 20
34.1975935106
 11
205.7974501726
 21
34.1975935106
  0
LINE
  5
443
100
AcDbEntity
  8
0
100
AcDbLine
 62
7
  6
CONTINUOUS
 10
202.6432807306
 20
34.1975935106
 11
198.3423611642
 21
34.1975935106
  0
LINE
  5
444
100
AcDbEntity
  8
0
100
AcDbLine
 62
7
  6
CONTINUOUS
 10
197.6365211919
 20
34.1975935106
 11
196.193302112
 21
34.1975935106
  0
LINE
  5
445
100
AcDbEntity
  8
0
100
AcDbLine
 62
7
  6
CONTINUOUS
 10
194.6903674664
 20
34.1975935106
 11
190.2458709296
 21
34.1975935106
  0
LINE
  5
446
100
AcDbEntity
  8
0
100
AcDbLine
 62
7
  6
CONTINUOUS
 10
190.0312806619
 20
34.1975935106
 11
188.3239306379
 21
34.1975935106
  0
LINE
  5
447
100
AcDbEntity
  8
0
100
AcDbLine
 62
7
  6
CONTINUOUS
 10
181.4155826201
 20
34.1975935106
 11
172.5886970419
 21
34.1975935106
  0
LINE
  5
448
100
AcDbEntity
  8
0
100
AcDbLine
 62
7
  6
CONTINUOUS
 10
241.7422053132
 20
34.6350936894
 11
242.0007729546
 21
34.6350936894
  0
LINE
  5
449
100
AcDbEntity
  8
KONSTRUKTIONSELEMENTE
100
AcDbLine
 62
7
  6
CONTINUOUS
 10
239.2649859898
 20
34.6975935106
 11
229.0496787429
 21
34.6975935106
  0
LINE
  5
44A
100
AcDbEntity
  8
KONSTRUKTIONSELEMENTE
100
AcDbLine
 62
7
  6
CONTINUOUS
 10
224.5288997292
 20
34.6975935106
 11
223.6254166292
 21
34.6975935106
  0
LINE
  5
44B
100
AcDbEntity
  8
KONSTRUKTIONSELEMENTE
100
AcDbLine
 62
7
  6
CONTINUOUS
 10
222.2974395874
 20
34.6975935106
 11
222.2051890364
 21
34.6975935106
  0
LINE
  5
44C
100
AcDbEntity
  8
KONSTRUKTIONSELEMENTE
100
AcDbLine
 62
7
  6
CONTINUOUS
 10
218.692735135
 20
34.6975935106
 11
217.8324642224
 21
34.6975935106
  0
LINE
  5
44D
100
AcDbEntity
  8
KONSTRUKTIONSELEMENTE
100
AcDbLine
 62
7
  6
CONTINUOUS
 10
215.8718575536
 20
34.6975935106
 11
213.8274501726
 21
34.6975935106
  0
LINE
  5
44E
100
AcDbEntity
  8
KONSTRUKTIONSELEMENTE
100
AcDbLine
 62
7
  6
CONTINUOUS
 10
207.6629776356
 20
34.6975935106
 11
202.6432807306
 21
34.6975935106
  0
LINE
  5
44F
100
AcDbEntity
  8
KONSTRUKTIONSELEMENTE
100
AcDbLine
 62
7
  6
CONTINUOUS
 10
198.3423611642
 20
34.6975935106
 11
197.2874840971
 21
34.6975935106
  0
LINE
  5
450
100
AcDbEntity
  8
KONSTRUKTIONSELEMENTE
100
AcDbLine
 62
7
  6
CONTINUOUS
 10
196.193302112
 20
34.6975935106
 11
194.6903674664
 21
34.6975935106
  0
LINE
  5
451
100
AcDbEntity
  8
KONSTRUKTIONSELEMENTE
100
AcDbLine
 62
7
  6
CONTINUOUS
 10
193.7850004129
 20
34.6975935106
 11
192.6095886318
 21
34.6975935106
  0
LINE
  5
452
100
AcDbEntity
  8
KONSTRUKTIONSELEMENTE
100
AcDbLine
 62
7
  6
CONTINUOUS
 10
190.2458709296
 20
34.6975935106
 11
189.844340134
 21
34.6975935106
  0
LINE
  5
453
100
AcDbEntity
  8
KONSTRUKTIONSELEMENTE
100
AcDbLine
 62
7
  6
CONTINUOUS
 10
188.3239306379
 20
34.6975935106
 11
181.4155826201
 21
34.6975935106
  0
LINE
  5
454
100
AcDbEntity
  8
KONSTRUKTIONSELEMENTE
100
AcDbLine
 62
7
  6
CONTINUOUS
 10
172.5886970419
 20
34.6975935106
 11
164.4698457104
 21
34.6975935106
  0
LINE
  5
455
100
AcDbEntity
  8
0
100
AcDbLine
 62
7
  6
CONTINUOUS
 10
189.8443371388
 20
34.6975937227
 11
189.8225557209
 21
34.6977709091
  0
LINE
  5
456
100
AcDbEntity
  8
0
100
AcDbLine
 62
7
  6
CONTINUOUS
 10
194.0236929223
 20
35.1392993254
 11
194.0236929223
 21
34.1975935106
  0
LINE
  5
457
100
AcDbEntity
  8
0
100
AcDbLine
 62
7
  6
CONTINUOUS
 10
194.6903674664
 20
35.1497777111
 11
194.6903674664
 21
34.1975935106
  0
LINE
  5
458
100
AcDbEntity
  8
0
100
AcDbLine
 62
7
  6
CONTINUOUS
 10
196.193302112
 20
35.1298009588
 11
196.193302112
 21
34.1975935106
  0
LINE
  5
459
100
AcDbEntity
  8
0
100
AcDbLine
 62
7
  6
CONTINUOUS
 10
196.8741656962
 20
35.1298009588
 11
196.8741656962
 21
34.1975935106
  0
LINE
  5
45A
100
AcDbEntity
  8
0
100
AcDbLine
 62
7
  6
CONTINUOUS
 10
197.6365211919
 20
34.6975935106
 11
197.6365211919
 21
34.1975935106
  0
LINE
  5
45B
100
AcDbEntity
  8
RUNDUNGEN
100
AcDbLine
 62
7
  6
CONTINUOUS
 10
183.8601021508
 20
31.5649082241
 11
183.8470966522
 21
31.5443742392
  0
LINE
  5
45C
100
AcDbEntity
  8
RUNDUNGEN
100
AcDbLine
 62
7
  6
CONTINUOUS
 10
185.6794707837
 20
33.8035538988
 11
185.6786980792
 21
33.802343882
  0
LINE
  5
45D
100
AcDbEntity
  8
RUNDUNGEN
100
AcDbLine
 62
7
  6
CONTINUOUS
 10
185.6800600955
 20
33.8043434097
 11
185.5291019693
 21
33.5743663875
  0
LINE
  5
45E
100
AcDbEntity
  8
RUNDUNGEN
100
AcDbLine
 62
7
  6
CONTINUOUS
 10
183.9856614343
 20
31.7474494249
 11
183.8599679347
 21
31.5646928701
  0
LWPOLYLINE
  5
45F
100
AcDbEntity
  8
RUNDUNGEN
100
AcDbPolyline
 62
7
  6
CONTINUOUS
 90
6
 70
0
 10
185.5291019693
 20
33.5743663875
 10
185.3025948193
 20
33.252645389
 10
185.0634882502
 20
32.9410095395
 10
184.8119284457
 20
32.6414822126
 10
184.5480608778
 20
32.3558381438
 10
184.2482513783
 20
32.0579929754
  0
LINE
  5
460
100
AcDbEntity
  8
RUNDUNGEN
100
AcDbLine
 62
7
  6
CONTINUOUS
 10
184.1117444953
 20
31.9066753093
 11
183.9856614343
 21
31.7474494249
  0
LINE
  5
461
100
AcDbEntity
  8
RUNDUNGEN
100
AcDbLine
 62
7
  6
CONTINUOUS
 10
184.2482513783
 20
32.0579929754
 11
184.1117444953
 21
31.9066753093
  0
LINE
  5
462
100
AcDbEntity
  8
KONSTRUKTIONSELEMENTE
100
AcDbLine
 62
7
  6
CONTINUOUS
 10
250.6136614238
 20
38.6975935106
 11
249.6416561885
 21
38.6975935106
  0
LINE
  5
463
100
AcDbEntity
  8
KONSTRUKTIONSELEMENTE
100
AcDbLine
 62
7
  6
CONTINUOUS
 10
154.0932441566
 20
38.6975935106
 11
153.1212389213
 21
38.6975935106
  0
LWPOLYLINE
  5
464
100
AcDbEntity
  8
RUNDUNGEN
100
AcDbPolyline
 62
7
  6
CONTINUOUS
 90
4
 70
0
 10
183.8871860016
 20
58.8114386811
 10
183.9540901927
 20
58.7104446509
 10
184.1451853057
 20
58.4594092248
 10
184.3811790443
 20
58.2060433798
  0
LINE
  5
465
100
AcDbEntity
  8
RUNDUNGEN
100
AcDbLine
 62
7
  6
CONTINUOUS
 10
185.5390998319
 20
56.8060017246
 11
185.6795441275
 21
56.5916597428
  0
LINE
  5
466
100
AcDbEntity
  8
RUNDUNGEN
100
AcDbLine
 62
7
  6
CONTINUOUS
 10
185.6796181036
 20
56.5915407776
 11
185.6797059784
 21
56.5914030829
  0
LINE
  5
467
100
AcDbEntity
  8
RUNDUNGEN
100
AcDbLine
 62
7
  6
CONTINUOUS
 10
183.8871860016
 20
58.8114386811
 11
183.8868641852
 21
58.8119441051
  0
LINE
  5
468
100
AcDbEntity
  8
0
100
AcDbLine
 62
7
  6
CONTINUOUS
 10
198.3423611642
 20
35.146799071
 11
198.3423611642
 21
34.1975935106
  0
LINE
  5
469
100
AcDbEntity
  8
0
100
AcDbLine
 62
7
  6
CONTINUOUS
 10
201.090522979
 20
35.1308751731
 11
201.090522979
 21
34.1975935106
  0
LINE
  5
46A
100
AcDbEntity
  8
0
100
AcDbLine
 62
7
  6
CONTINUOUS
 10
201.6673337645
 20
35.1008119426
 11
201.6673337645
 21
34.1975935106
  0
LINE
  5
46B
100
AcDbEntity
  8
0
100
AcDbLine
 62
7
  6
CONTINUOUS
 10
202.1381954505
 20
35.0114933362
 11
202.1381954505
 21
34.1975935106
  0
LWPOLYLINE
  5
46C
100
AcDbEntity
  8
RUNDUNGEN
100
AcDbPolyline
 62
7
  6
CONTINUOUS
 90
5
 70
0
 10
186.2840297416
 20
34.4564251047
 10
186.1128676287
 20
34.3153598646
 10
185.9548803795
 20
34.1596855605
 10
185.8113103127
 20
33.9906270018
 10
185.6784575951
 20
33.8019666084
  0
LINE
  5
46D
100
AcDbEntity
  8
RUNDUNGEN
100
AcDbLine
 62
7
  6
CONTINUOUS
 10
217.2678788755
 20
55.8134154687
 11
217.4508689904
 21
55.9387609533
  0
LINE
  5
46E
100
AcDbEntity
  8
RUNDUNGEN
100
AcDbLine
 62
7
  6
CONTINUOUS
 10
186.4670198886
 20
34.5817705695
 11
186.2840297416
 21
34.4564251047
  0
LINE
  5
46F
100
AcDbEntity
  8
RUNDUNGEN
100
AcDbLine
 62
7
  6
CONTINUOUS
 10
217.2671099755
 20
55.8129366178
 11
217.2678116996
 21
55.8133728991
  0
LINE
  5
470
100
AcDbEntity
  8
RUNDUNGEN
100
AcDbLine
 62
7
  6
CONTINUOUS
 10
184.3814135534
 20
58.2058164135
 11
184.3812855698
 21
58.2059402728
  0
LWPOLYLINE
  5
471
100
AcDbEntity
  8
RUNDUNGEN
100
AcDbPolyline
 62
7
  6
CONTINUOUS
 90
6
 70
0
 10
184.3814028691
 20
58.2058029211
 10
184.5857208139
 20
58.0002811386
 10
184.8415386824
 20
57.7198815106
 10
185.0858429973
 20
57.4261825966
 10
185.3184190935
 20
57.1209342107
 10
185.5390998319
 20
56.8060017246
  0
LINE
  5
472
100
AcDbEntity
  8
0
100
AcDbLine
 62
7
  6
CONTINUOUS
 10
202.4988274684
 20
34.9091941066
 11
202.4988274684
 21
34.1975935106
  0
LINE
  5
473
100
AcDbEntity
  8
0
100
AcDbLine
 62
7
  6
CONTINUOUS
 10
202.6261689276
 20
34.8449827042
 11
202.6261689276
 21
34.1975935106
  0
LINE
  5
474
100
AcDbEntity
  8
0
100
AcDbLine
 62
7
  6
CONTINUOUS
 10
202.6432807306
 20
34.776619613
 11
202.6432807306
 21
34.1975935106
  0
LINE
  5
475
100
AcDbEntity
  8
0
100
AcDbLine
 62
7
  6
CONTINUOUS
 10
205.7974501726
 20
34.6975935106
 11
205.7974501726
 21
34.1975935106
  0
LWPOLYLINE
  5
476
100
AcDbEntity
  8
RUNDUNGEN
100
AcDbPolyline
 62
7
  6
CONTINUOUS
 90
3
 70
0
 10
219.3535288084
 20
58.2058683248
 10
219.4710972036
 20
58.3254949056
 10
219.6048794699
 20
58.4776251587
  0
LWPOLYLINE
  5
477
100
AcDbEntity
  8
RUNDUNGEN
100
AcDbPolyline
 62
7
  6
CONTINUOUS
 90
5
 70
0
 10
217.4508689904
 20
55.9387609533
 10
217.6220310703
 20
56.0798262097
 10
217.7800182856
 20
56.2355005269
 10
217.9235883182
 20
56.4045590956
 10
218.0564400565
 20
56.593218015
  0
LINE
  5
478
100
AcDbEntity
  8
RUNDUNGEN
100
AcDbLine
 62
7
  6
CONTINUOUS
 10
186.4677884682
 20
34.5822492212
 11
186.4670868878
 21
34.5818130293
  0
LWPOLYLINE
  5
479
100
AcDbEntity
  8
RUNDUNGEN
100
AcDbPolyline
 62
7
  6
CONTINUOUS
 90
6
 70
0
 10
219.4754013125
 20
32.0696366991
 10
219.1816891096
 20
32.3611408344
 10
218.9179418904
 20
32.6472016813
 10
218.6664309268
 20
32.9472339979
 10
218.4273596056
 20
33.2593799528
 10
218.2008908407
 20
33.5816307245
  0
LINE
  5
47A
100
AcDbEntity
  8
0
100
AcDbLine
 62
7
  6
CONTINUOUS
 10
207.6324501726
 20
34.7030442959
 11
207.6324501726
 21
34.1975935106
  0
LWPOLYLINE
  5
47B
100
AcDbEntity
  8
RUNDUNGEN
100
AcDbPolyline
 62
7
  6
CONTINUOUS
 90
13
 70
0
 10
219.848070892
 20
58.8120031131
 10
219.9147090969
 20
58.92064724
 10
219.9766178569
 20
59.0297577122
 10
220.0372549827
 20
59.1463423457
 10
220.0955826641
 20
59.2702627661
 10
220.150851456
 20
59.4019841693
 10
220.2019001087
 20
59.541003289
 10
220.2478791191
 20
59.6874942813
 10
220.2877080349
 20
59.8408415007
 10
220.3205151196
 20
60.0010260805
 10
220.345344897
 20
60.1675852225
 10
220.3612767121
 20
60.3400022359
 10
220.3674561055
 20
60.5344486617
  0
LINE
  5
47C
100
AcDbEntity
  8
RUNDUNGEN
100
AcDbLine
 62
7
  6
CONTINUOUS
 10
219.8480685202
 20
58.8120046103
 11
219.8479928032
 21
58.8118856243
  0
LINE
  5
47D
100
AcDbEntity
  8
RUNDUNGEN
100
AcDbLine
 62
7
  6
CONTINUOUS
 10
218.0554245713
 20
56.5916271392
 11
218.0562000161
 21
56.5928414378
  0
LINE
  5
47E
100
AcDbEntity
  8
RUNDUNGEN
100
AcDbLine
 62
7
  6
CONTINUOUS
 10
218.0548347394
 20
56.590836793
 11
218.2006731155
 21
56.8132243385
  0
LINE
  5
47F
100
AcDbEntity
  8
RUNDUNGEN
100
AcDbLine
 62
7
  6
CONTINUOUS
 10
219.7289672097
 20
58.6373281048
 11
219.8479928032
 21
58.8118856243
  0
LWPOLYLINE
  5
480
100
AcDbEntity
  8
RUNDUNGEN
100
AcDbPolyline
 62
7
  6
CONTINUOUS
 90
6
 70
0
 10
218.2006731155
 20
56.8132243385
 10
218.4213822957
 20
57.1276373124
 10
218.6539862137
 20
57.4323828545
 10
218.8983361353
 20
57.7255871641
 10
219.1542839312
 20
58.0056064762
 10
219.3534975107
 20
58.2058127943
  0
LINE
  5
481
100
AcDbEntity
  8
RUNDUNGEN
100
AcDbLine
 62
7
  6
CONTINUOUS
 10
219.6048794699
 20
58.4776251587
 11
219.7289672097
 21
58.6373281048
  0
LINE
  5
482
100
AcDbEntity
  8
KONSTRUKTIONSELEMENTE
100
AcDbLine
 62
7
  6
CONTINUOUS
 10
250.6136614238
 20
51.6975935106
 11
249.6416561885
 21
51.6975935106
  0
LINE
  5
483
100
AcDbEntity
  8
KONSTRUKTIONSELEMENTE
100
AcDbLine
 62
7
  6
CONTINUOUS
 10
154.0932441566
 20
51.6975935106
 11
153.1212389213
 21
51.6975935106
  0
LWPOLYLINE
  5
484
100
AcDbEntity
  8
RUNDUNGEN
100
AcDbPolyline
 62
7
  6
CONTINUOUS
 90
3
 70
0
 10
219.7445162434
 20
31.7538100102
 10
219.6153846663
 20
31.9158377844
 10
219.4754013125
 20
32.0696366991
  0
LINE
  5
485
100
AcDbEntity
  8
RUNDUNGEN
100
AcDbLine
 62
7
  6
CONTINUOUS
 10
218.2008908407
 20
33.5816307245
 11
218.0553585695
 21
33.8035276389
  0
LWPOLYLINE
  5
486
100
AcDbEntity
  8
RUNDUNGEN
100
AcDbPolyline
 62
7
  6
CONTINUOUS
 90
3
 70
0
 10
219.8749259018
 20
31.564710106
 10
219.8623563131
 20
31.5842777574
 10
219.7445162434
 20
31.7538100102
  0
LINE
  5
487
100
AcDbEntity
  8
RUNDUNGEN
100
AcDbLine
 62
7
  6
CONTINUOUS
 10
218.0552846019
 20
33.8036465896
 11
218.0551918486
 21
33.8037919287
  0
LWPOLYLINE
  5
488
100
AcDbEntity
  8
RUNDUNGEN
100
AcDbPolyline
 62
7
  6
CONTINUOUS
 90
3
 70
0
 10
219.955659196
 20
31.4327680685
 10
219.8866719384
 20
31.5461714778
 10
219.8747793517
 20
31.5649382977
  0
LINE
  5
489
100
AcDbEntity
  8
RUNDUNGEN
100
AcDbLine
 62
7
  6
CONTINUOUS
 10
220.0225134161
 20
31.3137594173
 11
219.955659196
 21
31.4327680685
  0
LINE
  5
48A
100
AcDbEntity
  8
0
100
AcDbLine
 62
7
  6
CONTINUOUS
 10
211.9874501726
 20
34.8188225892
 11
211.9874501726
 21
34.1975935106
  0
LINE
  5
48B
100
AcDbEntity
  8
0
100
AcDbLine
 62
7
  6
CONTINUOUS
 10
212.9774501726
 20
34.942195863
 11
212.9774501726
 21
34.1975935106
  0
LINE
  5
48C
100
AcDbEntity
  8
0
100
AcDbLine
 62
7
  6
CONTINUOUS
 10
213.8274501726
 20
34.9042849985
 11
213.8274501726
 21
34.1975935106
  0
LINE
  5
48D
100
AcDbEntity
  8
0
100
AcDbLine
 62
7
  6
CONTINUOUS
 10
215.0101363613
 20
34.6975935106
 11
215.0101363613
 21
34.1975935106
  0
LINE
  5
48E
100
AcDbEntity
  8
KONSTRUKTIONSELEMENTE
100
AcDbLine
 62
7
  6
CONTINUOUS
 10
239.2650583482
 20
55.6975935106
 11
164.4698445902
 21
55.6975935106
  0
LINE
  5
48F
100
AcDbEntity
  8
0
100
AcDbLine
 62
7
  6
CONTINUOUS
 10
241.5180728032
 20
56.5725935106
 11
241.7780925502
 21
56.5725935106
  0
LINE
  5
490
100
AcDbEntity
  8
0
100
AcDbLine
 62
7
  6
CONTINUOUS
 10
241.2370428316
 20
57.5100942258
 11
241.4989064433
 21
57.5100942258
  0
LINE
  5
491
100
AcDbEntity
  8
0
100
AcDbLine
 62
7
  6
CONTINUOUS
 10
240.9945966792
 20
58.2600935106
 11
241.2580720736
 21
58.2600935106
  0
LINE
  5
492
100
AcDbEntity
  8
0
100
AcDbLine
 62
7
  6
CONTINUOUS
 10
215.8718575536
 20
34.7700168449
 11
215.8718575536
 21
34.1975935106
  0
LINE
  5
493
100
AcDbEntity
  8
0
100
AcDbLine
 62
7
  6
CONTINUOUS
 10
216.2449259031
 20
34.9236670098
 11
216.2449259031
 21
34.1975935106
  0
LINE
  5
494
100
AcDbEntity
  8
0
100
AcDbLine
 62
7
  6
CONTINUOUS
 10
217.2019124085
 20
35.129346394
 11
217.2019124085
 21
34.1975935106
  0
LINE
  5
495
100
AcDbEntity
  8
0
100
AcDbLine
 62
7
  6
CONTINUOUS
 10
217.8324642224
 20
35.1311660723
 11
217.8324642224
 21
34.1975935106
  0
LINE
  5
496
100
AcDbEntity
  8
0
100
AcDbLine
 62
7
  6
CONTINUOUS
 10
218.2781518688
 20
34.6975935106
 11
218.2781518688
 21
34.1975935106
  0
LINE
  5
497
100
AcDbEntity
  8
0
100
AcDbLine
 62
7
  6
CONTINUOUS
 10
218.692735135
 20
34.8433978455
 11
218.692735135
 21
34.1975935106
  0
LINE
  5
498
100
AcDbEntity
  8
0
100
AcDbLine
 62
7
  6
CONTINUOUS
 10
219.0251250042
 20
34.9318252528
 11
219.0251250042
 21
34.1975935106
  0
LINE
  5
499
100
AcDbEntity
  8
0
100
AcDbLine
 62
7
  6
CONTINUOUS
 10
219.6556502834
 20
35.0384711662
 11
219.6556502834
 21
34.1975935106
  0
LINE
  5
49A
100
AcDbEntity
  8
0
100
AcDbLine
 62
7
  6
CONTINUOUS
 10
240.7361697747
 20
59.0100927953
 11
241.0013851077
 21
59.0100927953
  0
LINE
  5
49B
100
AcDbEntity
  8
0
100
AcDbLine
 62
7
  6
CONTINUOUS
 10
240.6008639616
 20
59.3850935106
 11
240.8669994488
 21
59.3850935106
  0
LINE
  5
49C
100
AcDbEntity
  8
0
100
AcDbLine
 62
7
  6
CONTINUOUS
 10
240.531670009
 20
59.5725927953
 11
240.7982785167
 21
59.5725927953
  0
LINE
  5
49D
100
AcDbEntity
  8
0
100
AcDbLine
 62
7
  6
CONTINUOUS
 10
240.3901704672
 20
59.9475942258
 11
240.6577515235
 21
59.9475942258
  0
LINE
  5
49E
100
AcDbEntity
  8
0
100
AcDbLine
 62
7
  6
CONTINUOUS
 10
240.0180054266
 20
60.8850927953
 11
240.2881785128
 21
60.8850927953
  0
LINE
  5
49F
100
AcDbEntity
  8
0
100
AcDbLine
 62
7
  6
CONTINUOUS
 10
239.1031856964
 20
62.9475935106
 11
239.3799480899
 21
62.9475935106
  0
LWPOLYLINE
  5
4A0
100
AcDbEntity
  8
RUNDUNGEN
100
AcDbPolyline
 62
7
  6
CONTINUOUS
 90
10
 70
0
 10
220.3674562679
 20
30.0049494128
 10
220.3670136212
 20
30.0497157414
 10
220.3562239138
 20
30.2421331997
 10
220.3325468651
 20
30.4250090967
 10
220.2980324622
 20
30.5976074572
 10
220.2545032787
 20
30.7600616422
 10
220.2038033444
 20
30.9121605625
 10
220.1473416735
 20
31.0547929087
 10
220.0865606529
 20
31.1883247252
 10
220.0225134161
 20
31.3137594173
  0
LINE
  5
4A1
100
AcDbEntity
  8
0
100
AcDbLine
 62
7
  6
CONTINUOUS
 10
220.1696637974
 20
35.0985572741
 11
220.1696637974
 21
34.1975935106
  0
LINE
  5
4A2
100
AcDbEntity
  8
RUNDUNGEN
100
AcDbLine
 62
7
  6
CONTINUOUS
 10
220.3674501726
 20
10.2288574634
 11
220.3674501726
 21
32.035123494
  0
LINE
  5
4A3
100
AcDbEntity
  8
RUNDUNGEN
100
AcDbLine
 62
7
  6
CONTINUOUS
 10
220.3674501726
 20
58.3600631993
 11
220.3674501726
 21
80.1663329689
  0
LINE
  5
4A4
100
AcDbEntity
  8
0
100
AcDbLine
 62
7
  6
CONTINUOUS
 10
220.9235545644
 20
35.1293968915
 11
220.9235545644
 21
34.1975935106
  0
LINE
  5
4A5
100
AcDbEntity
  8
0
100
AcDbLine
 62
7
  6
CONTINUOUS
 10
221.122309988
 20
35.1293968892
 11
221.122309988
 21
34.1975935106
  0
LINE
  5
4A6
100
AcDbEntity
  8
0
100
AcDbLine
 62
7
  6
CONTINUOUS
 10
221.759693539
 20
35.0985572563
 11
221.759693539
 21
34.1975935106
  0
LINE
  5
4A7
100
AcDbEntity
  8
0
100
AcDbLine
 62
7
  6
CONTINUOUS
 10
222.0406971703
 20
35.0384711909
 11
222.0406971703
 21
34.1975935106
  0
LINE
  5
4A8
100
AcDbEntity
  8
0
100
AcDbLine
 62
7
  6
CONTINUOUS
 10
222.2051890364
 20
34.9318252254
 11
222.2051890364
 21
34.1975935106
  0
LINE
  5
4A9
100
AcDbEntity
  8
0
100
AcDbLine
 62
7
  6
CONTINUOUS
 10
222.335778544
 20
34.6977912113
 11
222.335778544
 21
34.1975935106
  0
LINE
  5
4AA
100
AcDbEntity
  8
0
100
AcDbLine
 62
7
  6
CONTINUOUS
 10
223.6254166292
 20
34.6977803545
 11
223.6254166292
 21
34.1975935106
  0
LINE
  5
4AB
100
AcDbEntity
  8
0
100
AcDbLine
 62
7
  6
CONTINUOUS
 10
183.3674501726
 20
65.2675935106
 11
182.8674501726
 21
65.2675935106
  0
LINE
  5
4AC
100
AcDbEntity
  8
0
100
AcDbLine
 62
7
  6
CONTINUOUS
 10
183.3674501726
 20
65.395253081
 11
182.8674501726
 21
65.395253081
  0
LINE
  5
4AD
100
AcDbEntity
  8
0
100
AcDbLine
 62
7
  6
CONTINUOUS
 10
183.3674501726
 20
65.650572233
 11
182.8674501726
 21
65.650572233
  0
LINE
  5
4AE
100
AcDbEntity
  8
0
100
AcDbLine
 62
7
  6
CONTINUOUS
 10
183.3674501726
 20
65.9058913962
 11
182.8674501726
 21
65.9058913962
  0
LINE
  5
4AF
100
AcDbEntity
  8
0
100
AcDbLine
 62
7
  6
CONTINUOUS
 10
183.3674501726
 20
66.288870074
 11
182.8674501726
 21
66.288870074
  0
LINE
  5
4B0
100
AcDbEntity
  8
0
100
AcDbLine
 62
7
  6
CONTINUOUS
 10
183.3674501726
 20
66.6718488411
 11
182.8674501726
 21
66.6718488411
  0
LINE
  5
4B1
100
AcDbEntity
  8
0
100
AcDbLine
 62
7
  6
CONTINUOUS
 10
183.3674501726
 20
67.1824870781
 11
182.8674501726
 21
67.1824870781
  0
LINE
  5
4B2
100
AcDbEntity
  8
0
100
AcDbLine
 62
7
  6
CONTINUOUS
 10
226.6082036835
 20
35.1467990492
 11
226.6082036835
 21
34.1975935106
  0
LINE
  5
4B3
100
AcDbEntity
  8
0
100
AcDbLine
 62
7
  6
CONTINUOUS
 10
228.6163934959
 20
35.1308751795
 11
228.6163934959
 21
34.1975935106
  0
LINE
  5
4B4
100
AcDbEntity
  8
0
100
AcDbLine
 62
7
  6
CONTINUOUS
 10
183.3674501726
 20
67.693125494
 11
182.8674501726
 21
67.693125494
  0
LINE
  5
4B5
100
AcDbEntity
  8
0
100
AcDbLine
 62
7
  6
CONTINUOUS
 10
183.3674501726
 20
68.0761041717
 11
182.8674501726
 21
68.0761041717
  0
LINE
  5
4B6
100
AcDbEntity
  8
0
100
AcDbLine
 62
7
  6
CONTINUOUS
 10
183.3674501726
 20
68.3314232902
 11
182.8674501726
 21
68.3314232902
  0
LINE
  5
4B7
100
AcDbEntity
  8
0
100
AcDbLine
 62
7
  6
CONTINUOUS
 10
183.3674501726
 20
68.714401968
 11
182.8674501726
 21
68.714401968
  0
LINE
  5
4B8
100
AcDbEntity
  8
0
100
AcDbLine
 62
7
  6
CONTINUOUS
 10
183.3674501726
 20
69.0973806457
 11
182.8674501726
 21
69.0973806457
  0
LINE
  5
4B9
100
AcDbEntity
  8
0
100
AcDbLine
 62
7
  6
CONTINUOUS
 10
183.3674501726
 20
69.6080188827
 11
182.8674501726
 21
69.6080188827
  0
LINE
  5
4BA
100
AcDbEntity
  8
0
100
AcDbLine
 62
7
  6
CONTINUOUS
 10
183.3674501726
 20
69.8633383588
 11
182.8674501726
 21
69.8633383588
  0
LINE
  5
4BB
100
AcDbEntity
  8
0
100
AcDbLine
 62
7
  6
CONTINUOUS
 10
183.3674501726
 20
70.3739765958
 11
182.8674501726
 21
70.3739765958
  0
LINE
  5
4BC
100
AcDbEntity
  8
0
100
AcDbLine
 62
7
  6
CONTINUOUS
 10
183.3674501726
 20
70.8846148328
 11
182.8674501726
 21
70.8846148328
  0
LINE
  5
4BD
100
AcDbEntity
  8
0
100
AcDbLine
 62
7
  6
CONTINUOUS
 10
183.3674501726
 20
71.1399339513
 11
182.8674501726
 21
71.1399339513
  0
LINE
  5
4BE
100
AcDbEntity
  8
0
100
AcDbLine
 62
7
  6
CONTINUOUS
 10
183.3674501726
 20
71.2675935106
 11
182.8674501726
 21
71.2675935106
  0
LINE
  5
4BF
100
AcDbEntity
  8
0
100
AcDbLine
 62
7
  6
CONTINUOUS
 10
183.3674501726
 20
71.3143983301
 11
182.8674501726
 21
71.3143983301
  0
LINE
  5
4C0
100
AcDbEntity
  8
0
100
AcDbLine
 62
7
  6
CONTINUOUS
 10
183.3674501726
 20
71.7827897545
 11
182.8674501726
 21
71.7827897545
  0
LINE
  5
4C1
100
AcDbEntity
  8
0
100
AcDbLine
 62
7
  6
CONTINUOUS
 10
228.9548173368
 20
35.1008119308
 11
228.9548173368
 21
34.1975935106
  0
LINE
  5
4C2
100
AcDbEntity
  8
0
100
AcDbLine
 62
7
  6
CONTINUOUS
 10
229.0496787429
 20
35.0114933505
 11
229.0496787429
 21
34.1975935106
  0
LINE
  5
4C3
100
AcDbEntity
  8
RUNDUNGEN
100
AcDbLine
 62
7
  6
CONTINUOUS
 10
186.3674501726
 20
77.4475935106
 11
217.3674501726
 21
77.4475935106
  0
ARC
  5
4C4
100
AcDbEntity
  8
RUNDUNGEN
100
AcDbCircle
 62
7
  6
CONTINUOUS
 10
178.3674501726
 20
203.1793411252
 40
5.0
100
AcDbArc
 50
270.0000182634
 51
0.0004155909
  0
ARC
  5
4C5
100
AcDbEntity
  8
RUNDUNGEN
100
AcDbCircle
 62
7
  6
CONTINUOUS
 10
163.6174501726
 20
195.1793411252
 40
3.0
100
AcDbArc
 50
90.0
 51
180.0
  0
ARC
  5
4C6
100
AcDbEntity
  8
KONSTRUKTIONSELEMENTE
100
AcDbCircle
 62
7
  6
CONTINUOUS
 10
44.3674501726
 20
296.8043411252
 40
208.5
100
AcDbArc
 50
345.7499673022
 51
14.2500326978
  0
ARC
  5
4C7
100
AcDbEntity
  8
KONSTRUKTIONSELEMENTE
100
AcDbCircle
 62
7
  6
CONTINUOUS
 10
44.3674501726
 20
296.8043411252
 40
206.2462112512
100
AcDbArc
 50
354.4351988057
 51
5.5648011943
  0
ARC
  5
4C8
100
AcDbEntity
  8
KONSTRUKTIONSELEMENTE
100
AcDbCircle
 62
7
  6
CONTINUOUS
 10
44.3674501726
 20
296.8043411252
 40
189.7537887488
100
AcDbArc
 50
353.9498022263
 51
6.0501977737
  0
ARC
  5
4C9
100
AcDbEntity
  8
KONSTRUKTIONSELEMENTE
100
AcDbCircle
 62
7
  6
CONTINUOUS
 10
44.3674501726
 20
296.8043411252
 40
187.5
100
AcDbArc
 50
345.7499673022
 51
14.2500326978
  0
ARC
  5
4CA
100
AcDbEntity
  8
KONSTRUKTIONSELEMENTE
100
AcDbCircle
 62
7
  6
CONTINUOUS
 10
201.8674501726
 20
256.8043411252
 40
46.0
100
AcDbArc
 50
194.2500326978
 51
246.2809701756
  0
ARC
  5
4CB
100
AcDbEntity
  8
KONSTRUKTIONSELEMENTE
100
AcDbCircle
 62
7
  6
CONTINUOUS
 10
201.8674501726
 20
256.8043411252
 40
46.0
100
AcDbArc
 50
293.7190298244
 51
345.7499673022
  0
ARC
  5
4CC
100
AcDbEntity
  8
KONSTRUKTIONSELEMENTE
100
AcDbCircle
 62
7
  6
CONTINUOUS
 10
201.8674501726
 20
256.8043411252
 40
25.0
100
AcDbArc
 50
194.2500326978
 51
222.2868523433
  0
ARC
  5
4CD
100
AcDbEntity
  8
KONSTRUKTIONSELEMENTE
100
AcDbCircle
 62
7
  6
CONTINUOUS
 10
201.8674501726
 20
256.8043411252
 40
25.0
100
AcDbArc
 50
317.6999233358
 51
345.7499673022
  0
ARC
  5
4CE
100
AcDbEntity
  8
RUNDUNGEN
100
AcDbCircle
 62
7
  6
CONTINUOUS
 10
201.8674501726
 20
239.6793411252
 40
18.5
100
AcDbArc
 50
0.0
 51
180.0
  0
ARC
  5
4CF
100
AcDbEntity
  8
RUNDUNGEN
100
AcDbCircle
 62
7
  6
CONTINUOUS
 10
225.3674501726
 20
203.1793411252
 40
5.0
100
AcDbArc
 50
179.9992111928
 51
269.9999906522
  0
ARC
  5
4D0
100
AcDbEntity
  8
RUNDUNGEN
100
AcDbCircle
 62
7
  6
CONTINUOUS
 10
240.1174501726
 20
195.1793411252
 40
3.0
100
AcDbArc
 50
0.0
 51
90.0
  0
ARC
  5
4D1
100
AcDbEntity
  8
KONSTRUKTIONSELEMENTE
100
AcDbCircle
 62
7
  6
CONTINUOUS
 10
359.3674501726
 20
296.8043411252
 40
208.5
100
AcDbArc
 50
165.7499673022
 51
194.2500326978
  0
ARC
  5
4D2
100
AcDbEntity
  8
KONSTRUKTIONSELEMENTE
100
AcDbCircle
 62
7
  6
CONTINUOUS
 10
359.3674501726
 20
296.8043411252
 40
206.2462112512
100
AcDbArc
 50
174.4351988057
 51
185.5648011943
  0
ARC
  5
4D3
100
AcDbEntity
  8
KONSTRUKTIONSELEMENTE
100
AcDbCircle
 62
7
  6
CONTINUOUS
 10
359.3674501726
 20
296.8043411252
 40
189.7537887488
100
AcDbArc
 50
173.9498022263
 51
186.0501977737
  0
ARC
  5
4D4
100
AcDbEntity
  8
KONSTRUKTIONSELEMENTE
100
AcDbCircle
 62
7
  6
CONTINUOUS
 10
359.3674501726
 20
296.8043411252
 40
187.5
100
AcDbArc
 50
165.7499673022
 51
194.2500326978
  0
ARC
  5
4D5
100
AcDbEntity
  8
KONSTRUKTIONSELEMENTE
100
AcDbCircle
 62
7
  6
CONTINUOUS
 10
201.8674501726
 20
336.8043411252
 40
46.0
100
AcDbArc
 50
14.2500326978
 51
165.7499673022
  0
ARC
  5
4D6
100
AcDbEntity
  8
KONSTRUKTIONSELEMENTE
100
AcDbCircle
 62
7
  6
CONTINUOUS
 10
201.8674501726
 20
336.8043411252
 40
25.0
100
AcDbArc
 50
14.2500326978
 51
165.7499673022
  0
ARC
  5
4D7
100
AcDbEntity
  8
0
100
AcDbCircle
 62
7
  6
CONTINUOUS
 10
209.9174501726
 20
371.5203678573
 40
2.285
100
AcDbArc
 50
218.1089220474
 51
6.1440493103
  0
ARC
  5
4D8
100
AcDbEntity
  8
0
100
AcDbCircle
 62
7
  6
CONTINUOUS
 10
209.9174501726
 20
371.5203678573
 40
2.285
100
AcDbArc
 50
25.0541325892
 51
199.88
  0
CIRCLE
  5
4D9
100
AcDbEntity
  8
0
100
AcDbCircle
 62
7
  6
CONTINUOUS
 10
209.9174501726
 20
371.5203678573
 40
1.56
  0
ARC
  5
4DA
100
AcDbEntity
  8
RUNDUNGEN
100
AcDbCircle
 62
7
  6
CONTINUOUS
 10
331.0188953064
 20
231.7056205668
 40
3.5
100
AcDbArc
 50
330.0
 51
360.0
  0
ARC
  5
4DB
100
AcDbEntity
  8
0
100
AcDbCircle
 62
7
  6
CONTINUOUS
 10
343.3088953064
 20
218.9693411252
 40
3.03
100
AcDbArc
 50
142.4188403032
 51
312.889025844
  0
ARC
  5
4DC
100
AcDbEntity
  8
0
100
AcDbCircle
 62
7
  6
CONTINUOUS
 10
343.3088953064
 20
218.9693411252
 40
3.03
100
AcDbArc
 50
326.2
 51
129.142574669
  0
ARC
  5
4DD
100
AcDbEntity
  8
RUNDUNGEN
100
AcDbCircle
 62
7
  6
CONTINUOUS
 10
343.3954903352
 20
255.1793409283
 40
3.0
100
AcDbArc
 50
90.0000035158
 51
139.9999999996
  0
ARC
  5
4DE
100
AcDbEntity
  8
RUNDUNGEN
100
AcDbCircle
 62
7
  6
CONTINUOUS
 10
351.1244074592
 20
255.1793411252
 40
3.0
100
AcDbArc
 50
51.2605754021
 51
90.0
  0
ARC
  5
4DF
100
AcDbEntity
  8
RUNDUNGEN
100
AcDbCircle
 62
7
  6
CONTINUOUS
 10
337.5188953064
 20
248.1758876905
 40
3.0
100
AcDbArc
 50
140.0
 51
180.0
  0
ARC
  5
4E0
100
AcDbEntity
  8
RUNDUNGEN
100
AcDbCircle
 62
7
  6
CONTINUOUS
 10
328.518897725
 20
214.375497737
 40
3.0
100
AcDbArc
 50
150.0000923838
 51
180.0000800066
  0
CIRCLE
  5
4E1
100
AcDbEntity
  8
0
100
AcDbCircle
 62
7
  6
CONTINUOUS
 10
343.3088953064
 20
218.9693411252
 40
2.12
  0
ARC
  5
4E2
100
AcDbEntity
  8
0
100
AcDbCircle
 62
7
  6
CONTINUOUS
 10
309.9427596937
 20
363.3931299307
 40
66.8944221874
100
AcDbArc
 50
358.6896918235
 51
0.3923283943
  0
ARC
  5
4E3
100
AcDbEntity
  8
0
100
AcDbCircle
 62
7
  6
CONTINUOUS
 10
329.750448106
 20
367.4000878814
 40
47.0867334212
100
AcDbArc
 50
358.4382240021
 51
0.4675700063
  0
ARC
  5
4E4
100
AcDbEntity
  8
0
100
AcDbCircle
 62
7
  6
CONTINUOUS
 10
346.2303063693
 20
366.7801680019
 40
30.7451427028
100
AcDbArc
 50
354.5333316337
 51
355.1568838945
  0
ARC
  5
4E5
100
AcDbEntity
  8
0
100
AcDbCircle
 62
7
  6
CONTINUOUS
 10
366.7688953064
 20
274.6793411252
 40
22.0
100
AcDbArc
 50
298.5219171727
 51
309.1486876423
  0
ARC
  5
4E6
100
AcDbEntity
  8
0
100
AcDbCircle
 62
7
  6
CONTINUOUS
 10
366.7688953064
 20
274.6793411252
 40
22.0
100
AcDbArc
 50
231.2605754021
 51
241.4755038334
  0
ARC
  5
4E7
100
AcDbEntity
  8
RUNDUNGEN
100
AcDbCircle
 62
7
  6
CONTINUOUS
 10
366.7688953064
 20
216.1793411252
 40
15.0
100
AcDbArc
 50
134.4271483936
 51
45.5699787499
  0
ARC
  5
4E8
100
AcDbEntity
  8
KONSTRUKTIONSELEMENTE
100
AcDbCircle
 62
7
  6
CONTINUOUS
 10
366.7688953064
 20
221.3043411252
 40
10.5
100
AcDbArc
 50
180.0
 51
360.0
  0
ARC
  5
4E9
100
AcDbEntity
  8
0
100
AcDbCircle
 62
7
  6
CONTINUOUS
 10
391.5675637627
 20
228.6993411252
 40
4.0
100
AcDbArc
 50
174.2608295227
 51
359.3171996582
  0
ARC
  5
4EA
100
AcDbEntity
  8
0
100
AcDbCircle
 62
7
  6
CONTINUOUS
 10
391.5675637627
 20
221.8993411252
 40
4.0
100
AcDbArc
 50
174.2608295227
 51
359.3171996582
  0
ARC
  5
4EB
100
AcDbEntity
  8
RUNDUNGEN
100
AcDbCircle
 62
7
  6
CONTINUOUS
 10
402.5188953064
 20
231.7056205668
 40
3.5
100
AcDbArc
 50
180.0
 51
210.0
  0
ARC
  5
4EC
100
AcDbEntity
  8
RUNDUNGEN
100
AcDbCircle
 62
7
  6
CONTINUOUS
 10
390.1423001741
 20
255.1793410516
 40
3.0
100
AcDbArc
 50
40.0000000001
 51
89.9999986847
  0
ARC
  5
4ED
100
AcDbEntity
  8
RUNDUNGEN
100
AcDbCircle
 62
7
  6
CONTINUOUS
 10
396.0188953064
 20
248.1758876905
 40
3.0
100
AcDbArc
 50
0.0
 51
40.0
  0
ARC
  5
4EE
100
AcDbEntity
  8
RUNDUNGEN
100
AcDbCircle
 62
7
  6
CONTINUOUS
 10
405.0188929109
 20
214.375497697
 40
3.0
100
AcDbArc
 50
359.9999207584
 51
29.9999084996
  0
ARC
  5
4EF
100
AcDbEntity
  8
0
100
AcDbCircle
 62
7
  6
CONTINUOUS
 10
391.5675637627
 20
228.6993411252
 40
2.8
100
AcDbArc
 50
282.3736251162
 51
8.2132107017
  0
ARC
  5
4F0
100
AcDbEntity
  8
0
100
AcDbCircle
 62
7
  6
CONTINUOUS
 10
391.5675637627
 20
228.6993411252
 40
2.8
100
AcDbArc
 50
171.7867892983
 51
257.4447123387
  0
ARC
  5
4F1
100
AcDbEntity
  8
0
100
AcDbCircle
 62
7
  6
CONTINUOUS
 10
391.5675637627
 20
221.8993411252
 40
2.8
100
AcDbArc
 50
171.7867892983
 51
8.2132107017
  0
ARC
  5
4F2
100
AcDbEntity
  8
RUNDUNGEN
100
AcDbCircle
 62
7
  6
CONTINUOUS
 10
382.2366036047
 20
255.6793411252
 40
2.5
100
AcDbArc
 50
90.0
 51
129.1486876423
  0
ARC
  5
4F3
100
AcDbEntity
  8
0
100
AcDbCircle
 62
7
  6
CONTINUOUS
 10
358.9073568864
 20
370.0322383877
 40
18.0686311481
100
AcDbArc
 50
352.8533828429
 51
353.6655932583
  0
ARC
  5
4F4
100
AcDbEntity
  8
0
100
AcDbCircle
 62
7
  6
CONTINUOUS
 10
366.0370429536
 20
371.3988631001
 40
11.2299386939
100
AcDbArc
 50
11.9656386054
 51
12.1726590135
  0
ARC
  5
4F5
100
AcDbEntity
  8
0
100
AcDbCircle
 62
7
  6
CONTINUOUS
 10
366.0770174675
 20
371.4078677474
 40
11.188964243
100
AcDbArc
 50
12.1707477895
 51
16.0991058272
  0
ARC
  5
4F6
100
AcDbEntity
  8
0
100
AcDbCircle
 62
7
  6
CONTINUOUS
 10
366.7570477617
 20
372.1417965314
 40
10.5116264765
100
AcDbArc
 50
15.6244952972
 51
16.8064671127
  0
ARC
  5
4F7
100
AcDbEntity
  8
KONSTRUKTIONSELEMENTE
100
AcDbCircle
 62
7
  6
CONTINUOUS
 10
366.7688953064
 20
372.3043411252
 40
10.5
100
AcDbArc
 50
16.4759724714
 51
180.0
  0
ARC
  5
4F8
100
AcDbEntity
  8
0
100
AcDbCircle
 62
7
  6
CONTINUOUS
 10
366.9500798068
 20
371.9089588305
 40
10.3191405907
100
AcDbArc
 50
15.6793278893
 51
16.6476917691
  0
ARC
  5
4F9
100
AcDbEntity
  8
0
100
AcDbCircle
 62
7
  6
CONTINUOUS
 10
369.1585542237
 20
370.8886910646
 40
8.1103410529
100
AcDbArc
 50
0.0156494652
 51
19.2227050672
  0
ARC
  5
4FA
100
AcDbEntity
  8
0
100
AcDbCircle
 62
7
  6
CONTINUOUS
 10
369.4101607522
 20
374.1320606683
 40
7.4266802731
100
AcDbArc
 50
2.921362684
 51
4.2194848227
  0
ARC
  5
4FB
100
AcDbEntity
  8
0
100
AcDbCircle
 62
7
  6
CONTINUOUS
 10
369.4101607528
 20
374.1053821835
 40
7.4266802726
100
AcDbArc
 50
355.7805151772
 51
357.078637316
  0
ARC
  5
4FC
100
AcDbEntity
  8
0
100
AcDbCircle
 62
7
  6
CONTINUOUS
 10
374.3399328885
 20
374.9128948995
 40
2.4972095699
100
AcDbArc
 50
358.9067196329
 51
1.0932803671
  0
ARC
  5
4FD
100
AcDbEntity
  8
KONSTRUKTIONSELEMENTE
100
AcDbCircle
 62
7
  6
CONTINUOUS
 10
164.4730939207
 20
44.7500458956
 40
10.9475337655
100
AcDbArc
 50
89.9885290635
 51
90.2378678426
  0
ARC
  5
4FE
100
AcDbEntity
  8
0
100
AcDbCircle
 62
7
  6
CONTINUOUS
 10
166.8674501726
 20
45.1975935106
 40
22.0
100
AcDbArc
 50
320.8513123577
 51
328.6930277725
  0
ARC
  5
4FF
100
AcDbEntity
  8
0
100
AcDbCircle
 62
7
  6
CONTINUOUS
 10
166.8674501726
 20
45.1975935106
 40
22.0
100
AcDbArc
 50
31.3069722275
 51
38.7394245979
  0
ARC
  5
500
100
AcDbEntity
  8
RUNDUNGEN
100
AcDbCircle
 62
7
  6
CONTINUOUS
 10
166.8674501726
 20
45.1975935106
 40
22.0
100
AcDbArc
 50
320.8513123577
 51
328.6930277725
  0
ARC
  5
501
100
AcDbEntity
  8
RUNDUNGEN
100
AcDbCircle
 62
7
  6
CONTINUOUS
 10
166.8674501726
 20
45.1975935106
 40
22.0
100
AcDbArc
 50
31.3069722275
 51
38.7394245979
  0
ARC
  5
502
100
AcDbEntity
  8
KONSTRUKTIONSELEMENTE
100
AcDbCircle
 62
7
  6
CONTINUOUS
 10
164.4730609388
 20
45.6464573458
 40
10.9488497862
100
AcDbArc
 50
269.7626309714
 51
270.0119243
  0
ARC
  5
503
100
AcDbEntity
  8
KONSTRUKTIONSELEMENTE
100
AcDbCircle
 62
7
  6
CONTINUOUS
 10
161.3674501726
 20
45.1975935106
 40
10.5
100
AcDbArc
 50
141.7533801217
 51
218.2466198783
  0
ARC
  5
504
100
AcDbEntity
  8
0
100
AcDbCircle
 62
7
  6
CONTINUOUS
 10
178.1350961277
 20
44.4833454541
 40
9.7847548998
100
AcDbArc
 50
258.0909377637
 51
260.0765085735
  0
ARC
  5
505
100
AcDbEntity
  8
0
100
AcDbCircle
 62
7
  6
CONTINUOUS
 10
182.5512472632
 20
42.9433413118
 40
8.2456936299
100
AcDbArc
 50
256.9935199489
 51
259.1525958196
  0
ARC
  5
506
100
AcDbEntity
  8
0
100
AcDbCircle
 62
7
  6
CONTINUOUS
 10
177.739153004
 20
40.3594019258
 40
5.6633625276
100
AcDbArc
 50
256.8305581808
 51
260.3232184121
  0
ARC
  5
507
100
AcDbEntity
  8
0
100
AcDbCircle
 62
7
  6
CONTINUOUS
 10
182.1013568019
 20
38.7955848738
 40
4.1013948168
100
AcDbArc
 50
254.4151870999
 51
257.4787183811
  0
ARC
  5
508
100
AcDbEntity
  8
0
100
AcDbCircle
 62
7
  6
CONTINUOUS
 10
182.0871202835
 20
38.7334195086
 40
4.0376215338
100
AcDbArc
 50
257.4846829344
 51
258.5167250801
  0
ARC
  5
509
100
AcDbEntity
  8
0
100
AcDbCircle
 62
7
  6
CONTINUOUS
 10
192.6100783745
 20
38.0714957835
 40
3.3739023095
100
AcDbArc
 50
258.2315000225
 51
269.9914972594
  0
ARC
  5
50A
100
AcDbEntity
  8
RUNDUNGEN
100
AcDbCircle
 62
7
  6
CONTINUOUS
 10
186.3674501726
 20
15.9475935106
 40
3.0
100
AcDbArc
 50
180.0
 51
270.0
  0
ARC
  5
50B
100
AcDbEntity
  8
RUNDUNGEN
100
AcDbCircle
 62
7
  6
CONTINUOUS
 10
186.3674501726
 20
10.2288574739
 40
3.0
100
AcDbArc
 50
180.0000449366
 51
246.0943170742
  0
ARC
  5
50C
100
AcDbEntity
  8
0
100
AcDbCircle
 62
7
  6
CONTINUOUS
 10
177.4414012442
 20
37.3685737329
 40
2.6732390394
100
AcDbArc
 50
255.834550426
 51
256.7953750914
  0
ARC
  5
50D
100
AcDbEntity
  8
0
100
AcDbCircle
 62
7
  6
CONTINUOUS
 10
177.4377640897
 20
37.3531944619
 40
2.6574355561
100
AcDbArc
 50
256.7959768745
 51
257.1714424641
  0
ARC
  5
50E
100
AcDbEntity
  8
RUNDUNGEN
100
AcDbCircle
 62
7
  6
CONTINUOUS
 10
185.8674501726
 20
29.7298852123
 40
2.5
100
AcDbArc
 50
140.8513123577
 51
180.0
  0
ARC
  5
50F
100
AcDbEntity
  8
RUNDUNGEN
100
AcDbCircle
 62
7
  6
CONTINUOUS
 10
187.8001420813
 20
32.4668274052
 40
2.4999999924
100
AcDbArc
 50
121.9275133047
 51
148.6930131171
  0
ARC
  5
510
100
AcDbEntity
  8
0
100
AcDbCircle
 62
7
  6
CONTINUOUS
 10
181.7531440721
 20
36.0729746241
 40
1.3788716219
100
AcDbArc
 50
250.0778424181
 51
255.3785992112
  0
ARC
  5
511
100
AcDbEntity
  8
0
100
AcDbCircle
 62
7
  6
CONTINUOUS
 10
183.8145097726
 20
60.6842729554
 40
25.9346541694
100
AcDbArc
 50
260.5602230953
 51
261.8508902264
  0
ARC
  5
512
100
AcDbEntity
  8
0
100
AcDbCircle
 62
7
  6
CONTINUOUS
 10
179.1748605152
 20
60.0937427286
 40
25.3442528831
100
AcDbArc
 50
260.4488957061
 51
261.7543238301
  0
ARC
  5
513
100
AcDbEntity
  8
0
100
AcDbCircle
 62
7
  6
CONTINUOUS
 10
178.6309987459
 20
50.7396740852
 40
16.0290266462
100
AcDbArc
 50
258.8817170818
 51
260.9725587086
  0
ARC
  5
514
100
AcDbEntity
  8
0
100
AcDbCircle
 62
7
  6
CONTINUOUS
 10
183.1345403339
 20
49.762387851
 40
15.0521251549
100
AcDbArc
 50
258.5180607851
 51
260.6745483026
  0
ARC
  5
515
100
AcDbEntity
  8
RUNDUNGEN
100
AcDbCircle
 62
7
  6
CONTINUOUS
 10
179.8674501726
 20
45.1975935106
 40
12.5
100
AcDbArc
 50
57.1479530229
 51
58.1251784539
  0
ARC
  5
516
100
AcDbEntity
  8
RUNDUNGEN
100
AcDbCircle
 62
7
  6
CONTINUOUS
 10
179.8674501726
 20
45.1975935106
 40
12.5
100
AcDbArc
 50
301.8722481371
 51
302.8556722675
  0
ARC
  5
517
100
AcDbEntity
  8
RUNDUNGEN
100
AcDbCircle
 62
7
  6
CONTINUOUS
 10
186.3674501726
 20
74.4475935106
 40
3.0
100
AcDbArc
 50
90.0
 51
180.0
  0
ARC
  5
518
100
AcDbEntity
  8
RUNDUNGEN
100
AcDbCircle
 62
7
  6
CONTINUOUS
 10
186.3674501726
 20
80.1663295472
 40
3.0
100
AcDbArc
 50
113.9053769945
 51
179.9999971712
  0
ARC
  5
519
100
AcDbEntity
  8
RUNDUNGEN
100
AcDbCircle
 62
7
  6
CONTINUOUS
 10
186.3674501726
 20
60.8420813577
 40
3.0
100
AcDbArc
 50
180.0
 51
218.7394245979
  0
ARC
  5
51A
100
AcDbEntity
  8
RUNDUNGEN
100
AcDbCircle
 62
7
  6
CONTINUOUS
 10
187.8001424802
 20
57.9283591102
 40
2.5
100
AcDbArc
 50
211.3069722275
 51
238.0724728042
  0
ARC
  5
51B
100
AcDbEntity
  8
RUNDUNGEN
100
AcDbCircle
 62
7
  6
CONTINUOUS
 10
187.7869722865
 20
57.9365559956
 40
2.4999998446
100
AcDbArc
 50
212.5502064668
 51
238.1317268081
  0
ARC
  5
51C
100
AcDbEntity
  8
0
100
AcDbCircle
 62
7
  6
CONTINUOUS
 10
200.4571993325
 20
162.9794473506
 40
127.850140816
100
AcDbArc
 50
269.052196367
 51
270.2838238596
  0
ARC
  5
51D
100
AcDbEntity
  8
0
100
AcDbCircle
 62
7
  6
CONTINUOUS
 10
196.5337339041
 20
162.5746443027
 40
127.4452980253
100
AcDbArc
 50
269.8469513713
 51
270.1530486287
  0
ARC
  5
51E
100
AcDbEntity
  8
0
100
AcDbCircle
 62
7
  6
CONTINUOUS
 10
192.4084276736
 20
151.5264027407
 40
116.3967160403
100
AcDbArc
 50
268.935429554
 51
269.2636381928
  0
ARC
  5
51F
100
AcDbEntity
  8
0
100
AcDbCircle
 62
7
  6
CONTINUOUS
 10
192.5278107224
 20
151.5264027378
 40
116.3967160373
100
AcDbArc
 50
270.7363618072
 51
271.064570446
  0
ARC
  5
520
100
AcDbEntity
  8
0
100
AcDbCircle
 62
7
  6
CONTINUOUS
 10
178.5305120852
 20
116.0814360761
 40
80.9521292864
100
AcDbArc
 50
268.8088828697
 51
270.3566568184
  0
ARC
  5
521
100
AcDbEntity
  8
0
100
AcDbCircle
 62
7
  6
CONTINUOUS
 10
183.6410095302
 20
111.1842055008
 40
76.1927142013
100
AcDbArc
 50
266.5338017046
 51
266.9303846716
  0
ARC
  5
522
100
AcDbEntity
  8
0
100
AcDbCircle
 62
7
  6
CONTINUOUS
 10
178.695534115
 20
98.5071968094
 40
63.5157660347
100
AcDbArc
 50
266.2026827028
 51
266.6369717982
  0
ARC
  5
523
100
AcDbEntity
  8
0
100
AcDbCircle
 62
7
  6
CONTINUOUS
 10
174.0511528557
 20
96.2737482547
 40
61.1444412397
100
AcDbArc
 50
268.629465975
 51
270.41035084
  0
ARC
  5
524
100
AcDbEntity
  8
0
100
AcDbCircle
 62
7
  6
CONTINUOUS
 10
204.1573037811
 20
41.4425761643
 40
6.7405952847
100
AcDbArc
 50
252.5697524311
 51
255.7565196065
  0
ARC
  5
525
100
AcDbEntity
  8
0
100
AcDbCircle
 62
7
  6
CONTINUOUS
 10
217.3969551239
 20
40.3830306287
 40
5.6891631378
100
AcDbArc
 50
283.1653970729
 51
286.629870571
  0
ARC
  5
526
100
AcDbEntity
  8
RUNDUNGEN
100
AcDbCircle
 62
7
  6
CONTINUOUS
 10
217.3674501726
 20
15.9475935106
 40
3.0
100
AcDbArc
 50
270.0
 51
360.0
  0
ARC
  5
527
100
AcDbEntity
  8
RUNDUNGEN
100
AcDbCircle
 62
7
  6
CONTINUOUS
 10
217.3674501726
 20
10.2288574739
 40
3.0
100
AcDbArc
 50
293.9054283119
 51
359.9999997994
  0
ARC
  5
528
100
AcDbEntity
  8
RUNDUNGEN
100
AcDbCircle
 62
7
  6
CONTINUOUS
 10
217.8674501726
 20
29.7298852123
 40
2.5
100
AcDbArc
 50
0.0
 51
39.1486876423
  0
ARC
  5
529
100
AcDbEntity
  8
RUNDUNGEN
100
AcDbCircle
 62
7
  6
CONTINUOUS
 10
215.9347578649
 20
32.466827911
 40
2.5
100
AcDbArc
 50
31.3069722275
 51
43.8382572042
  0
ARC
  5
52A
100
AcDbEntity
  8
RUNDUNGEN
100
AcDbCircle
 62
7
  6
CONTINUOUS
 10
215.9479323655
 20
32.458628391
 40
2.4999998081
100
AcDbArc
 50
32.5504964493
 51
44.1107364201
  0
ARC
  5
52B
100
AcDbEntity
  8
0
100
AcDbCircle
 62
7
  6
CONTINUOUS
 10
203.4194643936
 20
36.5765891437
 40
1.9046728218
100
AcDbArc
 50
241.0951170537
 51
245.386211085
  0
ARC
  5
52C
100
AcDbEntity
  8
0
100
AcDbCircle
 62
7
  6
CONTINUOUS
 10
215.3381527894
 20
36.5712303387
 40
1.8786193935
100
AcDbArc
 50
286.5047086961
 51
288.5047686587
  0
ARC
  5
52D
100
AcDbEntity
  8
0
100
AcDbCircle
 62
7
  6
CONTINUOUS
 10
201.8674501726
 20
45.1975935106
 40
41.5
100
AcDbArc
 50
337.3225971215
 51
345.8060713446
  0
ARC
  5
52E
100
AcDbEntity
  8
0
100
AcDbCircle
 62
7
  6
CONTINUOUS
 10
201.8674501726
 20
45.1975935106
 40
41.5
100
AcDbArc
 50
14.1948857184
 51
25.3223719953
  0
ARC
  5
52F
100
AcDbEntity
  8
RUNDUNGEN
100
AcDbCircle
 62
7
  6
CONTINUOUS
 10
201.8674501726
 20
45.1975935106
 40
41.25
100
AcDbArc
 50
14.3724048479
 51
165.6274877125
  0
ARC
  5
530
100
AcDbEntity
  8
RUNDUNGEN
100
AcDbCircle
 62
7
  6
CONTINUOUS
 10
201.8674501726
 20
45.1975935106
 40
41.25
100
AcDbArc
 50
194.3725109607
 51
345.6274152488
  0
ARC
  5
531
100
AcDbEntity
  8
0
100
AcDbCircle
 62
7
  6
CONTINUOUS
 10
215.2305211096
 20
75.1223840305
 40
40.3274328307
100
AcDbArc
 50
276.299751448
 51
277.0350212469
  0
ARC
  5
532
100
AcDbEntity
  8
0
100
AcDbCircle
 62
7
  6
CONTINUOUS
 10
209.8686911768
 20
55.8544310957
 40
21.142042591
100
AcDbArc
 50
275.7515763149
 51
278.4555195331
  0
ARC
  5
533
100
AcDbEntity
  8
0
100
AcDbCircle
 62
7
  6
CONTINUOUS
 10
216.2275307426
 20
53.3893692742
 40
18.6683546397
100
AcDbArc
 50
278.618672623
 51
280.5814236841
  0
ARC
  5
534
100
AcDbEntity
  8
0
100
AcDbCircle
 62
7
  6
CONTINUOUS
 10
205.1746025001
 20
52.3043293565
 40
17.5573900508
100
AcDbArc
 50
258.4770601749
 51
260.0410928555
  0
ARC
  5
535
100
AcDbEntity
  8
0
100
AcDbCircle
 62
7
  6
CONTINUOUS
 10
213.8753272239
 20
48.2781291522
 40
13.5630622284
100
AcDbArc
 50
280.0617655172
 51
284.1976724088
  0
ARC
  5
536
100
AcDbEntity
  8
RUNDUNGEN
100
AcDbCircle
 62
7
  6
CONTINUOUS
 10
217.3674501726
 20
80.1663295472
 40
3.0
100
AcDbArc
 50
0.0000517236
 51
66.0943149491
  0
ARC
  5
537
100
AcDbEntity
  8
RUNDUNGEN
100
AcDbCircle
 62
7
  6
CONTINUOUS
 10
217.3674501726
 20
74.4475935106
 40
3.0
100
AcDbArc
 50
0.0
 51
90.0
  0
ARC
  5
538
100
AcDbEntity
  8
RUNDUNGEN
100
AcDbCircle
 62
7
  6
CONTINUOUS
 10
217.3674501726
 20
60.8420813577
 40
3.0
100
AcDbArc
 50
321.2605754021
 51
360.0
  0
ARC
  5
539
100
AcDbEntity
  8
RUNDUNGEN
100
AcDbCircle
 62
7
  6
CONTINUOUS
 10
215.9347583104
 20
57.9283596769
 40
2.4999999916
100
AcDbArc
 50
301.9275116606
 51
328.6930113691
  0
ARC
  5
53A
100
AcDbEntity
  8
KONSTRUKTIONSELEMENTE
100
AcDbCircle
 62
7
  6
CONTINUOUS
 10
239.2612699925
 20
44.5870496292
 40
11.1105297608
100
AcDbArc
 50
88.9184943536
 51
90.0088164206
  0
ARC
  5
53B
100
AcDbEntity
  8
0
100
AcDbCircle
 62
7
  6
CONTINUOUS
 10
230.1876604917
 20
36.3151280028
 40
1.7304524747
100
AcDbArc
 50
224.5662303591
 51
228.8813179478
  0
ARC
  5
53C
100
AcDbEntity
  8
0
100
AcDbCircle
 62
7
  6
CONTINUOUS
 10
231.5902290375
 20
66.6876643349
 40
31.6966029667
100
AcDbArc
 50
264.6164831542
 51
265.2306407045
  0
ARC
  5
53D
100
AcDbEntity
  8
RUNDUNGEN
100
AcDbCircle
 62
7
  6
CONTINUOUS
 10
236.8674501726
 20
45.1975935106
 40
22.0
100
AcDbArc
 50
211.3069722275
 51
219.1486876423
  0
ARC
  5
53E
100
AcDbEntity
  8
RUNDUNGEN
100
AcDbCircle
 62
7
  6
CONTINUOUS
 10
236.8674501726
 20
45.1975935106
 40
22.0
100
AcDbArc
 50
141.2605754021
 51
148.6930277725
  0
ARC
  5
53F
100
AcDbEntity
  8
0
100
AcDbCircle
 62
7
  6
CONTINUOUS
 10
224.5409329668
 20
47.4184135464
 40
12.6298912015
100
AcDbArc
 50
257.2785808414
 51
258.5822050336
  0
ARC
  5
540
100
AcDbEntity
  8
RUNDUNGEN
100
AcDbCircle
 62
7
  6
CONTINUOUS
 10
223.8674501726
 20
45.1975935106
 40
12.5
100
AcDbArc
 50
121.8722583998
 51
122.8410273286
  0
ARC
  5
541
100
AcDbEntity
  8
KONSTRUKTIONSELEMENTE
100
AcDbCircle
 62
7
  6
CONTINUOUS
 10
239.2618238351
 20
45.6508080844
 40
10.9532006168
100
AcDbArc
 50
269.9887648585
 51
270.259506113
  0
ARC
  5
542
100
AcDbEntity
  8
KONSTRUKTIONSELEMENTE
100
AcDbCircle
 62
7
  6
CONTINUOUS
 10
242.3674501726
 20
45.1975935106
 40
10.5
100
AcDbArc
 50
321.7533801217
 51
38.2466198783
  0
ARC
  5
543
100
AcDbEntity
  8
0
100
AcDbCircle
 62
7
  6
CONTINUOUS
 10
217.2022366467
 20
144.2667746448
 40
109.1374282513
100
AcDbArc
 50
269.999829779
 51
270.330863403
  0
ARC
  5
544
100
AcDbEntity
  8
0
100
AcDbCircle
 62
7
  6
CONTINUOUS
 10
221.0229334135
 20
132.9152699197
 40
97.7859235271
100
AcDbArc
 50
269.9417708664
 51
270.0582278009
  0
ARC
  5
545
100
AcDbEntity
  8
0
100
AcDbCircle
 62
7
  6
CONTINUOUS
 10
216.7235342519
 20
128.5710669496
 40
93.5360137802
100
AcDbArc
 50
272.1114153487
 51
272.5736009891
  0
ARC
  5
546
100
AcDbEntity
  8
0
100
AcDbCircle
 62
7
  6
CONTINUOUS
 10
206.1345059318
 20
126.3591457255
 40
91.3676042808
100
AcDbArc
 50
266.8353561101
 51
267.1975603787
  0
ARC
  5
547
100
AcDbEntity
  8
0
100
AcDbCircle
 62
7
  6
CONTINUOUS
 10
217.2694932186
 20
121.6262640962
 40
86.7902605075
100
AcDbArc
 50
267.1653927921
 51
267.7270920325
  0
ARC
  5
548
100
AcDbEntity
  8
0
100
AcDbCircle
 62
7
  6
CONTINUOUS
 10
228.153628108
 20
103.4069431466
 40
68.2776362278
100
AcDbArc
 50
268.7030327302
 51
270.3883366224
  0
ARC
  5
549
100
AcDbEntity
  8
0
100
AcDbCircle
 62
7
  6
CONTINUOUS
 10
224.67542098
 20
101.9619066288
 40
66.9268926204
100
AcDbArc
 50
266.9567686771
 51
267.5030699758
  0
SPLINE
  5
54A
100
AcDbEntity
  8
KONSTRUKTIONSELEMENTE
100
AcDbSpline
 62
7
  6
CONTINUOUS
 70
0
 71
3
 72
30
 73
26
 74
0
 42
0.0000001
 43
0.0000001
 44
0.0000000001
 40
0.0
 40
0.0
 40
0.0
 40
0.0
 40
0.1243163296
 40
0.1865845323
 40
0.248942644
 40
0.3114226029
 40
0.3427342089
 40
0.3741040915
 40
0.4055496246
 40
0.4370959374
 40
0.4687756287
 40
0.5006119535
 40
0.5166281566
 40
0.5326606872
 40
0.5486676991
 40
0.5646118717
 40
0.5961711299
 40
0.6275276195
 40
0.6587478159
 40
0.6898863842
 40
0.7520082639
 40
0.8140518994
 40
0.8760546625
 40
0.938034262
 40
1.0
 40
1.0
 40
1.0
 40
1.0
 10
154.0932441566
 20
276.8043411252
 30
0.0
 10
154.5364361407
 20
275.3730238754
 30
0.0
 10
155.2823534371
 20
273.2477082135
 30
0.0
 10
156.4741224353
 20
270.4928830156
 30
0.0
 10
157.4845456202
 20
268.4752636319
 30
0.0
 10
158.442671391
 20
266.8527071022
 30
0.0
 10
159.2986127933
 20
265.6097652385
 30
0.0
 10
159.9943272967
 20
264.7126713795
 30
0.0
 10
160.7537505186
 20
263.8644947589
 30
0.0
 10
161.5922175492
 20
263.0870923386
 30
0.0
 10
162.5287591233
 20
262.4204924194
 30
0.0
 10
163.4130729916
 20
262.0219017225
 30
0.0
 10
164.1722857614
 20
261.8731043942
 30
0.0
 10
164.7554477221
 20
261.8696858165
 30
0.0
 10
165.3260969287
 20
261.9878221935
 30
0.0
 10
166.0321198063
 20
262.29601906
 30
0.0
 10
166.7815529334
 20
262.9065107345
 30
0.0
 10
167.4743697113
 20
263.8114885415
 30
0.0
 10
168.0258790588
 20
264.8003340124
 30
0.0
 10
168.6250106976
 20
266.1775359931
 30
0.0
 10
169.193213031
 20
267.9653327407
 30
0.0
 10
169.7040145902
 20
270.1513164739
 30
0.0
 10
170.1012015659
 20
272.3587685267
 30
0.0
 10
170.4188003087
 20
274.5776538572
 30
0.0
 10
170.591581363
 20
276.061671635
 30
0.0
 10
170.6706024392
 20
276.8043411252
 30
0.0
  0
SPLINE
  5
54B
100
AcDbEntity
  8
KONSTRUKTIONSELEMENTE
100
AcDbSpline
 62
7
  6
CONTINUOUS
 70
0
 71
3
 72
30
 73
26
 74
0
 42
0.0000001
 43
0.0000001
 44
0.0000000001
 40
0.0
 40
0.0
 40
0.0
 40
0.0
 40
0.0619657097
 40
0.1239452818
 40
0.1859480192
 40
0.2479916262
 40
0.3101134842
 40
0.3412520385
 40
0.3724722022
 40
0.4038286368
 40
0.435387805
 40
0.4513321468
 40
0.4673393581
 40
0.4833719828
 40
0.4993882158
 40
0.5312247625
 40
0.5629044194
 40
0.5944507107
 40
0.625896234
 40
0.6572661078
 40
0.6885776977
 40
0.7510575968
 40
0.8134156576
 40
0.8756838062
 40
1.0
 40
1.0
 40
1.0
 40
1.0
 10
170.6706024392
 20
316.8043411252
 30
0.0
 10
170.5915814012
 20
317.5470102566
 30
0.0
 10
170.4188004454
 20
319.0310273319
 30
0.0
 10
170.1012017384
 20
321.2499116073
 30
0.0
 10
169.7040155066
 20
323.4573627456
 30
0.0
 10
169.1932136285
 20
325.6433453893
 30
0.0
 10
168.6250126419
 20
327.4311416659
 30
0.0
 10
168.0258820183
 20
328.8083431546
 30
0.0
 10
167.4743733099
 20
329.7971875887
 30
0.0
 10
166.7815584085
 20
330.7021638406
 30
0.0
 10
166.0321276969
 20
331.3126585874
 30
0.0
 10
165.3261024235
 20
331.6208587154
 30
0.0
 10
164.7554474663
 20
331.7389960383
 30
0.0
 10
164.172281751
 20
331.7355751584
 30
0.0
 10
163.4130644692
 20
331.5867790443
 30
0.0
 10
162.5287504427
 20
331.1881813729
 30
0.0
 10
161.5922067521
 20
330.5215818734
 30
0.0
 10
160.7537409997
 20
329.7441789576
 30
0.0
 10
159.9943191338
 20
328.8960018857
 30
0.0
 10
159.298606177
 20
327.9989073642
 30
0.0
 10
158.4426670342
 20
326.7559652903
 30
0.0
 10
157.4845401564
 20
325.133411289
 30
0.0
 10
156.4741195419
 20
323.1157928204
 30
0.0
 10
155.2823523829
 20
320.3609701418
 30
0.0
 10
154.5364356446
 20
318.235656773
 30
0.0
 10
154.0932441566
 20
316.8043411252
 30
0.0
  0
SPLINE
  5
54C
100
AcDbEntity
  8
KONSTRUKTIONSELEMENTE
100
AcDbSpline
 62
7
  6
CONTINUOUS
 70
0
 71
3
 72
30
 73
26
 74
0
 42
0.0000001
 43
0.0000001
 44
0.0000000001
 40
0.0
 40
0.0
 40
0.0
 40
0.0
 40
0.1243163521
 40
0.1865845692
 40
0.2489426897
 40
0.3114226358
 40
0.3427342372
 40
0.3741041147
 40
0.4055496297
 40
0.4370958745
 40
0.4687754025
 40
0.500611783
 40
0.5166277539
 40
0.5326600068
 40
0.548666721
 40
0.5646108526
 40
0.5961705311
 40
0.6275272031
 40
0.6587474344
 40
0.6898860852
 40
0.7520080809
 40
0.8140517668
 40
0.8760545824
 40
0.938034224
 40
1.0
 40
1.0
 40
1.0
 40
1.0
 10
249.6416561885
 20
316.8043411252
 30
0.0
 10
249.1984641601
 20
318.2356585182
 30
0.0
 10
248.4525466087
 20
320.3609743835
 30
0.0
 10
247.2607775589
 20
323.1157998528
 30
0.0
 10
246.2503552378
 20
325.1334196699
 30
0.0
 10
245.292227645
 20
326.7559748209
 30
0.0
 10
244.4362870515
 20
327.9989167041
 30
0.0
 10
243.7405735248
 20
328.8960108425
 30
0.0
 10
242.9811514379
 20
329.7441866777
 30
0.0
 10
242.1426866641
 20
330.5215878148
 30
0.0
 10
241.2061438438
 20
331.188179974
 30
0.0
 10
240.3218380852
 20
331.586781263
 30
0.0
 10
239.5626291811
 20
331.7355686582
 30
0.0
 10
238.9794775236
 20
331.7389948556
 30
0.0
 10
238.4088351416
 20
331.6208651661
 30
0.0
 10
237.7028018339
 20
331.3126888761
 30
0.0
 10
236.9533678017
 20
330.7021833616
 30
0.0
 10
236.2605401909
 20
329.7972067539
 30
0.0
 10
235.7090235434
 20
328.8083604287
 30
0.0
 10
235.1098914533
 20
327.4311557236
 30
0.0
 10
234.5416909065
 20
325.6433554675
 30
0.0
 10
234.0308853083
 20
323.4573702087
 30
0.0
 10
233.6336997126
 20
321.2499162501
 30
0.0
 10
233.3161001258
 20
319.0310296441
 30
0.0
 10
233.1433190241
 20
317.5470110104
 30
0.0
 10
233.0642979059
 20
316.8043411252
 30
0.0
  0
SPLINE
  5
54D
100
AcDbEntity
  8
KONSTRUKTIONSELEMENTE
100
AcDbSpline
 62
7
  6
CONTINUOUS
 70
0
 71
3
 72
30
 73
26
 74
0
 42
0.0000001
 43
0.0000001
 44
0.0000000001
 40
0.0
 40
0.0
 40
0.0
 40
0.0
 40
0.0619657252
 40
0.1239453123
 40
0.1859480633
 40
0.2479916846
 40
0.3101135485
 40
0.3412521034
 40
0.3724722751
 40
0.4038286917
 40
0.4353878207
 40
0.451332128
 40
0.4673393475
 40
0.4833719334
 40
0.4993881326
 40
0.531224485
 40
0.562904173
 40
0.594450488
 40
0.6258960285
 40
0.6572659178
 40
0.6885775268
 40
0.7510574708
 40
0.8134155645
 40
0.8756837427
 40
1.0
 40
1.0
 40
1.0
 40
1.0
 10
233.0642979059
 20
276.8043411252
 30
0.0
 10
233.1433189652
 20
276.0616717933
 30
0.0
 10
233.3160999782
 20
274.577654327
 30
0.0
 10
233.6336987005
 20
272.3587694677
 30
0.0
 10
234.0308853646
 20
270.1513178458
 30
0.0
 10
234.5416869883
 20
267.9653346697
 30
0.0
 10
235.1098887176
 20
266.1775383075
 30
0.0
 10
235.7090199065
 20
264.8003368361
 30
0.0
 10
236.260528225
 20
263.8114924018
 30
0.0
 10
236.9533426892
 20
262.9065161368
 30
0.0
 10
237.702774164
 20
262.2960245502
 30
0.0
 10
238.4087979098
 20
261.9878230143
 30
0.0
 10
238.9794521167
 20
261.8696859338
 30
0.0
 10
239.5626171295
 20
261.8731051759
 30
0.0
 10
240.3218308694
 20
262.0219026341
 30
0.0
 10
241.2061442982
 20
262.4204950056
 30
0.0
 10
242.1426861823
 20
263.0870948372
 30
0.0
 10
242.9811530604
 20
263.8644975951
 30
0.0
 10
243.7405761125
 20
264.7126746065
 30
0.0
 10
244.4362902996
 20
265.6097689749
 30
0.0
 10
245.2922308207
 20
266.8527113335
 30
0.0
 10
246.2503573274
 20
268.4752669707
 30
0.0
 10
247.2607793516
 20
270.4928861883
 30
0.0
 10
248.4525474145
 20
273.2477102255
 30
0.0
 10
249.1984644655
 20
275.3730247183
 30
0.0
 10
249.6416561885
 20
276.8043411252
 30
0.0
  0
SPLINE
  5
54E
100
AcDbEntity
  8
0
100
AcDbSpline
 62
7
  6
CONTINUOUS
 70
0
 71
3
 72
9
 73
5
 74
0
 42
0.0000001
 43
0.0000001
 44
0.0000000001
 40
0.0
 40
0.0
 40
0.0
 40
0.0
 40
0.2433830278
 40
1.0
 40
1.0
 40
1.0
 40
1.0
 10
376.9549954754
 20
364.2731160853
 30
0.0
 10
376.9480289147
 20
364.2656479674
 30
0.0
 10
376.9191044753
 20
364.2352445684
 30
0.0
 10
376.8890034014
 20
364.2059651077
 30
0.0
 10
376.8656768612
 20
364.184426367
 30
0.0
  0
LINE
  5
54F
100
AcDbEntity
  8
0
100
AcDbLine
 62
7
  6
CONTINUOUS
 10
377.2687179078
 20
370.2633872415
 11
377.2687411699
 21
370.1680072448
  0
LINE
  5
550
100
AcDbEntity
  8
0
100
AcDbLine
 62
7
  6
CONTINUOUS
 10
377.2687411699
 20
370.1680072448
 11
377.2686854258
 21
369.6911329644
  0
LINE
  5
551
100
AcDbEntity
  8
0
100
AcDbLine
 62
7
  6
CONTINUOUS
 10
376.8852381119
 20
374.6977384887
 11
376.8905152655
 21
374.6788696137
  0
SPLINE
  5
552
100
AcDbEntity
  8
0
100
AcDbSpline
 62
7
  6
CONTINUOUS
 70
0
 71
3
 72
9
 73
5
 74
0
 42
0.0000001
 43
0.0000001
 44
0.0000000001
 40
0.0
 40
0.0
 40
0.0
 40
0.0
 40
0.2526158912
 40
1.0
 40
1.0
 40
1.0
 40
1.0
 10
376.8196897515
 20
366.1167503582
 30
0.0
 10
376.8763233823
 20
365.9675562501
 30
0.0
 10
377.0807640925
 20
365.3696764013
 30
0.0
 10
377.2031427666
 20
364.7435370357
 30
0.0
 10
377.2439334426
 20
364.273167967
 30
0.0
  0
SPLINE
  5
553
100
AcDbEntity
  8
0
100
AcDbSpline
 62
7
  6
CONTINUOUS
 70
0
 71
3
 72
9
 73
5
 74
0
 42
0.0000001
 43
0.0000001
 44
0.0000000001
 40
0.0
 40
0.0
 40
0.0
 40
0.0
 40
0.737911552
 40
1.0
 40
1.0
 40
1.0
 40
1.0
 10
376.8356136439
 20
375.281658419
 30
0.0
 10
376.838934968
 20
375.2566542929
 30
0.0
 10
376.8356810153
 20
375.2212069435
 30
0.0
 10
376.8233989952
 20
375.1892815603
 30
0.0
 10
376.819689746
 20
375.1811266347
 30
0.0
  0
LINE
  5
554
100
AcDbEntity
  8
0
100
AcDbLine
 62
7
  6
CONTINUOUS
 10
376.8802434577
 20
374.9729094014
 11
376.8835978282
 21
374.9608877609
  0
SPLINE
  5
555
100
AcDbEntity
  8
0
100
AcDbSpline
 62
7
  6
CONTINUOUS
 70
0
 71
3
 72
9
 73
5
 74
0
 42
0.0000001
 43
0.0000001
 44
0.0000000001
 40
0.0
 40
0.0
 40
0.0
 40
0.0
 40
0.505608273
 40
1.0
 40
1.0
 40
1.0
 40
1.0
 10
376.8196897542
 20
361.8634418989
 30
0.0
 10
376.9655436911
 20
361.5295203624
 30
0.0
 10
377.1914022432
 20
360.839360847
 30
0.0
 10
377.2688939669
 20
360.1166792782
 30
0.0
 10
377.2688948551
 20
359.7603771721
 30
0.0
  0
SPLINE
  5
556
100
AcDbEntity
  8
KONSTRUKTIONSELEMENTE
100
AcDbSpline
 62
7
  6
CONTINUOUS
 70
0
 71
3
 72
12
 73
8
 74
0
 42
0.0000001
 43
0.0000001
 44
0.0000000001
 40
0.0
 40
0.0
 40
0.0
 40
0.0
 40
0.1747599324
 40
0.3809461722
 40
0.6375970899
 40
0.7999986465
 40
1.0
 40
1.0
 40
1.0
 40
1.0
 10
249.6416561885
 20
38.6975935106
 30
0.0
 10
249.1427064343
 20
38.2658227049
 30
0.0
 10
247.984377268
 20
37.4044439247
 30
0.0
 10
245.8747811709
 20
36.2321787583
 30
0.0
 10
243.6606189885
 20
35.3818826427
 30
0.0
 10
241.3846453442
 20
34.8374194841
 30
0.0
 10
240.0147180224
 20
34.6974547172
 30
0.0
 10
239.259584514
 20
34.6976065932
 30
0.0
  0
SPLINE
  5
557
100
AcDbEntity
  8
KONSTRUKTIONSELEMENTE
100
AcDbSpline
 62
7
  6
CONTINUOUS
 70
0
 71
3
 72
12
 73
8
 74
0
 42
0.0000001
 43
0.0000001
 44
0.0000000001
 40
0.0
 40
0.0
 40
0.0
 40
0.0
 40
0.2000027799
 40
0.3624039401
 40
0.6190542732
 40
0.8252402172
 40
1.0
 40
1.0
 40
1.0
 40
1.0
 10
164.4752749367
 20
34.6976075862
 30
0.0
 10
163.7201387685
 20
34.6974543778
 30
0.0
 10
162.3502129418
 20
34.83742841
 30
0.0
 10
160.0742472477
 20
35.3818934811
 30
0.0
 10
157.8600990482
 20
36.2321889828
 30
0.0
 10
155.7505149821
 20
37.4044495578
 30
0.0
 10
154.5921916827
 20
38.265824633
 30
0.0
 10
154.0932441566
 20
38.6975935106
 30
0.0
  0
SPLINE
  5
558
100
AcDbEntity
  8
KONSTRUKTIONSELEMENTE
100
AcDbSpline
 62
7
  6
CONTINUOUS
 70
0
 71
3
 72
12
 73
8
 74
0
 42
0.0000001
 43
0.0000001
 44
0.0000000001
 40
0.0
 40
0.0
 40
0.0
 40
0.0
 40
0.2000018243
 40
0.3624029096
 40
0.6190535121
 40
0.8252398234
 40
1.0
 40
1.0
 40
1.0
 40
1.0
 10
239.259677438
 20
55.6975793425
 30
0.0
 10
240.0148065398
 20
55.6977304978
 30
0.0
 10
241.3847214002
 20
55.5577506167
 30
0.0
 10
243.6606733248
 20
55.0132874232
 30
0.0
 10
245.8748124766
 20
54.1629924482
 30
0.0
 10
247.9843896526
 20
52.9907344003
 30
0.0
 10
249.1427098235
 20
52.1293613833
 30
0.0
 10
249.6416561885
 20
51.6975935106
 30
0.0
  0
SPLINE
  5
559
100
AcDbEntity
  8
KONSTRUKTIONSELEMENTE
100
AcDbSpline
 62
7
  6
CONTINUOUS
 70
0
 71
3
 72
12
 73
8
 74
0
 42
0.0000001
 43
0.0000001
 44
0.0000000001
 40
0.0
 40
0.0
 40
0.0
 40
0.0
 40
0.1747596007
 40
0.3809454499
 40
0.6375960072
 40
0.7999976373
 40
1.0
 40
1.0
 40
1.0
 40
1.0
 10
154.0932441566
 20
51.6975935106
 30
0.0
 10
154.5921939713
 20
52.1293643686
 30
0.0
 10
155.7505233235
 20
52.9907432611
 30
0.0
 10
157.8601200128
 20
54.1630085574
 30
0.0
 10
160.0742842015
 20
55.0133071726
 30
0.0
 10
162.3502656988
 20
55.5577663219
 30
0.0
 10
163.7202001303
 20
55.6977390316
 30
0.0
 10
164.4753389721
 20
55.6975792267
 30
0.0
  0
SPLINE
  5
55A
100
AcDbEntity
  8
0
100
AcDbSpline
 62
7
  6
CONTINUOUS
 70
0
 71
3
 72
9
 73
5
 74
0
 42
0.0000001
 43
0.0000001
 44
0.0000000001
 40
0.0
 40
0.0
 40
0.0
 40
0.0
 40
0.1906464647
 40
1.0
 40
1.0
 40
1.0
 40
1.0
 10
181.4155826201
 20
34.7069830953
 30
0.0
 10
181.41460971
 20
34.7088774107
 30
0.0
 10
181.410114534
 20
34.7191222537
 30
0.0
 10
181.4072117583
 20
34.7299735068
 30
0.0
 10
181.405074414
 20
34.7387578266
 30
0.0
  0
SPLINE
  5
55B
100
AcDbEntity
  8
0
100
AcDbSpline
 62
7
  6
CONTINUOUS
 70
0
 71
3
 72
9
 73
5
 74
0
 42
0.0000001
 43
0.0000001
 44
0.0000000001
 40
0.0
 40
0.0
 40
0.0
 40
0.0
 40
0.2448445858
 40
1.0
 40
1.0
 40
1.0
 40
1.0
 10
222.2051890364
 20
34.9318252254
 30
0.0
 10
222.1913550198
 20
34.9398699182
 30
0.0
 10
222.135260311
 20
34.9734219059
 30
0.0
 10
222.0808163486
 20
35.009721263
 30
0.0
 10
222.0406971703
 20
35.0384711909
 30
0.0
  0
SPLINE
  5
55C
100
AcDbEntity
  8
0
100
AcDbSpline
 62
7
  6
CONTINUOUS
 70
0
 71
3
 72
12
 73
8
 74
0
 42
0.0000001
 43
0.0000001
 44
0.0000000001
 40
0.0
 40
0.0
 40
0.0
 40
0.0
 40
0.0795734965
 40
0.1858702619
 40
0.4548668411
 40
0.7480876645
 40
1.0
 40
1.0
 40
1.0
 40
1.0
 10
211.9874501726
 20
34.8188225892
 30
0.0
 10
211.8926271281
 20
34.8447712831
 30
0.0
 10
211.6674726336
 20
34.8917699572
 30
0.0
 10
211.1103722225
 20
34.9677358477
 30
0.0
 10
210.2827020995
 20
34.9971087105
 30
0.0
 10
209.2777964513
 20
34.931664626
 30
0.0
 10
208.6103838725
 20
34.8389742839
 30
0.0
 10
208.3028562928
 20
34.791135503
 30
0.0
  0
SPLINE
  5
55D
100
AcDbEntity
  8
0
100
AcDbSpline
 62
7
  6
CONTINUOUS
 70
0
 71
3
 72
11
 73
7
 74
0
 42
0.0000001
 43
0.0000001
 44
0.0000000001
 40
0.0
 40
0.0
 40
0.0
 40
0.0
 40
0.3701449044
 40
0.6655709294
 40
0.8775821907
 40
1.0
 40
1.0
 40
1.0
 40
1.0
 10
208.3028562928
 20
34.791135503
 30
0.0
 10
208.2228327641
 20
34.7786870974
 30
0.0
 10
208.079033285
 20
34.7558466164
 30
0.0
 10
207.8893675078
 20
34.7254458545
 30
0.0
 10
207.7530477209
 20
34.7062799534
 30
0.0
 10
207.6801455358
 20
34.697577676
 30
0.0
 10
207.6533611012
 20
34.6976002062
 30
0.0
  0
LINE
  5
55E
100
AcDbEntity
  8
0
100
AcDbLine
 62
7
  6
CONTINUOUS
 10
223.6254166292
 20
34.6977803545
 11
223.5881617223
 21
34.6977746478
  0
LINE
  5
55F
100
AcDbEntity
  8
0
100
AcDbLine
 62
7
  6
CONTINUOUS
 10
223.5881617223
 20
34.6977746478
 11
222.335778544
 21
34.6977912113
  0
LINE
  5
560
100
AcDbEntity
  8
0
100
AcDbLine
 62
7
  6
CONTINUOUS
 10
189.8225557209
 20
34.6977709091
 11
188.3476113124
 21
34.6977993174
  0
LINE
  5
561
100
AcDbEntity
  8
0
100
AcDbLine
 62
7
  6
CONTINUOUS
 10
188.3476113124
 20
34.6977993174
 11
188.3239306379
 21
34.6978033911
  0
SPLINE
  5
562
100
AcDbEntity
  8
0
100
AcDbSpline
 62
7
  6
CONTINUOUS
 70
0
 71
3
 72
9
 73
5
 74
0
 42
0.0000001
 43
0.0000001
 44
0.0000000001
 40
0.0
 40
0.0
 40
0.0
 40
0.0
 40
0.5058495975
 40
1.0
 40
1.0
 40
1.0
 40
1.0
 10
226.6082036835
 20
35.1467990492
 30
0.0
 10
226.2783315908
 20
35.0010554536
 30
0.0
 10
225.5963048634
 20
34.7751782899
 30
0.0
 10
224.8813630433
 20
34.6975948502
 30
0.0
 10
224.5290698394
 20
34.6975939619
 30
0.0
  0
SPLINE
  5
563
100
AcDbEntity
  8
0
100
AcDbSpline
 62
7
  6
CONTINUOUS
 70
0
 71
3
 72
12
 73
8
 74
0
 42
0.0000001
 43
0.0000001
 44
0.0000000001
 40
0.0
 40
0.0
 40
0.0
 40
0.0
 40
0.387184483
 40
0.6756708754
 40
0.7847948889
 40
0.8726394286
 40
1.0
 40
1.0
 40
1.0
 40
1.0
 10
194.0236929223
 20
35.1392993254
 30
0.0
 10
194.0065515136
 20
35.0742316487
 30
0.0
 10
193.9733723981
 20
34.9615125029
 30
0.0
 10
193.9225535153
 20
34.8344580059
 30
0.0
 10
193.8785682549
 20
34.7618858036
 30
0.0
 10
193.8432044954
 20
34.7186146442
 30
0.0
 10
193.8071435686
 20
34.6975933854
 30
0.0
 10
193.7850099439
 20
34.6975935101
 30
0.0
  0
SPLINE
  5
564
100
AcDbEntity
  8
0
100
AcDbSpline
 62
7
  6
CONTINUOUS
 70
0
 71
3
 72
9
 73
5
 74
0
 42
0.0000001
 43
0.0000001
 44
0.0000000001
 40
0.0
 40
0.0
 40
0.0
 40
0.0
 40
0.2440449254
 40
1.0
 40
1.0
 40
1.0
 40
1.0
 10
191.9219444792
 20
34.7685140191
 30
0.0
 10
191.836120461
 20
34.7863058178
 30
0.0
 10
191.4872519324
 20
34.8724742361
 30
0.0
 10
191.1520504313
 20
35.0114306312
 30
0.0
 10
190.9125454737
 20
35.1392993254
 30
0.0
  0
SPLINE
  5
565
100
AcDbEntity
  8
0
100
AcDbSpline
 62
7
  6
CONTINUOUS
 70
0
 71
3
 72
11
 73
7
 74
0
 42
0.0000001
 43
0.0000001
 44
0.0000000001
 40
0.0
 40
0.0
 40
0.0
 40
0.0
 40
0.1732314329
 40
0.3849727613
 40
0.6573227463
 40
1.0
 40
1.0
 40
1.0
 40
1.0
 10
197.287439461
 20
34.6975939099
 30
0.0
 10
197.2513914053
 20
34.6975962169
 30
0.0
 10
197.170945888
 20
34.7212065958
 30
0.0
 10
197.065439885
 20
34.8116359259
 30
0.0
 10
196.9637544349
 20
34.9514156993
 30
0.0
 10
196.9043951203
 20
35.0652171867
 30
0.0
 10
196.8741656962
 20
35.1298009588
 30
0.0
  0
SPLINE
  5
566
100
AcDbEntity
  8
0
100
AcDbSpline
 62
7
  6
CONTINUOUS
 70
0
 71
3
 72
9
 73
5
 74
0
 42
0.0000001
 43
0.0000001
 44
0.0000000001
 40
0.0
 40
0.0
 40
0.0
 40
0.0
 40
0.2229612963
 40
1.0
 40
1.0
 40
1.0
 40
1.0
 10
202.6432807306
 20
34.776619613
 30
0.0
 10
202.6417904025
 20
34.7816413832
 30
0.0
 10
202.6354034525
 20
34.8042527239
 30
0.0
 10
202.6300271626
 20
34.8271393334
 30
0.0
 10
202.6261689276
 20
34.8449827042
 30
0.0
  0
SPLINE
  5
567
100
AcDbEntity
  8
0
100
AcDbSpline
 62
7
  6
CONTINUOUS
 70
0
 71
3
 72
9
 73
5
 74
0
 42
0.0000001
 43
0.0000001
 44
0.0000000001
 40
0.0
 40
0.0
 40
0.0
 40
0.0
 40
0.255676017
 40
1.0
 40
1.0
 40
1.0
 40
1.0
 10
216.2449259031
 20
34.9236670098
 30
0.0
 10
216.2194360827
 20
34.9101771137
 30
0.0
 10
216.1187481578
 20
34.8593247309
 30
0.0
 10
216.0140141508
 20
34.8163810728
 30
0.0
 10
215.9343957439
 20
34.7897407471
 30
0.0
  0
ELLIPSE
  5
568
100
AcDbEntity
  8
0
100
AcDbEllipse
 62
7
  6
CONTINUOUS
 10
201.8674501726
 20
165.7218891463
 30
0.0
 11
-0.0
 21
127.148678496
 31
0.0
 40
0.3263895503
 41
-1.590375891
 42
-1.5858571285
  0
ELLIPSE
  5
569
100
AcDbEntity
  8
0
100
AcDbEllipse
 62
7
  6
CONTINUOUS
 10
201.8674501726
 20
164.3389153358
 30
0.0
 11
0.0
 21
56.5106315613
 31
0.0
 40
0.7343750875
 41
-1.6039349219
 42
-1.590375891
  0
ELLIPSE
  5
56A
100
AcDbEntity
  8
0
100
AcDbEllipse
 62
7
  6
CONTINUOUS
 10
201.8674501726
 20
163.5197659951
 30
0.0
 11
41.5
 21
-0.0
 31
0.0
 40
0.7659569903
 41
-0.0512272303
 42
-0.0331385951
  0
ELLIPSE
  5
56B
100
AcDbEntity
  8
0
100
AcDbEllipse
 62
7
  6
CONTINUOUS
 10
201.8674501726
 20
162.3261498569
 30
0.0
 11
41.5
 21
0.0
 31
0.0
 40
0.2042553727
 41
-0.0738623235
 42
-0.0512272303
  0
ELLIPSE
  5
56C
100
AcDbEntity
  8
0
100
AcDbEllipse
 62
7
  6
CONTINUOUS
 10
201.8674501726
 20
166.0538090462
 30
0.0
 11
41.5
 21
-0.0
 31
0.0
 40
0.2042553727
 41
0.0512272303
 42
0.0738623235
  0
ELLIPSE
  5
56D
100
AcDbEntity
  8
0
100
AcDbEllipse
 62
7
  6
CONTINUOUS
 10
201.8674501726
 20
164.8601929081
 30
0.0
 11
41.5
 21
-0.0
 31
0.0
 40
0.7659569903
 41
0.0331385951
 42
0.0512272303
  0
ELLIPSE
  5
56E
100
AcDbEntity
  8
0
100
AcDbEllipse
 62
7
  6
CONTINUOUS
 10
201.8674501726
 20
164.0410435673
 30
0.0
 11
-0.0
 21
56.5106315613
 31
0.0
 40
0.7343750875
 41
4.7319685446
 42
4.7455275755
  0
ELLIPSE
  5
56F
100
AcDbEntity
  8
0
100
AcDbEllipse
 62
7
  6
CONTINUOUS
 10
201.8674501726
 20
162.6580697569
 30
0.0
 11
-0.0
 21
127.148678496
 31
0.0
 40
0.3263895503
 41
-1.5557355251
 42
-1.5512167626
  0
ELLIPSE
  5
570
100
AcDbEntity
  8
0
100
AcDbEllipse
 62
7
  6
CONTINUOUS
 10
201.8674501726
 20
191.57298167
 30
0.0
 11
-0.0
 21
127.1490422717
 31
0.0
 40
0.3263886165
 41
-1.7955759824
 42
-1.7909437578
  0
ELLIPSE
  5
571
100
AcDbEntity
  8
0
100
AcDbEllipse
 62
7
  6
CONTINUOUS
 10
201.8674501726
 20
175.8282756683
 30
0.0
 11
0.0
 21
56.5106315613
 31
0.0
 40
0.7343750875
 41
-1.8095026013
 42
-1.7955759824
  0
ELLIPSE
  5
572
100
AcDbEntity
  8
0
100
AcDbEllipse
 62
7
  6
CONTINUOUS
 10
201.8674501726
 20
169.9825334763
 30
0.0
 11
41.5
 21
0.0
 31
0.0
 40
0.7659575381
 41
-0.257349327
 42
-0.2387062745
  0
ELLIPSE
  5
573
100
AcDbEntity
  8
0
100
AcDbEllipse
 62
7
  6
CONTINUOUS
 10
201.8674501726
 20
164.0495532202
 30
0.0
 11
41.5
 21
0.0
 31
0.0
 40
0.2042552558
 41
-0.2807833784
 42
-0.257349327
  0
ELLIPSE
  5
574
100
AcDbEntity
  8
0
100
AcDbEllipse
 62
7
  6
CONTINUOUS
 10
201.8674501726
 20
164.330405683
 30
0.0
 11
41.5
 21
-0.0
 31
0.0
 40
0.2042552558
 41
0.257349327
 42
0.2807833784
  0
ELLIPSE
  5
575
100
AcDbEntity
  8
0
100
AcDbEllipse
 62
7
  6
CONTINUOUS
 10
201.8674501726
 20
158.3974254269
 30
0.0
 11
41.5
 21
-0.0
 31
0.0
 40
0.7659575381
 41
0.2387062745
 42
0.257349327
  0
ELLIPSE
  5
576
100
AcDbEntity
  8
0
100
AcDbEllipse
 62
7
  6
CONTINUOUS
 10
201.8674501726
 20
152.5516832349
 30
0.0
 11
0.0
 21
56.5106315613
 31
0.0
 40
0.7343750875
 41
-1.3460166712
 42
-1.3320900523
  0
ELLIPSE
  5
577
100
AcDbEntity
  8
0
100
AcDbEllipse
 62
7
  6
CONTINUOUS
 10
201.8674501726
 20
136.8069772331
 30
0.0
 11
-0.0
 21
127.1490422717
 31
0.0
 40
0.3263886165
 41
-1.3506488958
 42
-1.3460166712
  0
ELLIPSE
  5
578
100
AcDbEntity
  8
0
100
AcDbEllipse
 62
7
  6
CONTINUOUS
 10
201.8674501726
 20
172.0112560619
 30
0.0
 11
41.5
 21
0.0
 31
0.0
 40
0.2042553906
 41
6.2440186763
 42
6.2666182843
  0
ELLIPSE
  5
579
100
AcDbEntity
  8
0
100
AcDbEllipse
 62
7
  6
CONTINUOUS
 10
201.8674501726
 20
172.2218941475
 30
0.0
 11
41.5
 21
0.0
 31
0.0
 40
0.5106380606
 41
-0.0165670229
 42
-0.0000000423
  0
ELLIPSE
  5
57A
100
AcDbEntity
  8
0
100
AcDbEllipse
 62
7
  6
CONTINUOUS
 10
201.8674501726
 20
173.7218919065
 30
0.0
 11
-0.0
 21
169.5325413992
 31
0.0
 40
0.244790762
 41
-1.5692902935
 42
-1.5647722026
  0
ELLIPSE
  5
57B
100
AcDbEntity
  8
0
100
AcDbEllipse
 62
7
  6
CONTINUOUS
 10
201.8674501726
 20
179.5559372181
 30
0.0
 11
41.5
 21
0.0
 31
0.0
 40
0.2042552558
 41
0.1101624371
 42
0.1329211844
  0
ELLIPSE
  5
57C
100
AcDbEntity
  8
0
100
AcDbEllipse
 62
7
  6
CONTINUOUS
 10
201.8674501726
 20
176.9931706556
 30
0.0
 11
41.5
 21
-0.0
 31
0.0
 40
0.7659575381
 41
0.0919971844
 42
0.1101624371
  0
ELLIPSE
  5
57D
100
AcDbEntity
  8
0
100
AcDbEllipse
 62
7
  6
CONTINUOUS
 10
201.8674501726
 20
174.7218950269
 30
0.0
 11
-0.0
 21
56.5106315613
 31
0.0
 40
0.7343750875
 41
-1.4924028033
 42
-1.4787991424
  0
ELLIPSE
  5
57E
100
AcDbEntity
  8
0
100
AcDbEllipse
 62
7
  6
CONTINUOUS
 10
201.8674501726
 20
169.1899712965
 30
0.0
 11
0.0
 21
127.1490422717
 31
0.0
 40
0.3263886165
 41
-1.496933999
 42
-1.4924028033
  0
ELLIPSE
  5
57F
100
AcDbEntity
  8
0
100
AcDbEllipse
 62
7
  6
CONTINUOUS
 10
201.8674501726
 20
187.1899876066
 30
0.0
 11
-0.0
 21
127.1490422717
 31
0.0
 40
0.3263886165
 41
-1.6491898503
 42
-1.6446586546
  0
ELLIPSE
  5
580
100
AcDbEntity
  8
0
100
AcDbEllipse
 62
7
  6
CONTINUOUS
 10
201.8674501726
 20
181.6580638763
 30
0.0
 11
0.0
 21
56.5106315613
 31
0.0
 40
0.7343750875
 41
-1.6627935112
 42
-1.6491898503
  0
ELLIPSE
  5
581
100
AcDbEntity
  8
0
100
AcDbEllipse
 62
7
  6
CONTINUOUS
 10
201.8674501726
 20
178.4133838762
 30
0.0
 11
41.5
 21
-0.0
 31
0.0
 40
0.5106383587
 41
-0.1101624371
 42
-0.0919971844
  0
ELLIPSE
  5
582
100
AcDbEntity
  8
0
100
AcDbEllipse
 62
7
  6
CONTINUOUS
 10
201.8674501726
 20
164.1757954731
 30
0.0
 11
-0.0
 21
108.3120570183
 31
0.0
 40
0.3831521729
 41
-1.5014636889
 42
-1.4606338897
  0
ELLIPSE
  5
583
100
AcDbEntity
  8
0
100
AcDbEllipse
 62
7
  6
CONTINUOUS
 10
201.8674501726
 20
160.4532759876
 30
0.0
 11
-0.0
 21
110.5851145437
 31
0.0
 40
0.3730158455
 41
-1.4691059996
 42
-1.4324768978
  0
ELLIPSE
  5
584
100
AcDbEntity
  8
0
100
AcDbEllipse
 62
7
  6
CONTINUOUS
 10
201.8674501726
 20
166.7006172428
 30
0.0
 11
41.5
 21
0.0
 31
0.0
 40
0.3404254913
 41
-0.2760843322
 42
-0.2620241569
  0
ELLIPSE
  5
585
100
AcDbEntity
  8
0
100
AcDbEllipse
 62
7
  6
CONTINUOUS
 10
201.8674501726
 20
164.743171265
 30
0.0
 11
41.25
 21
-0.0
 31
0.0
 40
0.3404254913
 41
0.0560900035
 42
0.0697535122
  0
ELLIPSE
  5
586
100
AcDbEntity
  8
0
100
AcDbEllipse
 62
7
  6
CONTINUOUS
 10
201.8674501726
 20
163.1687013587
 30
0.0
 11
-0.0
 21
42.1276947286
 31
0.0
 40
0.9791658496
 41
-1.5238093423
 42
-1.5147063233
  0
ELLIPSE
  5
587
100
AcDbEntity
  8
0
100
AcDbEllipse
 62
7
  6
CONTINUOUS
 10
201.8674501726
 20
159.2112682314
 30
0.0
 11
0.0
 21
126.3827226015
 31
0.0
 40
0.3263895503
 41
-1.5283593568
 42
-1.5238093423
  0
ELLIPSE
  5
588
100
AcDbEntity
  8
0
100
AcDbEllipse
 62
7
  6
CONTINUOUS
 10
201.8674501726
 20
169.3601800107
 30
0.0
 11
-0.0
 21
126.3827226015
 31
0.0
 40
0.3263895503
 41
-1.6177833113
 42
-1.6132332968
  0
ELLIPSE
  5
589
100
AcDbEntity
  8
0
100
AcDbEllipse
 62
7
  6
CONTINUOUS
 10
201.8674501726
 20
165.4027468833
 30
0.0
 11
-0.0
 21
42.1276947286
 31
0.0
 40
0.9791658496
 41
-1.6268863302
 42
-1.6177833113
  0
ELLIPSE
  5
58A
100
AcDbEntity
  8
0
100
AcDbEllipse
 62
7
  6
CONTINUOUS
 10
201.8674501726
 20
163.8282769771
 30
0.0
 11
41.25
 21
0.0
 31
0.0
 40
0.3404254913
 41
-0.0697535122
 42
-0.0560900035
  0
ELLIPSE
  5
58B
100
AcDbEntity
  8
0
100
AcDbEllipse
 62
7
  6
CONTINUOUS
 10
201.8674501726
 20
161.8708309992
 30
0.0
 11
41.25
 21
0.0
 31
0.0
 40
0.3404254913
 41
0.2636499067
 42
0.2778018396
  0
ELLIPSE
  5
58C
100
AcDbEntity
  8
0
100
AcDbEllipse
 62
7
  6
CONTINUOUS
 10
201.8674501726
 20
154.5516880489
 30
0.0
 11
-0.0
 21
42.1276344644
 31
0.0
 40
0.9791672503
 41
-1.316550913
 42
-1.3071464201
  0
ELLIPSE
  5
58D
100
AcDbEntity
  8
0
100
AcDbEllipse
 62
7
  6
CONTINUOUS
 10
201.8674501726
 20
133.3601658463
 30
0.0
 11
-0.0
 21
126.3830841857
 31
0.0
 40
0.3263886165
 41
-1.3212444923
 42
-1.316550913
  0
ELLIPSE
  5
58E
100
AcDbEntity
  8
0
100
AcDbEllipse
 62
7
  6
CONTINUOUS
 10
201.8674501726
 20
195.2112823958
 30
0.0
 11
-0.0
 21
126.3830841857
 31
0.0
 40
0.3263886165
 41
-1.8250417406
 42
-1.8203481613
  0
ELLIPSE
  5
58F
100
AcDbEntity
  8
0
100
AcDbEllipse
 62
7
  6
CONTINUOUS
 10
201.8674501726
 20
174.0197601932
 30
0.0
 11
-0.0
 21
42.1276344644
 31
0.0
 40
0.9791672503
 41
-1.8344462335
 42
-1.8250417406
  0
ELLIPSE
  5
590
100
AcDbEntity
  8
0
100
AcDbEllipse
 62
7
  6
CONTINUOUS
 10
201.8674501726
 20
166.7006172428
 30
0.0
 11
41.25
 21
0.0
 31
0.0
 40
0.3404254913
 41
-0.2778018396
 42
-0.2636499067
  0
ELLIPSE
  5
591
100
AcDbEntity
  8
0
100
AcDbEllipse
 62
7
  6
CONTINUOUS
 10
201.8674501726
 20
174.0197601932
 30
0.0
 11
0.0
 21
42.3829534612
 31
0.0
 40
0.9791672503
 41
-1.8328204837
 42
-1.8234765819
  0
ELLIPSE
  5
592
100
AcDbEntity
  8
0
100
AcDbEllipse
 62
7
  6
CONTINUOUS
 10
201.8674501726
 20
195.2112823958
 30
0.0
 11
-0.0
 21
127.1490422717
 31
0.0
 40
0.3263886165
 41
-1.8234765819
 42
-1.8188131321
  0
ELLIPSE
  5
593
100
AcDbEntity
  8
0
100
AcDbEllipse
 62
7
  6
CONTINUOUS
 10
201.8674501726
 20
133.3601658463
 30
0.0
 11
-0.0
 21
127.1490422717
 31
0.0
 40
0.3263886165
 41
-1.3227795215
 42
-1.3181160717
  0
ELLIPSE
  5
594
100
AcDbEntity
  8
0
100
AcDbEllipse
 62
7
  6
CONTINUOUS
 10
201.8674501726
 20
154.5516880489
 30
0.0
 11
0.0
 21
42.3829534612
 31
0.0
 40
0.9791672503
 41
-1.3181160717
 42
-1.3087721698
  0
ELLIPSE
  5
595
100
AcDbEntity
  8
0
100
AcDbEllipse
 62
7
  6
CONTINUOUS
 10
201.8674501726
 20
161.8708309992
 30
0.0
 11
41.5
 21
0.0
 31
0.0
 40
0.3404254913
 41
0.2620241569
 42
0.2760843322
  0
ELLIPSE
  5
596
100
AcDbEntity
  8
0
100
AcDbEllipse
 62
7
  6
CONTINUOUS
 10
201.8674501726
 20
177.9133839472
 30
0.0
 11
41.25
 21
0.0
 31
0.0
 40
0.3404254913
 41
0.1154075325
 42
0.1291465864
  0
ELLIPSE
  5
597
100
AcDbEntity
  8
0
100
AcDbEllipse
 62
7
  6
CONTINUOUS
 10
201.8674501726
 20
174.679343971
 30
0.0
 11
0.0
 21
42.1276344644
 31
0.0
 40
0.9791672503
 41
-1.4645358641
 42
-1.4553887943
  0
ELLIPSE
  5
598
100
AcDbEntity
  8
0
100
AcDbEllipse
 62
7
  6
CONTINUOUS
 10
201.8674501726
 20
165.7431599096
 30
0.0
 11
-0.0
 21
126.3830841857
 31
0.0
 40
0.3263886165
 41
-1.4691059996
 42
-1.4645358641
  0
ELLIPSE
  5
599
100
AcDbEntity
  8
0
100
AcDbEllipse
 62
7
  6
CONTINUOUS
 10
201.8674501726
 20
190.8282883324
 30
0.0
 11
-0.0
 21
126.3830841857
 31
0.0
 40
0.3263886165
 41
-1.6770567895
 42
-1.672486654
  0
ELLIPSE
  5
59A
100
AcDbEntity
  8
0
100
AcDbEllipse
 62
7
  6
CONTINUOUS
 10
201.8674501726
 20
181.8921042711
 30
0.0
 11
-0.0
 21
42.1276344644
 31
0.0
 40
0.9791672503
 41
-1.6862038593
 42
-1.6770567895
  0
ELLIPSE
  5
59B
100
AcDbEntity
  8
0
100
AcDbEllipse
 62
7
  6
CONTINUOUS
 10
201.8674501726
 20
178.6580642948
 30
0.0
 11
41.25
 21
0.0
 31
0.0
 40
0.3404254913
 41
-0.1291465864
 42
-0.1154075325
  0
ELLIPSE
  5
59C
100
AcDbEntity
  8
0
100
AcDbEllipse
 62
7
  6
CONTINUOUS
 10
201.8674501726
 20
172.1899789975
 30
0.0
 11
0.0
 21
42.3830178009
 31
0.0
 40
0.9791657639
 41
-1.5692902935
 42
-1.5512167712
  0
ELLIPSE
  5
59D
100
AcDbEntity
  8
0
100
AcDbEllipse
 62
7
  6
CONTINUOUS
 10
201.8674501726
 20
171.3601935924
 30
0.0
 11
-0.0
 21
84.7659217639
 31
0.0
 40
0.4895835394
 41
-1.5512167712
 42
-1.542177967
  0
ELLIPSE
  5
59E
100
AcDbEntity
  8
0
100
AcDbEllipse
 62
7
  6
CONTINUOUS
 10
201.8674501726
 20
167.7219075356
 30
0.0
 11
-0.0
 21
211.91446416
 31
0.0
 40
0.1958337302
 41
-1.542177967
 42
-1.5376577274
  0
ELLIPSE
  5
59F
100
AcDbEntity
  8
0
100
AcDbEllipse
 62
7
  6
CONTINUOUS
 10
201.8674501726
 20
163.8282769771
 30
0.0
 11
41.5
 21
-0.0
 31
0.0
 40
0.3404254913
 41
-0.0693326336
 42
-0.0557517603
  0
ELLIPSE
  5
5A0
100
AcDbEntity
  8
0
100
AcDbEllipse
 62
7
  6
CONTINUOUS
 10
201.8674501726
 20
178.6580642948
 30
0.0
 11
41.5
 21
0.0
 31
0.0
 40
0.3404254913
 41
-0.1283642802
 42
-0.1147092315
  0
ELLIPSE
  5
5A1
100
AcDbEntity
  8
0
100
AcDbEllipse
 62
7
  6
CONTINUOUS
 10
201.8674501726
 20
181.8921042711
 30
0.0
 11
0.0
 21
42.3829534612
 31
0.0
 40
0.9791672503
 41
-1.6855055583
 42
-1.676414268
  0
ELLIPSE
  5
5A2
100
AcDbEntity
  8
0
100
AcDbEllipse
 62
7
  6
CONTINUOUS
 10
201.8674501726
 20
190.8282883324
 30
0.0
 11
-0.0
 21
127.1490422717
 31
0.0
 40
0.3263886165
 41
-1.676414268
 42
-1.6718719606
  0
ELLIPSE
  5
5A3
100
AcDbEntity
  8
0
100
AcDbEllipse
 62
7
  6
CONTINUOUS
 10
201.8674501726
 20
165.7431599096
 30
0.0
 11
-0.0
 21
127.1490422717
 31
0.0
 40
0.3263886165
 41
-1.469720693
 42
-1.4651783856
  0
ELLIPSE
  5
5A4
100
AcDbEntity
  8
0
100
AcDbEllipse
 62
7
  6
CONTINUOUS
 10
201.8674501726
 20
165.4027468833
 30
0.0
 11
0.0
 21
42.3830140906
 31
0.0
 40
0.9791658496
 41
-1.6265480871
 42
-1.6175000506
  0
ELLIPSE
  5
5A5
100
AcDbEntity
  8
0
100
AcDbEllipse
 62
7
  6
CONTINUOUS
 10
201.8674501726
 20
174.679343971
 30
0.0
 11
-0.0
 21
42.3829534612
 31
0.0
 40
0.9791672503
 41
-1.4651783856
 42
-1.4560870953
  0
ELLIPSE
  5
5A6
100
AcDbEntity
  8
0
100
AcDbEllipse
 62
7
  6
CONTINUOUS
 10
201.8674501726
 20
177.9133839472
 30
0.0
 11
41.5
 21
0.0
 31
0.0
 40
0.3404254913
 41
0.1147092315
 42
0.1283642802
  0
ELLIPSE
  5
5A7
100
AcDbEntity
  8
0
100
AcDbEllipse
 62
7
  6
CONTINUOUS
 10
201.8674501726
 20
169.3601800107
 30
0.0
 11
-0.0
 21
127.148678496
 31
0.0
 40
0.3263895503
 41
-1.6175000506
 42
-1.6129775002
  0
ELLIPSE
  5
5A8
100
AcDbEntity
  8
0
100
AcDbEllipse
 62
7
  6
CONTINUOUS
 10
201.8674501726
 20
159.2112682314
 30
0.0
 11
-0.0
 21
127.148678496
 31
0.0
 40
0.3263895503
 41
-1.5286151533
 42
-1.524092603
  0
ELLIPSE
  5
5A9
100
AcDbEntity
  8
0
100
AcDbEllipse
 62
7
  6
CONTINUOUS
 10
201.8674501726
 20
163.1687013587
 30
0.0
 11
-0.0
 21
42.3830140906
 31
0.0
 40
0.9791658496
 41
-1.524092603
 42
-1.5150445665
  0
ELLIPSE
  5
5AA
100
AcDbEntity
  8
0
100
AcDbEllipse
 62
7
  6
CONTINUOUS
 10
201.8674501726
 20
164.743171265
 30
0.0
 11
41.5
 21
-0.0
 31
0.0
 40
0.3404254913
 41
0.0557517603
 42
0.0693326336
  0
ELLIPSE
  5
5AB
100
AcDbEntity
  8
0
100
AcDbEllipse
 62
7
  6
CONTINUOUS
 10
201.8674501726
 20
160.4532759876
 30
0.0
 11
-0.0
 21
111.2553273592
 31
0.0
 40
0.3730158455
 41
-1.469720693
 42
-1.4333154535
  0
ENDSEC
  0
SECTION
  2
OBJECTS
  0
DICTIONARY
  5
C
100
AcDbDictionary
280
0
281
1
  3
ACAD_GROUP
350
D
  3
ACAD_MLINESTYLE
350
17
  3
ACAD_LAYOUT
350
1A
  3
ACAD_PLOTSETTINGS
350
19
  3
ACAD_PLOTSTYLENAME
350
E
  0
DICTIONARY
  5
D
102
{ACAD_REACTORS
330
C
102
}
100
AcDbDictionary
280
0
281
1
  0
ACDBDICTIONARYWDFLT
  5
E
102
{ACAD_REACTORS
330
C
102
}
100
AcDbDictionary
281
1
  3
Normal
350
F
100
AcDbDictionaryWithDefault
340
F
  0
DICTIONARY
  5
17
102
{ACAD_REACTORS
330
C
102
}
100
AcDbDictionary
280
0
281
1
  3
Standard
350
18
  0
DICTIONARY
  5
19
102
{ACAD_REACTORS
330
C
102
}
100
AcDbDictionary
281
1
  0
DICTIONARY
  5
1A
102
{ACAD_REACTORS
330
C
102
}
100
AcDbDictionary
281
1
  3
Model
350
5AC
  3
Layout1
350
5AD
  0
ACDBPLACEHOLDER
  5
F
102
{ACAD_REACTORS
330
E
102
}
  0
MLINESTYLE
  5
18
102
{ACAD_REACTORS
330
17
102
}
100
AcDbMlineStyle
  2
STANDARD
 70
0
  3

 62
256
 51
90.0
 52
90.0
 71
2
 49
0.5
 62
256
  6
BYLAYER
 49
-0.5
 62
256
  6
BYLAYER
  0
LAYOUT
  5
5AC
102
{ACAD_REACTORS
330
1A
102
}
100
AcDbPlotSettings
  1

  2
none_device
  4
ISO_A2_(594.00_x_420.00_MM)
  6

 40
0.0
 41
0.0
 42
0.0
 43
0.0
 44
594.0
 45
420.0
 46
0.0
 47
0.0
 48
0.0
 49
0.0
140
0.0
141
0.0
142
1.0
143
1.0
 70
1024
 72
1
 73
0
 74
0
  7

 75
0
147
1.0
148
0.0
149
0.0
100
AcDbLayout
  1
Model
 70
0
 71
0
 10
0.0
 20
0.0
 11
594.0
 21
420.0
 12
0.0
 22
0.0
 32
0.0
 14
0.0
 24
0.0
 34
0.0
 15
0.0
 25
0.0
 35
0.0
146
0.0
 13
0.0
 23
0.0
 33
0.0
 16
1.0
 26
0.0
 36
0.0
 17
0.0
 27
1.0
 37
0.0
 76
0
330
20C
345
0
346
0
  0
LAYOUT
  5
5AD
102
{ACAD_REACTORS
330
1A
102
}
100
AcDbPlotSettings
  1

  2
none_device
  4
ISO_A2_(594.00_x_420.00_MM)
  6

 40
0.0
 41
0.0
 42
0.0
 43
0.0
 44
594.0
 45
420.0
 46
0.0
 47
0.0
 48
0.0
 49
0.0
140
0.0
141
0.0
142
1.0
143
1.0
 70
0
 72
1
 73
0
 74
0
  7

 75
0
147
1.0
148
0.0
149
0.0
100
AcDbLayout
  1
Layout1
 70
0
 71
1
 10
0.0
 20
0.0
 11
594.0
 21
420.0
 12
0.0
 22
0.0
 32
0.0
 14
0.0
 24
0.0
 34
0.0
 15
0.0
 25
0.0
 35
0.0
146
0.0
 13
0.0
 23
0.0
 33
0.0
 16
1.0
 26
0.0
 36
0.0
 17
0.0
 27
1.0
 37
0.0
 76
0
330
20D
345
0
346
0
  0
ENDSEC
  0
EOF
