999
DXF file: 001-m31341-p-50.dxf
999
Pro/ENGINEER 2011490 by Parametric Technology Corporation
  0
SECTION
  2
HEADER
  9
$ACADVER
  1
AC1015
  9
$DWGCODEPAGE
  3
ANSI_1252
  9
$EXTMAX
 10
594.0
 20
420.0
 30
0.0
  9
$EXTMIN
 10
0.0
 20
0.0
 30
0.0
  9
$LIMMIN
 10
0.0
 20
0.0
  9
$LIMMAX
 10
594.0
 20
420.0
  9
$VIEWCTR
 10
297.0
 20
210.0
  9
$VIEWSIZE
 40
420.0
  9
$CLAYER
  8
0
  9
$LTSCALE
 40
32.67
  9
$CELTYPE
  6
BYLAYER
  9
$DIMSCALE
 40
1.0
  9
$DIMASZ
 40
3.5
  9
$DIMEXO
 40
3.7125
  9
$DIMDLI
 40
22.572
  9
$DIMEXE
 40
10.692
  9
$DIMCEN
 40
5.346
  9
$DIMLFAC
 40
1.0
  9
$DIMBLK
  1
_FILLED
  9
$DIMTXT
 40
3.5
  9
$DIMTOL
 70
1
  9
$DIMLIM
 70
0
  9
$DIMTFAC
 40
1.0
  9
$DIMTP
 40
0.005
  9
$DIMTM
 40
0.005
  9
$PDMODE
 70
3
  9
$PDSIZE
 40
0.3125
  9
$HANDSEED
  5
515
  9
$TILEMODE
 70
1
  9
$MEASUREMENT
 70
1
  9
$INSUNITS
 70
4
  0
ENDSEC
  0
SECTION
  2
CLASSES
  0
CLASS
  1
ACDBDICTIONARYWDFLT
  2
AcDbDictionaryWithDefault
  3
AutoCAD 2000
 90
0
280
0
281
0
  0
CLASS
  1
ACDBPLACEHOLDER
  2
AcDbPlaceHolder
  3
AutoCAD 2000
 90
0
280
0
281
0
  0
CLASS
  1
LAYOUT
  2
AcDbLayout
  3
AutoCAD 2000
 90
0
280
0
281
0
  0
ENDSEC
  0
SECTION
  2
TABLES
  0
TABLE
  2
VPORT
  5
8
100
AcDbSymbolTable
 70
2
  0
VPORT
  5
1F4
100
AcDbSymbolTableRecord
100
AcDbViewportTableRecord
  2
*ACTIVE
 70
0
 10
0.0
 20
0.0
 11
1.0
 21
1.0
 12
297.0
 22
210.0
 13
0.0
 23
0.0
 14
1.0
 24
1.0
 15
0.0
 25
0.0
 16
0.0
 26
0.0
 36
1.0
 17
0.0
 27
0.0
 37
0.0
 40
420.0
 41
1.4142857143
 42
50.0
 43
0.0
 44
0.0
 50
0.0
 51
0.0
 71
0
 72
100
 73
1
 74
1
 75
0
 76
0
 77
0
 78
0
  0
ENDTAB
  0
TABLE
  2
LTYPE
  5
5
100
AcDbSymbolTable
 70
6
  0
LTYPE
  5
14
100
AcDbSymbolTableRecord
100
AcDbLinetypeTableRecord
  2
BYBLOCK
 70
0
  3

 72
65
 73
0
 40
0.0
  0
LTYPE
  5
15
100
AcDbSymbolTableRecord
100
AcDbLinetypeTableRecord
  2
BYLAYER
 70
0
  3

 72
65
 73
0
 40
0.0
  0
LTYPE
  5
16
100
AcDbSymbolTableRecord
100
AcDbLinetypeTableRecord
  2
CONTINUOUS
 70
64
  3
Solid line
 72
65
 73
0
 40
0.0
  0
LTYPE
  5
1F5
100
AcDbSymbolTableRecord
100
AcDbLinetypeTableRecord
  2
CENTER
 70
64
  3
____ _ ____ _ ____ _ ____ _ ____ _ ____ _ ____
 72
65
 73
4
 40
0.6
 49
0.375
 74
0
 49
-0.075
 74
0
 49
0.075
 74
0
 49
-0.075
 74
0
  0
LTYPE
  5
1F6
100
AcDbSymbolTableRecord
100
AcDbLinetypeTableRecord
  2
HIDDEN
 70
64
  3
- - - - - - - - - - - - - - - - - - - -
 72
65
 73
2
 40
0.2
 49
0.1
 74
0
 49
-0.1
 74
0
  0
LTYPE
  5
1F7
100
AcDbSymbolTableRecord
100
AcDbLinetypeTableRecord
  2
PHANTOM
 70
64
  3
_____ _ _ _____ _ _ _____ _ _ _____
 72
65
 73
6
 40
0.8
 49
0.45
 74
0
 49
-0.05
 74
0
 49
0.1
 74
0
 49
-0.05
 74
0
 49
0.1
 74
0
 49
-0.05
 74
0
  0
LTYPE
  5
1F8
100
AcDbSymbolTableRecord
100
AcDbLinetypeTableRecord
  2
DOT
 70
64
  3
. . . . . . . . . . . . . . . . . . . .
 72
65
 73
2
 40
0.2
 49
0.1
 74
0
 49
-0.1
 74
0
  0
LTYPE
  5
1F9
100
AcDbSymbolTableRecord
100
AcDbLinetypeTableRecord
  2
DASHED
 70
64
  3
- - - - - - - - - - - - - - - - - - - -
 72
65
 73
2
 40
0.2
 49
0.1
 74
0
 49
-0.1
 74
0
  0
ENDTAB
  0
TABLE
  2
LAYER
  5
2
100
AcDbSymbolTable
 70
36
  0
LAYER
  5
10
100
AcDbSymbolTableRecord
100
AcDbLayerTableRecord
  2
0
 70
0
 62
7
  6
CONTINUOUS
370
-3
390
F
  0
LAYER
  5
1FA
100
AcDbSymbolTableRecord
100
AcDbLayerTableRecord
  2
DEFAULT_1
 70
0
 62
7
  6
CENTER
370
-3
390
F
  0
LAYER
  5
1FB
100
AcDbSymbolTableRecord
100
AcDbLayerTableRecord
  2
DEFAULT_2
 70
0
 62
8
  6
HIDDEN
370
-3
390
F
  0
LAYER
  5
1FC
100
AcDbSymbolTableRecord
100
AcDbLayerTableRecord
  2
DEFAULT_3
 70
0
 62
7
  6
PHANTOM
370
-3
390
F
  0
LAYER
  5
1FD
100
AcDbSymbolTableRecord
100
AcDbLayerTableRecord
  2
BEZUGSACHSEN
 70
0
 62
7
  6
CONTINUOUS
370
-3
390
F
  0
LAYER
  5
1FE
100
AcDbSymbolTableRecord
100
AcDbLayerTableRecord
  2
BEZUGSEBENEN
 70
0
 62
7
  6
CONTINUOUS
370
-3
390
F
  0
LAYER
  5
1FF
100
AcDbSymbolTableRecord
100
AcDbLayerTableRecord
  2
BG_STARTBEZUEGE
 70
0
 62
7
  6
CONTINUOUS
370
-3
390
F
  0
LAYER
  5
200
100
AcDbSymbolTableRecord
100
AcDbLayerTableRecord
  2
FASEN
 70
0
 62
7
  6
CONTINUOUS
370
-3
390
F
  0
LAYER
  5
201
100
AcDbSymbolTableRecord
100
AcDbLayerTableRecord
  2
HILFEN
 70
0
 62
7
  6
CONTINUOUS
370
-3
390
F
  0
LAYER
  5
202
100
AcDbSymbolTableRecord
100
AcDbLayerTableRecord
  2
KONSTRUKTIONSELEMENTE
 70
0
 62
7
  6
CONTINUOUS
370
-3
390
F
  0
LAYER
  5
203
100
AcDbSymbolTableRecord
100
AcDbLayerTableRecord
  2
NORM
 70
0
 62
7
  6
CONTINUOUS
370
-3
390
F
  0
LAYER
  5
204
100
AcDbSymbolTableRecord
100
AcDbLayerTableRecord
  2
PLATZIERUNG
 70
0
 62
7
  6
CONTINUOUS
370
-3
390
F
  0
LAYER
  5
205
100
AcDbSymbolTableRecord
100
AcDbLayerTableRecord
  2
PLAZIERUNG
 70
0
 62
7
  6
CONTINUOUS
370
-3
390
F
  0
LAYER
  5
206
100
AcDbSymbolTableRecord
100
AcDbLayerTableRecord
  2
RUNDUNGEN
 70
0
 62
7
  6
CONTINUOUS
370
-3
390
F
  0
LAYER
  5
207
100
AcDbSymbolTableRecord
100
AcDbLayerTableRecord
  2
TEIL_STARTBEZUEGE
 70
0
 62
7
  6
CONTINUOUS
370
-3
390
F
  0
LAYER
  5
208
100
AcDbSymbolTableRecord
100
AcDbLayerTableRecord
  2
T_STARTBEZUEGE
 70
0
 62
7
  6
CONTINUOUS
370
-3
390
F
  0
LAYER
  5
209
100
AcDbSymbolTableRecord
100
AcDbLayerTableRecord
  2
ZEICHNUNGSBEMASSUNGEN
 70
0
 62
7
  6
CONTINUOUS
370
-3
390
F
  0
ENDTAB
  0
TABLE
  2
STYLE
  5
3
100
AcDbSymbolTable
 70
1
  0
STYLE
  5
11
100
AcDbSymbolTableRecord
100
AcDbTextStyleTableRecord
  2
STANDARD
 70
0
 40
0.0
 41
0.7
 50
0.0
 71
0
 42
0.2
  3
txt
  4

  0
STYLE
  5
20A
100
AcDbSymbolTableRecord
100
AcDbTextStyleTableRecord
  2
TEXTSTYLE_1
 70
0
 40
0.0
 41
0.8
 50
0.0
 71
0
 42
0.2
  3
gdt
  4

  0
ENDTAB
  0
TABLE
  2
VIEW
  5
6
100
AcDbSymbolTable
 70
0
  0
ENDTAB
  0
TABLE
  2
UCS
  5
7
100
AcDbSymbolTable
 70
0
  0
ENDTAB
  0
TABLE
  2
APPID
  5
9
100
AcDbSymbolTable
 70
1
  0
APPID
  5
20B
100
AcDbSymbolTableRecord
100
AcDbRegAppTableRecord
  2
ACAD
 70
0
  0
ENDTAB
  0
TABLE
  2
BLOCK_RECORD
  5
1
100
AcDbSymbolTable
 70
0
  0
BLOCK_RECORD
  5
20C
100
AcDbSymbolTableRecord
100
AcDbBlockTableRecord
  2
*Model_Space
  0
BLOCK_RECORD
  5
20D
100
AcDbSymbolTableRecord
100
AcDbBlockTableRecord
  2
*Paper_Space
  0
ENDTAB
  0
TABLE
  2
DIMSTYLE
  5
A
100
AcDbSymbolTable
 70
1
100
AcDbDimStyleTable
 71
0
  0
DIMSTYLE
105
20E
100
AcDbSymbolTableRecord
100
AcDbDimStyleTableRecord
  2
STANDARD
 70
0
  3

  4

 40
1.0
 41
3.5
 42
0.0625
 43
0.38
 44
0.18
 45
0.0
 46
0.0
 47
0.005
 48
0.005
140
3.5
141
0.09
142
0.0
143
25.4
144
1.0
145
0.0
146
1.0
147
0.09
 71
1.0
 72
0.0
 73
0
 74
0
 75
0
 76
0
 77
1
 78
8
170
0
171
2
172
0
173
0
174
0
175
0
176
0
177
0
178
5
270
2
271
3
272
3
273
2
274
2
275
0
280
0
281
0
282
0
283
1
284
8
285
0
286
0
287
3
288
0
340
11
  0
ENDTAB
  0
ENDSEC
  0
SECTION
  2
BLOCKS
  0
BLOCK
  5
20
100
AcDbEntity
  8
0
100
AcDbBlockBegin
  2
*Model_Space
 70
0
 10
0.0
 20
0.0
 30
0.0
  3
*Model_Space
  1

  0
ENDBLK
  5
21
100
AcDbEntity
  8
0
100
AcDbBlockEnd
  0
BLOCK
  5
1C
100
AcDbEntity
  8
0
100
AcDbBlockBegin
  2
*Paper_Space
 70
0
 10
0.0
 20
0.0
 30
0.0
  3
*Paper_Space
  1

  0
ENDBLK
  5
1D
100
AcDbEntity
  8
0
100
AcDbBlockEnd
  0
ENDSEC
  0
SECTION
  2
ENTITIES
  0
MTEXT
  5
20F
100
AcDbEntity
  8
0
100
AcDbMText
 62
5
  6
CONTINUOUS
  7
STANDARD
 71
2
 72
1
 10
191.5693755372
 20
59.058869336
 30
0.0
 11
0.0
 21
1.0
 31
0.0
 44
0.9
  1
RUD WPPH-B\P4t
 40
8.0
 41
69.3333333333
  0
MTEXT
  5
210
100
AcDbEntity
  8
0
100
AcDbMText
 62
5
  6
CONTINUOUS
  7
STANDARD
 71
2
 72
1
 10
356.6705138521
 20
187.918496734
 30
0.0
 11
1.0
 21
0.0
 31
0.0
 44
0.9
  1
RUD\PWPPH-B 4t
 40
7.0
 41
51.5
  0
LINE
  5
211
100
AcDbEntity
  8
0
100
AcDbLine
 62
7
  6
CONTINUOUS
 10
0.0
 20
0.0
 11
0.0
 21
420.0
  0
LINE
  5
212
100
AcDbEntity
  8
0
100
AcDbLine
 62
7
  6
CONTINUOUS
 10
0.0
 20
0.0
 11
594.0
 21
0.0
  0
LINE
  5
213
100
AcDbEntity
  8
0
100
AcDbLine
 62
7
  6
CONTINUOUS
 10
0.0
 20
420.0
 11
594.0
 21
420.0
  0
LINE
  5
214
100
AcDbEntity
  8
0
100
AcDbLine
 62
7
  6
CONTINUOUS
 10
594.0
 20
0.0
 11
594.0
 21
420.0
  0
LINE
  5
215
100
AcDbEntity
  8
0
100
AcDbLine
 62
7
  6
CONTINUOUS
 10
168.3281943256
 20
159.8932605279
 11
231.2935965385
 21
159.8932605279
  0
LINE
  5
216
100
AcDbEntity
  8
0
100
AcDbLine
 62
7
  6
CONTINUOUS
 10
233.8108954321
 20
162.8932605279
 11
165.8108954321
 21
162.8932605279
  0
LINE
  5
217
100
AcDbEntity
  8
0
100
AcDbLine
 62
7
  6
CONTINUOUS
 10
230.3231880369
 20
163.8932605279
 11
231.0408264879
 21
163.8932605279
  0
LINE
  5
218
100
AcDbEntity
  8
0
100
AcDbLine
 62
7
  6
CONTINUOUS
 10
232.8638684215
 20
163.8932605279
 11
233.3313969712
 21
163.8932605279
  0
LINE
  5
219
100
AcDbEntity
  8
0
100
AcDbLine
 62
7
  6
CONTINUOUS
 10
182.9990739817
 20
326.390088476
 11
182.4177707182
 21
326.1273935429
  0
LINE
  5
21A
100
AcDbEntity
  8
0
100
AcDbLine
 62
7
  6
CONTINUOUS
 10
188.5797554182
 20
329.4089360428
 11
185.8138172199
 21
328.2472192601
  0
LINE
  5
21B
100
AcDbEntity
  8
0
100
AcDbLine
 62
7
  6
CONTINUOUS
 10
186.7524755236
 20
327.9491510369
 11
188.942176817
 21
328.8688435823
  0
LINE
  5
21C
100
AcDbEntity
  8
0
100
AcDbLine
 62
7
  6
CONTINUOUS
 10
189.6836982178
 20
327.103350996
 11
187.4939969243
 21
326.1836584507
  0
LINE
  5
21D
100
AcDbEntity
  8
0
100
AcDbLine
 62
7
  6
CONTINUOUS
 10
182.8930170817
 20
325.6833328029
 11
183.2717144674
 21
325.7995664172
  0
LINE
  5
21E
100
AcDbEntity
  8
0
100
AcDbLine
 62
7
  6
CONTINUOUS
 10
233.8108954321
 20
166.1273030383
 11
233.9695327436
 21
166.1273030383
  0
LINE
  5
21F
100
AcDbEntity
  8
0
100
AcDbLine
 62
7
  6
CONTINUOUS
 10
233.7979678825
 20
166.6060263855
 11
234.0608953435
 21
166.6060263855
  0
LINE
  5
220
100
AcDbEntity
  8
0
100
AcDbLine
 62
7
  6
CONTINUOUS
 10
233.8000797182
 20
167.2443244052
 11
233.3313969712
 21
167.2443244052
  0
LINE
  5
221
100
AcDbEntity
  8
0
100
AcDbLine
 62
7
  6
CONTINUOUS
 10
232.1605476713
 20
167.2443244052
 11
231.0408264879
 21
167.2443244052
  0
LINE
  5
222
100
AcDbEntity
  8
0
100
AcDbLine
 62
7
  6
CONTINUOUS
 10
233.8879565099
 20
167.4038988543
 11
234.0608953435
 21
167.4038988543
  0
LINE
  5
223
100
AcDbEntity
  8
0
100
AcDbLine
 62
7
  6
CONTINUOUS
 10
233.8191090895
 20
168.2017710996
 11
233.3313969712
 21
168.2017710996
  0
LINE
  5
224
100
AcDbEntity
  8
0
100
AcDbLine
 62
7
  6
CONTINUOUS
 10
232.2144632546
 20
168.2017710996
 11
231.0408264879
 21
168.2017710996
  0
LINE
  5
225
100
AcDbEntity
  8
0
100
AcDbLine
 62
7
  6
CONTINUOUS
 10
232.1080992094
 20
168.3613455487
 11
232.371176018
 21
168.3613455487
  0
LINE
  5
226
100
AcDbEntity
  8
0
100
AcDbLine
 62
7
  6
CONTINUOUS
 10
233.6204349598
 20
168.3613455487
 11
233.8718329277
 21
168.3613455487
  0
LINE
  5
227
100
AcDbEntity
  8
0
100
AcDbLine
 62
7
  6
CONTINUOUS
 10
232.2092340276
 20
168.6804944468
 11
232.4714962188
 21
168.6804944468
  0
LINE
  5
228
100
AcDbEntity
  8
0
100
AcDbLine
 62
7
  6
CONTINUOUS
 10
233.6521926654
 20
168.6804944468
 11
233.9033564526
 21
168.6804944468
  0
LINE
  5
229
100
AcDbEntity
  8
0
100
AcDbLine
 62
7
  6
CONTINUOUS
 10
232.2585545604
 20
169.159217794
 11
232.5204213062
 21
169.159217794
  0
LINE
  5
22A
100
AcDbEntity
  8
0
100
AcDbLine
 62
7
  6
CONTINUOUS
 10
233.6669787387
 20
169.159217794
 11
233.9180336419
 21
169.159217794
  0
LINE
  5
22B
100
AcDbEntity
  8
0
100
AcDbLine
 62
7
  6
CONTINUOUS
 10
232.2585545604
 20
169.6379415882
 11
232.5204213062
 21
169.6379415882
  0
LINE
  5
22C
100
AcDbEntity
  8
0
100
AcDbLine
 62
7
  6
CONTINUOUS
 10
233.6669787387
 20
169.6379415882
 11
233.9180336419
 21
169.6379415882
  0
LINE
  5
22D
100
AcDbEntity
  8
0
100
AcDbLine
 62
7
  6
CONTINUOUS
 10
232.2092340276
 20
170.1166649354
 11
232.4714962188
 21
170.1166649354
  0
LINE
  5
22E
100
AcDbEntity
  8
0
100
AcDbLine
 62
7
  6
CONTINUOUS
 10
233.6521926654
 20
170.1166649354
 11
233.9033564526
 21
170.1166649354
  0
LINE
  5
22F
100
AcDbEntity
  8
0
100
AcDbLine
 62
7
  6
CONTINUOUS
 10
232.1080992094
 20
170.4358138335
 11
232.371176018
 21
170.4358138335
  0
LINE
  5
230
100
AcDbEntity
  8
0
100
AcDbLine
 62
7
  6
CONTINUOUS
 10
233.6204349598
 20
170.4358138335
 11
233.8718329277
 21
170.4358138335
  0
LINE
  5
231
100
AcDbEntity
  8
0
100
AcDbLine
 62
7
  6
CONTINUOUS
 10
233.8191090895
 20
170.5953882826
 11
233.3313969712
 21
170.5953882826
  0
LINE
  5
232
100
AcDbEntity
  8
0
100
AcDbLine
 62
7
  6
CONTINUOUS
 10
232.2144632546
 20
170.5953882826
 11
231.0408264879
 21
170.5953882826
  0
LINE
  5
233
100
AcDbEntity
  8
0
100
AcDbLine
 62
7
  6
CONTINUOUS
 10
230.3231880369
 20
171.3932605279
 11
232.1605476713
 21
171.3932605279
  0
LINE
  5
234
100
AcDbEntity
  8
0
100
AcDbLine
 62
7
  6
CONTINUOUS
 10
232.8638684215
 20
171.3932605279
 11
233.8000797182
 21
171.3932605279
  0
LINE
  5
235
100
AcDbEntity
  8
0
100
AcDbLine
 62
7
  6
CONTINUOUS
 10
168.3281943256
 20
159.8932605279
 11
165.8108954321
 21
162.8932605279
  0
LINE
  5
236
100
AcDbEntity
  8
0
100
AcDbLine
 62
7
  6
CONTINUOUS
 10
182.4177707182
 20
326.1273935429
 11
179.9865013436
 21
324.3698585565
  0
LINE
  5
237
100
AcDbEntity
  8
0
100
AcDbLine
 62
7
  6
CONTINUOUS
 10
180.9682622568
 20
324.2919510085
 11
182.8930170817
 21
325.6833328029
  0
LINE
  5
238
100
AcDbEntity
  8
0
100
AcDbLine
 62
7
  6
CONTINUOUS
 10
184.0148479998
 20
324.1314586291
 11
182.0900931749
 21
322.7400768348
  0
LINE
  5
239
100
AcDbEntity
  8
0
100
AcDbLine
 62
7
  6
CONTINUOUS
 10
189.865059078
 20
326.3487491351
 11
190.391861232
 21
326.7084728563
  0
LINE
  5
23A
100
AcDbEntity
  8
0
100
AcDbLine
 62
7
  6
CONTINUOUS
 10
187.7906054293
 20
325.4774615481
 11
189.865059078
 21
326.3487491351
  0
LINE
  5
23B
100
AcDbEntity
  8
0
100
AcDbLine
 62
7
  6
CONTINUOUS
 10
188.1372507854
 20
322.7153428635
 11
188.8287353349
 21
323.0057720592
  0
LINE
  5
23C
100
AcDbEntity
  8
0
100
AcDbLine
 62
7
  6
CONTINUOUS
 10
232.3070490506
 20
174.8932605279
 11
232.840179314
 21
174.8932605279
  0
LINE
  5
23D
100
AcDbEntity
  8
0
100
AcDbLine
 62
7
  6
CONTINUOUS
 10
233.4176370831
 20
174.8932605279
 11
234.059469761
 21
174.8932605279
  0
LINE
  5
23E
100
AcDbEntity
  8
0
100
AcDbLine
 62
7
  6
CONTINUOUS
 10
233.8114827641
 20
175.0528349909
 11
234.0434269034
 21
175.0528349909
  0
LINE
  5
23F
100
AcDbEntity
  8
0
100
AcDbLine
 62
7
  6
CONTINUOUS
 10
233.7962301481
 20
175.371983931
 11
234.017742662
 21
175.371983931
  0
LINE
  5
240
100
AcDbEntity
  8
0
100
AcDbLine
 62
7
  6
CONTINUOUS
 10
234.0608954321
 20
175.850707334
 11
234.059469761
 21
175.850707334
  0
LINE
  5
241
100
AcDbEntity
  8
0
100
AcDbLine
 62
7
  6
CONTINUOUS
 10
233.7649319557
 20
176.0102817831
 11
233.9806091759
 21
176.0102817831
  0
LINE
  5
242
100
AcDbEntity
  8
0
100
AcDbLine
 62
7
  6
CONTINUOUS
 10
233.7318521121
 20
176.6485796911
 11
233.9577376979
 21
176.6485796911
  0
LINE
  5
243
100
AcDbEntity
  8
0
100
AcDbLine
 62
7
  6
CONTINUOUS
 10
233.6943699132
 20
177.4464519364
 11
233.9452233574
 21
177.4464519364
  0
LINE
  5
244
100
AcDbEntity
  8
0
100
AcDbLine
 62
7
  6
CONTINUOUS
 10
233.4564368898
 20
178.2443244052
 11
232.840179314
 21
178.2443244052
  0
LINE
  5
245
100
AcDbEntity
  8
0
100
AcDbLine
 62
7
  6
CONTINUOUS
 10
189.9800057418
 20
327.3662650776
 11
189.6836982178
 21
327.103350996
  0
LINE
  5
246
100
AcDbEntity
  8
0
100
AcDbLine
 62
7
  6
CONTINUOUS
 10
182.5388254584
 20
322.1193272812
 11
184.3622774893
 21
323.437478521
  0
LINE
  5
247
100
AcDbEntity
  8
0
100
AcDbLine
 62
7
  6
CONTINUOUS
 10
183.5015713163
 20
319.5073198074
 11
184.1093886599
 21
319.946703554
  0
LINE
  5
248
100
AcDbEntity
  8
0
100
AcDbLine
 62
7
  6
CONTINUOUS
 10
216.8369223296
 20
322.9837870365
 11
217.4329707955
 21
323.198502279
  0
LINE
  5
249
100
AcDbEntity
  8
0
100
AcDbLine
 62
7
  6
CONTINUOUS
 10
233.5144369243
 20
179.2017710996
 11
232.840179314
 21
179.2017710996
  0
LINE
  5
24A
100
AcDbEntity
  8
0
100
AcDbLine
 62
7
  6
CONTINUOUS
 10
233.342363836
 20
179.3613455487
 11
233.5958310295
 21
179.3613455487
  0
LINE
  5
24B
100
AcDbEntity
  8
0
100
AcDbLine
 62
7
  6
CONTINUOUS
 10
233.3932917693
 20
179.6804944468
 11
233.6463774554
 21
179.6804944468
  0
LINE
  5
24C
100
AcDbEntity
  8
0
100
AcDbLine
 62
7
  6
CONTINUOUS
 10
233.4176370831
 20
180.159217794
 11
233.6705407994
 21
180.159217794
  0
LINE
  5
24D
100
AcDbEntity
  8
0
100
AcDbLine
 62
7
  6
CONTINUOUS
 10
233.4176370831
 20
180.6379415882
 11
233.6705407994
 21
180.6379415882
  0
LINE
  5
24E
100
AcDbEntity
  8
0
100
AcDbLine
 62
7
  6
CONTINUOUS
 10
233.3932917693
 20
181.1166649354
 11
233.6463774554
 21
181.1166649354
  0
LINE
  5
24F
100
AcDbEntity
  8
0
100
AcDbLine
 62
7
  6
CONTINUOUS
 10
233.342363836
 20
181.4358138335
 11
233.5958310295
 21
181.4358138335
  0
LINE
  5
250
100
AcDbEntity
  8
0
100
AcDbLine
 62
7
  6
CONTINUOUS
 10
233.5144369243
 20
181.5953882826
 11
232.840179314
 21
181.5953882826
  0
LINE
  5
251
100
AcDbEntity
  8
0
100
AcDbLine
 62
7
  6
CONTINUOUS
 10
232.3070490506
 20
182.3932605279
 11
233.485811913
 21
182.3932605279
  0
LINE
  5
252
100
AcDbEntity
  8
0
100
AcDbLine
 62
7
  6
CONTINUOUS
 10
233.6943699132
 20
182.3932605279
 11
234.0095339447
 21
182.3932605279
  0
LINE
  5
253
100
AcDbEntity
  8
0
100
AcDbLine
 62
7
  6
CONTINUOUS
 10
184.3622774893
 20
323.437478521
 11
184.794003325
 21
323.9070899719
  0
LINE
  5
254
100
AcDbEntity
  8
0
100
AcDbLine
 62
7
  6
CONTINUOUS
 10
202.8118183748
 20
331.3900482559
 11
199.5403157979
 21
328.1997881677
  0
LINE
  5
255
100
AcDbEntity
  8
0
100
AcDbLine
 62
7
  6
CONTINUOUS
 10
215.3418163805
 20
320.7585633192
 11
215.9378648714
 21
320.9732785989
  0
LINE
  5
256
100
AcDbEntity
  8
0
100
AcDbLine
 62
7
  6
CONTINUOUS
 10
184.2439679578
 20
324.4546087614
 11
184.0148479998
 21
324.1314586291
  0
LINE
  5
257
100
AcDbEntity
  8
0
100
AcDbLine
 62
7
  6
CONTINUOUS
 10
200.4123917949
 20
328.1283205457
 11
202.7284032425
 21
330.3721840449
  0
LINE
  5
258
100
AcDbEntity
  8
0
100
AcDbLine
 62
7
  6
CONTINUOUS
 10
190.391861232
 20
326.7084728563
 11
190.704546899
 21
327.2551908637
  0
LINE
  5
259
100
AcDbEntity
  8
0
100
AcDbLine
 62
7
  6
CONTINUOUS
 10
217.1989762833
 20
323.970915242
 11
216.8816334813
 21
323.72273899
  0
LINE
  5
25A
100
AcDbEntity
  8
0
100
AcDbLine
 62
7
  6
CONTINUOUS
 10
217.4329707955
 20
323.198502279
 11
217.7503135975
 21
323.446678531
  0
LINE
  5
25B
100
AcDbEntity
  8
0
100
AcDbLine
 62
7
  6
CONTINUOUS
 10
215.7038704091
 20
321.745691636
 11
215.3865276071
 21
321.497515384
  0
LINE
  5
25C
100
AcDbEntity
  8
0
100
AcDbLine
 62
7
  6
CONTINUOUS
 10
215.9378648714
 20
320.9732785989
 11
216.2552077232
 21
321.2214549251
  0
LINE
  5
25D
100
AcDbEntity
  8
RUNDUNGEN
100
AcDbLine
 62
7
  6
CONTINUOUS
 10
230.8108954321
 20
197.8932605279
 11
219.8108949768
 21
197.8932605279
  0
LINE
  5
25E
100
AcDbEntity
  8
RUNDUNGEN
100
AcDbLine
 62
7
  6
CONTINUOUS
 10
179.8108954321
 20
197.8932605279
 11
168.8108954321
 21
197.8932605279
  0
LINE
  5
25F
100
AcDbEntity
  8
0
100
AcDbLine
 62
7
  6
CONTINUOUS
 10
171.0317286263
 20
282.3681539762
 11
170.8858954321
 21
281.9213455189
  0
LINE
  5
260
100
AcDbEntity
  8
0
100
AcDbLine
 62
7
  6
CONTINUOUS
 10
190.1116308702
 20
327.6984736847
 11
189.9800057418
 21
327.3662650776
  0
LINE
  5
261
100
AcDbEntity
  8
0
100
AcDbLine
 62
7
  6
CONTINUOUS
 10
171.3233954321
 20
281.1766647566
 11
171.7608954321
 21
281.7724093664
  0
LINE
  5
262
100
AcDbEntity
  8
0
100
AcDbLine
 62
7
  6
CONTINUOUS
 10
170.8858954321
 20
281.9213455189
 11
170.5942286263
 21
281.6234732139
  0
LINE
  5
263
100
AcDbEntity
  8
0
100
AcDbLine
 62
7
  6
CONTINUOUS
 10
170.7400622378
 20
280.8787924517
 11
171.3233954321
 21
281.1766647566
  0
LINE
  5
264
100
AcDbEntity
  8
0
100
AcDbLine
 62
7
  6
CONTINUOUS
 10
170.5942286263
 20
281.6234732139
 11
170.1567286263
 21
281.4745370615
  0
LINE
  5
265
100
AcDbEntity
  8
0
100
AcDbLine
 62
7
  6
CONTINUOUS
 10
184.8108954321
 20
207.7432605279
 11
184.3108954321
 21
207.7432605279
  0
LINE
  5
266
100
AcDbEntity
  8
0
100
AcDbLine
 62
7
  6
CONTINUOUS
 10
184.8108954321
 20
209.4099272442
 11
184.3108954321
 21
209.4099272442
  0
LINE
  5
267
100
AcDbEntity
  8
0
100
AcDbLine
 62
7
  6
CONTINUOUS
 10
184.8108954321
 20
210.2432605279
 11
184.3108954321
 21
210.2432605279
  0
LINE
  5
268
100
AcDbEntity
  8
0
100
AcDbLine
 62
7
  6
CONTINUOUS
 10
165.8108954321
 20
194.8932605279
 11
165.8108954321
 21
162.8932605279
  0
LINE
  5
269
100
AcDbEntity
  8
0
100
AcDbLine
 62
7
  6
CONTINUOUS
 10
166.5108954321
 20
284.4532605279
 11
166.5108954321
 21
277.4532605279
  0
LINE
  5
26A
100
AcDbEntity
  8
0
100
AcDbLine
 62
7
  6
CONTINUOUS
 10
166.5108954321
 20
276.4532605279
 11
166.5108954321
 21
271.8362391758
  0
LINE
  5
26B
100
AcDbEntity
  8
0
100
AcDbLine
 62
7
  6
CONTINUOUS
 10
166.5108954321
 20
268.4532605279
 11
166.5108954321
 21
261.4532605279
  0
LINE
  5
26C
100
AcDbEntity
  8
0
100
AcDbLine
 62
7
  6
CONTINUOUS
 10
167.3858954321
 20
262.3468775469
 11
167.3858954321
 21
267.5596436131
  0
LINE
  5
26D
100
AcDbEntity
  8
0
100
AcDbLine
 62
7
  6
CONTINUOUS
 10
167.3858954321
 20
271.8362391758
 11
167.3858954321
 21
276.4532605279
  0
LINE
  5
26E
100
AcDbEntity
  8
0
100
AcDbLine
 62
7
  6
CONTINUOUS
 10
167.3858954321
 20
277.4532605279
 11
167.3858954321
 21
280.5809201467
  0
LINE
  5
26F
100
AcDbEntity
  8
0
100
AcDbLine
 62
7
  6
CONTINUOUS
 10
167.3858954321
 20
281.4745370615
 11
167.3858954321
 21
283.7085797656
  0
LINE
  5
270
100
AcDbEntity
  8
0
100
AcDbLine
 62
7
  6
CONTINUOUS
 10
171.6150622378
 20
271.0915584135
 11
171.7608954321
 21
271.8362391758
  0
LINE
  5
271
100
AcDbEntity
  8
0
100
AcDbLine
 62
7
  6
CONTINUOUS
 10
170.8858954321
 20
271.8362391758
 11
170.7400622378
 21
271.240494566
  0
LINE
  5
272
100
AcDbEntity
  8
0
100
AcDbLine
 62
7
  6
CONTINUOUS
 10
184.794003325
 20
323.9070899719
 11
184.9748486491
 21
324.5103871766
  0
LINE
  5
273
100
AcDbEntity
  8
0
100
AcDbLine
 62
7
  6
CONTINUOUS
 10
171.7608954321
 20
281.7724093664
 11
171.9067286263
 21
282.2192178238
  0
LINE
  5
274
100
AcDbEntity
  8
0
100
AcDbLine
 62
7
  6
CONTINUOUS
 10
171.3233954321
 20
270.4958136994
 11
171.6150622378
 21
271.0915584135
  0
LINE
  5
275
100
AcDbEntity
  8
0
100
AcDbLine
 62
7
  6
CONTINUOUS
 10
170.7400622378
 20
271.240494566
 11
170.4483954321
 21
270.7936861086
  0
LINE
  5
276
100
AcDbEntity
  8
0
100
AcDbLine
 62
7
  6
CONTINUOUS
 10
171.3233954321
 20
263.240494566
 11
171.0317286263
 21
262.7936861086
  0
LINE
  5
277
100
AcDbEntity
  8
0
100
AcDbLine
 62
7
  6
CONTINUOUS
 10
214.979293267
 20
327.615479103
 11
211.6331037537
 21
322.6352164853
  0
LINE
  5
278
100
AcDbEntity
  8
0
100
AcDbLine
 62
7
  6
CONTINUOUS
 10
170.7400622378
 20
269.9000690374
 11
171.3233954321
 21
270.4958136994
  0
LINE
  5
279
100
AcDbEntity
  8
0
100
AcDbLine
 62
7
  6
CONTINUOUS
 10
170.4483954321
 20
270.7936861086
 11
170.0108954321
 21
270.4958136994
  0
LINE
  5
27A
100
AcDbEntity
  8
0
100
AcDbLine
 62
7
  6
CONTINUOUS
 10
170.1567286263
 20
269.6021966934
 11
170.7400622378
 21
269.9000690374
  0
LINE
  5
27B
100
AcDbEntity
  8
0
100
AcDbLine
 62
7
  6
CONTINUOUS
 10
184.8108954321
 20
211.9099270952
 11
184.3108954321
 21
211.9099270952
  0
LINE
  5
27C
100
AcDbEntity
  8
0
100
AcDbLine
 62
7
  6
CONTINUOUS
 10
184.8108954321
 20
212.7432605279
 11
184.3108954321
 21
212.7432605279
  0
LINE
  5
27D
100
AcDbEntity
  8
0
100
AcDbLine
 62
7
  6
CONTINUOUS
 10
184.4129400718
 20
213.3682605279
 11
184.3108954321
 21
213.3682605279
  0
LINE
  5
27E
100
AcDbEntity
  8
0
100
AcDbLine
 62
7
  6
CONTINUOUS
 10
184.8108954321
 20
214.4362119882
 11
184.3108954321
 21
214.4362119882
  0
LINE
  5
27F
100
AcDbEntity
  8
0
100
AcDbLine
 62
7
  6
CONTINUOUS
 10
170.8858954321
 20
276.4532605279
 11
170.8858954321
 21
271.8362391758
  0
LINE
  5
280
100
AcDbEntity
  8
0
100
AcDbLine
 62
7
  6
CONTINUOUS
 10
171.0317286263
 20
282.8149628508
 11
171.0317286263
 21
282.3681539762
  0
LINE
  5
281
100
AcDbEntity
  8
0
100
AcDbLine
 62
7
  6
CONTINUOUS
 10
171.4692286263
 20
266.0702816713
 11
171.4692286263
 21
263.8362391758
  0
LINE
  5
282
100
AcDbEntity
  8
0
100
AcDbLine
 62
7
  6
CONTINUOUS
 10
171.7608954321
 20
271.8362391758
 11
171.7608954321
 21
276.4532605279
  0
LINE
  5
283
100
AcDbEntity
  8
0
100
AcDbLine
 62
7
  6
CONTINUOUS
 10
171.9067286263
 20
282.2192178238
 11
171.9067286263
 21
282.8149628508
  0
LINE
  5
284
100
AcDbEntity
  8
0
100
AcDbLine
 62
7
  6
CONTINUOUS
 10
172.3442286263
 20
263.8362391758
 11
172.3442286263
 21
266.0702816713
  0
LINE
  5
285
100
AcDbEntity
  8
0
100
AcDbLine
 62
7
  6
CONTINUOUS
 10
184.2969964078
 20
324.8079865979
 11
184.2439679578
 21
324.4546087614
  0
LINE
  5
286
100
AcDbEntity
  8
0
100
AcDbLine
 62
7
  6
CONTINUOUS
 10
172.1983954321
 20
263.0915584135
 11
172.3442286263
 21
263.8362391758
  0
LINE
  5
287
100
AcDbEntity
  8
0
100
AcDbLine
 62
7
  6
CONTINUOUS
 10
190.704546899
 20
327.2551908637
 11
190.8525501705
 21
327.8712033967
  0
LINE
  5
288
100
AcDbEntity
  8
0
100
AcDbLine
 62
7
  6
CONTINUOUS
 10
171.4692286263
 20
263.8362391758
 11
171.3233954321
 21
263.240494566
  0
LINE
  5
289
100
AcDbEntity
  8
0
100
AcDbLine
 62
7
  6
CONTINUOUS
 10
171.9067286263
 20
262.4958136994
 11
172.1983954321
 21
263.0915584135
  0
LINE
  5
28A
100
AcDbEntity
  8
0
100
AcDbLine
 62
7
  6
CONTINUOUS
 10
212.6828097092
 20
322.8527210011
 11
213.7507425548
 21
324.4421665506
  0
LINE
  5
28B
100
AcDbEntity
  8
0
100
AcDbLine
 62
7
  6
CONTINUOUS
 10
214.1779156333
 20
325.0779446813
 11
215.1746530157
 21
326.5614272831
  0
LINE
  5
28C
100
AcDbEntity
  8
0
100
AcDbLine
 62
7
  6
CONTINUOUS
 10
217.3413673095
 20
324.1828412855
 11
217.1989762833
 21
323.970915242
  0
LINE
  5
28D
100
AcDbEntity
  8
0
100
AcDbLine
 62
7
  6
CONTINUOUS
 10
215.9174569483
 20
322.0635807014
 11
215.7038704091
 21
321.745691636
  0
LINE
  5
28E
100
AcDbEntity
  8
0
100
AcDbLine
 62
7
  6
CONTINUOUS
 10
216.2552077232
 20
321.2214549251
 11
216.6111852886
 21
321.751270034
  0
LINE
  5
28F
100
AcDbEntity
  8
0
100
AcDbLine
 62
7
  6
CONTINUOUS
 10
217.7503135975
 20
323.446678531
 11
218.0350958492
 21
323.870530915
  0
LINE
  5
290
100
AcDbEntity
  8
0
100
AcDbLine
 62
7
  6
CONTINUOUS
 10
171.3233954321
 20
261.9000690374
 11
171.9067286263
 21
262.4958136994
  0
LINE
  5
291
100
AcDbEntity
  8
0
100
AcDbLine
 62
7
  6
CONTINUOUS
 10
171.0317286263
 20
262.7936861086
 11
170.5942286263
 21
262.4958136994
  0
LINE
  5
292
100
AcDbEntity
  8
0
100
AcDbLine
 62
7
  6
CONTINUOUS
 10
170.7400622378
 20
261.6021966934
 11
171.3233954321
 21
261.9000690374
  0
LINE
  5
293
100
AcDbEntity
  8
0
100
AcDbLine
 62
7
  6
CONTINUOUS
 10
184.8108954321
 20
217.7362119882
 11
184.3108954321
 21
217.7362119882
  0
LINE
  5
294
100
AcDbEntity
  8
0
100
AcDbLine
 62
7
  6
CONTINUOUS
 10
184.8108954321
 20
219.5362119882
 11
184.3108954321
 21
219.5362119882
  0
LINE
  5
295
100
AcDbEntity
  8
0
100
AcDbLine
 62
7
  6
CONTINUOUS
 10
184.8108954321
 20
222.8362119882
 11
184.3108954321
 21
222.8362119882
  0
LINE
  5
296
100
AcDbEntity
  8
0
100
AcDbLine
 62
7
  6
CONTINUOUS
 10
167.5317287306
 20
271.240494566
 11
167.3858954321
 21
271.8362391758
  0
LINE
  5
297
100
AcDbEntity
  8
0
100
AcDbLine
 62
7
  6
CONTINUOUS
 10
166.5108954321
 20
271.8362391758
 11
166.6567287697
 21
271.0915584135
  0
LINE
  5
298
100
AcDbEntity
  8
0
100
AcDbLine
 62
7
  6
CONTINUOUS
 10
210.2565813605
 20
326.2945854961
 11
209.9933652748
 21
325.7130860575
  0
LINE
  5
299
100
AcDbEntity
  8
0
100
AcDbLine
 62
7
  6
CONTINUOUS
 10
211.5876443835
 20
324.9914346185
 11
211.8508604692
 21
325.5729340572
  0
LINE
  5
29A
100
AcDbEntity
  8
0
100
AcDbLine
 62
7
  6
CONTINUOUS
 10
166.6567287697
 20
271.0915584135
 11
166.9483954321
 21
270.4958136994
  0
LINE
  5
29B
100
AcDbEntity
  8
0
100
AcDbLine
 62
7
  6
CONTINUOUS
 10
171.3233954321
 20
266.6660262812
 11
171.4692286263
 21
266.0702816713
  0
LINE
  5
29C
100
AcDbEntity
  8
0
100
AcDbLine
 62
7
  6
CONTINUOUS
 10
172.3442286263
 20
266.0702816713
 11
172.1983954321
 21
266.8149628508
  0
LINE
  5
29D
100
AcDbEntity
  8
0
100
AcDbLine
 62
7
  6
CONTINUOUS
 10
184.3108954321
 20
207.7432605279
 11
184.3108954321
 21
211.9099270952
  0
LINE
  5
29E
100
AcDbEntity
  8
0
100
AcDbLine
 62
7
  6
CONTINUOUS
 10
184.3108954321
 20
212.7432605279
 11
184.3108954321
 21
213.3682605279
  0
LINE
  5
29F
100
AcDbEntity
  8
0
100
AcDbLine
 62
7
  6
CONTINUOUS
 10
184.3108954321
 20
214.4365173786
 11
184.3108954321
 21
217.7362119882
  0
LINE
  5
2A0
100
AcDbEntity
  8
0
100
AcDbLine
 62
7
  6
CONTINUOUS
 10
184.3108954321
 20
219.5365173786
 11
184.3108954321
 21
222.8362119882
  0
LINE
  5
2A1
100
AcDbEntity
  8
RUNDUNGEN
100
AcDbLine
 62
7
  6
CONTINUOUS
 10
184.8108954321
 20
231.8932605279
 11
184.8108954321
 21
202.8933052064
  0
LINE
  5
2A2
100
AcDbEntity
  8
0
100
AcDbLine
 62
7
  6
CONTINUOUS
 10
184.9748486491
 20
324.5103871766
 11
184.9796024653
 21
325.1439120856
  0
LINE
  5
2A3
100
AcDbEntity
  8
0
100
AcDbLine
 62
7
  6
CONTINUOUS
 10
206.4390180363
 20
328.8834323749
 11
206.2955999642
 21
328.3933480294
  0
LINE
  5
2A4
100
AcDbEntity
  8
0
100
AcDbLine
 62
7
  6
CONTINUOUS
 10
207.6856019899
 20
329.5827412523
 11
207.3987657453
 21
328.6025722181
  0
LINE
  5
2A5
100
AcDbEntity
  8
0
100
AcDbLine
 62
7
  6
CONTINUOUS
 10
207.2553476732
 20
328.1124878726
 11
206.5382572374
 21
325.6620658878
  0
LINE
  5
2A6
100
AcDbEntity
  8
0
100
AcDbLine
 62
7
  6
CONTINUOUS
 10
207.2098110194
 20
325.7315698452
 11
207.855192394
 21
327.9369495715
  0
LINE
  5
2A7
100
AcDbEntity
  8
0
100
AcDbLine
 62
7
  6
CONTINUOUS
 10
207.9986104661
 20
328.427033917
 11
208.2854467107
 21
329.4072029512
  0
LINE
  5
2A8
100
AcDbEntity
  8
0
100
AcDbLine
 62
7
  6
CONTINUOUS
 10
207.9309829913
 20
324.1903908322
 11
208.0744010759
 21
324.6804752206
  0
LINE
  5
2A9
100
AcDbEntity
  8
0
100
AcDbLine
 62
7
  6
CONTINUOUS
 10
209.1748458371
 20
327.5507667555
 11
209.3182639092
 21
328.0408511009
  0
LINE
  5
2AA
100
AcDbEntity
  8
0
100
AcDbLine
 62
7
  6
CONTINUOUS
 10
167.8233954321
 20
270.7936861086
 11
167.5317287306
 21
271.240494566
  0
LINE
  5
2AB
100
AcDbEntity
  8
0
100
AcDbLine
 62
7
  6
CONTINUOUS
 10
171.0317286263
 20
267.1128351558
 11
171.3233954321
 21
266.6660262812
  0
LINE
  5
2AC
100
AcDbEntity
  8
0
100
AcDbLine
 62
7
  6
CONTINUOUS
 10
172.1983954321
 20
266.8149628508
 11
171.9067286263
 21
267.4107074607
  0
LINE
  5
2AD
100
AcDbEntity
  8
0
100
AcDbLine
 62
7
  6
CONTINUOUS
 10
172.0525622378
 20
277.4532605279
 11
170.7400622378
 21
280.8787924517
  0
LINE
  5
2AE
100
AcDbEntity
  8
0
100
AcDbLine
 62
7
  6
CONTINUOUS
 10
169.8650620292
 20
280.5809201467
 11
171.0317286263
 21
277.4532605279
  0
LINE
  5
2AF
100
AcDbEntity
  8
0
100
AcDbLine
 62
7
  6
CONTINUOUS
 10
170.8858954321
 20
283.2617713082
 11
171.0317286263
 21
282.8149628508
  0
LINE
  5
2B0
100
AcDbEntity
  8
0
100
AcDbLine
 62
7
  6
CONTINUOUS
 10
171.9067286263
 20
282.8149628508
 11
171.7608954321
 21
283.2617713082
  0
LINE
  5
2B1
100
AcDbEntity
  8
0
100
AcDbLine
 62
7
  6
CONTINUOUS
 10
199.5403157979
 20
328.1997881677
 11
199.477754434
 21
327.4363898312
  0
LINE
  5
2B2
100
AcDbEntity
  8
0
100
AcDbLine
 62
7
  6
CONTINUOUS
 10
166.9483954321
 20
270.4958136994
 11
167.5317287306
 21
269.9000690374
  0
LINE
  5
2B3
100
AcDbEntity
  8
0
100
AcDbLine
 62
7
  6
CONTINUOUS
 10
171.9067286263
 20
267.4107074607
 11
171.3233954321
 21
268.0064520705
  0
LINE
  5
2B4
100
AcDbEntity
  8
0
100
AcDbLine
 62
7
  6
CONTINUOUS
 10
190.0785742624
 20
328.0999770943
 11
190.1116308702
 21
327.6984736847
  0
LINE
  5
2B5
100
AcDbEntity
  8
0
100
AcDbLine
 62
7
  6
CONTINUOUS
 10
190.8525501705
 20
327.8712033967
 11
190.8194935628
 21
328.2727068062
  0
LINE
  5
2B6
100
AcDbEntity
  8
0
100
AcDbLine
 62
7
  6
CONTINUOUS
 10
202.7284032425
 20
330.3721840449
 11
202.5302922741
 21
327.9547561874
  0
LINE
  5
2B7
100
AcDbEntity
  8
0
100
AcDbLine
 62
7
  6
CONTINUOUS
 10
202.4677309103
 20
327.1913578509
 11
202.3217544142
 21
325.4100953034
  0
LINE
  5
2B8
100
AcDbEntity
  8
0
100
AcDbLine
 62
7
  6
CONTINUOUS
 10
203.0692485332
 20
325.3488373083
 11
203.2152250294
 21
327.1300998558
  0
LINE
  5
2B9
100
AcDbEntity
  8
0
100
AcDbLine
 62
7
  6
CONTINUOUS
 10
203.2777863932
 20
327.8934981923
 11
203.5593124939
 21
331.3287902609
  0
LINE
  5
2BA
100
AcDbEntity
  8
0
100
AcDbLine
 62
7
  6
CONTINUOUS
 10
204.4610480859
 20
327.0280032363
 11
204.5236094497
 21
327.7914015728
  0
LINE
  5
2BB
100
AcDbEntity
  8
0
100
AcDbLine
 62
7
  6
CONTINUOUS
 10
216.0272873245
 20
322.4511827285
 11
215.9174569483
 21
322.0635807014
  0
LINE
  5
2BC
100
AcDbEntity
  8
0
100
AcDbLine
 62
7
  6
CONTINUOUS
 10
216.6111852886
 20
321.751270034
 11
216.7210156647
 21
322.1388720612
  0
LINE
  5
2BD
100
AcDbEntity
  8
0
100
AcDbLine
 62
7
  6
CONTINUOUS
 10
217.4511977854
 20
324.5704434611
 11
217.3413673095
 21
324.1828412855
  0
LINE
  5
2BE
100
AcDbEntity
  8
0
100
AcDbLine
 62
7
  6
CONTINUOUS
 10
218.0350958492
 20
323.870530915
 11
218.1449261256
 21
324.2581327938
  0
LINE
  5
2BF
100
AcDbEntity
  8
0
100
AcDbLine
 62
7
  6
CONTINUOUS
 10
170.5942286263
 20
267.4107074607
 11
171.0317286263
 21
267.1128351558
  0
LINE
  5
2C0
100
AcDbEntity
  8
0
100
AcDbLine
 62
7
  6
CONTINUOUS
 10
168.2608954321
 20
270.4958136994
 11
167.8233954321
 21
270.7936861086
  0
LINE
  5
2C1
100
AcDbEntity
  8
0
100
AcDbLine
 62
7
  6
CONTINUOUS
 10
171.7608954321
 20
283.2617713082
 11
171.3233954321
 21
283.8575159181
  0
LINE
  5
2C2
100
AcDbEntity
  8
0
100
AcDbLine
 62
7
  6
CONTINUOUS
 10
167.5317287306
 20
269.9000690374
 11
168.1150621335
 21
269.6021966934
  0
LINE
  5
2C3
100
AcDbEntity
  8
0
100
AcDbLine
 62
7
  6
CONTINUOUS
 10
171.3233954321
 20
268.0064520705
 11
170.7400622378
 21
268.3043243754
  0
LINE
  5
2C4
100
AcDbEntity
  8
0
100
AcDbLine
 62
7
  6
CONTINUOUS
 10
170.5942286263
 20
283.5596436131
 11
170.8858954321
 21
283.2617713082
  0
LINE
  5
2C5
100
AcDbEntity
  8
0
100
AcDbLine
 62
7
  6
CONTINUOUS
 10
207.2222141877
 20
325.3288994829
 11
207.2098110194
 21
325.7315698452
  0
LINE
  5
2C6
100
AcDbEntity
  8
KONSTRUKTIONSELEMENTE
100
AcDbLine
 62
7
  6
CONTINUOUS
 10
163.8876739738
 20
255.8932605279
 11
176.4368612673
 21
255.8932605279
  0
LINE
  5
2C7
100
AcDbEntity
  8
KONSTRUKTIONSELEMENTE
100
AcDbLine
 62
7
  6
CONTINUOUS
 10
223.1849295969
 20
255.8932605279
 11
235.7341168903
 21
255.8932605279
  0
LINE
  5
2C8
100
AcDbEntity
  8
0
100
AcDbLine
 62
7
  6
CONTINUOUS
 10
166.5108954321
 20
261.4532605279
 11
170.0108954321
 21
261.4532605279
  0
LINE
  5
2C9
100
AcDbEntity
  8
0
100
AcDbLine
 62
7
  6
CONTINUOUS
 10
170.7400622378
 20
268.3043243754
 11
170.0108954321
 21
268.4532605279
  0
LINE
  5
2CA
100
AcDbEntity
  8
0
100
AcDbLine
 62
7
  6
CONTINUOUS
 10
170.0108954321
 20
267.5596436131
 11
170.5942286263
 21
267.4107074607
  0
LINE
  5
2CB
100
AcDbEntity
  8
0
100
AcDbLine
 62
7
  6
CONTINUOUS
 10
168.8442288349
 20
270.3468775469
 11
168.2608954321
 21
270.4958136994
  0
LINE
  5
2CC
100
AcDbEntity
  8
0
100
AcDbLine
 62
7
  6
CONTINUOUS
 10
171.3233954321
 20
283.8575159181
 11
170.7400622378
 21
284.3043243754
  0
LINE
  5
2CD
100
AcDbEntity
  8
0
100
AcDbLine
 62
7
  6
CONTINUOUS
 10
184.17393306
 20
325.1915919293
 11
184.2969964078
 21
324.8079865979
  0
LINE
  5
2CE
100
AcDbEntity
  8
0
100
AcDbLine
 62
7
  6
CONTINUOUS
 10
184.9796024653
 20
325.1439120856
 11
184.8565391176
 21
325.5275174169
  0
LINE
  5
2CF
100
AcDbEntity
  8
0
100
AcDbLine
 62
7
  6
CONTINUOUS
 10
216.7210156647
 20
322.1388720612
 11
216.6945313034
 21
322.7718609929
  0
LINE
  5
2D0
100
AcDbEntity
  8
RUNDUNGEN
100
AcDbLine
 62
7
  6
CONTINUOUS
 10
214.8108954321
 20
202.8933403747
 11
214.8108954321
 21
231.8932605279
  0
LINE
  5
2D1
100
AcDbEntity
  8
0
100
AcDbLine
 62
7
  6
CONTINUOUS
 10
170.0108954321
 20
261.4532605279
 11
170.7400622378
 21
261.6021966934
  0
LINE
  5
2D2
100
AcDbEntity
  8
0
100
AcDbLine
 62
7
  6
CONTINUOUS
 10
170.0108954321
 20
262.3468775469
 11
167.3858954321
 21
262.3468775469
  0
LINE
  5
2D3
100
AcDbEntity
  8
0
100
AcDbLine
 62
7
  6
CONTINUOUS
 10
167.3858954321
 20
267.5596436131
 11
170.0108954321
 21
267.5596436131
  0
LINE
  5
2D4
100
AcDbEntity
  8
0
100
AcDbLine
 62
7
  6
CONTINUOUS
 10
170.0108954321
 20
268.4532605279
 11
166.5108954321
 21
268.4532605279
  0
LINE
  5
2D5
100
AcDbEntity
  8
0
100
AcDbLine
 62
7
  6
CONTINUOUS
 10
168.1150621335
 20
269.6021966934
 11
168.8442288349
 21
269.4532605279
  0
LINE
  5
2D6
100
AcDbEntity
  8
0
100
AcDbLine
 62
7
  6
CONTINUOUS
 10
185.8138172199
 20
328.2472192601
 11
188.1372507854
 21
322.7153428635
  0
LINE
  5
2D7
100
AcDbEntity
  8
0
100
AcDbLine
 62
7
  6
CONTINUOUS
 10
188.8287353349
 20
323.0057720592
 11
187.7906054293
 21
325.4774615481
  0
LINE
  5
2D8
100
AcDbEntity
  8
0
100
AcDbLine
 62
7
  6
CONTINUOUS
 10
187.4939969243
 20
326.1836584507
 11
186.7524755236
 21
327.9491510369
  0
LINE
  5
2D9
100
AcDbEntity
  8
0
100
AcDbLine
 62
7
  6
CONTINUOUS
 10
206.5382572374
 20
325.6620658878
 11
206.6347781394
 21
325.1017658575
  0
LINE
  5
2DA
100
AcDbEntity
  8
0
100
AcDbLine
 62
7
  6
CONTINUOUS
 10
218.1449261256
 20
324.2581327938
 11
218.1184417643
 21
324.8911217255
  0
LINE
  5
2DB
100
AcDbEntity
  8
0
100
AcDbLine
 62
7
  6
CONTINUOUS
 10
170.5942286263
 20
262.4958136994
 11
170.0108954321
 21
262.3468775469
  0
LINE
  5
2DC
100
AcDbEntity
  8
0
100
AcDbLine
 62
7
  6
CONTINUOUS
 10
168.8442288349
 20
269.4532605279
 11
169.4275620292
 21
269.4532605279
  0
LINE
  5
2DD
100
AcDbEntity
  8
0
100
AcDbLine
 62
7
  6
CONTINUOUS
 10
169.4275620292
 20
270.3468775469
 11
168.8442288349
 21
270.3468775469
  0
LINE
  5
2DE
100
AcDbEntity
  8
0
100
AcDbLine
 62
7
  6
CONTINUOUS
 10
170.1567286263
 20
283.7085797656
 11
170.5942286263
 21
283.5596436131
  0
LINE
  5
2DF
100
AcDbEntity
  8
0
100
AcDbLine
 62
7
  6
CONTINUOUS
 10
189.9302698715
 20
328.4530758754
 11
190.0785742624
 21
328.0999770943
  0
LINE
  5
2E0
100
AcDbEntity
  8
0
100
AcDbLine
 62
7
  6
CONTINUOUS
 10
190.8194935628
 20
328.2727068062
 11
190.6217544211
 21
328.743505071
  0
LINE
  5
2E1
100
AcDbEntity
  8
0
100
AcDbLine
 62
7
  6
CONTINUOUS
 10
230.3231880369
 20
171.3932605279
 11
230.3231880369
 21
163.8932605279
  0
LINE
  5
2E2
100
AcDbEntity
  8
0
100
AcDbLine
 62
7
  6
CONTINUOUS
 10
230.6015190048
 20
171.3932605279
 11
230.6015190048
 21
163.8932605279
  0
LINE
  5
2E3
100
AcDbEntity
  8
0
100
AcDbLine
 62
7
  6
CONTINUOUS
 10
231.0408264879
 20
170.5953882826
 11
231.0408264879
 21
168.2017710996
  0
LINE
  5
2E4
100
AcDbEntity
  8
0
100
AcDbLine
 62
7
  6
CONTINUOUS
 10
231.0408264879
 20
167.2443244052
 11
231.0408264879
 21
163.8932605279
  0
LINE
  5
2E5
100
AcDbEntity
  8
0
100
AcDbLine
 62
7
  6
CONTINUOUS
 10
232.2585545604
 20
169.6379415882
 11
232.2585545604
 21
169.159217794
  0
LINE
  5
2E6
100
AcDbEntity
  8
0
100
AcDbLine
 62
7
  6
CONTINUOUS
 10
232.3070490506
 20
182.3932605279
 11
232.3070490506
 21
174.8932605279
  0
LINE
  5
2E7
100
AcDbEntity
  8
0
100
AcDbLine
 62
7
  6
CONTINUOUS
 10
232.5204213062
 20
169.6379415882
 11
232.5204213062
 21
169.159217794
  0
LINE
  5
2E8
100
AcDbEntity
  8
0
100
AcDbLine
 62
7
  6
CONTINUOUS
 10
232.5685281304
 20
182.3932605279
 11
232.5685281304
 21
174.8932605279
  0
LINE
  5
2E9
100
AcDbEntity
  8
0
100
AcDbLine
 62
7
  6
CONTINUOUS
 10
232.7969098274
 20
169.6379415882
 11
232.7969098274
 21
168.9996433449
  0
LINE
  5
2EA
100
AcDbEntity
  8
0
100
AcDbLine
 62
7
  6
CONTINUOUS
 10
232.840179314
 20
181.5953882826
 11
232.840179314
 21
179.2017710996
  0
LINE
  5
2EB
100
AcDbEntity
  8
0
100
AcDbLine
 62
7
  6
CONTINUOUS
 10
232.840179314
 20
178.2443244052
 11
232.840179314
 21
174.8932605279
  0
LINE
  5
2EC
100
AcDbEntity
  8
0
100
AcDbLine
 62
7
  6
CONTINUOUS
 10
170.0108954321
 20
270.4958136994
 11
169.4275620292
 21
270.3468775469
  0
LINE
  5
2ED
100
AcDbEntity
  8
0
100
AcDbLine
 62
7
  6
CONTINUOUS
 10
169.4275620292
 20
269.4532605279
 11
170.1567286263
 21
269.6021966934
  0
LINE
  5
2EE
100
AcDbEntity
  8
0
100
AcDbLine
 62
7
  6
CONTINUOUS
 10
171.7608954321
 20
276.4532605279
 11
170.8858954321
 21
276.4532605279
  0
LINE
  5
2EF
100
AcDbEntity
  8
0
100
AcDbLine
 62
7
  6
CONTINUOUS
 10
167.3858954321
 20
276.4532605279
 11
166.5108954321
 21
276.4532605279
  0
LINE
  5
2F0
100
AcDbEntity
  8
0
100
AcDbLine
 62
7
  6
CONTINUOUS
 10
166.5108954321
 20
277.4532605279
 11
167.3858954321
 21
277.4532605279
  0
LINE
  5
2F1
100
AcDbEntity
  8
0
100
AcDbLine
 62
7
  6
CONTINUOUS
 10
171.0317286263
 20
277.4532605279
 11
172.0525622378
 21
277.4532605279
  0
LINE
  5
2F2
100
AcDbEntity
  8
0
100
AcDbLine
 62
7
  6
CONTINUOUS
 10
167.3858954321
 20
280.5809201467
 11
169.8650620292
 21
280.5809201467
  0
LINE
  5
2F3
100
AcDbEntity
  8
0
100
AcDbLine
 62
7
  6
CONTINUOUS
 10
170.7400622378
 20
284.3043243754
 11
170.0108954321
 21
284.4532605279
  0
LINE
  5
2F4
100
AcDbEntity
  8
0
100
AcDbLine
 62
7
  6
CONTINUOUS
 10
179.9865013436
 20
324.3698585565
 11
183.5015713163
 21
319.5073198074
  0
LINE
  5
2F5
100
AcDbEntity
  8
0
100
AcDbLine
 62
7
  6
CONTINUOUS
 10
184.1093886599
 20
319.946703554
 11
182.5388254584
 21
322.1193272812
  0
LINE
  5
2F6
100
AcDbEntity
  8
0
100
AcDbLine
 62
7
  6
CONTINUOUS
 10
182.0900931749
 20
322.7400768348
 11
180.9682622568
 21
324.2919510085
  0
LINE
  5
2F7
100
AcDbEntity
  8
0
100
AcDbLine
 62
7
  6
CONTINUOUS
 10
183.9495667088
 20
325.5019669959
 11
184.17393306
 21
325.1915919293
  0
LINE
  5
2F8
100
AcDbEntity
  8
0
100
AcDbLine
 62
7
  6
CONTINUOUS
 10
215.9621681998
 20
322.8025328033
 11
216.0272873245
 21
322.4511827285
  0
LINE
  5
2F9
100
AcDbEntity
  8
0
100
AcDbLine
 62
7
  6
CONTINUOUS
 10
217.3860786607
 20
324.9217935359
 11
217.4511977854
 21
324.5704434611
  0
LINE
  5
2FA
100
AcDbEntity
  8
0
100
AcDbLine
 62
7
  6
CONTINUOUS
 10
232.8638684215
 20
171.3932605279
 11
232.8638684215
 21
163.8932605279
  0
LINE
  5
2FB
100
AcDbEntity
  8
0
100
AcDbLine
 62
7
  6
CONTINUOUS
 10
233.1209768405
 20
171.3932605279
 11
233.1209768405
 21
163.8932605279
  0
LINE
  5
2FC
100
AcDbEntity
  8
0
100
AcDbLine
 62
7
  6
CONTINUOUS
 10
233.3313969712
 20
170.5953882826
 11
233.3313969712
 21
168.2017710996
  0
LINE
  5
2FD
100
AcDbEntity
  8
0
100
AcDbLine
 62
7
  6
CONTINUOUS
 10
233.3313969712
 20
167.2443244052
 11
233.3313969712
 21
163.8932605279
  0
LINE
  5
2FE
100
AcDbEntity
  8
0
100
AcDbLine
 62
7
  6
CONTINUOUS
 10
233.4176370831
 20
180.6379415882
 11
233.4176370831
 21
180.159217794
  0
LINE
  5
2FF
100
AcDbEntity
  8
0
100
AcDbLine
 62
7
  6
CONTINUOUS
 10
233.6669787387
 20
169.6379415882
 11
233.6669787387
 21
169.159217794
  0
LINE
  5
300
100
AcDbEntity
  8
0
100
AcDbLine
 62
7
  6
CONTINUOUS
 10
233.6705407994
 20
180.6379415882
 11
233.6705407994
 21
180.159217794
  0
LINE
  5
301
100
AcDbEntity
  8
0
100
AcDbLine
 62
7
  6
CONTINUOUS
 10
233.6943699132
 20
182.3932605279
 11
233.6943699132
 21
181.8725105385
  0
LINE
  5
302
100
AcDbEntity
  8
0
100
AcDbLine
 62
7
  6
CONTINUOUS
 10
233.6943699132
 20
178.8042561884
 11
233.6943699132
 21
177.4464519364
  0
LINE
  5
303
100
AcDbEntity
  8
0
100
AcDbLine
 62
7
  6
CONTINUOUS
 10
233.7979678825
 20
167.2443244052
 11
233.7979678825
 21
166.6060263855
  0
LINE
  5
304
100
AcDbEntity
  8
0
100
AcDbLine
 62
7
  6
CONTINUOUS
 10
233.8000796997
 20
180.6379415882
 11
233.8000796997
 21
179.9996433449
  0
LINE
  5
305
100
AcDbEntity
  8
0
100
AcDbLine
 62
7
  6
CONTINUOUS
 10
233.8108954321
 20
194.8932605279
 11
233.8108954321
 21
182.3932605279
  0
LINE
  5
306
100
AcDbEntity
  8
0
100
AcDbLine
 62
7
  6
CONTINUOUS
 10
233.8108954321
 20
174.8932605279
 11
233.8108954321
 21
171.3750342975
  0
LINE
  5
307
100
AcDbEntity
  8
0
100
AcDbLine
 62
7
  6
CONTINUOUS
 10
233.8108954321
 20
166.6060263855
 11
233.8108954321
 21
162.8932605279
  0
LINE
  5
308
100
AcDbEntity
  8
0
100
AcDbLine
 62
7
  6
CONTINUOUS
 10
233.9180336419
 20
169.6379415882
 11
233.9180336419
 21
169.159217794
  0
LINE
  5
309
100
AcDbEntity
  8
0
100
AcDbLine
 62
7
  6
CONTINUOUS
 10
233.9452233574
 20
182.3932605279
 11
233.9452233574
 21
177.4464519364
  0
LINE
  5
30A
100
AcDbEntity
  8
0
100
AcDbLine
 62
7
  6
CONTINUOUS
 10
233.9695327436
 20
166.6060263855
 11
233.9695327436
 21
166.1273030383
  0
LINE
  5
30B
100
AcDbEntity
  8
0
100
AcDbLine
 62
7
  6
CONTINUOUS
 10
233.9909677704
 20
169.6379415882
 11
233.9909677704
 21
168.9996433449
  0
LINE
  5
30C
100
AcDbEntity
  8
0
100
AcDbLine
 62
7
  6
CONTINUOUS
 10
234.0095339447
 20
182.3932605279
 11
234.0095339447
 21
177.4464519364
  0
LINE
  5
30D
100
AcDbEntity
  8
0
100
AcDbLine
 62
7
  6
CONTINUOUS
 10
234.0480622797
 20
167.4038988543
 11
234.0480622797
 21
166.6060263855
  0
LINE
  5
30E
100
AcDbEntity
  8
0
100
AcDbLine
 62
7
  6
CONTINUOUS
 10
234.0608954321
 20
175.850707334
 11
234.0608954321
 21
175.0528349909
  0
LINE
  5
30F
100
AcDbEntity
  8
0
100
AcDbLine
 62
7
  6
CONTINUOUS
 10
234.0608954321
 20
167.4038988543
 11
234.0608954321
 21
166.6060263855
  0
LINE
  5
310
100
AcDbEntity
  8
0
100
AcDbLine
 62
7
  6
CONTINUOUS
 10
170.1567286263
 20
281.4745370615
 11
167.3858954321
 21
281.4745370615
  0
LINE
  5
311
100
AcDbEntity
  8
0
100
AcDbLine
 62
7
  6
CONTINUOUS
 10
167.3858954321
 20
283.7085797656
 11
170.1567286263
 21
283.7085797656
  0
LINE
  5
312
100
AcDbEntity
  8
0
100
AcDbLine
 62
7
  6
CONTINUOUS
 10
170.0108954321
 20
284.4532605279
 11
166.5108954321
 21
284.4532605279
  0
LINE
  5
313
100
AcDbEntity
  8
0
100
AcDbLine
 62
7
  6
CONTINUOUS
 10
184.8565391176
 20
325.5275174169
 11
184.5573840525
 21
325.9413507425
  0
LINE
  5
314
100
AcDbEntity
  8
KONSTRUKTIONSELEMENTE
100
AcDbLine
 62
7
  6
CONTINUOUS
 10
163.8876739738
 20
290.8932605279
 11
176.4368612673
 21
290.8932605279
  0
LINE
  5
315
100
AcDbEntity
  8
KONSTRUKTIONSELEMENTE
100
AcDbLine
 62
7
  6
CONTINUOUS
 10
223.1849295969
 20
290.8932605279
 11
235.7341168903
 21
290.8932605279
  0
LINE
  5
316
100
AcDbEntity
  8
0
100
AcDbLine
 62
7
  6
CONTINUOUS
 10
189.6667179743
 20
328.7577693684
 11
189.9302698715
 21
328.4530758754
  0
LINE
  5
317
100
AcDbEntity
  8
0
100
AcDbLine
 62
7
  6
CONTINUOUS
 10
190.6217544211
 20
328.743505071
 11
190.3582025239
 21
329.0481985641
  0
LINE
  5
318
100
AcDbEntity
  8
0
100
AcDbLine
 62
7
  6
CONTINUOUS
 10
218.1184417643
 20
324.8911217255
 11
217.9170056271
 21
325.4878604488
  0
LINE
  5
319
100
AcDbEntity
  8
0
100
AcDbLine
 62
7
  6
CONTINUOUS
 10
216.6945313034
 20
322.7718609929
 11
216.5582166657
 21
323.0172480459
  0
LINE
  5
31A
100
AcDbEntity
  8
0
100
AcDbLine
 62
7
  6
CONTINUOUS
 10
183.6238977731
 20
325.7391112181
 11
183.9495667088
 21
325.5019669959
  0
LINE
  5
31B
100
AcDbEntity
  8
0
100
AcDbLine
 62
7
  6
CONTINUOUS
 10
184.5573840525
 20
325.9413507425
 11
184.2317151167
 21
326.1784949647
  0
LINE
  5
31C
100
AcDbEntity
  8
0
100
AcDbLine
 62
7
  6
CONTINUOUS
 10
206.6347781394
 20
325.1017658575
 11
206.9229748312
 21
324.7514010041
  0
LINE
  5
31D
100
AcDbEntity
  8
0
100
AcDbLine
 62
7
  6
CONTINUOUS
 10
207.5104108857
 20
324.9785346509
 11
207.2222141877
 21
325.3288994829
  0
LINE
  5
31E
100
AcDbEntity
  8
0
100
AcDbLine
 62
7
  6
CONTINUOUS
 10
215.7220972993
 20
323.1176326697
 11
215.9621681998
 21
322.8025328033
  0
LINE
  5
31F
100
AcDbEntity
  8
0
100
AcDbLine
 62
7
  6
CONTINUOUS
 10
190.3582025239
 20
329.0481985641
 11
189.8147212458
 21
329.3737819013
  0
LINE
  5
320
100
AcDbEntity
  8
0
100
AcDbLine
 62
7
  6
CONTINUOUS
 10
217.1460077602
 20
325.2368934023
 11
217.3860786607
 21
324.9217935359
  0
LINE
  5
321
100
AcDbEntity
  8
0
100
AcDbLine
 62
7
  6
CONTINUOUS
 10
215.3865276071
 20
321.497515384
 11
215.0366263803
 21
321.4250132974
  0
LINE
  5
322
100
AcDbEntity
  8
0
100
AcDbLine
 62
7
  6
CONTINUOUS
 10
216.8816334813
 20
323.72273899
 11
216.5317323044
 21
323.6502369776
  0
LINE
  5
323
100
AcDbEntity
  8
0
100
AcDbLine
 62
7
  6
CONTINUOUS
 10
214.7132071462
 20
320.719523884
 11
215.3418163805
 21
320.7585633192
  0
LINE
  5
324
100
AcDbEntity
  8
0
100
AcDbLine
 62
7
  6
CONTINUOUS
 10
184.2317151167
 20
326.1784949647
 11
183.6286515893
 21
326.3726361271
  0
LINE
  5
325
100
AcDbEntity
  8
0
100
AcDbLine
 62
7
  6
CONTINUOUS
 10
189.3373538426
 20
328.8963586963
 11
189.6667179743
 21
328.7577693684
  0
LINE
  5
326
100
AcDbEntity
  8
0
100
AcDbLine
 62
7
  6
CONTINUOUS
 10
208.0744010759
 20
324.6804752206
 11
207.5104108857
 21
324.9785346509
  0
LINE
  5
327
100
AcDbEntity
  8
0
100
AcDbLine
 62
7
  6
CONTINUOUS
 10
211.6331037537
 20
322.6352164853
 11
214.1232350625
 21
320.9621217287
  0
LINE
  5
328
100
AcDbEntity
  8
0
100
AcDbLine
 62
7
  6
CONTINUOUS
 10
214.6541644536
 20
321.5281871202
 11
212.6828097092
 21
322.8527210011
  0
LINE
  5
329
100
AcDbEntity
  8
0
100
AcDbLine
 62
7
  6
CONTINUOUS
 10
213.7507425548
 20
324.4421665506
 11
215.7220972993
 21
323.1176326697
  0
LINE
  5
32A
100
AcDbEntity
  8
0
100
AcDbLine
 62
7
  6
CONTINUOUS
 10
206.9229748312
 20
324.7514010041
 11
207.2470260442
 21
324.5235572478
  0
LINE
  5
32B
100
AcDbEntity
  8
0
100
AcDbLine
 62
7
  6
CONTINUOUS
 10
217.9170056271
 20
325.4878604488
 11
217.4694245758
 21
325.9423843464
  0
LINE
  5
32C
100
AcDbEntity
  8
0
100
AcDbLine
 62
7
  6
CONTINUOUS
 10
183.6286515893
 20
326.3726361271
 11
182.9990739817
 21
326.390088476
  0
LINE
  5
32D
100
AcDbEntity
  8
0
100
AcDbLine
 62
7
  6
CONTINUOUS
 10
202.3217544142
 20
325.4100953034
 11
203.0692485332
 21
325.3488373083
  0
LINE
  5
32E
100
AcDbEntity
  8
0
100
AcDbLine
 62
7
  6
CONTINUOUS
 10
216.5582166657
 20
323.0172480459
 11
216.8369223296
 21
322.9837870365
  0
LINE
  5
32F
100
AcDbEntity
  8
0
100
AcDbLine
 62
7
  6
CONTINUOUS
 10
183.2717144674
 20
325.7995664172
 11
183.6238977731
 21
325.7391112181
  0
LINE
  5
330
100
AcDbEntity
  8
0
100
AcDbLine
 62
7
  6
CONTINUOUS
 10
189.8147212458
 20
329.3737819013
 11
189.2054270738
 21
329.5332607965
  0
LINE
  5
331
100
AcDbEntity
  8
0
100
AcDbLine
 62
7
  6
CONTINUOUS
 10
215.0366263803
 20
321.4250132974
 11
214.6541644536
 21
321.5281871202
  0
LINE
  5
332
100
AcDbEntity
  8
0
100
AcDbLine
 62
7
  6
CONTINUOUS
 10
216.5317323044
 20
323.6502369776
 11
216.1492703777
 21
323.7534108004
  0
LINE
  5
333
100
AcDbEntity
  8
0
100
AcDbLine
 62
7
  6
CONTINUOUS
 10
214.1232350625
 20
320.9621217287
 11
214.7132071462
 21
320.719523884
  0
LINE
  5
334
100
AcDbEntity
  8
0
100
AcDbLine
 62
7
  6
CONTINUOUS
 10
209.9933652748
 20
325.7130860575
 11
211.5876443835
 21
324.9914346185
  0
LINE
  5
335
100
AcDbEntity
  8
0
100
AcDbLine
 62
7
  6
CONTINUOUS
 10
211.8508604692
 20
325.5729340572
 11
210.2565813605
 21
326.2945854961
  0
LINE
  5
336
100
AcDbEntity
  8
0
100
AcDbLine
 62
7
  6
CONTINUOUS
 10
207.2470260442
 20
324.5235572478
 11
207.9309829913
 21
324.1903908322
  0
LINE
  5
337
100
AcDbEntity
  8
0
100
AcDbLine
 62
7
  6
CONTINUOUS
 10
216.1492703777
 20
323.7534108004
 11
214.1779156333
 21
325.0779446813
  0
LINE
  5
338
100
AcDbEntity
  8
0
100
AcDbLine
 62
7
  6
CONTINUOUS
 10
215.1746530157
 20
326.5614272831
 11
217.1460077602
 21
325.2368934023
  0
LINE
  5
339
100
AcDbEntity
  8
0
100
AcDbLine
 62
7
  6
CONTINUOUS
 10
217.4694245758
 20
325.9423843464
 11
214.979293267
 21
327.615479103
  0
LINE
  5
33A
100
AcDbEntity
  8
0
100
AcDbLine
 62
7
  6
CONTINUOUS
 10
231.2935965385
 20
159.8932605279
 11
233.8108954321
 21
162.8932605279
  0
LINE
  5
33B
100
AcDbEntity
  8
0
100
AcDbLine
 62
7
  6
CONTINUOUS
 10
189.2054270738
 20
329.5332607965
 11
188.5797554182
 21
329.4089360428
  0
LINE
  5
33C
100
AcDbEntity
  8
0
100
AcDbLine
 62
7
  6
CONTINUOUS
 10
188.942176817
 20
328.8688435823
 11
189.3373538426
 21
328.8963586963
  0
LINE
  5
33D
100
AcDbEntity
  8
0
100
AcDbLine
 62
7
  6
CONTINUOUS
 10
199.477754434
 20
327.4363898312
 11
202.4677309103
 21
327.1913578509
  0
LINE
  5
33E
100
AcDbEntity
  8
0
100
AcDbLine
 62
7
  6
CONTINUOUS
 10
203.2152250294
 20
327.1300998558
 11
204.4610480859
 21
327.0280032363
  0
LINE
  5
33F
100
AcDbEntity
  8
0
100
AcDbLine
 62
7
  6
CONTINUOUS
 10
204.5236094497
 20
327.7914015728
 11
203.2777863932
 21
327.8934981923
  0
LINE
  5
340
100
AcDbEntity
  8
0
100
AcDbLine
 62
7
  6
CONTINUOUS
 10
202.5302922741
 20
327.9547561874
 11
200.4123917949
 21
328.1283205457
  0
LINE
  5
341
100
AcDbEntity
  8
0
100
AcDbLine
 62
7
  6
CONTINUOUS
 10
203.5593124939
 20
331.3287902609
 11
202.8118183748
 21
331.3900482559
  0
LINE
  5
342
100
AcDbEntity
  8
0
100
AcDbLine
 62
7
  6
CONTINUOUS
 10
206.2955999642
 20
328.3933480294
 11
207.2553476732
 21
328.1124878726
  0
LINE
  5
343
100
AcDbEntity
  8
0
100
AcDbLine
 62
7
  6
CONTINUOUS
 10
207.855192394
 20
327.9369495715
 11
209.1748458371
 21
327.5507667555
  0
LINE
  5
344
100
AcDbEntity
  8
0
100
AcDbLine
 62
7
  6
CONTINUOUS
 10
209.3182639092
 20
328.0408511009
 11
207.9986104661
 21
328.427033917
  0
LINE
  5
345
100
AcDbEntity
  8
0
100
AcDbLine
 62
7
  6
CONTINUOUS
 10
207.3987657453
 20
328.6025722181
 11
206.4390180363
 21
328.8834323749
  0
LINE
  5
346
100
AcDbEntity
  8
0
100
AcDbLine
 62
7
  6
CONTINUOUS
 10
208.2854467107
 20
329.4072029512
 11
207.6856019899
 21
329.5827412523
  0
LINE
  5
347
100
AcDbEntity
  8
0
100
AcDbLine
 62
7
  6
CONTINUOUS
 10
324.8872171324
 20
159.8932605279
 11
387.8526193454
 21
159.8932605279
  0
LINE
  5
348
100
AcDbEntity
  8
0
100
AcDbLine
 62
7
  6
CONTINUOUS
 10
390.3699182389
 20
162.8932605279
 11
322.3699182389
 21
162.8932605279
  0
LINE
  5
349
100
AcDbEntity
  8
0
100
AcDbLine
 62
7
  6
CONTINUOUS
 10
324.8872171324
 20
159.8932605279
 11
322.3699182389
 21
162.8932605279
  0
LINE
  5
34A
100
AcDbEntity
  8
RUNDUNGEN
100
AcDbLine
 62
7
  6
CONTINUOUS
 10
380.0553568036
 20
197.8932605279
 11
332.6844796742
 21
197.8932605279
  0
LINE
  5
34B
100
AcDbEntity
  8
0
100
AcDbLine
 62
7
  6
CONTINUOUS
 10
338.5999182389
 20
210.2432605279
 11
333.5999182389
 21
211.9099270952
  0
LINE
  5
34C
100
AcDbEntity
  8
0
100
AcDbLine
 62
7
  6
CONTINUOUS
 10
333.5999182389
 20
211.2849270952
 11
337.9616203681
 21
209.8265938115
  0
LINE
  5
34D
100
AcDbEntity
  8
0
100
AcDbLine
 62
7
  6
CONTINUOUS
 10
322.3699182389
 20
210.5894129506
 11
322.3699182389
 21
162.8932605279
  0
LINE
  5
34E
100
AcDbEntity
  8
0
100
AcDbLine
 62
7
  6
CONTINUOUS
 10
333.5999182389
 20
212.7432605279
 11
338.5999182389
 21
212.7432605279
  0
LINE
  5
34F
100
AcDbEntity
  8
0
100
AcDbLine
 62
7
  6
CONTINUOUS
 10
338.5999182389
 20
213.3682605279
 11
333.5999182389
 21
213.3682605279
  0
LINE
  5
350
100
AcDbEntity
  8
0
100
AcDbLine
 62
7
  6
CONTINUOUS
 10
333.5999182389
 20
214.2015936625
 11
338.5999182389
 21
214.2015936625
  0
LINE
  5
351
100
AcDbEntity
  8
0
100
AcDbLine
 62
7
  6
CONTINUOUS
 10
338.5999182389
 20
214.8265936625
 11
336.365875654
 21
214.8265936625
  0
LINE
  5
352
100
AcDbEntity
  8
0
100
AcDbLine
 62
7
  6
CONTINUOUS
 10
335.7275778578
 20
214.8265936625
 11
334.1318330691
 21
214.8265936625
  0
LINE
  5
353
100
AcDbEntity
  8
0
100
AcDbLine
 62
7
  6
CONTINUOUS
 10
334.7701308654
 20
217.4307605279
 11
335.0892800615
 21
217.4307605279
  0
LINE
  5
354
100
AcDbEntity
  8
0
100
AcDbLine
 62
7
  6
CONTINUOUS
 10
335.0892800615
 20
217.4307605279
 11
335.4084289596
 21
217.3265936625
  0
LINE
  5
355
100
AcDbEntity
  8
0
100
AcDbLine
 62
7
  6
CONTINUOUS
 10
335.5148119257
 20
217.9515942586
 11
335.1956630275
 21
218.0557605279
  0
LINE
  5
356
100
AcDbEntity
  8
0
100
AcDbLine
 62
7
  6
CONTINUOUS
 10
335.9403437898
 20
217.6390936625
 11
335.5148119257
 21
217.9515942586
  0
LINE
  5
357
100
AcDbEntity
  8
0
100
AcDbLine
 62
7
  6
CONTINUOUS
 10
333.5999182389
 20
224.5140942586
 11
334.3445990012
 21
223.8890942586
  0
LINE
  5
358
100
AcDbEntity
  8
0
100
AcDbLine
 62
7
  6
CONTINUOUS
 10
335.1956630275
 20
223.8890942586
 11
334.4509819672
 21
224.5140942586
  0
LINE
  5
359
100
AcDbEntity
  8
0
100
AcDbLine
 62
7
  6
CONTINUOUS
 10
335.4084289596
 20
217.3265936625
 11
335.6211948917
 21
217.1182605279
  0
LINE
  5
35A
100
AcDbEntity
  8
0
100
AcDbLine
 62
7
  6
CONTINUOUS
 10
334.0254501031
 20
226.7015942586
 11
334.3445990012
 21
226.3890942586
  0
LINE
  5
35B
100
AcDbEntity
  8
0
100
AcDbLine
 62
7
  6
CONTINUOUS
 10
336.259492688
 20
217.2224273932
 11
335.9403437898
 21
217.6390936625
  0
LINE
  5
35C
100
AcDbEntity
  8
RUNDUNGEN
100
AcDbLine
 62
7
  6
CONTINUOUS
 10
328.3699182389
 20
222.7233875468
 11
328.3699182389
 21
238.8296844362
  0
LINE
  5
35D
100
AcDbEntity
  8
0
100
AcDbLine
 62
7
  6
CONTINUOUS
 10
380.1375866635
 20
217.7362119882
 11
379.2310853212
 21
217.7362119882
  0
LINE
  5
35E
100
AcDbEntity
  8
0
100
AcDbLine
 62
7
  6
CONTINUOUS
 10
375.0741633831
 20
217.7362119882
 11
374.1676620408
 21
217.7362119882
  0
LINE
  5
35F
100
AcDbEntity
  8
0
100
AcDbLine
 62
7
  6
CONTINUOUS
 10
335.1956630275
 20
218.0557605279
 11
334.7701308654
 21
218.0557605279
  0
LINE
  5
360
100
AcDbEntity
  8
0
100
AcDbLine
 62
7
  6
CONTINUOUS
 10
377.6026243521
 20
222.2362119882
 11
376.6961230099
 21
222.2362119882
  0
LINE
  5
361
100
AcDbEntity
  8
0
100
AcDbLine
 62
7
  6
CONTINUOUS
 10
380.1375866635
 20
222.8362119882
 11
379.2310853212
 21
222.8362119882
  0
LINE
  5
362
100
AcDbEntity
  8
0
100
AcDbLine
 62
7
  6
CONTINUOUS
 10
375.0741633831
 20
222.8362119882
 11
374.1676620408
 21
222.8362119882
  0
LINE
  5
363
100
AcDbEntity
  8
0
100
AcDbLine
 62
7
  6
CONTINUOUS
 10
334.3445990012
 20
223.8890942586
 11
335.1956630275
 21
223.8890942586
  0
LINE
  5
364
100
AcDbEntity
  8
0
100
AcDbLine
 62
7
  6
CONTINUOUS
 10
335.7275778578
 20
226.4932605279
 11
335.0892800615
 21
226.5974267972
  0
LINE
  5
365
100
AcDbEntity
  8
0
100
AcDbLine
 62
7
  6
CONTINUOUS
 10
335.0892800615
 20
226.0765942586
 11
335.6211948917
 21
225.9724267972
  0
LINE
  5
366
100
AcDbEntity
  8
0
100
AcDbLine
 62
7
  6
CONTINUOUS
 10
334.7701308654
 20
226.1807605279
 11
335.0892800615
 21
226.0765942586
  0
LINE
  5
367
100
AcDbEntity
  8
0
100
AcDbLine
 62
7
  6
CONTINUOUS
 10
334.3445990012
 20
226.3890942586
 11
334.7701308654
 21
226.1807605279
  0
LINE
  5
368
100
AcDbEntity
  8
0
100
AcDbLine
 62
7
  6
CONTINUOUS
 10
337.8552374021
 20
229.3057605279
 11
337.4297054634
 21
229.5140930665
  0
LINE
  5
369
100
AcDbEntity
  8
0
100
AcDbLine
 62
7
  6
CONTINUOUS
 10
335.0892800615
 20
226.5974267972
 11
334.4509819672
 21
227.0140942586
  0
LINE
  5
36A
100
AcDbEntity
  8
0
100
AcDbLine
 62
7
  6
CONTINUOUS
 10
337.1105565653
 20
229.0974279893
 11
337.7488544361
 21
228.6807605279
  0
LINE
  5
36B
100
AcDbEntity
  8
0
100
AcDbLine
 62
7
  6
CONTINUOUS
 10
338.1743863375
 20
228.9932605279
 11
337.8552374021
 21
229.3057605279
  0
LINE
  5
36C
100
AcDbEntity
  8
0
100
AcDbLine
 62
7
  6
CONTINUOUS
 10
334.4509819672
 20
227.0140942586
 11
334.2382160351
 21
227.3265942586
  0
LINE
  5
36D
100
AcDbEntity
  8
0
100
AcDbLine
 62
7
  6
CONTINUOUS
 10
337.7488544361
 20
228.6807605279
 11
337.9616203681
 21
228.3682605279
  0
LINE
  5
36E
100
AcDbEntity
  8
0
100
AcDbLine
 62
7
  6
CONTINUOUS
 10
333.7063012049
 20
227.2224267972
 11
334.0254501031
 21
226.7015942586
  0
LINE
  5
36F
100
AcDbEntity
  8
0
100
AcDbLine
 62
7
  6
CONTINUOUS
 10
338.4935352635
 20
228.4724279893
 11
338.1743863375
 21
228.9932605279
  0
LINE
  5
370
100
AcDbEntity
  8
0
100
AcDbLine
 62
7
  6
CONTINUOUS
 10
335.6211948917
 20
217.1182605279
 11
335.7275778578
 21
216.8057605279
  0
LINE
  5
371
100
AcDbEntity
  8
0
100
AcDbLine
 62
7
  6
CONTINUOUS
 10
336.365875654
 20
216.7015936625
 11
336.259492688
 21
217.2224273932
  0
LINE
  5
372
100
AcDbEntity
  8
0
100
AcDbLine
 62
7
  6
CONTINUOUS
 10
334.2382160351
 20
227.3265942586
 11
334.1318330691
 21
227.8474279893
  0
LINE
  5
373
100
AcDbEntity
  8
0
100
AcDbLine
 62
7
  6
CONTINUOUS
 10
333.5999182389
 20
227.8474279893
 11
333.7063012049
 21
227.2224267972
  0
LINE
  5
374
100
AcDbEntity
  8
0
100
AcDbLine
 62
7
  6
CONTINUOUS
 10
333.5999182389
 20
225.1390942586
 11
333.5999182389
 21
224.5140942586
  0
LINE
  5
375
100
AcDbEntity
  8
0
100
AcDbLine
 62
7
  6
CONTINUOUS
 10
333.5999182389
 20
216.7015936625
 11
333.5999182389
 21
214.2015936625
  0
LINE
  5
376
100
AcDbEntity
  8
0
100
AcDbLine
 62
7
  6
CONTINUOUS
 10
333.5999182389
 20
213.3682605279
 11
333.5999182389
 21
212.7432605279
  0
LINE
  5
377
100
AcDbEntity
  8
0
100
AcDbLine
 62
7
  6
CONTINUOUS
 10
333.5999182389
 20
211.9099270952
 11
333.5999182389
 21
211.2849270952
  0
LINE
  5
378
100
AcDbEntity
  8
0
100
AcDbLine
 62
7
  6
CONTINUOUS
 10
333.5999182389
 20
208.3682605279
 11
333.5999182389
 21
207.7432605279
  0
LINE
  5
379
100
AcDbEntity
  8
0
100
AcDbLine
 62
7
  6
CONTINUOUS
 10
334.1318330691
 20
214.8265936625
 11
334.1318330691
 21
216.8057605279
  0
LINE
  5
37A
100
AcDbEntity
  8
0
100
AcDbLine
 62
7
  6
CONTINUOUS
 10
335.7275778578
 20
216.8057605279
 11
335.7275778578
 21
214.8265936625
  0
LINE
  5
37B
100
AcDbEntity
  8
0
100
AcDbLine
 62
7
  6
CONTINUOUS
 10
336.365875654
 20
214.8265936625
 11
336.365875654
 21
216.7015936625
  0
LINE
  5
37C
100
AcDbEntity
  8
0
100
AcDbLine
 62
7
  6
CONTINUOUS
 10
333.7063012049
 20
228.4724279893
 11
333.5999182389
 21
227.8474279893
  0
LINE
  5
37D
100
AcDbEntity
  8
0
100
AcDbLine
 62
7
  6
CONTINUOUS
 10
336.5786415861
 20
225.9724267972
 11
337.1105565653
 21
226.0765942586
  0
LINE
  5
37E
100
AcDbEntity
  8
0
100
AcDbLine
 62
7
  6
CONTINUOUS
 10
337.1105565653
 20
226.5974267972
 11
336.47225862
 21
226.4932605279
  0
LINE
  5
37F
100
AcDbEntity
  8
0
100
AcDbLine
 62
7
  6
CONTINUOUS
 10
334.4509819672
 20
224.5140942586
 11
338.5999182389
 21
224.5140942586
  0
LINE
  5
380
100
AcDbEntity
  8
0
100
AcDbLine
 62
7
  6
CONTINUOUS
 10
338.5999182389
 20
225.1390942586
 11
333.5999182389
 21
225.1390942586
  0
LINE
  5
381
100
AcDbEntity
  8
0
100
AcDbLine
 62
7
  6
CONTINUOUS
 10
335.6211948917
 20
225.9724267972
 11
336.5786415861
 21
225.9724267972
  0
LINE
  5
382
100
AcDbEntity
  8
0
100
AcDbLine
 62
7
  6
CONTINUOUS
 10
336.47225862
 20
226.4932605279
 11
335.7275778578
 21
226.4932605279
  0
LINE
  5
383
100
AcDbEntity
  8
0
100
AcDbLine
 62
7
  6
CONTINUOUS
 10
335.7275778578
 20
229.2015930665
 11
336.47225862
 21
229.2015930665
  0
LINE
  5
384
100
AcDbEntity
  8
0
100
AcDbLine
 62
7
  6
CONTINUOUS
 10
336.5786415861
 20
229.7224279893
 11
335.6211948917
 21
229.7224279893
  0
LINE
  5
385
100
AcDbEntity
  8
0
100
AcDbLine
 62
7
  6
CONTINUOUS
 10
336.47225862
 20
229.2015930665
 11
337.1105565653
 21
229.0974279893
  0
LINE
  5
386
100
AcDbEntity
  8
0
100
AcDbLine
 62
7
  6
CONTINUOUS
 10
337.1105565653
 20
229.6182605279
 11
336.5786415861
 21
229.7224279893
  0
LINE
  5
387
100
AcDbEntity
  8
0
100
AcDbLine
 62
7
  6
CONTINUOUS
 10
337.4297054634
 20
229.5140930665
 11
337.1105565653
 21
229.6182605279
  0
LINE
  5
388
100
AcDbEntity
  8
0
100
AcDbLine
 62
7
  6
CONTINUOUS
 10
337.9616203681
 20
228.3682605279
 11
338.0680033342
 21
227.8474279893
  0
LINE
  5
389
100
AcDbEntity
  8
0
100
AcDbLine
 62
7
  6
CONTINUOUS
 10
338.5999182389
 20
227.8474279893
 11
338.4935352635
 21
228.4724279893
  0
LINE
  5
38A
100
AcDbEntity
  8
0
100
AcDbLine
 62
7
  6
CONTINUOUS
 10
338.5999182389
 20
209.4099272442
 11
338.5999182389
 21
210.2432605279
  0
LINE
  5
38B
100
AcDbEntity
  8
0
100
AcDbLine
 62
7
  6
CONTINUOUS
 10
338.5999182389
 20
212.7432605279
 11
338.5999182389
 21
213.3682605279
  0
LINE
  5
38C
100
AcDbEntity
  8
0
100
AcDbLine
 62
7
  6
CONTINUOUS
 10
338.5999182389
 20
214.2015936625
 11
338.5999182389
 21
214.8265936625
  0
LINE
  5
38D
100
AcDbEntity
  8
0
100
AcDbLine
 62
7
  6
CONTINUOUS
 10
338.5999182389
 20
224.5140942586
 11
338.5999182389
 21
225.1390942586
  0
LINE
  5
38E
100
AcDbEntity
  8
0
100
AcDbLine
 62
7
  6
CONTINUOUS
 10
338.4935352635
 20
227.2224267972
 11
338.5999182389
 21
227.8474279893
  0
LINE
  5
38F
100
AcDbEntity
  8
0
100
AcDbLine
 62
7
  6
CONTINUOUS
 10
334.1318330691
 20
227.8474279893
 11
334.2382160351
 21
228.3682605279
  0
LINE
  5
390
100
AcDbEntity
  8
0
100
AcDbLine
 62
7
  6
CONTINUOUS
 10
333.7063012049
 20
217.2224273932
 11
333.5999182389
 21
216.7015936625
  0
LINE
  5
391
100
AcDbEntity
  8
0
100
AcDbLine
 62
7
  6
CONTINUOUS
 10
338.0680033342
 20
227.8474279893
 11
337.9616203681
 21
227.3265942586
  0
LINE
  5
392
100
AcDbEntity
  8
RUNDUNGEN
100
AcDbLine
 62
7
  6
CONTINUOUS
 10
329.3057404664
 20
241.400834875
 11
333.0153586428
 21
245.8217856638
  0
LINE
  5
393
100
AcDbEntity
  8
0
100
AcDbLine
 62
7
  6
CONTINUOUS
 10
335.6211948917
 20
229.7224279893
 11
335.0892800615
 21
229.6182605279
  0
LINE
  5
394
100
AcDbEntity
  8
0
100
AcDbLine
 62
7
  6
CONTINUOUS
 10
335.0892800615
 20
229.0974279893
 11
335.7275778578
 21
229.2015930665
  0
LINE
  5
395
100
AcDbEntity
  8
RUNDUNGEN
100
AcDbLine
 62
7
  6
CONTINUOUS
 10
364.898684106
 20
222.7044863832
 11
364.3699182389
 21
223.1641355389
  0
LINE
  5
396
100
AcDbEntity
  8
KONSTRUKTIONSELEMENTE
100
AcDbLine
 62
7
  6
CONTINUOUS
 10
348.3699182389
 20
328.8421814886
 11
348.3699182389
 21
302.0770142846
  0
LINE
  5
397
100
AcDbEntity
  8
KONSTRUKTIONSELEMENTE
100
AcDbLine
 62
7
  6
CONTINUOUS
 10
348.3699182389
 20
244.7101277739
 11
348.3699182389
 21
217.8932605279
  0
LINE
  5
398
100
AcDbEntity
  8
KONSTRUKTIONSELEMENTE
100
AcDbLine
 62
7
  6
CONTINUOUS
 10
348.3697557834
 20
244.6965018129
 11
351.3699182389
 21
255.8932605279
  0
LINE
  5
399
100
AcDbEntity
  8
KONSTRUKTIONSELEMENTE
100
AcDbLine
 62
7
  6
CONTINUOUS
 10
364.370089412
 20
302.0900517775
 11
361.3699182389
 21
290.8932605279
  0
LINE
  5
39A
100
AcDbEntity
  8
0
100
AcDbLine
 62
7
  6
CONTINUOUS
 10
334.1318330691
 20
216.8057605279
 11
334.2382160351
 21
217.1182605279
  0
LINE
  5
39B
100
AcDbEntity
  8
RUNDUNGEN
100
AcDbLine
 62
7
  6
CONTINUOUS
 10
322.7718420275
 20
212.0894129506
 11
327.9010071521
 21
220.9733875468
  0
LINE
  5
39C
100
AcDbEntity
  8
0
100
AcDbLine
 62
7
  6
CONTINUOUS
 10
334.0254501031
 20
228.9932605279
 11
333.7063012049
 21
228.4724279893
  0
LINE
  5
39D
100
AcDbEntity
  8
0
100
AcDbLine
 62
7
  6
CONTINUOUS
 10
334.2382160351
 20
228.3682605279
 11
334.4509819672
 21
228.6807605279
  0
LINE
  5
39E
100
AcDbEntity
  8
KONSTRUKTIONSELEMENTE
100
AcDbLine
 62
7
  6
CONTINUOUS
 10
351.3699182389
 20
290.8932605279
 11
351.3699182389
 21
255.8932605279
  0
LINE
  5
39F
100
AcDbEntity
  8
0
100
AcDbLine
 62
7
  6
CONTINUOUS
 10
338.1743863375
 20
226.7015942586
 11
338.4935352635
 21
227.2224267972
  0
LINE
  5
3A0
100
AcDbEntity
  8
0
100
AcDbLine
 62
7
  6
CONTINUOUS
 10
337.9616203681
 20
227.3265942586
 11
337.7488544361
 21
227.0140942586
  0
LINE
  5
3A1
100
AcDbEntity
  8
0
100
AcDbLine
 62
7
  6
CONTINUOUS
 10
334.3445990012
 20
229.3057605279
 11
334.0254501031
 21
228.9932605279
  0
LINE
  5
3A2
100
AcDbEntity
  8
0
100
AcDbLine
 62
7
  6
CONTINUOUS
 10
335.2926289918
 20
246.8932605279
 11
342.8019412342
 21
246.8932605279
  0
LINE
  5
3A3
100
AcDbEntity
  8
0
100
AcDbLine
 62
7
  6
CONTINUOUS
 10
369.9378952436
 20
246.8932605279
 11
377.4472076417
 21
246.8932605279
  0
LINE
  5
3A4
100
AcDbEntity
  8
KONSTRUKTIONSELEMENTE
100
AcDbLine
 62
7
  6
CONTINUOUS
 10
361.3699182389
 20
290.8932605279
 11
361.3699182389
 21
255.8932605279
  0
LINE
  5
3A5
100
AcDbEntity
  8
0
100
AcDbLine
 62
7
  6
CONTINUOUS
 10
361.8699182389
 20
284.4532605279
 11
361.8699182389
 21
277.4532605279
  0
LINE
  5
3A6
100
AcDbEntity
  8
0
100
AcDbLine
 62
7
  6
CONTINUOUS
 10
361.8699182389
 20
276.4532605279
 11
361.8699182389
 21
269.4532605279
  0
LINE
  5
3A7
100
AcDbEntity
  8
0
100
AcDbLine
 62
7
  6
CONTINUOUS
 10
361.8699182389
 20
268.4532605279
 11
361.8699182389
 21
261.4532605279
  0
LINE
  5
3A8
100
AcDbEntity
  8
0
100
AcDbLine
 62
7
  6
CONTINUOUS
 10
334.0254501031
 20
217.6390936625
 11
333.7063012049
 21
217.2224273932
  0
LINE
  5
3A9
100
AcDbEntity
  8
0
100
AcDbLine
 62
7
  6
CONTINUOUS
 10
337.8552374021
 20
226.3890942586
 11
338.1743863375
 21
226.7015942586
  0
LINE
  5
3AA
100
AcDbEntity
  8
0
100
AcDbLine
 62
7
  6
CONTINUOUS
 10
334.2382160351
 20
217.1182605279
 11
334.4509819672
 21
217.3265936625
  0
LINE
  5
3AB
100
AcDbEntity
  8
0
100
AcDbLine
 62
7
  6
CONTINUOUS
 10
334.4509819672
 20
228.6807605279
 11
335.0892800615
 21
229.0974279893
  0
LINE
  5
3AC
100
AcDbEntity
  8
KONSTRUKTIONSELEMENTE
100
AcDbLine
 62
7
  6
CONTINUOUS
 10
351.3699182389
 20
290.8932605279
 11
348.3697552933
 21
302.0900210719
  0
LINE
  5
3AD
100
AcDbEntity
  8
KONSTRUKTIONSELEMENTE
100
AcDbLine
 62
7
  6
CONTINUOUS
 10
361.3699182389
 20
255.8932605279
 11
364.3700811359
 21
244.6965001652
  0
LINE
  5
3AE
100
AcDbEntity
  8
KONSTRUKTIONSELEMENTE
100
AcDbLine
 62
7
  6
CONTINUOUS
 10
364.3699182389
 20
322.1522438945
 11
364.3699182389
 21
302.076430366
  0
LINE
  5
3AF
100
AcDbEntity
  8
KONSTRUKTIONSELEMENTE
100
AcDbLine
 62
7
  6
CONTINUOUS
 10
364.3699182389
 20
244.7095038362
 11
364.3699182389
 21
217.8932605279
  0
LINE
  5
3B0
100
AcDbEntity
  8
0
100
AcDbLine
 62
7
  6
CONTINUOUS
 10
364.8699182389
 20
331.3900482559
 11
364.8699182389
 21
319.5073198074
  0
LINE
  5
3B1
100
AcDbEntity
  8
0
100
AcDbLine
 62
7
  6
CONTINUOUS
 10
334.4509819672
 20
217.9515942586
 11
334.0254501031
 21
217.6390936625
  0
LINE
  5
3B2
100
AcDbEntity
  8
0
100
AcDbLine
 62
7
  6
CONTINUOUS
 10
337.7488544361
 20
227.0140942586
 11
337.1105565653
 21
226.5974267972
  0
LINE
  5
3B3
100
AcDbEntity
  8
0
100
AcDbLine
 62
7
  6
CONTINUOUS
 10
334.7701308654
 20
229.5140930665
 11
334.3445990012
 21
229.3057605279
  0
LINE
  5
3B4
100
AcDbEntity
  8
0
100
AcDbLine
 62
7
  6
CONTINUOUS
 10
337.4297054634
 20
226.1807605279
 11
337.8552374021
 21
226.3890942586
  0
LINE
  5
3B5
100
AcDbEntity
  8
0
100
AcDbLine
 62
7
  6
CONTINUOUS
 10
335.0892800615
 20
229.6182605279
 11
334.7701308654
 21
229.5140930665
  0
LINE
  5
3B6
100
AcDbEntity
  8
0
100
AcDbLine
 62
7
  6
CONTINUOUS
 10
361.3699182389
 20
261.4532605279
 11
361.8699182389
 21
261.4532605279
  0
LINE
  5
3B7
100
AcDbEntity
  8
RUNDUNGEN
100
AcDbLine
 62
7
  6
CONTINUOUS
 10
384.8388293257
 20
220.9733875468
 11
389.9679944503
 21
212.0894129506
  0
LINE
  5
3B8
100
AcDbEntity
  8
RUNDUNGEN
100
AcDbLine
 62
7
  6
CONTINUOUS
 10
348.3699182389
 20
223.1641355389
 11
347.8411507072
 21
222.7044849362
  0
LINE
  5
3B9
100
AcDbEntity
  8
0
100
AcDbLine
 62
7
  6
CONTINUOUS
 10
337.1105565653
 20
226.0765942586
 11
337.4297054634
 21
226.1807605279
  0
LINE
  5
3BA
100
AcDbEntity
  8
RUNDUNGEN
100
AcDbLine
 62
7
  6
CONTINUOUS
 10
379.7244778015
 20
245.8217857037
 11
383.4340960114
 21
241.400834875
  0
LINE
  5
3BB
100
AcDbEntity
  8
0
100
AcDbLine
 62
7
  6
CONTINUOUS
 10
380.151022421
 20
217.3479694126
 11
380.1375866635
 21
217.7362119882
  0
LINE
  5
3BC
100
AcDbEntity
  8
0
100
AcDbLine
 62
7
  6
CONTINUOUS
 10
380.151022421
 20
222.4479694126
 11
380.1375866635
 21
222.8362119882
  0
LINE
  5
3BD
100
AcDbEntity
  8
0
100
AcDbLine
 62
7
  6
CONTINUOUS
 10
376.6961230099
 20
222.2362119882
 11
376.6961230099
 21
220.4864299207
  0
LINE
  5
3BE
100
AcDbEntity
  8
0
100
AcDbLine
 62
7
  6
CONTINUOUS
 10
377.6026243521
 20
220.4849928386
 11
377.6026243521
 21
222.2362119882
  0
LINE
  5
3BF
100
AcDbEntity
  8
0
100
AcDbLine
 62
7
  6
CONTINUOUS
 10
334.7701308654
 20
218.0557605279
 11
334.4509819672
 21
217.9515942586
  0
LINE
  5
3C0
100
AcDbEntity
  8
0
100
AcDbLine
 62
7
  6
CONTINUOUS
 10
334.4509819672
 20
217.3265936625
 11
334.7701308654
 21
217.4307605279
  0
LINE
  5
3C1
100
AcDbEntity
  8
0
100
AcDbLine
 62
7
  6
CONTINUOUS
 10
361.3699182389
 20
268.4532605279
 11
361.8699182389
 21
268.4532605279
  0
LINE
  5
3C2
100
AcDbEntity
  8
0
100
AcDbLine
 62
7
  6
CONTINUOUS
 10
361.3699182389
 20
269.4532605279
 11
361.8699182389
 21
269.4532605279
  0
LINE
  5
3C3
100
AcDbEntity
  8
0
100
AcDbLine
 62
7
  6
CONTINUOUS
 10
361.3699182389
 20
269.6021966934
 11
361.8699182389
 21
269.6021966934
  0
LINE
  5
3C4
100
AcDbEntity
  8
0
100
AcDbLine
 62
7
  6
CONTINUOUS
 10
361.3699182389
 20
269.9000690374
 11
361.8699182389
 21
269.9000690374
  0
LINE
  5
3C5
100
AcDbEntity
  8
0
100
AcDbLine
 62
7
  6
CONTINUOUS
 10
361.3699182389
 20
270.4958136994
 11
361.8699182389
 21
270.4958136994
  0
LINE
  5
3C6
100
AcDbEntity
  8
0
100
AcDbLine
 62
7
  6
CONTINUOUS
 10
361.3699182389
 20
271.0915584135
 11
361.8699182389
 21
271.0915584135
  0
LINE
  5
3C7
100
AcDbEntity
  8
0
100
AcDbLine
 62
7
  6
CONTINUOUS
 10
361.3699182389
 20
271.8362391758
 11
361.8699182389
 21
271.8362391758
  0
LINE
  5
3C8
100
AcDbEntity
  8
RUNDUNGEN
100
AcDbLine
 62
7
  6
CONTINUOUS
 10
384.3699182389
 20
238.829732721
 11
384.3699182389
 21
222.7233875468
  0
LINE
  5
3C9
100
AcDbEntity
  8
0
100
AcDbLine
 62
7
  6
CONTINUOUS
 10
337.9616203681
 20
209.8265938115
 11
333.5999182389
 21
208.3682605279
  0
LINE
  5
3CA
100
AcDbEntity
  8
0
100
AcDbLine
 62
7
  6
CONTINUOUS
 10
333.5999182389
 20
207.7432605279
 11
338.5999182389
 21
209.4099272442
  0
LINE
  5
3CB
100
AcDbEntity
  8
0
100
AcDbLine
 62
7
  6
CONTINUOUS
 10
361.3699182389
 20
276.4532605279
 11
361.8699182389
 21
276.4532605279
  0
LINE
  5
3CC
100
AcDbEntity
  8
0
100
AcDbLine
 62
7
  6
CONTINUOUS
 10
361.3699182389
 20
277.4532605279
 11
361.8699182389
 21
277.4532605279
  0
LINE
  5
3CD
100
AcDbEntity
  8
0
100
AcDbLine
 62
7
  6
CONTINUOUS
 10
390.3699182389
 20
210.5894129506
 11
390.3699182389
 21
162.8932605279
  0
LINE
  5
3CE
100
AcDbEntity
  8
0
100
AcDbLine
 62
7
  6
CONTINUOUS
 10
361.3699182389
 20
284.4532605279
 11
361.8699182389
 21
284.4532605279
  0
LINE
  5
3CF
100
AcDbEntity
  8
0
100
AcDbLine
 62
7
  6
CONTINUOUS
 10
364.3699182389
 20
319.5073198074
 11
364.8699182389
 21
319.5073198074
  0
LINE
  5
3D0
100
AcDbEntity
  8
0
100
AcDbLine
 62
7
  6
CONTINUOUS
 10
363.8907357788
 20
324.3698585565
 11
364.8699182389
 21
324.3698585565
  0
LINE
  5
3D1
100
AcDbEntity
  8
0
100
AcDbLine
 62
7
  6
CONTINUOUS
 10
390.3699182389
 20
162.8932605279
 11
387.8526193454
 21
159.8932605279
  0
LINE
  5
3D2
100
AcDbEntity
  8
0
100
AcDbLine
 62
7
  6
CONTINUOUS
 10
363.9190652563
 20
326.1273935429
 11
364.8699182389
 21
326.1273935429
  0
LINE
  5
3D3
100
AcDbEntity
  8
0
100
AcDbLine
 62
7
  6
CONTINUOUS
 10
363.9557981453
 20
326.390088476
 11
364.8699182389
 21
326.390088476
  0
LINE
  5
3D4
100
AcDbEntity
  8
0
100
AcDbLine
 62
7
  6
CONTINUOUS
 10
363.8907357739
 20
328.2472192601
 11
364.8699182389
 21
328.2472192601
  0
LINE
  5
3D5
100
AcDbEntity
  8
0
100
AcDbLine
 62
7
  6
CONTINUOUS
 10
363.9190652577
 20
329.4089360428
 11
364.8699182389
 21
329.4089360428
  0
LINE
  5
3D6
100
AcDbEntity
  8
0
100
AcDbLine
 62
7
  6
CONTINUOUS
 10
363.955798153
 20
329.5332607965
 11
364.8699182389
 21
329.5332607965
  0
LINE
  5
3D7
100
AcDbEntity
  8
0
100
AcDbLine
 62
7
  6
CONTINUOUS
 10
363.9629333541
 20
331.3900482559
 11
364.8699182389
 21
331.3900482559
  0
LINE
  5
3D8
100
AcDbEntity
  8
RUNDUNGEN
100
AcDbLine
 62
7
  6
CONTINUOUS
 10
187.8108954321
 20
30.7124470375
 11
211.8108954321
 21
30.7124470375
  0
LINE
  5
3D9
100
AcDbEntity
  8
0
100
AcDbLine
 62
7
  6
CONTINUOUS
 10
184.8108954321
 20
34.9297409242
 11
184.3108954321
 21
34.9297409242
  0
LINE
  5
3DA
100
AcDbEntity
  8
0
100
AcDbLine
 62
7
  6
CONTINUOUS
 10
184.8108954321
 20
34.9447786129
 11
184.3108954321
 21
34.9447786129
  0
LINE
  5
3DB
100
AcDbEntity
  8
0
100
AcDbLine
 62
7
  6
CONTINUOUS
 10
184.8108954321
 20
35.8512799552
 11
184.3108954321
 21
35.8512799552
  0
LINE
  5
3DC
100
AcDbEntity
  8
0
100
AcDbLine
 62
7
  6
CONTINUOUS
 10
184.8108954321
 20
37.4797409242
 11
184.3108954321
 21
37.4797409242
  0
LINE
  5
3DD
100
AcDbEntity
  8
0
100
AcDbLine
 62
7
  6
CONTINUOUS
 10
184.8108954321
 20
38.3862422665
 11
184.3108954321
 21
38.3862422665
  0
LINE
  5
3DE
100
AcDbEntity
  8
0
100
AcDbLine
 62
7
  6
CONTINUOUS
 10
179.9865013436
 20
51.1916294976
 11
179.9865013436
 21
50.2124470375
  0
LINE
  5
3DF
100
AcDbEntity
  8
0
100
AcDbLine
 62
7
  6
CONTINUOUS
 10
182.4177707182
 20
51.1633000201
 11
182.4177707182
 21
50.2124470375
  0
LINE
  5
3E0
100
AcDbEntity
  8
0
100
AcDbLine
 62
7
  6
CONTINUOUS
 10
182.9990739817
 20
51.1265671311
 11
182.9990739817
 21
50.2124470375
  0
LINE
  5
3E1
100
AcDbEntity
  8
0
100
AcDbLine
 62
7
  6
CONTINUOUS
 10
184.8108954321
 20
40.0082018933
 11
184.3108954321
 21
40.0082018933
  0
LINE
  5
3E2
100
AcDbEntity
  8
0
100
AcDbLine
 62
7
  6
CONTINUOUS
 10
184.8108954321
 20
40.9147032356
 11
184.3108954321
 21
40.9147032356
  0
LINE
  5
3E3
100
AcDbEntity
  8
0
100
AcDbLine
 62
7
  6
CONTINUOUS
 10
184.8108954321
 20
40.9297409242
 11
184.3108954321
 21
40.9297409242
  0
LWPOLYLINE
  5
3E4
100
AcDbEntity
  8
RUNDUNGEN
100
AcDbPolyline
 62
7
  6
CONTINUOUS
 90
7
 70
0
 10
184.81089566
 20
71.9646188153
 10
184.8134688142
 20
71.8340614834
 10
184.8436799986
 20
71.4962243275
 10
184.9084261108
 20
71.1579113171
 10
185.0076116064
 20
70.8237472454
 10
185.140700529
 20
70.4972486022
 10
185.3066636585
 20
70.1818956149
  0
LINE
  5
3E5
100
AcDbEntity
  8
0
100
AcDbLine
 62
7
  6
CONTINUOUS
 10
183.6286515893
 20
51.0162865469
 11
183.6286515893
 21
50.2124470375
  0
LINE
  5
3E6
100
AcDbEntity
  8
0
100
AcDbLine
 62
7
  6
CONTINUOUS
 10
184.2317151167
 20
50.89502651
 11
184.2317151167
 21
50.2124470375
  0
LINE
  5
3E7
100
AcDbEntity
  8
0
100
AcDbLine
 62
7
  6
CONTINUOUS
 10
184.3108954321
 20
34.9301213037
 11
184.3108954321
 21
35.8512799552
  0
LINE
  5
3E8
100
AcDbEntity
  8
0
100
AcDbLine
 62
7
  6
CONTINUOUS
 10
184.3108954321
 20
35.9277374084
 11
184.3108954321
 21
40.9293605448
  0
LINE
  5
3E9
100
AcDbEntity
  8
0
100
AcDbLine
 62
7
  6
CONTINUOUS
 10
184.3108954321
 20
76.4824470375
 11
184.3108954321
 21
81.4824470375
  0
LINE
  5
3EA
100
AcDbEntity
  8
0
100
AcDbLine
 62
7
  6
CONTINUOUS
 10
184.5573840525
 20
50.8232827944
 11
184.5573840525
 21
50.2124470375
  0
LINE
  5
3EB
100
AcDbEntity
  8
RUNDUNGEN
100
AcDbLine
 62
7
  6
CONTINUOUS
 10
184.8108954321
 20
30.1292235249
 11
184.8108954321
 21
46.869628871
  0
LINE
  5
3EC
100
AcDbEntity
  8
RUNDUNGEN
100
AcDbLine
 62
7
  6
CONTINUOUS
 10
184.8108954321
 20
70.5552659047
 11
184.8108954321
 21
87.29565885
  0
LINE
  5
3ED
100
AcDbEntity
  8
0
100
AcDbLine
 62
7
  6
CONTINUOUS
 10
184.8565391176
 20
50.7543812038
 11
184.8565391176
 21
50.2124470375
  0
LINE
  5
3EE
100
AcDbEntity
  8
0
100
AcDbLine
 62
7
  6
CONTINUOUS
 10
184.9796024653
 20
50.7238197453
 11
184.9796024653
 21
50.2124470375
  0
LINE
  5
3EF
100
AcDbEntity
  8
0
100
AcDbLine
 62
7
  6
CONTINUOUS
 10
185.8138172199
 20
51.1916295024
 11
185.8138172199
 21
50.2124470375
  0
LINE
  5
3F0
100
AcDbEntity
  8
0
100
AcDbLine
 62
7
  6
CONTINUOUS
 10
230.3231880369
 20
43.7124470375
 11
230.6015190048
 21
43.7124470375
  0
LINE
  5
3F1
100
AcDbEntity
  8
0
100
AcDbLine
 62
7
  6
CONTINUOUS
 10
188.5797554182
 20
51.1633000187
 11
188.5797554182
 21
50.2124470375
  0
LINE
  5
3F2
100
AcDbEntity
  8
0
100
AcDbLine
 62
7
  6
CONTINUOUS
 10
189.2054270738
 20
51.1265671233
 11
189.2054270738
 21
50.2124470375
  0
LINE
  5
3F3
100
AcDbEntity
  8
0
100
AcDbLine
 62
7
  6
CONTINUOUS
 10
189.8147212458
 20
51.0162865439
 11
189.8147212458
 21
50.2124470375
  0
LINE
  5
3F4
100
AcDbEntity
  8
0
100
AcDbLine
 62
7
  6
CONTINUOUS
 10
231.8957438811
 20
47.4624470375
 11
232.1605476713
 21
47.4624470375
  0
LINE
  5
3F5
100
AcDbEntity
  8
0
100
AcDbLine
 62
7
  6
CONTINUOUS
 10
232.1590835816
 20
48.2436971865
 11
232.421749094
 21
48.2436971865
  0
LINE
  5
3F6
100
AcDbEntity
  8
0
100
AcDbLine
 62
7
  6
CONTINUOUS
 10
232.3070490506
 20
48.7124470375
 11
232.5685281304
 21
48.7124470375
  0
LINE
  5
3F7
100
AcDbEntity
  8
0
100
AcDbLine
 62
7
  6
CONTINUOUS
 10
190.3582025239
 20
50.8950265072
 11
190.3582025239
 21
50.2124470375
  0
LINE
  5
3F8
100
AcDbEntity
  8
0
100
AcDbLine
 62
7
  6
CONTINUOUS
 10
190.6217544211
 20
50.8232827967
 11
190.6217544211
 21
50.2124470375
  0
LINE
  5
3F9
100
AcDbEntity
  8
0
100
AcDbLine
 62
7
  6
CONTINUOUS
 10
190.8194935628
 20
50.7543812053
 11
190.8194935628
 21
50.2124470375
  0
LINE
  5
3FA
100
AcDbEntity
  8
0
100
AcDbLine
 62
7
  6
CONTINUOUS
 10
190.8525501705
 20
50.7238197446
 11
190.8525501705
 21
50.2124470375
  0
LWPOLYLINE
  5
3FB
100
AcDbEntity
  8
RUNDUNGEN
100
AcDbPolyline
 62
7
  6
CONTINUOUS
 90
7
 70
0
 10
185.298177019
 20
47.228528188
 10
185.1335428357
 20
46.9121848593
 10
185.001904299
 20
46.5847770412
 10
184.9042923849
 20
46.2498162224
 10
184.841236005
 20
45.9108632538
 10
184.8128046756
 20
45.5725966103
 10
184.8108956352
 20
45.4603179501
  0
LINE
  5
3FC
100
AcDbEntity
  8
RUNDUNGEN
100
AcDbLine
 62
7
  6
CONTINUOUS
 10
186.4526003836
 20
48.9786466345
 11
186.355683338
 21
48.803021679
  0
LWPOLYLINE
  5
3FD
100
AcDbEntity
  8
RUNDUNGEN
100
AcDbPolyline
 62
7
  6
CONTINUOUS
 90
6
 70
0
 10
186.355683338
 20
48.803021679
 10
186.2031579925
 20
48.5420728732
 10
186.0455528184
 20
48.2908625029
 10
185.8831698733
 20
48.0501313594
 10
185.716346493
 20
47.8205520949
 10
185.6041423457
 20
47.6756263119
  0
LINE
  5
3FE
100
AcDbEntity
  8
0
100
AcDbLine
 62
7
  6
CONTINUOUS
 10
218.1449261256
 20
50.2124470375
 11
209.9933652748
 21
50.2124470375
  0
LINE
  5
3FF
100
AcDbEntity
  8
0
100
AcDbLine
 62
7
  6
CONTINUOUS
 10
209.3182639092
 20
50.2124470375
 11
206.2955999642
 21
50.2124470375
  0
LINE
  5
400
100
AcDbEntity
  8
0
100
AcDbLine
 62
7
  6
CONTINUOUS
 10
204.5236094497
 20
50.2124470375
 11
199.477754434
 21
50.2124470375
  0
LINE
  5
401
100
AcDbEntity
  8
0
100
AcDbLine
 62
7
  6
CONTINUOUS
 10
190.8525501705
 20
50.2124470375
 11
185.8138172199
 21
50.2124470375
  0
LINE
  5
402
100
AcDbEntity
  8
0
100
AcDbLine
 62
7
  6
CONTINUOUS
 10
184.9796024653
 20
50.2124470375
 11
179.9865013436
 21
50.2124470375
  0
LINE
  5
403
100
AcDbEntity
  8
KONSTRUKTIONSELEMENTE
100
AcDbLine
 62
7
  6
CONTINUOUS
 10
228.0171662238
 20
50.7124470375
 11
218.1449261256
 21
50.7124470375
  0
LINE
  5
404
100
AcDbEntity
  8
KONSTRUKTIONSELEMENTE
100
AcDbLine
 62
7
  6
CONTINUOUS
 10
213.452850715
 20
50.7124470375
 11
209.3182639092
 21
50.7124470375
  0
LINE
  5
405
100
AcDbEntity
  8
KONSTRUKTIONSELEMENTE
100
AcDbLine
 62
7
  6
CONTINUOUS
 10
206.2955999642
 20
50.7124470375
 11
203.5593124939
 21
50.7124470375
  0
LINE
  5
406
100
AcDbEntity
  8
KONSTRUKTIONSELEMENTE
100
AcDbLine
 62
7
  6
CONTINUOUS
 10
200.2298653661
 20
50.7124470375
 11
190.8525501705
 21
50.7124470375
  0
LINE
  5
407
100
AcDbEntity
  8
KONSTRUKTIONSELEMENTE
100
AcDbLine
 62
7
  6
CONTINUOUS
 10
185.8138172199
 20
50.7124470375
 11
184.9754197888
 21
50.7124470375
  0
LINE
  5
408
100
AcDbEntity
  8
KONSTRUKTIONSELEMENTE
100
AcDbLine
 62
7
  6
CONTINUOUS
 10
179.9865013436
 20
50.7124470375
 11
171.6044820569
 21
50.7124470375
  0
LWPOLYLINE
  5
409
100
AcDbEntity
  8
RUNDUNGEN
100
AcDbPolyline
 62
7
  6
CONTINUOUS
 90
3
 70
0
 10
186.2076482416
 20
68.8753972819
 10
186.3601636048
 20
68.6139255768
 10
186.4524702988
 20
68.4464881822
  0
LINE
  5
40A
100
AcDbEntity
  8
RUNDUNGEN
100
AcDbLine
 62
7
  6
CONTINUOUS
 10
185.4940227062
 20
47.5300186665
 11
185.298177019
 21
47.228528188
  0
LINE
  5
40B
100
AcDbEntity
  8
RUNDUNGEN
100
AcDbLine
 62
7
  6
CONTINUOUS
 10
185.6040927749
 20
47.6755663276
 11
185.4940227062
 21
47.5300186665
  0
LINE
  5
40C
100
AcDbEntity
  8
RUNDUNGEN
100
AcDbLine
 62
7
  6
CONTINUOUS
 10
185.6041423457
 20
47.6756263119
 11
185.6040942558
 21
47.6755657717
  0
LINE
  5
40D
100
AcDbEntity
  8
KONSTRUKTIONSELEMENTE
100
AcDbLine
 62
7
  6
CONTINUOUS
 10
236.5558934305
 20
53.7124470375
 11
235.7341168903
 21
53.7124470375
  0
LINE
  5
40E
100
AcDbEntity
  8
KONSTRUKTIONSELEMENTE
100
AcDbLine
 62
7
  6
CONTINUOUS
 10
163.8876739738
 20
53.7124470375
 11
163.0658974337
 21
53.7124470375
  0
LINE
  5
40F
100
AcDbEntity
  8
RUNDUNGEN
100
AcDbLine
 62
7
  6
CONTINUOUS
 10
185.6041346278
 20
69.7492756879
 11
185.6040902323
 21
69.7493315777
  0
LWPOLYLINE
  5
410
100
AcDbEntity
  8
RUNDUNGEN
100
AcDbPolyline
 62
7
  6
CONTINUOUS
 90
5
 70
0
 10
185.6041345786
 20
69.7492753313
 10
185.7210684301
 20
69.598075787
 10
185.8877917533
 20
69.3681527892
 10
186.0500949238
 20
69.1270410839
 10
186.2076482416
 20
68.8753972819
  0
LINE
  5
411
100
AcDbEntity
  8
RUNDUNGEN
100
AcDbLine
 62
7
  6
CONTINUOUS
 10
185.5037345159
 20
69.8814376911
 11
185.6040902323
 21
69.7493315777
  0
LINE
  5
412
100
AcDbEntity
  8
RUNDUNGEN
100
AcDbLine
 62
7
  6
CONTINUOUS
 10
185.3066636585
 20
70.1818956149
 11
185.5037345159
 21
69.8814376911
  0
LINE
  5
413
100
AcDbEntity
  8
0
100
AcDbLine
 62
7
  6
CONTINUOUS
 10
199.477754434
 20
50.7124470375
 11
199.477754434
 21
50.2124470375
  0
LINE
  5
414
100
AcDbEntity
  8
0
100
AcDbLine
 62
7
  6
CONTINUOUS
 10
199.5403157979
 20
50.7124470375
 11
199.5403157979
 21
50.2124470375
  0
LINE
  5
415
100
AcDbEntity
  8
0
100
AcDbLine
 62
7
  6
CONTINUOUS
 10
202.8118183748
 20
51.1620268967
 11
202.8118183748
 21
50.2124470375
  0
LINE
  5
416
100
AcDbEntity
  8
0
100
AcDbLine
 62
7
  6
CONTINUOUS
 10
203.5593124939
 20
51.1695577775
 11
203.5593124939
 21
50.2124470375
  0
LINE
  5
417
100
AcDbEntity
  8
0
100
AcDbLine
 62
7
  6
CONTINUOUS
 10
204.5236094497
 20
50.7124470375
 11
204.5236094497
 21
50.2124470375
  0
LINE
  5
418
100
AcDbEntity
  8
0
100
AcDbLine
 62
7
  6
CONTINUOUS
 10
206.2955999642
 20
50.7164902544
 11
206.2955999642
 21
50.2124470375
  0
LINE
  5
419
100
AcDbEntity
  8
0
100
AcDbLine
 62
7
  6
CONTINUOUS
 10
206.4390180363
 20
50.7490350047
 11
206.4390180363
 21
50.2124470375
  0
LINE
  5
41A
100
AcDbEntity
  8
RUNDUNGEN
100
AcDbLine
 62
7
  6
CONTINUOUS
 10
213.1693072823
 20
68.446463975
 11
213.2661871417
 21
68.6220123325
  0
LWPOLYLINE
  5
41B
100
AcDbEntity
  8
RUNDUNGEN
100
AcDbPolyline
 62
7
  6
CONTINUOUS
 90
6
 70
0
 10
213.2661871417
 20
68.6220123325
 10
213.4187655616
 20
68.8830406923
 10
213.5763822578
 20
69.1342538109
 10
213.7387471211
 20
69.374943453
 10
213.9055314034
 20
69.6044542057
 10
214.0176535697
 20
69.7492722912
  0
LINE
  5
41C
100
AcDbEntity
  8
RUNDUNGEN
100
AcDbLine
 62
7
  6
CONTINUOUS
 10
214.1277678539
 20
69.8948745298
 11
214.323614411
 21
70.196366183
  0
LINE
  5
41D
100
AcDbEntity
  8
RUNDUNGEN
100
AcDbLine
 62
7
  6
CONTINUOUS
 10
214.0176972411
 20
69.7493263924
 11
214.1277678539
 21
69.8948745298
  0
LINE
  5
41E
100
AcDbEntity
  8
RUNDUNGEN
100
AcDbLine
 62
7
  6
CONTINUOUS
 10
214.0176535697
 20
69.7492722912
 11
214.0176962205
 21
69.7493259846
  0
LINE
  5
41F
100
AcDbEntity
  8
KONSTRUKTIONSELEMENTE
100
AcDbLine
 62
7
  6
CONTINUOUS
 10
236.5558934305
 20
63.7124470375
 11
235.7341168903
 21
63.7124470375
  0
LINE
  5
420
100
AcDbEntity
  8
KONSTRUKTIONSELEMENTE
100
AcDbLine
 62
7
  6
CONTINUOUS
 10
163.8876739738
 20
63.7124470375
 11
163.0658974337
 21
63.7124470375
  0
LINE
  5
421
100
AcDbEntity
  8
RUNDUNGEN
100
AcDbLine
 62
7
  6
CONTINUOUS
 10
214.0176506541
 20
47.6756254606
 11
214.0176998086
 21
47.67556358
  0
LWPOLYLINE
  5
422
100
AcDbEntity
  8
RUNDUNGEN
100
AcDbPolyline
 62
7
  6
CONTINUOUS
 90
5
 70
0
 10
214.0176494159
 20
47.6756249391
 10
213.9006545943
 20
47.8269046125
 10
213.7339066232
 20
48.0568742115
 10
213.5715902994
 20
48.2980164641
 10
213.4140429903
 20
48.5496620653
  0
LINE
  5
423
100
AcDbEntity
  8
RUNDUNGEN
100
AcDbLine
 62
7
  6
CONTINUOUS
 10
214.1180555297
 20
47.5434576117
 11
214.0176998086
 21
47.67556358
  0
LINE
  5
424
100
AcDbEntity
  8
RUNDUNGEN
100
AcDbLine
 62
7
  6
CONTINUOUS
 10
214.3151264096
 20
47.2430001208
 11
214.1180555297
 21
47.5434576117
  0
LWPOLYLINE
  5
425
100
AcDbEntity
  8
RUNDUNGEN
100
AcDbPolyline
 62
7
  6
CONTINUOUS
 90
3
 70
0
 10
213.4140429903
 20
48.5496620653
 10
213.2615664476
 20
48.8110754108
 10
213.1692334998
 20
48.9785667464
  0
LINE
  5
426
100
AcDbEntity
  8
0
100
AcDbLine
 62
7
  6
CONTINUOUS
 10
207.3987657453
 20
50.7457732206
 11
207.3987657453
 21
50.2124470375
  0
LINE
  5
427
100
AcDbEntity
  8
0
100
AcDbLine
 62
7
  6
CONTINUOUS
 10
207.6856019899
 20
50.9063307066
 11
207.6856019899
 21
50.2124470375
  0
LINE
  5
428
100
AcDbEntity
  8
0
100
AcDbLine
 62
7
  6
CONTINUOUS
 10
208.2854467107
 20
50.9054483369
 11
208.2854467107
 21
50.2124470375
  0
LINE
  5
429
100
AcDbEntity
  8
0
100
AcDbLine
 62
7
  6
CONTINUOUS
 10
209.3182639092
 20
50.7490350047
 11
209.3182639092
 21
50.2124470375
  0
LINE
  5
42A
100
AcDbEntity
  8
0
100
AcDbLine
 62
7
  6
CONTINUOUS
 10
209.9933652748
 20
50.7124470375
 11
209.9933652748
 21
50.2124470375
  0
LINE
  5
42B
100
AcDbEntity
  8
0
100
AcDbLine
 62
7
  6
CONTINUOUS
 10
210.2565813605
 20
50.7124470375
 11
210.2565813605
 21
50.2124470375
  0
LWPOLYLINE
  5
42C
100
AcDbEntity
  8
RUNDUNGEN
100
AcDbPolyline
 62
7
  6
CONTINUOUS
 90
7
 70
0
 10
214.323614411
 20
70.196366183
 10
214.4882482727
 20
70.5127089968
 10
214.6198861645
 20
70.8401152554
 10
214.7174977321
 20
71.1750743357
 10
214.7805542302
 20
71.5140261569
 10
214.8089860058
 20
71.8522934945
 10
214.8108951745
 20
71.9645751484
  0
LINE
  5
42D
100
AcDbEntity
  8
0
100
AcDbLine
 62
7
  6
CONTINUOUS
 10
232.9011484343
 20
66.5249470375
 11
233.1579694229
 21
66.5249470375
  0
LINE
  5
42E
100
AcDbEntity
  8
KONSTRUKTIONSELEMENTE
100
AcDbLine
 62
7
  6
CONTINUOUS
 10
228.017330811
 20
66.7124470375
 11
171.6045760424
 21
66.7124470375
  0
LINE
  5
42F
100
AcDbEntity
  8
0
100
AcDbLine
 62
7
  6
CONTINUOUS
 10
232.706905079
 20
67.3061976335
 11
232.9652307548
 21
67.3061976335
  0
LINE
  5
430
100
AcDbEntity
  8
0
100
AcDbLine
 62
7
  6
CONTINUOUS
 10
232.5372555786
 20
67.9311970375
 11
232.7969098691
 21
67.9311970375
  0
LINE
  5
431
100
AcDbEntity
  8
0
100
AcDbLine
 62
7
  6
CONTINUOUS
 10
232.3547212316
 20
68.5561964414
 11
232.6158203317
 21
68.5561964414
  0
LINE
  5
432
100
AcDbEntity
  8
0
100
AcDbLine
 62
7
  6
CONTINUOUS
 10
232.2585546071
 20
68.8686970375
 11
232.5204213525
 21
68.8686970375
  0
LINE
  5
433
100
AcDbEntity
  8
0
100
AcDbLine
 62
7
  6
CONTINUOUS
 10
232.2092342173
 20
69.0249464414
 11
232.471496407
 21
69.0249464414
  0
LINE
  5
434
100
AcDbEntity
  8
0
100
AcDbLine
 62
7
  6
CONTINUOUS
 10
211.8508604692
 20
50.7124470375
 11
211.8508604692
 21
50.2124470375
  0
LINE
  5
435
100
AcDbEntity
  8
0
100
AcDbLine
 62
7
  6
CONTINUOUS
 10
231.8957438811
 20
69.9624470375
 11
232.1605476713
 21
69.9624470375
  0
LINE
  5
436
100
AcDbEntity
  8
0
100
AcDbLine
 62
7
  6
CONTINUOUS
 10
231.6110370842
 20
70.7436976335
 11
231.8781919987
 21
70.7436976335
  0
LINE
  5
437
100
AcDbEntity
  8
0
100
AcDbLine
 62
7
  6
CONTINUOUS
 10
230.9065143581
 20
72.4624464414
 11
231.1796699761
 21
72.4624464414
  0
LWPOLYLINE
  5
438
100
AcDbEntity
  8
RUNDUNGEN
100
AcDbPolyline
 62
7
  6
CONTINUOUS
 90
7
 70
0
 10
214.8108951182
 20
45.460276344
 10
214.8083219506
 20
45.5908333507
 10
214.778110859
 20
45.928669766
 10
214.7133648405
 20
46.2669827982
 10
214.6141792617
 20
46.6011473641
 10
214.4810899321
 20
46.927646812
 10
214.3151264096
 20
47.2430001208
  0
LINE
  5
439
100
AcDbEntity
  8
RUNDUNGEN
100
AcDbLine
 62
7
  6
CONTINUOUS
 10
214.8108954321
 20
30.1292356356
 11
214.8108954321
 21
46.8696149885
  0
LINE
  5
43A
100
AcDbEntity
  8
RUNDUNGEN
100
AcDbLine
 62
7
  6
CONTINUOUS
 10
214.8108954321
 20
70.5551525998
 11
214.8108954321
 21
87.2956715383
  0
LINE
  5
43B
100
AcDbEntity
  8
0
100
AcDbLine
 62
7
  6
CONTINUOUS
 10
214.979293267
 20
51.1916295122
 11
214.979293267
 21
50.2124470375
  0
LINE
  5
43C
100
AcDbEntity
  8
0
100
AcDbLine
 62
7
  6
CONTINUOUS
 10
217.4694245758
 20
51.1633000159
 11
217.4694245758
 21
50.2124470375
  0
LINE
  5
43D
100
AcDbEntity
  8
0
100
AcDbLine
 62
7
  6
CONTINUOUS
 10
217.9170056271
 20
51.1265671079
 11
217.9170056271
 21
50.2124470375
  0
LINE
  5
43E
100
AcDbEntity
  8
0
100
AcDbLine
 62
7
  6
CONTINUOUS
 10
218.1184417643
 20
51.0162865378
 11
218.1184417643
 21
50.2124470375
  0
LINE
  5
43F
100
AcDbEntity
  8
0
100
AcDbLine
 62
7
  6
CONTINUOUS
 10
218.1449261256
 20
50.8950265014
 11
218.1449261256
 21
50.2124470375
  0
LINE
  5
440
100
AcDbEntity
  8
0
100
AcDbLine
 62
7
  6
CONTINUOUS
 10
184.8108954321
 20
76.4824470375
 11
184.3108954321
 21
76.4824470375
  0
LINE
  5
441
100
AcDbEntity
  8
0
100
AcDbLine
 62
7
  6
CONTINUOUS
 10
184.8108954321
 20
76.5888300128
 11
184.3108954321
 21
76.5888300128
  0
LINE
  5
442
100
AcDbEntity
  8
0
100
AcDbLine
 62
7
  6
CONTINUOUS
 10
184.8108954321
 20
76.9079789389
 11
184.3108954321
 21
76.9079789389
  0
LINE
  5
443
100
AcDbEntity
  8
0
100
AcDbLine
 62
7
  6
CONTINUOUS
 10
184.8108954321
 20
77.2271278743
 11
184.3108954321
 21
77.2271278743
  0
LINE
  5
444
100
AcDbEntity
  8
0
100
AcDbLine
 62
7
  6
CONTINUOUS
 10
184.8108954321
 20
77.652659813
 11
184.3108954321
 21
77.652659813
  0
LINE
  5
445
100
AcDbEntity
  8
0
100
AcDbLine
 62
7
  6
CONTINUOUS
 10
184.8108954321
 20
77.9718087111
 11
184.3108954321
 21
77.9718087111
  0
LINE
  5
446
100
AcDbEntity
  8
0
100
AcDbLine
 62
7
  6
CONTINUOUS
 10
184.8108954321
 20
78.5037236903
 11
184.3108954321
 21
78.5037236903
  0
LINE
  5
447
100
AcDbEntity
  8
0
100
AcDbLine
 62
7
  6
CONTINUOUS
 10
184.8108954321
 20
79.4611703847
 11
184.3108954321
 21
79.4611703847
  0
LINE
  5
448
100
AcDbEntity
  8
0
100
AcDbLine
 62
7
  6
CONTINUOUS
 10
184.8108954321
 20
79.9930852149
 11
184.3108954321
 21
79.9930852149
  0
LINE
  5
449
100
AcDbEntity
  8
0
100
AcDbLine
 62
7
  6
CONTINUOUS
 10
184.8108954321
 20
80.312234411
 11
184.3108954321
 21
80.312234411
  0
LINE
  5
44A
100
AcDbEntity
  8
0
100
AcDbLine
 62
7
  6
CONTINUOUS
 10
184.8108954321
 20
80.7377662752
 11
184.3108954321
 21
80.7377662752
  0
LINE
  5
44B
100
AcDbEntity
  8
0
100
AcDbLine
 62
7
  6
CONTINUOUS
 10
184.8108954321
 20
81.0569151733
 11
184.3108954321
 21
81.0569151733
  0
LINE
  5
44C
100
AcDbEntity
  8
0
100
AcDbLine
 62
7
  6
CONTINUOUS
 10
184.8108954321
 20
81.3760640714
 11
184.3108954321
 21
81.3760640714
  0
LINE
  5
44D
100
AcDbEntity
  8
0
100
AcDbLine
 62
7
  6
CONTINUOUS
 10
184.8108954321
 20
81.4824470375
 11
184.3108954321
 21
81.4824470375
  0
LINE
  5
44E
100
AcDbEntity
  8
RUNDUNGEN
100
AcDbLine
 62
7
  6
CONTINUOUS
 10
187.8108954321
 20
86.7124470375
 11
211.8108954321
 21
86.7124470375
  0
ARC
  5
44F
100
AcDbEntity
  8
RUNDUNGEN
100
AcDbCircle
 62
7
  6
CONTINUOUS
 10
179.8108954321
 20
202.8932605279
 40
5.0
100
AcDbArc
 50
270.0000503357
 51
0.0005119783
  0
ARC
  5
450
100
AcDbEntity
  8
RUNDUNGEN
100
AcDbCircle
 62
7
  6
CONTINUOUS
 10
168.8108954321
 20
194.8932605279
 40
3.0
100
AcDbArc
 50
90.0
 51
180.0
  0
ARC
  5
451
100
AcDbEntity
  8
KONSTRUKTIONSELEMENTE
100
AcDbCircle
 62
7
  6
CONTINUOUS
 10
49.8108954321
 20
273.3932605279
 40
188.5
100
AcDbArc
 50
349.6111421845
 51
10.3888578155
  0
ARC
  5
452
100
AcDbEntity
  8
KONSTRUKTIONSELEMENTE
100
AcDbCircle
 62
7
  6
CONTINUOUS
 10
49.8108954321
 20
273.3932605279
 40
186.7449979984
100
AcDbArc
 50
354.6228840716
 51
5.3771159284
  0
ARC
  5
453
100
AcDbEntity
  8
KONSTRUKTIONSELEMENTE
100
AcDbCircle
 62
7
  6
CONTINUOUS
 10
49.8108954321
 20
273.3932605279
 40
174.2550020016
100
AcDbArc
 50
354.2362097364
 51
5.7637902636
  0
ARC
  5
454
100
AcDbEntity
  8
KONSTRUKTIONSELEMENTE
100
AcDbCircle
 62
7
  6
CONTINUOUS
 10
49.8108954321
 20
273.3932605279
 40
172.5
100
AcDbArc
 50
349.6111421845
 51
10.3888578155
  0
ARC
  5
455
100
AcDbEntity
  8
KONSTRUKTIONSELEMENTE
100
AcDbCircle
 62
7
  6
CONTINUOUS
 10
199.8108954321
 20
245.8932605279
 40
36.0
100
AcDbArc
 50
190.3888578155
 51
245.3706192843
  0
ARC
  5
456
100
AcDbEntity
  8
KONSTRUKTIONSELEMENTE
100
AcDbCircle
 62
7
  6
CONTINUOUS
 10
199.8108954321
 20
245.8932605279
 40
36.0
100
AcDbArc
 50
294.6293807157
 51
349.6111421845
  0
ARC
  5
457
100
AcDbEntity
  8
KONSTRUKTIONSELEMENTE
100
AcDbCircle
 62
7
  6
CONTINUOUS
 10
199.8108954321
 20
245.8932605279
 40
20.0
100
AcDbArc
 50
190.3888578155
 51
221.5261181029
  0
ARC
  5
458
100
AcDbEntity
  8
KONSTRUKTIONSELEMENTE
100
AcDbCircle
 62
7
  6
CONTINUOUS
 10
199.8108954321
 20
245.8932605279
 40
20.0
100
AcDbArc
 50
318.4738818971
 51
349.6111421845
  0
ARC
  5
459
100
AcDbEntity
  8
RUNDUNGEN
100
AcDbCircle
 62
7
  6
CONTINUOUS
 10
199.8108954321
 20
231.8932605279
 40
15.0
100
AcDbArc
 50
0.0
 51
180.0
  0
ARC
  5
45A
100
AcDbEntity
  8
RUNDUNGEN
100
AcDbCircle
 62
7
  6
CONTINUOUS
 10
219.8108954321
 20
202.8932605279
 40
5.0
100
AcDbArc
 50
179.9990850232
 51
269.9999947825
  0
ARC
  5
45B
100
AcDbEntity
  8
RUNDUNGEN
100
AcDbCircle
 62
7
  6
CONTINUOUS
 10
230.8108954321
 20
194.8932605279
 40
3.0
100
AcDbArc
 50
0.0
 51
90.0
  0
ARC
  5
45C
100
AcDbEntity
  8
KONSTRUKTIONSELEMENTE
100
AcDbCircle
 62
7
  6
CONTINUOUS
 10
349.8108954321
 20
273.3932605279
 40
188.5
100
AcDbArc
 50
169.6111421845
 51
190.3888578155
  0
ARC
  5
45D
100
AcDbEntity
  8
KONSTRUKTIONSELEMENTE
100
AcDbCircle
 62
7
  6
CONTINUOUS
 10
349.8108954321
 20
273.3932605279
 40
186.7449979984
100
AcDbArc
 50
174.6228840716
 51
185.3771159284
  0
ARC
  5
45E
100
AcDbEntity
  8
KONSTRUKTIONSELEMENTE
100
AcDbCircle
 62
7
  6
CONTINUOUS
 10
349.8108954321
 20
273.3932605279
 40
174.2550020016
100
AcDbArc
 50
174.2362097364
 51
185.7637902636
  0
ARC
  5
45F
100
AcDbEntity
  8
KONSTRUKTIONSELEMENTE
100
AcDbCircle
 62
7
  6
CONTINUOUS
 10
349.8108954321
 20
273.3932605279
 40
172.5
100
AcDbArc
 50
169.6111421845
 51
190.3888578155
  0
ARC
  5
460
100
AcDbEntity
  8
KONSTRUKTIONSELEMENTE
100
AcDbCircle
 62
7
  6
CONTINUOUS
 10
199.8108954321
 20
300.8932605279
 40
36.0
100
AcDbArc
 50
10.3888578155
 51
169.6111421845
  0
ARC
  5
461
100
AcDbEntity
  8
KONSTRUKTIONSELEMENTE
100
AcDbCircle
 62
7
  6
CONTINUOUS
 10
199.8108954321
 20
300.8932605279
 40
20.0
100
AcDbArc
 50
10.3888578155
 51
169.6111421845
  0
ARC
  5
462
100
AcDbEntity
  8
RUNDUNGEN
100
AcDbCircle
 62
7
  6
CONTINUOUS
 10
342.8019412342
 20
242.8932605279
 40
4.0
100
AcDbArc
 50
56.372243968
 51
90.0
  0
ARC
  5
463
100
AcDbEntity
  8
RUNDUNGEN
100
AcDbCircle
 62
7
  6
CONTINUOUS
 10
332.3699182389
 20
238.8296844362
 40
4.0
100
AcDbArc
 50
140.0
 51
179.9993231358
  0
ARC
  5
464
100
AcDbEntity
  8
RUNDUNGEN
100
AcDbCircle
 62
7
  6
CONTINUOUS
 10
324.8699182389
 20
222.7233875468
 40
3.5
100
AcDbArc
 50
330.0
 51
360.0
  0
ARC
  5
465
100
AcDbEntity
  8
RUNDUNGEN
100
AcDbCircle
 62
7
  6
CONTINUOUS
 10
335.3133289783
 20
243.8932285863
 40
3.0
100
AcDbArc
 50
90.0007820659
 51
140.0
  0
ARC
  5
466
100
AcDbEntity
  8
RUNDUNGEN
100
AcDbCircle
 62
7
  6
CONTINUOUS
 10
325.3699220357
 20
210.5894195269
 40
3.0
100
AcDbArc
 50
150.0001450288
 51
180.0001255984
  0
ARC
  5
467
100
AcDbEntity
  8
0
100
AcDbCircle
 62
7
  6
CONTINUOUS
 10
334.6037800102
 20
325.7209269939
 40
29.3181030102
100
AcDbArc
 50
357.3586986753
 51
0.7943748574
  0
ARC
  5
468
100
AcDbEntity
  8
0
100
AcDbCircle
 62
7
  6
CONTINUOUS
 10
351.0947030087
 20
329.1404655653
 40
12.8271720769
100
AcDbArc
 50
356.006859685
 51
1.1992782559
  0
ARC
  5
469
100
AcDbEntity
  8
0
100
AcDbCircle
 62
7
  6
CONTINUOUS
 10
352.4523187352
 20
327.8647155712
 40
11.5976102542
100
AcDbArc
 50
351.3846634911
 51
352.6951124937
  0
ARC
  5
46A
100
AcDbEntity
  8
RUNDUNGEN
100
AcDbCircle
 62
7
  6
CONTINUOUS
 10
356.3699182389
 20
212.8932605279
 40
13.0
100
AcDbArc
 50
131.0000009041
 51
49.0000088168
  0
ARC
  5
46B
100
AcDbEntity
  8
KONSTRUKTIONSELEMENTE
100
AcDbCircle
 62
7
  6
CONTINUOUS
 10
356.3699182389
 20
217.8932605279
 40
8.0
100
AcDbArc
 50
180.0
 51
360.0
  0
ARC
  5
46C
100
AcDbEntity
  8
0
100
AcDbCircle
 62
7
  6
CONTINUOUS
 10
356.3699182389
 20
263.2932605279
 40
20.5
100
AcDbArc
 50
292.9860192347
 51
303.627756032
  0
ARC
  5
46D
100
AcDbEntity
  8
0
100
AcDbCircle
 62
7
  6
CONTINUOUS
 10
356.3699182389
 20
263.2932605279
 40
20.5
100
AcDbArc
 50
236.372243968
 51
247.0139807653
  0
ARC
  5
46E
100
AcDbEntity
  8
RUNDUNGEN
100
AcDbCircle
 62
7
  6
CONTINUOUS
 10
369.9378952436
 20
242.8932605279
 40
4.0
100
AcDbArc
 50
90.0
 51
123.627756032
  0
ARC
  5
46F
100
AcDbEntity
  8
RUNDUNGEN
100
AcDbCircle
 62
7
  6
CONTINUOUS
 10
387.8699182389
 20
222.7233875468
 40
3.5
100
AcDbArc
 50
180.0
 51
210.0
  0
ARC
  5
470
100
AcDbEntity
  8
0
100
AcDbCircle
 62
7
  6
CONTINUOUS
 10
377.1526243521
 20
222.5362119882
 40
3.0
100
AcDbArc
 50
174.2608295227
 51
358.3142771166
  0
ARC
  5
471
100
AcDbEntity
  8
0
100
AcDbCircle
 62
7
  6
CONTINUOUS
 10
377.1526243521
 20
217.4362119882
 40
3.0
100
AcDbArc
 50
174.2608295227
 51
358.3142771166
  0
ARC
  5
472
100
AcDbEntity
  8
RUNDUNGEN
100
AcDbCircle
 62
7
  6
CONTINUOUS
 10
387.3699144825
 20
210.5894194568
 40
3.0
100
AcDbArc
 50
359.999875741
 51
29.9998565178
  0
ARC
  5
473
100
AcDbEntity
  8
0
100
AcDbCircle
 62
7
  6
CONTINUOUS
 10
377.1526243521
 20
222.5362119882
 40
2.1
100
AcDbArc
 50
282.3736251162
 51
8.2132107017
  0
ARC
  5
474
100
AcDbEntity
  8
0
100
AcDbCircle
 62
7
  6
CONTINUOUS
 10
377.1526243521
 20
222.5362119882
 40
2.1
100
AcDbArc
 50
171.7867892983
 51
257.4447123387
  0
ARC
  5
475
100
AcDbEntity
  8
0
100
AcDbCircle
 62
7
  6
CONTINUOUS
 10
377.1526243521
 20
217.4362119882
 40
2.1
100
AcDbArc
 50
171.7867892983
 51
8.2132107017
  0
ARC
  5
476
100
AcDbEntity
  8
RUNDUNGEN
100
AcDbCircle
 62
7
  6
CONTINUOUS
 10
380.3699182389
 20
238.8296844362
 40
4.0
100
AcDbArc
 50
0.0006916283
 51
40.0
  0
ARC
  5
477
100
AcDbEntity
  8
RUNDUNGEN
100
AcDbCircle
 62
7
  6
CONTINUOUS
 10
377.4265076216
 20
243.8932284407
 40
3.0
100
AcDbArc
 50
40.0
 51
89.999214261
  0
ARC
  5
478
100
AcDbEntity
  8
KONSTRUKTIONSELEMENTE
100
AcDbCircle
 62
7
  6
CONTINUOUS
 10
356.3699182389
 20
328.8932605279
 40
8.0
100
AcDbArc
 50
4.5894872244
 51
180.0
  0
ARC
  5
479
100
AcDbEntity
  8
0
100
AcDbCircle
 62
7
  6
CONTINUOUS
 10
357.4258367381
 20
325.7095037742
 40
6.9451363867
100
AcDbArc
 50
5.628042016
 51
21.431870439
  0
ARC
  5
47A
100
AcDbEntity
  8
0
100
AcDbCircle
 62
7
  6
CONTINUOUS
 10
361.1934575245
 20
330.2818309041
 40
2.8619718646
100
AcDbArc
 50
342.2419739398
 51
344.83750327
  0
ARC
  5
47B
100
AcDbEntity
  8
0
100
AcDbCircle
 62
7
  6
CONTINUOUS
 10
168.4108954321
 20
58.7124470375
 40
20.5
100
AcDbArc
 50
326.372243968
 51
333.4852368273
  0
ARC
  5
47C
100
AcDbEntity
  8
0
100
AcDbCircle
 62
7
  6
CONTINUOUS
 10
168.4108954321
 20
58.7124470375
 40
20.5
100
AcDbArc
 50
26.5147631727
 51
33.627756032
  0
ARC
  5
47D
100
AcDbEntity
  8
RUNDUNGEN
100
AcDbCircle
 62
7
  6
CONTINUOUS
 10
168.4108954321
 20
58.7124470375
 40
20.5
100
AcDbArc
 50
326.372243968
 51
333.4852368273
  0
ARC
  5
47E
100
AcDbEntity
  8
RUNDUNGEN
100
AcDbCircle
 62
7
  6
CONTINUOUS
 10
168.4108954321
 20
58.7124470375
 40
20.5
100
AcDbArc
 50
26.5147631727
 51
33.627756032
  0
ARC
  5
47F
100
AcDbEntity
  8
KONSTRUKTIONSELEMENTE
100
AcDbCircle
 62
7
  6
CONTINUOUS
 10
171.6054671398
 20
58.4619737029
 40
8.250452225
100
AcDbArc
 50
89.8204304401
 51
89.9798616471
  0
ARC
  5
480
100
AcDbEntity
  8
KONSTRUKTIONSELEMENTE
100
AcDbCircle
 62
7
  6
CONTINUOUS
 10
171.6053782633
 20
58.9564699289
 40
8.2440032258
100
AcDbArc
 50
270.0205304948
 51
270.1604612985
  0
ARC
  5
481
100
AcDbEntity
  8
KONSTRUKTIONSELEMENTE
100
AcDbCircle
 62
7
  6
CONTINUOUS
 10
169.3108954321
 20
58.7124470375
 40
8.0
100
AcDbArc
 50
141.3178125465
 51
218.6821874535
  0
ARC
  5
482
100
AcDbEntity
  8
0
100
AcDbCircle
 62
7
  6
CONTINUOUS
 10
186.723607005
 20
70.5372160771
 40
19.7647524332
100
AcDbArc
 50
259.1380554528
 51
260.9909983459
  0
ARC
  5
483
100
AcDbEntity
  8
0
100
AcDbCircle
 62
7
  6
CONTINUOUS
 10
186.1988901908
 20
62.2386346908
 40
11.5129155443
100
AcDbArc
 50
257.1001078763
 51
260.1617793635
  0
ARC
  5
484
100
AcDbEntity
  8
RUNDUNGEN
100
AcDbCircle
 62
7
  6
CONTINUOUS
 10
182.3108954321
 20
58.7124470375
 40
9.75
100
AcDbArc
 50
55.1450110874
 51
56.9496976744
  0
ARC
  5
485
100
AcDbEntity
  8
0
100
AcDbCircle
 62
7
  6
CONTINUOUS
 10
185.7217350373
 20
56.8836972888
 40
6.1712508505
100
AcDbArc
 50
256.028137259
 51
259.1246235518
  0
ARC
  5
486
100
AcDbEntity
  8
0
100
AcDbCircle
 62
7
  6
CONTINUOUS
 10
185.3590678258
 20
53.620129266
 40
2.9094753923
100
AcDbArc
 50
254.0056609476
 51
260.0539142406
  0
ARC
  5
487
100
AcDbEntity
  8
0
100
AcDbCircle
 62
7
  6
CONTINUOUS
 10
185.1335418606
 20
51.600602897
 40
0.8904053423
100
AcDbArc
 50
251.8746256225
 51
253.9414854585
  0
ARC
  5
488
100
AcDbEntity
  8
0
100
AcDbCircle
 62
7
  6
CONTINUOUS
 10
185.1219688357
 20
51.5588872483
 40
0.8471162364
100
AcDbArc
 50
253.9132205459
 51
260.3249564519
  0
ARC
  5
489
100
AcDbEntity
  8
RUNDUNGEN
100
AcDbCircle
 62
7
  6
CONTINUOUS
 10
188.8108954321
 20
45.1444700328
 40
4.0
100
AcDbArc
 50
146.372243968
 51
180.0
  0
ARC
  5
48A
100
AcDbEntity
  8
RUNDUNGEN
100
AcDbCircle
 62
7
  6
CONTINUOUS
 10
187.8108954321
 20
33.7124470375
 40
3.0
100
AcDbArc
 50
180.0
 51
270.0
  0
ARC
  5
48B
100
AcDbEntity
  8
RUNDUNGEN
100
AcDbCircle
 62
7
  6
CONTINUOUS
 10
187.8108954321
 20
30.1292351816
 40
3.0
100
AcDbArc
 50
180.0002567035
 51
247.2255747682
  0
ARC
  5
48C
100
AcDbEntity
  8
RUNDUNGEN
100
AcDbCircle
 62
7
  6
CONTINUOUS
 10
188.9917407558
 20
48.4445940116
 40
2.5
100
AcDbArc
 50
134.9465739052
 51
153.4852483237
  0
ARC
  5
48D
100
AcDbEntity
  8
0
100
AcDbCircle
 62
7
  6
CONTINUOUS
 10
192.8166439498
 20
69.3400441365
 40
18.5680271497
100
AcDbArc
 50
258.7853152917
 51
260.6960646648
  0
ARC
  5
48E
100
AcDbEntity
  8
0
100
AcDbCircle
 62
7
  6
CONTINUOUS
 10
192.1495072366
 20
60.2021201983
 40
9.4779093449
100
AcDbArc
 50
255.738976311
 51
259.1056929668
  0
ARC
  5
48F
100
AcDbEntity
  8
0
100
AcDbCircle
 62
7
  6
CONTINUOUS
 10
191.590294961
 20
54.9011883908
 40
4.1913464199
100
AcDbArc
 50
252.9047544077
 51
256.6392766674
  0
ARC
  5
490
100
AcDbEntity
  8
RUNDUNGEN
100
AcDbCircle
 62
7
  6
CONTINUOUS
 10
188.8108954321
 20
72.2804240422
 40
4.0
100
AcDbArc
 50
180.0
 51
213.6277560321
  0
ARC
  5
491
100
AcDbEntity
  8
RUNDUNGEN
100
AcDbCircle
 62
7
  6
CONTINUOUS
 10
188.9917407558
 20
68.9803000633
 40
2.5
100
AcDbArc
 50
206.5147531771
 51
236.9497024184
  0
ARC
  5
492
100
AcDbEntity
  8
0
100
AcDbCircle
 62
7
  6
CONTINUOUS
 10
191.2060508281
 20
52.1721725427
 40
1.4700019857
100
AcDbArc
 50
246.5792639051
 51
248.6562177943
  0
ARC
  5
493
100
AcDbEntity
  8
0
100
AcDbCircle
 62
7
  6
CONTINUOUS
 10
191.1725478541
 20
52.0837035737
 40
1.3754073185
100
AcDbArc
 50
248.6147971133
 51
255.1262087771
  0
ARC
  5
494
100
AcDbEntity
  8
0
100
AcDbCircle
 62
7
  6
CONTINUOUS
 10
187.9398535302
 20
123.7265447461
 40
72.5660661728
100
AcDbArc
 50
268.3211114013
 51
270.5052520358
  0
ARC
  5
495
100
AcDbEntity
  8
0
100
AcDbCircle
 62
7
  6
CONTINUOUS
 10
192.6569378508
 20
115.2630748415
 40
64.2293122252
100
AcDbArc
 50
266.3605010057
 51
266.9195948918
  0
ARC
  5
496
100
AcDbEntity
  8
0
100
AcDbCircle
 62
7
  6
CONTINUOUS
 10
181.8553333403
 20
107.2356329775
 40
56.0751536698
100
AcDbArc
 50
268.0901342101
 51
270.5746899693
  0
ARC
  5
497
100
AcDbEntity
  8
0
100
AcDbCircle
 62
7
  6
CONTINUOUS
 10
186.2077359856
 20
106.5220762558
 40
55.4883586264
100
AcDbArc
 50
266.0835350991
 51
266.6849730963
  0
ARC
  5
498
100
AcDbEntity
  8
RUNDUNGEN
100
AcDbCircle
 62
7
  6
CONTINUOUS
 10
187.8108954321
 20
83.7124470375
 40
3.0
100
AcDbArc
 50
90.0
 51
180.0
  0
ARC
  5
499
100
AcDbEntity
  8
RUNDUNGEN
100
AcDbCircle
 62
7
  6
CONTINUOUS
 10
187.8108954321
 20
87.2956588934
 40
3.0
100
AcDbArc
 50
112.7737374794
 51
180.0000008318
  0
ARC
  5
49A
100
AcDbEntity
  8
0
100
AcDbCircle
 62
7
  6
CONTINUOUS
 10
200.2543957406
 20
58.5099511421
 40
7.7974962841
100
AcDbArc
 50
270.0070863109
 51
276.6717868841
  0
ARC
  5
49B
100
AcDbEntity
  8
0
100
AcDbCircle
 62
7
  6
CONTINUOUS
 10
200.2902461068
 20
58.1479453634
 40
7.4337796595
100
AcDbArc
 50
276.7215067548
 51
277.7799971426
  0
ARC
  5
49C
100
AcDbEntity
  8
0
100
AcDbCircle
 62
7
  6
CONTINUOUS
 10
199.8108954321
 20
58.7124470375
 40
34.25
100
AcDbArc
 50
11.0317461469
 51
23.6694716835
  0
ARC
  5
49D
100
AcDbEntity
  8
0
100
AcDbCircle
 62
7
  6
CONTINUOUS
 10
199.8108954321
 20
58.7124470375
 40
34.25
100
AcDbArc
 50
334.0264485215
 51
348.9679989828
  0
ARC
  5
49E
100
AcDbEntity
  8
RUNDUNGEN
100
AcDbCircle
 62
7
  6
CONTINUOUS
 10
199.8108954321
 20
58.7124470375
 40
34.0
100
AcDbArc
 50
11.3711945998
 51
168.6289535966
  0
ARC
  5
49F
100
AcDbEntity
  8
RUNDUNGEN
100
AcDbCircle
 62
7
  6
CONTINUOUS
 10
199.8108954321
 20
58.7124470375
 40
34.0
100
AcDbArc
 50
191.3710499024
 51
348.6288056485
  0
ARC
  5
4A0
100
AcDbEntity
  8
RUNDUNGEN
100
AcDbCircle
 62
7
  6
CONTINUOUS
 10
210.8108954321
 20
45.1444700328
 40
4.0
100
AcDbArc
 50
0.0
 51
33.6277560321
  0
ARC
  5
4A1
100
AcDbEntity
  8
RUNDUNGEN
100
AcDbCircle
 62
7
  6
CONTINUOUS
 10
211.8108954321
 20
30.1292351816
 40
3.0
100
AcDbArc
 50
292.7738285743
 51
0.0000086729
  0
ARC
  5
4A2
100
AcDbEntity
  8
RUNDUNGEN
100
AcDbCircle
 62
7
  6
CONTINUOUS
 10
211.8108954321
 20
33.7124470375
 40
3.0
100
AcDbArc
 50
270.0
 51
360.0
  0
ARC
  5
4A3
100
AcDbEntity
  8
RUNDUNGEN
100
AcDbCircle
 62
7
  6
CONTINUOUS
 10
210.6300501083
 20
48.4445940116
 40
2.5
100
AcDbArc
 50
26.5147518671
 51
45.0534259619
  0
ARC
  5
4A4
100
AcDbEntity
  8
RUNDUNGEN
100
AcDbCircle
 62
7
  6
CONTINUOUS
 10
210.8108954321
 20
72.2804240422
 40
4.0
100
AcDbArc
 50
326.372243968
 51
360.0
  0
ARC
  5
4A5
100
AcDbEntity
  8
RUNDUNGEN
100
AcDbCircle
 62
7
  6
CONTINUOUS
 10
211.8108954321
 20
83.7124470375
 40
3.0
100
AcDbArc
 50
0.0
 51
90.0
  0
ARC
  5
4A6
100
AcDbEntity
  8
RUNDUNGEN
100
AcDbCircle
 62
7
  6
CONTINUOUS
 10
211.8108954321
 20
87.2956588934
 40
3.0
100
AcDbArc
 50
0.0002727126
 51
67.2255845963
  0
ARC
  5
4A7
100
AcDbEntity
  8
RUNDUNGEN
100
AcDbCircle
 62
7
  6
CONTINUOUS
 10
210.6300501083
 20
68.9803000633
 40
2.5
100
AcDbArc
 50
303.0502999378
 51
333.4852459565
  0
ARC
  5
4A8
100
AcDbEntity
  8
0
100
AcDbCircle
 62
7
  6
CONTINUOUS
 10
208.1653573886
 20
173.1583867543
 40
122.2529973994
100
AcDbArc
 50
269.775154551
 51
270.0562817483
  0
ARC
  5
4A9
100
AcDbEntity
  8
0
100
AcDbCircle
 62
7
  6
CONTINUOUS
 10
202.3218242284
 20
136.8983232658
 40
85.7376965479
100
AcDbArc
 50
270.327449308
 51
270.8270028201
  0
ARC
  5
4AA
100
AcDbEntity
  8
0
100
AcDbCircle
 62
7
  6
CONTINUOUS
 10
220.3949500565
 20
84.0648802401
 40
33.0313893227
100
AcDbArc
 50
264.9187670449
 51
265.6977509982
  0
ARC
  5
4AB
100
AcDbEntity
  8
0
100
AcDbCircle
 62
7
  6
CONTINUOUS
 10
231.2108954321
 20
58.7124470375
 40
20.5
100
AcDbArc
 50
206.5147631727
 51
213.627756032
  0
ARC
  5
4AC
100
AcDbEntity
  8
0
100
AcDbCircle
 62
7
  6
CONTINUOUS
 10
231.2108954321
 20
58.7124470375
 40
20.5
100
AcDbArc
 50
146.372243968
 51
153.4852368273
  0
ARC
  5
4AD
100
AcDbEntity
  8
RUNDUNGEN
100
AcDbCircle
 62
7
  6
CONTINUOUS
 10
231.2108954321
 20
58.7124470375
 40
20.5
100
AcDbArc
 50
146.372243968
 51
153.4852368273
  0
ARC
  5
4AE
100
AcDbEntity
  8
RUNDUNGEN
100
AcDbCircle
 62
7
  6
CONTINUOUS
 10
231.2108954321
 20
58.7124470375
 40
20.5
100
AcDbArc
 50
206.5147631727
 51
213.627756032
  0
ARC
  5
4AF
100
AcDbEntity
  8
RUNDUNGEN
100
AcDbCircle
 62
7
  6
CONTINUOUS
 10
217.3108954321
 20
58.7124470375
 40
9.75
100
AcDbArc
 50
123.0503029378
 51
124.8515990907
  0
ARC
  5
4B0
100
AcDbEntity
  8
KONSTRUKTIONSELEMENTE
100
AcDbCircle
 62
7
  6
CONTINUOUS
 10
228.0163168291
 20
58.9638602189
 40
8.2513918695
100
AcDbArc
 50
269.8212452554
 51
269.9800028472
  0
ARC
  5
4B1
100
AcDbEntity
  8
KONSTRUKTIONSELEMENTE
100
AcDbCircle
 62
7
  6
CONTINUOUS
 10
228.0164428003
 20
58.4721656176
 40
8.2402625118
100
AcDbArc
 50
90.0208030785
 51
90.1559426916
  0
ARC
  5
4B2
100
AcDbEntity
  8
KONSTRUKTIONSELEMENTE
100
AcDbCircle
 62
7
  6
CONTINUOUS
 10
230.3108954321
 20
58.7124470375
 40
8.0
100
AcDbArc
 50
321.3178125465
 51
38.6821874535
  0
ARC
  5
4B3
100
AcDbEntity
  8
0
100
AcDbCircle
 62
7
  6
CONTINUOUS
 10
219.389216207
 20
53.5765657909
 40
2.858303262
100
AcDbArc
 50
238.9982327277
 51
243.6028587035
  0
ARC
  5
4B4
100
AcDbEntity
  8
0
100
AcDbCircle
 62
7
  6
CONTINUOUS
 10
216.8933626564
 20
109.9821511072
 40
58.8216719503
100
AcDbArc
 50
268.1352542821
 51
270.5611272725
  0
ARC
  5
4B5
100
AcDbEntity
  8
0
100
AcDbCircle
 62
7
  6
CONTINUOUS
 10
207.9160979469
 20
321.9014651576
 40
271.1560555238
100
AcDbArc
 50
270.0780441104
 51
270.2962815996
  0
ARC
  5
4B6
100
AcDbEntity
  8
0
100
AcDbCircle
 62
7
  6
CONTINUOUS
 10
207.8133050396
 20
315.3206855091
 40
264.5752197682
100
AcDbArc
 50
269.7023863411
 51
269.8409114675
  0
SPLINE
  5
4B7
100
AcDbEntity
  8
KONSTRUKTIONSELEMENTE
100
AcDbSpline
 62
7
  6
CONTINUOUS
 70
0
 71
3
 72
29
 73
25
 74
0
 42
0.0000001
 43
0.0000001
 44
0.0000000001
 40
0.0
 40
0.0
 40
0.0
 40
0.0
 40
0.1242957269
 40
0.1865493679
 40
0.2488908544
 40
0.3113533813
 40
0.3739918454
 40
0.4054320599
 40
0.436977266
 40
0.4686633976
 40
0.5005169272
 40
0.5165457988
 40
0.532589265
 40
0.5485998986
 40
0.5645467213
 40
0.5961252003
 40
0.6274951423
 40
0.6587268513
 40
0.6898746192
 40
0.7520090499
 40
0.8140582095
 40
0.8760618649
 40
0.9380390316
 40
1.0
 40
1.0
 40
1.0
 40
1.0
 10
163.8876739738
 20
255.8932605279
 30
0.0
 10
164.2203641308
 20
254.8186943042
 30
0.0
 10
164.7775756644
 20
253.2223609288
 30
0.0
 10
165.6645839288
 20
251.1510695855
 30
0.0
 10
166.4159709851
 20
249.6327946208
 30
0.0
 10
167.2718607583
 20
248.1665187455
 30
0.0
 10
168.0981357876
 20
247.0112227505
 30
0.0
 10
168.8549783666
 20
246.1612805601
 30
0.0
 10
169.484803609
 20
245.5776412979
 30
0.0
 10
170.1908669377
 20
245.0802990822
 30
0.0
 10
170.859805165
 20
244.7896920393
 30
0.0
 10
171.4326212629
 20
244.6899334159
 30
0.0
 10
171.8707174244
 20
244.6980691336
 30
0.0
 10
172.2970983523
 20
244.7963661193
 30
0.0
 10
172.823619737
 20
245.0356828027
 30
0.0
 10
173.3845403061
 20
245.4950484357
 30
0.0
 10
173.9105947789
 20
246.1701704758
 30
0.0
 10
174.3344375199
 20
246.907408803
 30
0.0
 10
174.7999251467
 20
247.9348644264
 30
0.0
 10
175.247830495
 20
249.2705868633
 30
0.0
 10
175.655680945
 20
250.9063464233
 30
0.0
 10
175.9757337747
 20
252.5598621843
 30
0.0
 10
176.2329622263
 20
254.2231423755
 30
0.0
 10
176.3729710248
 20
255.3361590416
 30
0.0
 10
176.4368612673
 20
255.8932605279
 30
0.0
  0
SPLINE
  5
4B8
100
AcDbEntity
  8
KONSTRUKTIONSELEMENTE
100
AcDbSpline
 62
7
  6
CONTINUOUS
 70
0
 71
3
 72
29
 73
25
 74
0
 42
0.0000001
 43
0.0000001
 44
0.0000000001
 40
0.0
 40
0.0
 40
0.0
 40
0.0
 40
0.0619609614
 40
0.1239381236
 40
0.1859417785
 40
0.2479909529
 40
0.3101253964
 40
0.341273176
 40
0.3725049086
 40
0.4038749865
 40
0.4354539379
 40
0.4514005652
 40
0.4674114169
 40
0.4834549544
 40
0.4994833793
 40
0.531337011
 40
0.5630230922
 40
0.5945682275
 40
0.6260083906
 40
0.6886468156
 40
0.7511093082
 40
0.8134507656
 40
0.8757043684
 40
1.0
 40
1.0
 40
1.0
 40
1.0
 10
176.4368612673
 20
290.8932605279
 30
0.0
 10
176.3729710379
 20
291.4503618998
 30
0.0
 10
176.2329622575
 20
292.5633783548
 30
0.0
 10
175.9757338799
 20
294.2266583024
 30
0.0
 10
175.6556806921
 20
295.8801738896
 30
0.0
 10
175.2478316923
 20
297.5159339471
 30
0.0
 10
174.7999247053
 20
298.8516560884
 30
0.0
 10
174.334436248
 20
299.8791117528
 30
0.0
 10
173.9105917903
 20
300.6163506352
 30
0.0
 10
173.3845344297
 20
301.2914779616
 30
0.0
 10
172.8236059013
 20
301.7508406413
 30
0.0
 10
172.2970817606
 20
301.9901587162
 30
0.0
 10
171.8707012173
 20
302.0884664374
 30
0.0
 10
171.4326056137
 20
302.0965818535
 30
0.0
 10
170.8597931885
 20
301.9968247874
 30
0.0
 10
170.19085968
 20
301.7062134499
 30
0.0
 10
169.484797489
 20
301.2088711886
 30
0.0
 10
168.8549737473
 20
300.6252325428
 30
0.0
 10
168.0981311802
 20
299.7752925321
 30
0.0
 10
167.2718571391
 20
298.6199972547
 30
0.0
 10
166.4159680706
 20
297.1537222449
 30
0.0
 10
165.6645828178
 20
295.6354475797
 30
0.0
 10
164.7775750339
 20
293.5641578938
 30
0.0
 10
164.2203638448
 20
291.9678258277
 30
0.0
 10
163.8876739738
 20
290.8932605279
 30
0.0
  0
SPLINE
  5
4B9
100
AcDbEntity
  8
KONSTRUKTIONSELEMENTE
100
AcDbSpline
 62
7
  6
CONTINUOUS
 70
0
 71
3
 72
29
 73
25
 74
0
 42
0.0000001
 43
0.0000001
 44
0.0000000001
 40
0.0
 40
0.0
 40
0.0
 40
0.0
 40
0.1242957445
 40
0.1865493943
 40
0.2488908904
 40
0.3113534332
 40
0.3739919232
 40
0.4054321679
 40
0.4369774174
 40
0.4686635945
 40
0.5005171128
 40
0.5165462186
 40
0.5325895929
 40
0.5486001323
 40
0.5645470549
 40
0.5961253133
 40
0.6274951879
 40
0.6587268803
 40
0.6898746404
 40
0.7520090613
 40
0.8140582123
 40
0.8760618654
 40
0.9380390314
 40
1.0
 40
1.0
 40
1.0
 40
1.0
 10
235.7341168903
 20
290.8932605279
 30
0.0
 10
235.401426673
 20
291.9678269462
 30
0.0
 10
234.8442150496
 20
293.5641606107
 30
0.0
 10
233.9572066781
 20
295.6354523699
 30
0.0
 10
233.2058191505
 20
297.1537275205
 30
0.0
 10
232.3499290679
 20
298.6200038457
 30
0.0
 10
231.5236535169
 20
299.7753002911
 30
0.0
 10
230.7668107226
 20
300.6252435851
 30
0.0
 10
230.1369846121
 20
301.2088834906
 30
0.0
 10
229.4309203089
 20
301.7062260023
 30
0.0
 10
228.761979117
 20
301.9968317156
 30
0.0
 10
228.1891611248
 20
302.0965896766
 30
0.0
 10
227.7510649182
 20
302.0884458599
 30
0.0
 10
227.3246843389
 20
301.9901528833
 30
0.0
 10
226.7981642127
 20
301.7508367759
 30
0.0
 10
226.2372474532
 20
301.291469516
 30
0.0
 10
225.7111944209
 20
300.6163500205
 30
0.0
 10
225.2873526029
 20
299.8791120031
 30
0.0
 10
224.8218654302
 20
298.8516564953
 30
0.0
 10
224.3739607716
 20
297.515934022
 30
0.0
 10
223.9661097798
 20
295.8801747381
 30
0.0
 10
223.6460571091
 20
294.2266589719
 30
0.0
 10
223.3888286422
 20
292.5633787462
 30
0.0
 10
223.2488198421
 20
291.4503620384
 30
0.0
 10
223.1849295969
 20
290.8932605279
 30
0.0
  0
SPLINE
  5
4BA
100
AcDbEntity
  8
KONSTRUKTIONSELEMENTE
100
AcDbSpline
 62
7
  6
CONTINUOUS
 70
0
 71
3
 72
29
 73
25
 74
0
 42
0.0000001
 43
0.0000001
 44
0.0000000001
 40
0.0
 40
0.0
 40
0.0
 40
0.0
 40
0.0619609622
 40
0.1239381254
 40
0.185941782
 40
0.2479909602
 40
0.310125408
 40
0.3412731917
 40
0.3725049311
 40
0.4038750432
 40
0.4354540775
 40
0.4514006495
 40
0.4674115315
 40
0.4834551163
 40
0.4994834482
 40
0.5313370719
 40
0.5630231374
 40
0.5945682587
 40
0.6260084122
 40
0.6886468301
 40
0.7511093181
 40
0.813450773
 40
0.8757043734
 40
1.0
 40
1.0
 40
1.0
 40
1.0
 10
223.1849295969
 20
255.8932605279
 30
0.0
 10
223.2488198261
 20
255.336159157
 30
0.0
 10
223.3888286082
 20
254.2231427018
 30
0.0
 10
223.646056984
 20
252.5598627434
 30
0.0
 10
223.9661102377
 20
250.9063471373
 30
0.0
 10
224.3739590503
 20
249.2705869556
 30
0.0
 10
224.8218663118
 20
247.9348648167
 30
0.0
 10
225.2873549445
 20
246.9074090678
 30
0.0
 10
225.7111998399
 20
246.17017006
 30
0.0
 10
226.2372577267
 20
245.4950414804
 30
0.0
 10
226.7981881169
 20
245.0356803999
 30
0.0
 10
227.3247119754
 20
244.7963608424
 30
0.0
 10
227.7510928736
 20
244.6980527155
 30
0.0
 10
228.1891883782
 20
244.6899401943
 30
0.0
 10
228.7620002097
 20
244.7896968364
 30
0.0
 10
229.4309323538
 20
245.0803090391
 30
0.0
 10
230.1369941481
 20
245.5776510159
 30
0.0
 10
230.7668176238
 20
246.1612894531
 30
0.0
 10
231.5236601654
 20
247.011229078
 30
0.0
 10
232.3499340099
 20
248.1665242576
 30
0.0
 10
233.2058230289
 20
249.6327991139
 30
0.0
 10
233.9572081103
 20
251.1510737447
 30
0.0
 10
234.8442158739
 20
253.2223633044
 30
0.0
 10
235.4014270372
 20
254.8186952859
 30
0.0
 10
235.7341168903
 20
255.8932605279
 30
0.0
  0
SPLINE
  5
4BB
100
AcDbEntity
  8
0
100
AcDbSpline
 62
7
  6
CONTINUOUS
 70
0
 71
3
 72
9
 73
5
 74
0
 42
0.0000001
 43
0.0000001
 44
0.0000000001
 40
0.0
 40
0.0
 40
0.0
 40
0.0
 40
0.5037548259
 40
1.0
 40
1.0
 40
1.0
 40
1.0
 10
363.8907357788
 20
324.3698585565
 30
0.0
 10
364.0467982233
 20
324.0200737542
 30
0.0
 10
364.2877766055
 20
323.2924943218
 30
0.0
 10
364.369933601
 20
322.5299913056
 30
0.0
 10
364.3699039408
 20
322.1526803834
 30
0.0
  0
SPLINE
  5
4BC
100
AcDbEntity
  8
KONSTRUKTIONSELEMENTE
100
AcDbSpline
 62
7
  6
CONTINUOUS
 70
0
 71
3
 72
12
 73
8
 74
0
 42
0.0000001
 43
0.0000001
 44
0.0000000001
 40
0.0
 40
0.0
 40
0.0
 40
0.0
 40
0.1750266493
 40
0.3806317371
 40
0.636479198
 40
0.7990263459
 40
1.0
 40
1.0
 40
1.0
 40
1.0
 10
235.7341168903
 20
53.7124470375
 30
0.0
 10
235.3620042457
 20
53.3903994028
 30
0.0
 10
234.5026455667
 20
52.746516334
 30
0.0
 10
232.9397610115
 20
51.8655749
 30
0.0
 10
231.2971171813
 20
51.2252814646
 30
0.0
 10
229.6019990108
 20
50.8161802446
 30
0.0
 10
228.5785267493
 20
50.7122611294
 30
0.0
 10
228.0134514811
 20
50.7124665006
 30
0.0
  0
LINE
  5
4BD
100
AcDbEntity
  8
KONSTRUKTIONSELEMENTE
100
AcDbLine
 62
7
  6
CONTINUOUS
 10
171.6083670133
 20
66.7124254183
 11
171.5957995614
 21
66.7124202932
  0
SPLINE
  5
4BE
100
AcDbEntity
  8
KONSTRUKTIONSELEMENTE
100
AcDbSpline
 62
7
  6
CONTINUOUS
 70
0
 71
3
 72
12
 73
8
 74
0
 42
0.0000001
 43
0.0000001
 44
0.0000000001
 40
0.0
 40
0.0
 40
0.0
 40
0.0
 40
0.2009735767
 40
0.3635207843
 40
0.6193684503
 40
0.8249734592
 40
1.0
 40
1.0
 40
1.0
 40
1.0
 10
171.6083674183
 20
50.7124685653
 30
0.0
 10
171.0432904997
 20
50.7122691463
 30
0.0
 10
170.0198142778
 20
50.8161722994
 30
0.0
 10
168.3246893777
 20
51.2252771967
 30
0.0
 10
166.6820387676
 20
51.8655693181
 30
0.0
 10
165.1191490371
 20
52.746514176
 30
0.0
 10
164.2597876164
 20
53.3903985391
 30
0.0
 10
163.8876739738
 20
53.7124470375
 30
0.0
  0
SPLINE
  5
4BF
100
AcDbEntity
  8
KONSTRUKTIONSELEMENTE
100
AcDbSpline
 62
7
  6
CONTINUOUS
 70
0
 71
3
 72
12
 73
8
 74
0
 42
0.0000001
 43
0.0000001
 44
0.0000000001
 40
0.0
 40
0.0
 40
0.0
 40
0.0
 40
0.2009733446
 40
0.3635204368
 40
0.6193681702
 40
0.8249733115
 40
1.0
 40
1.0
 40
1.0
 40
1.0
 10
228.0134374916
 20
66.7124251481
 30
0.0
 10
228.5785128188
 20
66.7126224405
 30
0.0
 10
229.6019862229
 20
66.6087204917
 30
0.0
 10
231.2971072668
 20
66.1996146689
 30
0.0
 10
232.9397551555
 20
65.5593233079
 30
0.0
 10
234.5026429536
 20
64.6783790496
 30
0.0
 10
235.3620035522
 20
64.0344952724
 30
0.0
 10
235.7341168903
 20
63.7124470375
 30
0.0
  0
LINE
  5
4C0
100
AcDbEntity
  8
KONSTRUKTIONSELEMENTE
100
AcDbLine
 62
7
  6
CONTINUOUS
 10
171.5949793088
 20
50.7124732358
 11
171.6083322935
 21
50.7124672324
  0
SPLINE
  5
4C1
100
AcDbEntity
  8
KONSTRUKTIONSELEMENTE
100
AcDbSpline
 62
7
  6
CONTINUOUS
 70
0
 71
3
 72
12
 73
8
 74
0
 42
0.0000001
 43
0.0000001
 44
0.0000000001
 40
0.0
 40
0.0
 40
0.0
 40
0.0
 40
0.1750267767
 40
0.380631989
 40
0.6364795502
 40
0.7990266002
 40
1.0
 40
1.0
 40
1.0
 40
1.0
 10
163.8876739738
 20
63.7124470375
 30
0.0
 10
164.2597865855
 20
64.0344946436
 30
0.0
 10
165.1191451612
 20
64.6783775445
 30
0.0
 10
166.6820291954
 20
65.5593190604
 30
0.0
 10
168.3246719988
 20
66.1996116461
 30
0.0
 10
170.0197879793
 20
66.6087141735
 30
0.0
 10
171.0432584216
 20
66.7126295928
 30
0.0
 10
171.6083325145
 20
66.7124268364
 30
0.0
  0
SPLINE
  5
4C2
100
AcDbEntity
  8
0
100
AcDbSpline
 62
7
  6
CONTINUOUS
 70
0
 71
3
 72
9
 73
5
 74
0
 42
0.0000001
 43
0.0000001
 44
0.0000000001
 40
0.0
 40
0.0
 40
0.0
 40
0.0
 40
0.2262850768
 40
1.0
 40
1.0
 40
1.0
 40
1.0
 10
218.1449261256
 20
50.8950265014
 30
0.0
 10
218.1426300604
 20
50.9041034368
 30
0.0
 10
218.1328674729
 20
50.9443134723
 30
0.0
 10
218.1244652031
 20
50.9848448642
 30
0.0
 10
218.1184417643
 20
51.0162865378
 30
0.0
  0
SPLINE
  5
4C3
100
AcDbEntity
  8
0
100
AcDbSpline
 62
7
  6
CONTINUOUS
 70
0
 71
3
 72
9
 73
5
 74
0
 42
0.0000001
 43
0.0000001
 44
0.0000000001
 40
0.0
 40
0.0
 40
0.0
 40
0.0
 40
0.5150286689
 40
1.0
 40
1.0
 40
1.0
 40
1.0
 10
214.979293267
 20
51.1916295122
 30
0.0
 10
214.7464695669
 20
51.0406780918
 30
0.0
 10
214.2564703572
 20
50.7994076173
 30
0.0
 10
213.7148096443
 20
50.7124314887
 30
0.0
 10
213.4535268196
 20
50.7124613356
 30
0.0
  0
SPLINE
  5
4C4
100
AcDbEntity
  8
0
100
AcDbSpline
 62
7
  6
CONTINUOUS
 70
0
 71
3
 72
9
 73
5
 74
0
 42
0.0000001
 43
0.0000001
 44
0.0000000001
 40
0.0
 40
0.0
 40
0.0
 40
0.0
 40
0.2243322996
 40
1.0
 40
1.0
 40
1.0
 40
1.0
 10
190.8525501705
 20
50.7238197446
 30
0.0
 10
190.8496974019
 20
50.7256230257
 30
0.0
 10
190.8374147368
 20
50.7343518586
 30
0.0
 10
190.8268973819
 20
50.7453613404
 30
0.0
 10
190.8194935628
 20
50.7543812053
 30
0.0
  0
SPLINE
  5
4C5
100
AcDbEntity
  8
0
100
AcDbSpline
 62
7
  6
CONTINUOUS
 70
0
 71
3
 72
9
 73
5
 74
0
 42
0.0000001
 43
0.0000001
 44
0.0000000001
 40
0.0
 40
0.0
 40
0.0
 40
0.0
 40
0.2528048098
 40
1.0
 40
1.0
 40
1.0
 40
1.0
 10
202.8118183748
 20
51.1620268967
 30
0.0
 10
202.6883876149
 20
51.1158458466
 30
0.0
 10
202.194907515
 20
50.9473652364
 30
0.0
 10
201.6824808855
 20
50.8353273909
 30
0.0
 10
201.2965544695
 20
50.7825924523
 30
0.0
  0
SPLINE
  5
4C6
100
AcDbEntity
  8
0
100
AcDbSpline
 62
7
  6
CONTINUOUS
 70
0
 71
3
 72
9
 73
5
 74
0
 42
0.0000001
 43
0.0000001
 44
0.0000000001
 40
0.0
 40
0.0
 40
0.0
 40
0.0
 40
0.2681556626
 40
1.0
 40
1.0
 40
1.0
 40
1.0
 10
207.6856019899
 20
50.9063307066
 30
0.0
 10
207.6625735001
 20
50.8879457863
 30
0.0
 10
207.5743579753
 20
50.8225099993
 30
0.0
 10
207.4752274462
 20
50.7706968108
 30
0.0
 10
207.3987657453
 20
50.7457732206
 30
0.0
  0
LINE
  5
4C7
100
AcDbEntity
  8
0
100
AcDbLine
 62
7
  6
CONTINUOUS
 10
207.3987657453
 20
50.7457732206
 11
207.2387025969
 21
50.7460840036
  0
LINE
  5
4C8
100
AcDbEntity
  8
0
100
AcDbLine
 62
7
  6
CONTINUOUS
 10
207.2387025969
 20
50.7460840036
 11
207.0786814825
 21
50.7464856263
  0
SPLINE
  5
4C9
100
AcDbEntity
  8
0
100
AcDbSpline
 62
7
  6
CONTINUOUS
 70
0
 71
3
 72
9
 73
5
 74
0
 42
0.0000001
 43
0.0000001
 44
0.0000000001
 40
0.0
 40
0.0
 40
0.0
 40
0.0
 40
0.2547323113
 40
1.0
 40
1.0
 40
1.0
 40
1.0
 10
206.4390180363
 20
50.7490350047
 30
0.0
 10
206.4271869355
 20
50.7449978434
 30
0.0
 10
206.3803502047
 20
50.7303304735
 30
0.0
 10
206.3319422216
 20
50.7205999217
 30
0.0
 10
206.2955999642
 20
50.7164902544
 30
0.0
  0
ELLIPSE
  5
4CA
100
AcDbEntity
  8
0
100
AcDbEllipse
 62
7
  6
CONTINUOUS
 10
199.8108954321
 20
164.2124102598
 30
0.0
 11
-0.0
 21
39.3510632217
 31
0.0
 40
0.8703703838
 41
-1.4893320042
 42
-1.4819540146
  0
ELLIPSE
  5
4CB
100
AcDbEntity
  8
0
100
AcDbEllipse
 62
7
  6
CONTINUOUS
 10
199.8108954321
 20
175.7017565092
 30
0.0
 11
-0.0
 21
104.9359575539
 31
0.0
 40
0.3263895503
 41
-1.6392805039
 42
-1.6347084333
  0
ELLIPSE
  5
4CC
100
AcDbEntity
  8
0
100
AcDbEllipse
 62
7
  6
CONTINUOUS
 10
199.8108954321
 20
171.712408979
 30
0.0
 11
-0.0
 21
46.6382923126
 31
0.0
 40
0.7343750875
 41
-1.6530056842
 42
-1.6392805039
  0
ELLIPSE
  5
4CD
100
AcDbEntity
  8
0
100
AcDbEllipse
 62
7
  6
CONTINUOUS
 10
199.8108954321
 20
170.0368762366
 30
0.0
 11
34.25
 21
0.0
 31
0.0
 40
0.7659569903
 41
-0.1005342388
 42
-0.0822093574
  0
ELLIPSE
  5
4CE
100
AcDbEntity
  8
0
100
AcDbEllipse
 62
7
  6
CONTINUOUS
 10
199.8108954321
 20
168.1060267589
 30
0.0
 11
34.25
 21
0.0
 31
0.0
 40
0.2042553727
 41
-0.1234888
 42
-0.1005342388
  0
ELLIPSE
  5
4CF
100
AcDbEntity
  8
0
100
AcDbEllipse
 62
7
  6
CONTINUOUS
 10
199.8108954321
 20
170.5315581742
 30
0.0
 11
34.25
 21
0.0
 31
0.0
 40
0.2042553727
 41
0.1005342388
 42
0.1234888
  0
ELLIPSE
  5
4D0
100
AcDbEntity
  8
0
100
AcDbEllipse
 62
7
  6
CONTINUOUS
 10
199.8108954321
 20
168.6007086965
 30
0.0
 11
34.25
 21
0.0
 31
0.0
 40
0.7659569903
 41
0.0822093574
 42
0.1005342388
  0
ELLIPSE
  5
4D1
100
AcDbEntity
  8
0
100
AcDbEllipse
 62
7
  6
CONTINUOUS
 10
199.8108954321
 20
166.9251759541
 30
0.0
 11
-0.0
 21
46.6382923126
 31
0.0
 40
0.7343750875
 41
-1.5023121497
 42
-1.4885869694
  0
ELLIPSE
  5
4D2
100
AcDbEntity
  8
0
100
AcDbEllipse
 62
7
  6
CONTINUOUS
 10
199.8108954321
 20
162.9358284239
 30
0.0
 11
-0.0
 21
104.9359575539
 31
0.0
 40
0.3263895503
 41
-1.5068842203
 42
-1.5023121497
  0
ELLIPSE
  5
4D3
100
AcDbEntity
  8
0
100
AcDbEllipse
 62
7
  6
CONTINUOUS
 10
199.8108954321
 20
197.2443482217
 30
0.0
 11
-0.0
 21
104.9362577784
 31
0.0
 40
0.3263886165
 41
-1.8480576838
 42
-1.843317675
  0
ELLIPSE
  5
4D4
100
AcDbEntity
  8
0
100
AcDbEllipse
 62
7
  6
CONTINUOUS
 10
199.8108954321
 20
181.2868759227
 30
0.0
 11
-0.0
 21
46.6382923126
 31
0.0
 40
0.7343750875
 41
-1.8623166757
 42
-1.8480576838
  0
ELLIPSE
  5
4D5
100
AcDbEntity
  8
0
100
AcDbEllipse
 62
7
  6
CONTINUOUS
 10
199.8108954321
 20
175.4225167173
 30
0.0
 11
34.25
 21
0.0
 31
0.0
 40
0.7659575381
 41
-0.3106283027
 42
-0.2915203489
  0
ELLIPSE
  5
4D6
100
AcDbEntity
  8
0
100
AcDbEllipse
 62
7
  6
CONTINUOUS
 10
199.8108954321
 20
169.5421960334
 30
0.0
 11
34.25
 21
0.0
 31
0.0
 40
0.2042552558
 41
-0.334680224
 42
-0.3106283027
  0
ELLIPSE
  5
4D7
100
AcDbEntity
  8
0
100
AcDbEllipse
 62
7
  6
CONTINUOUS
 10
199.8108954321
 20
169.0953888997
 30
0.0
 11
34.25
 21
0.0
 31
0.0
 40
0.2042552558
 41
0.3106283027
 42
0.334680224
  0
ELLIPSE
  5
4D8
100
AcDbEntity
  8
0
100
AcDbEllipse
 62
7
  6
CONTINUOUS
 10
199.8108954321
 20
163.2150682158
 30
0.0
 11
34.25
 21
0.0
 31
0.0
 40
0.7659575381
 41
0.2915203489
 42
0.3106283027
  0
ELLIPSE
  5
4D9
100
AcDbEntity
  8
0
100
AcDbEllipse
 62
7
  6
CONTINUOUS
 10
199.8108954321
 20
157.3507090104
 30
0.0
 11
0.0
 21
46.6382923126
 31
0.0
 40
0.7343750875
 41
-1.2935349698
 42
-1.2792759779
  0
ELLIPSE
  5
4DA
100
AcDbEntity
  8
0
100
AcDbEllipse
 62
7
  6
CONTINUOUS
 10
199.8108954321
 20
141.3932367114
 30
0.0
 11
-0.0
 21
104.9362577784
 31
0.0
 40
0.3263886165
 41
-1.2982749786
 42
-1.2935349698
  0
ELLIPSE
  5
4DB
100
AcDbEntity
  8
0
100
AcDbEllipse
 62
7
  6
CONTINUOUS
 10
199.8108954321
 20
169.7868503798
 30
0.0
 11
-0.0
 21
139.9154106728
 31
0.0
 40
0.244790762
 41
-1.5205927502
 42
-1.5160244285
  0
ELLIPSE
  5
4DC
100
AcDbEntity
  8
0
100
AcDbEllipse
 62
7
  6
CONTINUOUS
 10
199.8108954321
 20
174.1751802961
 30
0.0
 11
-0.0
 21
52.467978777
 31
0.0
 40
0.6527791007
 41
-1.5297263966
 42
-1.5205927502
  0
ELLIPSE
  5
4DD
100
AcDbEntity
  8
0
100
AcDbEllipse
 62
7
  6
CONTINUOUS
 10
199.8108954321
 20
175.3719839662
 30
0.0
 11
34.25
 21
-0.0
 31
0.0
 40
0.6808512211
 41
0.0273756733
 42
0.0410699302
  0
ELLIPSE
  5
4DE
100
AcDbEntity
  8
0
100
AcDbEllipse
 62
7
  6
CONTINUOUS
 10
199.8108954321
 20
175.7709199573
 30
0.0
 11
34.25
 21
0.0
 31
0.0
 40
0.255319362
 41
0.0091242229
 42
0.0273756733
  0
ELLIPSE
  5
4DF
100
AcDbEntity
  8
0
100
AcDbEllipse
 62
7
  6
CONTINUOUS
 10
199.8108954321
 20
181.1166651789
 30
0.0
 11
34.25
 21
-0.0
 31
0.0
 40
0.2042552558
 41
0.1603579035
 42
0.1835099969
  0
ELLIPSE
  5
4E0
100
AcDbEntity
  8
0
100
AcDbEllipse
 62
7
  6
CONTINUOUS
 10
199.8108954321
 20
178.0448559064
 30
0.0
 11
34.25
 21
0.0
 31
0.0
 40
0.7659575381
 41
0.1418990764
 42
0.1603579035
  0
ELLIPSE
  5
4E1
100
AcDbEntity
  8
0
100
AcDbEllipse
 62
7
  6
CONTINUOUS
 10
199.8108954321
 20
175.1592188371
 30
0.0
 11
0.0
 21
46.6382923126
 31
0.0
 40
0.7343750875
 41
-1.4427091477
 42
-1.4288972504
  0
ELLIPSE
  5
4E2
100
AcDbEntity
  8
0
100
AcDbEllipse
 62
7
  6
CONTINUOUS
 10
199.8108954321
 20
167.7123984308
 30
0.0
 11
-0.0
 21
104.9362577784
 31
0.0
 40
0.3263886165
 41
-1.4473075224
 42
-1.4427091477
  0
ELLIPSE
  5
4E3
100
AcDbEntity
  8
0
100
AcDbEllipse
 62
7
  6
CONTINUOUS
 10
199.8108954321
 20
192.9251865023
 30
0.0
 11
-0.0
 21
104.9362577784
 31
0.0
 40
0.3263886165
 41
-1.6988835059
 42
-1.6942851312
  0
ELLIPSE
  5
4E4
100
AcDbEntity
  8
0
100
AcDbEllipse
 62
7
  6
CONTINUOUS
 10
199.8108954321
 20
185.4783660961
 30
0.0
 11
0.0
 21
46.6382923126
 31
0.0
 40
0.7343750875
 41
-1.7126954031
 42
-1.6988835059
  0
ELLIPSE
  5
4E5
100
AcDbEntity
  8
0
100
AcDbEllipse
 62
7
  6
CONTINUOUS
 10
199.8108954321
 20
181.3560267517
 30
0.0
 11
34.25
 21
0.0
 31
0.0
 40
0.5106383587
 41
-0.1603579035
 42
-0.1418990764
  0
ELLIPSE
  5
4E6
100
AcDbEntity
  8
0
100
AcDbEllipse
 62
7
  6
CONTINUOUS
 10
199.8108954321
 20
164.2904240099
 30
0.0
 11
-0.0
 21
89.3900711536
 31
0.0
 40
0.3831521729
 41
-1.4519032872
 42
-1.4104384233
  0
ELLIPSE
  5
4E7
100
AcDbEntity
  8
0
100
AcDbEllipse
 62
7
  6
CONTINUOUS
 10
199.8108954321
 20
163.0847781526
 30
0.0
 11
-0.0
 21
173.6166694323
 31
0.0
 40
0.1958337302
 41
-1.4889644505
 42
-1.4879811038
  0
ELLIPSE
  5
4E8
100
AcDbEntity
  8
0
100
AcDbEllipse
 62
7
  6
CONTINUOUS
 10
199.8108954321
 20
169.2124098255
 30
0.0
 11
34.0
 21
-0.0
 31
0.0
 40
0.3404254913
 41
0.1058963305
 42
0.1197714375
  0
ELLIPSE
  5
4E9
100
AcDbEntity
  8
0
100
AcDbEllipse
 62
7
  6
CONTINUOUS
 10
199.8108954321
 20
166.7655983093
 30
0.0
 11
-0.0
 21
34.7234332308
 31
0.0
 40
0.9791658496
 41
-1.4741385362
 42
-1.4648999963
  0
ELLIPSE
  5
4EA
100
AcDbEntity
  8
0
100
AcDbEllipse
 62
7
  6
CONTINUOUS
 10
199.8108954321
 20
160.0634938194
 30
0.0
 11
-0.0
 21
104.1700016594
 31
0.0
 40
0.3263895503
 41
-1.4787546682
 42
-1.4741385362
  0
ELLIPSE
  5
4EB
100
AcDbEntity
  8
0
100
AcDbEllipse
 62
7
  6
CONTINUOUS
 10
199.8108954321
 20
178.7336655628
 30
0.0
 11
-0.0
 21
104.1700016594
 31
0.0
 40
0.3263895503
 41
-1.6674541174
 42
-1.6628379854
  0
ELLIPSE
  5
4EC
100
AcDbEntity
  8
0
100
AcDbEllipse
 62
7
  6
CONTINUOUS
 10
199.8108954321
 20
172.0315610729
 30
0.0
 11
0.0
 21
34.7234332308
 31
0.0
 40
0.9791658496
 41
-1.6766926573
 42
-1.6674541174
  0
ELLIPSE
  5
4ED
100
AcDbEntity
  8
0
100
AcDbEllipse
 62
7
  6
CONTINUOUS
 10
199.8108954321
 20
169.5847495567
 30
0.0
 11
34.0
 21
0.0
 31
0.0
 40
0.3404254913
 41
-0.1197714375
 42
-0.1058963305
  0
ELLIPSE
  5
4EE
100
AcDbEntity
  8
0
100
AcDbEllipse
 62
7
  6
CONTINUOUS
 10
199.8108954321
 20
166.8187929374
 30
0.0
 11
34.0
 21
0.0
 31
0.0
 40
0.3404254913
 41
0.3178237085
 42
0.3323726791
  0
ELLIPSE
  5
4EF
100
AcDbEntity
  8
0
100
AcDbEllipse
 62
7
  6
CONTINUOUS
 10
199.8108954321
 20
159.5847563193
 30
0.0
 11
-0.0
 21
34.7233835586
 31
0.0
 40
0.9791672503
 41
-1.2626331824
 42
-1.2529726183
  0
ELLIPSE
  5
4F0
100
AcDbEntity
  8
0
100
AcDbEllipse
 62
7
  6
CONTINUOUS
 10
199.8108954321
 20
138.520893889
 30
0.0
 11
-0.0
 21
104.1702996924
 31
0.0
 40
0.3263886165
 41
-1.2674522785
 42
-1.2626331824
  0
ELLIPSE
  5
4F1
100
AcDbEntity
  8
0
100
AcDbEllipse
 62
7
  6
CONTINUOUS
 10
199.8108954321
 20
200.2762654932
 30
0.0
 11
-0.0
 21
104.1702996924
 31
0.0
 40
0.3263886165
 41
-1.8789594712
 42
-1.874140375
  0
ELLIPSE
  5
4F2
100
AcDbEntity
  8
0
100
AcDbEllipse
 62
7
  6
CONTINUOUS
 10
199.8108954321
 20
179.2124030629
 30
0.0
 11
-0.0
 21
34.7233835586
 31
0.0
 40
0.9791672503
 41
-1.8886200353
 42
-1.8789594712
  0
ELLIPSE
  5
4F3
100
AcDbEntity
  8
0
100
AcDbEllipse
 62
7
  6
CONTINUOUS
 10
199.8108954321
 20
171.9783664448
 30
0.0
 11
34.0
 21
-0.0
 31
0.0
 40
0.3404254913
 41
-0.3323726791
 42
-0.3178237085
  0
ELLIPSE
  5
4F4
100
AcDbEntity
  8
0
100
AcDbEllipse
 62
7
  6
CONTINUOUS
 10
199.8108954321
 20
179.520920394
 30
0.0
 11
34.0
 21
0.0
 31
0.0
 40
0.3404254913
 41
0.16620534
 42
0.1802016334
  0
ELLIPSE
  5
4F5
100
AcDbEntity
  8
0
100
AcDbEllipse
 62
7
  6
CONTINUOUS
 10
199.8108954321
 20
175.6911362544
 30
0.0
 11
-0.0
 21
34.7233835586
 31
0.0
 40
0.9791672503
 41
-1.4139034558
 42
-1.4045909868
  0
ELLIPSE
  5
4F6
100
AcDbEntity
  8
0
100
AcDbEllipse
 62
7
  6
CONTINUOUS
 10
199.8108954321
 20
164.8400556084
 30
0.0
 11
-0.0
 21
104.1702996924
 31
0.0
 40
0.3263886165
 41
-1.4185544924
 42
-1.4139034558
  0
ELLIPSE
  5
4F7
100
AcDbEntity
  8
0
100
AcDbEllipse
 62
7
  6
CONTINUOUS
 10
199.8108954321
 20
195.9571037737
 30
0.0
 11
-0.0
 21
104.1702996924
 31
0.0
 40
0.3263886165
 41
-1.7276891978
 42
-1.7230381612
  0
ELLIPSE
  5
4F8
100
AcDbEntity
  8
0
100
AcDbEllipse
 62
7
  6
CONTINUOUS
 10
199.8108954321
 20
185.1060231278
 30
0.0
 11
-0.0
 21
34.7233835586
 31
0.0
 40
0.9791672503
 41
-1.7370016668
 42
-1.7276891978
  0
ELLIPSE
  5
4F9
100
AcDbEntity
  8
0
100
AcDbEllipse
 62
7
  6
CONTINUOUS
 10
199.8108954321
 20
181.2762389881
 30
0.0
 11
34.0
 21
0.0
 31
0.0
 40
0.3404254913
 41
-0.1802016334
 42
-0.16620534
  0
ELLIPSE
  5
4FA
100
AcDbEntity
  8
0
100
AcDbEllipse
 62
7
  6
CONTINUOUS
 10
199.8108954321
 20
171.9783664448
 30
0.0
 11
34.25
 21
0.0
 31
0.0
 40
0.3404254913
 41
-0.3298542231
 42
-0.3154233704
  0
ELLIPSE
  5
4FB
100
AcDbEntity
  8
0
100
AcDbEllipse
 62
7
  6
CONTINUOUS
 10
199.8108954321
 20
179.2124030629
 30
0.0
 11
0.0
 21
34.9787025553
 31
0.0
 40
0.9791672503
 41
-1.8862196972
 42
-1.8766369454
  0
ELLIPSE
  5
4FC
100
AcDbEntity
  8
0
100
AcDbEllipse
 62
7
  6
CONTINUOUS
 10
199.8108954321
 20
200.2762654932
 30
0.0
 11
-0.0
 21
104.9362577784
 31
0.0
 40
0.3263886165
 41
-1.8766369454
 42
-1.871856488
  0
ELLIPSE
  5
4FD
100
AcDbEntity
  8
0
100
AcDbEllipse
 62
7
  6
CONTINUOUS
 10
199.8108954321
 20
138.520893889
 30
0.0
 11
-0.0
 21
104.9362577784
 31
0.0
 40
0.3263886165
 41
-1.2697361656
 42
-1.2649557082
  0
ELLIPSE
  5
4FE
100
AcDbEntity
  8
0
100
AcDbEllipse
 62
7
  6
CONTINUOUS
 10
199.8108954321
 20
159.5847563193
 30
0.0
 11
-0.0
 21
34.9787025553
 31
0.0
 40
0.9791672503
 41
-1.2649557082
 42
-1.2553729564
  0
ELLIPSE
  5
4FF
100
AcDbEntity
  8
0
100
AcDbEllipse
 62
7
  6
CONTINUOUS
 10
199.8108954321
 20
166.8187929374
 30
0.0
 11
34.25
 21
-0.0
 31
0.0
 40
0.3404254913
 41
0.3154233704
 42
0.3298542231
  0
ELLIPSE
  5
500
100
AcDbEntity
  8
0
100
AcDbEllipse
 62
7
  6
CONTINUOUS
 10
199.8108954321
 20
174.8294306575
 30
0.0
 11
34.25
 21
0.0
 31
0.0
 40
0.2042553906
 41
0.0091242229
 42
0.0319397368
  0
ELLIPSE
  5
501
100
AcDbEntity
  8
0
100
AcDbEllipse
 62
7
  6
CONTINUOUS
 10
199.8108954321
 20
174.4943246122
 30
0.0
 11
34.25
 21
-0.0
 31
0.0
 40
0.5106380606
 41
0.0319397368
 42
0.0502035766
  0
ELLIPSE
  5
502
100
AcDbEntity
  8
0
100
AcDbEllipse
 62
7
  6
CONTINUOUS
 10
199.8108954321
 20
173.6166628592
 30
0.0
 11
-0.0
 21
34.978755655
 31
0.0
 40
0.9791657639
 41
-1.5205927502
 42
-1.5023121584
  0
ELLIPSE
  5
503
100
AcDbEntity
  8
0
100
AcDbEllipse
 62
7
  6
CONTINUOUS
 10
199.8108954321
 20
171.2230503645
 30
0.0
 11
0.0
 21
69.9574173594
 31
0.0
 40
0.4895835394
 41
-1.5023121584
 42
-1.4931636302
  0
ELLIPSE
  5
504
100
AcDbEntity
  8
0
100
AcDbEllipse
 62
7
  6
CONTINUOUS
 10
199.8108954321
 20
163.0847781526
 30
0.0
 11
-0.0
 21
174.8932625899
 31
0.0
 40
0.1958337302
 41
-1.4931636302
 42
-1.4885869651
  0
ELLIPSE
  5
505
100
AcDbEntity
  8
0
100
AcDbEllipse
 62
7
  6
CONTINUOUS
 10
199.8108954321
 20
181.2762389881
 30
0.0
 11
34.25
 21
-0.0
 31
0.0
 40
0.3404254913
 41
-0.1788720288
 42
-0.1649809919
  0
ELLIPSE
  5
506
100
AcDbEntity
  8
0
100
AcDbEllipse
 62
7
  6
CONTINUOUS
 10
199.8108954321
 20
185.1060231278
 30
0.0
 11
0.0
 21
34.9787025553
 31
0.0
 40
0.9791672503
 41
-1.7357773187
 42
-1.7265346096
  0
ELLIPSE
  5
507
100
AcDbEntity
  8
0
100
AcDbEllipse
 62
7
  6
CONTINUOUS
 10
199.8108954321
 20
195.9571037737
 30
0.0
 11
-0.0
 21
104.9362577784
 31
0.0
 40
0.3263886165
 41
-1.7265346096
 42
-1.7219183372
  0
ELLIPSE
  5
508
100
AcDbEntity
  8
0
100
AcDbEllipse
 62
7
  6
CONTINUOUS
 10
199.8108954321
 20
164.8400556084
 30
0.0
 11
-0.0
 21
104.9362577784
 31
0.0
 40
0.3263886165
 41
-1.4196743164
 42
-1.415058044
  0
ELLIPSE
  5
509
100
AcDbEntity
  8
0
100
AcDbEllipse
 62
7
  6
CONTINUOUS
 10
199.8108954321
 20
175.6911362544
 30
0.0
 11
-0.0
 21
34.9787025553
 31
0.0
 40
0.9791672503
 41
-1.415058044
 42
-1.4058153349
  0
ELLIPSE
  5
50A
100
AcDbEntity
  8
0
100
AcDbEllipse
 62
7
  6
CONTINUOUS
 10
199.8108954321
 20
161.0701208104
 30
0.0
 11
-0.0
 21
91.1489428967
 31
0.0
 40
0.3730158455
 41
-1.4185544924
 42
-1.3812441418
  0
ELLIPSE
  5
50B
100
AcDbEntity
  8
0
100
AcDbEllipse
 62
7
  6
CONTINUOUS
 10
199.8108954321
 20
179.520920394
 30
0.0
 11
34.25
 21
0.0
 31
0.0
 40
0.3404254913
 41
0.1649809919
 42
0.1788720288
  0
ELLIPSE
  5
50C
100
AcDbEntity
  8
0
100
AcDbEllipse
 62
7
  6
CONTINUOUS
 10
199.8108954321
 20
169.5847495567
 30
0.0
 11
34.25
 21
-0.0
 31
0.0
 40
0.3404254913
 41
-0.1188930352
 42
-0.1051204941
  0
ELLIPSE
  5
50D
100
AcDbEntity
  8
0
100
AcDbEllipse
 62
7
  6
CONTINUOUS
 10
199.8108954321
 20
172.0315610729
 30
0.0
 11
0.0
 21
34.9787525928
 31
0.0
 40
0.9791658496
 41
-1.6759168209
 42
-1.6667464048
  0
ELLIPSE
  5
50E
100
AcDbEntity
  8
0
100
AcDbEllipse
 62
7
  6
CONTINUOUS
 10
199.8108954321
 20
178.7336655628
 30
0.0
 11
-0.0
 21
104.9359575539
 31
0.0
 40
0.3263895503
 41
-1.6667464048
 42
-1.6621642657
  0
ELLIPSE
  5
50F
100
AcDbEntity
  8
0
100
AcDbEllipse
 62
7
  6
CONTINUOUS
 10
199.8108954321
 20
160.0634938194
 30
0.0
 11
-0.0
 21
104.9359575539
 31
0.0
 40
0.3263895503
 41
-1.4794283878
 42
-1.4748462488
  0
ELLIPSE
  5
510
100
AcDbEntity
  8
0
100
AcDbEllipse
 62
7
  6
CONTINUOUS
 10
199.8108954321
 20
166.7655983093
 30
0.0
 11
-0.0
 21
34.9787525928
 31
0.0
 40
0.9791658496
 41
-1.4748462488
 42
-1.4656758327
  0
ELLIPSE
  5
511
100
AcDbEntity
  8
0
100
AcDbEllipse
 62
7
  6
CONTINUOUS
 10
199.8108954321
 20
169.2124098255
 30
0.0
 11
34.25
 21
-0.0
 31
0.0
 40
0.3404254913
 41
0.1051204941
 42
0.1188930352
  0
ELLIPSE
  5
512
100
AcDbEntity
  8
0
100
AcDbEllipse
 62
7
  6
CONTINUOUS
 10
199.8108954321
 20
161.0701208104
 30
0.0
 11
-0.0
 21
91.8191557121
 31
0.0
 40
0.3730158455
 41
-1.4196743164
 42
-1.3826443593
  0
ENDSEC
  0
SECTION
  2
OBJECTS
  0
DICTIONARY
  5
C
100
AcDbDictionary
280
0
281
1
  3
ACAD_GROUP
350
D
  3
ACAD_MLINESTYLE
350
17
  3
ACAD_LAYOUT
350
1A
  3
ACAD_PLOTSETTINGS
350
19
  3
ACAD_PLOTSTYLENAME
350
E
  0
DICTIONARY
  5
D
102
{ACAD_REACTORS
330
C
102
}
100
AcDbDictionary
280
0
281
1
  0
ACDBDICTIONARYWDFLT
  5
E
102
{ACAD_REACTORS
330
C
102
}
100
AcDbDictionary
281
1
  3
Normal
350
F
100
AcDbDictionaryWithDefault
340
F
  0
DICTIONARY
  5
17
102
{ACAD_REACTORS
330
C
102
}
100
AcDbDictionary
280
0
281
1
  3
Standard
350
18
  0
DICTIONARY
  5
19
102
{ACAD_REACTORS
330
C
102
}
100
AcDbDictionary
281
1
  0
DICTIONARY
  5
1A
102
{ACAD_REACTORS
330
C
102
}
100
AcDbDictionary
281
1
  3
Model
350
513
  3
Layout1
350
514
  0
ACDBPLACEHOLDER
  5
F
102
{ACAD_REACTORS
330
E
102
}
  0
MLINESTYLE
  5
18
102
{ACAD_REACTORS
330
17
102
}
100
AcDbMlineStyle
  2
STANDARD
 70
0
  3

 62
256
 51
90.0
 52
90.0
 71
2
 49
0.5
 62
256
  6
BYLAYER
 49
-0.5
 62
256
  6
BYLAYER
  0
LAYOUT
  5
513
102
{ACAD_REACTORS
330
1A
102
}
100
AcDbPlotSettings
  1

  2
none_device
  4
ISO_A2_(594.00_x_420.00_MM)
  6

 40
0.0
 41
0.0
 42
0.0
 43
0.0
 44
594.0
 45
420.0
 46
0.0
 47
0.0
 48
0.0
 49
0.0
140
0.0
141
0.0
142
1.0
143
1.0
 70
1024
 72
1
 73
0
 74
0
  7

 75
0
147
1.0
148
0.0
149
0.0
100
AcDbLayout
  1
Model
 70
0
 71
0
 10
0.0
 20
0.0
 11
594.0
 21
420.0
 12
0.0
 22
0.0
 32
0.0
 14
0.0
 24
0.0
 34
0.0
 15
0.0
 25
0.0
 35
0.0
146
0.0
 13
0.0
 23
0.0
 33
0.0
 16
1.0
 26
0.0
 36
0.0
 17
0.0
 27
1.0
 37
0.0
 76
0
330
20C
345
0
346
0
  0
LAYOUT
  5
514
102
{ACAD_REACTORS
330
1A
102
}
100
AcDbPlotSettings
  1

  2
none_device
  4
ISO_A2_(594.00_x_420.00_MM)
  6

 40
0.0
 41
0.0
 42
0.0
 43
0.0
 44
594.0
 45
420.0
 46
0.0
 47
0.0
 48
0.0
 49
0.0
140
0.0
141
0.0
142
1.0
143
1.0
 70
0
 72
1
 73
0
 74
0
  7

 75
0
147
1.0
148
0.0
149
0.0
100
AcDbLayout
  1
Layout1
 70
0
 71
1
 10
0.0
 20
0.0
 11
594.0
 21
420.0
 12
0.0
 22
0.0
 32
0.0
 14
0.0
 24
0.0
 34
0.0
 15
0.0
 25
0.0
 35
0.0
146
0.0
 13
0.0
 23
0.0
 33
0.0
 16
1.0
 26
0.0
 36
0.0
 17
0.0
 27
1.0
 37
0.0
 76
0
330
20D
345
0
346
0
  0
ENDSEC
  0
EOF
