999
DXF file: 001-m31347-p-50.dxf
999
Pro/ENGINEER 2011490 by Parametric Technology Corporation
  0
SECTION
  2
HEADER
  9
$ACADVER
  1
AC1015
  9
$DWGCODEPAGE
  3
ANSI_1252
  9
$EXTMAX
 10
420.0
 20
297.0
 30
0.0
  9
$EXTMIN
 10
0.0
 20
0.0
 30
0.0
  9
$LIMMIN
 10
0.0
 20
0.0
  9
$LIMMAX
 10
420.0
 20
297.0
  9
$VIEWCTR
 10
210.0
 20
148.5
  9
$VIEWSIZE
 40
297.0
  9
$CLAYER
  8
0
  9
$LTSCALE
 40
23.1
  9
$CELTYPE
  6
BYLAYER
  9
$DIMSCALE
 40
1.0
  9
$DIMASZ
 40
3.5
  9
$DIMEXO
 40
2.625
  9
$DIMDLI
 40
15.96
  9
$DIMEXE
 40
7.56
  9
$DIMCEN
 40
3.78
  9
$DIMLFAC
 40
1.0
  9
$DIMBLK
  1
_FILLED
  9
$DIMTXT
 40
3.5
  9
$DIMTOL
 70
1
  9
$DIMLIM
 70
0
  9
$DIMTFAC
 40
1.0
  9
$DIMTP
 40
0.005
  9
$DIMTM
 40
0.005
  9
$PDMODE
 70
3
  9
$PDSIZE
 40
0.3125
  9
$HANDSEED
  5
5C9
  9
$TILEMODE
 70
1
  9
$MEASUREMENT
 70
1
  9
$INSUNITS
 70
4
  0
ENDSEC
  0
SECTION
  2
CLASSES
  0
CLASS
  1
ACDBDICTIONARYWDFLT
  2
AcDbDictionaryWithDefault
  3
AutoCAD 2000
 90
0
280
0
281
0
  0
CLASS
  1
ACDBPLACEHOLDER
  2
AcDbPlaceHolder
  3
AutoCAD 2000
 90
0
280
0
281
0
  0
CLASS
  1
LAYOUT
  2
AcDbLayout
  3
AutoCAD 2000
 90
0
280
0
281
0
  0
ENDSEC
  0
SECTION
  2
TABLES
  0
TABLE
  2
VPORT
  5
8
100
AcDbSymbolTable
 70
2
  0
VPORT
  5
1F4
100
AcDbSymbolTableRecord
100
AcDbViewportTableRecord
  2
*ACTIVE
 70
0
 10
0.0
 20
0.0
 11
1.0
 21
1.0
 12
210.0
 22
148.5
 13
0.0
 23
0.0
 14
1.0
 24
1.0
 15
0.0
 25
0.0
 16
0.0
 26
0.0
 36
1.0
 17
0.0
 27
0.0
 37
0.0
 40
297.0
 41
1.4141414141
 42
50.0
 43
0.0
 44
0.0
 50
0.0
 51
0.0
 71
0
 72
100
 73
1
 74
1
 75
0
 76
0
 77
0
 78
0
  0
ENDTAB
  0
TABLE
  2
LTYPE
  5
5
100
AcDbSymbolTable
 70
6
  0
LTYPE
  5
14
100
AcDbSymbolTableRecord
100
AcDbLinetypeTableRecord
  2
BYBLOCK
 70
0
  3

 72
65
 73
0
 40
0.0
  0
LTYPE
  5
15
100
AcDbSymbolTableRecord
100
AcDbLinetypeTableRecord
  2
BYLAYER
 70
0
  3

 72
65
 73
0
 40
0.0
  0
LTYPE
  5
16
100
AcDbSymbolTableRecord
100
AcDbLinetypeTableRecord
  2
CONTINUOUS
 70
64
  3
Solid line
 72
65
 73
0
 40
0.0
  0
LTYPE
  5
1F5
100
AcDbSymbolTableRecord
100
AcDbLinetypeTableRecord
  2
CENTER
 70
64
  3
____ _ ____ _ ____ _ ____ _ ____ _ ____ _ ____
 72
65
 73
4
 40
0.6
 49
0.375
 74
0
 49
-0.075
 74
0
 49
0.075
 74
0
 49
-0.075
 74
0
  0
LTYPE
  5
1F6
100
AcDbSymbolTableRecord
100
AcDbLinetypeTableRecord
  2
HIDDEN
 70
64
  3
- - - - - - - - - - - - - - - - - - - -
 72
65
 73
2
 40
0.2
 49
0.1
 74
0
 49
-0.1
 74
0
  0
LTYPE
  5
1F7
100
AcDbSymbolTableRecord
100
AcDbLinetypeTableRecord
  2
PHANTOM
 70
64
  3
_____ _ _ _____ _ _ _____ _ _ _____
 72
65
 73
6
 40
0.8
 49
0.45
 74
0
 49
-0.05
 74
0
 49
0.1
 74
0
 49
-0.05
 74
0
 49
0.1
 74
0
 49
-0.05
 74
0
  0
LTYPE
  5
1F8
100
AcDbSymbolTableRecord
100
AcDbLinetypeTableRecord
  2
DOT
 70
64
  3
. . . . . . . . . . . . . . . . . . . .
 72
65
 73
2
 40
0.2
 49
0.1
 74
0
 49
-0.1
 74
0
  0
LTYPE
  5
1F9
100
AcDbSymbolTableRecord
100
AcDbLinetypeTableRecord
  2
DASHED
 70
64
  3
- - - - - - - - - - - - - - - - - - - -
 72
65
 73
2
 40
0.2
 49
0.1
 74
0
 49
-0.1
 74
0
  0
ENDTAB
  0
TABLE
  2
LAYER
  5
2
100
AcDbSymbolTable
 70
36
  0
LAYER
  5
10
100
AcDbSymbolTableRecord
100
AcDbLayerTableRecord
  2
0
 70
0
 62
7
  6
CONTINUOUS
370
-3
390
F
  0
LAYER
  5
1FA
100
AcDbSymbolTableRecord
100
AcDbLayerTableRecord
  2
DEFAULT_1
 70
0
 62
7
  6
CENTER
370
-3
390
F
  0
LAYER
  5
1FB
100
AcDbSymbolTableRecord
100
AcDbLayerTableRecord
  2
DEFAULT_2
 70
0
 62
8
  6
HIDDEN
370
-3
390
F
  0
LAYER
  5
1FC
100
AcDbSymbolTableRecord
100
AcDbLayerTableRecord
  2
DEFAULT_3
 70
0
 62
7
  6
PHANTOM
370
-3
390
F
  0
LAYER
  5
1FD
100
AcDbSymbolTableRecord
100
AcDbLayerTableRecord
  2
BEZUGSACHSEN
 70
0
 62
7
  6
CONTINUOUS
370
-3
390
F
  0
LAYER
  5
1FE
100
AcDbSymbolTableRecord
100
AcDbLayerTableRecord
  2
BEZUGSEBENEN
 70
0
 62
7
  6
CONTINUOUS
370
-3
390
F
  0
LAYER
  5
1FF
100
AcDbSymbolTableRecord
100
AcDbLayerTableRecord
  2
BG_STARTBEZUEGE
 70
0
 62
7
  6
CONTINUOUS
370
-3
390
F
  0
LAYER
  5
200
100
AcDbSymbolTableRecord
100
AcDbLayerTableRecord
  2
FASEN
 70
0
 62
7
  6
CONTINUOUS
370
-3
390
F
  0
LAYER
  5
201
100
AcDbSymbolTableRecord
100
AcDbLayerTableRecord
  2
HILFEN
 70
0
 62
7
  6
CONTINUOUS
370
-3
390
F
  0
LAYER
  5
202
100
AcDbSymbolTableRecord
100
AcDbLayerTableRecord
  2
KONSTRUKTIONSELEMENTE
 70
0
 62
7
  6
CONTINUOUS
370
-3
390
F
  0
LAYER
  5
203
100
AcDbSymbolTableRecord
100
AcDbLayerTableRecord
  2
NORM
 70
0
 62
7
  6
CONTINUOUS
370
-3
390
F
  0
LAYER
  5
204
100
AcDbSymbolTableRecord
100
AcDbLayerTableRecord
  2
PLATZIERUNG
 70
0
 62
7
  6
CONTINUOUS
370
-3
390
F
  0
LAYER
  5
205
100
AcDbSymbolTableRecord
100
AcDbLayerTableRecord
  2
PLAZIERUNG
 70
0
 62
7
  6
CONTINUOUS
370
-3
390
F
  0
LAYER
  5
206
100
AcDbSymbolTableRecord
100
AcDbLayerTableRecord
  2
RUNDUNGEN
 70
0
 62
7
  6
CONTINUOUS
370
-3
390
F
  0
LAYER
  5
207
100
AcDbSymbolTableRecord
100
AcDbLayerTableRecord
  2
TEIL_STARTBEZUEGE
 70
0
 62
7
  6
CONTINUOUS
370
-3
390
F
  0
LAYER
  5
208
100
AcDbSymbolTableRecord
100
AcDbLayerTableRecord
  2
T_STARTBEZUEGE
 70
0
 62
7
  6
CONTINUOUS
370
-3
390
F
  0
LAYER
  5
209
100
AcDbSymbolTableRecord
100
AcDbLayerTableRecord
  2
ZEICHNUNGSBEMASSUNGEN
 70
0
 62
7
  6
CONTINUOUS
370
-3
390
F
  0
ENDTAB
  0
TABLE
  2
STYLE
  5
3
100
AcDbSymbolTable
 70
1
  0
STYLE
  5
11
100
AcDbSymbolTableRecord
100
AcDbTextStyleTableRecord
  2
STANDARD
 70
0
 40
0.0
 41
0.7
 50
0.0
 71
0
 42
0.2
  3
txt
  4

  0
STYLE
  5
20A
100
AcDbSymbolTableRecord
100
AcDbTextStyleTableRecord
  2
TEXTSTYLE_1
 70
0
 40
0.0
 41
0.8
 50
0.0
 71
0
 42
0.2
  3
gdt
  4

  0
ENDTAB
  0
TABLE
  2
VIEW
  5
6
100
AcDbSymbolTable
 70
0
  0
ENDTAB
  0
TABLE
  2
UCS
  5
7
100
AcDbSymbolTable
 70
0
  0
ENDTAB
  0
TABLE
  2
APPID
  5
9
100
AcDbSymbolTable
 70
1
  0
APPID
  5
20B
100
AcDbSymbolTableRecord
100
AcDbRegAppTableRecord
  2
ACAD
 70
0
  0
ENDTAB
  0
TABLE
  2
BLOCK_RECORD
  5
1
100
AcDbSymbolTable
 70
0
  0
BLOCK_RECORD
  5
20C
100
AcDbSymbolTableRecord
100
AcDbBlockTableRecord
  2
*Model_Space
  0
BLOCK_RECORD
  5
20D
100
AcDbSymbolTableRecord
100
AcDbBlockTableRecord
  2
*Paper_Space
  0
ENDTAB
  0
TABLE
  2
DIMSTYLE
  5
A
100
AcDbSymbolTable
 70
1
100
AcDbDimStyleTable
 71
0
  0
DIMSTYLE
105
20E
100
AcDbSymbolTableRecord
100
AcDbDimStyleTableRecord
  2
STANDARD
 70
0
  3

  4

 40
1.0
 41
3.5
 42
0.0625
 43
0.38
 44
0.18
 45
0.0
 46
0.0
 47
0.005
 48
0.005
140
3.5
141
0.09
142
0.0
143
25.4
144
1.0
145
0.0
146
1.0
147
0.09
 71
1.0
 72
0.0
 73
0
 74
0
 75
0
 76
0
 77
1
 78
8
170
0
171
2
172
0
173
0
174
0
175
0
176
0
177
0
178
5
270
2
271
3
272
3
273
2
274
2
275
0
280
0
281
0
282
0
283
1
284
8
285
0
286
0
287
3
288
0
340
11
  0
ENDTAB
  0
ENDSEC
  0
SECTION
  2
BLOCKS
  0
BLOCK
  5
20
100
AcDbEntity
  8
0
100
AcDbBlockBegin
  2
*Model_Space
 70
0
 10
0.0
 20
0.0
 30
0.0
  3
*Model_Space
  1

  0
ENDBLK
  5
21
100
AcDbEntity
  8
0
100
AcDbBlockEnd
  0
BLOCK
  5
1C
100
AcDbEntity
  8
0
100
AcDbBlockBegin
  2
*Paper_Space
 70
0
 10
0.0
 20
0.0
 30
0.0
  3
*Paper_Space
  1

  0
ENDBLK
  5
1D
100
AcDbEntity
  8
0
100
AcDbBlockEnd
  0
ENDSEC
  0
SECTION
  2
ENTITIES
  0
MTEXT
  5
20F
100
AcDbEntity
  8
0
100
AcDbMText
 62
5
  6
CONTINUOUS
  7
STANDARD
 71
2
 72
1
 10
141.2535812652
 20
41.182370515
 30
0.0
 11
0.0
 21
1.0
 31
0.0
 44
0.9
  1
RUD WPPH-B\P2,5t 
 40
6.0
 41
52.0
  0
MTEXT
  5
210
100
AcDbEntity
  8
0
100
AcDbMText
 62
5
  6
CONTINUOUS
  7
STANDARD
 71
2
 72
1
 10
240.9431331281
 20
135.1035304318
 30
0.0
 11
1.0
 21
0.0
 31
0.0
 44
0.9
  1
RUD\PWPPH-B 2,5t
 40
5.0
 41
43.2142857143
  0
LINE
  5
211
100
AcDbEntity
  8
0
100
AcDbLine
 62
7
  6
CONTINUOUS
 10
0.0
 20
0.0
 11
0.0
 21
297.0
  0
LINE
  5
212
100
AcDbEntity
  8
0
100
AcDbLine
 62
7
  6
CONTINUOUS
 10
0.0
 20
0.0
 11
420.0
 21
0.0
  0
LINE
  5
213
100
AcDbEntity
  8
0
100
AcDbLine
 62
7
  6
CONTINUOUS
 10
0.0
 20
297.0
 11
420.0
 21
297.0
  0
LINE
  5
214
100
AcDbEntity
  8
0
100
AcDbLine
 62
7
  6
CONTINUOUS
 10
420.0
 20
0.0
 11
420.0
 21
297.0
  0
LINE
  5
215
100
AcDbEntity
  8
0
100
AcDbLine
 62
7
  6
CONTINUOUS
 10
124.7520668499
 20
112.6798951202
 11
173.5559968422
 21
112.6798951202
  0
LINE
  5
216
100
AcDbEntity
  8
0
100
AcDbLine
 62
7
  6
CONTINUOUS
 10
175.654031846
 20
115.1798951202
 11
122.654031846
 21
115.1798951202
  0
LINE
  5
217
100
AcDbEntity
  8
0
100
AcDbLine
 62
7
  6
CONTINUOUS
 10
138.0151869719
 20
247.5168958376
 11
135.9877133811
 21
246.541267405
  0
LINE
  5
218
100
AcDbEntity
  8
0
100
AcDbLine
 62
7
  6
CONTINUOUS
 10
136.7021622716
 20
246.3537972049
 11
138.3072456922
 21
247.1261697915
  0
LINE
  5
219
100
AcDbEntity
  8
0
100
AcDbLine
 62
7
  6
CONTINUOUS
 10
134.0633715766
 20
245.1849736107
 11
133.6298093997
 21
244.982692799
  0
LINE
  5
21A
100
AcDbEntity
  8
0
100
AcDbLine
 62
7
  6
CONTINUOUS
 10
133.9902469504
 20
244.6539834123
 11
134.2731946469
 21
244.7445880769
  0
LINE
  5
21B
100
AcDbEntity
  8
0
100
AcDbLine
 62
7
  6
CONTINUOUS
 10
175.654031846
 20
117.7501078882
 11
175.7208697271
 21
117.7501078882
  0
LINE
  5
21C
100
AcDbEntity
  8
0
100
AcDbLine
 62
7
  6
CONTINUOUS
 10
168.6026821848
 20
118.5798951202
 11
169.6516498479
 21
118.5798951202
  0
LINE
  5
21D
100
AcDbEntity
  8
0
100
AcDbLine
 62
7
  6
CONTINUOUS
 10
172.8287274288
 20
118.5798951202
 11
173.4951741967
 21
118.5798951202
  0
LINE
  5
21E
100
AcDbEntity
  8
0
100
AcDbLine
 62
7
  6
CONTINUOUS
 10
175.5021289176
 20
118.5798951202
 11
175.904009346
 21
118.5798951202
  0
LINE
  5
21F
100
AcDbEntity
  8
0
100
AcDbLine
 62
7
  6
CONTINUOUS
 10
175.9040313499
 20
119.2713844963
 11
175.8467274761
 21
119.2713844963
  0
LINE
  5
220
100
AcDbEntity
  8
0
100
AcDbLine
 62
7
  6
CONTINUOUS
 10
175.5021289176
 20
119.2713844963
 11
175.7535566406
 21
119.2713844963
  0
LINE
  5
221
100
AcDbEntity
  8
0
100
AcDbLine
 62
7
  6
CONTINUOUS
 10
175.0087189211
 20
120.9309588634
 11
175.6157443051
 21
120.9309588634
  0
LINE
  5
222
100
AcDbEntity
  8
0
100
AcDbLine
 62
7
  6
CONTINUOUS
 10
174.464737801
 20
121.4841504806
 11
173.4951741967
 21
121.4841504806
  0
LINE
  5
223
100
AcDbEntity
  8
0
100
AcDbLine
 62
7
  6
CONTINUOUS
 10
171.4699454504
 20
121.4841504806
 11
169.6516498479
 21
121.4841504806
  0
LINE
  5
224
100
AcDbEntity
  8
0
100
AcDbLine
 62
7
  6
CONTINUOUS
 10
124.751780924
 20
112.6798951202
 11
122.654031846
 21
115.1798951202
  0
LINE
  5
225
100
AcDbEntity
  8
0
100
AcDbLine
 62
7
  6
CONTINUOUS
 10
133.6298093997
 20
244.982692799
 11
131.8224364966
 21
243.6425796735
  0
LINE
  5
226
100
AcDbEntity
  8
0
100
AcDbLine
 62
7
  6
CONTINUOUS
 10
132.5594101406
 20
243.5930605745
 11
133.9902469504
 21
244.6539834123
  0
LINE
  5
227
100
AcDbEntity
  8
0
100
AcDbLine
 62
7
  6
CONTINUOUS
 10
134.8456383649
 20
243.5003410558
 11
133.4148015551
 21
242.439418218
  0
LINE
  5
228
100
AcDbEntity
  8
0
100
AcDbLine
 62
7
  6
CONTINUOUS
 10
133.756958057
 20
241.9779613616
 11
135.1124877343
 21
242.9830462057
  0
LINE
  5
229
100
AcDbEntity
  8
0
100
AcDbLine
 62
7
  6
CONTINUOUS
 10
146.8350251502
 20
249.7537021643
 11
146.4719535362
 21
249.5404607475
  0
LINE
  5
22A
100
AcDbEntity
  8
0
100
AcDbLine
 62
7
  6
CONTINUOUS
 10
138.9299872869
 20
245.8320376248
 11
137.3249038664
 21
245.0596650382
  0
LINE
  5
22B
100
AcDbEntity
  8
0
100
AcDbLine
 62
7
  6
CONTINUOUS
 10
137.5740004578
 20
244.5420122682
 11
139.0946056509
 21
245.2737335926
  0
LINE
  5
22C
100
AcDbEntity
  8
0
100
AcDbLine
 62
7
  6
CONTINUOUS
 10
137.9389702462
 20
242.4863202234
 11
138.4458386439
 21
242.7302273315
  0
LINE
  5
22D
100
AcDbEntity
  8
0
100
AcDbLine
 62
7
  6
CONTINUOUS
 10
153.5509961952
 20
247.8387743887
 11
153.0333281577
 21
247.6537039101
  0
LINE
  5
22E
100
AcDbEntity
  8
0
100
AcDbLine
 62
7
  6
CONTINUOUS
 10
175.0087189211
 20
121.6224483364
 11
175.6157443051
 21
121.6224483364
  0
LINE
  5
22F
100
AcDbEntity
  8
0
100
AcDbLine
 62
7
  6
CONTINUOUS
 10
174.5106464408
 20
122.3139376157
 11
173.4951741967
 21
122.3139376157
  0
LINE
  5
230
100
AcDbEntity
  8
0
100
AcDbLine
 62
7
  6
CONTINUOUS
 10
171.5588628032
 20
122.3139376157
 11
169.6516498479
 21
122.3139376157
  0
LINE
  5
231
100
AcDbEntity
  8
0
100
AcDbLine
 62
7
  6
CONTINUOUS
 10
171.5230564161
 20
122.4522354715
 11
171.8186686227
 21
122.4522354715
  0
LINE
  5
232
100
AcDbEntity
  8
0
100
AcDbLine
 62
7
  6
CONTINUOUS
 10
174.3810717342
 20
122.4522354715
 11
174.6435599216
 21
122.4522354715
  0
LINE
  5
233
100
AcDbEntity
  8
0
100
AcDbLine
 62
7
  6
CONTINUOUS
 10
171.6928005291
 20
122.7288311833
 11
171.9862151352
 21
122.7288311833
  0
LINE
  5
234
100
AcDbEntity
  8
0
100
AcDbLine
 62
7
  6
CONTINUOUS
 10
174.4665897163
 20
122.7288311833
 11
174.7282001793
 21
122.7288311833
  0
LINE
  5
235
100
AcDbEntity
  8
0
100
AcDbLine
 62
7
  6
CONTINUOUS
 10
175.654031846
 20
122.7288311833
 11
175.8868599088
 21
122.7288311833
  0
LINE
  5
236
100
AcDbEntity
  8
0
100
AcDbLine
 62
7
  6
CONTINUOUS
 10
171.7759789792
 20
123.1437247508
 11
172.0683285207
 21
123.1437247508
  0
LINE
  5
237
100
AcDbEntity
  8
0
100
AcDbLine
 62
7
  6
CONTINUOUS
 10
174.5081557947
 20
123.1437247508
 11
174.7693417447
 21
123.1437247508
  0
LINE
  5
238
100
AcDbEntity
  8
0
100
AcDbLine
 62
7
  6
CONTINUOUS
 10
175.654031846
 20
123.2820226067
 11
175.8757767474
 21
123.2820226067
  0
LINE
  5
239
100
AcDbEntity
  8
0
100
AcDbLine
 62
7
  6
CONTINUOUS
 10
171.7759789792
 20
123.5586187058
 11
172.0683285207
 21
123.5586187058
  0
LINE
  5
23A
100
AcDbEntity
  8
0
100
AcDbLine
 62
7
  6
CONTINUOUS
 10
174.5081557947
 20
123.5586187058
 11
174.7693417447
 21
123.5586187058
  0
LINE
  5
23B
100
AcDbEntity
  8
0
100
AcDbLine
 62
7
  6
CONTINUOUS
 10
175.516339189
 20
123.5586187058
 11
175.8757767474
 21
123.5586187058
  0
LINE
  5
23C
100
AcDbEntity
  8
0
100
AcDbLine
 62
7
  6
CONTINUOUS
 10
171.6928005291
 20
123.9735122734
 11
171.9862151352
 21
123.9735122734
  0
LINE
  5
23D
100
AcDbEntity
  8
0
100
AcDbLine
 62
7
  6
CONTINUOUS
 10
174.4665897163
 20
123.9735122734
 11
174.7282001793
 21
123.9735122734
  0
LINE
  5
23E
100
AcDbEntity
  8
0
100
AcDbLine
 62
7
  6
CONTINUOUS
 10
175.8467274761
 20
123.9735122734
 11
175.8868599088
 21
123.9735122734
  0
LINE
  5
23F
100
AcDbEntity
  8
0
100
AcDbLine
 62
7
  6
CONTINUOUS
 10
175.5298464069
 20
124.1118101292
 11
175.7810124062
 21
124.1118101292
  0
LINE
  5
240
100
AcDbEntity
  8
0
100
AcDbLine
 62
7
  6
CONTINUOUS
 10
171.5230564161
 20
124.2501079851
 11
171.8186686227
 21
124.2501079851
  0
LINE
  5
241
100
AcDbEntity
  8
0
100
AcDbLine
 62
7
  6
CONTINUOUS
 10
174.3810717342
 20
124.2501079851
 11
174.6435599216
 21
124.2501079851
  0
LINE
  5
242
100
AcDbEntity
  8
0
100
AcDbLine
 62
7
  6
CONTINUOUS
 10
175.8702597972
 20
124.2501079851
 11
175.8983341069
 21
124.2501079851
  0
LINE
  5
243
100
AcDbEntity
  8
0
100
AcDbLine
 62
7
  6
CONTINUOUS
 10
175.9037397883
 20
124.3884058409
 11
175.8987557623
 21
124.3884058409
  0
LINE
  5
244
100
AcDbEntity
  8
0
100
AcDbLine
 62
7
  6
CONTINUOUS
 10
174.5106464408
 20
124.3884058409
 11
173.4951741967
 21
124.3884058409
  0
LINE
  5
245
100
AcDbEntity
  8
0
100
AcDbLine
 62
7
  6
CONTINUOUS
 10
171.5588628032
 20
124.3884058409
 11
169.6516498479
 21
124.3884058409
  0
LINE
  5
246
100
AcDbEntity
  8
0
100
AcDbLine
 62
7
  6
CONTINUOUS
 10
175.5768672456
 20
124.6650015526
 11
175.8275904866
 21
124.6650015526
  0
LINE
  5
247
100
AcDbEntity
  8
0
100
AcDbLine
 62
7
  6
CONTINUOUS
 10
175.6127178962
 20
124.9415972643
 11
175.8631046023
 21
124.9415972643
  0
LINE
  5
248
100
AcDbEntity
  8
0
100
AcDbLine
 62
7
  6
CONTINUOUS
 10
168.6026821848
 20
125.0798951202
 11
171.4699454504
 21
125.0798951202
  0
LINE
  5
249
100
AcDbEntity
  8
0
100
AcDbLine
 62
7
  6
CONTINUOUS
 10
172.8287274288
 20
125.0798951202
 11
174.464737801
 21
125.0798951202
  0
LINE
  5
24A
100
AcDbEntity
  8
0
100
AcDbLine
 62
7
  6
CONTINUOUS
 10
175.6487062814
 20
125.0798951202
 11
175.8987560629
 21
125.0798951202
  0
LINE
  5
24B
100
AcDbEntity
  8
0
100
AcDbLine
 62
7
  6
CONTINUOUS
 10
139.1419053872
 20
246.0402666406
 11
138.9299872869
 21
245.8320376248
  0
LINE
  5
24C
100
AcDbEntity
  8
0
100
AcDbLine
 62
7
  6
CONTINUOUS
 10
146.6873213789
 20
249.0736105364
 11
146.9568060654
 21
249.2813308607
  0
LINE
  5
24D
100
AcDbEntity
  8
0
100
AcDbLine
 62
7
  6
CONTINUOUS
 10
139.0946056509
 20
245.2737335926
 11
139.4754797226
 21
245.5632649002
  0
LINE
  5
24E
100
AcDbEntity
  8
0
100
AcDbLine
 62
7
  6
CONTINUOUS
 10
134.5026627476
 20
240.0278338673
 11
134.9545059733
 21
240.3628621487
  0
LINE
  5
24F
100
AcDbEntity
  8
0
100
AcDbLine
 62
7
  6
CONTINUOUS
 10
153.1187393033
 20
247.1467149893
 11
153.5446444623
 21
247.3509993454
  0
LINE
  5
250
100
AcDbEntity
  8
0
100
AcDbLine
 62
7
  6
CONTINUOUS
 10
154.7906138353
 20
245.5249743614
 11
154.4760894364
 21
245.3951894165
  0
LINE
  5
251
100
AcDbEntity
  8
0
100
AcDbLine
 62
7
  6
CONTINUOUS
 10
154.4697376915
 20
244.9074143157
 11
154.9874057342
 21
245.092484819
  0
LINE
  5
252
100
AcDbEntity
  8
0
100
AcDbLine
 62
7
  6
CONTINUOUS
 10
164.6090178087
 20
242.4358588639
 11
165.0606295879
 21
242.5835782972
  0
LINE
  5
253
100
AcDbEntity
  8
0
100
AcDbLine
 62
7
  6
CONTINUOUS
 10
173.6948142296
 20
128.0798951202
 11
174.2767773916
 21
128.0798951202
  0
LINE
  5
254
100
AcDbEntity
  8
0
100
AcDbLine
 62
7
  6
CONTINUOUS
 10
175.0110585021
 20
128.0798951202
 11
175.4599164961
 21
128.0798951202
  0
LINE
  5
255
100
AcDbEntity
  8
0
100
AcDbLine
 62
7
  6
CONTINUOUS
 10
175.6054334814
 20
128.0798951202
 11
175.8829224655
 21
128.0798951202
  0
LINE
  5
256
100
AcDbEntity
  8
0
100
AcDbLine
 62
7
  6
CONTINUOUS
 10
175.5556586602
 20
128.2181929882
 11
175.8065814133
 21
128.2181929882
  0
LINE
  5
257
100
AcDbEntity
  8
0
100
AcDbLine
 62
7
  6
CONTINUOUS
 10
175.5032470153
 20
128.4947887362
 11
175.75466417
 21
128.4947887362
  0
LINE
  5
258
100
AcDbEntity
  8
0
100
AcDbLine
 62
7
  6
CONTINUOUS
 10
175.8829224655
 20
128.9096823522
 11
175.8558884945
 21
128.9096823522
  0
LINE
  5
259
100
AcDbEntity
  8
0
100
AcDbLine
 62
7
  6
CONTINUOUS
 10
175.4395712305
 20
129.047980208
 11
175.6915916572
 21
129.047980208
  0
LINE
  5
25A
100
AcDbEntity
  8
0
100
AcDbLine
 62
7
  6
CONTINUOUS
 10
175.8178256574
 20
129.047980208
 11
175.8989609524
 21
129.047980208
  0
LINE
  5
25B
100
AcDbEntity
  8
0
100
AcDbLine
 62
7
  6
CONTINUOUS
 10
175.782012843
 20
129.3245760166
 11
175.9037864378
 21
129.3245760166
  0
LINE
  5
25C
100
AcDbEntity
  8
0
100
AcDbLine
 62
7
  6
CONTINUOUS
 10
175.4034841565
 20
129.6011717283
 11
175.6558477574
 21
129.6011717283
  0
LINE
  5
25D
100
AcDbEntity
  8
0
100
AcDbLine
 62
7
  6
CONTINUOUS
 10
175.75466417
 20
129.7394695842
 11
175.9035755045
 21
129.7394695842
  0
LINE
  5
25E
100
AcDbEntity
  8
0
100
AcDbLine
 62
7
  6
CONTINUOUS
 10
175.384373342
 20
130.2926610076
 11
175.6369190564
 21
130.2926610076
  0
LINE
  5
25F
100
AcDbEntity
  8
0
100
AcDbLine
 62
7
  6
CONTINUOUS
 10
175.739944759
 20
130.2926610076
 11
175.9024417129
 21
130.2926610076
  0
LINE
  5
260
100
AcDbEntity
  8
0
100
AcDbLine
 62
7
  6
CONTINUOUS
 10
175.0026978936
 20
130.9841504806
 11
174.2767773916
 21
130.9841504806
  0
LINE
  5
261
100
AcDbEntity
  8
0
100
AcDbLine
 62
7
  6
CONTINUOUS
 10
175.0733255404
 20
131.8139376157
 11
174.2767773916
 21
131.8139376157
  0
LINE
  5
262
100
AcDbEntity
  8
0
100
AcDbLine
 62
7
  6
CONTINUOUS
 10
174.9165355213
 20
131.9522354715
 11
175.1736224581
 21
131.9522354715
  0
LINE
  5
263
100
AcDbEntity
  8
0
100
AcDbLine
 62
7
  6
CONTINUOUS
 10
135.0145338941
 20
243.7447646726
 11
134.8456383649
 21
243.5003410558
  0
LINE
  5
264
100
AcDbEntity
  8
0
100
AcDbLine
 62
7
  6
CONTINUOUS
 10
135.1124877343
 20
242.9830462057
 11
135.4319977439
 21
243.3391459695
  0
LINE
  5
265
100
AcDbEntity
  8
0
100
AcDbLine
 62
7
  6
CONTINUOUS
 10
163.4387284547
 20
240.8009004019
 11
163.8903402534
 21
240.9486198624
  0
LINE
  5
266
100
AcDbEntity
  8
0
100
AcDbLine
 62
7
  6
CONTINUOUS
 10
174.9802993609
 20
132.2288311833
 11
175.2367578107
 21
132.2288311833
  0
LINE
  5
267
100
AcDbEntity
  8
0
100
AcDbLine
 62
7
  6
CONTINUOUS
 10
175.0110585021
 20
132.6437247508
 11
175.2672148671
 21
132.6437247508
  0
LINE
  5
268
100
AcDbEntity
  8
0
100
AcDbLine
 62
7
  6
CONTINUOUS
 10
175.0110585021
 20
133.0586187058
 11
175.2672148671
 21
133.0586187058
  0
LINE
  5
269
100
AcDbEntity
  8
0
100
AcDbLine
 62
7
  6
CONTINUOUS
 10
174.9802993609
 20
133.4735122734
 11
175.2367578107
 21
133.4735122734
  0
LINE
  5
26A
100
AcDbEntity
  8
0
100
AcDbLine
 62
7
  6
CONTINUOUS
 10
174.9165355213
 20
133.7501079851
 11
175.1736224581
 21
133.7501079851
  0
LINE
  5
26B
100
AcDbEntity
  8
0
100
AcDbLine
 62
7
  6
CONTINUOUS
 10
175.0733255404
 20
133.8884058409
 11
174.2767773916
 21
133.8884058409
  0
LINE
  5
26C
100
AcDbEntity
  8
0
100
AcDbLine
 62
7
  6
CONTINUOUS
 10
173.6948142296
 20
134.5798951202
 11
175.0383900571
 21
134.5798951202
  0
LINE
  5
26D
100
AcDbEntity
  8
0
100
AcDbLine
 62
7
  6
CONTINUOUS
 10
175.384373342
 20
134.5798951202
 11
175.9024417129
 21
134.5798951202
  0
LINE
  5
26E
100
AcDbEntity
  8
0
100
AcDbLine
 62
7
  6
CONTINUOUS
 10
146.4719535362
 20
249.5404607475
 11
146.120159089
 21
249.136062347
  0
LINE
  5
26F
100
AcDbEntity
  8
0
100
AcDbLine
 62
7
  6
CONTINUOUS
 10
148.6098136193
 20
248.3238260706
 11
146.1303346084
 21
245.7797724158
  0
LINE
  5
270
100
AcDbEntity
  8
0
100
AcDbLine
 62
7
  6
CONTINUOUS
 10
146.8790332408
 20
245.8239413451
 11
149.0946661485
 21
248.0646961838
  0
LINE
  5
271
100
AcDbEntity
  8
0
100
AcDbLine
 62
7
  6
CONTINUOUS
 10
154.9874057342
 20
245.092484819
 11
155.3411743043
 21
245.4096946149
  0
LINE
  5
272
100
AcDbEntity
  8
0
100
AcDbLine
 62
7
  6
CONTINUOUS
 10
139.4754797226
 20
245.5632649002
 11
139.6888438532
 21
245.9846961015
  0
LINE
  5
273
100
AcDbEntity
  8
0
100
AcDbLine
 62
7
  6
CONTINUOUS
 10
124.183132155
 20
211.1694695693
 11
124.495632155
 21
211.5950014334
  0
LINE
  5
274
100
AcDbEntity
  8
0
100
AcDbLine
 62
7
  6
CONTINUOUS
 10
123.870632155
 20
211.7013843995
 11
123.6622987223
 21
211.4886184674
  0
LINE
  5
275
100
AcDbEntity
  8
0
100
AcDbLine
 62
7
  6
CONTINUOUS
 10
155.0329995518
 20
245.7676852187
 11
154.7906138353
 21
245.5249743614
  0
LINE
  5
276
100
AcDbEntity
  8
0
100
AcDbLine
 62
7
  6
CONTINUOUS
 10
164.9023764892
 20
243.1678338203
 11
164.6589585512
 21
242.9888358326
  0
LINE
  5
277
100
AcDbEntity
  8
0
100
AcDbLine
 62
7
  6
CONTINUOUS
 10
165.0606295879
 20
242.5835782972
 11
165.3040475259
 21
242.7625762849
  0
LINE
  5
278
100
AcDbEntity
  8
0
100
AcDbLine
 62
7
  6
CONTINUOUS
 10
163.7320871937
 20
241.5328754401
 11
163.4886692557
 21
241.3538774523
  0
LINE
  5
279
100
AcDbEntity
  8
0
100
AcDbLine
 62
7
  6
CONTINUOUS
 10
163.8903402534
 20
240.9486198624
 11
164.1337582304
 21
241.1276179047
  0
LINE
  5
27A
100
AcDbEntity
  8
0
100
AcDbLine
 62
7
  6
CONTINUOUS
 10
123.7664655877
 20
210.9567036372
 11
124.183132155
 21
211.1694695693
  0
LINE
  5
27B
100
AcDbEntity
  8
RUNDUNGEN
100
AcDbLine
 62
7
  6
CONTINUOUS
 10
173.154031846
 20
142.5798951202
 11
166.6538708186
 21
142.5798951202
  0
LINE
  5
27C
100
AcDbEntity
  8
RUNDUNGEN
100
AcDbLine
 62
7
  6
CONTINUOUS
 10
131.6541714805
 20
142.5798951202
 11
125.154031846
 21
142.5798951202
  0
LINE
  5
27D
100
AcDbEntity
  8
0
100
AcDbLine
 62
7
  6
CONTINUOUS
 10
123.9747987223
 20
212.0205332976
 11
123.870632155
 21
211.7013843995
  0
LINE
  5
27E
100
AcDbEntity
  8
0
100
AcDbLine
 62
7
  6
CONTINUOUS
 10
124.495632155
 20
211.5950014334
 11
124.5997987223
 21
211.9141503316
  0
LINE
  5
27F
100
AcDbEntity
  8
0
100
AcDbLine
 62
7
  6
CONTINUOUS
 10
124.183132155
 20
202.254575957
 11
124.3914655877
 21
202.6801078957
  0
LINE
  5
280
100
AcDbEntity
  8
0
100
AcDbLine
 62
7
  6
CONTINUOUS
 10
146.5170622031
 20
248.7758328127
 11
146.6873213789
 21
249.0736105364
  0
LINE
  5
281
100
AcDbEntity
  8
0
100
AcDbLine
 62
7
  6
CONTINUOUS
 10
149.0946661485
 20
248.0646961838
 11
149.2649253243
 21
248.3624739074
  0
LINE
  5
282
100
AcDbEntity
  8
0
100
AcDbLine
 62
7
  6
CONTINUOUS
 10
150.876194162
 20
245.8533400501
 11
150.2372063966
 21
244.8447205891
  0
LINE
  5
283
100
AcDbEntity
  8
0
100
AcDbLine
 62
7
  6
CONTINUOUS
 10
150.704667255
 20
244.8099896544
 11
151.3436560903
 21
245.8186090359
  0
LINE
  5
284
100
AcDbEntity
  8
0
100
AcDbLine
 62
7
  6
CONTINUOUS
 10
123.7664655877
 20
202.7864908617
 11
123.558132155
 21
202.4673419636
  0
LINE
  5
285
100
AcDbEntity
  8
0
100
AcDbLine
 62
7
  6
CONTINUOUS
 10
123.7664655877
 20
201.8290440556
 11
124.183132155
 21
202.254575957
  0
LINE
  5
286
100
AcDbEntity
  8
0
100
AcDbLine
 62
7
  6
CONTINUOUS
 10
123.6622987223
 20
211.4886184674
 11
123.3497987223
 21
211.3822355013
  0
LINE
  5
287
100
AcDbEntity
  8
0
100
AcDbLine
 62
7
  6
CONTINUOUS
 10
136.654031846
 20
151.3798951202
 11
136.154031846
 21
151.3798951202
  0
LINE
  5
288
100
AcDbEntity
  8
0
100
AcDbLine
 62
7
  6
CONTINUOUS
 10
136.654031846
 20
152.7132284933
 11
136.154031846
 21
152.7132284933
  0
LINE
  5
289
100
AcDbEntity
  8
0
100
AcDbLine
 62
7
  6
CONTINUOUS
 10
120.745632155
 20
213.5098951202
 11
120.745632155
 21
208.5098951202
  0
LINE
  5
28A
100
AcDbEntity
  8
0
100
AcDbLine
 62
7
  6
CONTINUOUS
 10
120.745632155
 20
206.5098951202
 11
120.745632155
 21
203.2120227259
  0
LINE
  5
28B
100
AcDbEntity
  8
0
100
AcDbLine
 62
7
  6
CONTINUOUS
 10
120.745632155
 20
199.5098951202
 11
120.745632155
 21
194.5098951202
  0
LINE
  5
28C
100
AcDbEntity
  8
0
100
AcDbLine
 62
7
  6
CONTINUOUS
 10
121.370632155
 20
195.148192991
 11
121.370632155
 21
198.871597324
  0
LINE
  5
28D
100
AcDbEntity
  8
0
100
AcDbLine
 62
7
  6
CONTINUOUS
 10
121.370632155
 20
203.2120227259
 11
121.370632155
 21
206.5098951202
  0
LINE
  5
28E
100
AcDbEntity
  8
0
100
AcDbLine
 62
7
  6
CONTINUOUS
 10
121.370632155
 20
208.5098951202
 11
121.370632155
 21
210.7439377051
  0
LINE
  5
28F
100
AcDbEntity
  8
0
100
AcDbLine
 62
7
  6
CONTINUOUS
 10
121.370632155
 20
211.3822355013
 11
121.370632155
 21
212.97798029
  0
LINE
  5
290
100
AcDbEntity
  8
0
100
AcDbLine
 62
7
  6
CONTINUOUS
 10
122.654031846
 20
140.0798951202
 11
122.654031846
 21
115.1798951202
  0
LINE
  5
291
100
AcDbEntity
  8
0
100
AcDbLine
 62
7
  6
CONTINUOUS
 10
123.870632155
 20
206.5098951202
 11
123.870632155
 21
203.2120227259
  0
LINE
  5
292
100
AcDbEntity
  8
0
100
AcDbLine
 62
7
  6
CONTINUOUS
 10
124.3914655877
 20
202.6801078957
 11
124.495632155
 21
203.2120227259
  0
LINE
  5
293
100
AcDbEntity
  8
0
100
AcDbLine
 62
7
  6
CONTINUOUS
 10
124.808132155
 20
195.6801078957
 11
124.9122987223
 21
196.2120227259
  0
LINE
  5
294
100
AcDbEntity
  8
0
100
AcDbLine
 62
7
  6
CONTINUOUS
 10
123.870632155
 20
203.2120227259
 11
123.7664655877
 21
202.7864908617
  0
LINE
  5
295
100
AcDbEntity
  8
0
100
AcDbLine
 62
7
  6
CONTINUOUS
 10
124.2872987223
 20
196.2120227259
 11
124.183132155
 21
195.7864908617
  0
LINE
  5
296
100
AcDbEntity
  8
0
100
AcDbLine
 62
7
  6
CONTINUOUS
 10
135.4319977439
 20
243.3391459695
 11
135.5621482384
 21
243.7932265321
  0
LINE
  5
297
100
AcDbEntity
  8
0
100
AcDbLine
 62
7
  6
CONTINUOUS
 10
139.2278291615
 20
246.2941198557
 11
139.1419053872
 21
246.0402666406
  0
LINE
  5
298
100
AcDbEntity
  8
0
100
AcDbLine
 62
7
  6
CONTINUOUS
 10
148.7744342117
 20
248.7171822861
 11
148.6098136193
 21
248.3238260706
  0
LINE
  5
299
100
AcDbEntity
  8
0
100
AcDbLine
 62
7
  6
CONTINUOUS
 10
124.5997987223
 20
195.254575957
 11
124.808132155
 21
195.6801078957
  0
LINE
  5
29A
100
AcDbEntity
  8
0
100
AcDbLine
 62
7
  6
CONTINUOUS
 10
155.1836265766
 20
246.0296090083
 11
155.0329995518
 21
245.7676852187
  0
LINE
  5
29B
100
AcDbEntity
  8
0
100
AcDbLine
 62
7
  6
CONTINUOUS
 10
124.183132155
 20
195.7864908617
 11
123.9747987223
 21
195.4673419636
  0
LINE
  5
29C
100
AcDbEntity
  8
0
100
AcDbLine
 62
7
  6
CONTINUOUS
 10
155.3411743043
 20
245.4096946149
 11
155.6228041852
 21
245.8398302903
  0
LINE
  5
29D
100
AcDbEntity
  8
0
100
AcDbLine
 62
7
  6
CONTINUOUS
 10
124.183132155
 20
194.8290440556
 11
124.5997987223
 21
195.254575957
  0
LINE
  5
29E
100
AcDbEntity
  8
0
100
AcDbLine
 62
7
  6
CONTINUOUS
 10
123.558132155
 20
202.4673419636
 11
123.245632155
 21
202.254575957
  0
LINE
  5
29F
100
AcDbEntity
  8
0
100
AcDbLine
 62
7
  6
CONTINUOUS
 10
123.3497987223
 20
201.6162780956
 11
123.7664655877
 21
201.8290440556
  0
LINE
  5
2A0
100
AcDbEntity
  8
0
100
AcDbLine
 62
7
  6
CONTINUOUS
 10
136.654031846
 20
153.3798951202
 11
136.154031846
 21
153.3798951202
  0
LINE
  5
2A1
100
AcDbEntity
  8
0
100
AcDbLine
 62
7
  6
CONTINUOUS
 10
136.654031846
 20
154.7132283741
 11
136.154031846
 21
154.7132283741
  0
LINE
  5
2A2
100
AcDbEntity
  8
0
100
AcDbLine
 62
7
  6
CONTINUOUS
 10
136.6424151957
 20
155.3798951202
 11
136.154031846
 21
155.3798951202
  0
LINE
  5
2A3
100
AcDbEntity
  8
0
100
AcDbLine
 62
7
  6
CONTINUOUS
 10
136.654031846
 20
156.739804074
 11
136.154031846
 21
156.739804074
  0
LINE
  5
2A4
100
AcDbEntity
  8
0
100
AcDbLine
 62
7
  6
CONTINUOUS
 10
123.9747987223
 20
212.3396824937
 11
123.9747987223
 21
212.0205332976
  0
LINE
  5
2A5
100
AcDbEntity
  8
0
100
AcDbLine
 62
7
  6
CONTINUOUS
 10
124.2872987223
 20
197.8077673655
 11
124.2872987223
 21
196.2120227259
  0
LINE
  5
2A6
100
AcDbEntity
  8
0
100
AcDbLine
 62
7
  6
CONTINUOUS
 10
124.495632155
 20
203.2120227259
 11
124.495632155
 21
206.5098951202
  0
LINE
  5
2A7
100
AcDbEntity
  8
0
100
AcDbLine
 62
7
  6
CONTINUOUS
 10
124.5997987223
 20
211.9141503316
 11
124.5997987223
 21
212.3396824937
  0
LINE
  5
2A8
100
AcDbEntity
  8
0
100
AcDbLine
 62
7
  6
CONTINUOUS
 10
124.9122987223
 20
196.2120227259
 11
124.9122987223
 21
197.8077673655
  0
LINE
  5
2A9
100
AcDbEntity
  8
0
100
AcDbLine
 62
7
  6
CONTINUOUS
 10
135.0510962072
 20
244.0102597717
 11
135.0145338941
 21
243.7447646726
  0
LINE
  5
2AA
100
AcDbEntity
  8
0
100
AcDbLine
 62
7
  6
CONTINUOUS
 10
139.6888438532
 20
245.9846961015
 11
139.7762136578
 21
246.4517515022
  0
LINE
  5
2AB
100
AcDbEntity
  8
0
100
AcDbLine
 62
7
  6
CONTINUOUS
 10
163.3193402194
 20
245.9493855969
 11
160.7001211825
 21
242.2901928394
  0
LINE
  5
2AC
100
AcDbEntity
  8
0
100
AcDbLine
 62
7
  6
CONTINUOUS
 10
161.491888664
 20
242.4299214489
 11
162.3278096507
 21
243.5977489491
  0
LINE
  5
2AD
100
AcDbEntity
  8
0
100
AcDbLine
 62
7
  6
CONTINUOUS
 10
162.6621779985
 20
244.0648798837
 11
163.4423709662
 21
245.1548522827
  0
LINE
  5
2AE
100
AcDbEntity
  8
0
100
AcDbLine
 62
7
  6
CONTINUOUS
 10
165.0138326051
 20
243.3235441319
 11
164.9023764892
 21
243.1678338203
  0
LINE
  5
2AF
100
AcDbEntity
  8
0
100
AcDbLine
 62
7
  6
CONTINUOUS
 10
163.8992713676
 20
241.7664409074
 11
163.7320871937
 21
241.5328754401
  0
LINE
  5
2B0
100
AcDbEntity
  8
0
100
AcDbLine
 62
7
  6
CONTINUOUS
 10
164.1337582304
 20
241.1276179047
 11
164.4123985203
 21
241.5168936835
  0
LINE
  5
2B1
100
AcDbEntity
  8
0
100
AcDbLine
 62
7
  6
CONTINUOUS
 10
165.3040475259
 20
242.7625762849
 11
165.5269599139
 21
243.0739971261
  0
LINE
  5
2B2
100
AcDbEntity
  8
0
100
AcDbLine
 62
7
  6
CONTINUOUS
 10
123.9747987223
 20
195.4673419636
 11
123.6622987223
 21
195.254575957
  0
LINE
  5
2B3
100
AcDbEntity
  8
0
100
AcDbLine
 62
7
  6
CONTINUOUS
 10
123.7664655877
 20
194.6162780956
 11
124.183132155
 21
194.8290440556
  0
LINE
  5
2B4
100
AcDbEntity
  8
0
100
AcDbLine
 62
7
  6
CONTINUOUS
 10
136.654031846
 20
159.489804074
 11
136.154031846
 21
159.489804074
  0
LINE
  5
2B5
100
AcDbEntity
  8
0
100
AcDbLine
 62
7
  6
CONTINUOUS
 10
136.654031846
 20
160.989804074
 11
136.154031846
 21
160.989804074
  0
LINE
  5
2B6
100
AcDbEntity
  8
0
100
AcDbLine
 62
7
  6
CONTINUOUS
 10
121.4747987968
 20
202.7864908617
 11
121.370632155
 21
203.2120227259
  0
LINE
  5
2B7
100
AcDbEntity
  8
0
100
AcDbLine
 62
7
  6
CONTINUOUS
 10
124.183132155
 20
198.2332992297
 11
124.2872987223
 21
197.8077673655
  0
LINE
  5
2B8
100
AcDbEntity
  8
0
100
AcDbLine
 62
7
  6
CONTINUOUS
 10
120.745632155
 20
203.2120227259
 11
120.8497988248
 21
202.6801078957
  0
LINE
  5
2B9
100
AcDbEntity
  8
0
100
AcDbLine
 62
7
  6
CONTINUOUS
 10
124.9122987223
 20
197.8077673655
 11
124.808132155
 21
198.3396824937
  0
LINE
  5
2BA
100
AcDbEntity
  8
0
100
AcDbLine
 62
7
  6
CONTINUOUS
 10
157.1772107387
 20
247.2254888046
 11
157.0399901025
 21
246.8679371795
  0
LINE
  5
2BB
100
AcDbEntity
  8
0
100
AcDbLine
 62
7
  6
CONTINUOUS
 10
159.8321570168
 20
245.0932845307
 11
159.6100780305
 21
244.6691889101
  0
LINE
  5
2BC
100
AcDbEntity
  8
0
100
AcDbLine
 62
7
  6
CONTINUOUS
 10
160.7728060361
 20
244.0603227857
 11
160.9948850224
 21
244.4844184063
  0
LINE
  5
2BD
100
AcDbEntity
  8
0
100
AcDbLine
 62
7
  6
CONTINUOUS
 10
136.654031846
 20
163.739804074
 11
136.154031846
 21
163.739804074
  0
LINE
  5
2BE
100
AcDbEntity
  8
0
100
AcDbLine
 62
7
  6
CONTINUOUS
 10
120.8497988248
 20
202.6801078957
 11
121.058132155
 21
202.254575957
  0
LINE
  5
2BF
100
AcDbEntity
  8
0
100
AcDbLine
 62
7
  6
CONTINUOUS
 10
124.808132155
 20
198.3396824937
 11
124.5997987223
 21
198.7652143579
  0
LINE
  5
2C0
100
AcDbEntity
  8
0
100
AcDbLine
 62
7
  6
CONTINUOUS
 10
123.870632155
 20
212.6588313919
 11
123.9747987223
 21
212.3396824937
  0
LINE
  5
2C1
100
AcDbEntity
  8
0
100
AcDbLine
 62
7
  6
CONTINUOUS
 10
135.5621482384
 20
243.7932265321
 11
135.5599655167
 21
244.268378577
  0
LINE
  5
2C2
100
AcDbEntity
  8
0
100
AcDbLine
 62
7
  6
CONTINUOUS
 10
136.154031846
 20
151.3798951202
 11
136.154031846
 21
154.7132283741
  0
LINE
  5
2C3
100
AcDbEntity
  8
0
100
AcDbLine
 62
7
  6
CONTINUOUS
 10
136.154031846
 20
155.3798951202
 11
136.154031846
 21
155.5903118937
  0
LINE
  5
2C4
100
AcDbEntity
  8
0
100
AcDbLine
 62
7
  6
CONTINUOUS
 10
136.154031846
 20
156.739804074
 11
136.154031846
 21
159.489804074
  0
LINE
  5
2C5
100
AcDbEntity
  8
0
100
AcDbLine
 62
7
  6
CONTINUOUS
 10
136.154031846
 20
160.989804074
 11
136.154031846
 21
163.739804074
  0
LINE
  5
2C6
100
AcDbEntity
  8
RUNDUNGEN
100
AcDbLine
 62
7
  6
CONTINUOUS
 10
136.654031846
 20
170.5798951202
 11
136.654031846
 21
147.5798951202
  0
LINE
  5
2C7
100
AcDbEntity
  8
0
100
AcDbLine
 62
7
  6
CONTINUOUS
 10
146.120159089
 20
249.136062347
 11
146.049125424
 21
248.748227224
  0
LINE
  5
2C8
100
AcDbEntity
  8
0
100
AcDbLine
 62
7
  6
CONTINUOUS
 10
149.2649253243
 20
248.3624739074
 11
149.3359579183
 21
248.7503089673
  0
LINE
  5
2C9
100
AcDbEntity
  8
0
100
AcDbLine
 62
7
  6
CONTINUOUS
 10
152.9865922476
 20
249.7177310723
 11
152.476418056
 21
247.2812081735
  0
LINE
  5
2CA
100
AcDbEntity
  8
0
100
AcDbLine
 62
7
  6
CONTINUOUS
 10
158.1518587921
 20
247.6718680146
 11
157.8774174235
 21
246.9567645141
  0
LINE
  5
2CB
100
AcDbEntity
  8
0
100
AcDbLine
 62
7
  6
CONTINUOUS
 10
157.7401967873
 20
246.599212889
 11
157.0540935341
 21
244.8114545757
  0
LINE
  5
2CC
100
AcDbEntity
  8
0
100
AcDbLine
 62
7
  6
CONTINUOUS
 10
157.5603315517
 20
244.8222783459
 11
158.1778244628
 21
246.431260784
  0
LINE
  5
2CD
100
AcDbEntity
  8
0
100
AcDbLine
 62
7
  6
CONTINUOUS
 10
158.3150450991
 20
246.7888124091
 11
158.5894864676
 21
247.5039159097
  0
LINE
  5
2CE
100
AcDbEntity
  8
0
100
AcDbLine
 62
7
  6
CONTINUOUS
 10
158.005010931
 20
243.6260849077
 11
158.1422315793
 21
243.9836365641
  0
LINE
  5
2CF
100
AcDbEntity
  8
0
100
AcDbLine
 62
7
  6
CONTINUOUS
 10
159.1406061503
 20
246.0617658455
 11
159.2778267865
 21
246.4193174706
  0
LINE
  5
2D0
100
AcDbEntity
  8
0
100
AcDbLine
 62
7
  6
CONTINUOUS
 10
123.9747987223
 20
198.5524484258
 11
124.183132155
 21
198.2332992297
  0
LINE
  5
2D1
100
AcDbEntity
  8
0
100
AcDbLine
 62
7
  6
CONTINUOUS
 10
121.683132155
 20
202.4673419636
 11
121.4747987968
 21
202.7864908617
  0
LINE
  5
2D2
100
AcDbEntity
  8
0
100
AcDbLine
 62
7
  6
CONTINUOUS
 10
124.7039655877
 20
208.5098951202
 11
123.7664655877
 21
210.9567036372
  0
LINE
  5
2D3
100
AcDbEntity
  8
0
100
AcDbLine
 62
7
  6
CONTINUOUS
 10
123.1414654387
 20
210.7439377051
 11
123.9747987223
 21
208.5098951202
  0
LINE
  5
2D4
100
AcDbEntity
  8
0
100
AcDbLine
 62
7
  6
CONTINUOUS
 10
124.5997987223
 20
212.3396824937
 11
124.495632155
 21
212.6588313919
  0
LINE
  5
2D5
100
AcDbEntity
  8
0
100
AcDbLine
 62
7
  6
CONTINUOUS
 10
153.0333281577
 20
247.6537039101
 11
153.3472815275
 21
249.153102718
  0
LINE
  5
2D6
100
AcDbEntity
  8
0
100
AcDbLine
 62
7
  6
CONTINUOUS
 10
155.2228707409
 20
246.2170338264
 11
155.1836265766
 21
246.0296090083
  0
LINE
  5
2D7
100
AcDbEntity
  8
0
100
AcDbLine
 62
7
  6
CONTINUOUS
 10
156.0083251945
 20
248.5959169832
 11
156.1064356054
 21
249.0644790286
  0
LINE
  5
2D8
100
AcDbEntity
  8
0
100
AcDbLine
 62
7
  6
CONTINUOUS
 10
155.6228041852
 20
245.8398302903
 11
155.7012925139
 21
246.2146799267
  0
LINE
  5
2D9
100
AcDbEntity
  8
0
100
AcDbLine
 62
7
  6
CONTINUOUS
 10
121.058132155
 20
202.254575957
 11
121.4747987968
 21
201.8290440556
  0
LINE
  5
2DA
100
AcDbEntity
  8
0
100
AcDbLine
 62
7
  6
CONTINUOUS
 10
124.5997987223
 20
198.7652143579
 11
124.183132155
 21
199.1907462221
  0
LINE
  5
2DB
100
AcDbEntity
  8
0
100
AcDbLine
 62
7
  6
CONTINUOUS
 10
146.1303346084
 20
245.7797724158
 11
146.1585275292
 21
245.3018798896
  0
LINE
  5
2DC
100
AcDbEntity
  8
0
100
AcDbLine
 62
7
  6
CONTINUOUS
 10
163.9902218555
 20
242.0545739633
 11
163.8992713676
 21
241.7664409074
  0
LINE
  5
2DD
100
AcDbEntity
  8
0
100
AcDbLine
 62
7
  6
CONTINUOUS
 10
164.4123985203
 20
241.5168936835
 11
164.5033490082
 21
241.8050267395
  0
LINE
  5
2DE
100
AcDbEntity
  8
0
100
AcDbLine
 62
7
  6
CONTINUOUS
 10
165.1047831711
 20
243.6116772969
 11
165.0138326051
 21
243.3235441319
  0
LINE
  5
2DF
100
AcDbEntity
  8
0
100
AcDbLine
 62
7
  6
CONTINUOUS
 10
165.5269599139
 20
243.0739971261
 11
165.6179103238
 21
243.362130073
  0
LINE
  5
2E0
100
AcDbEntity
  8
0
100
AcDbLine
 62
7
  6
CONTINUOUS
 10
123.6622987223
 20
198.7652143579
 11
123.9747987223
 21
198.5524484258
  0
LINE
  5
2E1
100
AcDbEntity
  8
0
100
AcDbLine
 62
7
  6
CONTINUOUS
 10
121.995632155
 20
202.254575957
 11
121.683132155
 21
202.4673419636
  0
LINE
  5
2E2
100
AcDbEntity
  8
0
100
AcDbLine
 62
7
  6
CONTINUOUS
 10
124.495632155
 20
212.6588313919
 11
124.183132155
 21
213.084363256
  0
LINE
  5
2E3
100
AcDbEntity
  8
0
100
AcDbLine
 62
7
  6
CONTINUOUS
 10
139.1877590933
 20
246.593597503
 11
139.2278291615
 21
246.2941198557
  0
LINE
  5
2E4
100
AcDbEntity
  8
0
100
AcDbLine
 62
7
  6
CONTINUOUS
 10
139.7762136578
 20
246.4517515022
 11
139.7361435895
 21
246.7512291494
  0
LINE
  5
2E5
100
AcDbEntity
  8
0
100
AcDbLine
 62
7
  6
CONTINUOUS
 10
148.7631570292
 20
248.9083395375
 11
148.7744342117
 21
248.7171822861
  0
LINE
  5
2E6
100
AcDbEntity
  8
0
100
AcDbLine
 62
7
  6
CONTINUOUS
 10
149.5276697684
 20
245.5006399768
 11
149.4994768476
 21
245.978532503
  0
LINE
  5
2E7
100
AcDbEntity
  8
0
100
AcDbLine
 62
7
  6
CONTINUOUS
 10
149.3359579183
 20
248.7503089673
 11
149.3246807358
 21
248.9414662187
  0
LINE
  5
2E8
100
AcDbEntity
  8
0
100
AcDbLine
 62
7
  6
CONTINUOUS
 10
157.544942387
 20
244.5205238359
 11
157.5603315517
 21
244.8222783459
  0
LINE
  5
2E9
100
AcDbEntity
  8
KONSTRUKTIONSELEMENTE
100
AcDbLine
 62
7
  6
CONTINUOUS
 10
118.5260820897
 20
188.1798951202
 11
128.8815795854
 21
188.1798951202
  0
LINE
  5
2EA
100
AcDbEntity
  8
KONSTRUKTIONSELEMENTE
100
AcDbLine
 62
7
  6
CONTINUOUS
 10
169.4264841066
 20
188.1798951202
 11
179.7819816023
 21
188.1798951202
  0
LINE
  5
2EB
100
AcDbEntity
  8
0
100
AcDbLine
 62
7
  6
CONTINUOUS
 10
124.183132155
 20
199.1907462221
 11
123.7664655877
 21
199.4035121542
  0
LINE
  5
2EC
100
AcDbEntity
  8
0
100
AcDbLine
 62
7
  6
CONTINUOUS
 10
121.4747987968
 20
201.8290440556
 11
121.8914655132
 21
201.6162780956
  0
LINE
  5
2ED
100
AcDbEntity
  8
0
100
AcDbLine
 62
7
  6
CONTINUOUS
 10
123.6622987223
 20
212.871597324
 11
123.870632155
 21
212.6588313919
  0
LINE
  5
2EE
100
AcDbEntity
  8
0
100
AcDbLine
 62
7
  6
CONTINUOUS
 10
123.7664655877
 20
199.4035121542
 11
123.245632155
 21
199.5098951202
  0
LINE
  5
2EF
100
AcDbEntity
  8
0
100
AcDbLine
 62
7
  6
CONTINUOUS
 10
123.245632155
 20
198.871597324
 11
123.6622987223
 21
198.7652143579
  0
LINE
  5
2F0
100
AcDbEntity
  8
0
100
AcDbLine
 62
7
  6
CONTINUOUS
 10
124.183132155
 20
213.084363256
 11
123.7664655877
 21
213.4035121542
  0
LINE
  5
2F1
100
AcDbEntity
  8
0
100
AcDbLine
 62
7
  6
CONTINUOUS
 10
134.9553250888
 20
244.2968261936
 11
135.0510962072
 21
244.0102597717
  0
LINE
  5
2F2
100
AcDbEntity
  8
0
100
AcDbLine
 62
7
  6
CONTINUOUS
 10
135.5599655167
 20
244.268378577
 11
135.4641943982
 21
244.5549449989
  0
LINE
  5
2F3
100
AcDbEntity
  8
0
100
AcDbLine
 62
7
  6
CONTINUOUS
 10
155.1899762367
 20
246.5173846226
 11
155.2228707409
 21
246.2170338264
  0
LINE
  5
2F4
100
AcDbEntity
  8
0
100
AcDbLine
 62
7
  6
CONTINUOUS
 10
157.0540935341
 20
244.8114545757
 11
157.0919235554
 21
244.3867222311
  0
LINE
  5
2F5
100
AcDbEntity
  8
0
100
AcDbLine
 62
7
  6
CONTINUOUS
 10
164.5033490082
 20
241.8050267395
 11
164.4975616927
 21
242.2801485524
  0
LINE
  5
2F6
100
AcDbEntity
  8
RUNDUNGEN
100
AcDbLine
 62
7
  6
CONTINUOUS
 10
161.654031846
 20
147.5798951202
 11
161.654031846
 21
170.5798951202
  0
LINE
  5
2F7
100
AcDbEntity
  8
0
100
AcDbLine
 62
7
  6
CONTINUOUS
 10
120.745632155
 20
194.5098951202
 11
123.245632155
 21
194.5098951202
  0
LINE
  5
2F8
100
AcDbEntity
  8
0
100
AcDbLine
 62
7
  6
CONTINUOUS
 10
123.245632155
 20
195.148192991
 11
121.370632155
 21
195.148192991
  0
LINE
  5
2F9
100
AcDbEntity
  8
0
100
AcDbLine
 62
7
  6
CONTINUOUS
 10
121.370632155
 20
198.871597324
 11
123.245632155
 21
198.871597324
  0
LINE
  5
2FA
100
AcDbEntity
  8
0
100
AcDbLine
 62
7
  6
CONTINUOUS
 10
121.8914655132
 20
201.6162780956
 11
122.4122988713
 21
201.5098951202
  0
LINE
  5
2FB
100
AcDbEntity
  8
0
100
AcDbLine
 62
7
  6
CONTINUOUS
 10
122.4122988713
 20
202.148192991
 11
121.995632155
 21
202.254575957
  0
LINE
  5
2FC
100
AcDbEntity
  8
0
100
AcDbLine
 62
7
  6
CONTINUOUS
 10
135.9877133811
 20
246.541267405
 11
137.9389702462
 21
242.4863202234
  0
LINE
  5
2FD
100
AcDbEntity
  8
0
100
AcDbLine
 62
7
  6
CONTINUOUS
 10
138.4458386439
 20
242.7302273315
 11
137.5740004578
 21
244.5420122682
  0
LINE
  5
2FE
100
AcDbEntity
  8
0
100
AcDbLine
 62
7
  6
CONTINUOUS
 10
137.3249038664
 20
245.0596650382
 11
136.7021622716
 21
246.3537972049
  0
LINE
  5
2FF
100
AcDbEntity
  8
0
100
AcDbLine
 62
7
  6
CONTINUOUS
 10
165.6179103238
 20
243.362130073
 11
165.6121230083
 21
243.8372518859
  0
LINE
  5
300
100
AcDbEntity
  8
0
100
AcDbLine
 62
7
  6
CONTINUOUS
 10
168.6026821848
 20
125.0798951202
 11
168.6026821848
 21
118.5798951202
  0
LINE
  5
301
100
AcDbEntity
  8
0
100
AcDbLine
 62
7
  6
CONTINUOUS
 10
168.9419700913
 20
125.0798951202
 11
168.9419700913
 21
118.5798951202
  0
LINE
  5
302
100
AcDbEntity
  8
0
100
AcDbLine
 62
7
  6
CONTINUOUS
 10
169.6516498479
 20
124.3884058409
 11
169.6516498479
 21
122.3139376157
  0
LINE
  5
303
100
AcDbEntity
  8
0
100
AcDbLine
 62
7
  6
CONTINUOUS
 10
169.6516498479
 20
121.4841504806
 11
169.6516498479
 21
118.5798951202
  0
LINE
  5
304
100
AcDbEntity
  8
0
100
AcDbLine
 62
7
  6
CONTINUOUS
 10
123.6622987223
 20
195.254575957
 11
123.245632155
 21
195.148192991
  0
LINE
  5
305
100
AcDbEntity
  8
0
100
AcDbLine
 62
7
  6
CONTINUOUS
 10
123.245632155
 20
194.5098951202
 11
123.7664655877
 21
194.6162780956
  0
LINE
  5
306
100
AcDbEntity
  8
0
100
AcDbLine
 62
7
  6
CONTINUOUS
 10
123.245632155
 20
199.5098951202
 11
120.745632155
 21
199.5098951202
  0
LINE
  5
307
100
AcDbEntity
  8
0
100
AcDbLine
 62
7
  6
CONTINUOUS
 10
122.4122988713
 20
201.5098951202
 11
122.8289654387
 21
201.5098951202
  0
LINE
  5
308
100
AcDbEntity
  8
0
100
AcDbLine
 62
7
  6
CONTINUOUS
 10
122.8289654387
 20
202.148192991
 11
122.4122988713
 21
202.148192991
  0
LINE
  5
309
100
AcDbEntity
  8
0
100
AcDbLine
 62
7
  6
CONTINUOUS
 10
123.3497987223
 20
212.97798029
 11
123.6622987223
 21
212.871597324
  0
LINE
  5
30A
100
AcDbEntity
  8
0
100
AcDbLine
 62
7
  6
CONTINUOUS
 10
139.0632106813
 20
246.8524241297
 11
139.1877590933
 21
246.593597503
  0
LINE
  5
30B
100
AcDbEntity
  8
0
100
AcDbLine
 62
7
  6
CONTINUOUS
 10
139.7361435895
 20
246.7512291494
 11
139.570079079
 21
247.0963312378
  0
LINE
  5
30C
100
AcDbEntity
  8
0
100
AcDbLine
 62
7
  6
CONTINUOUS
 10
149.3246807358
 20
248.9414662187
 11
149.2085394749
 21
249.3182590936
  0
LINE
  5
30D
100
AcDbEntity
  8
0
100
AcDbLine
 62
7
  6
CONTINUOUS
 10
152.2998192889
 20
246.4377963605
 11
152.4048504027
 21
246.0245202229
  0
LINE
  5
30E
100
AcDbEntity
  8
0
100
AcDbLine
 62
7
  6
CONTINUOUS
 10
152.9554108717
 20
245.9092404764
 11
152.8503797579
 21
246.3225166139
  0
LINE
  5
30F
100
AcDbEntity
  8
0
100
AcDbLine
 62
7
  6
CONTINUOUS
 10
155.7012925139
 20
246.2146799267
 11
155.615883496
 21
246.7216685389
  0
LINE
  5
310
100
AcDbEntity
  8
0
100
AcDbLine
 62
7
  6
CONTINUOUS
 10
175.9040318216
 20
124.3628732096
 11
175.9037397883
 21
124.3884058409
  0
LINE
  5
311
100
AcDbEntity
  8
0
100
AcDbLine
 62
7
  6
CONTINUOUS
 10
171.7759789792
 20
123.5586187058
 11
171.7759789792
 21
123.1437247508
  0
LINE
  5
312
100
AcDbEntity
  8
0
100
AcDbLine
 62
7
  6
CONTINUOUS
 10
172.0683285207
 20
123.5586187058
 11
172.0683285207
 21
123.1437247508
  0
LINE
  5
313
100
AcDbEntity
  8
0
100
AcDbLine
 62
7
  6
CONTINUOUS
 10
172.5384972338
 20
123.5586187058
 11
172.5384972338
 21
123.005426895
  0
LINE
  5
314
100
AcDbEntity
  8
0
100
AcDbLine
 62
7
  6
CONTINUOUS
 10
172.8287274288
 20
125.0798951202
 11
172.8287274288
 21
118.5798951202
  0
LINE
  5
315
100
AcDbEntity
  8
0
100
AcDbLine
 62
7
  6
CONTINUOUS
 10
173.1082321236
 20
125.0798951202
 11
173.1082321236
 21
118.5798951202
  0
LINE
  5
316
100
AcDbEntity
  8
0
100
AcDbLine
 62
7
  6
CONTINUOUS
 10
173.4951741967
 20
124.3884058409
 11
173.4951741967
 21
122.3139376157
  0
LINE
  5
317
100
AcDbEntity
  8
0
100
AcDbLine
 62
7
  6
CONTINUOUS
 10
173.4951741967
 20
121.4841504806
 11
173.4951741967
 21
118.5798951202
  0
LINE
  5
318
100
AcDbEntity
  8
0
100
AcDbLine
 62
7
  6
CONTINUOUS
 10
173.6948142296
 20
134.5798951202
 11
173.6948142296
 21
128.0798951202
  0
LINE
  5
319
100
AcDbEntity
  8
0
100
AcDbLine
 62
7
  6
CONTINUOUS
 10
173.9645638838
 20
134.5798951202
 11
173.9645638838
 21
128.0798951202
  0
LINE
  5
31A
100
AcDbEntity
  8
0
100
AcDbLine
 62
7
  6
CONTINUOUS
 10
174.2767773916
 20
133.8884058409
 11
174.2767773916
 21
131.8139376157
  0
LINE
  5
31B
100
AcDbEntity
  8
0
100
AcDbLine
 62
7
  6
CONTINUOUS
 10
174.2767773916
 20
130.9841504806
 11
174.2767773916
 21
128.0798951202
  0
LINE
  5
31C
100
AcDbEntity
  8
0
100
AcDbLine
 62
7
  6
CONTINUOUS
 10
174.5081557947
 20
123.5586187058
 11
174.5081557947
 21
123.1437247508
  0
LINE
  5
31D
100
AcDbEntity
  8
0
100
AcDbLine
 62
7
  6
CONTINUOUS
 10
174.7693417447
 20
123.5586187058
 11
174.7693417447
 21
123.1437247508
  0
LINE
  5
31E
100
AcDbEntity
  8
0
100
AcDbLine
 62
7
  6
CONTINUOUS
 10
174.9999210008
 20
123.5586187058
 11
174.9999210008
 21
123.005426895
  0
LINE
  5
31F
100
AcDbEntity
  8
0
100
AcDbLine
 62
7
  6
CONTINUOUS
 10
175.0087189211
 20
121.6224483364
 11
175.0087189211
 21
120.9309588634
  0
LINE
  5
320
100
AcDbEntity
  8
0
100
AcDbLine
 62
7
  6
CONTINUOUS
 10
175.0110585021
 20
133.0586187058
 11
175.0110585021
 21
132.6437247508
  0
LINE
  5
321
100
AcDbEntity
  8
0
100
AcDbLine
 62
7
  6
CONTINUOUS
 10
175.2648982382
 20
121.6224483364
 11
175.2648982382
 21
120.9309588634
  0
LINE
  5
322
100
AcDbEntity
  8
0
100
AcDbLine
 62
7
  6
CONTINUOUS
 10
175.2672148671
 20
133.0586187058
 11
175.2672148671
 21
132.6437247508
  0
LINE
  5
323
100
AcDbEntity
  8
0
100
AcDbLine
 62
7
  6
CONTINUOUS
 10
175.384373342
 20
134.5798951202
 11
175.384373342
 21
133.6395048976
  0
LINE
  5
324
100
AcDbEntity
  8
0
100
AcDbLine
 62
7
  6
CONTINUOUS
 10
175.384373342
 20
131.9245407032
 11
175.384373342
 21
130.2926610076
  0
LINE
  5
325
100
AcDbEntity
  8
0
100
AcDbLine
 62
7
  6
CONTINUOUS
 10
175.4345675497
 20
133.0586187058
 11
175.4345675497
 21
132.505426895
  0
LINE
  5
326
100
AcDbEntity
  8
0
100
AcDbLine
 62
7
  6
CONTINUOUS
 10
175.5021289176
 20
119.2713844963
 11
175.5021289176
 21
118.5798951202
  0
LINE
  5
327
100
AcDbEntity
  8
0
100
AcDbLine
 62
7
  6
CONTINUOUS
 10
175.6157443051
 20
121.6224483364
 11
175.6157443051
 21
120.9309588634
  0
LINE
  5
328
100
AcDbEntity
  8
0
100
AcDbLine
 62
7
  6
CONTINUOUS
 10
175.6369190564
 20
134.5798951202
 11
175.6369190564
 21
130.2926610076
  0
LINE
  5
329
100
AcDbEntity
  8
0
100
AcDbLine
 62
7
  6
CONTINUOUS
 10
175.654031846
 20
140.0798951202
 11
175.654031846
 21
134.5798951202
  0
LINE
  5
32A
100
AcDbEntity
  8
0
100
AcDbLine
 62
7
  6
CONTINUOUS
 10
175.654031846
 20
128.0798951202
 11
175.654031846
 21
125.0798951202
  0
LINE
  5
32B
100
AcDbEntity
  8
0
100
AcDbLine
 62
7
  6
CONTINUOUS
 10
175.654031846
 20
123.5586187058
 11
175.654031846
 21
121.8549292627
  0
LINE
  5
32C
100
AcDbEntity
  8
0
100
AcDbLine
 62
7
  6
CONTINUOUS
 10
175.654031846
 20
118.5798951202
 11
175.654031846
 21
115.1798951202
  0
LINE
  5
32D
100
AcDbEntity
  8
0
100
AcDbLine
 62
7
  6
CONTINUOUS
 10
175.739944759
 20
134.5798951202
 11
175.739944759
 21
130.2926610076
  0
LINE
  5
32E
100
AcDbEntity
  8
0
100
AcDbLine
 62
7
  6
CONTINUOUS
 10
175.7535566406
 20
119.2713844963
 11
175.7535566406
 21
118.5798951202
  0
LINE
  5
32F
100
AcDbEntity
  8
0
100
AcDbLine
 62
7
  6
CONTINUOUS
 10
123.245632155
 20
202.254575957
 11
122.8289654387
 21
202.148192991
  0
LINE
  5
330
100
AcDbEntity
  8
0
100
AcDbLine
 62
7
  6
CONTINUOUS
 10
122.8289654387
 20
201.5098951202
 11
123.3497987223
 21
201.6162780956
  0
LINE
  5
331
100
AcDbEntity
  8
0
100
AcDbLine
 62
7
  6
CONTINUOUS
 10
124.495632155
 20
206.5098951202
 11
123.870632155
 21
206.5098951202
  0
LINE
  5
332
100
AcDbEntity
  8
0
100
AcDbLine
 62
7
  6
CONTINUOUS
 10
121.370632155
 20
206.5098951202
 11
120.745632155
 21
206.5098951202
  0
LINE
  5
333
100
AcDbEntity
  8
0
100
AcDbLine
 62
7
  6
CONTINUOUS
 10
120.745632155
 20
208.5098951202
 11
121.370632155
 21
208.5098951202
  0
LINE
  5
334
100
AcDbEntity
  8
0
100
AcDbLine
 62
7
  6
CONTINUOUS
 10
123.9747987223
 20
208.5098951202
 11
124.7039655877
 21
208.5098951202
  0
LINE
  5
335
100
AcDbEntity
  8
0
100
AcDbLine
 62
7
  6
CONTINUOUS
 10
123.7664655877
 20
213.4035121542
 11
123.245632155
 21
213.5098951202
  0
LINE
  5
336
100
AcDbEntity
  8
0
100
AcDbLine
 62
7
  6
CONTINUOUS
 10
131.8224364966
 20
243.6425796735
 11
134.5026627476
 21
240.0278338673
  0
LINE
  5
337
100
AcDbEntity
  8
0
100
AcDbLine
 62
7
  6
CONTINUOUS
 10
134.9545059733
 20
240.3628621487
 11
133.756958057
 21
241.9779613616
  0
LINE
  5
338
100
AcDbEntity
  8
0
100
AcDbLine
 62
7
  6
CONTINUOUS
 10
133.4148015551
 20
242.439418218
 11
132.5594101406
 21
243.5930605745
  0
LINE
  5
339
100
AcDbEntity
  8
0
100
AcDbLine
 62
7
  6
CONTINUOUS
 10
134.7842466781
 20
244.5275548373
 11
134.9553250888
 21
244.2968261936
  0
LINE
  5
33A
100
AcDbEntity
  8
0
100
AcDbLine
 62
7
  6
CONTINUOUS
 10
135.4641943982
 20
244.5549449989
 11
135.2360899038
 21
244.8625831186
  0
LINE
  5
33B
100
AcDbEntity
  8
0
100
AcDbLine
 62
7
  6
CONTINUOUS
 10
163.9492121882
 20
242.3194179851
 11
163.9902218555
 21
242.0545739633
  0
LINE
  5
33C
100
AcDbEntity
  8
0
100
AcDbLine
 62
7
  6
CONTINUOUS
 10
165.0637735038
 20
243.8765213186
 11
165.1047831711
 21
243.6116772969
  0
LINE
  5
33D
100
AcDbEntity
  8
0
100
AcDbLine
 62
7
  6
CONTINUOUS
 10
175.8757767474
 20
123.2820226067
 11
175.8757767474
 21
123.5586187058
  0
LINE
  5
33E
100
AcDbEntity
  8
0
100
AcDbLine
 62
7
  6
CONTINUOUS
 10
175.9024417129
 20
134.5798951202
 11
175.9024417129
 21
130.2926610076
  0
LINE
  5
33F
100
AcDbEntity
  8
0
100
AcDbLine
 62
7
  6
CONTINUOUS
 10
175.904031846
 20
129.047980208
 11
175.904031846
 21
128.4150014505
  0
LINE
  5
340
100
AcDbEntity
  8
0
100
AcDbLine
 62
7
  6
CONTINUOUS
 10
175.904031846
 20
125.0798951202
 11
175.904031846
 21
124.3884058409
  0
LINE
  5
341
100
AcDbEntity
  8
0
100
AcDbLine
 62
7
  6
CONTINUOUS
 10
175.904031846
 20
119.2713844963
 11
175.904031846
 21
118.5798951202
  0
LINE
  5
342
100
AcDbEntity
  8
0
100
AcDbLine
 62
7
  6
CONTINUOUS
 10
121.370632155
 20
210.7439377051
 11
123.1414654387
 21
210.7439377051
  0
LINE
  5
343
100
AcDbEntity
  8
0
100
AcDbLine
 62
7
  6
CONTINUOUS
 10
123.3497987223
 20
211.3822355013
 11
121.370632155
 21
211.3822355013
  0
LINE
  5
344
100
AcDbEntity
  8
0
100
AcDbLine
 62
7
  6
CONTINUOUS
 10
121.370632155
 20
212.97798029
 11
123.3497987223
 21
212.97798029
  0
LINE
  5
345
100
AcDbEntity
  8
0
100
AcDbLine
 62
7
  6
CONTINUOUS
 10
123.245632155
 20
213.5098951202
 11
120.745632155
 21
213.5098951202
  0
LINE
  5
346
100
AcDbEntity
  8
0
100
AcDbLine
 62
7
  6
CONTINUOUS
 10
152.4048504027
 20
246.0245202229
 11
152.6016423017
 21
245.5920306805
  0
LINE
  5
347
100
AcDbEntity
  8
0
100
AcDbLine
 62
7
  6
CONTINUOUS
 10
155.065323027
 20
246.8369482855
 11
155.1899762367
 21
246.5173846226
  0
LINE
  5
348
100
AcDbEntity
  8
KONSTRUKTIONSELEMENTE
100
AcDbLine
 62
7
  6
CONTINUOUS
 10
118.5260820897
 20
218.1798951202
 11
128.8815795854
 21
218.1798951202
  0
LINE
  5
349
100
AcDbEntity
  8
KONSTRUKTIONSELEMENTE
100
AcDbLine
 62
7
  6
CONTINUOUS
 10
169.4264841066
 20
218.1798951202
 11
179.7819816023
 21
218.1798951202
  0
LINE
  5
34A
100
AcDbEntity
  8
0
100
AcDbLine
 62
7
  6
CONTINUOUS
 10
138.8541841581
 20
247.0705992524
 11
139.0632106813
 21
246.8524241297
  0
LINE
  5
34B
100
AcDbEntity
  8
0
100
AcDbLine
 62
7
  6
CONTINUOUS
 10
155.615883496
 20
246.7216685389
 11
155.4190915902
 21
247.1541580486
  0
LINE
  5
34C
100
AcDbEntity
  8
0
100
AcDbLine
 62
7
  6
CONTINUOUS
 10
165.6121230083
 20
243.8372518859
 11
165.4743756156
 21
244.2890847737
  0
LINE
  5
34D
100
AcDbEntity
  8
0
100
AcDbLine
 62
7
  6
CONTINUOUS
 10
134.5378612946
 20
244.7024452718
 11
134.7842466781
 21
244.5275548373
  0
LINE
  5
34E
100
AcDbEntity
  8
0
100
AcDbLine
 62
7
  6
CONTINUOUS
 10
139.570079079
 20
247.0963312378
 11
139.3610525559
 21
247.3145063606
  0
LINE
  5
34F
100
AcDbEntity
  8
0
100
AcDbLine
 62
7
  6
CONTINUOUS
 10
148.5590663533
 20
249.1840327649
 11
148.7631570292
 21
248.9083395375
  0
LINE
  5
350
100
AcDbEntity
  8
0
100
AcDbLine
 62
7
  6
CONTINUOUS
 10
157.0919235554
 20
244.3867222311
 11
157.2858902372
 21
244.1071749862
  0
LINE
  5
351
100
AcDbEntity
  8
0
100
AcDbLine
 62
7
  6
CONTINUOUS
 10
157.7389090748
 20
244.2409766067
 11
157.544942387
 21
244.5205238359
  0
LINE
  5
352
100
AcDbEntity
  8
0
100
AcDbLine
 62
7
  6
CONTINUOUS
 10
164.4975616927
 20
242.2801485524
 11
164.4008239674
 21
242.4671374184
  0
LINE
  5
353
100
AcDbEntity
  8
0
100
AcDbLine
 62
7
  6
CONTINUOUS
 10
135.2360899038
 20
244.8625831186
 11
134.9897045204
 21
245.0374735532
  0
LINE
  5
354
100
AcDbEntity
  8
0
100
AcDbLine
 62
7
  6
CONTINUOUS
 10
153.1914469419
 20
245.6641757849
 11
152.9554108717
 21
245.9092404764
  0
LINE
  5
355
100
AcDbEntity
  8
0
100
AcDbLine
 62
7
  6
CONTINUOUS
 10
163.7762406988
 20
242.5609743307
 11
163.9492121882
 21
242.3194179851
  0
LINE
  5
356
100
AcDbEntity
  8
0
100
AcDbLine
 62
7
  6
CONTINUOUS
 10
139.3610525559
 20
247.3145063606
 11
138.9415539627
 21
247.5376546532
  0
LINE
  5
357
100
AcDbEntity
  8
0
100
AcDbLine
 62
7
  6
CONTINUOUS
 10
157.2858902372
 20
244.1071749862
 11
157.5141620812
 21
243.9170156553
  0
LINE
  5
358
100
AcDbEntity
  8
0
100
AcDbLine
 62
7
  6
CONTINUOUS
 10
149.2085394749
 20
249.3182590936
 11
148.8116352898
 21
249.6784885648
  0
LINE
  5
359
100
AcDbEntity
  8
0
100
AcDbLine
 62
7
  6
CONTINUOUS
 10
152.6016423017
 20
245.5920306805
 11
153.001577841
 21
245.21482668
  0
LINE
  5
35A
100
AcDbEntity
  8
0
100
AcDbLine
 62
7
  6
CONTINUOUS
 10
155.4190915902
 20
247.1541580486
 11
155.0191560457
 21
247.5313620244
  0
LINE
  5
35B
100
AcDbEntity
  8
0
100
AcDbLine
 62
7
  6
CONTINUOUS
 10
154.8292869568
 20
247.0820129769
 11
155.065323027
 21
246.8369482855
  0
LINE
  5
35C
100
AcDbEntity
  8
0
100
AcDbLine
 62
7
  6
CONTINUOUS
 10
164.8908020144
 20
244.1180776642
 11
165.0637735038
 21
243.8765213186
  0
LINE
  5
35D
100
AcDbEntity
  8
0
100
AcDbLine
 62
7
  6
CONTINUOUS
 10
163.4886692557
 20
241.3538774523
 11
163.2247473175
 21
241.3073007965
  0
LINE
  5
35E
100
AcDbEntity
  8
0
100
AcDbLine
 62
7
  6
CONTINUOUS
 10
164.6589585512
 20
242.9888358326
 11
164.395036652
 21
242.9422592313
  0
LINE
  5
35F
100
AcDbEntity
  8
0
100
AcDbLine
 62
7
  6
CONTINUOUS
 10
162.9666126996
 20
240.7856023345
 11
163.4387284547
 21
240.8009004019
  0
LINE
  5
360
100
AcDbEntity
  8
0
100
AcDbLine
 62
7
  6
CONTINUOUS
 10
134.9897045204
 20
245.0374735532
 11
134.5356785729
 21
245.1775973168
  0
LINE
  5
361
100
AcDbEntity
  8
0
100
AcDbLine
 62
7
  6
CONTINUOUS
 10
138.6021959896
 20
247.1618478839
 11
138.8541841581
 21
247.0705992524
  0
LINE
  5
362
100
AcDbEntity
  8
0
100
AcDbLine
 62
7
  6
CONTINUOUS
 10
157.5141620812
 20
243.9170156553
 11
158.005010931
 21
243.6260849077
  0
LINE
  5
363
100
AcDbEntity
  8
0
100
AcDbLine
 62
7
  6
CONTINUOUS
 10
148.2670273333
 20
249.358626408
 11
148.5590663533
 21
249.1840327649
  0
LINE
  5
364
100
AcDbEntity
  8
0
100
AcDbLine
 62
7
  6
CONTINUOUS
 10
158.1422315793
 20
243.9836365641
 11
157.7389090748
 21
244.2409766067
  0
LINE
  5
365
100
AcDbEntity
  8
0
100
AcDbLine
 62
7
  6
CONTINUOUS
 10
160.7001211825
 20
242.2901928394
 11
162.5297175612
 21
240.9805833209
  0
LINE
  5
366
100
AcDbEntity
  8
0
100
AcDbLine
 62
7
  6
CONTINUOUS
 10
162.9403197122
 20
241.3931468305
 11
161.491888664
 21
242.4299214489
  0
LINE
  5
367
100
AcDbEntity
  8
0
100
AcDbLine
 62
7
  6
CONTINUOUS
 10
162.3278096507
 20
243.5977489491
 11
163.7762406988
 21
242.5609743307
  0
LINE
  5
368
100
AcDbEntity
  8
0
100
AcDbLine
 62
7
  6
CONTINUOUS
 10
164.1106090467
 20
243.0281052653
 11
162.6621779985
 21
244.0648798837
  0
LINE
  5
369
100
AcDbEntity
  8
0
100
AcDbLine
 62
7
  6
CONTINUOUS
 10
165.4743756156
 20
244.2890847737
 11
165.1489365982
 21
244.6397760784
  0
LINE
  5
36A
100
AcDbEntity
  8
0
100
AcDbLine
 62
7
  6
CONTINUOUS
 10
146.1585275292
 20
245.3018798896
 11
149.5276697684
 21
245.5006399768
  0
LINE
  5
36B
100
AcDbEntity
  8
0
100
AcDbLine
 62
7
  6
CONTINUOUS
 10
149.4994768476
 20
245.978532503
 11
146.8790332408
 21
245.8239413451
  0
LINE
  5
36C
100
AcDbEntity
  8
0
100
AcDbLine
 62
7
  6
CONTINUOUS
 10
154.4760894364
 20
245.3951894165
 11
154.0894263415
 21
245.3783303183
  0
LINE
  5
36D
100
AcDbEntity
  8
0
100
AcDbLine
 62
7
  6
CONTINUOUS
 10
153.9913159168
 20
244.9097682073
 11
154.4697376915
 21
244.9074143157
  0
LINE
  5
36E
100
AcDbEntity
  8
0
100
AcDbLine
 62
7
  6
CONTINUOUS
 10
134.5356785729
 20
245.1775973168
 11
134.0633715766
 21
245.1849736107
  0
LINE
  5
36F
100
AcDbEntity
  8
0
100
AcDbLine
 62
7
  6
CONTINUOUS
 10
150.2372063966
 20
244.8447205891
 11
150.704667255
 21
244.8099896544
  0
LINE
  5
370
100
AcDbEntity
  8
0
100
AcDbLine
 62
7
  6
CONTINUOUS
 10
151.3436560903
 20
245.8186090359
 11
150.876194162
 21
245.8533400501
  0
LINE
  5
371
100
AcDbEntity
  8
0
100
AcDbLine
 62
7
  6
CONTINUOUS
 10
164.4008239674
 20
242.4671374184
 11
164.6090178087
 21
242.4358588639
  0
LINE
  5
372
100
AcDbEntity
  8
0
100
AcDbLine
 62
7
  6
CONTINUOUS
 10
134.2731946469
 20
244.7445880769
 11
134.5378612946
 21
244.7024452718
  0
LINE
  5
373
100
AcDbEntity
  8
0
100
AcDbLine
 62
7
  6
CONTINUOUS
 10
138.9415539627
 20
247.5376546532
 11
138.4790932408
 21
247.6338762219
  0
LINE
  5
374
100
AcDbEntity
  8
0
100
AcDbLine
 62
7
  6
CONTINUOUS
 10
153.4407554478
 20
245.0250479538
 11
153.9913159168
 21
244.9097682073
  0
LINE
  5
375
100
AcDbEntity
  8
0
100
AcDbLine
 62
7
  6
CONTINUOUS
 10
154.0894263415
 20
245.3783303183
 11
153.5388658725
 21
245.4936100649
  0
LINE
  5
376
100
AcDbEntity
  8
0
100
AcDbLine
 62
7
  6
CONTINUOUS
 10
152.8503797579
 20
246.3225166139
 11
152.2998192889
 21
246.4377963605
  0
LINE
  5
377
100
AcDbEntity
  8
0
100
AcDbLine
 62
7
  6
CONTINUOUS
 10
163.2247473175
 20
241.3073007965
 11
162.9403197122
 21
241.3931468305
  0
LINE
  5
378
100
AcDbEntity
  8
0
100
AcDbLine
 62
7
  6
CONTINUOUS
 10
164.395036652
 20
242.9422592313
 11
164.1106090467
 21
243.0281052653
  0
LINE
  5
379
100
AcDbEntity
  8
0
100
AcDbLine
 62
7
  6
CONTINUOUS
 10
157.0399901025
 20
246.8679371795
 11
157.7401967873
 21
246.599212889
  0
LINE
  5
37A
100
AcDbEntity
  8
0
100
AcDbLine
 62
7
  6
CONTINUOUS
 10
158.1778244628
 20
246.431260784
 11
159.1406061503
 21
246.0617658455
  0
LINE
  5
37B
100
AcDbEntity
  8
0
100
AcDbLine
 62
7
  6
CONTINUOUS
 10
159.2778267865
 20
246.4193174706
 11
158.3150450991
 21
246.7888124091
  0
LINE
  5
37C
100
AcDbEntity
  8
0
100
AcDbLine
 62
7
  6
CONTINUOUS
 10
157.8774174235
 20
246.9567645141
 11
157.1772107387
 21
247.2254888046
  0
LINE
  5
37D
100
AcDbEntity
  8
0
100
AcDbLine
 62
7
  6
CONTINUOUS
 10
153.001577841
 20
245.21482668
 11
153.4407554478
 21
245.0250479538
  0
LINE
  5
37E
100
AcDbEntity
  8
0
100
AcDbLine
 62
7
  6
CONTINUOUS
 10
155.0191560457
 20
247.5313620244
 11
154.5799784372
 21
247.7211407424
  0
LINE
  5
37F
100
AcDbEntity
  8
0
100
AcDbLine
 62
7
  6
CONTINUOUS
 10
148.8116352898
 20
249.6784885648
 11
148.4260093424
 21
249.8475611154
  0
LINE
  5
380
100
AcDbEntity
  8
0
100
AcDbLine
 62
7
  6
CONTINUOUS
 10
162.5297175612
 20
240.9805833209
 11
162.9666126996
 21
240.7856023345
  0
LINE
  5
381
100
AcDbEntity
  8
0
100
AcDbLine
 62
7
  6
CONTINUOUS
 10
153.5388658725
 20
245.4936100649
 11
153.1914469419
 21
245.6641757849
  0
LINE
  5
382
100
AcDbEntity
  8
0
100
AcDbLine
 62
7
  6
CONTINUOUS
 10
154.4818680263
 20
247.252578697
 11
154.8292869568
 21
247.0820129769
  0
LINE
  5
383
100
AcDbEntity
  8
0
100
AcDbLine
 62
7
  6
CONTINUOUS
 10
159.6100780305
 20
244.6691889101
 11
160.7728060361
 21
244.0603227857
  0
LINE
  5
384
100
AcDbEntity
  8
0
100
AcDbLine
 62
7
  6
CONTINUOUS
 10
160.9948850224
 20
244.4844184063
 11
159.8321570168
 21
245.0932845307
  0
LINE
  5
385
100
AcDbEntity
  8
0
100
AcDbLine
 62
7
  6
CONTINUOUS
 10
163.4423709662
 20
245.1548522827
 11
164.8908020144
 21
244.1180776642
  0
LINE
  5
386
100
AcDbEntity
  8
0
100
AcDbLine
 62
7
  6
CONTINUOUS
 10
165.1489365982
 20
244.6397760784
 11
163.3193402194
 21
245.9493855969
  0
LINE
  5
387
100
AcDbEntity
  8
0
100
AcDbLine
 62
7
  6
CONTINUOUS
 10
173.5562827681
 20
112.6798951202
 11
175.654031846
 21
115.1798951202
  0
LINE
  5
388
100
AcDbEntity
  8
0
100
AcDbLine
 62
7
  6
CONTINUOUS
 10
146.9568060654
 20
249.2813308607
 11
147.4191031902
 21
249.4045148781
  0
LINE
  5
389
100
AcDbEntity
  8
0
100
AcDbLine
 62
7
  6
CONTINUOUS
 10
138.4790932408
 20
247.6338762219
 11
138.0151869719
 21
247.5168958376
  0
LINE
  5
38A
100
AcDbEntity
  8
0
100
AcDbLine
 62
7
  6
CONTINUOUS
 10
147.4844982718
 20
249.887928493
 11
146.8350251502
 21
249.7537021643
  0
LINE
  5
38B
100
AcDbEntity
  8
0
100
AcDbLine
 62
7
  6
CONTINUOUS
 10
138.3072456922
 20
247.1261697915
 11
138.6021959896
 21
247.1618478839
  0
LINE
  5
38C
100
AcDbEntity
  8
0
100
AcDbLine
 62
7
  6
CONTINUOUS
 10
146.049125424
 20
248.748227224
 11
146.5170622031
 21
248.7758328127
  0
LINE
  5
38D
100
AcDbEntity
  8
0
100
AcDbLine
 62
7
  6
CONTINUOUS
 10
147.4191031902
 20
249.4045148781
 11
147.7934530419
 21
249.4265993743
  0
LINE
  5
38E
100
AcDbEntity
  8
0
100
AcDbLine
 62
7
  6
CONTINUOUS
 10
147.8588470525
 20
249.910012926
 11
147.4844982718
 21
249.887928493
  0
LINE
  5
38F
100
AcDbEntity
  8
0
100
AcDbLine
 62
7
  6
CONTINUOUS
 10
153.5446444623
 20
247.3509993454
 11
153.9313075573
 21
247.3678584435
  0
LINE
  5
390
100
AcDbEntity
  8
0
100
AcDbLine
 62
7
  6
CONTINUOUS
 10
154.0294179681
 20
247.8364204889
 11
153.5509961952
 21
247.8387743887
  0
LINE
  5
391
100
AcDbEntity
  8
0
100
AcDbLine
 62
7
  6
CONTINUOUS
 10
148.4260093424
 20
249.8475611154
 11
147.8588470525
 21
249.910012926
  0
LINE
  5
392
100
AcDbEntity
  8
0
100
AcDbLine
 62
7
  6
CONTINUOUS
 10
147.7934530419
 20
249.4265993743
 11
148.2670273333
 21
249.358626408
  0
LINE
  5
393
100
AcDbEntity
  8
0
100
AcDbLine
 62
7
  6
CONTINUOUS
 10
152.476418056
 20
247.2812081735
 11
153.1187393033
 21
247.1467149893
  0
LINE
  5
394
100
AcDbEntity
  8
0
100
AcDbLine
 62
7
  6
CONTINUOUS
 10
153.9313075573
 20
247.3678584435
 11
154.4818680263
 21
247.252578697
  0
LINE
  5
395
100
AcDbEntity
  8
0
100
AcDbLine
 62
7
  6
CONTINUOUS
 10
154.5799784372
 20
247.7211407424
 11
154.0294179681
 21
247.8364204889
  0
LINE
  5
396
100
AcDbEntity
  8
0
100
AcDbLine
 62
7
  6
CONTINUOUS
 10
153.3472815275
 20
249.153102718
 11
156.0083251945
 21
248.5959169832
  0
LINE
  5
397
100
AcDbEntity
  8
0
100
AcDbLine
 62
7
  6
CONTINUOUS
 10
156.1064356054
 20
249.0644790286
 11
152.9865922476
 21
249.7177310723
  0
LINE
  5
398
100
AcDbEntity
  8
0
100
AcDbLine
 62
7
  6
CONTINUOUS
 10
158.5894864676
 20
247.5039159097
 11
158.1518587921
 21
247.6718680146
  0
LINE
  5
399
100
AcDbEntity
  8
0
100
AcDbLine
 62
7
  6
CONTINUOUS
 10
216.2365114681
 20
112.6798951202
 11
265.0410133122
 21
112.6798951202
  0
LINE
  5
39A
100
AcDbEntity
  8
0
100
AcDbLine
 62
7
  6
CONTINUOUS
 10
267.1387623902
 20
115.1798951202
 11
214.1387623902
 21
115.1798951202
  0
LINE
  5
39B
100
AcDbEntity
  8
0
100
AcDbLine
 62
7
  6
CONTINUOUS
 10
216.2365114681
 20
112.6798951202
 11
214.1387623902
 21
115.1798951202
  0
LINE
  5
39C
100
AcDbEntity
  8
RUNDUNGEN
100
AcDbLine
 62
7
  6
CONTINUOUS
 10
257.0630033522
 20
142.5798951202
 11
224.2145165813
 21
142.5798951202
  0
LINE
  5
39D
100
AcDbEntity
  8
0
100
AcDbLine
 62
7
  6
CONTINUOUS
 10
226.2787623902
 20
153.3798951202
 11
222.2787623902
 21
154.7132283741
  0
LINE
  5
39E
100
AcDbEntity
  8
0
100
AcDbLine
 62
7
  6
CONTINUOUS
 10
222.2787623902
 20
154.2132283741
 11
225.7681240936
 21
153.0465617471
  0
LINE
  5
39F
100
AcDbEntity
  8
0
100
AcDbLine
 62
7
  6
CONTINUOUS
 10
214.1387623902
 20
157.2760475429
 11
214.1387623902
 21
115.1798951202
  0
LINE
  5
3A0
100
AcDbEntity
  8
0
100
AcDbLine
 62
7
  6
CONTINUOUS
 10
222.2787623902
 20
155.3798951202
 11
226.2787623902
 21
155.3798951202
  0
LINE
  5
3A1
100
AcDbEntity
  8
0
100
AcDbLine
 62
7
  6
CONTINUOUS
 10
226.2787623902
 20
155.8798951202
 11
222.2787623902
 21
155.8798951202
  0
LINE
  5
3A2
100
AcDbEntity
  8
0
100
AcDbLine
 62
7
  6
CONTINUOUS
 10
222.2787623902
 20
156.5465616279
 11
226.2787623902
 21
156.5465616279
  0
LINE
  5
3A3
100
AcDbEntity
  8
0
100
AcDbLine
 62
7
  6
CONTINUOUS
 10
226.2787623902
 20
157.0465616279
 11
224.4915283223
 21
157.0465616279
  0
LINE
  5
3A4
100
AcDbEntity
  8
0
100
AcDbLine
 62
7
  6
CONTINUOUS
 10
223.9808900853
 20
157.0465616279
 11
222.7042942544
 21
157.0465616279
  0
LINE
  5
3A5
100
AcDbEntity
  8
0
100
AcDbLine
 62
7
  6
CONTINUOUS
 10
223.4702518483
 20
159.1298951202
 11
223.7255709668
 21
159.0465616279
  0
LINE
  5
3A6
100
AcDbEntity
  8
0
100
AcDbLine
 62
7
  6
CONTINUOUS
 10
223.8106773396
 20
159.5465621048
 11
223.5553582211
 21
159.6298951202
  0
LINE
  5
3A7
100
AcDbEntity
  8
0
100
AcDbLine
 62
7
  6
CONTINUOUS
 10
223.3000391026
 20
164.7965621048
 11
223.0447197457
 21
164.9632281356
  0
LINE
  5
3A8
100
AcDbEntity
  8
0
100
AcDbLine
 62
7
  6
CONTINUOUS
 10
224.1511028309
 20
159.2965616279
 11
223.8106773396
 21
159.5465621048
  0
LINE
  5
3A9
100
AcDbEntity
  8
0
100
AcDbLine
 62
7
  6
CONTINUOUS
 10
223.7255709668
 20
159.0465616279
 11
223.8957837124
 21
158.8798951202
  0
LINE
  5
3AA
100
AcDbEntity
  8
0
100
AcDbLine
 62
7
  6
CONTINUOUS
 10
222.6191878815
 20
164.7965621048
 11
222.874507
 21
164.5465621048
  0
LINE
  5
3AB
100
AcDbEntity
  8
0
100
AcDbLine
 62
7
  6
CONTINUOUS
 10
224.4064219494
 20
158.9632286125
 11
224.1511028309
 21
159.2965616279
  0
LINE
  5
3AC
100
AcDbEntity
  8
0
100
AcDbLine
 62
7
  6
CONTINUOUS
 10
223.0447197457
 20
164.9632281356
 11
222.7894006272
 21
165.2965621048
  0
LINE
  5
3AD
100
AcDbEntity
  8
0
100
AcDbLine
 62
7
  6
CONTINUOUS
 10
222.363868763
 20
165.2132281356
 11
222.6191878815
 21
164.7965621048
  0
LINE
  5
3AE
100
AcDbEntity
  8
RUNDUNGEN
100
AcDbLine
 62
7
  6
CONTINUOUS
 10
217.6387623902
 20
165.0798951202
 11
217.6387623902
 21
176.2611352091
  0
LINE
  5
3AF
100
AcDbEntity
  8
0
100
AcDbLine
 62
7
  6
CONTINUOUS
 10
223.2149324914
 20
159.1298951202
 11
223.4702518483
 21
159.1298951202
  0
LINE
  5
3B0
100
AcDbEntity
  8
0
100
AcDbLine
 62
7
  6
CONTINUOUS
 10
260.4548188724
 20
159.489804074
 11
259.6994010872
 21
159.489804074
  0
LINE
  5
3B1
100
AcDbEntity
  8
0
100
AcDbLine
 62
7
  6
CONTINUOUS
 10
256.2352994721
 20
159.489804074
 11
255.4798816869
 21
159.489804074
  0
LINE
  5
3B2
100
AcDbEntity
  8
0
100
AcDbLine
 62
7
  6
CONTINUOUS
 10
223.5553582211
 20
159.6298951202
 11
223.2149324914
 21
159.6298951202
  0
LINE
  5
3B3
100
AcDbEntity
  8
0
100
AcDbLine
 62
7
  6
CONTINUOUS
 10
258.3473502797
 20
163.239804074
 11
257.5919324945
 21
163.239804074
  0
LINE
  5
3B4
100
AcDbEntity
  8
0
100
AcDbLine
 62
7
  6
CONTINUOUS
 10
260.4548188724
 20
163.739804074
 11
259.6994010872
 21
163.739804074
  0
LINE
  5
3B5
100
AcDbEntity
  8
0
100
AcDbLine
 62
7
  6
CONTINUOUS
 10
256.2352994721
 20
163.739804074
 11
255.4798816869
 21
163.739804074
  0
LINE
  5
3B6
100
AcDbEntity
  8
0
100
AcDbLine
 62
7
  6
CONTINUOUS
 10
222.874507
 20
164.5465621048
 11
223.3000391026
 21
164.3798951202
  0
LINE
  5
3B7
100
AcDbEntity
  8
0
100
AcDbLine
 62
7
  6
CONTINUOUS
 10
224.5766346951
 20
164.4632281356
 11
225.0021666785
 21
164.2965621048
  0
LINE
  5
3B8
100
AcDbEntity
  8
0
100
AcDbLine
 62
7
  6
CONTINUOUS
 10
225.6830177208
 20
167.1298951202
 11
225.257485797
 21
167.2965621048
  0
LINE
  5
3B9
100
AcDbEntity
  8
0
100
AcDbLine
 62
7
  6
CONTINUOUS
 10
223.8957837124
 20
167.0465621048
 11
223.5553582211
 21
167.2132281356
  0
LINE
  5
3BA
100
AcDbEntity
  8
0
100
AcDbLine
 62
7
  6
CONTINUOUS
 10
223.4702518483
 20
166.7965621048
 11
223.7255709668
 21
166.6298951202
  0
LINE
  5
3BB
100
AcDbEntity
  8
0
100
AcDbLine
 62
7
  6
CONTINUOUS
 10
225.0021666785
 20
164.7132281356
 11
224.6617410679
 21
164.9632281356
  0
LINE
  5
3BC
100
AcDbEntity
  8
0
100
AcDbLine
 62
7
  6
CONTINUOUS
 10
225.257485797
 20
166.8798951202
 11
225.5979113479
 21
166.6298951202
  0
LINE
  5
3BD
100
AcDbEntity
  8
0
100
AcDbLine
 62
7
  6
CONTINUOUS
 10
224.1511028309
 20
166.7965621048
 11
223.8957837124
 21
167.0465621048
  0
LINE
  5
3BE
100
AcDbEntity
  8
0
100
AcDbLine
 62
7
  6
CONTINUOUS
 10
225.9383368691
 20
166.8798951202
 11
225.6830177208
 21
167.1298951202
  0
LINE
  5
3BF
100
AcDbEntity
  8
0
100
AcDbLine
 62
7
  6
CONTINUOUS
 10
224.3213155766
 20
164.7965621048
 11
224.5766346951
 21
164.4632281356
  0
LINE
  5
3C0
100
AcDbEntity
  8
0
100
AcDbLine
 62
7
  6
CONTINUOUS
 10
223.7255709668
 20
166.6298951202
 11
223.9808900853
 21
166.2965621048
  0
LINE
  5
3C1
100
AcDbEntity
  8
0
100
AcDbLine
 62
7
  6
CONTINUOUS
 10
226.1936560099
 20
166.4632281356
 11
225.9383368691
 21
166.8798951202
  0
LINE
  5
3C2
100
AcDbEntity
  8
0
100
AcDbLine
 62
7
  6
CONTINUOUS
 10
224.2362092038
 20
164.9632281356
 11
224.3213155766
 21
164.7965621048
  0
LINE
  5
3C3
100
AcDbEntity
  8
0
100
AcDbLine
 62
7
  6
CONTINUOUS
 10
224.6617410679
 20
164.9632281356
 11
224.4915283223
 21
165.2965621048
  0
LINE
  5
3C4
100
AcDbEntity
  8
0
100
AcDbLine
 62
7
  6
CONTINUOUS
 10
224.2362092038
 20
166.6298951202
 11
224.1511028309
 21
166.7965621048
  0
LINE
  5
3C5
100
AcDbEntity
  8
0
100
AcDbLine
 62
7
  6
CONTINUOUS
 10
225.5979113479
 20
166.6298951202
 11
225.7681240936
 21
166.2965621048
  0
LINE
  5
3C6
100
AcDbEntity
  8
0
100
AcDbLine
 62
7
  6
CONTINUOUS
 10
223.8957837124
 20
158.8798951202
 11
223.9808900853
 21
158.6298951202
  0
LINE
  5
3C7
100
AcDbEntity
  8
0
100
AcDbLine
 62
7
  6
CONTINUOUS
 10
222.7894006272
 20
165.2965621048
 11
222.7042942544
 21
165.6298951202
  0
LINE
  5
3C8
100
AcDbEntity
  8
0
100
AcDbLine
 62
7
  6
CONTINUOUS
 10
223.9808900853
 20
166.2965621048
 11
224.0659964581
 21
165.9632281356
  0
LINE
  5
3C9
100
AcDbEntity
  8
0
100
AcDbLine
 62
7
  6
CONTINUOUS
 10
224.4915283223
 20
165.2965621048
 11
224.4064219494
 21
165.6298951202
  0
LINE
  5
3CA
100
AcDbEntity
  8
0
100
AcDbLine
 62
7
  6
CONTINUOUS
 10
222.2787623902
 20
165.6298951202
 11
222.363868763
 21
165.2132281356
  0
LINE
  5
3CB
100
AcDbEntity
  8
0
100
AcDbLine
 62
7
  6
CONTINUOUS
 10
224.4915283223
 20
158.5465616279
 11
224.4064219494
 21
158.9632286125
  0
LINE
  5
3CC
100
AcDbEntity
  8
0
100
AcDbLine
 62
7
  6
CONTINUOUS
 10
222.2787623902
 20
165.9632281356
 11
222.2787623902
 21
165.6298951202
  0
LINE
  5
3CD
100
AcDbEntity
  8
0
100
AcDbLine
 62
7
  6
CONTINUOUS
 10
222.2787623902
 20
158.5465616279
 11
222.2787623902
 21
156.5465616279
  0
LINE
  5
3CE
100
AcDbEntity
  8
0
100
AcDbLine
 62
7
  6
CONTINUOUS
 10
222.2787623902
 20
155.8798951202
 11
222.2787623902
 21
155.3798951202
  0
LINE
  5
3CF
100
AcDbEntity
  8
0
100
AcDbLine
 62
7
  6
CONTINUOUS
 10
222.2787623902
 20
154.7132283741
 11
222.2787623902
 21
154.2132283741
  0
LINE
  5
3D0
100
AcDbEntity
  8
0
100
AcDbLine
 62
7
  6
CONTINUOUS
 10
222.2787623902
 20
151.8798951202
 11
222.2787623902
 21
151.3798951202
  0
LINE
  5
3D1
100
AcDbEntity
  8
0
100
AcDbLine
 62
7
  6
CONTINUOUS
 10
222.7042942544
 20
157.0465616279
 11
222.7042942544
 21
158.6298951202
  0
LINE
  5
3D2
100
AcDbEntity
  8
0
100
AcDbLine
 62
7
  6
CONTINUOUS
 10
222.7042942544
 20
165.6298951202
 11
222.7042942544
 21
165.9632281356
  0
LINE
  5
3D3
100
AcDbEntity
  8
0
100
AcDbLine
 62
7
  6
CONTINUOUS
 10
223.9808900853
 20
158.6298951202
 11
223.9808900853
 21
157.0465616279
  0
LINE
  5
3D4
100
AcDbEntity
  8
0
100
AcDbLine
 62
7
  6
CONTINUOUS
 10
224.0659964581
 20
165.9632281356
 11
224.0659964581
 21
165.6298951202
  0
LINE
  5
3D5
100
AcDbEntity
  8
0
100
AcDbLine
 62
7
  6
CONTINUOUS
 10
224.4064219494
 20
165.6298951202
 11
224.4064219494
 21
165.9632281356
  0
LINE
  5
3D6
100
AcDbEntity
  8
0
100
AcDbLine
 62
7
  6
CONTINUOUS
 10
224.4915283223
 20
157.0465616279
 11
224.4915283223
 21
158.5465616279
  0
LINE
  5
3D7
100
AcDbEntity
  8
0
100
AcDbLine
 62
7
  6
CONTINUOUS
 10
225.8532304664
 20
165.9632281356
 11
225.8532304664
 21
165.6298951202
  0
LINE
  5
3D8
100
AcDbEntity
  8
0
100
AcDbLine
 62
7
  6
CONTINUOUS
 10
222.363868763
 20
166.3798951202
 11
222.2787623902
 21
165.9632281356
  0
LINE
  5
3D9
100
AcDbEntity
  8
0
100
AcDbLine
 62
7
  6
CONTINUOUS
 10
225.0021666785
 20
164.2965621048
 11
225.257485797
 21
164.2965621048
  0
LINE
  5
3DA
100
AcDbEntity
  8
0
100
AcDbLine
 62
7
  6
CONTINUOUS
 10
223.3000391026
 20
164.3798951202
 11
223.5553582211
 21
164.3798951202
  0
LINE
  5
3DB
100
AcDbEntity
  8
0
100
AcDbLine
 62
7
  6
CONTINUOUS
 10
225.257485797
 20
164.7132281356
 11
225.0021666785
 21
164.7132281356
  0
LINE
  5
3DC
100
AcDbEntity
  8
0
100
AcDbLine
 62
7
  6
CONTINUOUS
 10
223.4702518483
 20
164.7965621048
 11
223.3000391026
 21
164.7965621048
  0
LINE
  5
3DD
100
AcDbEntity
  8
0
100
AcDbLine
 62
7
  6
CONTINUOUS
 10
223.3000391026
 20
166.7965621048
 11
223.4702518483
 21
166.7965621048
  0
LINE
  5
3DE
100
AcDbEntity
  8
0
100
AcDbLine
 62
7
  6
CONTINUOUS
 10
225.0021666785
 20
166.8798951202
 11
225.257485797
 21
166.8798951202
  0
LINE
  5
3DF
100
AcDbEntity
  8
0
100
AcDbLine
 62
7
  6
CONTINUOUS
 10
223.5553582211
 20
167.2132281356
 11
223.3000391026
 21
167.2132281356
  0
LINE
  5
3E0
100
AcDbEntity
  8
0
100
AcDbLine
 62
7
  6
CONTINUOUS
 10
225.257485797
 20
167.2965621048
 11
225.0021666785
 21
167.2965621048
  0
LINE
  5
3E1
100
AcDbEntity
  8
0
100
AcDbLine
 62
7
  6
CONTINUOUS
 10
225.7681240936
 20
166.2965621048
 11
225.8532304664
 21
165.9632281356
  0
LINE
  5
3E2
100
AcDbEntity
  8
0
100
AcDbLine
 62
7
  6
CONTINUOUS
 10
226.2787623902
 20
166.0465621048
 11
226.1936560099
 21
166.4632281356
  0
LINE
  5
3E3
100
AcDbEntity
  8
0
100
AcDbLine
 62
7
  6
CONTINUOUS
 10
226.2787623902
 20
152.7132284933
 11
226.2787623902
 21
153.3798951202
  0
LINE
  5
3E4
100
AcDbEntity
  8
0
100
AcDbLine
 62
7
  6
CONTINUOUS
 10
226.2787623902
 20
155.3798951202
 11
226.2787623902
 21
155.8798951202
  0
LINE
  5
3E5
100
AcDbEntity
  8
0
100
AcDbLine
 62
7
  6
CONTINUOUS
 10
226.2787623902
 20
156.5465616279
 11
226.2787623902
 21
157.0465616279
  0
LINE
  5
3E6
100
AcDbEntity
  8
0
100
AcDbLine
 62
7
  6
CONTINUOUS
 10
226.2787623902
 20
165.5465621048
 11
226.2787623902
 21
166.0465621048
  0
LINE
  5
3E7
100
AcDbEntity
  8
0
100
AcDbLine
 62
7
  6
CONTINUOUS
 10
222.363868763
 20
158.9632286125
 11
222.2787623902
 21
158.5465616279
  0
LINE
  5
3E8
100
AcDbEntity
  8
0
100
AcDbLine
 62
7
  6
CONTINUOUS
 10
226.1936560099
 20
165.1298951202
 11
226.2787623902
 21
165.5465621048
  0
LINE
  5
3E9
100
AcDbEntity
  8
0
100
AcDbLine
 62
7
  6
CONTINUOUS
 10
222.7042942544
 20
165.9632281356
 11
222.7894006272
 21
166.2965621048
  0
LINE
  5
3EA
100
AcDbEntity
  8
0
100
AcDbLine
 62
7
  6
CONTINUOUS
 10
224.0659964581
 20
165.6298951202
 11
223.9808900853
 21
165.2965621048
  0
LINE
  5
3EB
100
AcDbEntity
  8
0
100
AcDbLine
 62
7
  6
CONTINUOUS
 10
224.4064219494
 20
165.9632281356
 11
224.4915283223
 21
166.2965621048
  0
LINE
  5
3EC
100
AcDbEntity
  8
0
100
AcDbLine
 62
7
  6
CONTINUOUS
 10
225.8532304664
 20
165.6298951202
 11
225.7681240936
 21
165.2965621048
  0
LINE
  5
3ED
100
AcDbEntity
  8
RUNDUNGEN
100
AcDbLine
 62
7
  6
CONTINUOUS
 10
214.5406861788
 20
158.7760475429
 11
217.1698513034
 21
163.3298951202
  0
LINE
  5
3EE
100
AcDbEntity
  8
RUNDUNGEN
100
AcDbLine
 62
7
  6
CONTINUOUS
 10
221.3895983551
 20
182.18707619
 11
218.5745846177
 21
178.8322734552
  0
LINE
  5
3EF
100
AcDbEntity
  8
KONSTRUKTIONSELEMENTE
100
AcDbLine
 62
7
  6
CONTINUOUS
 10
234.1387623902
 20
247.1221643747
 11
234.1387623902
 21
227.4968846464
  0
LINE
  5
3F0
100
AcDbEntity
  8
KONSTRUKTIONSELEMENTE
100
AcDbLine
 62
7
  6
CONTINUOUS
 10
234.1387623902
 20
178.8634166642
 11
234.1387623902
 21
159.1798951202
  0
LINE
  5
3F1
100
AcDbEntity
  8
KONSTRUKTIONSELEMENTE
100
AcDbLine
 62
7
  6
CONTINUOUS
 10
247.1388570307
 20
227.5103753424
 11
244.6387623902
 21
218.1798951202
  0
LINE
  5
3F2
100
AcDbEntity
  8
KONSTRUKTIONSELEMENTE
100
AcDbLine
 62
7
  6
CONTINUOUS
 10
234.1386680618
 20
178.8494160628
 11
236.6387623902
 21
188.1798951202
  0
LINE
  5
3F3
100
AcDbEntity
  8
0
100
AcDbLine
 62
7
  6
CONTINUOUS
 10
222.7042942544
 20
158.6298951202
 11
222.7894006272
 21
158.8798951202
  0
LINE
  5
3F4
100
AcDbEntity
  8
0
100
AcDbLine
 62
7
  6
CONTINUOUS
 10
224.3213155766
 20
166.7965621048
 11
224.2362092038
 21
166.6298951202
  0
LINE
  5
3F5
100
AcDbEntity
  8
0
100
AcDbLine
 62
7
  6
CONTINUOUS
 10
224.4915283223
 20
166.2965621048
 11
224.6617410679
 21
166.6298951202
  0
LINE
  5
3F6
100
AcDbEntity
  8
0
100
AcDbLine
 62
7
  6
CONTINUOUS
 10
224.1511028309
 20
164.7965621048
 11
224.2362092038
 21
164.9632281356
  0
LINE
  5
3F7
100
AcDbEntity
  8
0
100
AcDbLine
 62
7
  6
CONTINUOUS
 10
225.7681240936
 20
165.2965621048
 11
225.5979113479
 21
164.9632281356
  0
LINE
  5
3F8
100
AcDbEntity
  8
0
100
AcDbLine
 62
7
  6
CONTINUOUS
 10
222.6191878815
 20
166.7965621048
 11
222.363868763
 21
166.3798951202
  0
LINE
  5
3F9
100
AcDbEntity
  8
RUNDUNGEN
100
AcDbLine
 62
7
  6
CONTINUOUS
 10
248.070210645
 20
161.2712011838
 11
247.1387623902
 21
162.3056792725
  0
LINE
  5
3FA
100
AcDbEntity
  8
KONSTRUKTIONSELEMENTE
100
AcDbLine
 62
7
  6
CONTINUOUS
 10
236.6387623902
 20
218.1798951202
 11
236.6387623902
 21
188.1798951202
  0
LINE
  5
3FB
100
AcDbEntity
  8
0
100
AcDbLine
 62
7
  6
CONTINUOUS
 10
225.9383368691
 20
164.7132281356
 11
226.1936560099
 21
165.1298951202
  0
LINE
  5
3FC
100
AcDbEntity
  8
0
100
AcDbLine
 62
7
  6
CONTINUOUS
 10
222.7894006272
 20
166.2965621048
 11
223.0447197457
 21
166.6298951202
  0
LINE
  5
3FD
100
AcDbEntity
  8
0
100
AcDbLine
 62
7
  6
CONTINUOUS
 10
224.5766346951
 20
167.1298951202
 11
224.3213155766
 21
166.7965621048
  0
LINE
  5
3FE
100
AcDbEntity
  8
0
100
AcDbLine
 62
7
  6
CONTINUOUS
 10
223.9808900853
 20
165.2965621048
 11
223.7255709668
 21
164.9632281356
  0
LINE
  5
3FF
100
AcDbEntity
  8
0
100
AcDbLine
 62
7
  6
CONTINUOUS
 10
222.6191878815
 20
159.2965616279
 11
222.363868763
 21
158.9632286125
  0
LINE
  5
400
100
AcDbEntity
  8
0
100
AcDbLine
 62
7
  6
CONTINUOUS
 10
222.874507
 20
167.0465621048
 11
222.6191878815
 21
166.7965621048
  0
LINE
  5
401
100
AcDbEntity
  8
0
100
AcDbLine
 62
7
  6
CONTINUOUS
 10
223.2825273755
 20
183.0798951202
 11
228.8807863739
 21
183.0798951202
  0
LINE
  5
402
100
AcDbEntity
  8
0
100
AcDbLine
 62
7
  6
CONTINUOUS
 10
252.3967384065
 20
183.0798951202
 11
257.9949973868
 21
183.0798951202
  0
LINE
  5
403
100
AcDbEntity
  8
KONSTRUKTIONSELEMENTE
100
AcDbLine
 62
7
  6
CONTINUOUS
 10
244.6387623902
 20
218.1798951202
 11
244.6387623902
 21
188.1798951202
  0
LINE
  5
404
100
AcDbEntity
  8
0
100
AcDbLine
 62
7
  6
CONTINUOUS
 10
245.1387623902
 20
213.5098951202
 11
245.1387623902
 21
208.5098951202
  0
LINE
  5
405
100
AcDbEntity
  8
0
100
AcDbLine
 62
7
  6
CONTINUOUS
 10
245.1387623902
 20
206.5098951202
 11
245.1387623902
 21
201.5098951202
  0
LINE
  5
406
100
AcDbEntity
  8
0
100
AcDbLine
 62
7
  6
CONTINUOUS
 10
245.1387623902
 20
199.5098951202
 11
245.1387623902
 21
194.5098951202
  0
LINE
  5
407
100
AcDbEntity
  8
0
100
AcDbLine
 62
7
  6
CONTINUOUS
 10
223.8957837124
 20
164.5465621048
 11
224.1511028309
 21
164.7965621048
  0
LINE
  5
408
100
AcDbEntity
  8
0
100
AcDbLine
 62
7
  6
CONTINUOUS
 10
225.6830177208
 20
164.4632281356
 11
225.9383368691
 21
164.7132281356
  0
LINE
  5
409
100
AcDbEntity
  8
0
100
AcDbLine
 62
7
  6
CONTINUOUS
 10
222.7894006272
 20
158.8798951202
 11
222.9596133729
 21
159.0465616279
  0
LINE
  5
40A
100
AcDbEntity
  8
0
100
AcDbLine
 62
7
  6
CONTINUOUS
 10
224.6617410679
 20
166.6298951202
 11
225.0021666785
 21
166.8798951202
  0
LINE
  5
40B
100
AcDbEntity
  8
0
100
AcDbLine
 62
7
  6
CONTINUOUS
 10
223.0447197457
 20
166.6298951202
 11
223.3000391026
 21
166.7965621048
  0
LINE
  5
40C
100
AcDbEntity
  8
KONSTRUKTIONSELEMENTE
100
AcDbLine
 62
7
  6
CONTINUOUS
 10
244.6387623902
 20
188.1798951202
 11
247.138862143
 21
178.8493958188
  0
LINE
  5
40D
100
AcDbEntity
  8
KONSTRUKTIONSELEMENTE
100
AcDbLine
 62
7
  6
CONTINUOUS
 10
236.6387623902
 20
218.1798951202
 11
234.1386626571
 21
227.5103943482
  0
LINE
  5
40E
100
AcDbEntity
  8
KONSTRUKTIONSELEMENTE
100
AcDbLine
 62
7
  6
CONTINUOUS
 10
247.1387623902
 20
241.3750330693
 11
247.1387623902
 21
227.4963992373
  0
LINE
  5
40F
100
AcDbEntity
  8
KONSTRUKTIONSELEMENTE
100
AcDbLine
 62
7
  6
CONTINUOUS
 10
247.1387623902
 20
178.8628959476
 11
247.1387623902
 21
159.1798951202
  0
LINE
  5
410
100
AcDbEntity
  8
0
100
AcDbLine
 62
7
  6
CONTINUOUS
 10
247.6387623902
 20
249.910012926
 11
247.6387623902
 21
240.0278338673
  0
LINE
  5
411
100
AcDbEntity
  8
RUNDUNGEN
100
AcDbLine
 62
7
  6
CONTINUOUS
 10
234.1387623902
 20
162.3056792725
 11
233.2073141354
 21
161.2712011838
  0
LINE
  5
412
100
AcDbEntity
  8
0
100
AcDbLine
 62
7
  6
CONTINUOUS
 10
225.5979113479
 20
164.9632281356
 11
225.257485797
 21
164.7132281356
  0
LINE
  5
413
100
AcDbEntity
  8
0
100
AcDbLine
 62
7
  6
CONTINUOUS
 10
222.9596133729
 20
159.5465621048
 11
222.6191878815
 21
159.2965616279
  0
LINE
  5
414
100
AcDbEntity
  8
0
100
AcDbLine
 62
7
  6
CONTINUOUS
 10
223.7255709668
 20
164.9632281356
 11
223.4702518483
 21
164.7965621048
  0
LINE
  5
415
100
AcDbEntity
  8
0
100
AcDbLine
 62
7
  6
CONTINUOUS
 10
223.5553582211
 20
164.3798951202
 11
223.8957837124
 21
164.5465621048
  0
LINE
  5
416
100
AcDbEntity
  8
0
100
AcDbLine
 62
7
  6
CONTINUOUS
 10
223.3000391026
 20
167.2132281356
 11
222.874507
 21
167.0465621048
  0
LINE
  5
417
100
AcDbEntity
  8
0
100
AcDbLine
 62
7
  6
CONTINUOUS
 10
225.0021666785
 20
167.2965621048
 11
224.5766346951
 21
167.1298951202
  0
LINE
  5
418
100
AcDbEntity
  8
RUNDUNGEN
100
AcDbLine
 62
7
  6
CONTINUOUS
 10
266.7368386015
 20
158.7760475429
 11
264.1076734769
 21
163.3298951202
  0
LINE
  5
419
100
AcDbEntity
  8
0
100
AcDbLine
 62
7
  6
CONTINUOUS
 10
225.257485797
 20
164.2965621048
 11
225.6830177208
 21
164.4632281356
  0
LINE
  5
41A
100
AcDbEntity
  8
0
100
AcDbLine
 62
7
  6
CONTINUOUS
 10
244.6387623902
 20
194.5098951202
 11
245.1387623902
 21
194.5098951202
  0
LINE
  5
41B
100
AcDbEntity
  8
RUNDUNGEN
100
AcDbLine
 62
7
  6
CONTINUOUS
 10
262.7031078831
 20
178.8320735738
 11
259.8879263593
 21
182.1870762686
  0
LINE
  5
41C
100
AcDbEntity
  8
0
100
AcDbLine
 62
7
  6
CONTINUOUS
 10
260.4649609974
 20
159.1388039116
 11
260.4548188724
 21
159.489804074
  0
LINE
  5
41D
100
AcDbEntity
  8
0
100
AcDbLine
 62
7
  6
CONTINUOUS
 10
260.4649609974
 20
163.3888039116
 11
260.4548188724
 21
163.739804074
  0
LINE
  5
41E
100
AcDbEntity
  8
0
100
AcDbLine
 62
7
  6
CONTINUOUS
 10
257.5919324945
 20
163.239804074
 11
257.5919324945
 21
161.7805464905
  0
LINE
  5
41F
100
AcDbEntity
  8
0
100
AcDbLine
 62
7
  6
CONTINUOUS
 10
258.3473502797
 20
161.7815593608
 11
258.3473502797
 21
163.239804074
  0
LINE
  5
420
100
AcDbEntity
  8
0
100
AcDbLine
 62
7
  6
CONTINUOUS
 10
256.2179113039
 20
159.2146921181
 11
256.2352994721
 21
159.489804074
  0
LINE
  5
421
100
AcDbEntity
  8
0
100
AcDbLine
 62
7
  6
CONTINUOUS
 10
223.2149324914
 20
159.6298951202
 11
222.9596133729
 21
159.5465621048
  0
LINE
  5
422
100
AcDbEntity
  8
0
100
AcDbLine
 62
7
  6
CONTINUOUS
 10
222.9596133729
 20
159.0465616279
 11
223.2149324914
 21
159.1298951202
  0
LINE
  5
423
100
AcDbEntity
  8
0
100
AcDbLine
 62
7
  6
CONTINUOUS
 10
244.6387623902
 20
199.5098951202
 11
245.1387623902
 21
199.5098951202
  0
LINE
  5
424
100
AcDbEntity
  8
0
100
AcDbLine
 62
7
  6
CONTINUOUS
 10
244.6387623902
 20
201.5098951202
 11
245.1387623902
 21
201.5098951202
  0
LINE
  5
425
100
AcDbEntity
  8
0
100
AcDbLine
 62
7
  6
CONTINUOUS
 10
244.6387623902
 20
201.6162780956
 11
245.1387623902
 21
201.6162780956
  0
LINE
  5
426
100
AcDbEntity
  8
0
100
AcDbLine
 62
7
  6
CONTINUOUS
 10
244.6387623902
 20
201.8290440556
 11
245.1387623902
 21
201.8290440556
  0
LINE
  5
427
100
AcDbEntity
  8
0
100
AcDbLine
 62
7
  6
CONTINUOUS
 10
244.6387623902
 20
202.254575957
 11
245.1387623902
 21
202.254575957
  0
LINE
  5
428
100
AcDbEntity
  8
0
100
AcDbLine
 62
7
  6
CONTINUOUS
 10
244.6387623902
 20
202.6801078957
 11
245.1387623902
 21
202.6801078957
  0
LINE
  5
429
100
AcDbEntity
  8
0
100
AcDbLine
 62
7
  6
CONTINUOUS
 10
244.6387623902
 20
203.2120227259
 11
245.1387623902
 21
203.2120227259
  0
LINE
  5
42A
100
AcDbEntity
  8
RUNDUNGEN
100
AcDbLine
 62
7
  6
CONTINUOUS
 10
263.6387623902
 20
176.2611375303
 11
263.6387623902
 21
165.0798951202
  0
LINE
  5
42B
100
AcDbEntity
  8
0
100
AcDbLine
 62
7
  6
CONTINUOUS
 10
225.7681240936
 20
153.0465617471
 11
222.2787623902
 21
151.8798951202
  0
LINE
  5
42C
100
AcDbEntity
  8
0
100
AcDbLine
 62
7
  6
CONTINUOUS
 10
222.2787623902
 20
151.3798951202
 11
226.2787623902
 21
152.7132284933
  0
LINE
  5
42D
100
AcDbEntity
  8
0
100
AcDbLine
 62
7
  6
CONTINUOUS
 10
244.6387623902
 20
206.5098951202
 11
245.1387623902
 21
206.5098951202
  0
LINE
  5
42E
100
AcDbEntity
  8
0
100
AcDbLine
 62
7
  6
CONTINUOUS
 10
244.6387623902
 20
208.5098951202
 11
245.1387623902
 21
208.5098951202
  0
LINE
  5
42F
100
AcDbEntity
  8
0
100
AcDbLine
 62
7
  6
CONTINUOUS
 10
267.1387623902
 20
157.2760475429
 11
267.1387623902
 21
115.1798951202
  0
LINE
  5
430
100
AcDbEntity
  8
0
100
AcDbLine
 62
7
  6
CONTINUOUS
 10
244.6387623902
 20
213.5098951202
 11
245.1387623902
 21
213.5098951202
  0
LINE
  5
431
100
AcDbEntity
  8
0
100
AcDbLine
 62
7
  6
CONTINUOUS
 10
247.1387623902
 20
240.0278338673
 11
247.6387623902
 21
240.0278338673
  0
LINE
  5
432
100
AcDbEntity
  8
0
100
AcDbLine
 62
7
  6
CONTINUOUS
 10
246.497032172
 20
243.6425796735
 11
247.6387623902
 21
243.6425796735
  0
LINE
  5
433
100
AcDbEntity
  8
0
100
AcDbLine
 62
7
  6
CONTINUOUS
 10
267.1387623902
 20
115.1798951202
 11
265.0410133122
 21
112.6798951202
  0
LINE
  5
434
100
AcDbEntity
  8
0
100
AcDbLine
 62
7
  6
CONTINUOUS
 10
246.5213601485
 20
244.982692799
 11
247.6387623902
 21
244.982692799
  0
LINE
  5
435
100
AcDbEntity
  8
0
100
AcDbLine
 62
7
  6
CONTINUOUS
 10
246.5594571122
 20
245.1849736107
 11
247.6387623902
 21
245.1849736107
  0
LINE
  5
436
100
AcDbEntity
  8
0
100
AcDbLine
 62
7
  6
CONTINUOUS
 10
246.4970321679
 20
246.541267405
 11
247.6387623902
 21
246.541267405
  0
LINE
  5
437
100
AcDbEntity
  8
0
100
AcDbLine
 62
7
  6
CONTINUOUS
 10
246.5213601497
 20
247.5168958376
 11
247.6387623902
 21
247.5168958376
  0
LINE
  5
438
100
AcDbEntity
  8
0
100
AcDbLine
 62
7
  6
CONTINUOUS
 10
246.559457119
 20
247.6338762219
 11
247.6387623902
 21
247.6338762219
  0
LINE
  5
439
100
AcDbEntity
  8
0
100
AcDbLine
 62
7
  6
CONTINUOUS
 10
247.0362552097
 20
248.3238260706
 11
247.6387623902
 21
248.3238260706
  0
LINE
  5
43A
100
AcDbEntity
  8
0
100
AcDbLine
 62
7
  6
CONTINUOUS
 10
246.9536706662
 20
248.7171822861
 11
247.6387623902
 21
248.7171822861
  0
LINE
  5
43B
100
AcDbEntity
  8
0
100
AcDbLine
 62
7
  6
CONTINUOUS
 10
246.897027603
 20
248.748227224
 11
247.6387623902
 21
248.748227224
  0
LINE
  5
43C
100
AcDbEntity
  8
0
100
AcDbLine
 62
7
  6
CONTINUOUS
 10
246.7788647399
 20
249.136062347
 11
247.6387623902
 21
249.136062347
  0
LINE
  5
43D
100
AcDbEntity
  8
0
100
AcDbLine
 62
7
  6
CONTINUOUS
 10
246.6401531773
 20
249.5404607475
 11
247.6387623902
 21
249.5404607475
  0
LINE
  5
43E
100
AcDbEntity
  8
0
100
AcDbLine
 62
7
  6
CONTINUOUS
 10
246.5629027634
 20
249.7537021643
 11
247.6387623902
 21
249.7537021643
  0
LINE
  5
43F
100
AcDbEntity
  8
0
100
AcDbLine
 62
7
  6
CONTINUOUS
 10
246.523615276
 20
249.887928493
 11
247.6387623902
 21
249.887928493
  0
LINE
  5
440
100
AcDbEntity
  8
0
100
AcDbLine
 62
7
  6
CONTINUOUS
 10
246.5229989238
 20
249.910012926
 11
247.6387623902
 21
249.910012926
  0
LINE
  5
441
100
AcDbEntity
  8
RUNDUNGEN
100
AcDbLine
 62
7
  6
CONTINUOUS
 10
139.154031846
 20
17.431406722
 11
159.154031846
 21
17.431406722
  0
LINE
  5
442
100
AcDbEntity
  8
0
100
AcDbLine
 62
7
  6
CONTINUOUS
 10
136.654031846
 20
20.6028188325
 11
136.154031846
 21
20.6028188325
  0
LINE
  5
443
100
AcDbEntity
  8
0
100
AcDbLine
 62
7
  6
CONTINUOUS
 10
136.654031846
 20
20.6153502397
 11
136.154031846
 21
20.6153502397
  0
LINE
  5
444
100
AcDbEntity
  8
0
100
AcDbLine
 62
7
  6
CONTINUOUS
 10
131.8224364966
 20
34.5731369401
 11
131.8224364966
 21
33.431406722
  0
LINE
  5
445
100
AcDbEntity
  8
0
100
AcDbLine
 62
7
  6
CONTINUOUS
 10
136.654031846
 20
21.3707680249
 11
136.154031846
 21
21.3707680249
  0
LINE
  5
446
100
AcDbEntity
  8
0
100
AcDbLine
 62
7
  6
CONTINUOUS
 10
168.6026821848
 20
22.431406722
 11
168.9419700913
 21
22.431406722
  0
LINE
  5
447
100
AcDbEntity
  8
0
100
AcDbLine
 62
7
  6
CONTINUOUS
 10
136.654031846
 20
22.7228188325
 11
136.154031846
 21
22.7228188325
  0
LINE
  5
448
100
AcDbEntity
  8
0
100
AcDbLine
 62
7
  6
CONTINUOUS
 10
136.654031846
 20
23.4782366177
 11
136.154031846
 21
23.4782366177
  0
LINE
  5
449
100
AcDbEntity
  8
0
100
AcDbLine
 62
7
  6
CONTINUOUS
 10
133.6298093997
 20
34.5488089637
 11
133.6298093997
 21
33.431406722
  0
LINE
  5
44A
100
AcDbEntity
  8
0
100
AcDbLine
 62
7
  6
CONTINUOUS
 10
134.0633715766
 20
34.5107119999
 11
134.0633715766
 21
33.431406722
  0
LINE
  5
44B
100
AcDbEntity
  8
0
100
AcDbLine
 62
7
  6
CONTINUOUS
 10
134.5356785729
 20
34.3955035415
 11
134.5356785729
 21
33.431406722
  0
LINE
  5
44C
100
AcDbEntity
  8
0
100
AcDbLine
 62
7
  6
CONTINUOUS
 10
134.9897045204
 20
34.2617354764
 11
134.9897045204
 21
33.431406722
  0
LINE
  5
44D
100
AcDbEntity
  8
0
100
AcDbLine
 62
7
  6
CONTINUOUS
 10
135.2360899038
 20
34.1756977107
 11
135.2360899038
 21
33.431406722
  0
LINE
  5
44E
100
AcDbEntity
  8
0
100
AcDbLine
 62
7
  6
CONTINUOUS
 10
136.654031846
 20
24.8348696401
 11
136.154031846
 21
24.8348696401
  0
LINE
  5
44F
100
AcDbEntity
  8
0
100
AcDbLine
 62
7
  6
CONTINUOUS
 10
136.654031846
 20
25.5902874253
 11
136.154031846
 21
25.5902874253
  0
LINE
  5
450
100
AcDbEntity
  8
0
100
AcDbLine
 62
7
  6
CONTINUOUS
 10
136.654031846
 20
25.6028188325
 11
136.154031846
 21
25.6028188325
  0
LINE
  5
451
100
AcDbEntity
  8
0
100
AcDbLine
 62
7
  6
CONTINUOUS
 10
171.1696513013
 20
25.681406722
 11
171.4699454504
 21
25.681406722
  0
LINE
  5
452
100
AcDbEntity
  8
0
100
AcDbLine
 62
7
  6
CONTINUOUS
 10
171.608497329
 20
26.3584901845
 11
171.9029992979
 21
26.3584901845
  0
LWPOLYLINE
  5
453
100
AcDbEntity
  8
RUNDUNGEN
100
AcDbPolyline
 62
7
  6
CONTINUOUS
 90
5
 70
0
 10
136.6540201511
 20
51.6229447084
 10
136.6557578294
 20
51.5384633855
 10
136.6813002745
 20
51.2823716239
 10
136.736546533
 20
51.0322214073
 10
136.8207656926
 20
50.7896241765
  0
LINE
  5
454
100
AcDbEntity
  8
0
100
AcDbLine
 62
7
  6
CONTINUOUS
 10
135.4641943982
 20
34.0802737145
 11
135.4641943982
 21
33.431406722
  0
LINE
  5
455
100
AcDbEntity
  8
0
100
AcDbLine
 62
7
  6
CONTINUOUS
 10
135.5599655167
 20
34.023500478
 11
135.5599655167
 21
33.431406722
  0
LINE
  5
456
100
AcDbEntity
  8
0
100
AcDbLine
 62
7
  6
CONTINUOUS
 10
135.9877133811
 20
34.5731369443
 11
135.9877133811
 21
33.431406722
  0
LINE
  5
457
100
AcDbEntity
  8
0
100
AcDbLine
 62
7
  6
CONTINUOUS
 10
136.154031846
 20
20.6032700104
 11
136.154031846
 21
21.3707680249
  0
LINE
  5
458
100
AcDbEntity
  8
0
100
AcDbLine
 62
7
  6
CONTINUOUS
 10
136.154031846
 20
21.434017947
 11
136.154031846
 21
25.6023676547
  0
LINE
  5
459
100
AcDbEntity
  8
0
100
AcDbLine
 62
7
  6
CONTINUOUS
 10
136.154031846
 20
54.791406722
 11
136.154031846
 21
58.791406722
  0
LINE
  5
45A
100
AcDbEntity
  8
RUNDUNGEN
100
AcDbLine
 62
7
  6
CONTINUOUS
 10
136.654031846
 20
18.613971545
 11
136.654031846
 21
30.6845847738
  0
LINE
  5
45B
100
AcDbEntity
  8
RUNDUNGEN
100
AcDbLine
 62
7
  6
CONTINUOUS
 10
136.654031846
 20
50.1782289994
 11
136.654031846
 21
62.2488340686
  0
LINE
  5
45C
100
AcDbEntity
  8
0
100
AcDbLine
 62
7
  6
CONTINUOUS
 10
138.0151869719
 20
34.5488089625
 11
138.0151869719
 21
33.431406722
  0
LINE
  5
45D
100
AcDbEntity
  8
0
100
AcDbLine
 62
7
  6
CONTINUOUS
 10
171.9390109647
 20
26.900156722
 11
172.2292950826
 21
26.900156722
  0
LINE
  5
45E
100
AcDbEntity
  8
0
100
AcDbLine
 62
7
  6
CONTINUOUS
 10
172.1754213566
 20
27.306406722
 11
172.4627614339
 21
27.306406722
  0
LINE
  5
45F
100
AcDbEntity
  8
0
100
AcDbLine
 62
7
  6
CONTINUOUS
 10
172.2520993295
 20
27.4418232595
 11
172.5384972338
 21
27.4418232595
  0
LINE
  5
460
100
AcDbEntity
  8
0
100
AcDbLine
 62
7
  6
CONTINUOUS
 10
172.8287274288
 20
28.525156722
 11
173.1082321236
 21
28.525156722
  0
LINE
  5
461
100
AcDbEntity
  8
0
100
AcDbLine
 62
7
  6
CONTINUOUS
 10
138.4790932408
 20
34.5107119932
 11
138.4790932408
 21
33.431406722
  0
LINE
  5
462
100
AcDbEntity
  8
0
100
AcDbLine
 62
7
  6
CONTINUOUS
 10
138.9415539627
 20
34.3955035388
 11
138.9415539627
 21
33.431406722
  0
LINE
  5
463
100
AcDbEntity
  8
0
100
AcDbLine
 62
7
  6
CONTINUOUS
 10
139.3610525559
 20
34.2617354736
 11
139.3610525559
 21
33.431406722
  0
LINE
  5
464
100
AcDbEntity
  8
0
100
AcDbLine
 62
7
  6
CONTINUOUS
 10
139.570079079
 20
34.1756977132
 11
139.570079079
 21
33.431406722
  0
LINE
  5
465
100
AcDbEntity
  8
0
100
AcDbLine
 62
7
  6
CONTINUOUS
 10
139.7361435895
 20
34.0802737165
 11
139.7361435895
 21
33.431406722
  0
LINE
  5
466
100
AcDbEntity
  8
0
100
AcDbLine
 62
7
  6
CONTINUOUS
 10
139.7762136578
 20
34.0235004765
 11
139.7762136578
 21
33.431406722
  0
LINE
  5
467
100
AcDbEntity
  8
0
100
AcDbLine
 62
7
  6
CONTINUOUS
 10
173.6948142296
 20
30.431406722
 11
173.9645638838
 21
30.431406722
  0
LWPOLYLINE
  5
468
100
AcDbEntity
  8
RUNDUNGEN
100
AcDbPolyline
 62
7
  6
CONTINUOUS
 90
6
 70
0
 10
136.9309657814
 20
30.3016123741
 10
136.8189923
 20
30.0688908811
 10
136.7355646771
 20
29.8271126329
 10
136.6809007318
 20
29.5779349505
 10
136.6557052146
 20
29.323027802
 10
136.6540200969
 20
29.2398472766
  0
LINE
  5
469
100
AcDbEntity
  8
RUNDUNGEN
100
AcDbLine
 62
7
  6
CONTINUOUS
 10
138.3430189795
 20
32.3358098097
 11
138.2092026381
 21
32.0648766369
  0
LWPOLYLINE
  5
46A
100
AcDbEntity
  8
RUNDUNGEN
100
AcDbPolyline
 62
7
  6
CONTINUOUS
 90
6
 70
0
 10
138.2092026381
 20
32.0648766369
 10
138.027653959
 20
31.7361024686
 10
137.8433560657
 20
31.4437854228
 10
137.6598767375
 20
31.1908631366
 10
137.4815210277
 20
30.97932984
 10
137.2383187309
 20
30.7296580992
  0
LINE
  5
46B
100
AcDbEntity
  8
0
100
AcDbLine
 62
7
  6
CONTINUOUS
 10
165.6179103238
 20
33.431406722
 11
159.6100780305
 21
33.431406722
  0
LINE
  5
46C
100
AcDbEntity
  8
0
100
AcDbLine
 62
7
  6
CONTINUOUS
 10
159.2778267865
 20
33.431406722
 11
157.0399901025
 21
33.431406722
  0
LINE
  5
46D
100
AcDbEntity
  8
0
100
AcDbLine
 62
7
  6
CONTINUOUS
 10
156.1064356054
 20
33.431406722
 11
152.2998192889
 21
33.431406722
  0
LINE
  5
46E
100
AcDbEntity
  8
0
100
AcDbLine
 62
7
  6
CONTINUOUS
 10
151.3436560903
 20
33.431406722
 11
150.2372063966
 21
33.431406722
  0
LINE
  5
46F
100
AcDbEntity
  8
0
100
AcDbLine
 62
7
  6
CONTINUOUS
 10
149.5276697684
 20
33.431406722
 11
146.049125424
 21
33.431406722
  0
LINE
  5
470
100
AcDbEntity
  8
0
100
AcDbLine
 62
7
  6
CONTINUOUS
 10
139.7762136578
 20
33.431406722
 11
135.9877133811
 21
33.431406722
  0
LINE
  5
471
100
AcDbEntity
  8
0
100
AcDbLine
 62
7
  6
CONTINUOUS
 10
135.5599655167
 20
33.431406722
 11
131.8224364966
 21
33.431406722
  0
LINE
  5
472
100
AcDbEntity
  8
0
100
AcDbLine
 62
7
  6
CONTINUOUS
 10
174.7799464638
 20
33.681406722
 11
175.0383900571
 21
33.681406722
  0
LINE
  5
473
100
AcDbEntity
  8
KONSTRUKTIONSELEMENTE
100
AcDbLine
 62
7
  6
CONTINUOUS
 10
172.8115496332
 20
33.931406722
 11
165.6179103238
 21
33.931406722
  0
LINE
  5
474
100
AcDbEntity
  8
KONSTRUKTIONSELEMENTE
100
AcDbLine
 62
7
  6
CONTINUOUS
 10
161.6762354966
 20
33.931406722
 11
160.9948850224
 21
33.931406722
  0
LINE
  5
475
100
AcDbEntity
  8
KONSTRUKTIONSELEMENTE
100
AcDbLine
 62
7
  6
CONTINUOUS
 10
159.6573595213
 20
33.931406722
 11
159.2778267865
 21
33.931406722
  0
LINE
  5
476
100
AcDbEntity
  8
KONSTRUKTIONSELEMENTE
100
AcDbLine
 62
7
  6
CONTINUOUS
 10
157.0399901025
 20
33.931406722
 11
156.1064356054
 21
33.931406722
  0
LINE
  5
477
100
AcDbEntity
  8
KONSTRUKTIONSELEMENTE
100
AcDbLine
 62
7
  6
CONTINUOUS
 10
152.476418056
 20
33.931406722
 11
149.3359579183
 21
33.931406722
  0
LINE
  5
478
100
AcDbEntity
  8
KONSTRUKTIONSELEMENTE
100
AcDbLine
 62
7
  6
CONTINUOUS
 10
146.049125424
 20
33.931406722
 11
139.7762136578
 21
33.931406722
  0
LINE
  5
479
100
AcDbEntity
  8
KONSTRUKTIONSELEMENTE
100
AcDbLine
 62
7
  6
CONTINUOUS
 10
135.9877133811
 20
33.931406722
 11
135.5621482384
 21
33.931406722
  0
LINE
  5
47A
100
AcDbEntity
  8
KONSTRUKTIONSELEMENTE
100
AcDbLine
 62
7
  6
CONTINUOUS
 10
131.8224364966
 20
33.931406722
 11
125.4964023886
 21
33.931406722
  0
LINE
  5
47B
100
AcDbEntity
  8
RUNDUNGEN
100
AcDbLine
 62
7
  6
CONTINUOUS
 10
138.0314053798
 20
49.1203409173
 11
138.2129733483
 21
48.790648058
  0
LINE
  5
47C
100
AcDbEntity
  8
RUNDUNGEN
100
AcDbLine
 62
7
  6
CONTINUOUS
 10
138.2129733483
 20
48.790648058
 11
138.3429259898
 21
48.5272010761
  0
LINE
  5
47D
100
AcDbEntity
  8
RUNDUNGEN
100
AcDbLine
 62
7
  6
CONTINUOUS
 10
136.8207656926
 20
50.7896241765
 11
136.9337486146
 21
50.5561993516
  0
LINE
  5
47E
100
AcDbEntity
  8
0
100
AcDbLine
 62
7
  6
CONTINUOUS
 10
146.049125424
 20
34.1731415092
 11
146.049125424
 21
33.431406722
  0
LINE
  5
47F
100
AcDbEntity
  8
0
100
AcDbLine
 62
7
  6
CONTINUOUS
 10
146.120159089
 20
34.2913043723
 11
146.120159089
 21
33.431406722
  0
LINE
  5
480
100
AcDbEntity
  8
0
100
AcDbLine
 62
7
  6
CONTINUOUS
 10
146.4719535362
 20
34.4300159349
 11
146.4719535362
 21
33.431406722
  0
LINE
  5
481
100
AcDbEntity
  8
RUNDUNGEN
100
AcDbLine
 62
7
  6
CONTINUOUS
 10
137.0708196353
 20
30.5224784695
 11
136.9309657814
 21
30.3016123741
  0
LINE
  5
482
100
AcDbEntity
  8
RUNDUNGEN
100
AcDbLine
 62
7
  6
CONTINUOUS
 10
137.2383187309
 20
30.7296580992
 11
137.0708196353
 21
30.5224784695
  0
LINE
  5
483
100
AcDbEntity
  8
KONSTRUKTIONSELEMENTE
100
AcDbLine
 62
7
  6
CONTINUOUS
 10
180.8178403048
 20
36.431406722
 11
179.7819816023
 21
36.431406722
  0
LINE
  5
484
100
AcDbEntity
  8
KONSTRUKTIONSELEMENTE
100
AcDbLine
 62
7
  6
CONTINUOUS
 10
118.5260820897
 20
36.431406722
 11
117.4902233872
 21
36.431406722
  0
LINE
  5
485
100
AcDbEntity
  8
RUNDUNGEN
100
AcDbLine
 62
7
  6
CONTINUOUS
 10
137.0748454079
 20
50.334737859
 11
137.2438891539
 21
50.127046223
  0
LINE
  5
486
100
AcDbEntity
  8
RUNDUNGEN
100
AcDbLine
 62
7
  6
CONTINUOUS
 10
136.9337486146
 20
50.5561993516
 11
137.0748454079
 21
50.334737859
  0
LINE
  5
487
100
AcDbEntity
  8
0
100
AcDbLine
 62
7
  6
CONTINUOUS
 10
146.8350251502
 20
34.5072663488
 11
146.8350251502
 21
33.431406722
  0
LINE
  5
488
100
AcDbEntity
  8
0
100
AcDbLine
 62
7
  6
CONTINUOUS
 10
147.4844982718
 20
34.5465538362
 11
147.4844982718
 21
33.431406722
  0
LINE
  5
489
100
AcDbEntity
  8
0
100
AcDbLine
 62
7
  6
CONTINUOUS
 10
147.8588470525
 20
34.5471701883
 11
147.8588470525
 21
33.431406722
  0
LINE
  5
48A
100
AcDbEntity
  8
0
100
AcDbLine
 62
7
  6
CONTINUOUS
 10
148.4260093424
 20
34.5085315971
 11
148.4260093424
 21
33.431406722
  0
LINE
  5
48B
100
AcDbEntity
  8
0
100
AcDbLine
 62
7
  6
CONTINUOUS
 10
148.8116352898
 20
34.4317423931
 11
148.8116352898
 21
33.431406722
  0
LINE
  5
48C
100
AcDbEntity
  8
0
100
AcDbLine
 62
7
  6
CONTINUOUS
 10
149.2085394749
 20
34.2932346446
 11
149.2085394749
 21
33.431406722
  0
LINE
  5
48D
100
AcDbEntity
  8
0
100
AcDbLine
 62
7
  6
CONTINUOUS
 10
149.3246807358
 20
34.1748201385
 11
149.3246807358
 21
33.431406722
  0
LINE
  5
48E
100
AcDbEntity
  8
0
100
AcDbLine
 62
7
  6
CONTINUOUS
 10
149.3359579183
 20
34.1241278088
 11
149.3359579183
 21
33.431406722
  0
LINE
  5
48F
100
AcDbEntity
  8
0
100
AcDbLine
 62
7
  6
CONTINUOUS
 10
149.4994768476
 20
33.931406722
 11
149.4994768476
 21
33.431406722
  0
LINE
  5
490
100
AcDbEntity
  8
0
100
AcDbLine
 62
7
  6
CONTINUOUS
 10
149.5276697684
 20
33.931406722
 11
149.5276697684
 21
33.431406722
  0
LINE
  5
491
100
AcDbEntity
  8
RUNDUNGEN
100
AcDbLine
 62
7
  6
CONTINUOUS
 10
137.3508523757
 20
30.8451911847
 11
137.3498563728
 21
30.8442352771
  0
LINE
  5
492
100
AcDbEntity
  8
RUNDUNGEN
100
AcDbLine
 62
7
  6
CONTINUOUS
 10
137.3508138483
 20
50.0176187821
 11
137.3497271839
 21
50.0186617677
  0
LWPOLYLINE
  5
493
100
AcDbEntity
  8
RUNDUNGEN
100
AcDbPolyline
 62
7
  6
CONTINUOUS
 90
5
 70
0
 10
137.2438891539
 20
50.127046223
 10
137.4849839653
 20
49.8796905427
 10
137.6634871236
 20
49.6673240444
 10
137.8470582348
 20
49.4135429606
 10
138.0314053798
 20
49.1203409173
  0
LINE
  5
494
100
AcDbEntity
  8
0
100
AcDbLine
 62
7
  6
CONTINUOUS
 10
150.2372063966
 20
33.931406722
 11
150.2372063966
 21
33.431406722
  0
LINE
  5
495
100
AcDbEntity
  8
0
100
AcDbLine
 62
7
  6
CONTINUOUS
 10
150.876194162
 20
33.931406722
 11
150.876194162
 21
33.431406722
  0
LINE
  5
496
100
AcDbEntity
  8
0
100
AcDbLine
 62
7
  6
CONTINUOUS
 10
151.3436560903
 20
33.931406722
 11
151.3436560903
 21
33.431406722
  0
LINE
  5
497
100
AcDbEntity
  8
0
100
AcDbLine
 62
7
  6
CONTINUOUS
 10
152.2998192889
 20
33.931406722
 11
152.2998192889
 21
33.431406722
  0
LINE
  5
498
100
AcDbEntity
  8
RUNDUNGEN
100
AcDbLine
 62
7
  6
CONTINUOUS
 10
161.069746923
 20
50.1331577727
 11
161.2372455723
 21
50.3403373827
  0
LINE
  5
499
100
AcDbEntity
  8
RUNDUNGEN
100
AcDbLine
 62
7
  6
CONTINUOUS
 10
160.9572116287
 20
50.0176225245
 11
160.9582081823
 21
50.018578961
  0
LINE
  5
49A
100
AcDbEntity
  8
RUNDUNGEN
100
AcDbLine
 62
7
  6
CONTINUOUS
 10
160.9572519418
 20
30.8451926782
 11
160.9583387993
 21
30.8441495042
  0
LWPOLYLINE
  5
49B
100
AcDbEntity
  8
RUNDUNGEN
100
AcDbPolyline
 62
7
  6
CONTINUOUS
 90
5
 70
0
 10
161.0641769641
 20
30.7357645371
 10
160.8230622915
 20
30.9831419945
 10
160.6445457341
 20
31.1955292766
 10
160.4609700782
 20
31.4493228316
 10
160.276627041
 20
31.7425257068
  0
LINE
  5
49C
100
AcDbEntity
  8
RUNDUNGEN
100
AcDbLine
 62
7
  6
CONTINUOUS
 10
161.233220102
 20
30.528072941
 11
161.0641769641
 21
30.7357645371
  0
LINE
  5
49D
100
AcDbEntity
  8
0
100
AcDbLine
 62
7
  6
CONTINUOUS
 10
152.476418056
 20
33.9397500662
 11
152.476418056
 21
33.431406722
  0
LINE
  5
49E
100
AcDbEntity
  8
0
100
AcDbLine
 62
7
  6
CONTINUOUS
 10
152.9865922476
 20
34.5717001126
 11
152.9865922476
 21
33.431406722
  0
LWPOLYLINE
  5
49F
100
AcDbEntity
  8
RUNDUNGEN
100
AcDbPolyline
 62
7
  6
CONTINUOUS
 90
6
 70
0
 10
160.0988531919
 20
48.7979215309
 10
160.2803976797
 20
49.1266905416
 10
160.4646939182
 20
49.4190078832
 10
160.6481747662
 20
49.6719346789
 10
160.8265354628
 20
49.8834757195
 10
161.069746923
 20
50.1331577727
  0
LINE
  5
4A0
100
AcDbEntity
  8
RUNDUNGEN
100
AcDbLine
 62
7
  6
CONTINUOUS
 10
161.2372455723
 20
50.3403373827
 11
161.3770989153
 21
50.5612031231
  0
LINE
  5
4A1
100
AcDbEntity
  8
KONSTRUKTIONSELEMENTE
100
AcDbLine
 62
7
  6
CONTINUOUS
 10
180.8178403048
 20
44.431406722
 11
179.7819816023
 21
44.431406722
  0
LINE
  5
4A2
100
AcDbEntity
  8
KONSTRUKTIONSELEMENTE
100
AcDbLine
 62
7
  6
CONTINUOUS
 10
118.5260820897
 20
44.431406722
 11
117.4902233872
 21
44.431406722
  0
LINE
  5
4A3
100
AcDbEntity
  8
RUNDUNGEN
100
AcDbLine
 62
7
  6
CONTINUOUS
 10
161.3743163129
 20
30.3066117118
 11
161.233220102
 21
30.528072941
  0
LWPOLYLINE
  5
4A4
100
AcDbEntity
  8
RUNDUNGEN
100
AcDbPolyline
 62
7
  6
CONTINUOUS
 90
3
 70
0
 10
160.276627041
 20
31.7425257068
 10
160.0950709473
 20
32.0722030051
 10
159.9651416536
 20
32.3356039361
  0
LINE
  5
4A5
100
AcDbEntity
  8
0
100
AcDbLine
 62
7
  6
CONTINUOUS
 10
156.1064356054
 20
34.5663615921
 11
156.1064356054
 21
33.431406722
  0
LINE
  5
4A6
100
AcDbEntity
  8
0
100
AcDbLine
 62
7
  6
CONTINUOUS
 10
157.0399901025
 20
34.0036204017
 11
157.0399901025
 21
33.431406722
  0
LINE
  5
4A7
100
AcDbEntity
  8
0
100
AcDbLine
 62
7
  6
CONTINUOUS
 10
157.1772107387
 20
34.0728910252
 11
157.1772107387
 21
33.431406722
  0
LINE
  5
4A8
100
AcDbEntity
  8
0
100
AcDbLine
 62
7
  6
CONTINUOUS
 10
157.8774174235
 20
34.068222269
 11
157.8774174235
 21
33.431406722
  0
LWPOLYLINE
  5
4A9
100
AcDbEntity
  8
RUNDUNGEN
100
AcDbPolyline
 62
7
  6
CONTINUOUS
 90
6
 70
0
 10
161.3770989153
 20
50.5612031231
 10
161.489071928
 20
50.7939240306
 10
161.5724991704
 20
51.0357015008
 10
161.6271629169
 20
51.2848784482
 10
161.6523584148
 20
51.5397851034
 10
161.6540435495
 20
51.6229672032
  0
LINE
  5
4AA
100
AcDbEntity
  8
RUNDUNGEN
100
AcDbLine
 62
7
  6
CONTINUOUS
 10
159.9650485328
 20
48.5270118976
 11
160.0988531919
 21
48.7979215309
  0
LINE
  5
4AB
100
AcDbEntity
  8
KONSTRUKTIONSELEMENTE
100
AcDbLine
 62
7
  6
CONTINUOUS
 10
172.8116677052
 20
46.931406722
 11
125.4965191201
 21
46.931406722
  0
LINE
  5
4AC
100
AcDbEntity
  8
0
100
AcDbLine
 62
7
  6
CONTINUOUS
 10
174.8044574943
 20
47.087656722
 11
175.0626565864
 21
47.087656722
  0
LINE
  5
4AD
100
AcDbEntity
  8
0
100
AcDbLine
 62
7
  6
CONTINUOUS
 10
174.6577571248
 20
47.6293228721
 11
174.9174264806
 21
47.6293228721
  0
LINE
  5
4AE
100
AcDbEntity
  8
0
100
AcDbLine
 62
7
  6
CONTINUOUS
 10
174.5797623849
 20
47.900156722
 11
174.8402202249
 21
47.900156722
  0
LINE
  5
4AF
100
AcDbEntity
  8
0
100
AcDbLine
 62
7
  6
CONTINUOUS
 10
174.5395918588
 20
48.0355728721
 11
174.8004576625
 21
48.0355728721
  0
LINE
  5
4B0
100
AcDbEntity
  8
RUNDUNGEN
100
AcDbLine
 62
7
  6
CONTINUOUS
 10
161.4872987249
 20
30.0731873369
 11
161.3743163129
 21
30.3066117118
  0
LINE
  5
4B1
100
AcDbEntity
  8
0
100
AcDbLine
 62
7
  6
CONTINUOUS
 10
158.1518587921
 20
34.2774227806
 11
158.1518587921
 21
33.431406722
  0
LINE
  5
4B2
100
AcDbEntity
  8
0
100
AcDbLine
 62
7
  6
CONTINUOUS
 10
158.5894864676
 20
34.276564324
 11
158.5894864676
 21
33.431406722
  0
LINE
  5
4B3
100
AcDbEntity
  8
0
100
AcDbLine
 62
7
  6
CONTINUOUS
 10
159.2778267865
 20
34.0728910252
 11
159.2778267865
 21
33.431406722
  0
LINE
  5
4B4
100
AcDbEntity
  8
0
100
AcDbLine
 62
7
  6
CONTINUOUS
 10
159.6100780305
 20
33.9322056855
 11
159.6100780305
 21
33.431406722
  0
LINE
  5
4B5
100
AcDbEntity
  8
0
100
AcDbLine
 62
7
  6
CONTINUOUS
 10
159.8321570168
 20
33.9423261399
 11
159.8321570168
 21
33.431406722
  0
LINE
  5
4B6
100
AcDbEntity
  8
0
100
AcDbLine
 62
7
  6
CONTINUOUS
 10
173.5695412669
 20
50.7334890222
 11
173.840659811
 21
50.7334890222
  0
LINE
  5
4B7
100
AcDbEntity
  8
0
100
AcDbLine
 62
7
  6
CONTINUOUS
 10
173.4534847475
 20
51.0043244218
 11
173.7258838583
 21
51.0043244218
  0
LINE
  5
4B8
100
AcDbEntity
  8
0
100
AcDbLine
 62
7
  6
CONTINUOUS
 10
172.9528098806
 20
52.087656722
 11
173.2308741626
 21
52.087656722
  0
LWPOLYLINE
  5
4B9
100
AcDbEntity
  8
RUNDUNGEN
100
AcDbPolyline
 62
7
  6
CONTINUOUS
 90
5
 70
0
 10
161.6540435569
 20
29.2398677701
 10
161.6523058743
 20
29.3243500467
 10
161.6267635102
 20
29.5804411517
 10
161.5715174889
 20
29.8305907041
 10
161.4872987249
 20
30.0731873369
  0
LINE
  5
4BA
100
AcDbEntity
  8
0
100
AcDbLine
 62
7
  6
CONTINUOUS
 10
160.9948850224
 20
33.9421713629
 11
160.9948850224
 21
33.431406722
  0
LINE
  5
4BB
100
AcDbEntity
  8
0
100
AcDbLine
 62
7
  6
CONTINUOUS
 10
161.654031846
 20
28.6734307057
 11
161.654031846
 21
19.931406722
  0
LINE
  5
4BC
100
AcDbEntity
  8
RUNDUNGEN
100
AcDbLine
 62
7
  6
CONTINUOUS
 10
161.654031846
 20
18.6139801449
 11
161.654031846
 21
30.6845698229
  0
LINE
  5
4BD
100
AcDbEntity
  8
RUNDUNGEN
100
AcDbLine
 62
7
  6
CONTINUOUS
 10
161.654031846
 20
50.1782418894
 11
161.654031846
 21
62.2488398263
  0
LINE
  5
4BE
100
AcDbEntity
  8
0
100
AcDbLine
 62
7
  6
CONTINUOUS
 10
163.3193402194
 20
34.5731369526
 11
163.3193402194
 21
33.431406722
  0
LINE
  5
4BF
100
AcDbEntity
  8
0
100
AcDbLine
 62
7
  6
CONTINUOUS
 10
172.3909215436
 20
53.1709890222
 11
172.6756292156
 21
53.1709890222
  0
LINE
  5
4C0
100
AcDbEntity
  8
0
100
AcDbLine
 62
7
  6
CONTINUOUS
 10
172.0066690644
 20
53.8480744218
 11
172.296104524
 21
53.8480744218
  0
LINE
  5
4C1
100
AcDbEntity
  8
0
100
AcDbLine
 62
7
  6
CONTINUOUS
 10
136.654031846
 20
54.791406722
 11
136.154031846
 21
54.791406722
  0
LINE
  5
4C2
100
AcDbEntity
  8
0
100
AcDbLine
 62
7
  6
CONTINUOUS
 10
136.654031846
 20
54.8765131023
 11
136.154031846
 21
54.8765131023
  0
LINE
  5
4C3
100
AcDbEntity
  8
0
100
AcDbLine
 62
7
  6
CONTINUOUS
 10
165.1489365982
 20
34.54880896
 11
165.1489365982
 21
33.431406722
  0
LINE
  5
4C4
100
AcDbEntity
  8
0
100
AcDbLine
 62
7
  6
CONTINUOUS
 10
165.4743756156
 20
34.5107120156
 11
165.4743756156
 21
33.431406722
  0
LINE
  5
4C5
100
AcDbEntity
  8
0
100
AcDbLine
 62
7
  6
CONTINUOUS
 10
165.6121230083
 20
34.3955035333
 11
165.6121230083
 21
33.431406722
  0
LINE
  5
4C6
100
AcDbEntity
  8
0
100
AcDbLine
 62
7
  6
CONTINUOUS
 10
165.6179103238
 20
34.261735468
 11
165.6179103238
 21
33.431406722
  0
LINE
  5
4C7
100
AcDbEntity
  8
0
100
AcDbLine
 62
7
  6
CONTINUOUS
 10
136.654031846
 20
55.1318322431
 11
136.154031846
 21
55.1318322431
  0
LINE
  5
4C8
100
AcDbEntity
  8
0
100
AcDbLine
 62
7
  6
CONTINUOUS
 10
171.0641598908
 20
55.337656722
 11
171.3658802819
 21
55.337656722
  0
LINE
  5
4C9
100
AcDbEntity
  8
0
100
AcDbLine
 62
7
  6
CONTINUOUS
 10
136.654031846
 20
55.3871513914
 11
136.154031846
 21
55.3871513914
  0
LINE
  5
4CA
100
AcDbEntity
  8
0
100
AcDbLine
 62
7
  6
CONTINUOUS
 10
136.654031846
 20
55.8126833152
 11
136.154031846
 21
55.8126833152
  0
LINE
  5
4CB
100
AcDbEntity
  8
0
100
AcDbLine
 62
7
  6
CONTINUOUS
 10
136.654031846
 20
56.0680024337
 11
136.154031846
 21
56.0680024337
  0
LINE
  5
4CC
100
AcDbEntity
  8
0
100
AcDbLine
 62
7
  6
CONTINUOUS
 10
136.654031846
 20
56.4935344171
 11
136.154031846
 21
56.4935344171
  0
LINE
  5
4CD
100
AcDbEntity
  8
0
100
AcDbLine
 62
7
  6
CONTINUOUS
 10
136.654031846
 20
56.7488535356
 11
136.154031846
 21
56.7488535356
  0
LINE
  5
4CE
100
AcDbEntity
  8
0
100
AcDbLine
 62
7
  6
CONTINUOUS
 10
136.654031846
 20
56.8339599084
 11
136.154031846
 21
56.8339599084
  0
LINE
  5
4CF
100
AcDbEntity
  8
0
100
AcDbLine
 62
7
  6
CONTINUOUS
 10
136.654031846
 20
56.9190662812
 11
136.154031846
 21
56.9190662812
  0
LINE
  5
4D0
100
AcDbEntity
  8
0
100
AcDbLine
 62
7
  6
CONTINUOUS
 10
136.654031846
 20
57.1743853997
 11
136.154031846
 21
57.1743853997
  0
LINE
  5
4D1
100
AcDbEntity
  8
0
100
AcDbLine
 62
7
  6
CONTINUOUS
 10
136.654031846
 20
57.5148108911
 11
136.154031846
 21
57.5148108911
  0
LINE
  5
4D2
100
AcDbEntity
  8
0
100
AcDbLine
 62
7
  6
CONTINUOUS
 10
136.654031846
 20
57.7701300096
 11
136.154031846
 21
57.7701300096
  0
LINE
  5
4D3
100
AcDbEntity
  8
0
100
AcDbLine
 62
7
  6
CONTINUOUS
 10
136.654031846
 20
58.1956621121
 11
136.154031846
 21
58.1956621121
  0
LINE
  5
4D4
100
AcDbEntity
  8
0
100
AcDbLine
 62
7
  6
CONTINUOUS
 10
136.654031846
 20
58.4509812306
 11
136.154031846
 21
58.4509812306
  0
LINE
  5
4D5
100
AcDbEntity
  8
0
100
AcDbLine
 62
7
  6
CONTINUOUS
 10
136.654031846
 20
58.7063003491
 11
136.154031846
 21
58.7063003491
  0
LINE
  5
4D6
100
AcDbEntity
  8
0
100
AcDbLine
 62
7
  6
CONTINUOUS
 10
136.654031846
 20
58.791406722
 11
136.154031846
 21
58.791406722
  0
LINE
  5
4D7
100
AcDbEntity
  8
RUNDUNGEN
100
AcDbLine
 62
7
  6
CONTINUOUS
 10
139.154031846
 20
63.431406722
 11
159.154031846
 21
63.431406722
  0
ARC
  5
4D8
100
AcDbEntity
  8
RUNDUNGEN
100
AcDbCircle
 62
7
  6
CONTINUOUS
 10
131.654031846
 20
147.5798951202
 40
5.0
100
AcDbArc
 50
270.0016448559
 51
360.0
  0
ARC
  5
4D9
100
AcDbEntity
  8
RUNDUNGEN
100
AcDbCircle
 62
7
  6
CONTINUOUS
 10
125.154031846
 20
140.0798951202
 40
2.5
100
AcDbArc
 50
90.0
 51
180.0
  0
ARC
  5
4DA
100
AcDbEntity
  8
KONSTRUKTIONSELEMENTE
100
AcDbCircle
 62
7
  6
CONTINUOUS
 10
71.6943649219
 20
203.1798951202
 40
110.5
100
AcDbArc
 50
345.5224878141
 51
14.4775121859
  0
ARC
  5
4DB
100
AcDbEntity
  8
KONSTRUKTIONSELEMENTE
100
AcDbCircle
 62
7
  6
CONTINUOUS
 10
71.6943649219
 20
203.1798951202
 40
109.123475383
100
AcDbArc
 50
352.0991659289
 51
7.9008340711
  0
ARC
  5
4DC
100
AcDbEntity
  8
KONSTRUKTIONSELEMENTE
100
AcDbCircle
 62
7
  6
CONTINUOUS
 10
71.6943649219
 20
203.1798951202
 40
98.876524617
100
AcDbArc
 50
351.2742902858
 51
8.7257097142
  0
ARC
  5
4DD
100
AcDbEntity
  8
KONSTRUKTIONSELEMENTE
100
AcDbCircle
 62
7
  6
CONTINUOUS
 10
71.6943649219
 20
203.1798951202
 40
97.5
100
AcDbArc
 50
345.5224878141
 51
14.4775121859
  0
ARC
  5
4DE
100
AcDbEntity
  8
RUNDUNGEN
100
AcDbCircle
 62
7
  6
CONTINUOUS
 10
149.154031846
 20
170.5798951202
 40
12.5
100
AcDbArc
 50
0.0
 51
180.0
  0
ARC
  5
4DF
100
AcDbEntity
  8
RUNDUNGEN
100
AcDbCircle
 62
7
  6
CONTINUOUS
 10
166.654031846
 20
147.5798951202
 40
5.0
100
AcDbArc
 50
180.0
 51
269.9981547614
  0
ARC
  5
4E0
100
AcDbEntity
  8
RUNDUNGEN
100
AcDbCircle
 62
7
  6
CONTINUOUS
 10
173.154031846
 20
140.0798951202
 40
2.5
100
AcDbArc
 50
0.0
 51
90.0
  0
ARC
  5
4E1
100
AcDbEntity
  8
KONSTRUKTIONSELEMENTE
100
AcDbCircle
 62
7
  6
CONTINUOUS
 10
226.6136987702
 20
203.1798951202
 40
110.5
100
AcDbArc
 50
165.5224878141
 51
194.4775121859
  0
ARC
  5
4E2
100
AcDbEntity
  8
KONSTRUKTIONSELEMENTE
100
AcDbCircle
 62
7
  6
CONTINUOUS
 10
226.6136987702
 20
203.1798951202
 40
109.123475383
100
AcDbArc
 50
172.0991659289
 51
187.9008340711
  0
ARC
  5
4E3
100
AcDbEntity
  8
KONSTRUKTIONSELEMENTE
100
AcDbCircle
 62
7
  6
CONTINUOUS
 10
226.6136987702
 20
203.1798951202
 40
98.876524617
100
AcDbArc
 50
171.2742902858
 51
188.7257097142
  0
ARC
  5
4E4
100
AcDbEntity
  8
KONSTRUKTIONSELEMENTE
100
AcDbCircle
 62
7
  6
CONTINUOUS
 10
226.6136987702
 20
203.1798951202
 40
97.5
100
AcDbArc
 50
165.5224878141
 51
194.4775121859
  0
ARC
  5
4E5
100
AcDbEntity
  8
KONSTRUKTIONSELEMENTE
100
AcDbCircle
 62
7
  6
CONTINUOUS
 10
149.154031846
 20
183.1798951202
 40
30.5
100
AcDbArc
 50
194.4775121859
 51
245.7918054698
  0
ARC
  5
4E6
100
AcDbEntity
  8
KONSTRUKTIONSELEMENTE
100
AcDbCircle
 62
7
  6
CONTINUOUS
 10
149.154031846
 20
183.1798951202
 40
30.5
100
AcDbArc
 50
294.2081945302
 51
345.5224878141
  0
ARC
  5
4E7
100
AcDbEntity
  8
KONSTRUKTIONSELEMENTE
100
AcDbCircle
 62
7
  6
CONTINUOUS
 10
149.154031846
 20
223.1798951202
 40
30.5
100
AcDbArc
 50
14.4775121859
 51
165.5224878141
  0
ARC
  5
4E8
100
AcDbEntity
  8
KONSTRUKTIONSELEMENTE
100
AcDbCircle
 62
7
  6
CONTINUOUS
 10
149.154031846
 20
223.1798951202
 40
17.5
100
AcDbArc
 50
14.4775121859
 51
165.5224878141
  0
ARC
  5
4E9
100
AcDbEntity
  8
KONSTRUKTIONSELEMENTE
100
AcDbCircle
 62
7
  6
CONTINUOUS
 10
149.154031846
 20
183.1798951202
 40
17.5
100
AcDbArc
 50
194.4775121859
 51
224.4662970067
  0
ARC
  5
4EA
100
AcDbEntity
  8
KONSTRUKTIONSELEMENTE
100
AcDbCircle
 62
7
  6
CONTINUOUS
 10
149.154031846
 20
183.1798951202
 40
17.5
100
AcDbArc
 50
315.5337029934
 51
345.5224878141
  0
ARC
  5
4EB
100
AcDbEntity
  8
RUNDUNGEN
100
AcDbCircle
 62
7
  6
CONTINUOUS
 10
221.6387623902
 20
176.2611230165
 40
4.0
100
AcDbArc
 50
140.0
 51
179.9998253539
  0
ARC
  5
4EC
100
AcDbEntity
  8
RUNDUNGEN
100
AcDbCircle
 62
7
  6
CONTINUOUS
 10
214.1387623902
 20
165.0798951202
 40
3.5
100
AcDbArc
 50
330.0
 51
360.0
  0
ARC
  5
4ED
100
AcDbEntity
  8
RUNDUNGEN
100
AcDbCircle
 62
7
  6
CONTINUOUS
 10
217.1387671296
 20
157.2760557518
 40
3.0
100
AcDbArc
 50
150.0001810322
 51
180.0001567782
  0
ARC
  5
4EE
100
AcDbEntity
  8
RUNDUNGEN
100
AcDbCircle
 62
7
  6
CONTINUOUS
 10
228.8807863739
 20
180.5798951202
 40
2.5
100
AcDbArc
 50
56.8465915844
 51
90.0
  0
ARC
  5
4EF
100
AcDbEntity
  8
RUNDUNGEN
100
AcDbCircle
 62
7
  6
CONTINUOUS
 10
223.3044944153
 20
180.579850882
 40
2.5
100
AcDbArc
 50
90.0013321064
 51
140.0
  0
ARC
  5
4F0
100
AcDbEntity
  8
0
100
AcDbCircle
 62
7
  6
CONTINUOUS
 10
226.6147584047
 20
244.6737933685
 40
19.9089982632
100
AcDbArc
 50
357.030958424
 51
0.8890122754
  0
ARC
  5
4F1
100
AcDbEntity
  8
0
100
AcDbCircle
 62
7
  6
CONTINUOUS
 10
235.9590605783
 20
247.2921566796
 40
10.5646902428
100
AcDbArc
 50
355.9242447233
 51
1.2189260937
  0
ARC
  5
4F2
100
AcDbEntity
  8
0
100
AcDbCircle
 62
7
  6
CONTINUOUS
 10
238.4477366444
 20
246.6079828687
 40
8.2355913144
100
AcDbArc
 50
348.6179906498
 51
350.0500557871
  0
ARC
  5
4F3
100
AcDbEntity
  8
0
100
AcDbCircle
 62
7
  6
CONTINUOUS
 10
239.9911402792
 20
247.0338127252
 40
7.1058185191
100
AcDbArc
 50
17.2084567942
 51
20.6562177937
  0
ARC
  5
4F4
100
AcDbEntity
  8
0
100
AcDbCircle
 62
7
  6
CONTINUOUS
 10
240.3412082468
 20
246.9627646104
 40
6.7946040485
100
AcDbArc
 50
15.2348768256
 51
18.6542420928
  0
ARC
  5
4F5
100
AcDbEntity
  8
0
100
AcDbCircle
 62
7
  6
CONTINUOUS
 10
240.4480105709
 20
247.1673377806
 40
6.6889784411
100
AcDbArc
 50
4.000102034
 51
9.9561603919
  0
ARC
  5
4F6
100
AcDbEntity
  8
0
100
AcDbCircle
 62
7
  6
CONTINUOUS
 10
240.6039698013
 20
247.1787248193
 40
6.5334181292
100
AcDbArc
 50
10.0942733314
 51
13.6196315585
  0
ARC
  5
4F7
100
AcDbEntity
  8
0
100
AcDbCircle
 62
7
  6
CONTINUOUS
 10
240.6387623902
 20
198.5798951202
 40
19.0
100
AcDbArc
 50
288.5391665278
 51
303.1534084156
  0
ARC
  5
4F8
100
AcDbEntity
  8
0
100
AcDbCircle
 62
7
  6
CONTINUOUS
 10
240.6387623902
 20
198.5798951202
 40
19.0
100
AcDbArc
 50
236.8465915844
 51
251.4608334722
  0
ARC
  5
4F9
100
AcDbEntity
  8
RUNDUNGEN
100
AcDbCircle
 62
7
  6
CONTINUOUS
 10
240.6387623902
 20
154.5798951202
 40
10.0
100
AcDbArc
 50
138.0
 51
42.0
  0
ARC
  5
4FA
100
AcDbEntity
  8
KONSTRUKTIONSELEMENTE
100
AcDbCircle
 62
7
  6
CONTINUOUS
 10
240.6387623902
 20
159.1798951202
 40
6.5
100
AcDbArc
 50
180.0
 51
360.0
  0
ARC
  5
4FB
100
AcDbEntity
  8
RUNDUNGEN
100
AcDbCircle
 62
7
  6
CONTINUOUS
 10
259.6387623902
 20
176.2611230165
 40
4.0
100
AcDbArc
 50
0.0002078953
 51
39.9962726921
  0
ARC
  5
4FC
100
AcDbEntity
  8
RUNDUNGEN
100
AcDbCircle
 62
7
  6
CONTINUOUS
 10
267.1387623902
 20
165.0798951202
 40
3.5
100
AcDbArc
 50
180.0
 51
210.0
  0
ARC
  5
4FD
100
AcDbEntity
  8
RUNDUNGEN
100
AcDbCircle
 62
7
  6
CONTINUOUS
 10
264.1387576142
 20
157.2760558151
 40
3.0
100
AcDbArc
 50
359.9998420128
 51
29.9998175717
  0
ARC
  5
4FE
100
AcDbEntity
  8
RUNDUNGEN
100
AcDbCircle
 62
7
  6
CONTINUOUS
 10
252.3967384065
 20
180.5798951202
 40
2.5
100
AcDbArc
 50
90.0
 51
123.1534084156
  0
ARC
  5
4FF
100
AcDbEntity
  8
RUNDUNGEN
100
AcDbCircle
 62
7
  6
CONTINUOUS
 10
257.9730305874
 20
180.579850617
 40
2.5
100
AcDbArc
 50
40.0
 51
89.9986596165
  0
ARC
  5
500
100
AcDbEntity
  8
0
100
AcDbCircle
 62
7
  6
CONTINUOUS
 10
257.9673502797
 20
163.489804074
 40
2.5
100
AcDbArc
 50
174.2608295227
 51
357.6842941627
  0
ARC
  5
501
100
AcDbEntity
  8
0
100
AcDbCircle
 62
7
  6
CONTINUOUS
 10
257.9673502797
 20
159.239804074
 40
2.5
100
AcDbArc
 50
174.2608295227
 51
357.6842941627
  0
ARC
  5
502
100
AcDbEntity
  8
0
100
AcDbCircle
 62
7
  6
CONTINUOUS
 10
257.9673502797
 20
163.489804074
 40
1.75
100
AcDbArc
 50
282.5412744583
 51
8.2132107017
  0
ARC
  5
503
100
AcDbEntity
  8
0
100
AcDbCircle
 62
7
  6
CONTINUOUS
 10
257.9673502797
 20
163.489804074
 40
1.75
100
AcDbArc
 50
171.7867892983
 51
257.6123707416
  0
ARC
  5
504
100
AcDbEntity
  8
0
100
AcDbCircle
 62
7
  6
CONTINUOUS
 10
257.9673502797
 20
159.239804074
 40
1.75
100
AcDbArc
 50
180.8223838046
 51
8.2132107017
  0
ARC
  5
505
100
AcDbEntity
  8
KONSTRUKTIONSELEMENTE
100
AcDbCircle
 62
7
  6
CONTINUOUS
 10
240.6387623902
 20
247.1798951202
 40
6.5
100
AcDbArc
 50
24.8906509874
 51
180.0
  0
ARC
  5
506
100
AcDbEntity
  8
0
100
AcDbCircle
 62
7
  6
CONTINUOUS
 10
240.6486209143
 20
247.1782997967
 40
6.49013187
100
AcDbArc
 50
13.7160992952
 51
13.998478471
  0
ARC
  5
507
100
AcDbEntity
  8
0
100
AcDbCircle
 62
7
  6
CONTINUOUS
 10
240.6860233073
 20
247.5040869535
 40
6.2927323745
100
AcDbArc
 50
18.8812167507
 51
20.9463846633
  0
ARC
  5
508
100
AcDbEntity
  8
0
100
AcDbCircle
 62
7
  6
CONTINUOUS
 10
243.6489986831
 20
248.5170307052
 40
3.0415012984
100
AcDbArc
 50
340.8022633423
 51
343.1200143354
  0
ARC
  5
509
100
AcDbEntity
  8
0
100
AcDbCircle
 62
7
  6
CONTINUOUS
 10
244.3560731973
 20
249.1806351476
 40
2.2800224866
100
AcDbArc
 50
14.5569807089
 51
18.0720866128
  0
ARC
  5
50A
100
AcDbEntity
  8
0
100
AcDbCircle
 62
7
  6
CONTINUOUS
 10
246.3251989718
 20
249.8934417303
 40
0.1984928854
100
AcDbArc
 50
358.4083769106
 51
4.7889170855
  0
ARC
  5
50B
100
AcDbEntity
  8
0
100
AcDbCircle
 62
7
  6
CONTINUOUS
 10
121.154031846
 20
40.431406722
 40
19.0
100
AcDbArc
 50
326.8465915844
 51
337.4998012636
  0
ARC
  5
50C
100
AcDbEntity
  8
0
100
AcDbCircle
 62
7
  6
CONTINUOUS
 10
121.154031846
 20
40.431406722
 40
19.0
100
AcDbArc
 50
22.5001987364
 51
33.1534084156
  0
ARC
  5
50D
100
AcDbEntity
  8
RUNDUNGEN
100
AcDbCircle
 62
7
  6
CONTINUOUS
 10
121.154031846
 20
40.431406722
 40
19.0
100
AcDbArc
 50
22.5001987364
 51
33.1534084156
  0
ARC
  5
50E
100
AcDbEntity
  8
RUNDUNGEN
100
AcDbCircle
 62
7
  6
CONTINUOUS
 10
121.154031846
 20
40.431406722
 40
19.0
100
AcDbArc
 50
326.8465915844
 51
337.4998012636
  0
ARC
  5
50F
100
AcDbEntity
  8
KONSTRUKTIONSELEMENTE
100
AcDbCircle
 62
7
  6
CONTINUOUS
 10
125.4994933435
 20
39.8305611657
 40
7.1008195819
100
AcDbArc
 50
89.9885755638
 51
91.244726748
  0
ARC
  5
510
100
AcDbEntity
  8
KONSTRUKTIONSELEMENTE
100
AcDbCircle
 62
7
  6
CONTINUOUS
 10
125.4993181229
 20
41.0192102923
 40
7.0877784621
100
AcDbArc
 50
268.757445212
 51
270.0128145716
  0
ARC
  5
511
100
AcDbEntity
  8
KONSTRUKTIONSELEMENTE
100
AcDbCircle
 62
7
  6
CONTINUOUS
 10
125.4990554797
 20
39.9989851047
 40
6.9323957495
100
AcDbArc
 50
89.8556648436
 51
89.9846790905
  0
ARC
  5
512
100
AcDbEntity
  8
KONSTRUKTIONSELEMENTE
100
AcDbCircle
 62
7
  6
CONTINUOUS
 10
125.4989133537
 20
40.8616560111
 40
6.9302242894
100
AcDbArc
 50
270.016452341
 51
270.1379775245
  0
ARC
  5
513
100
AcDbEntity
  8
KONSTRUKTIONSELEMENTE
100
AcDbCircle
 62
7
  6
CONTINUOUS
 10
122.6136987702
 20
40.431406722
 40
6.5
100
AcDbArc
 50
142.0201275551
 51
217.9798724449
  0
ARC
  5
514
100
AcDbEntity
  8
0
100
AcDbCircle
 62
7
  6
CONTINUOUS
 10
133.2130683484
 20
70.7370981433
 40
36.1906886761
100
AcDbArc
 50
267.7978601938
 51
270.6597838278
  0
ARC
  5
515
100
AcDbEntity
  8
RUNDUNGEN
100
AcDbCircle
 62
7
  6
CONTINUOUS
 10
139.154031846
 20
28.6734307057
 40
2.5
100
AcDbArc
 50
146.8465915844
 51
180.0
  0
ARC
  5
516
100
AcDbEntity
  8
RUNDUNGEN
100
AcDbCircle
 62
7
  6
CONTINUOUS
 10
139.154031846
 20
19.931406722
 40
2.5
100
AcDbArc
 50
180.0
 51
270.0
  0
ARC
  5
517
100
AcDbEntity
  8
RUNDUNGEN
100
AcDbCircle
 62
7
  6
CONTINUOUS
 10
139.1539886746
 20
18.6139900302
 40
2.4999856095
100
AcDbArc
 50
180.0001727517
 51
245.3749659526
  0
ARC
  5
518
100
AcDbEntity
  8
RUNDUNGEN
100
AcDbCircle
 62
7
  6
CONTINUOUS
 10
140.3706985127
 20
32.4715246737
 40
1.8
100
AcDbArc
 50
147.7531927139
 51
157.4998635246
  0
ARC
  5
519
100
AcDbEntity
  8
0
100
AcDbCircle
 62
7
  6
CONTINUOUS
 10
143.2824919264
 20
50.3120963495
 40
16.1991710794
100
AcDbArc
 50
281.3551779167
 51
282.6681213731
  0
ARC
  5
51A
100
AcDbEntity
  8
0
100
AcDbCircle
 62
7
  6
CONTINUOUS
 10
137.7196692788
 20
48.4742834596
 40
14.4343285537
100
AcDbArc
 50
255.326786898
 51
257.2566278546
  0
ARC
  5
51B
100
AcDbEntity
  8
0
100
AcDbCircle
 62
7
  6
CONTINUOUS
 10
142.0672831544
 20
47.9283509333
 40
13.8891375392
100
AcDbArc
 50
255.028114178
 51
256.9942714469
  0
ARC
  5
51C
100
AcDbEntity
  8
0
100
AcDbCircle
 62
7
  6
CONTINUOUS
 10
137.2835718329
 20
42.8848100997
 40
8.9229615715
100
AcDbArc
 50
252.0638148409
 51
255.1034466454
  0
ARC
  5
51D
100
AcDbEntity
  8
0
100
AcDbCircle
 62
7
  6
CONTINUOUS
 10
141.5124555236
 20
41.7332272613
 40
7.7750706919
100
AcDbArc
 50
250.6911861876
 51
253.9363375854
  0
ARC
  5
51E
100
AcDbEntity
  8
0
100
AcDbCircle
 62
7
  6
CONTINUOUS
 10
136.8111916364
 20
39.0821032631
 40
5.1530341462
100
AcDbArc
 50
249.2997720695
 51
252.2018288888
  0
ARC
  5
51F
100
AcDbEntity
  8
0
100
AcDbCircle
 62
7
  6
CONTINUOUS
 10
140.9673732809
 20
37.8673191503
 40
3.9472141976
100
AcDbArc
 50
245.9865876664
 51
249.2681354353
  0
ARC
  5
520
100
AcDbEntity
  8
0
100
AcDbCircle
 62
7
  6
CONTINUOUS
 10
136.3829868113
 20
36.5969297767
 40
2.6791299397
100
AcDbArc
 50
244.6538722257
 51
249.94363977
  0
ARC
  5
521
100
AcDbEntity
  8
RUNDUNGEN
100
AcDbCircle
 62
7
  6
CONTINUOUS
 10
139.154031846
 20
52.1893827383
 40
2.5
100
AcDbArc
 50
180.0
 51
213.1534084157
  0
ARC
  5
522
100
AcDbEntity
  8
RUNDUNGEN
100
AcDbCircle
 62
7
  6
CONTINUOUS
 10
140.3706985127
 20
48.3912887702
 40
1.8
100
AcDbArc
 50
202.5001224707
 51
234.3146652873
  0
ARC
  5
523
100
AcDbEntity
  8
0
100
AcDbCircle
 62
7
  6
CONTINUOUS
 10
150.273467513
 20
35.2150022211
 40
1.4078974087
100
AcDbArc
 50
225.9960873156
 51
227.6309533312
  0
ARC
  5
524
100
AcDbEntity
  8
0
100
AcDbCircle
 62
7
  6
CONTINUOUS
 10
149.154031846
 20
40.431406722
 40
26.75
100
AcDbArc
 50
25.8328784155
 51
33.8653457931
  0
ARC
  5
525
100
AcDbEntity
  8
0
100
AcDbCircle
 62
7
  6
CONTINUOUS
 10
149.154031846
 20
40.431406722
 40
26.75
100
AcDbArc
 50
317.7089324571
 51
330.9487402983
  0
ARC
  5
526
100
AcDbEntity
  8
0
100
AcDbCircle
 62
7
  6
CONTINUOUS
 10
149.154031846
 20
40.431406722
 40
26.75
100
AcDbArc
 50
13.3408919551
 51
23.2815206619
  0
ARC
  5
527
100
AcDbEntity
  8
0
100
AcDbCircle
 62
7
  6
CONTINUOUS
 10
149.154031846
 20
40.431406722
 40
26.75
100
AcDbArc
 50
333.5706816676
 51
346.6590627778
  0
ARC
  5
528
100
AcDbEntity
  8
RUNDUNGEN
100
AcDbCircle
 62
7
  6
CONTINUOUS
 10
149.154031846
 20
40.431406722
 40
26.5
100
AcDbArc
 50
13.6327210246
 51
166.367025939
  0
ARC
  5
529
100
AcDbEntity
  8
RUNDUNGEN
100
AcDbCircle
 62
7
  6
CONTINUOUS
 10
149.154031846
 20
40.431406722
 40
26.5
100
AcDbArc
 50
193.6329610027
 51
346.3672830937
  0
ARC
  5
52A
100
AcDbEntity
  8
0
100
AcDbCircle
 62
7
  6
CONTINUOUS
 10
144.22848968
 20
39.6043359298
 40
5.639744452
100
AcDbArc
 50
289.5979324717
 51
293.4404244151
  0
ARC
  5
52B
100
AcDbEntity
  8
0
100
AcDbCircle
 62
7
  6
CONTINUOUS
 10
147.578097126
 20
91.3810719956
 40
56.8345952317
100
AcDbArc
 50
269.9056415953
 51
270.2830292226
  0
ARC
  5
52C
100
AcDbEntity
  8
0
100
AcDbCircle
 62
7
  6
CONTINUOUS
 10
144.297302029
 20
81.847081196
 40
47.4077853143
100
AcDbArc
 50
273.0684908048
 51
273.8548676028
  0
ARC
  5
52D
100
AcDbEntity
  8
0
100
AcDbCircle
 62
7
  6
CONTINUOUS
 10
137.5476570158
 20
80.0813925773
 40
45.5349838575
100
AcDbArc
 50
268.0367692951
 51
270.5882941355
  0
ARC
  5
52E
100
AcDbEntity
  8
0
100
AcDbCircle
 62
7
  6
CONTINUOUS
 10
141.6453626245
 20
75.909869203
 40
41.5200611691
100
AcDbArc
 50
264.9841197471
 51
265.6264475159
  0
ARC
  5
52F
100
AcDbEntity
  8
0
100
AcDbCircle
 62
7
  6
CONTINUOUS
 10
137.0256236536
 20
70.7087208231
 40
36.3190140303
100
AcDbArc
 50
264.6350296315
 51
265.3216437679
  0
ARC
  5
530
100
AcDbEntity
  8
RUNDUNGEN
100
AcDbCircle
 62
7
  6
CONTINUOUS
 10
139.154031846
 20
60.931406722
 40
2.5
100
AcDbArc
 50
90.0
 51
180.0
  0
ARC
  5
531
100
AcDbEntity
  8
RUNDUNGEN
100
AcDbCircle
 62
7
  6
CONTINUOUS
 10
139.154031846
 20
62.2488318318
 40
2.5
100
AcDbArc
 50
114.6237019276
 51
179.9999487353
  0
ARC
  5
532
100
AcDbEntity
  8
0
100
AcDbCircle
 62
7
  6
CONTINUOUS
 10
151.2894176849
 20
40.8940778791
 40
6.9210682363
100
AcDbArc
 50
249.0222257769
 51
252.5028396847
  0
ARC
  5
533
100
AcDbEntity
  8
0
100
AcDbCircle
 62
7
  6
CONTINUOUS
 10
151.2244433237
 20
34.5708470321
 40
1.94060176
100
AcDbArc
 50
191.775313249
 51
193.3086253294
  0
ARC
  5
534
100
AcDbEntity
  8
RUNDUNGEN
100
AcDbCircle
 62
7
  6
CONTINUOUS
 10
157.9373651794
 20
32.4715246737
 40
1.8
100
AcDbArc
 50
22.5001232247
 51
41.9947950035
  0
ARC
  5
535
100
AcDbEntity
  8
0
100
AcDbCircle
 62
7
  6
CONTINUOUS
 10
152.1912008939
 20
52.4101832757
 40
18.2933266587
100
AcDbArc
 50
258.1223057039
 51
259.3538459262
  0
ARC
  5
536
100
AcDbEntity
  8
RUNDUNGEN
100
AcDbCircle
 62
7
  6
CONTINUOUS
 10
157.9373651794
 20
48.3912887702
 40
1.8
100
AcDbArc
 50
305.6853347127
 51
337.4998630115
  0
ARC
  5
537
100
AcDbEntity
  8
RUNDUNGEN
100
AcDbCircle
 62
7
  6
CONTINUOUS
 10
159.154031846
 20
28.6734307057
 40
2.5
100
AcDbArc
 50
0.0
 51
33.1534084157
  0
ARC
  5
538
100
AcDbEntity
  8
RUNDUNGEN
100
AcDbCircle
 62
7
  6
CONTINUOUS
 10
159.154031846
 20
19.931406722
 40
2.5
100
AcDbArc
 50
270.0
 51
360.0
  0
ARC
  5
539
100
AcDbEntity
  8
RUNDUNGEN
100
AcDbCircle
 62
7
  6
CONTINUOUS
 10
159.154031846
 20
18.6139831518
 40
2.5
100
AcDbArc
 50
294.6237416071
 51
359.9999310867
  0
ARC
  5
53A
100
AcDbEntity
  8
0
100
AcDbCircle
 62
7
  6
CONTINUOUS
 10
159.6570239412
 20
35.3413180927
 40
1.4099113724
100
AcDbArc
 50
270.0146859401
 51
277.1354635645
  0
ARC
  5
53B
100
AcDbEntity
  8
0
100
AcDbCircle
 62
7
  6
CONTINUOUS
 10
164.7270675239
 20
71.6319034954
 40
37.0854941161
100
AcDbArc
 50
267.8245883663
 51
270.6517868881
  0
ARC
  5
53C
100
AcDbEntity
  8
RUNDUNGEN
100
AcDbCircle
 62
7
  6
CONTINUOUS
 10
159.154031846
 20
60.931406722
 40
2.5
100
AcDbArc
 50
0.0
 51
90.0
  0
ARC
  5
53D
100
AcDbEntity
  8
RUNDUNGEN
100
AcDbCircle
 62
7
  6
CONTINUOUS
 10
159.154031846
 20
52.1893827383
 40
2.5
100
AcDbArc
 50
326.8465915844
 51
360.0
  0
ARC
  5
53E
100
AcDbEntity
  8
RUNDUNGEN
100
AcDbCircle
 62
7
  6
CONTINUOUS
 10
159.1540596394
 20
62.2488255291
 40
2.4999907355
100
AcDbArc
 50
0.0001242696
 51
65.3749792201
  0
ARC
  5
53F
100
AcDbEntity
  8
0
100
AcDbCircle
 62
7
  6
CONTINUOUS
 10
158.2162176152
 20
137.3903346564
 40
103.3226678603
100
AcDbArc
 50
269.4238271863
 51
269.8121239388
  0
ARC
  5
540
100
AcDbEntity
  8
0
100
AcDbCircle
 62
7
  6
CONTINUOUS
 10
158.2390805235
 20
137.3583696601
 40
103.2907018595
100
AcDbArc
 50
270.1943720406
 51
270.5762065608
  0
ARC
  5
541
100
AcDbEntity
  8
0
100
AcDbCircle
 62
7
  6
CONTINUOUS
 10
158.5019117419
 20
101.1806311891
 40
66.9041241809
100
AcDbArc
 50
269.70021806
 51
270.0749978222
  0
ARC
  5
542
100
AcDbEntity
  8
0
100
AcDbCircle
 62
7
  6
CONTINUOUS
 10
154.63828125
 20
88.1980604712
 40
53.6517902951
100
AcDbArc
 50
268.2358507903
 51
271.5680660345
  0
ARC
  5
543
100
AcDbEntity
  8
0
100
AcDbCircle
 62
7
  6
CONTINUOUS
 10
151.3164016021
 20
81.117490049
 40
46.6984943589
100
AcDbArc
 50
265.7539374367
 51
266.4514230749
  0
ARC
  5
544
100
AcDbEntity
  8
0
100
AcDbCircle
 62
7
  6
CONTINUOUS
 10
167.7120881127
 20
55.0351906738
 40
20.6461032984
100
AcDbArc
 50
262.8685019728
 51
263.7778167565
  0
ARC
  5
545
100
AcDbEntity
  8
RUNDUNGEN
100
AcDbCircle
 62
7
  6
CONTINUOUS
 10
177.154031846
 20
40.431406722
 40
19.0
100
AcDbArc
 50
202.5001987364
 51
213.1534084156
  0
ARC
  5
546
100
AcDbEntity
  8
RUNDUNGEN
100
AcDbCircle
 62
7
  6
CONTINUOUS
 10
177.154031846
 20
40.431406722
 40
19.0
100
AcDbArc
 50
146.8465915844
 51
157.4998012636
  0
ARC
  5
547
100
AcDbEntity
  8
0
100
AcDbCircle
 62
7
  6
CONTINUOUS
 10
180.7587849923
 20
34.9837965367
 40
15.1580822638
100
AcDbArc
 50
182.2242374192
 51
182.7303397033
  0
ARC
  5
548
100
AcDbEntity
  8
KONSTRUKTIONSELEMENTE
100
AcDbCircle
 62
7
  6
CONTINUOUS
 10
172.8085801384
 20
41.0316398996
 40
7.1002072304
100
AcDbArc
 50
269.9884844466
 51
271.2451818296
  0
ARC
  5
549
100
AcDbEntity
  8
KONSTRUKTIONSELEMENTE
100
AcDbCircle
 62
7
  6
CONTINUOUS
 10
172.80872748
 20
39.841981391
 40
7.0894001657
100
AcDbArc
 50
88.7510198228
 51
90.0126591572
  0
ARC
  5
54A
100
AcDbEntity
  8
KONSTRUKTIONSELEMENTE
100
AcDbCircle
 62
7
  6
CONTINUOUS
 10
172.8090164419
 20
40.8637836541
 40
6.932351092
100
AcDbArc
 50
269.8561357233
 51
269.9845995732
  0
ARC
  5
54B
100
AcDbEntity
  8
KONSTRUKTIONSELEMENTE
100
AcDbCircle
 62
7
  6
CONTINUOUS
 10
172.8091384308
 20
40.001030569
 40
6.9303510968
100
AcDbArc
 50
90.0163471628
 51
90.1389402976
  0
ARC
  5
54C
100
AcDbEntity
  8
KONSTRUKTIONSELEMENTE
100
AcDbCircle
 62
7
  6
CONTINUOUS
 10
175.6943649219
 20
40.431406722
 40
6.5
100
AcDbArc
 50
322.0201275551
 51
37.9798724449
  0
ARC
  5
54D
100
AcDbEntity
  8
0
100
AcDbCircle
 62
7
  6
CONTINUOUS
 10
167.1319405461
 20
36.3526039813
 40
2.4779199971
100
AcDbArc
 50
228.0151565145
 51
232.1683041864
  0
ARC
  5
54E
100
AcDbEntity
  8
0
100
AcDbCircle
 62
7
  6
CONTINUOUS
 10
160.457542628
 20
364.6446918792
 40
330.7029570667
100
AcDbArc
 50
269.8916490564
 51
270.0930970354
  0
SPLINE
  5
54F
100
AcDbEntity
  8
KONSTRUKTIONSELEMENTE
100
AcDbSpline
 62
7
  6
CONTINUOUS
 70
0
 71
3
 72
31
 73
27
 74
0
 42
0.0000001
 43
0.0000001
 44
0.0000000001
 40
0.0
 40
0.0
 40
0.0
 40
0.0
 40
0.1243718539
 40
0.1866770716
 40
0.2490768721
 40
0.311601064
 40
0.3429322611
 40
0.3743188235
 40
0.4057754984
 40
0.4373231264
 40
0.4689907048
 40
0.5008077468
 40
0.5327447042
 40
0.5487814721
 40
0.5647740584
 40
0.5806775185
 40
0.5964966113
 40
0.6278511186
 40
0.6590451308
 40
0.6901485127
 40
0.7211996681
 40
0.7522194377
 40
0.8141975162
 40
0.876144761
 40
0.9380764346
 40
1.0
 40
1.0
 40
1.0
 40
1.0
 10
118.5260820897
 20
188.1798951202
 30
0.0
 10
118.8373272172
 20
187.2905583287
 30
0.0
 10
119.356274363
 20
185.9724928879
 30
0.0
 10
120.1708170413
 20
184.2696230717
 30
0.0
 10
120.8530599201
 20
183.0251178818
 30
0.0
 10
121.4908646197
 20
182.0263150702
 30
0.0
 10
122.0530762176
 20
181.2615891593
 30
0.0
 10
122.5053676597
 20
180.7093098828
 30
0.0
 10
122.9933500426
 20
180.1857586588
 30
0.0
 10
123.5244778725
 20
179.70224081
 30
0.0
 10
124.1094174496
 20
179.2788308837
 30
0.0
 10
124.7591685466
 20
178.9525925503
 30
0.0
 10
125.3630831759
 20
178.8267825048
 30
0.0
 10
125.8492475929
 20
178.8709640161
 30
0.0
 10
126.1979565654
 20
178.9823395057
 30
0.0
 10
126.51384944
 20
179.1628240167
 30
0.0
 10
126.8815059533
 20
179.4712092331
 30
0.0
 10
127.2490694759
 20
179.9448896283
 30
0.0
 10
127.5817904841
 20
180.5734612079
 30
0.0
 10
127.8414250151
 20
181.2324240396
 30
0.0
 10
128.0489284463
 20
181.9075998865
 30
0.0
 10
128.2742097376
 20
182.8203489119
 30
0.0
 10
128.4835277046
 20
183.9764103405
 30
0.0
 10
128.662165503
 20
185.3733967406
 30
0.0
 10
128.7914156476
 20
186.7752852984
 30
0.0
 10
128.8543402366
 20
187.7115602625
 30
0.0
 10
128.8815795854
 20
188.1798951202
 30
0.0
  0
SPLINE
  5
550
100
AcDbEntity
  8
KONSTRUKTIONSELEMENTE
100
AcDbSpline
 62
7
  6
CONTINUOUS
 70
0
 71
3
 72
32
 73
28
 74
0
 42
0.0000001
 43
0.0000001
 44
0.0000000001
 40
0.0
 40
0.0
 40
0.0
 40
0.0
 40
0.0619205208
 40
0.1238491554
 40
0.1857933753
 40
0.2477684405
 40
0.2787867297
 40
0.309836394
 40
0.3409382752
 40
0.3721308297
 40
0.3877994655
 40
0.4035338365
 40
0.4193515416
 40
0.4352543536
 40
0.4512463661
 40
0.4672818923
 40
0.4992175394
 40
0.5310329046
 40
0.5626987826
 40
0.5942447708
 40
0.6256998319
 40
0.6570847948
 40
0.6884144378
 40
0.7509355091
 40
0.813332208
 40
0.8756343302
 40
1.0
 40
1.0
 40
1.0
 40
1.0
 10
128.8815795854
 20
218.1798951202
 30
0.0
 10
128.8543402188
 20
218.6482302842
 30
0.0
 10
128.7914156954
 20
219.5845057011
 30
0.0
 10
128.6621645008
 20
220.9863962646
 30
0.0
 10
128.4835287307
 20
222.3833806567
 30
0.0
 10
128.2742055715
 20
223.539454327
 30
0.0
 10
128.0489347672
 20
224.4521830275
 30
0.0
 10
127.8414017753
 20
225.1274276983
 30
0.0
 10
127.5818701889
 20
225.7861355429
 30
0.0
 10
127.3045444948
 20
226.3102314786
 30
0.0
 10
127.0294715627
 20
226.6974391062
 30
0.0
 10
126.7905378258
 20
226.964994556
 30
0.0
 10
126.5138181333
 20
227.196948259
 30
0.0
 10
126.1979674403
 20
227.3774738977
 30
0.0
 10
125.8492401944
 20
227.48881293
 30
0.0
 10
125.3630818009
 20
227.5330088623
 30
0.0
 10
124.7591660752
 20
227.4071901736
 30
0.0
 10
124.1094155491
 20
227.0809544886
 30
0.0
 10
123.5244770198
 20
226.6575456729
 30
0.0
 10
122.9933504049
 20
226.1740294123
 30
0.0
 10
122.5053683699
 20
225.6504794239
 30
0.0
 10
122.0530753164
 20
225.098202185
 30
0.0
 10
121.4908653695
 20
224.3334753405
 30
0.0
 10
120.8530597028
 20
223.3346731527
 30
0.0
 10
120.1708175606
 20
222.0901674181
 30
0.0
 10
119.3562744769
 20
220.3872975997
 30
0.0
 10
118.8373272479
 20
219.0692319993
 30
0.0
 10
118.5260820897
 20
218.1798951202
 30
0.0
  0
SPLINE
  5
551
100
AcDbEntity
  8
KONSTRUKTIONSELEMENTE
100
AcDbSpline
 62
7
  6
CONTINUOUS
 70
0
 71
3
 72
31
 73
27
 74
0
 42
0.0000001
 43
0.0000001
 44
0.0000000001
 40
0.0
 40
0.0
 40
0.0
 40
0.0
 40
0.1243718524
 40
0.1866770696
 40
0.2490768694
 40
0.3116010599
 40
0.3429322566
 40
0.3743188164
 40
0.405775488
 40
0.4373231111
 40
0.4689906807
 40
0.5008077109
 40
0.5327446701
 40
0.5487813989
 40
0.5647740023
 40
0.5806774735
 40
0.5964965422
 40
0.6278510903
 40
0.6590451136
 40
0.690148502
 40
0.7211996606
 40
0.7522194327
 40
0.8141975132
 40
0.8761447593
 40
0.9380764339
 40
1.0
 40
1.0
 40
1.0
 40
1.0
 10
179.7819816023
 20
218.1798951202
 30
0.0
 10
179.4707364798
 20
219.0692318974
 30
0.0
 10
178.9517893419
 20
220.3872973186
 30
0.0
 10
178.1372466653
 20
222.0901671009
 30
0.0
 10
177.4550038426
 20
223.334672293
 30
0.0
 10
176.8171991184
 20
224.3334750562
 30
0.0
 10
176.2549876245
 20
225.098201
 30
0.0
 10
175.8026961202
 20
225.6504801616
 30
0.0
 10
175.3147137848
 20
226.1740313148
 30
0.0
 10
174.7835860583
 20
226.6575490643
 30
0.0
 10
174.1986466285
 20
227.0809589243
 30
0.0
 10
173.5488957252
 20
227.4071970236
 30
0.0
 10
172.9449813974
 20
227.5330077642
 30
0.0
 10
172.4588174129
 20
227.4888255715
 30
0.0
 10
172.110107635
 20
227.377452535
 30
0.0
 10
171.7942157314
 20
227.1969661122
 30
0.0
 10
171.426557842
 20
226.88858247
 30
0.0
 10
171.0589946265
 20
226.4149011927
 30
0.0
 10
170.7262732935
 20
225.7863294435
 30
0.0
 10
170.466638687
 20
225.1273664302
 30
0.0
 10
170.2591352199
 20
224.4521905121
 30
0.0
 10
170.0338539765
 20
223.5394414155
 30
0.0
 10
169.824535981
 20
222.3833799559
 30
0.0
 10
169.6458982016
 20
220.9863935257
 30
0.0
 10
169.5166480442
 20
219.5845049537
 30
0.0
 10
169.4537234557
 20
218.6482299814
 30
0.0
 10
169.4264841066
 20
218.1798951202
 30
0.0
  0
SPLINE
  5
552
100
AcDbEntity
  8
KONSTRUKTIONSELEMENTE
100
AcDbSpline
 62
7
  6
CONTINUOUS
 70
0
 71
3
 72
32
 73
28
 74
0
 42
0.0000001
 43
0.0000001
 44
0.0000000001
 40
0.0
 40
0.0
 40
0.0
 40
0.0
 40
0.0619205208
 40
0.1238491553
 40
0.1857933752
 40
0.2477684404
 40
0.2787867297
 40
0.3098363939
 40
0.3409382752
 40
0.3721308298
 40
0.3877994652
 40
0.4035338367
 40
0.4193515408
 40
0.4352543529
 40
0.4512463656
 40
0.4672818923
 40
0.4992175408
 40
0.5310329062
 40
0.562698784
 40
0.5942447718
 40
0.6256998326
 40
0.6570847952
 40
0.6884144382
 40
0.7509355093
 40
0.8133322082
 40
0.8756343302
 40
1.0
 40
1.0
 40
1.0
 40
1.0
 10
169.4264841066
 20
188.1798951202
 30
0.0
 10
169.4537234733
 20
187.7115599567
 30
0.0
 10
169.5166479965
 20
186.7752845407
 30
0.0
 10
169.6458991913
 20
185.3733939786
 30
0.0
 10
169.8245349604
 20
183.9764095871
 30
0.0
 10
170.0338581195
 20
182.820335917
 30
0.0
 10
170.2591289216
 20
181.9076072159
 30
0.0
 10
170.4666619136
 20
181.2323625444
 30
0.0
 10
170.7261935039
 20
180.5736547011
 30
0.0
 10
171.0035191883
 20
180.0495587618
 30
0.0
 10
171.2785921334
 20
179.6623511427
 30
0.0
 10
171.5175258539
 20
179.3947956866
 30
0.0
 10
171.7942455539
 20
179.1628419993
 30
0.0
 10
172.110096225
 20
178.982316332
 30
0.0
 10
172.4588234863
 20
178.8709773228
 30
0.0
 10
172.9449818935
 20
178.8267813912
 30
0.0
 10
173.5488976367
 20
178.9526000801
 30
0.0
 10
174.1986481704
 20
179.2788357755
 30
0.0
 10
174.7835866932
 20
179.7022445943
 30
0.0
 10
175.3147133029
 20
180.1857608498
 30
0.0
 10
175.8026953338
 20
180.7093108315
 30
0.0
 10
176.2549883852
 20
181.2615880656
 30
0.0
 10
176.8171983271
 20
182.0263149092
 30
0.0
 10
177.4550039932
 20
183.0251170936
 30
0.0
 10
178.1372461334
 20
184.2696228264
 30
0.0
 10
178.9517892161
 20
185.9724926427
 30
0.0
 10
179.4707364445
 20
187.2905582419
 30
0.0
 10
179.7819816023
 20
188.1798951202
 30
0.0
  0
SPLINE
  5
553
100
AcDbEntity
  8
0
100
AcDbSpline
 62
7
  6
CONTINUOUS
 70
0
 71
3
 72
9
 73
5
 74
0
 42
0.0000001
 43
0.0000001
 44
0.0000000001
 40
0.0
 40
0.0
 40
0.0
 40
0.0
 40
0.2519100891
 40
1.0
 40
1.0
 40
1.0
 40
1.0
 10
246.4970321679
 20
246.541267405
 30
0.0
 10
246.5542606228
 20
246.4337672137
 30
0.0
 10
246.7676017743
 20
245.9998169825
 30
0.0
 10
246.9238509016
 20
245.5376926598
 30
0.0
 10
247.0044568234
 20
245.1851308573
 30
0.0
  0
SPLINE
  5
554
100
AcDbEntity
  8
0
100
AcDbSpline
 62
7
  6
CONTINUOUS
 70
0
 71
3
 72
9
 73
5
 74
0
 42
0.0000001
 43
0.0000001
 44
0.0000000001
 40
0.0
 40
0.0
 40
0.0
 40
0.0
 40
0.5064110229
 40
1.0
 40
1.0
 40
1.0
 40
1.0
 10
246.497032172
 20
243.6425796735
 30
0.0
 10
246.7028975699
 20
243.297854392
 30
0.0
 10
247.0264732072
 20
242.5627455384
 30
0.0
 10
247.1387968667
 20
241.7661149371
 30
0.0
 10
247.1387620875
 20
241.374763907
 30
0.0
  0
SPLINE
  5
555
100
AcDbEntity
  8
KONSTRUKTIONSELEMENTE
100
AcDbSpline
 62
7
  6
CONTINUOUS
 70
0
 71
3
 72
12
 73
8
 74
0
 42
0.0000001
 43
0.0000001
 44
0.0000000001
 40
0.0
 40
0.0
 40
0.0
 40
0.0
 40
0.1789379674
 40
0.3891661165
 40
0.6470934671
 40
0.8068229484
 40
1.0
 40
1.0
 40
1.0
 40
1.0
 10
179.7819816023
 20
36.431406722
 30
0.0
 10
179.4259345325
 20
36.1588081563
 30
0.0
 10
178.6105344403
 20
35.6184444784
 30
0.0
 10
177.1589318616
 20
34.8884088802
 30
0.0
 10
175.6705130302
 20
34.3598389722
 30
0.0
 10
174.1762358359
 20
34.021529705
 30
0.0
 10
173.2912627591
 20
33.9312932689
 30
0.0
 10
172.8071607248
 20
33.9314320475
 30
0.0
  0
SPLINE
  5
556
100
AcDbEntity
  8
KONSTRUKTIONSELEMENTE
100
AcDbSpline
 62
7
  6
CONTINUOUS
 70
0
 71
3
 72
12
 73
8
 74
0
 42
0.0000001
 43
0.0000001
 44
0.0000000001
 40
0.0
 40
0.0
 40
0.0
 40
0.0
 40
0.1931776518
 40
0.3529067932
 40
0.6108340341
 40
0.8210621011
 40
1.0
 40
1.0
 40
1.0
 40
1.0
 10
125.5009106707
 20
33.9314328094
 30
0.0
 10
125.0168066477
 20
33.9313021824
 30
0.0
 10
124.1318319547
 20
34.0215264601
 30
0.0
 10
122.6375527219
 20
34.359839856
 30
0.0
 10
121.1491334555
 20
34.8884076664
 30
0.0
 10
119.6975300201
 20
35.6184441379
 30
0.0
 10
118.8821293781
 20
36.158807989
 30
0.0
 10
118.5260820897
 20
36.431406722
 30
0.0
  0
SPLINE
  5
557
100
AcDbEntity
  8
KONSTRUKTIONSELEMENTE
100
AcDbSpline
 62
7
  6
CONTINUOUS
 70
0
 71
3
 72
12
 73
8
 74
0
 42
0.0000001
 43
0.0000001
 44
0.0000000001
 40
0.0
 40
0.0
 40
0.0
 40
0.0
 40
0.1931776304
 40
0.3529067465
 40
0.6108339962
 40
0.8210620814
 40
1.0
 40
1.0
 40
1.0
 40
1.0
 10
172.8071545709
 20
46.9313806033
 30
0.0
 10
173.2912584403
 20
46.9315105327
 30
0.0
 10
174.1762328105
 20
46.8412869556
 30
0.0
 10
175.6705116264
 20
46.5029732785
 30
0.0
 10
177.1589305748
 20
45.9744056516
 30
0.0
 10
178.6105337984
 20
45.2443692184
 30
0.0
 10
179.4259343484
 20
44.7040054286
 30
0.0
 10
179.7819816023
 20
44.431406722
 30
0.0
  0
SPLINE
  5
558
100
AcDbEntity
  8
KONSTRUKTIONSELEMENTE
100
AcDbSpline
 62
7
  6
CONTINUOUS
 70
0
 71
3
 72
12
 73
8
 74
0
 42
0.0000001
 43
0.0000001
 44
0.0000000001
 40
0.0
 40
0.0
 40
0.0
 40
0.0
 40
0.1789379624
 40
0.3891661055
 40
0.647093449
 40
0.8068229391
 40
1.0
 40
1.0
 40
1.0
 40
1.0
 10
118.5260820897
 20
44.431406722
 30
0.0
 10
118.8821291489
 20
44.7040052795
 30
0.0
 10
119.697529214
 20
45.2443689481
 30
0.0
 10
121.1491317486
 20
45.9744045047
 30
0.0
 10
122.6375505583
 20
46.5029745119
 30
0.0
 10
124.1318277676
 20
46.841283598
 30
0.0
 10
125.0168008887
 20
46.9315206306
 30
0.0
 10
125.5009029451
 20
46.9313814238
 30
0.0
  0
SPLINE
  5
559
100
AcDbEntity
  8
0
100
AcDbSpline
 62
7
  6
CONTINUOUS
 70
0
 71
3
 72
9
 73
5
 74
0
 42
0.0000001
 43
0.0000001
 44
0.0000000001
 40
0.0
 40
0.0
 40
0.0
 40
0.0
 40
0.2449062835
 40
1.0
 40
1.0
 40
1.0
 40
1.0
 10
135.5599655167
 20
34.023500478
 30
0.0
 10
135.5518998649
 20
34.0276954386
 30
0.0
 10
135.5192125338
 20
34.0452954854
 30
0.0
 10
135.4875220886
 20
34.0647327939
 30
0.0
 10
135.4641943982
 20
34.0802737145
 30
0.0
  0
SPLINE
  5
55A
100
AcDbEntity
  8
0
100
AcDbSpline
 62
7
  6
CONTINUOUS
 70
0
 71
3
 72
9
 73
5
 74
0
 42
0.0000001
 43
0.0000001
 44
0.0000000001
 40
0.0
 40
0.0
 40
0.0
 40
0.0
 40
0.235528573
 40
1.0
 40
1.0
 40
1.0
 40
1.0
 10
139.7762136578
 20
34.0235004765
 30
0.0
 10
139.7727929354
 20
34.0277527457
 30
0.0
 10
139.7585828804
 20
34.0460588712
 30
0.0
 10
139.7455643566
 20
34.0652732152
 30
0.0
 10
139.7361435895
 20
34.0802737165
 30
0.0
  0
SPLINE
  5
55B
100
AcDbEntity
  8
0
100
AcDbSpline
 62
7
  6
CONTINUOUS
 70
0
 71
3
 72
9
 73
5
 74
0
 42
0.0000001
 43
0.0000001
 44
0.0000000001
 40
0.0
 40
0.0
 40
0.0
 40
0.0
 40
0.2455301026
 40
1.0
 40
1.0
 40
1.0
 40
1.0
 10
139.7361435895
 20
34.0802737165
 30
0.0
 10
139.7221250349
 20
34.0872980294
 30
0.0
 10
139.6654515964
 20
34.1167435837
 30
0.0
 10
139.6104897253
 20
34.1494593239
 30
0.0
 10
139.570079079
 20
34.1756977132
 30
0.0
  0
SPLINE
  5
55C
100
AcDbEntity
  8
0
100
AcDbSpline
 62
7
  6
CONTINUOUS
 70
0
 71
3
 72
10
 73
6
 74
0
 42
0.0000001
 43
0.0000001
 44
0.0000000001
 40
0.0
 40
0.0
 40
0.0
 40
0.0
 40
0.3347605873
 40
0.6093211417
 40
1.0
 40
1.0
 40
1.0
 40
1.0
 10
152.9865922476
 20
34.5717001126
 30
0.0
 10
152.9501319987
 20
34.4864597949
 30
0.0
 10
152.8767146669
 20
34.3330893616
 30
0.0
 10
152.7293045152
 20
34.102353262
 30
0.0
 10
152.5814614381
 20
33.9656821734
 30
0.0
 10
152.476418056
 20
33.9397500662
 30
0.0
  0
SPLINE
  5
55D
100
AcDbEntity
  8
0
100
AcDbSpline
 62
7
  6
CONTINUOUS
 70
0
 71
3
 72
9
 73
5
 74
0
 42
0.0000001
 43
0.0000001
 44
0.0000000001
 40
0.0
 40
0.0
 40
0.0
 40
0.0
 40
0.2638969774
 40
1.0
 40
1.0
 40
1.0
 40
1.0
 10
158.1518587921
 20
34.2774227806
 30
0.0
 10
158.1298120556
 20
34.2565028601
 30
0.0
 10
158.0443626559
 20
34.1793108841
 30
0.0
 10
157.9506934572
 20
34.110854393
 30
0.0
 10
157.8774174235
 20
34.068222269
 30
0.0
  0
SPLINE
  5
55E
100
AcDbEntity
  8
0
100
AcDbSpline
 62
7
  6
CONTINUOUS
 70
0
 71
3
 72
9
 73
5
 74
0
 42
0.0000001
 43
0.0000001
 44
0.0000000001
 40
0.0
 40
0.0
 40
0.0
 40
0.0
 40
0.2556660221
 40
1.0
 40
1.0
 40
1.0
 40
1.0
 10
157.1772107387
 20
34.0728910252
 30
0.0
 10
157.1659305587
 20
34.0662193196
 30
0.0
 10
157.1213968585
 20
34.0408323824
 30
0.0
 10
157.0751793003
 20
34.0183684163
 30
0.0
 10
157.0399901025
 20
34.0036204017
 30
0.0
  0
SPLINE
  5
55F
100
AcDbEntity
  8
0
100
AcDbSpline
 62
7
  6
CONTINUOUS
 70
0
 71
3
 72
10
 73
6
 74
0
 42
0.0000001
 43
0.0000001
 44
0.0000000001
 40
0.0
 40
0.0
 40
0.0
 40
0.0
 40
0.5199018907
 40
0.7627644798
 40
1.0
 40
1.0
 40
1.0
 40
1.0
 10
163.3193402194
 20
34.5731369526
 30
0.0
 10
163.0792801167
 20
34.3752869059
 30
0.0
 10
162.6828059424
 20
34.1287409407
 30
0.0
 10
162.1061110668
 20
33.9593905589
 30
0.0
 10
161.8180474369
 20
33.9313896148
 30
0.0
 10
161.6760970682
 20
33.9314070246
 30
0.0
  0
SPLINE
  5
560
100
AcDbEntity
  8
0
100
AcDbSpline
 62
7
  6
CONTINUOUS
 70
0
 71
3
 72
9
 73
5
 74
0
 42
0.0000001
 43
0.0000001
 44
0.0000000001
 40
0.0
 40
0.0
 40
0.0
 40
0.0
 40
0.2436619182
 40
1.0
 40
1.0
 40
1.0
 40
1.0
 10
149.2953906352
 20
34.2023123699
 30
0.0
 10
149.2880426759
 20
34.2094069515
 30
0.0
 10
149.2581933063
 20
34.2388405702
 30
0.0
 10
149.2295558293
 20
34.2694964628
 30
0.0
 10
149.2085394749
 20
34.2932346446
 30
0.0
  0
SPLINE
  5
561
100
AcDbEntity
  8
0
100
AcDbSpline
 62
7
  6
CONTINUOUS
 70
0
 71
3
 72
9
 73
5
 74
0
 42
0.0000001
 43
0.0000001
 44
0.0000000001
 40
0.0
 40
0.0
 40
0.0
 40
0.0
 40
0.2631646926
 40
1.0
 40
1.0
 40
1.0
 40
1.0
 10
146.120159089
 20
34.2913043723
 30
0.0
 10
146.1143910813
 20
34.2806714396
 30
0.0
 10
146.0920622156
 20
34.2404941101
 30
0.0
 10
146.068024987
 20
34.2012475011
 30
0.0
 10
146.049125424
 20
34.1731415092
 30
0.0
  0
ELLIPSE
  5
562
100
AcDbEntity
  8
0
100
AcDbEllipse
 62
7
  6
CONTINUOUS
 10
149.154031846
 20
120.8441506565
 30
0.0
 11
26.75
 21
0.0
 31
0.0
 40
0.8987235201
 41
-0.0654673159
 42
-0.000001512
  0
ELLIPSE
  5
563
100
AcDbEntity
  8
0
100
AcDbEllipse
 62
7
  6
CONTINUOUS
 10
149.154031846
 20
128.4150015392
 30
0.0
 11
26.75
 21
-0.0
 31
0.0
 40
0.5106380606
 41
-0.0144086079
 42
-0.0000000737
  0
ELLIPSE
  5
564
100
AcDbEntity
  8
0
100
AcDbEllipse
 62
7
  6
CONTINUOUS
 10
149.154031846
 20
124.6259948168
 30
0.0
 11
26.75
 21
-0.0
 31
0.0
 40
0.6808509827
 41
6.2473520748
 42
6.2625451931
  0
ELLIPSE
  5
565
100
AcDbEntity
  8
0
100
AcDbEllipse
 62
7
  6
CONTINUOUS
 10
149.154031846
 20
124.3628739486
 30
0.0
 11
26.75
 21
-0.0
 31
0.0
 40
0.204255139
 41
6.2625451931
 42
6.2831851719
  0
ELLIPSE
  5
566
100
AcDbEntity
  8
0
100
AcDbEllipse
 62
7
  6
CONTINUOUS
 10
149.154031846
 20
124.5245758281
 30
0.0
 11
26.75
 21
-0.0
 31
0.0
 40
0.204255139
 41
-0.0502547956
 42
-0.0249246797
  0
ELLIPSE
  5
567
100
AcDbEntity
  8
0
100
AcDbEllipse
 62
7
  6
CONTINUOUS
 10
149.154031846
 20
125.165001493
 30
0.0
 11
26.75
 21
0.0
 31
0.0
 40
0.6808509827
 41
-0.0654673159
 42
-0.0502547956
  0
ELLIPSE
  5
568
100
AcDbEntity
  8
0
100
AcDbEllipse
 62
7
  6
CONTINUOUS
 10
149.154031846
 20
126.6543579043
 30
0.0
 11
0.0
 21
40.9786403587
 31
0.0
 40
0.6527791007
 41
-1.6464135596
 42
-1.6362636427
  0
ELLIPSE
  5
569
100
AcDbEntity
  8
0
100
AcDbEllipse
 62
7
  6
CONTINUOUS
 10
149.154031846
 20
111.8990440109
 30
0.0
 11
0.0
 21
50.0851067901
 31
0.0
 40
0.5340909047
 41
-1.4537065296
 42
-1.4371375905
  0
ELLIPSE
  5
56A
100
AcDbEntity
  8
0
100
AcDbEllipse
 62
7
  6
CONTINUOUS
 10
149.154031846
 20
120.7713760859
 30
0.0
 11
0.0
 21
54.6384997883
 31
0.0
 40
0.4895815241
 41
-1.5349630944
 42
-1.524830005
  0
ELLIPSE
  5
56B
100
AcDbEntity
  8
0
100
AcDbEllipse
 62
7
  6
CONTINUOUS
 10
149.154031846
 20
125.4416035964
 30
0.0
 11
0.0
 21
40.9788748412
 31
0.0
 40
0.6527753654
 41
4.6664226586
 42
4.676555748
  0
ELLIPSE
  5
56C
100
AcDbEntity
  8
0
100
AcDbEllipse
 62
7
  6
CONTINUOUS
 10
149.154031846
 20
144.1330428617
 30
0.0
 11
0.0
 21
81.9572807173
 31
0.0
 40
0.3263895503
 41
-1.8367716985
 42
-1.8315286082
  0
ELLIPSE
  5
56D
100
AcDbEntity
  8
0
100
AcDbEllipse
 62
7
  6
CONTINUOUS
 10
149.154031846
 20
132.1650002711
 30
0.0
 11
0.0
 21
36.4255275726
 31
0.0
 40
0.7343750875
 41
-1.8525466512
 42
-1.8367716985
  0
ELLIPSE
  5
56E
100
AcDbEntity
  8
0
100
AcDbEllipse
 62
7
  6
CONTINUOUS
 10
149.154031846
 20
127.7341470191
 30
0.0
 11
26.75
 21
0.0
 31
0.0
 40
0.7659569903
 41
-0.3028970435
 42
-0.2817503244
  0
ELLIPSE
  5
56F
100
AcDbEntity
  8
0
100
AcDbEllipse
 62
7
  6
CONTINUOUS
 10
149.154031846
 20
123.2522360506
 30
0.0
 11
26.75
 21
-0.0
 31
0.0
 40
0.2042553727
 41
-0.3295297655
 42
-0.3028970435
  0
ELLIPSE
  5
570
100
AcDbEntity
  8
0
100
AcDbEllipse
 62
7
  6
CONTINUOUS
 10
149.154031846
 20
123.3118095501
 30
0.0
 11
26.75
 21
-0.0
 31
0.0
 40
0.2042553727
 41
0.3028970435
 42
0.3295297655
  0
ELLIPSE
  5
571
100
AcDbEntity
  8
0
100
AcDbEllipse
 62
7
  6
CONTINUOUS
 10
149.154031846
 20
118.8298985817
 30
0.0
 11
26.75
 21
0.0
 31
0.0
 40
0.7659569903
 41
0.2817503244
 42
0.3028970435
  0
ELLIPSE
  5
572
100
AcDbEntity
  8
0
100
AcDbEllipse
 62
7
  6
CONTINUOUS
 10
149.154031846
 20
114.3990453296
 30
0.0
 11
0.0
 21
36.4255275726
 31
0.0
 40
0.7343750875
 41
-1.3048209551
 42
-1.2890460024
  0
ELLIPSE
  5
573
100
AcDbEntity
  8
0
100
AcDbEllipse
 62
7
  6
CONTINUOUS
 10
149.154031846
 20
102.431002739
 30
0.0
 11
0.0
 21
81.9572807173
 31
0.0
 40
0.3263895503
 41
-1.3100640454
 42
-1.3048209551
  0
ELLIPSE
  5
574
100
AcDbEntity
  8
0
100
AcDbEllipse
 62
7
  6
CONTINUOUS
 10
149.154031846
 20
162.803332841
 30
0.0
 11
0.0
 21
81.9575151992
 31
0.0
 40
0.3263886165
 41
-2.0836367128
 42
-2.0778364604
  0
ELLIPSE
  5
575
100
AcDbEntity
  8
0
100
AcDbEllipse
 62
7
  6
CONTINUOUS
 10
149.154031846
 20
140.4628716224
 30
0.0
 11
0.0
 21
36.4255275726
 31
0.0
 40
0.7343750875
 41
-2.1011530838
 42
-2.0836367128
  0
ELLIPSE
  5
576
100
AcDbEntity
  8
0
100
AcDbEllipse
 62
7
  6
CONTINUOUS
 10
149.154031846
 20
132.4017048416
 30
0.0
 11
26.75
 21
-0.0
 31
0.0
 40
0.7659575381
 41
-0.5539967092
 42
-0.530356757
  0
ELLIPSE
  5
577
100
AcDbEntity
  8
0
100
AcDbEllipse
 62
7
  6
CONTINUOUS
 10
149.154031846
 20
124.4969155042
 30
0.0
 11
26.75
 21
0.0
 31
0.0
 40
0.2042552558
 41
-0.5840437217
 42
-0.5539967092
  0
ELLIPSE
  5
578
100
AcDbEntity
  8
0
100
AcDbEllipse
 62
7
  6
CONTINUOUS
 10
149.154031846
 20
122.0671300965
 30
0.0
 11
26.75
 21
-0.0
 31
0.0
 40
0.2042552558
 41
0.5539967092
 42
0.5840437217
  0
ELLIPSE
  5
579
100
AcDbEntity
  8
0
100
AcDbEllipse
 62
7
  6
CONTINUOUS
 10
149.154031846
 20
114.1623407591
 30
0.0
 11
26.75
 21
-0.0
 31
0.0
 40
0.7659575381
 41
0.530356757
 42
0.5539967092
  0
ELLIPSE
  5
57A
100
AcDbEntity
  8
0
100
AcDbEllipse
 62
7
  6
CONTINUOUS
 10
149.154031846
 20
106.1011739784
 30
0.0
 11
-0.0
 21
36.4255275726
 31
0.0
 40
0.7343750875
 41
-1.0579559408
 42
-1.0404395698
  0
ELLIPSE
  5
57B
100
AcDbEntity
  8
0
100
AcDbEllipse
 62
7
  6
CONTINUOUS
 10
149.154031846
 20
83.7607127597
 30
0.0
 11
0.0
 21
81.9575151992
 31
0.0
 40
0.3263886165
 41
-1.0637561931
 42
-1.0579559408
  0
ELLIPSE
  5
57C
100
AcDbEntity
  8
0
100
AcDbEllipse
 62
7
  6
CONTINUOUS
 10
149.154031846
 20
115.4108646916
 30
0.0
 11
0.0
 21
69.8156030178
 31
0.0
 40
0.3831521729
 41
-1.3883211907
 42
-1.3417745852
  0
ELLIPSE
  5
57D
100
AcDbEntity
  8
0
100
AcDbEllipse
 62
7
  6
CONTINUOUS
 10
149.154031846
 20
134.3618103258
 30
0.0
 11
26.75
 21
0.0
 31
0.0
 40
0.5106383587
 41
-0.2290217416
 42
-0.2082782847
  0
ELLIPSE
  5
57E
100
AcDbEntity
  8
0
100
AcDbEllipse
 62
7
  6
CONTINUOUS
 10
149.154031846
 20
139.0692558997
 30
0.0
 11
0.0
 21
36.4255275726
 31
0.0
 40
0.7343750875
 41
-1.7790746115
 42
-1.7635769907
  0
ELLIPSE
  5
57F
100
AcDbEntity
  8
0
100
AcDbEllipse
 62
7
  6
CONTINUOUS
 10
149.154031846
 20
147.7926740899
 30
0.0
 11
0.0
 21
81.9575151992
 31
0.0
 40
0.3263886165
 41
-1.7635769907
 42
-1.7584217137
  0
ELLIPSE
  5
580
100
AcDbEntity
  8
0
100
AcDbEllipse
 62
7
  6
CONTINUOUS
 10
149.154031846
 20
117.7713715109
 30
0.0
 11
0.0
 21
81.9575151992
 31
0.0
 40
0.3263886165
 41
-1.3831709399
 42
-1.3780156629
  0
ELLIPSE
  5
581
100
AcDbEntity
  8
0
100
AcDbEllipse
 62
7
  6
CONTINUOUS
 10
149.154031846
 20
126.494789701
 30
0.0
 11
-0.0
 21
36.4255275726
 31
0.0
 40
0.7343750875
 41
-1.3780156629
 42
-1.3625180421
  0
ELLIPSE
  5
582
100
AcDbEntity
  8
0
100
AcDbEllipse
 62
7
  6
CONTINUOUS
 10
149.154031846
 20
129.7900010641
 30
0.0
 11
26.75
 21
-0.0
 31
0.0
 40
0.7659575381
 41
0.2082782847
 42
0.2290217416
  0
ELLIPSE
  5
583
100
AcDbEntity
  8
0
100
AcDbEllipse
 62
7
  6
CONTINUOUS
 10
149.154031846
 20
133.2011721433
 30
0.0
 11
26.75
 21
-0.0
 31
0.0
 40
0.2042552558
 41
0.2290217416
 42
0.2550940834
  0
ELLIPSE
  5
584
100
AcDbEntity
  8
0
100
AcDbEllipse
 62
7
  6
CONTINUOUS
 10
149.154031846
 20
129.1011730054
 30
0.0
 11
0.0
 21
109.2763742898
 31
0.0
 40
0.2447921628
 41
-1.5649551721
 42
-1.5598926743
  0
ELLIPSE
  5
585
100
AcDbEntity
  8
0
100
AcDbEllipse
 62
7
  6
CONTINUOUS
 10
149.154031846
 20
128.5001074764
 30
0.0
 11
26.75
 21
-0.0
 31
0.0
 40
0.255319362
 41
0.0600048593
 42
0.080304342
  0
ELLIPSE
  5
586
100
AcDbEntity
  8
0
100
AcDbEllipse
 62
7
  6
CONTINUOUS
 10
149.154031846
 20
128.2969164727
 30
0.0
 11
26.75
 21
-0.0
 31
0.0
 40
0.2042553906
 41
-0.0397300775
 42
-0.0144086079
  0
ELLIPSE
  5
587
100
AcDbEntity
  8
0
100
AcDbEllipse
 62
7
  6
CONTINUOUS
 10
149.154031846
 20
127.5869871386
 30
0.0
 11
26.75
 21
-0.0
 31
0.0
 40
0.6808512211
 41
0.080304342
 42
0.0955503019
  0
ELLIPSE
  5
588
100
AcDbEntity
  8
0
100
AcDbEllipse
 62
7
  6
CONTINUOUS
 10
149.154031846
 20
125.4150098672
 30
0.0
 11
0.0
 21
40.9786403587
 31
0.0
 40
0.6527791007
 41
-1.4752460249
 42
-1.4650698623
  0
ELLIPSE
  5
589
100
AcDbEntity
  8
0
100
AcDbEllipse
 62
7
  6
CONTINUOUS
 10
149.154031846
 20
118.2075110192
 30
0.0
 11
0.0
 21
109.2769995766
 31
0.0
 40
0.244790762
 41
-1.4650698623
 42
-1.4599777527
  0
ELLIPSE
  5
58A
100
AcDbEntity
  8
0
100
AcDbEllipse
 62
7
  6
CONTINUOUS
 10
149.154031846
 20
134.5799339204
 30
0.0
 11
0.0
 21
109.2769995766
 31
0.0
 40
0.244790762
 41
-1.6718247796
 42
-1.6667378382
  0
ELLIPSE
  5
58B
100
AcDbEntity
  8
0
100
AcDbEllipse
 62
7
  6
CONTINUOUS
 10
149.154031846
 20
126.7288335896
 30
0.0
 11
-0.0
 21
27.3191717331
 31
0.0
 40
0.9791658496
 41
-1.6667378382
 42
-1.6464135596
  0
ELLIPSE
  5
58C
100
AcDbEntity
  8
0
100
AcDbEllipse
 62
7
  6
CONTINUOUS
 10
149.154031846
 20
125.6969146188
 30
0.0
 11
26.75
 21
-0.0
 31
0.0
 40
0.510637263
 41
-0.0756172328
 42
-0.0553241489
  0
ELLIPSE
  5
58D
100
AcDbEntity
  8
0
100
AcDbEllipse
 62
7
  6
CONTINUOUS
 10
149.154031846
 20
127.0532999125
 30
0.0
 11
26.5
 21
-0.0
 31
0.0
 40
0.5106380606
 41
0.0861915854
 42
0.1067276705
  0
ELLIPSE
  5
58E
100
AcDbEntity
  8
0
100
AcDbEllipse
 62
7
  6
CONTINUOUS
 10
149.154031846
 20
125.157402752
 30
0.0
 11
26.75
 21
-0.0
 31
0.0
 40
0.1458967187
 41
-0.0553241489
 42
-0.0198611188
  0
ELLIPSE
  5
58F
100
AcDbEntity
  8
0
100
AcDbEllipse
 62
7
  6
CONTINUOUS
 10
149.154031846
 20
127.7522353784
 30
0.0
 11
26.5
 21
-0.0
 31
0.0
 40
0.2042553906
 41
6.3437569401
 42
6.3693768926
  0
ELLIPSE
  5
590
100
AcDbEntity
  8
0
100
AcDbEllipse
 62
7
  6
CONTINUOUS
 10
149.154031846
 20
112.5253723495
 30
0.0
 11
0.0
 21
71.0425584342
 31
0.0
 40
0.3730158455
 41
-1.3500616373
 42
-1.3079532331
  0
ELLIPSE
  5
591
100
AcDbEntity
  8
0
100
AcDbEllipse
 62
7
  6
CONTINUOUS
 10
149.154031846
 20
121.8549707987
 30
0.0
 11
26.75
 21
-0.0
 31
0.0
 40
0.9118538228
 41
6.1770672301
 42
6.3190185396
  0
ELLIPSE
  5
592
100
AcDbEntity
  8
0
100
AcDbEllipse
 62
7
  6
CONTINUOUS
 10
149.154031846
 20
125.2146464018
 30
0.0
 11
26.75
 21
-0.0
 31
0.0
 40
0.3404254913
 41
-0.3241844423
 42
-0.3082052024
  0
ELLIPSE
  5
593
100
AcDbEntity
  8
0
100
AcDbEllipse
 62
7
  6
CONTINUOUS
 10
149.154031846
 20
130.7394761657
 30
0.0
 11
0.0
 21
27.3191717331
 31
0.0
 40
0.9791658496
 41
-1.8790015292
 42
-1.8683939722
  0
ELLIPSE
  5
594
100
AcDbEntity
  8
0
100
AcDbEllipse
 62
7
  6
CONTINUOUS
 10
149.154031846
 20
146.7606973749
 30
0.0
 11
0.0
 21
81.9572807173
 31
0.0
 40
0.3263895503
 41
-1.8683939722
 42
-1.8631031736
  0
ELLIPSE
  5
595
100
AcDbEntity
  8
0
100
AcDbEllipse
 62
7
  6
CONTINUOUS
 10
149.154031846
 20
99.9416460817
 30
0.0
 11
0.0
 21
81.9572807173
 31
0.0
 40
0.3263895503
 41
-1.27848948
 42
-1.2731986814
  0
ELLIPSE
  5
596
100
AcDbEntity
  8
0
100
AcDbEllipse
 62
7
  6
CONTINUOUS
 10
149.154031846
 20
115.9628672909
 30
0.0
 11
-0.0
 21
27.3191717331
 31
0.0
 40
0.9791658496
 41
-1.2731986814
 42
-1.2625911244
  0
ELLIPSE
  5
597
100
AcDbEntity
  8
0
100
AcDbEllipse
 62
7
  6
CONTINUOUS
 10
149.154031846
 20
121.4876970548
 30
0.0
 11
26.75
 21
-0.0
 31
0.0
 40
0.3404254913
 41
0.3082052024
 42
0.3241844423
  0
ELLIPSE
  5
598
100
AcDbEntity
  8
0
100
AcDbEllipse
 62
7
  6
CONTINUOUS
 10
149.154031846
 20
121.4876970548
 30
0.0
 11
26.5
 21
-0.0
 31
0.0
 40
0.3404254913
 41
0.3112099429
 42
0.3273563253
  0
ELLIPSE
  5
599
100
AcDbEntity
  8
0
100
AcDbEllipse
 62
7
  6
CONTINUOUS
 10
149.154031846
 20
115.9628672909
 30
0.0
 11
-0.0
 21
27.0638523711
 31
0.0
 40
0.9791658496
 41
-1.2703039398
 42
-1.2595863839
  0
ELLIPSE
  5
59A
100
AcDbEntity
  8
0
100
AcDbEllipse
 62
7
  6
CONTINUOUS
 10
149.154031846
 20
99.9416460817
 30
0.0
 11
0.0
 21
81.1913248228
 31
0.0
 40
0.3263895503
 41
-1.2756493305
 42
-1.2703039398
  0
ELLIPSE
  5
59B
100
AcDbEntity
  8
0
100
AcDbEllipse
 62
7
  6
CONTINUOUS
 10
149.154031846
 20
146.7606973749
 30
0.0
 11
0.0
 21
81.1913248228
 31
0.0
 40
0.3263895503
 41
-1.8712887137
 42
-1.8659433231
  0
ELLIPSE
  5
59C
100
AcDbEntity
  8
0
100
AcDbEllipse
 62
7
  6
CONTINUOUS
 10
149.154031846
 20
130.7394761657
 30
0.0
 11
0.0
 21
27.0638523711
 31
0.0
 40
0.9791658496
 41
-1.8820062697
 42
-1.8712887137
  0
ELLIPSE
  5
59D
100
AcDbEntity
  8
0
100
AcDbEllipse
 62
7
  6
CONTINUOUS
 10
149.154031846
 20
125.2146464018
 30
0.0
 11
26.5
 21
-0.0
 31
0.0
 40
0.3404254913
 41
-0.3273563253
 42
-0.3112099429
  0
ELLIPSE
  5
59E
100
AcDbEntity
  8
0
100
AcDbEllipse
 62
7
  6
CONTINUOUS
 10
149.154031846
 20
119.4132290851
 30
0.0
 11
26.5
 21
-0.0
 31
0.0
 40
0.3404254913
 41
6.8490708518
 42
6.8673391288
  0
ELLIPSE
  5
59F
100
AcDbEntity
  8
0
100
AcDbEllipse
 62
7
  6
CONTINUOUS
 10
149.154031846
 20
109.7394782043
 30
0.0
 11
0.0
 21
27.0638136559
 31
0.0
 40
0.9791672503
 41
-1.0169723937
 42
-1.0049107822
  0
ELLIPSE
  5
5A0
100
AcDbEntity
  8
0
100
AcDbEllipse
 62
7
  6
CONTINUOUS
 10
149.154031846
 20
81.2713489803
 30
0.0
 11
0.0
 21
81.1915571132
 31
0.0
 40
0.3263886165
 41
-1.0229694701
 42
-1.0169723937
  0
ELLIPSE
  5
5A1
100
AcDbEntity
  8
0
100
AcDbEllipse
 62
7
  6
CONTINUOUS
 10
149.154031846
 20
165.4309944763
 30
0.0
 11
0.0
 21
81.1915571132
 31
0.0
 40
0.3263886165
 41
-2.1246202599
 42
-2.1186231835
  0
ELLIPSE
  5
5A2
100
AcDbEntity
  8
0
100
AcDbEllipse
 62
7
  6
CONTINUOUS
 10
149.154031846
 20
136.9628652523
 30
0.0
 11
0.0
 21
27.0638136559
 31
0.0
 40
0.9791672503
 41
-2.1366818714
 42
-2.1246202599
  0
ELLIPSE
  5
5A3
100
AcDbEntity
  8
0
100
AcDbEllipse
 62
7
  6
CONTINUOUS
 10
149.154031846
 20
127.2891143715
 30
0.0
 11
26.75
 21
-0.0
 31
0.0
 40
0.3404254913
 41
-0.5779876452
 42
-0.5599604078
  0
ELLIPSE
  5
5A4
100
AcDbEntity
  8
0
100
AcDbEllipse
 62
7
  6
CONTINUOUS
 10
149.154031846
 20
127.2891143715
 30
0.0
 11
26.5
 21
-0.0
 31
0.0
 40
0.3404254913
 41
-0.5841538216
 42
-0.5658855446
  0
ELLIPSE
  5
5A5
100
AcDbEntity
  8
0
100
AcDbEllipse
 62
7
  6
CONTINUOUS
 10
149.154031846
 20
129.5001076823
 30
0.0
 11
0.0
 21
40.9787575996
 31
0.0
 40
0.6527772331
 41
-1.5750798193
 42
-1.5649551721
  0
ELLIPSE
  5
5A6
100
AcDbEntity
  8
0
100
AcDbEllipse
 62
7
  6
CONTINUOUS
 10
149.154031846
 20
111.0373802211
 30
0.0
 11
0.0
 21
135.3188747046
 31
0.0
 40
0.1958337302
 41
-1.4331768092
 42
-1.4280160944
  0
ELLIPSE
  5
5A7
100
AcDbEntity
  8
0
100
AcDbEllipse
 62
7
  6
CONTINUOUS
 10
149.154031846
 20
122.175643203
 30
0.0
 11
0.0
 21
54.127636789
 31
0.0
 40
0.4895835394
 41
-1.443487311
 42
-1.4331768092
  0
ELLIPSE
  5
5A8
100
AcDbEntity
  8
0
100
AcDbEllipse
 62
7
  6
CONTINUOUS
 10
149.154031846
 20
131.6366330158
 30
0.0
 11
26.5
 21
-0.0
 31
0.0
 40
0.3404254913
 41
0.236474531
 42
0.2522743083
  0
ELLIPSE
  5
5A9
100
AcDbEntity
  8
0
100
AcDbEllipse
 62
7
  6
CONTINUOUS
 10
149.154031846
 20
127.4096861005
 30
0.0
 11
-0.0
 21
27.0638136559
 31
0.0
 40
0.9791672503
 41
-1.3448214052
 42
-1.3343217958
  0
ELLIPSE
  5
5AA
100
AcDbEntity
  8
0
100
AcDbEllipse
 62
7
  6
CONTINUOUS
 10
149.154031846
 20
115.2820077315
 30
0.0
 11
0.0
 21
81.1915571132
 31
0.0
 40
0.3263886165
 41
-1.3500616373
 42
-1.3448214052
  0
ELLIPSE
  5
5AB
100
AcDbEntity
  8
0
100
AcDbEllipse
 62
7
  6
CONTINUOUS
 10
149.154031846
 20
150.4203357251
 30
0.0
 11
0.0
 21
81.1915571132
 31
0.0
 40
0.3263886165
 41
-1.7967712484
 42
-1.7915310163
  0
ELLIPSE
  5
5AC
100
AcDbEntity
  8
0
100
AcDbEllipse
 62
7
  6
CONTINUOUS
 10
149.154031846
 20
138.2926573562
 30
0.0
 11
0.0
 21
27.0638136559
 31
0.0
 40
0.9791672503
 41
-1.8072708578
 42
-1.7967712484
  0
ELLIPSE
  5
5AD
100
AcDbEntity
  8
0
100
AcDbEllipse
 62
7
  6
CONTINUOUS
 10
149.154031846
 20
134.0657104409
 30
0.0
 11
26.5
 21
-0.0
 31
0.0
 40
0.3404254913
 41
-0.2522743083
 42
-0.236474531
  0
ELLIPSE
  5
5AE
100
AcDbEntity
  8
0
100
AcDbEllipse
 62
7
  6
CONTINUOUS
 10
149.154031846
 20
136.9628652523
 30
0.0
 11
0.0
 21
27.3191326527
 31
0.0
 40
0.9791672503
 41
-2.1307567346
 42
-2.1188512756
  0
ELLIPSE
  5
5AF
100
AcDbEntity
  8
0
100
AcDbEllipse
 62
7
  6
CONTINUOUS
 10
149.154031846
 20
165.4309944763
 30
0.0
 11
0.0
 21
81.9575151992
 31
0.0
 40
0.3263886165
 41
-2.1188512756
 42
-2.1129309887
  0
ELLIPSE
  5
5B0
100
AcDbEntity
  8
0
100
AcDbEllipse
 62
7
  6
CONTINUOUS
 10
149.154031846
 20
81.2713489803
 30
0.0
 11
0.0
 21
81.9575151992
 31
0.0
 40
0.3263886165
 41
-1.0286616649
 42
-1.022741378
  0
ELLIPSE
  5
5B1
100
AcDbEntity
  8
0
100
AcDbEllipse
 62
7
  6
CONTINUOUS
 10
149.154031846
 20
109.7394782043
 30
0.0
 11
0.0
 21
27.3191326527
 31
0.0
 40
0.9791672503
 41
-1.022741378
 42
-1.010835919
  0
ELLIPSE
  5
5B2
100
AcDbEntity
  8
0
100
AcDbEllipse
 62
7
  6
CONTINUOUS
 10
149.154031846
 20
119.4132290851
 30
0.0
 11
26.75
 21
-0.0
 31
0.0
 40
0.3404254913
 41
0.5599604078
 42
0.5779876452
  0
ELLIPSE
  5
5B3
100
AcDbEntity
  8
0
100
AcDbEllipse
 62
7
  6
CONTINUOUS
 10
149.154031846
 20
112.5253723495
 30
0.0
 11
0.0
 21
71.7127712496
 31
0.0
 40
0.3730158455
 41
-1.3521582575
 42
-1.3104670411
  0
ELLIPSE
  5
5B4
100
AcDbEntity
  8
0
100
AcDbEllipse
 62
7
  6
CONTINUOUS
 10
149.154031846
 20
121.8549707987
 30
0.0
 11
26.5
 21
0.0
 31
0.0
 40
0.9118538228
 41
6.1760622873
 42
6.2831851944
  0
ELLIPSE
  5
5B5
100
AcDbEntity
  8
0
100
AcDbEllipse
 62
7
  6
CONTINUOUS
 10
149.154031846
 20
131.6366330158
 30
0.0
 11
26.75
 21
-0.0
 31
0.0
 40
0.3404254913
 41
0.2342229595
 42
0.2498660262
  0
ELLIPSE
  5
5B6
100
AcDbEntity
  8
0
100
AcDbEllipse
 62
7
  6
CONTINUOUS
 10
149.154031846
 20
127.4096861005
 30
0.0
 11
0.0
 21
27.3191326527
 31
0.0
 40
0.9791672503
 41
-1.3469694894
 42
-1.3365733673
  0
ELLIPSE
  5
5B7
100
AcDbEntity
  8
0
100
AcDbEllipse
 62
7
  6
CONTINUOUS
 10
149.154031846
 20
115.2820077315
 30
0.0
 11
0.0
 21
81.9575151992
 31
0.0
 40
0.3263886165
 41
-1.3521582575
 42
-1.3469694894
  0
ELLIPSE
  5
5B8
100
AcDbEntity
  8
0
100
AcDbEllipse
 62
7
  6
CONTINUOUS
 10
149.154031846
 20
150.4203357251
 30
0.0
 11
0.0
 21
81.9575151992
 31
0.0
 40
0.3263886165
 41
-1.7946231641
 42
-1.789434396
  0
ELLIPSE
  5
5B9
100
AcDbEntity
  8
0
100
AcDbEllipse
 62
7
  6
CONTINUOUS
 10
149.154031846
 20
138.2926573562
 30
0.0
 11
0.0
 21
27.3191326527
 31
0.0
 40
0.9791672503
 41
-1.8050192863
 42
-1.7946231641
  0
ELLIPSE
  5
5BA
100
AcDbEntity
  8
0
100
AcDbEllipse
 62
7
  6
CONTINUOUS
 10
149.154031846
 20
134.0657104409
 30
0.0
 11
26.75
 21
-0.0
 31
0.0
 40
0.3404254913
 41
-0.2498660262
 42
-0.2342229595
  0
ELLIPSE
  5
5BB
100
AcDbEntity
  8
0
100
AcDbEllipse
 62
7
  6
CONTINUOUS
 10
149.154031846
 20
125.6118070909
 30
0.0
 11
0.0
 21
27.0638547404
 31
0.0
 40
0.9791657639
 41
-1.4640686563
 42
-1.443487311
  0
ELLIPSE
  5
5BC
100
AcDbEntity
  8
0
100
AcDbEllipse
 62
7
  6
CONTINUOUS
 10
149.154031846
 20
125.157402752
 30
0.0
 11
26.5
 21
-0.0
 31
0.0
 40
0.1458967187
 41
-0.0558466155
 42
-0.0200485128
  0
ELLIPSE
  5
5BD
100
AcDbEntity
  8
0
100
AcDbEllipse
 62
7
  6
CONTINUOUS
 10
149.154031846
 20
129.4025900432
 30
0.0
 11
26.75
 21
-0.0
 31
0.0
 40
0.6808512211
 41
-0.0194716257
 42
-0.0042834925
  0
ELLIPSE
  5
5BE
100
AcDbEntity
  8
0
100
AcDbEllipse
 62
7
  6
CONTINUOUS
 10
149.154031846
 20
129.1809587862
 30
0.0
 11
26.75
 21
0.0
 31
0.0
 40
0.2553189968
 41
-0.0397300775
 42
-0.0194716257
  0
ELLIPSE
  5
5BF
100
AcDbEntity
  8
0
100
AcDbEllipse
 62
7
  6
CONTINUOUS
 10
149.154031846
 20
125.6969146188
 30
0.0
 11
26.5
 21
-0.0
 31
0.0
 40
0.510637263
 41
-0.0763319852
 42
-0.0558466155
  0
ELLIPSE
  5
5C0
100
AcDbEntity
  8
0
100
AcDbEllipse
 62
7
  6
CONTINUOUS
 10
149.154031846
 20
126.7288335896
 30
0.0
 11
-0.0
 21
27.0638523711
 31
0.0
 40
0.9791658496
 41
-1.667645774
 42
-1.647128312
  0
ELLIPSE
  5
5C1
100
AcDbEntity
  8
0
100
AcDbEllipse
 62
7
  6
CONTINUOUS
 10
149.154031846
 20
134.5799339204
 30
0.0
 11
0.0
 21
108.2557192067
 31
0.0
 40
0.244790762
 41
-1.6727811807
 42
-1.667645774
  0
ELLIPSE
  5
5C2
100
AcDbEntity
  8
0
100
AcDbEllipse
 62
7
  6
CONTINUOUS
 10
149.154031846
 20
127.7522353784
 30
0.0
 11
26.75
 21
-0.0
 31
0.0
 40
0.2042553906
 41
0.0600048593
 42
0.085384084
  0
ELLIPSE
  5
5C3
100
AcDbEntity
  8
0
100
AcDbEllipse
 62
7
  6
CONTINUOUS
 10
149.154031846
 20
111.0373802211
 30
0.0
 11
0.0
 21
136.5954678622
 31
0.0
 40
0.1958337302
 41
-1.4344710389
 42
-1.4293595021
  0
ELLIPSE
  5
5C4
100
AcDbEntity
  8
0
100
AcDbEllipse
 62
7
  6
CONTINUOUS
 10
149.154031846
 20
122.175643203
 30
0.0
 11
0.0
 21
54.6382748719
 31
0.0
 40
0.4895835394
 41
-1.4446834935
 42
-1.4344710389
  0
ELLIPSE
  5
5C5
100
AcDbEntity
  8
0
100
AcDbEllipse
 62
7
  6
CONTINUOUS
 10
149.154031846
 20
125.6118070909
 30
0.0
 11
-0.0
 21
27.3191741247
 31
0.0
 40
0.9791657639
 41
-1.4650698623
 42
-1.4446834935
  0
ELLIPSE
  5
5C6
100
AcDbEntity
  8
0
100
AcDbEllipse
 62
7
  6
CONTINUOUS
 10
149.154031846
 20
127.0532999125
 30
0.0
 11
26.75
 21
-0.0
 31
0.0
 40
0.5106380606
 41
0.085384084
 42
0.1057264645
  0
ENDSEC
  0
SECTION
  2
OBJECTS
  0
DICTIONARY
  5
C
100
AcDbDictionary
280
0
281
1
  3
ACAD_GROUP
350
D
  3
ACAD_MLINESTYLE
350
17
  3
ACAD_LAYOUT
350
1A
  3
ACAD_PLOTSETTINGS
350
19
  3
ACAD_PLOTSTYLENAME
350
E
  0
DICTIONARY
  5
D
102
{ACAD_REACTORS
330
C
102
}
100
AcDbDictionary
280
0
281
1
  0
ACDBDICTIONARYWDFLT
  5
E
102
{ACAD_REACTORS
330
C
102
}
100
AcDbDictionary
281
1
  3
Normal
350
F
100
AcDbDictionaryWithDefault
340
F
  0
DICTIONARY
  5
17
102
{ACAD_REACTORS
330
C
102
}
100
AcDbDictionary
280
0
281
1
  3
Standard
350
18
  0
DICTIONARY
  5
19
102
{ACAD_REACTORS
330
C
102
}
100
AcDbDictionary
281
1
  0
DICTIONARY
  5
1A
102
{ACAD_REACTORS
330
C
102
}
100
AcDbDictionary
281
1
  3
Model
350
5C7
  3
Layout1
350
5C8
  0
ACDBPLACEHOLDER
  5
F
102
{ACAD_REACTORS
330
E
102
}
  0
MLINESTYLE
  5
18
102
{ACAD_REACTORS
330
17
102
}
100
AcDbMlineStyle
  2
STANDARD
 70
0
  3

 62
256
 51
90.0
 52
90.0
 71
2
 49
0.5
 62
256
  6
BYLAYER
 49
-0.5
 62
256
  6
BYLAYER
  0
LAYOUT
  5
5C7
102
{ACAD_REACTORS
330
1A
102
}
100
AcDbPlotSettings
  1

  2
none_device
  4
ISO_A3_(420.00_x_297.00_MM)
  6

 40
0.0
 41
0.0
 42
0.0
 43
0.0
 44
420.0
 45
297.0
 46
0.0
 47
0.0
 48
0.0
 49
0.0
140
0.0
141
0.0
142
1.0
143
1.0
 70
1024
 72
1
 73
0
 74
0
  7

 75
0
147
1.0
148
0.0
149
0.0
100
AcDbLayout
  1
Model
 70
0
 71
0
 10
0.0
 20
0.0
 11
420.0
 21
297.0
 12
0.0
 22
0.0
 32
0.0
 14
0.0
 24
0.0
 34
0.0
 15
0.0
 25
0.0
 35
0.0
146
0.0
 13
0.0
 23
0.0
 33
0.0
 16
1.0
 26
0.0
 36
0.0
 17
0.0
 27
1.0
 37
0.0
 76
0
330
20C
345
0
346
0
  0
LAYOUT
  5
5C8
102
{ACAD_REACTORS
330
1A
102
}
100
AcDbPlotSettings
  1

  2
none_device
  4
ISO_A3_(420.00_x_297.00_MM)
  6

 40
0.0
 41
0.0
 42
0.0
 43
0.0
 44
420.0
 45
297.0
 46
0.0
 47
0.0
 48
0.0
 49
0.0
140
0.0
141
0.0
142
1.0
143
1.0
 70
0
 72
1
 73
0
 74
0
  7

 75
0
147
1.0
148
0.0
149
0.0
100
AcDbLayout
  1
Layout1
 70
0
 71
1
 10
0.0
 20
0.0
 11
420.0
 21
297.0
 12
0.0
 22
0.0
 32
0.0
 14
0.0
 24
0.0
 34
0.0
 15
0.0
 25
0.0
 35
0.0
146
0.0
 13
0.0
 23
0.0
 33
0.0
 16
1.0
 26
0.0
 36
0.0
 17
0.0
 27
1.0
 37
0.0
 76
0
330
20D
345
0
346
0
  0
ENDSEC
  0
EOF
