999
DXF file: 001-m31452-p-50.dxf
999
Pro/ENGINEER 2011490 by Parametric Technology Corporation
  0
SECTION
  2
HEADER
  9
$ACADVER
  1
AC1015
  9
$DWGCODEPAGE
  3
ANSI_1252
  9
$EXTMAX
 10
297.0
 20
210.0
 30
0.0
  9
$EXTMIN
 10
0.0
 20
0.0
 30
0.0
  9
$LIMMIN
 10
0.0
 20
0.0
  9
$LIMMAX
 10
297.0
 20
210.0
  9
$VIEWCTR
 10
148.5
 20
105.0
  9
$VIEWSIZE
 40
210.0
  9
$CLAYER
  8
0
  9
$LTSCALE
 40
16.335
  9
$CELTYPE
  6
BYLAYER
  9
$DIMSCALE
 40
1.0
  9
$DIMASZ
 40
3.5
  9
$DIMEXO
 40
1.85625
  9
$DIMDLI
 40
11.286
  9
$DIMEXE
 40
5.346
  9
$DIMCEN
 40
2.673
  9
$DIMLFAC
 40
1.0
  9
$DIMBLK
  1
_FILLED
  9
$DIMTXT
 40
3.5
  9
$DIMTOL
 70
1
  9
$DIMLIM
 70
0
  9
$DIMTFAC
 40
1.0
  9
$DIMTP
 40
0.005
  9
$DIMTM
 40
0.005
  9
$PDMODE
 70
3
  9
$PDSIZE
 40
0.3125
  9
$HANDSEED
  5
572
  9
$TILEMODE
 70
1
  9
$MEASUREMENT
 70
1
  9
$INSUNITS
 70
4
  0
ENDSEC
  0
SECTION
  2
CLASSES
  0
CLASS
  1
ACDBDICTIONARYWDFLT
  2
AcDbDictionaryWithDefault
  3
AutoCAD 2000
 90
0
280
0
281
0
  0
CLASS
  1
ACDBPLACEHOLDER
  2
AcDbPlaceHolder
  3
AutoCAD 2000
 90
0
280
0
281
0
  0
CLASS
  1
LAYOUT
  2
AcDbLayout
  3
AutoCAD 2000
 90
0
280
0
281
0
  0
ENDSEC
  0
SECTION
  2
TABLES
  0
TABLE
  2
VPORT
  5
8
100
AcDbSymbolTable
 70
2
  0
VPORT
  5
1F4
100
AcDbSymbolTableRecord
100
AcDbViewportTableRecord
  2
*ACTIVE
 70
0
 10
0.0
 20
0.0
 11
1.0
 21
1.0
 12
148.5
 22
105.0
 13
0.0
 23
0.0
 14
1.0
 24
1.0
 15
0.0
 25
0.0
 16
0.0
 26
0.0
 36
1.0
 17
0.0
 27
0.0
 37
0.0
 40
210.0
 41
1.4142857143
 42
50.0
 43
0.0
 44
0.0
 50
0.0
 51
0.0
 71
0
 72
100
 73
1
 74
1
 75
0
 76
0
 77
0
 78
0
  0
ENDTAB
  0
TABLE
  2
LTYPE
  5
5
100
AcDbSymbolTable
 70
6
  0
LTYPE
  5
14
100
AcDbSymbolTableRecord
100
AcDbLinetypeTableRecord
  2
BYBLOCK
 70
0
  3

 72
65
 73
0
 40
0.0
  0
LTYPE
  5
15
100
AcDbSymbolTableRecord
100
AcDbLinetypeTableRecord
  2
BYLAYER
 70
0
  3

 72
65
 73
0
 40
0.0
  0
LTYPE
  5
16
100
AcDbSymbolTableRecord
100
AcDbLinetypeTableRecord
  2
CONTINUOUS
 70
64
  3
Solid line
 72
65
 73
0
 40
0.0
  0
LTYPE
  5
1F5
100
AcDbSymbolTableRecord
100
AcDbLinetypeTableRecord
  2
CENTER
 70
64
  3
____ _ ____ _ ____ _ ____ _ ____ _ ____ _ ____
 72
65
 73
4
 40
0.6
 49
0.375
 74
0
 49
-0.075
 74
0
 49
0.075
 74
0
 49
-0.075
 74
0
  0
LTYPE
  5
1F6
100
AcDbSymbolTableRecord
100
AcDbLinetypeTableRecord
  2
HIDDEN
 70
64
  3
- - - - - - - - - - - - - - - - - - - -
 72
65
 73
2
 40
0.2
 49
0.1
 74
0
 49
-0.1
 74
0
  0
LTYPE
  5
1F7
100
AcDbSymbolTableRecord
100
AcDbLinetypeTableRecord
  2
PHANTOM
 70
64
  3
_____ _ _ _____ _ _ _____ _ _ _____
 72
65
 73
6
 40
0.8
 49
0.45
 74
0
 49
-0.05
 74
0
 49
0.1
 74
0
 49
-0.05
 74
0
 49
0.1
 74
0
 49
-0.05
 74
0
  0
LTYPE
  5
1F8
100
AcDbSymbolTableRecord
100
AcDbLinetypeTableRecord
  2
DOT
 70
64
  3
. . . . . . . . . . . . . . . . . . . .
 72
65
 73
2
 40
0.2
 49
0.1
 74
0
 49
-0.1
 74
0
  0
LTYPE
  5
1F9
100
AcDbSymbolTableRecord
100
AcDbLinetypeTableRecord
  2
DASHED
 70
64
  3
- - - - - - - - - - - - - - - - - - - -
 72
65
 73
2
 40
0.2
 49
0.1
 74
0
 49
-0.1
 74
0
  0
ENDTAB
  0
TABLE
  2
LAYER
  5
2
100
AcDbSymbolTable
 70
36
  0
LAYER
  5
10
100
AcDbSymbolTableRecord
100
AcDbLayerTableRecord
  2
0
 70
0
 62
7
  6
CONTINUOUS
370
-3
390
F
  0
LAYER
  5
1FA
100
AcDbSymbolTableRecord
100
AcDbLayerTableRecord
  2
DEFAULT_1
 70
0
 62
7
  6
CENTER
370
-3
390
F
  0
LAYER
  5
1FB
100
AcDbSymbolTableRecord
100
AcDbLayerTableRecord
  2
DEFAULT_2
 70
0
 62
8
  6
HIDDEN
370
-3
390
F
  0
LAYER
  5
1FC
100
AcDbSymbolTableRecord
100
AcDbLayerTableRecord
  2
DEFAULT_3
 70
0
 62
7
  6
PHANTOM
370
-3
390
F
  0
LAYER
  5
1FD
100
AcDbSymbolTableRecord
100
AcDbLayerTableRecord
  2
BEZUGSACHSEN
 70
0
 62
7
  6
CONTINUOUS
370
-3
390
F
  0
LAYER
  5
1FE
100
AcDbSymbolTableRecord
100
AcDbLayerTableRecord
  2
BEZUGSEBENEN
 70
0
 62
7
  6
CONTINUOUS
370
-3
390
F
  0
LAYER
  5
1FF
100
AcDbSymbolTableRecord
100
AcDbLayerTableRecord
  2
BG_STARTBEZUEGE
 70
0
 62
7
  6
CONTINUOUS
370
-3
390
F
  0
LAYER
  5
200
100
AcDbSymbolTableRecord
100
AcDbLayerTableRecord
  2
FASEN
 70
0
 62
7
  6
CONTINUOUS
370
-3
390
F
  0
LAYER
  5
201
100
AcDbSymbolTableRecord
100
AcDbLayerTableRecord
  2
HILFEN
 70
0
 62
7
  6
CONTINUOUS
370
-3
390
F
  0
LAYER
  5
202
100
AcDbSymbolTableRecord
100
AcDbLayerTableRecord
  2
KONSTRUKTIONSELEMENTE
 70
0
 62
7
  6
CONTINUOUS
370
-3
390
F
  0
LAYER
  5
203
100
AcDbSymbolTableRecord
100
AcDbLayerTableRecord
  2
NORM
 70
0
 62
7
  6
CONTINUOUS
370
-3
390
F
  0
LAYER
  5
204
100
AcDbSymbolTableRecord
100
AcDbLayerTableRecord
  2
PLATZIERUNG
 70
0
 62
7
  6
CONTINUOUS
370
-3
390
F
  0
LAYER
  5
205
100
AcDbSymbolTableRecord
100
AcDbLayerTableRecord
  2
PLAZIERUNG
 70
0
 62
7
  6
CONTINUOUS
370
-3
390
F
  0
LAYER
  5
206
100
AcDbSymbolTableRecord
100
AcDbLayerTableRecord
  2
RUNDUNGEN
 70
0
 62
7
  6
CONTINUOUS
370
-3
390
F
  0
LAYER
  5
207
100
AcDbSymbolTableRecord
100
AcDbLayerTableRecord
  2
TEIL_STARTBEZUEGE
 70
0
 62
7
  6
CONTINUOUS
370
-3
390
F
  0
LAYER
  5
208
100
AcDbSymbolTableRecord
100
AcDbLayerTableRecord
  2
T_STARTBEZUEGE
 70
0
 62
7
  6
CONTINUOUS
370
-3
390
F
  0
LAYER
  5
209
100
AcDbSymbolTableRecord
100
AcDbLayerTableRecord
  2
ZEICHNUNGSBEMASSUNGEN
 70
0
 62
7
  6
CONTINUOUS
370
-3
390
F
  0
ENDTAB
  0
TABLE
  2
STYLE
  5
3
100
AcDbSymbolTable
 70
1
  0
STYLE
  5
11
100
AcDbSymbolTableRecord
100
AcDbTextStyleTableRecord
  2
STANDARD
 70
0
 40
0.0
 41
0.7
 50
0.0
 71
0
 42
0.2
  3
txt
  4

  0
STYLE
  5
20A
100
AcDbSymbolTableRecord
100
AcDbTextStyleTableRecord
  2
TEXTSTYLE_1
 70
0
 40
0.0
 41
0.8
 50
0.0
 71
0
 42
0.2
  3
gdt
  4

  0
ENDTAB
  0
TABLE
  2
VIEW
  5
6
100
AcDbSymbolTable
 70
0
  0
ENDTAB
  0
TABLE
  2
UCS
  5
7
100
AcDbSymbolTable
 70
0
  0
ENDTAB
  0
TABLE
  2
APPID
  5
9
100
AcDbSymbolTable
 70
1
  0
APPID
  5
20B
100
AcDbSymbolTableRecord
100
AcDbRegAppTableRecord
  2
ACAD
 70
0
  0
ENDTAB
  0
TABLE
  2
BLOCK_RECORD
  5
1
100
AcDbSymbolTable
 70
0
  0
BLOCK_RECORD
  5
20C
100
AcDbSymbolTableRecord
100
AcDbBlockTableRecord
  2
*Model_Space
  0
BLOCK_RECORD
  5
20D
100
AcDbSymbolTableRecord
100
AcDbBlockTableRecord
  2
*Paper_Space
  0
ENDTAB
  0
TABLE
  2
DIMSTYLE
  5
A
100
AcDbSymbolTable
 70
1
100
AcDbDimStyleTable
 71
0
  0
DIMSTYLE
105
20E
100
AcDbSymbolTableRecord
100
AcDbDimStyleTableRecord
  2
STANDARD
 70
0
  3

  4

 40
1.0
 41
3.5
 42
0.0625
 43
0.38
 44
0.18
 45
0.0
 46
0.0
 47
0.005
 48
0.005
140
3.5
141
0.09
142
0.0
143
25.4
144
1.0
145
0.0
146
1.0
147
0.09
 71
1.0
 72
0.0
 73
0
 74
0
 75
0
 76
0
 77
1
 78
8
170
0
171
2
172
0
173
0
174
0
175
0
176
0
177
0
178
5
270
2
271
3
272
3
273
2
274
2
275
0
280
0
281
0
282
0
283
1
284
8
285
0
286
0
287
3
288
0
340
11
  0
ENDTAB
  0
ENDSEC
  0
SECTION
  2
BLOCKS
  0
BLOCK
  5
20
100
AcDbEntity
  8
0
100
AcDbBlockBegin
  2
*Model_Space
 70
0
 10
0.0
 20
0.0
 30
0.0
  3
*Model_Space
  1

  0
ENDBLK
  5
21
100
AcDbEntity
  8
0
100
AcDbBlockEnd
  0
BLOCK
  5
1C
100
AcDbEntity
  8
0
100
AcDbBlockBegin
  2
*Paper_Space
 70
0
 10
0.0
 20
0.0
 30
0.0
  3
*Paper_Space
  1

  0
ENDBLK
  5
1D
100
AcDbEntity
  8
0
100
AcDbBlockEnd
  0
ENDSEC
  0
SECTION
  2
ENTITIES
  0
MTEXT
  5
20F
100
AcDbEntity
  8
0
100
AcDbMText
 62
5
  6
CONTINUOUS
  7
STANDARD
 71
2
 72
1
 10
111.3044111295
 20
25.088973283
 30
0.0
 11
0.0
 21
1.0
 31
0.0
 44
0.9
  1
RUD WPPH-B\P1,5t
 40
4.5
 41
39.0
  0
MTEXT
  5
210
100
AcDbEntity
  8
0
100
AcDbMText
 62
5
  6
CONTINUOUS
  7
STANDARD
 71
2
 72
1
 10
197.9223198958
 20
86.1237469463
 30
0.0
 11
1.0
 21
0.0
 31
0.0
 44
0.9
  1
RUD\PWPPH-B 1.5t
 40
4.0
 41
33.7142857143
  0
LINE
  5
211
100
AcDbEntity
  8
0
100
AcDbLine
 62
7
  6
CONTINUOUS
 10
0.0
 20
0.0
 11
0.0
 21
210.0
  0
LINE
  5
212
100
AcDbEntity
  8
0
100
AcDbLine
 62
7
  6
CONTINUOUS
 10
0.0
 20
0.0
 11
297.0
 21
0.0
  0
LINE
  5
213
100
AcDbEntity
  8
0
100
AcDbLine
 62
7
  6
CONTINUOUS
 10
0.0
 20
210.0
 11
297.0
 21
210.0
  0
LINE
  5
214
100
AcDbEntity
  8
0
100
AcDbLine
 62
7
  6
CONTINUOUS
 10
297.0
 20
0.0
 11
297.0
 21
210.0
  0
LINE
  5
215
100
AcDbEntity
  8
0
100
AcDbLine
 62
7
  6
CONTINUOUS
 10
97.2003609583
 20
69.0085475577
 11
135.6996880318
 21
69.0085475577
  0
LINE
  5
216
100
AcDbEntity
  8
0
100
AcDbLine
 62
7
  6
CONTINUOUS
 10
136.2000244951
 20
69.5085475577
 11
96.7000244951
 21
69.5085475577
  0
LINE
  5
217
100
AcDbEntity
  8
0
100
AcDbLine
 62
7
  6
CONTINUOUS
 10
107.4478424481
 20
183.7814629228
 11
105.6292259451
 21
182.949216556
  0
LINE
  5
218
100
AcDbEntity
  8
0
100
AcDbLine
 62
7
  6
CONTINUOUS
 10
106.2609537448
 20
182.7703385123
 11
107.7006919542
 21
183.4292002855
  0
LINE
  5
219
100
AcDbEntity
  8
0
100
AcDbLine
 62
7
  6
CONTINUOUS
 10
103.8641804952
 20
181.7398010827
 11
103.4774351489
 21
181.5629330268
  0
LINE
  5
21A
100
AcDbEntity
  8
0
100
AcDbLine
 62
7
  6
CONTINUOUS
 10
103.7955919576
 20
181.2683179496
 11
104.0477064449
 21
181.3469397023
  0
LINE
  5
21B
100
AcDbEntity
  8
0
100
AcDbLine
 62
7
  6
CONTINUOUS
 10
132.1364039371
 20
74.5085475577
 11
132.9859701892
 21
74.5085475577
  0
LINE
  5
21C
100
AcDbEntity
  8
0
100
AcDbLine
 62
7
  6
CONTINUOUS
 10
135.1428540027
 20
74.5085475577
 11
135.6427151611
 21
74.5085475577
  0
LINE
  5
21D
100
AcDbEntity
  8
0
100
AcDbLine
 62
7
  6
CONTINUOUS
 10
136.2000244951
 20
74.5085475577
 11
136.2600598969
 21
74.5085475577
  0
LINE
  5
21E
100
AcDbEntity
  8
0
100
AcDbLine
 62
7
  6
CONTINUOUS
 10
97.2000244951
 20
69.0085475577
 11
96.7000244951
 21
69.5085475577
  0
LINE
  5
21F
100
AcDbEntity
  8
0
100
AcDbLine
 62
7
  6
CONTINUOUS
 10
103.4774351489
 20
181.5629330268
 11
101.8618656114
 21
180.3839779516
  0
LINE
  5
220
100
AcDbEntity
  8
0
100
AcDbLine
 62
7
  6
CONTINUOUS
 10
102.5165994713
 20
180.3349785619
 11
103.7955919576
 21
181.2683179496
  0
LINE
  5
221
100
AcDbEntity
  8
0
100
AcDbLine
 62
7
  6
CONTINUOUS
 10
104.5481165245
 20
180.2371032815
 11
103.2691240382
 21
179.3037638938
  0
LINE
  5
222
100
AcDbEntity
  8
0
100
AcDbLine
 62
7
  6
CONTINUOUS
 10
108.2319130753
 20
182.2683811627
 11
106.7921748659
 21
181.6095193894
  0
LINE
  5
223
100
AcDbEntity
  8
0
100
AcDbLine
 62
7
  6
CONTINUOUS
 10
107.0046632747
 20
181.145191827
 11
108.3686256519
 21
181.7693766021
  0
LINE
  5
224
100
AcDbEntity
  8
0
100
AcDbLine
 62
7
  6
CONTINUOUS
 10
107.2937186788
 20
179.31198355
 11
107.7483728045
 21
179.5200451417
  0
LINE
  5
225
100
AcDbEntity
  8
0
100
AcDbLine
 62
7
  6
CONTINUOUS
 10
119.1303878363
 20
183.9513338069
 11
118.67857623
 21
183.765149205
  0
LINE
  5
226
100
AcDbEntity
  8
0
100
AcDbLine
 62
7
  6
CONTINUOUS
 10
136.1857788511
 20
76.6787602438
 11
136.4500243155
 21
76.6787602438
  0
LINE
  5
227
100
AcDbEntity
  8
0
100
AcDbLine
 62
7
  6
CONTINUOUS
 10
136.1632021943
 20
77.1893986596
 11
135.6427151611
 21
77.1893986596
  0
LINE
  5
228
100
AcDbEntity
  8
0
100
AcDbLine
 62
7
  6
CONTINUOUS
 10
134.3105955946
 20
77.1893986596
 11
132.9859701892
 21
77.1893986596
  0
LINE
  5
229
100
AcDbEntity
  8
0
100
AcDbLine
 62
7
  6
CONTINUOUS
 10
136.2600597976
 20
77.3170582188
 11
136.4500243155
 21
77.3170582188
  0
LINE
  5
22A
100
AcDbEntity
  8
0
100
AcDbLine
 62
7
  6
CONTINUOUS
 10
136.1841954062
 20
77.9553560151
 11
135.6427151611
 21
77.9553560151
  0
LINE
  5
22B
100
AcDbEntity
  8
0
100
AcDbLine
 62
7
  6
CONTINUOUS
 10
134.3730368782
 20
77.9553560151
 11
132.9859701892
 21
77.9553560151
  0
LINE
  5
22C
100
AcDbEntity
  8
0
100
AcDbLine
 62
7
  6
CONTINUOUS
 10
134.2773209242
 20
78.0830155743
 11
134.5538914293
 21
78.0830155743
  0
LINE
  5
22D
100
AcDbEntity
  8
0
100
AcDbLine
 62
7
  6
CONTINUOUS
 10
135.9896477353
 20
78.0830155743
 11
136.2423052219
 21
78.0830155743
  0
LINE
  5
22E
100
AcDbEntity
  8
0
100
AcDbLine
 62
7
  6
CONTINUOUS
 10
134.39438294
 20
78.3383346928
 11
134.6691765061
 21
78.3383346928
  0
LINE
  5
22F
100
AcDbEntity
  8
0
100
AcDbLine
 62
7
  6
CONTINUOUS
 10
136.0248009944
 20
78.3383346928
 11
136.2770105242
 21
78.3383346928
  0
LINE
  5
230
100
AcDbEntity
  8
0
100
AcDbLine
 62
7
  6
CONTINUOUS
 10
134.4513264775
 20
78.7213133706
 11
134.7252638386
 21
78.7213133706
  0
LINE
  5
231
100
AcDbEntity
  8
0
100
AcDbLine
 62
7
  6
CONTINUOUS
 10
136.041157724
 20
78.7213133706
 11
136.2931593581
 21
78.7213133706
  0
LINE
  5
232
100
AcDbEntity
  8
0
100
AcDbLine
 62
7
  6
CONTINUOUS
 10
134.4513264775
 20
79.104292406
 11
134.7252638386
 21
79.104292406
  0
LINE
  5
233
100
AcDbEntity
  8
0
100
AcDbLine
 62
7
  6
CONTINUOUS
 10
136.041157724
 20
79.104292406
 11
136.2931593581
 21
79.104292406
  0
LINE
  5
234
100
AcDbEntity
  8
0
100
AcDbLine
 62
7
  6
CONTINUOUS
 10
134.39438294
 20
79.4872710837
 11
134.6691765061
 21
79.4872710837
  0
LINE
  5
235
100
AcDbEntity
  8
0
100
AcDbLine
 62
7
  6
CONTINUOUS
 10
136.0248009944
 20
79.4872710837
 11
136.2770105242
 21
79.4872710837
  0
LINE
  5
236
100
AcDbEntity
  8
0
100
AcDbLine
 62
7
  6
CONTINUOUS
 10
134.2773209242
 20
79.7425902022
 11
134.5538914293
 21
79.7425902022
  0
LINE
  5
237
100
AcDbEntity
  8
0
100
AcDbLine
 62
7
  6
CONTINUOUS
 10
135.9896477353
 20
79.7425902022
 11
136.2423052219
 21
79.7425902022
  0
LINE
  5
238
100
AcDbEntity
  8
0
100
AcDbLine
 62
7
  6
CONTINUOUS
 10
136.1841954062
 20
79.8702497615
 11
135.6427151611
 21
79.8702497615
  0
LINE
  5
239
100
AcDbEntity
  8
0
100
AcDbLine
 62
7
  6
CONTINUOUS
 10
134.3730368782
 20
79.8702497615
 11
132.9859701892
 21
79.8702497615
  0
LINE
  5
23A
100
AcDbEntity
  8
0
100
AcDbLine
 62
7
  6
CONTINUOUS
 10
132.1364039371
 20
80.5085475577
 11
134.3105955946
 21
80.5085475577
  0
LINE
  5
23B
100
AcDbEntity
  8
0
100
AcDbLine
 62
7
  6
CONTINUOUS
 10
135.1428540027
 20
80.5085475577
 11
136.1632021943
 21
80.5085475577
  0
LINE
  5
23C
100
AcDbEntity
  8
0
100
AcDbLine
 62
7
  6
CONTINUOUS
 10
136.2000244951
 20
80.5085475577
 11
136.2600598969
 21
80.5085475577
  0
LINE
  5
23D
100
AcDbEntity
  8
0
100
AcDbLine
 62
7
  6
CONTINUOUS
 10
108.4238254034
 20
182.4497998856
 11
108.2319130753
 21
182.2683811627
  0
LINE
  5
23E
100
AcDbEntity
  8
0
100
AcDbLine
 62
7
  6
CONTINUOUS
 10
108.3686256519
 20
181.7693766021
 11
108.7120892107
 21
182.0201491228
  0
LINE
  5
23F
100
AcDbEntity
  8
0
100
AcDbLine
 62
7
  6
CONTINUOUS
 10
103.5701338088
 20
178.8912781036
 11
104.7818109619
 21
179.7754944101
  0
LINE
  5
240
100
AcDbEntity
  8
0
100
AcDbLine
 62
7
  6
CONTINUOUS
 10
104.2197757619
 20
177.1528388766
 11
104.6236681462
 21
177.4475776454
  0
LINE
  5
241
100
AcDbEntity
  8
0
100
AcDbLine
 62
7
  6
CONTINUOUS
 10
118.7758216018
 20
183.3186088699
 11
119.1453506195
 21
183.5179771028
  0
LINE
  5
242
100
AcDbEntity
  8
0
100
AcDbLine
 62
7
  6
CONTINUOUS
 10
120.3287468519
 20
181.9492988593
 11
120.0549666439
 21
181.8207812477
  0
LINE
  5
243
100
AcDbEntity
  8
0
100
AcDbLine
 62
7
  6
CONTINUOUS
 10
120.0699275355
 20
181.3874247939
 11
120.5217410286
 21
181.5736091161
  0
LINE
  5
244
100
AcDbEntity
  8
0
100
AcDbLine
 62
7
  6
CONTINUOUS
 10
134.5072252748
 20
81.5085475577
 11
135.0896999214
 21
81.5085475577
  0
LINE
  5
245
100
AcDbEntity
  8
0
100
AcDbLine
 62
7
  6
CONTINUOUS
 10
135.7644458951
 20
81.5085475577
 11
136.1841953866
 21
81.5085475577
  0
LINE
  5
246
100
AcDbEntity
  8
0
100
AcDbLine
 62
7
  6
CONTINUOUS
 10
136.1984421502
 20
81.5085475577
 11
136.4484619311
 21
81.5085475577
  0
LINE
  5
247
100
AcDbEntity
  8
0
100
AcDbLine
 62
7
  6
CONTINUOUS
 10
136.180632063
 20
81.6362071281
 11
136.4308747022
 21
81.6362071281
  0
LINE
  5
248
100
AcDbEntity
  8
0
100
AcDbLine
 62
7
  6
CONTINUOUS
 10
136.1521024145
 20
81.8915262802
 11
136.4027028703
 21
81.8915262802
  0
LINE
  5
249
100
AcDbEntity
  8
0
100
AcDbLine
 62
7
  6
CONTINUOUS
 10
136.4500244951
 20
82.2745050026
 11
136.4484619311
 21
82.2745050026
  0
LINE
  5
24A
100
AcDbEntity
  8
0
100
AcDbLine
 62
7
  6
CONTINUOUS
 10
136.1243935915
 20
82.4021645619
 11
136.3619399201
 21
82.4021645619
  0
LINE
  5
24B
100
AcDbEntity
  8
0
100
AcDbLine
 62
7
  6
CONTINUOUS
 10
136.0853720985
 20
82.9128028883
 11
136.3368134643
 21
82.9128028883
  0
LINE
  5
24C
100
AcDbEntity
  8
0
100
AcDbLine
 62
7
  6
CONTINUOUS
 10
136.0714413518
 20
83.5511006845
 11
136.3230589756
 21
83.5511006845
  0
LINE
  5
24D
100
AcDbEntity
  8
0
100
AcDbLine
 62
7
  6
CONTINUOUS
 10
135.7822352944
 20
84.1893986596
 11
135.0896999214
 21
84.1893986596
  0
LINE
  5
24E
100
AcDbEntity
  8
0
100
AcDbLine
 62
7
  6
CONTINUOUS
 10
135.8467864372
 20
84.9553560151
 11
135.0896999214
 21
84.9553560151
  0
LINE
  5
24F
100
AcDbEntity
  8
0
100
AcDbLine
 62
7
  6
CONTINUOUS
 10
135.6805340808
 20
85.0830155743
 11
135.9371997374
 21
85.0830155743
  0
LINE
  5
250
100
AcDbEntity
  8
0
100
AcDbLine
 62
7
  6
CONTINUOUS
 10
104.7818109619
 20
179.7754944101
 11
105.068219718
 21
180.0898577293
  0
LINE
  5
251
100
AcDbEntity
  8
0
100
AcDbLine
 62
7
  6
CONTINUOUS
 10
129.1601335964
 20
179.4706624668
 11
129.5585956351
 21
179.6107250204
  0
LINE
  5
252
100
AcDbEntity
  8
0
100
AcDbLine
 62
7
  6
CONTINUOUS
 10
128.1519401342
 20
177.9949418125
 11
128.5504021897
 21
178.1350043907
  0
LINE
  5
253
100
AcDbEntity
  8
0
100
AcDbLine
 62
7
  6
CONTINUOUS
 10
135.7373260171
 20
85.3383346928
 11
135.9932458263
 21
85.3383346928
  0
LINE
  5
254
100
AcDbEntity
  8
0
100
AcDbLine
 62
7
  6
CONTINUOUS
 10
135.7644458951
 20
85.7213133706
 11
136.0200110566
 21
85.7213133706
  0
LINE
  5
255
100
AcDbEntity
  8
0
100
AcDbLine
 62
7
  6
CONTINUOUS
 10
135.7644458951
 20
86.104292406
 11
136.0200110566
 21
86.104292406
  0
LINE
  5
256
100
AcDbEntity
  8
0
100
AcDbLine
 62
7
  6
CONTINUOUS
 10
135.7373260171
 20
86.4872710837
 11
135.9932458263
 21
86.4872710837
  0
LINE
  5
257
100
AcDbEntity
  8
0
100
AcDbLine
 62
7
  6
CONTINUOUS
 10
135.6805340808
 20
86.7425902022
 11
135.9371997374
 21
86.7425902022
  0
LINE
  5
258
100
AcDbEntity
  8
0
100
AcDbLine
 62
7
  6
CONTINUOUS
 10
135.8467864372
 20
86.8702497615
 11
135.0896999214
 21
86.8702497615
  0
LINE
  5
259
100
AcDbEntity
  8
0
100
AcDbLine
 62
7
  6
CONTINUOUS
 10
134.5072252748
 20
87.5085475577
 11
135.8149412261
 21
87.5085475577
  0
LINE
  5
25A
100
AcDbEntity
  8
0
100
AcDbLine
 62
7
  6
CONTINUOUS
 10
136.0714413518
 20
87.5085475577
 11
136.3936951882
 21
87.5085475577
  0
LINE
  5
25B
100
AcDbEntity
  8
0
100
AcDbLine
 62
7
  6
CONTINUOUS
 10
104.6998944216
 20
180.4532202977
 11
104.5481165245
 21
180.2371032815
  0
LINE
  5
25C
100
AcDbEntity
  8
RUNDUNGEN
100
AcDbLine
 62
7
  6
CONTINUOUS
 10
134.2000244951
 20
93.7085475577
 11
130.4500216669
 21
93.7085475577
  0
LINE
  5
25D
100
AcDbEntity
  8
RUNDUNGEN
100
AcDbLine
 62
7
  6
CONTINUOUS
 10
102.4500556651
 20
93.7085475577
 11
98.7000244951
 21
93.7085475577
  0
LINE
  5
25E
100
AcDbEntity
  8
0
100
AcDbLine
 62
7
  6
CONTINUOUS
 10
108.7120892107
 20
182.0201491228
 11
108.9089479014
 21
182.391020698
  0
LINE
  5
25F
100
AcDbEntity
  8
0
100
AcDbLine
 62
7
  6
CONTINUOUS
 10
114.8851135132
 20
185.5893863069
 11
114.4274977812
 21
184.9604988114
  0
LINE
  5
260
100
AcDbEntity
  8
0
100
AcDbLine
 62
7
  6
CONTINUOUS
 10
114.4745696413
 20
184.2812767378
 11
114.9321853567
 21
184.9101644712
  0
LINE
  5
261
100
AcDbEntity
  8
0
100
AcDbLine
 62
7
  6
CONTINUOUS
 10
94.7875244951
 20
152.1181220068
 11
95.1000244951
 21
152.5436538709
  0
LINE
  5
262
100
AcDbEntity
  8
0
100
AcDbLine
 62
7
  6
CONTINUOUS
 10
120.5337069351
 20
182.1750350169
 11
120.3287468519
 21
181.9492988593
  0
LINE
  5
263
100
AcDbEntity
  8
0
100
AcDbLine
 62
7
  6
CONTINUOUS
 10
94.4750244951
 20
152.650036837
 11
94.2666910624
 21
152.4372709049
  0
LINE
  5
264
100
AcDbEntity
  8
0
100
AcDbLine
 62
7
  6
CONTINUOUS
 10
120.5217410286
 20
181.5736091161
 11
120.8224499169
 21
181.8701958656
  0
LINE
  5
265
100
AcDbEntity
  8
0
100
AcDbLine
 62
7
  6
CONTINUOUS
 10
129.4065909691
 20
180.1268593808
 11
129.1937544198
 21
179.9630515484
  0
LINE
  5
266
100
AcDbEntity
  8
0
100
AcDbLine
 62
7
  6
CONTINUOUS
 10
129.5585956351
 20
179.6107250204
 11
129.7714321844
 21
179.7745328528
  0
LINE
  5
267
100
AcDbEntity
  8
0
100
AcDbLine
 62
7
  6
CONTINUOUS
 10
128.3983975573
 20
178.6511388003
 11
128.185561008
 21
178.4873309679
  0
LINE
  5
268
100
AcDbEntity
  8
0
100
AcDbLine
 62
7
  6
CONTINUOUS
 10
128.5504021897
 20
178.1350043907
 11
128.7632387726
 21
178.2988122723
  0
LINE
  5
269
100
AcDbEntity
  8
0
100
AcDbLine
 62
7
  6
CONTINUOUS
 10
94.3708579277
 20
151.9053560747
 11
94.7875244951
 21
152.1181220068
  0
LINE
  5
26A
100
AcDbEntity
  8
0
100
AcDbLine
 62
7
  6
CONTINUOUS
 10
94.5791910624
 20
152.9691857351
 11
94.4750244951
 21
152.650036837
  0
LINE
  5
26B
100
AcDbEntity
  8
0
100
AcDbLine
 62
7
  6
CONTINUOUS
 10
95.1000244951
 20
152.5436538709
 11
95.2041910624
 21
152.8628027691
  0
LINE
  5
26C
100
AcDbEntity
  8
0
100
AcDbLine
 62
7
  6
CONTINUOUS
 10
94.7875244951
 20
144.2032283945
 11
94.9958579277
 21
144.6287603332
  0
LINE
  5
26D
100
AcDbEntity
  8
0
100
AcDbLine
 62
7
  6
CONTINUOUS
 10
94.3708579277
 20
144.7351432992
 11
94.1625244951
 21
144.4159944011
  0
LINE
  5
26E
100
AcDbEntity
  8
0
100
AcDbLine
 62
7
  6
CONTINUOUS
 10
94.3708579277
 20
143.7776964931
 11
94.7875244951
 21
144.2032283945
  0
LINE
  5
26F
100
AcDbEntity
  8
0
100
AcDbLine
 62
7
  6
CONTINUOUS
 10
94.2666910624
 20
152.4372709049
 11
93.9541910624
 21
152.3308879389
  0
LINE
  5
270
100
AcDbEntity
  8
0
100
AcDbLine
 62
7
  6
CONTINUOUS
 10
107.4500244951
 20
100.0285475577
 11
106.9500244951
 21
100.0285475577
  0
LINE
  5
271
100
AcDbEntity
  8
0
100
AcDbLine
 62
7
  6
CONTINUOUS
 10
107.4500244951
 20
101.0285475875
 11
106.9500244951
 21
101.0285475875
  0
LINE
  5
272
100
AcDbEntity
  8
0
100
AcDbLine
 62
7
  6
CONTINUOUS
 10
107.4500244951
 20
101.5285475577
 11
106.9500244951
 21
101.5285475577
  0
LINE
  5
273
100
AcDbEntity
  8
0
100
AcDbLine
 62
7
  6
CONTINUOUS
 10
107.4500244951
 20
102.5285474981
 11
106.9500244951
 21
102.5285474981
  0
LINE
  5
274
100
AcDbEntity
  8
0
100
AcDbLine
 62
7
  6
CONTINUOUS
 10
91.3500244951
 20
154.4585475577
 11
91.3500244951
 21
149.4585475577
  0
LINE
  5
275
100
AcDbEntity
  8
0
100
AcDbLine
 62
7
  6
CONTINUOUS
 10
91.3500244951
 20
148.4585475577
 11
91.3500244951
 21
145.1606751634
  0
LINE
  5
276
100
AcDbEntity
  8
0
100
AcDbLine
 62
7
  6
CONTINUOUS
 10
91.3500244951
 20
142.4585475577
 11
91.3500244951
 21
137.4585475577
  0
LINE
  5
277
100
AcDbEntity
  8
0
100
AcDbLine
 62
7
  6
CONTINUOUS
 10
91.9750244951
 20
138.0968454285
 11
91.9750244951
 21
141.8202497615
  0
LINE
  5
278
100
AcDbEntity
  8
0
100
AcDbLine
 62
7
  6
CONTINUOUS
 10
91.9750244951
 20
145.1606751634
 11
91.9750244951
 21
148.4585475577
  0
LINE
  5
279
100
AcDbEntity
  8
0
100
AcDbLine
 62
7
  6
CONTINUOUS
 10
91.9750244951
 20
149.4585475577
 11
91.9750244951
 21
151.6925901426
  0
LINE
  5
27A
100
AcDbEntity
  8
0
100
AcDbLine
 62
7
  6
CONTINUOUS
 10
91.9750244951
 20
152.3308879389
 11
91.9750244951
 21
153.9266327275
  0
LINE
  5
27B
100
AcDbEntity
  8
0
100
AcDbLine
 62
7
  6
CONTINUOUS
 10
94.4750244951
 20
148.4585475577
 11
94.4750244951
 21
145.1606751634
  0
LINE
  5
27C
100
AcDbEntity
  8
0
100
AcDbLine
 62
7
  6
CONTINUOUS
 10
94.5791910624
 20
153.2883349312
 11
94.5791910624
 21
152.9691857351
  0
LINE
  5
27D
100
AcDbEntity
  8
0
100
AcDbLine
 62
7
  6
CONTINUOUS
 10
94.8916910624
 20
140.756419803
 11
94.8916910624
 21
139.1606751634
  0
LINE
  5
27E
100
AcDbEntity
  8
0
100
AcDbLine
 62
7
  6
CONTINUOUS
 10
94.9958579277
 20
144.6287603332
 11
95.1000244951
 21
145.1606751634
  0
LINE
  5
27F
100
AcDbEntity
  8
0
100
AcDbLine
 62
7
  6
CONTINUOUS
 10
95.4125244951
 20
138.6287603332
 11
95.5166910624
 21
139.1606751634
  0
LINE
  5
280
100
AcDbEntity
  8
0
100
AcDbLine
 62
7
  6
CONTINUOUS
 10
94.4750244951
 20
145.1606751634
 11
94.3708579277
 21
144.7351432992
  0
LINE
  5
281
100
AcDbEntity
  8
0
100
AcDbLine
 62
7
  6
CONTINUOUS
 10
94.8916910624
 20
139.1606751634
 11
94.7875244951
 21
138.7351432992
  0
LINE
  5
282
100
AcDbEntity
  8
0
100
AcDbLine
 62
7
  6
CONTINUOUS
 10
105.068219718
 20
180.0898577293
 11
105.1869763581
 21
180.4925930901
  0
LINE
  5
283
100
AcDbEntity
  8
0
100
AcDbLine
 62
7
  6
CONTINUOUS
 10
108.5045471645
 20
182.6739295375
 11
108.4238254034
 21
182.4497998856
  0
LINE
  5
284
100
AcDbEntity
  8
0
100
AcDbLine
 62
7
  6
CONTINUOUS
 10
95.2041910624
 20
138.2032283945
 11
95.4125244951
 21
138.6287603332
  0
LINE
  5
285
100
AcDbEntity
  8
0
100
AcDbLine
 62
7
  6
CONTINUOUS
 10
116.835155387
 20
182.0652152076
 11
116.3179016226
 21
181.1384664689
  0
LINE
  5
286
100
AcDbEntity
  8
0
100
AcDbLine
 62
7
  6
CONTINUOUS
 10
116.7344961774
 20
181.1307490737
 11
117.2517499418
 21
182.0574978124
  0
LINE
  5
287
100
AcDbEntity
  8
0
100
AcDbLine
 62
7
  6
CONTINUOUS
 10
120.8224499169
 20
181.8701958656
 11
121.0543386756
 21
182.2640011317
  0
LINE
  5
288
100
AcDbEntity
  8
0
100
AcDbLine
 62
7
  6
CONTINUOUS
 10
94.7875244951
 20
138.7351432992
 11
94.5791910624
 21
138.4159944011
  0
LINE
  5
289
100
AcDbEntity
  8
0
100
AcDbLine
 62
7
  6
CONTINUOUS
 10
94.7875244951
 20
137.7776964931
 11
95.2041910624
 21
138.2032283945
  0
LINE
  5
28A
100
AcDbEntity
  8
0
100
AcDbLine
 62
7
  6
CONTINUOUS
 10
94.1625244951
 20
144.4159944011
 11
93.8500244951
 21
144.2032283945
  0
LINE
  5
28B
100
AcDbEntity
  8
0
100
AcDbLine
 62
7
  6
CONTINUOUS
 10
93.9541910624
 20
143.5649305331
 11
94.3708579277
 21
143.7776964931
  0
LINE
  5
28C
100
AcDbEntity
  8
0
100
AcDbLine
 62
7
  6
CONTINUOUS
 10
107.4500251511
 20
103.0285475577
 11
106.9500244951
 21
103.0285475577
  0
LINE
  5
28D
100
AcDbEntity
  8
0
100
AcDbLine
 62
7
  6
CONTINUOUS
 10
107.4500244951
 20
103.3378585249
 11
106.9500244951
 21
103.3378585249
  0
LINE
  5
28E
100
AcDbEntity
  8
0
100
AcDbLine
 62
7
  6
CONTINUOUS
 10
107.4500244951
 20
105.5378585249
 11
106.9500244951
 21
105.5378585249
  0
LINE
  5
28F
100
AcDbEntity
  8
0
100
AcDbLine
 62
7
  6
CONTINUOUS
 10
107.4500244951
 20
106.7378585249
 11
106.9500244951
 21
106.7378585249
  0
LINE
  5
290
100
AcDbEntity
  8
0
100
AcDbLine
 62
7
  6
CONTINUOUS
 10
95.1000244951
 20
145.1606751634
 11
95.1000244951
 21
148.4585475577
  0
LINE
  5
291
100
AcDbEntity
  8
0
100
AcDbLine
 62
7
  6
CONTINUOUS
 10
95.2041910624
 20
152.8628027691
 11
95.2041910624
 21
153.2883349312
  0
LINE
  5
292
100
AcDbEntity
  8
0
100
AcDbLine
 62
7
  6
CONTINUOUS
 10
95.5166910624
 20
139.1606751634
 11
95.5166910624
 21
140.756419803
  0
LINE
  5
293
100
AcDbEntity
  8
0
100
AcDbLine
 62
7
  6
CONTINUOUS
 10
96.7000244951
 20
91.7085475577
 11
96.7000244951
 21
69.5085475577
  0
LINE
  5
294
100
AcDbEntity
  8
0
100
AcDbLine
 62
7
  6
CONTINUOUS
 10
104.7341886904
 20
180.6889618642
 11
104.6998944216
 21
180.4532202977
  0
LINE
  5
295
100
AcDbEntity
  8
0
100
AcDbLine
 62
7
  6
CONTINUOUS
 10
108.9089479014
 20
182.391020698
 11
108.9946160251
 21
182.8046032021
  0
LINE
  5
296
100
AcDbEntity
  8
0
100
AcDbLine
 62
7
  6
CONTINUOUS
 10
120.6563844203
 20
182.4139547467
 11
120.5337069351
 21
182.1750350169
  0
LINE
  5
297
100
AcDbEntity
  8
0
100
AcDbLine
 62
7
  6
CONTINUOUS
 10
127.9456589603
 20
182.567953232
 11
125.6892259678
 21
179.2651498545
  0
LINE
  5
298
100
AcDbEntity
  8
0
100
AcDbLine
 62
7
  6
CONTINUOUS
 10
126.3901316649
 20
179.4047302031
 11
127.1102698691
 21
180.4588164094
  0
LINE
  5
299
100
AcDbEntity
  8
0
100
AcDbLine
 62
7
  6
CONTINUOUS
 10
127.3983251103
 20
180.8804508329
 11
128.0704541412
 21
181.8642646845
  0
LINE
  5
29A
100
AcDbEntity
  8
0
100
AcDbLine
 62
7
  6
CONTINUOUS
 10
129.5026093828
 20
180.2674041886
 11
129.4065909691
 21
180.1268593808
  0
LINE
  5
29B
100
AcDbEntity
  8
0
100
AcDbLine
 62
7
  6
CONTINUOUS
 10
128.5424251779
 20
178.861956012
 11
128.3983975573
 21
178.6511388003
  0
LINE
  5
29C
100
AcDbEntity
  8
0
100
AcDbLine
 62
7
  6
CONTINUOUS
 10
128.7632387726
 20
178.2988122723
 11
129.003284807
 21
178.6501742918
  0
LINE
  5
29D
100
AcDbEntity
  8
0
100
AcDbLine
 62
7
  6
CONTINUOUS
 10
129.7714321844
 20
179.7745328528
 11
129.9634691464
 21
180.0556226653
  0
LINE
  5
29E
100
AcDbEntity
  8
0
100
AcDbLine
 62
7
  6
CONTINUOUS
 10
94.5791910624
 20
138.4159944011
 11
94.2666910624
 21
138.2032283945
  0
LINE
  5
29F
100
AcDbEntity
  8
0
100
AcDbLine
 62
7
  6
CONTINUOUS
 10
94.3708579277
 20
137.5649305331
 11
94.7875244951
 21
137.7776964931
  0
LINE
  5
2A0
100
AcDbEntity
  8
0
100
AcDbLine
 62
7
  6
CONTINUOUS
 10
107.4500244951
 20
108.9378585249
 11
106.9500244951
 21
108.9378585249
  0
LINE
  5
2A1
100
AcDbEntity
  8
RUNDUNGEN
100
AcDbLine
 62
7
  6
CONTINUOUS
 10
127.3019901964
 20
94.8239919859
 11
127.2324898969
 21
94.8813426753
  0
LINE
  5
2A2
100
AcDbEntity
  8
0
100
AcDbLine
 62
7
  6
CONTINUOUS
 10
92.0791911369
 20
144.7351432992
 11
91.9750244951
 21
145.1606751634
  0
LINE
  5
2A3
100
AcDbEntity
  8
0
100
AcDbLine
 62
7
  6
CONTINUOUS
 10
94.7875244951
 20
141.1819516672
 11
94.8916910624
 21
140.756419803
  0
LINE
  5
2A4
100
AcDbEntity
  8
0
100
AcDbLine
 62
7
  6
CONTINUOUS
 10
91.3500244951
 20
145.1606751634
 11
91.4541911648
 21
144.6287603332
  0
LINE
  5
2A5
100
AcDbEntity
  8
0
100
AcDbLine
 62
7
  6
CONTINUOUS
 10
95.5166910624
 20
140.756419803
 11
95.4125244951
 21
141.2883349312
  0
LINE
  5
2A6
100
AcDbEntity
  8
0
100
AcDbLine
 62
7
  6
CONTINUOUS
 10
124.8412845509
 20
181.7311720117
 11
124.6553753469
 21
181.3483989239
  0
LINE
  5
2A7
100
AcDbEntity
  8
0
100
AcDbLine
 62
7
  6
CONTINUOUS
 10
125.7048108218
 20
180.838698216
 11
125.8907200259
 21
181.2214713038
  0
LINE
  5
2A8
100
AcDbEntity
  8
0
100
AcDbLine
 62
7
  6
CONTINUOUS
 10
91.4541911648
 20
144.6287603332
 11
91.6625244951
 21
144.2032283945
  0
LINE
  5
2A9
100
AcDbEntity
  8
0
100
AcDbLine
 62
7
  6
CONTINUOUS
 10
95.4125244951
 20
141.2883349312
 11
95.2041910624
 21
141.7138667954
  0
LINE
  5
2AA
100
AcDbEntity
  8
0
100
AcDbLine
 62
7
  6
CONTINUOUS
 10
93.7458577787
 20
151.6925901426
 11
94.5791910624
 21
149.4585475577
  0
LINE
  5
2AB
100
AcDbEntity
  8
0
100
AcDbLine
 62
7
  6
CONTINUOUS
 10
94.4750244951
 20
153.6074838294
 11
94.5791910624
 21
153.2883349312
  0
LINE
  5
2AC
100
AcDbEntity
  8
0
100
AcDbLine
 62
7
  6
CONTINUOUS
 10
106.9500244951
 20
100.0285475577
 11
106.9500244951
 21
102.5285474981
  0
LINE
  5
2AD
100
AcDbEntity
  8
0
100
AcDbLine
 62
7
  6
CONTINUOUS
 10
106.9500244951
 20
103.0285475577
 11
106.9500244951
 21
105.5378585249
  0
LINE
  5
2AE
100
AcDbEntity
  8
0
100
AcDbLine
 62
7
  6
CONTINUOUS
 10
106.9500244951
 20
106.7382548192
 11
106.9500244951
 21
108.9378585249
  0
LINE
  5
2AF
100
AcDbEntity
  8
RUNDUNGEN
100
AcDbLine
 62
7
  6
CONTINUOUS
 10
107.4500244951
 20
98.7085475577
 11
107.4500244951
 21
117.2085475577
  0
LINE
  5
2B0
100
AcDbEntity
  8
0
100
AcDbLine
 62
7
  6
CONTINUOUS
 10
105.1869763581
 20
180.4925930901
 11
105.1882493699
 21
180.9149530013
  0
LINE
  5
2B1
100
AcDbEntity
  8
0
100
AcDbLine
 62
7
  6
CONTINUOUS
 10
122.400478137
 20
183.5456732111
 11
122.2905506979
 21
183.2234846432
  0
LINE
  5
2B2
100
AcDbEntity
  8
0
100
AcDbLine
 62
7
  6
CONTINUOUS
 10
123.2512869829
 20
183.9747755682
 11
123.0314320278
 21
183.3303982067
  0
LINE
  5
2B3
100
AcDbEntity
  8
0
100
AcDbLine
 62
7
  6
CONTINUOUS
 10
122.9215045888
 20
183.0082096388
 11
122.3718673357
 21
181.39726663
  0
LINE
  5
2B4
100
AcDbEntity
  8
0
100
AcDbLine
 62
7
  6
CONTINUOUS
 10
122.8211759024
 20
181.4238145546
 11
123.3158494167
 21
182.873663223
  0
LINE
  5
2B5
100
AcDbEntity
  8
0
100
AcDbLine
 62
7
  6
CONTINUOUS
 10
123.4257768557
 20
183.1958517909
 11
123.6456318108
 21
183.8402291524
  0
LINE
  5
2B6
100
AcDbEntity
  8
0
100
AcDbLine
 62
7
  6
CONTINUOUS
 10
123.2561790396
 20
180.3761591039
 11
123.3661064882
 21
180.6983477
  0
LINE
  5
2B7
100
AcDbEntity
  8
0
100
AcDbLine
 62
7
  6
CONTINUOUS
 10
124.1834087601
 20
182.5776608618
 11
124.2933361991
 21
182.8998494297
  0
LINE
  5
2B8
100
AcDbEntity
  8
0
100
AcDbLine
 62
7
  6
CONTINUOUS
 10
92.2875244951
 20
144.4159944011
 11
92.0791911369
 21
144.7351432992
  0
LINE
  5
2B9
100
AcDbEntity
  8
0
100
AcDbLine
 62
7
  6
CONTINUOUS
 10
94.5791910624
 20
141.5011008633
 11
94.7875244951
 21
141.1819516672
  0
LINE
  5
2BA
100
AcDbEntity
  8
0
100
AcDbLine
 62
7
  6
CONTINUOUS
 10
95.3083579277
 20
149.4585475577
 11
94.3708579277
 21
151.9053560747
  0
LINE
  5
2BB
100
AcDbEntity
  8
0
100
AcDbLine
 62
7
  6
CONTINUOUS
 10
95.2041910624
 20
153.2883349312
 11
95.1000244951
 21
153.6074838294
  0
LINE
  5
2BC
100
AcDbEntity
  8
0
100
AcDbLine
 62
7
  6
CONTINUOUS
 10
118.5499078258
 20
185.5957942911
 11
118.1998350065
 21
183.4108956456
  0
LINE
  5
2BD
100
AcDbEntity
  8
0
100
AcDbLine
 62
7
  6
CONTINUOUS
 10
118.67857623
 20
183.765149205
 11
118.8940056717
 21
185.1097023082
  0
LINE
  5
2BE
100
AcDbEntity
  8
0
100
AcDbLine
 62
7
  6
CONTINUOUS
 10
120.6833130958
 20
182.5820238552
 11
120.6563844203
 21
182.4139547467
  0
LINE
  5
2BF
100
AcDbEntity
  8
0
100
AcDbLine
 62
7
  6
CONTINUOUS
 10
121.2802374664
 20
184.7273711216
 11
121.3475591552
 21
185.1475438928
  0
LINE
  5
2C0
100
AcDbEntity
  8
0
100
AcDbLine
 62
7
  6
CONTINUOUS
 10
121.0543386756
 20
182.2640011317
 11
121.1081960266
 21
182.6001393486
  0
LINE
  5
2C1
100
AcDbEntity
  8
0
100
AcDbLine
 62
7
  6
CONTINUOUS
 10
91.6625244951
 20
144.2032283945
 11
92.0791911369
 21
143.7776964931
  0
LINE
  5
2C2
100
AcDbEntity
  8
0
100
AcDbLine
 62
7
  6
CONTINUOUS
 10
95.2041910624
 20
141.7138667954
 11
94.7875244951
 21
142.1393986596
  0
LINE
  5
2C3
100
AcDbEntity
  8
0
100
AcDbLine
 62
7
  6
CONTINUOUS
 10
128.6176439372
 20
179.1197827015
 11
128.5424251779
 21
178.861956012
  0
LINE
  5
2C4
100
AcDbEntity
  8
0
100
AcDbLine
 62
7
  6
CONTINUOUS
 10
129.003284807
 20
178.6501742918
 11
129.0785035662
 21
178.9080009813
  0
LINE
  5
2C5
100
AcDbEntity
  8
0
100
AcDbLine
 62
7
  6
CONTINUOUS
 10
129.5778282093
 20
180.5252309765
 11
129.5026093828
 21
180.2674041886
  0
LINE
  5
2C6
100
AcDbEntity
  8
0
100
AcDbLine
 62
7
  6
CONTINUOUS
 10
129.9634691464
 20
180.0556226653
 11
130.0386878384
 21
180.3134492564
  0
LINE
  5
2C7
100
AcDbEntity
  8
0
100
AcDbLine
 62
7
  6
CONTINUOUS
 10
94.2666910624
 20
141.7138667954
 11
94.5791910624
 21
141.5011008633
  0
LINE
  5
2C8
100
AcDbEntity
  8
0
100
AcDbLine
 62
7
  6
CONTINUOUS
 10
92.6000244951
 20
144.2032283945
 11
92.2875244951
 21
144.4159944011
  0
LINE
  5
2C9
100
AcDbEntity
  8
0
100
AcDbLine
 62
7
  6
CONTINUOUS
 10
95.1000244951
 20
153.6074838294
 11
94.7875244951
 21
154.0330156935
  0
LINE
  5
2CA
100
AcDbEntity
  8
0
100
AcDbLine
 62
7
  6
CONTINUOUS
 10
108.4740787923
 20
182.9407703168
 11
108.5045471645
 21
182.6739295375
  0
LINE
  5
2CB
100
AcDbEntity
  8
0
100
AcDbLine
 62
7
  6
CONTINUOUS
 10
108.9946160251
 20
182.8046032021
 11
108.9641476528
 21
183.0714439814
  0
LINE
  5
2CC
100
AcDbEntity
  8
0
100
AcDbLine
 62
7
  6
CONTINUOUS
 10
114.4274977812
 20
184.9604988114
 11
114.4745696413
 21
184.2812767378
  0
LINE
  5
2CD
100
AcDbEntity
  8
0
100
AcDbLine
 62
7
  6
CONTINUOUS
 10
114.9321853567
 20
184.9101644712
 11
115.1616606273
 21
181.5989575463
  0
LINE
  5
2CE
100
AcDbEntity
  8
0
100
AcDbLine
 62
7
  6
CONTINUOUS
 10
115.6604642223
 20
181.6335259356
 11
115.3839171082
 21
185.6239546962
  0
LINE
  5
2CF
100
AcDbEntity
  8
0
100
AcDbLine
 62
7
  6
CONTINUOUS
 10
94.7875244951
 20
142.1393986596
 11
94.3708579277
 21
142.3521645917
  0
LINE
  5
2D0
100
AcDbEntity
  8
0
100
AcDbLine
 62
7
  6
CONTINUOUS
 10
92.0791911369
 20
143.7776964931
 11
92.4958578532
 21
143.5649305331
  0
LINE
  5
2D1
100
AcDbEntity
  8
0
100
AcDbLine
 62
7
  6
CONTINUOUS
 10
94.2666910624
 20
153.8202497615
 11
94.4750244951
 21
153.6074838294
  0
LINE
  5
2D2
100
AcDbEntity
  8
0
100
AcDbLine
 62
7
  6
CONTINUOUS
 10
104.6509991384
 20
180.9443278406
 11
104.7341886904
 21
180.6889618642
  0
LINE
  5
2D3
100
AcDbEntity
  8
RUNDUNGEN
100
AcDbLine
 62
7
  6
CONTINUOUS
 10
125.4500244951
 20
98.7085475577
 11
125.4500244951
 21
117.2085475577
  0
LINE
  5
2D4
100
AcDbEntity
  8
0
100
AcDbLine
 62
7
  6
CONTINUOUS
 10
122.8175999915
 20
181.1552635427
 11
122.8211759024
 21
181.4238145546
  0
LINE
  5
2D5
100
AcDbEntity
  8
KONSTRUKTIONSELEMENTE
100
AcDbLine
 62
7
  6
CONTINUOUS
 10
89.5335577586
 20
134.5085475577
 11
98.8354136924
 21
134.5085475577
  0
LINE
  5
2D6
100
AcDbEntity
  8
KONSTRUKTIONSELEMENTE
100
AcDbLine
 62
7
  6
CONTINUOUS
 10
134.0646352977
 20
134.5085475577
 11
143.3664912316
 21
134.5085475577
  0
LINE
  5
2D7
100
AcDbEntity
  8
0
100
AcDbLine
 62
7
  6
CONTINUOUS
 10
91.3500244951
 20
137.4585475577
 11
93.8500244951
 21
137.4585475577
  0
LINE
  5
2D8
100
AcDbEntity
  8
0
100
AcDbLine
 62
7
  6
CONTINUOUS
 10
93.8500244951
 20
138.0968454285
 11
91.9750244951
 21
138.0968454285
  0
LINE
  5
2D9
100
AcDbEntity
  8
0
100
AcDbLine
 62
7
  6
CONTINUOUS
 10
94.3708579277
 20
142.3521645917
 11
93.8500244951
 21
142.4585475577
  0
LINE
  5
2DA
100
AcDbEntity
  8
0
100
AcDbLine
 62
7
  6
CONTINUOUS
 10
93.8500244951
 20
141.8202497615
 11
94.2666910624
 21
141.7138667954
  0
LINE
  5
2DB
100
AcDbEntity
  8
0
100
AcDbLine
 62
7
  6
CONTINUOUS
 10
93.0166912114
 20
144.0968454285
 11
92.6000244951
 21
144.2032283945
  0
LINE
  5
2DC
100
AcDbEntity
  8
0
100
AcDbLine
 62
7
  6
CONTINUOUS
 10
94.7875244951
 20
154.0330156935
 11
94.3708579277
 21
154.3521645917
  0
LINE
  5
2DD
100
AcDbEntity
  8
0
100
AcDbLine
 62
7
  6
CONTINUOUS
 10
105.1882493699
 20
180.9149530013
 11
105.1050598178
 21
181.1703189777
  0
LINE
  5
2DE
100
AcDbEntity
  8
0
100
AcDbLine
 62
7
  6
CONTINUOUS
 10
93.8500244951
 20
137.4585475577
 11
94.3708579277
 21
137.5649305331
  0
LINE
  5
2DF
100
AcDbEntity
  8
0
100
AcDbLine
 62
7
  6
CONTINUOUS
 10
91.9750244951
 20
141.8202497615
 11
93.8500244951
 21
141.8202497615
  0
LINE
  5
2E0
100
AcDbEntity
  8
0
100
AcDbLine
 62
7
  6
CONTINUOUS
 10
93.8500244951
 20
142.4585475577
 11
91.3500244951
 21
142.4585475577
  0
LINE
  5
2E1
100
AcDbEntity
  8
0
100
AcDbLine
 62
7
  6
CONTINUOUS
 10
92.4958578532
 20
143.5649305331
 11
93.0166912114
 21
143.4585475577
  0
LINE
  5
2E2
100
AcDbEntity
  8
0
100
AcDbLine
 62
7
  6
CONTINUOUS
 10
105.6292259451
 20
182.949216556
 11
107.2937186788
 21
179.31198355
  0
LINE
  5
2E3
100
AcDbEntity
  8
0
100
AcDbLine
 62
7
  6
CONTINUOUS
 10
107.7483728045
 20
179.5200451417
 11
107.0046632747
 21
181.145191827
  0
LINE
  5
2E4
100
AcDbEntity
  8
0
100
AcDbLine
 62
7
  6
CONTINUOUS
 10
106.7921748659
 20
181.6095193894
 11
106.2609537448
 21
182.7703385123
  0
LINE
  5
2E5
100
AcDbEntity
  8
0
100
AcDbLine
 62
7
  6
CONTINUOUS
 10
120.641421656
 20
182.8473115685
 11
120.6833130958
 21
182.5820238552
  0
LINE
  5
2E6
100
AcDbEntity
  8
0
100
AcDbLine
 62
7
  6
CONTINUOUS
 10
122.3718673357
 20
181.39726663
 11
122.4196774572
 21
181.0212595908
  0
LINE
  5
2E7
100
AcDbEntity
  8
0
100
AcDbLine
 62
7
  6
CONTINUOUS
 10
129.0785035662
 20
178.9080009813
 11
129.0641151827
 21
179.330117659
  0
LINE
  5
2E8
100
AcDbEntity
  8
0
100
AcDbLine
 62
7
  6
CONTINUOUS
 10
130.0386878384
 20
180.3134492564
 11
130.0242994548
 21
180.7355659341
  0
LINE
  5
2E9
100
AcDbEntity
  8
0
100
AcDbLine
 62
7
  6
CONTINUOUS
 10
132.1364039371
 20
80.5085475577
 11
132.1364039371
 21
74.5085475577
  0
LINE
  5
2EA
100
AcDbEntity
  8
0
100
AcDbLine
 62
7
  6
CONTINUOUS
 10
132.4500244951
 20
80.5085475577
 11
132.4500244951
 21
74.5085475577
  0
LINE
  5
2EB
100
AcDbEntity
  8
0
100
AcDbLine
 62
7
  6
CONTINUOUS
 10
132.9859701892
 20
79.8702497615
 11
132.9859701892
 21
77.9553560151
  0
LINE
  5
2EC
100
AcDbEntity
  8
0
100
AcDbLine
 62
7
  6
CONTINUOUS
 10
132.9859701892
 20
77.1893986596
 11
132.9859701892
 21
74.5085475577
  0
LINE
  5
2ED
100
AcDbEntity
  8
0
100
AcDbLine
 62
7
  6
CONTINUOUS
 10
134.4513264775
 20
79.104292406
 11
134.4513264775
 21
78.7213133706
  0
LINE
  5
2EE
100
AcDbEntity
  8
0
100
AcDbLine
 62
7
  6
CONTINUOUS
 10
134.5072252748
 20
87.5085475577
 11
134.5072252748
 21
81.5085475577
  0
LINE
  5
2EF
100
AcDbEntity
  8
0
100
AcDbLine
 62
7
  6
CONTINUOUS
 10
134.7252638386
 20
79.104292406
 11
134.7252638386
 21
78.7213133706
  0
LINE
  5
2F0
100
AcDbEntity
  8
0
100
AcDbLine
 62
7
  6
CONTINUOUS
 10
94.2666910624
 20
138.2032283945
 11
93.8500244951
 21
138.0968454285
  0
LINE
  5
2F1
100
AcDbEntity
  8
0
100
AcDbLine
 62
7
  6
CONTINUOUS
 10
93.0166912114
 20
143.4585475577
 11
93.4333577787
 21
143.4585475577
  0
LINE
  5
2F2
100
AcDbEntity
  8
0
100
AcDbLine
 62
7
  6
CONTINUOUS
 10
93.4333577787
 20
144.0968454285
 11
93.0166912114
 21
144.0968454285
  0
LINE
  5
2F3
100
AcDbEntity
  8
0
100
AcDbLine
 62
7
  6
CONTINUOUS
 10
93.9541910624
 20
153.9266327275
 11
94.2666910624
 21
153.8202497615
  0
LINE
  5
2F4
100
AcDbEntity
  8
0
100
AcDbLine
 62
7
  6
CONTINUOUS
 10
108.3678344887
 20
183.1729343148
 11
108.4740787923
 21
182.9407703168
  0
LINE
  5
2F5
100
AcDbEntity
  8
0
100
AcDbLine
 62
7
  6
CONTINUOUS
 10
108.9641476528
 20
183.0714439814
 11
108.8224886145
 21
183.3809959065
  0
LINE
  5
2F6
100
AcDbEntity
  8
0
100
AcDbLine
 62
7
  6
CONTINUOUS
 10
118.0786559479
 20
182.6545845397
 11
118.1893665897
 21
182.2920785491
  0
LINE
  5
2F7
100
AcDbEntity
  8
0
100
AcDbLine
 62
7
  6
CONTINUOUS
 10
118.6830696547
 20
182.2129755554
 11
118.5723590129
 21
182.575481546
  0
LINE
  5
2F8
100
AcDbEntity
  8
0
100
AcDbLine
 62
7
  6
CONTINUOUS
 10
121.1081960266
 20
182.6001393486
 11
121.0109506737
 21
183.0466798015
  0
LINE
  5
2F9
100
AcDbEntity
  8
0
100
AcDbLine
 62
7
  6
CONTINUOUS
 10
134.7803272749
 20
87.5085475577
 11
134.7803272749
 21
81.5085475577
  0
LINE
  5
2FA
100
AcDbEntity
  8
0
100
AcDbLine
 62
7
  6
CONTINUOUS
 10
135.0405966552
 20
79.104292406
 11
135.0405966552
 21
78.5936538113
  0
LINE
  5
2FB
100
AcDbEntity
  8
0
100
AcDbLine
 62
7
  6
CONTINUOUS
 10
135.0896999214
 20
86.8702497615
 11
135.0896999214
 21
84.9553560151
  0
LINE
  5
2FC
100
AcDbEntity
  8
0
100
AcDbLine
 62
7
  6
CONTINUOUS
 10
135.0896999214
 20
84.1893986596
 11
135.0896999214
 21
81.5085475577
  0
LINE
  5
2FD
100
AcDbEntity
  8
0
100
AcDbLine
 62
7
  6
CONTINUOUS
 10
135.1428540027
 20
80.5085475577
 11
135.1428540027
 21
74.5085475577
  0
LINE
  5
2FE
100
AcDbEntity
  8
0
100
AcDbLine
 62
7
  6
CONTINUOUS
 10
135.4068009879
 20
80.5085475577
 11
135.4068009879
 21
74.5085475577
  0
LINE
  5
2FF
100
AcDbEntity
  8
0
100
AcDbLine
 62
7
  6
CONTINUOUS
 10
135.6427151611
 20
79.8702497615
 11
135.6427151611
 21
77.9553560151
  0
LINE
  5
300
100
AcDbEntity
  8
0
100
AcDbLine
 62
7
  6
CONTINUOUS
 10
135.6427151611
 20
77.1893986596
 11
135.6427151611
 21
74.5085475577
  0
LINE
  5
301
100
AcDbEntity
  8
0
100
AcDbLine
 62
7
  6
CONTINUOUS
 10
135.7644458951
 20
86.104292406
 11
135.7644458951
 21
85.7213133706
  0
LINE
  5
302
100
AcDbEntity
  8
0
100
AcDbLine
 62
7
  6
CONTINUOUS
 10
136.0200110566
 20
86.104292406
 11
136.0200110566
 21
85.7213133706
  0
LINE
  5
303
100
AcDbEntity
  8
0
100
AcDbLine
 62
7
  6
CONTINUOUS
 10
136.041157724
 20
79.104292406
 11
136.041157724
 21
78.7213133706
  0
LINE
  5
304
100
AcDbEntity
  8
0
100
AcDbLine
 62
7
  6
CONTINUOUS
 10
136.0714413518
 20
87.5085475577
 11
136.0714413518
 21
86.9979093207
  0
LINE
  5
305
100
AcDbEntity
  8
0
100
AcDbLine
 62
7
  6
CONTINUOUS
 10
136.0714413518
 20
84.7000368966
 11
136.0714413518
 21
83.5511006845
  0
LINE
  5
306
100
AcDbEntity
  8
0
100
AcDbLine
 62
7
  6
CONTINUOUS
 10
136.1632021739
 20
86.104292406
 11
136.1632021739
 21
85.5936538113
  0
LINE
  5
307
100
AcDbEntity
  8
0
100
AcDbLine
 62
7
  6
CONTINUOUS
 10
136.1857788511
 20
77.216988769
 11
136.1857788511
 21
76.6787602438
  0
LINE
  5
308
100
AcDbEntity
  8
0
100
AcDbLine
 62
7
  6
CONTINUOUS
 10
136.2000244951
 20
91.7085475577
 11
136.2000244951
 21
87.5085475577
  0
LINE
  5
309
100
AcDbEntity
  8
0
100
AcDbLine
 62
7
  6
CONTINUOUS
 10
136.2000244951
 20
81.5085475577
 11
136.2000244951
 21
80.462877395
  0
LINE
  5
30A
100
AcDbEntity
  8
0
100
AcDbLine
 62
7
  6
CONTINUOUS
 10
136.2000244951
 20
76.6787602438
 11
136.2000244951
 21
69.5085475577
  0
LINE
  5
30B
100
AcDbEntity
  8
0
100
AcDbLine
 62
7
  6
CONTINUOUS
 10
136.2600598969
 20
74.5085475577
 11
136.2600598969
 21
76.6787602438
  0
LINE
  5
30C
100
AcDbEntity
  8
0
100
AcDbLine
 62
7
  6
CONTINUOUS
 10
136.2931593581
 20
79.104292406
 11
136.2931593581
 21
78.7213133706
  0
LINE
  5
30D
100
AcDbEntity
  8
0
100
AcDbLine
 62
7
  6
CONTINUOUS
 10
136.3230589756
 20
87.5085475577
 11
136.3230589756
 21
83.5511006845
  0
LINE
  5
30E
100
AcDbEntity
  8
0
100
AcDbLine
 62
7
  6
CONTINUOUS
 10
136.3733149069
 20
79.104292406
 11
136.3733149069
 21
78.5936538113
  0
LINE
  5
30F
100
AcDbEntity
  8
0
100
AcDbLine
 62
7
  6
CONTINUOUS
 10
136.3936951882
 20
87.5085475577
 11
136.3936951882
 21
83.5511006845
  0
LINE
  5
310
100
AcDbEntity
  8
0
100
AcDbLine
 62
7
  6
CONTINUOUS
 10
136.4359570477
 20
77.3170582188
 11
136.4359570477
 21
76.6787602438
  0
LINE
  5
311
100
AcDbEntity
  8
0
100
AcDbLine
 62
7
  6
CONTINUOUS
 10
136.4500244951
 20
82.2745050026
 11
136.4500244951
 21
81.5085475577
  0
LINE
  5
312
100
AcDbEntity
  8
0
100
AcDbLine
 62
7
  6
CONTINUOUS
 10
136.4500244951
 20
77.3170582188
 11
136.4500244951
 21
76.6787602438
  0
LINE
  5
313
100
AcDbEntity
  8
0
100
AcDbLine
 62
7
  6
CONTINUOUS
 10
93.8500244951
 20
144.2032283945
 11
93.4333577787
 21
144.0968454285
  0
LINE
  5
314
100
AcDbEntity
  8
0
100
AcDbLine
 62
7
  6
CONTINUOUS
 10
93.4333577787
 20
143.4585475577
 11
93.9541910624
 21
143.5649305331
  0
LINE
  5
315
100
AcDbEntity
  8
0
100
AcDbLine
 62
7
  6
CONTINUOUS
 10
95.1000244951
 20
148.4585475577
 11
94.4750244951
 21
148.4585475577
  0
LINE
  5
316
100
AcDbEntity
  8
0
100
AcDbLine
 62
7
  6
CONTINUOUS
 10
91.9750244951
 20
148.4585475577
 11
91.3500244951
 21
148.4585475577
  0
LINE
  5
317
100
AcDbEntity
  8
0
100
AcDbLine
 62
7
  6
CONTINUOUS
 10
91.3500244951
 20
149.4585475577
 11
91.9750244951
 21
149.4585475577
  0
LINE
  5
318
100
AcDbEntity
  8
0
100
AcDbLine
 62
7
  6
CONTINUOUS
 10
94.5791910624
 20
149.4585475577
 11
95.3083579277
 21
149.4585475577
  0
LINE
  5
319
100
AcDbEntity
  8
0
100
AcDbLine
 62
7
  6
CONTINUOUS
 10
94.3708579277
 20
154.3521645917
 11
93.8500244951
 21
154.4585475577
  0
LINE
  5
31A
100
AcDbEntity
  8
0
100
AcDbLine
 62
7
  6
CONTINUOUS
 10
101.8618656114
 20
180.3839779516
 11
104.2197757619
 21
177.1528388766
  0
LINE
  5
31B
100
AcDbEntity
  8
0
100
AcDbLine
 62
7
  6
CONTINUOUS
 10
104.6236681462
 20
177.4475776454
 11
103.5701338088
 21
178.8912781036
  0
LINE
  5
31C
100
AcDbEntity
  8
0
100
AcDbLine
 62
7
  6
CONTINUOUS
 10
103.2691240382
 20
179.3037638938
 11
102.5165994713
 21
180.3349785619
  0
LINE
  5
31D
100
AcDbEntity
  8
0
100
AcDbLine
 62
7
  6
CONTINUOUS
 10
104.5004941125
 20
181.1505709282
 11
104.6509991384
 21
180.9443278406
  0
LINE
  5
31E
100
AcDbEntity
  8
0
100
AcDbLine
 62
7
  6
CONTINUOUS
 10
105.1050598178
 20
181.1703189777
 11
104.9043864969
 21
181.4453096971
  0
LINE
  5
31F
100
AcDbEntity
  8
0
100
AcDbLine
 62
7
  6
CONTINUOUS
 10
128.5760460685
 20
179.354345192
 11
128.6176439372
 21
179.1197827015
  0
LINE
  5
320
100
AcDbEntity
  8
0
100
AcDbLine
 62
7
  6
CONTINUOUS
 10
129.5362303406
 20
180.7597934671
 11
129.5778282093
 21
180.5252309765
  0
LINE
  5
321
100
AcDbEntity
  8
0
100
AcDbLine
 62
7
  6
CONTINUOUS
 10
91.9750244951
 20
151.6925901426
 11
93.7458577787
 21
151.6925901426
  0
LINE
  5
322
100
AcDbEntity
  8
0
100
AcDbLine
 62
7
  6
CONTINUOUS
 10
93.9541910624
 20
152.3308879389
 11
91.9750244951
 21
152.3308879389
  0
LINE
  5
323
100
AcDbEntity
  8
0
100
AcDbLine
 62
7
  6
CONTINUOUS
 10
91.9750244951
 20
153.9266327275
 11
93.9541910624
 21
153.9266327275
  0
LINE
  5
324
100
AcDbEntity
  8
0
100
AcDbLine
 62
7
  6
CONTINUOUS
 10
93.8500244951
 20
154.4585475577
 11
91.3500244951
 21
154.4585475577
  0
LINE
  5
325
100
AcDbEntity
  8
0
100
AcDbLine
 62
7
  6
CONTINUOUS
 10
118.1893665897
 20
182.2920785491
 11
118.3823607664
 21
181.9163888058
  0
LINE
  5
326
100
AcDbEntity
  8
0
100
AcDbLine
 62
7
  6
CONTINUOUS
 10
120.5172476087
 20
183.1257827952
 11
120.641421656
 21
182.8473115685
  0
LINE
  5
327
100
AcDbEntity
  8
KONSTRUKTIONSELEMENTE
100
AcDbLine
 62
7
  6
CONTINUOUS
 10
89.5335577586
 20
156.5085475577
 11
98.8354136924
 21
156.5085475577
  0
LINE
  5
328
100
AcDbEntity
  8
KONSTRUKTIONSELEMENTE
100
AcDbLine
 62
7
  6
CONTINUOUS
 10
134.0646352977
 20
156.5085475577
 11
143.3664912316
 21
156.5085475577
  0
LINE
  5
329
100
AcDbEntity
  8
0
100
AcDbLine
 62
7
  6
CONTINUOUS
 10
108.1858144522
 20
183.3704210979
 11
108.3678344887
 21
183.1729343148
  0
LINE
  5
32A
100
AcDbEntity
  8
0
100
AcDbLine
 62
7
  6
CONTINUOUS
 10
108.8224886145
 20
183.3809959065
 11
108.6404685779
 21
183.5784826896
  0
LINE
  5
32B
100
AcDbEntity
  8
0
100
AcDbLine
 62
7
  6
CONTINUOUS
 10
121.0109506737
 20
183.0466798015
 11
120.8179564922
 21
183.4223695153
  0
LINE
  5
32C
100
AcDbEntity
  8
0
100
AcDbLine
 62
7
  6
CONTINUOUS
 10
130.0242994548
 20
180.7355659341
 11
129.8930945106
 21
181.1344185112
  0
LINE
  5
32D
100
AcDbEntity
  8
0
100
AcDbLine
 62
7
  6
CONTINUOUS
 10
104.2826738941
 20
181.3076907421
 11
104.5004941125
 21
181.1505709282
  0
LINE
  5
32E
100
AcDbEntity
  8
0
100
AcDbLine
 62
7
  6
CONTINUOUS
 10
104.9043864969
 20
181.4453096971
 11
104.6865662784
 21
181.6024295109
  0
LINE
  5
32F
100
AcDbEntity
  8
0
100
AcDbLine
 62
7
  6
CONTINUOUS
 10
129.0641151827
 20
179.330117659
 11
128.9745081071
 21
179.4944077456
  0
LINE
  5
330
100
AcDbEntity
  8
0
100
AcDbLine
 62
7
  6
CONTINUOUS
 10
118.9029925117
 20
182.00535495
 11
118.6830696547
 21
182.2129755554
  0
LINE
  5
331
100
AcDbEntity
  8
0
100
AcDbLine
 62
7
  6
CONTINUOUS
 10
122.4196774572
 20
181.0212595908
 11
122.6013209906
 21
180.77943732
  0
LINE
  5
332
100
AcDbEntity
  8
0
100
AcDbLine
 62
7
  6
CONTINUOUS
 10
122.9992435298
 20
180.9134412861
 11
122.8175999915
 21
181.1552635427
  0
LINE
  5
333
100
AcDbEntity
  8
0
100
AcDbLine
 62
7
  6
CONTINUOUS
 10
128.4176300643
 20
179.5656446579
 11
128.5760460685
 21
179.354345192
  0
LINE
  5
334
100
AcDbEntity
  8
0
100
AcDbLine
 62
7
  6
CONTINUOUS
 10
108.6404685779
 20
183.5784826896
 11
108.2714825759
 21
183.7840036021
  0
LINE
  5
335
100
AcDbEntity
  8
0
100
AcDbLine
 62
7
  6
CONTINUOUS
 10
122.6013209906
 20
180.77943732
 11
122.8104463862
 21
180.6181621983
  0
LINE
  5
336
100
AcDbEntity
  8
0
100
AcDbLine
 62
7
  6
CONTINUOUS
 10
118.3823607664
 20
181.9163888058
 11
118.7533863427
 21
181.5983660602
  0
LINE
  5
337
100
AcDbEntity
  8
0
100
AcDbLine
 62
7
  6
CONTINUOUS
 10
120.8179564922
 20
183.4223695153
 11
120.446929029
 21
183.7403925406
  0
LINE
  5
338
100
AcDbEntity
  8
0
100
AcDbLine
 62
7
  6
CONTINUOUS
 10
120.2973247517
 20
183.3334034005
 11
120.5172476087
 21
183.1257827952
  0
LINE
  5
339
100
AcDbEntity
  8
0
100
AcDbLine
 62
7
  6
CONTINUOUS
 10
129.3778143364
 20
180.971092933
 11
129.5362303406
 21
180.7597934671
  0
LINE
  5
33A
100
AcDbEntity
  8
0
100
AcDbLine
 62
7
  6
CONTINUOUS
 10
128.185561008
 20
178.4873309679
 11
127.9519262782
 21
178.4408037935
  0
LINE
  5
33B
100
AcDbEntity
  8
0
100
AcDbLine
 62
7
  6
CONTINUOUS
 10
129.1937544198
 20
179.9630515484
 11
128.9601197236
 21
179.9165244233
  0
LINE
  5
33C
100
AcDbEntity
  8
0
100
AcDbLine
 62
7
  6
CONTINUOUS
 10
127.7326799361
 20
177.9721599477
 11
128.1519401342
 21
177.9949418125
  0
LINE
  5
33D
100
AcDbEntity
  8
0
100
AcDbLine
 62
7
  6
CONTINUOUS
 10
104.6865662784
 20
181.6024295109
 11
104.2839469059
 21
181.7300506533
  0
LINE
  5
33E
100
AcDbEntity
  8
0
100
AcDbLine
 62
7
  6
CONTINUOUS
 10
107.9634337519
 20
183.4558431543
 11
108.1858144522
 21
183.3704210979
  0
LINE
  5
33F
100
AcDbEntity
  8
0
100
AcDbLine
 62
7
  6
CONTINUOUS
 10
122.8104463862
 20
180.6181621983
 11
123.2561790396
 21
180.3761591039
  0
LINE
  5
340
100
AcDbEntity
  8
0
100
AcDbLine
 62
7
  6
CONTINUOUS
 10
123.3661064882
 20
180.6983477
 11
122.9992435298
 21
180.9134412861
  0
LINE
  5
341
100
AcDbEntity
  8
0
100
AcDbLine
 62
7
  6
CONTINUOUS
 10
125.6892259678
 20
179.2651498545
 11
127.3406276566
 21
178.1369333583
  0
LINE
  5
342
100
AcDbEntity
  8
0
100
AcDbLine
 62
7
  6
CONTINUOUS
 10
127.6974918602
 20
178.5115584516
 11
126.3901316649
 21
179.4047302031
  0
LINE
  5
343
100
AcDbEntity
  8
0
100
AcDbLine
 62
7
  6
CONTINUOUS
 10
127.1102698691
 20
180.4588164094
 11
128.4176300643
 21
179.5656446579
  0
LINE
  5
344
100
AcDbEntity
  8
0
100
AcDbLine
 62
7
  6
CONTINUOUS
 10
128.7056853056
 20
179.9872790814
 11
127.3983251103
 21
180.8804508329
  0
LINE
  5
345
100
AcDbEntity
  8
0
100
AcDbLine
 62
7
  6
CONTINUOUS
 10
129.8930945106
 20
181.1344185112
 11
129.5970606491
 21
181.4397367358
  0
LINE
  5
346
100
AcDbEntity
  8
0
100
AcDbLine
 62
7
  6
CONTINUOUS
 10
120.0549666439
 20
181.8207812477
 11
119.7123663017
 21
181.7894821232
  0
LINE
  5
347
100
AcDbEntity
  8
0
100
AcDbLine
 62
7
  6
CONTINUOUS
 10
115.1616606273
 20
181.5989575463
 11
115.6604642223
 21
181.6335259356
  0
LINE
  5
348
100
AcDbEntity
  8
0
100
AcDbLine
 62
7
  6
CONTINUOUS
 10
119.6450446035
 20
181.3693092932
 11
120.0699275355
 21
181.3874247939
  0
LINE
  5
349
100
AcDbEntity
  8
0
100
AcDbLine
 62
7
  6
CONTINUOUS
 10
116.3179016226
 20
181.1384664689
 11
116.7344961774
 21
181.1307490737
  0
LINE
  5
34A
100
AcDbEntity
  8
0
100
AcDbLine
 62
7
  6
CONTINUOUS
 10
117.2517499418
 20
182.0574978124
 11
116.835155387
 21
182.0652152076
  0
LINE
  5
34B
100
AcDbEntity
  8
0
100
AcDbLine
 62
7
  6
CONTINUOUS
 10
104.2839469059
 20
181.7300506533
 11
103.8641804952
 21
181.7398010827
  0
LINE
  5
34C
100
AcDbEntity
  8
0
100
AcDbLine
 62
7
  6
CONTINUOUS
 10
128.9745081071
 20
179.4944077456
 11
129.1601335964
 21
179.4706624668
  0
LINE
  5
34D
100
AcDbEntity
  8
0
100
AcDbLine
 62
7
  6
CONTINUOUS
 10
119.1513415385
 20
181.4484122869
 11
119.6450446035
 21
181.3693092932
  0
LINE
  5
34E
100
AcDbEntity
  8
0
100
AcDbLine
 62
7
  6
CONTINUOUS
 10
119.7123663017
 20
181.7894821232
 11
119.2186632367
 21
181.8685851169
  0
LINE
  5
34F
100
AcDbEntity
  8
0
100
AcDbLine
 62
7
  6
CONTINUOUS
 10
118.5723590129
 20
182.575481546
 11
118.0786559479
 21
182.6545845397
  0
LINE
  5
350
100
AcDbEntity
  8
0
100
AcDbLine
 62
7
  6
CONTINUOUS
 10
104.0477064449
 20
181.3469397023
 11
104.2826738941
 21
181.3076907421
  0
LINE
  5
351
100
AcDbEntity
  8
0
100
AcDbLine
 62
7
  6
CONTINUOUS
 10
108.2714825759
 20
183.7840036021
 11
107.8621354765
 21
183.8774595893
  0
LINE
  5
352
100
AcDbEntity
  8
0
100
AcDbLine
 62
7
  6
CONTINUOUS
 10
127.9519262782
 20
178.4408037935
 11
127.6974918602
 21
178.5115584516
  0
LINE
  5
353
100
AcDbEntity
  8
0
100
AcDbLine
 62
7
  6
CONTINUOUS
 10
128.9601197236
 20
179.9165244233
 11
128.7056853056
 21
179.9872790814
  0
LINE
  5
354
100
AcDbEntity
  8
0
100
AcDbLine
 62
7
  6
CONTINUOUS
 10
122.2905506979
 20
183.2234846432
 11
122.9215045888
 21
183.0082096388
  0
LINE
  5
355
100
AcDbEntity
  8
0
100
AcDbLine
 62
7
  6
CONTINUOUS
 10
123.3158494167
 20
182.873663223
 11
124.1834087601
 21
182.5776608618
  0
LINE
  5
356
100
AcDbEntity
  8
0
100
AcDbLine
 62
7
  6
CONTINUOUS
 10
124.2933361991
 20
182.8998494297
 11
123.4257768557
 21
183.1958517909
  0
LINE
  5
357
100
AcDbEntity
  8
0
100
AcDbLine
 62
7
  6
CONTINUOUS
 10
123.0314320278
 20
183.3303982067
 11
122.400478137
 21
183.5456732111
  0
LINE
  5
358
100
AcDbEntity
  8
0
100
AcDbLine
 62
7
  6
CONTINUOUS
 10
118.7533863427
 20
181.5983660602
 11
119.1513415385
 21
181.4484122869
  0
LINE
  5
359
100
AcDbEntity
  8
0
100
AcDbLine
 62
7
  6
CONTINUOUS
 10
120.446929029
 20
183.7403925406
 11
120.0489747737
 21
183.8903461557
  0
LINE
  5
35A
100
AcDbEntity
  8
0
100
AcDbLine
 62
7
  6
CONTINUOUS
 10
127.3406276566
 20
178.1369333583
 11
127.7326799361
 21
177.9721599477
  0
LINE
  5
35B
100
AcDbEntity
  8
0
100
AcDbLine
 62
7
  6
CONTINUOUS
 10
119.2186632367
 20
181.8685851169
 11
118.9029925117
 21
182.00535495
  0
LINE
  5
35C
100
AcDbEntity
  8
0
100
AcDbLine
 62
7
  6
CONTINUOUS
 10
119.981653085
 20
183.4701733845
 11
120.2973247517
 21
183.3334034005
  0
LINE
  5
35D
100
AcDbEntity
  8
0
100
AcDbLine
 62
7
  6
CONTINUOUS
 10
124.6553753469
 20
181.3483989239
 11
125.7048108218
 21
180.838698216
  0
LINE
  5
35E
100
AcDbEntity
  8
0
100
AcDbLine
 62
7
  6
CONTINUOUS
 10
125.8907200259
 20
181.2214713038
 11
124.8412845509
 21
181.7311720117
  0
LINE
  5
35F
100
AcDbEntity
  8
0
100
AcDbLine
 62
7
  6
CONTINUOUS
 10
128.0704541412
 20
181.8642646845
 11
129.3778143364
 21
180.971092933
  0
LINE
  5
360
100
AcDbEntity
  8
0
100
AcDbLine
 62
7
  6
CONTINUOUS
 10
129.5970606491
 20
181.4397367358
 11
127.9456589603
 21
182.567953232
  0
LINE
  5
361
100
AcDbEntity
  8
0
100
AcDbLine
 62
7
  6
CONTINUOUS
 10
135.7000244951
 20
69.0085475577
 11
136.2000244951
 21
69.5085475577
  0
LINE
  5
362
100
AcDbEntity
  8
0
100
AcDbLine
 62
7
  6
CONTINUOUS
 10
107.8621354765
 20
183.8774595893
 11
107.4478424481
 21
183.7814629228
  0
LINE
  5
363
100
AcDbEntity
  8
0
100
AcDbLine
 62
7
  6
CONTINUOUS
 10
107.7006919542
 20
183.4292002855
 11
107.9634337519
 21
183.4558431543
  0
LINE
  5
364
100
AcDbEntity
  8
0
100
AcDbLine
 62
7
  6
CONTINUOUS
 10
119.1453506195
 20
183.5179771028
 11
119.48795002
 21
183.5492763782
  0
LINE
  5
365
100
AcDbEntity
  8
0
100
AcDbLine
 62
7
  6
CONTINUOUS
 10
115.3839171082
 20
185.6239546962
 11
114.8851135132
 21
185.5893863069
  0
LINE
  5
366
100
AcDbEntity
  8
0
100
AcDbLine
 62
7
  6
CONTINUOUS
 10
119.5552717088
 20
183.9694491494
 11
119.1303878363
 21
183.9513338069
  0
LINE
  5
367
100
AcDbEntity
  8
0
100
AcDbLine
 62
7
  6
CONTINUOUS
 10
118.1998350065
 20
183.4108956456
 11
118.7758216018
 21
183.3186088699
  0
LINE
  5
368
100
AcDbEntity
  8
0
100
AcDbLine
 62
7
  6
CONTINUOUS
 10
119.48795002
 20
183.5492763782
 11
119.981653085
 21
183.4701733845
  0
LINE
  5
369
100
AcDbEntity
  8
0
100
AcDbLine
 62
7
  6
CONTINUOUS
 10
120.0489747737
 20
183.8903461557
 11
119.5552717088
 21
183.9694491494
  0
LINE
  5
36A
100
AcDbEntity
  8
0
100
AcDbLine
 62
7
  6
CONTINUOUS
 10
118.8940056717
 20
185.1097023082
 11
121.2802374664
 21
184.7273711216
  0
LINE
  5
36B
100
AcDbEntity
  8
0
100
AcDbLine
 62
7
  6
CONTINUOUS
 10
121.3475591552
 20
185.1475438928
 11
118.5499078258
 21
185.5957942911
  0
LINE
  5
36C
100
AcDbEntity
  8
0
100
AcDbLine
 62
7
  6
CONTINUOUS
 10
123.6456318108
 20
183.8402291524
 11
123.2512869829
 21
183.9747755682
  0
LINE
  5
36D
100
AcDbEntity
  8
0
100
AcDbLine
 62
7
  6
CONTINUOUS
 10
178.1087113616
 20
69.0085475577
 11
216.6087113616
 21
69.0085475577
  0
LINE
  5
36E
100
AcDbEntity
  8
0
100
AcDbLine
 62
7
  6
CONTINUOUS
 10
217.1087113616
 20
69.5085475577
 11
177.6087113616
 21
69.5085475577
  0
LINE
  5
36F
100
AcDbEntity
  8
0
100
AcDbLine
 62
7
  6
CONTINUOUS
 10
178.1087113616
 20
69.0085475577
 11
177.6087113616
 21
69.5085475577
  0
LINE
  5
370
100
AcDbEntity
  8
RUNDUNGEN
100
AcDbLine
 62
7
  6
CONTINUOUS
 10
208.2703354286
 20
93.7085475577
 11
186.4470874705
 21
93.7085475577
  0
LINE
  5
371
100
AcDbEntity
  8
0
100
AcDbLine
 62
7
  6
CONTINUOUS
 10
187.3587113616
 20
101.5285475577
 11
184.3587113616
 21
102.5285474981
  0
LINE
  5
372
100
AcDbEntity
  8
0
100
AcDbLine
 62
7
  6
CONTINUOUS
 10
184.3587113616
 20
102.1535474981
 11
186.9757326391
 21
101.2785475279
  0
LINE
  5
373
100
AcDbEntity
  8
0
100
AcDbLine
 62
7
  6
CONTINUOUS
 10
184.3587113616
 20
103.0285475577
 11
187.3587113616
 21
103.0285475577
  0
LINE
  5
374
100
AcDbEntity
  8
0
100
AcDbLine
 62
7
  6
CONTINUOUS
 10
187.3587113616
 20
103.4035475577
 11
184.3587113616
 21
103.4035475577
  0
LINE
  5
375
100
AcDbEntity
  8
0
100
AcDbLine
 62
7
  6
CONTINUOUS
 10
184.3587113616
 20
103.9035474385
 11
187.3587113616
 21
103.9035474385
  0
LINE
  5
376
100
AcDbEntity
  8
0
100
AcDbLine
 62
7
  6
CONTINUOUS
 10
187.3587113616
 20
104.2785474385
 11
186.0182858106
 21
104.2785474385
  0
LINE
  5
377
100
AcDbEntity
  8
0
100
AcDbLine
 62
7
  6
CONTINUOUS
 10
185.6353071329
 20
104.2785474385
 11
184.6778602597
 21
104.2785474385
  0
LINE
  5
378
100
AcDbEntity
  8
0
100
AcDbLine
 62
7
  6
CONTINUOUS
 10
185.2523284551
 20
105.8410475577
 11
185.443817794
 21
105.7785474385
  0
LINE
  5
379
100
AcDbEntity
  8
0
100
AcDbLine
 62
7
  6
CONTINUOUS
 10
185.5076475736
 20
106.1535477961
 11
185.3161582347
 21
106.2160475577
  0
LINE
  5
37A
100
AcDbEntity
  8
0
100
AcDbLine
 62
7
  6
CONTINUOUS
 10
185.7629666921
 20
105.9660474385
 11
185.5076475736
 21
106.1535477961
  0
LINE
  5
37B
100
AcDbEntity
  8
0
100
AcDbLine
 62
7
  6
CONTINUOUS
 10
185.443817794
 20
105.7785474385
 11
185.5714773532
 21
105.6535475577
  0
LINE
  5
37C
100
AcDbEntity
  8
0
100
AcDbLine
 62
7
  6
CONTINUOUS
 10
212.3292207525
 20
105.5378585249
 11
211.7248865243
 21
105.5378585249
  0
LINE
  5
37D
100
AcDbEntity
  8
0
100
AcDbLine
 62
7
  6
CONTINUOUS
 10
208.9536052322
 20
105.5378585249
 11
208.349271004
 21
105.5378585249
  0
LINE
  5
37E
100
AcDbEntity
  8
0
100
AcDbLine
 62
7
  6
CONTINUOUS
 10
185.0608389374
 20
105.8410475577
 11
185.2523284551
 21
105.8410475577
  0
LINE
  5
37F
100
AcDbEntity
  8
0
100
AcDbLine
 62
7
  6
CONTINUOUS
 10
185.3161582347
 20
106.2160475577
 11
185.0608389374
 21
106.2160475577
  0
LINE
  5
380
100
AcDbEntity
  8
0
100
AcDbLine
 62
7
  6
CONTINUOUS
 10
185.1884986755
 20
109.7785475577
 11
185.6353071329
 21
109.7160477961
  0
LINE
  5
381
100
AcDbEntity
  8
0
100
AcDbLine
 62
7
  6
CONTINUOUS
 10
185.6353071329
 20
110.0285473193
 11
185.2523284551
 21
110.0910477961
  0
LINE
  5
382
100
AcDbEntity
  8
0
100
AcDbLine
 62
7
  6
CONTINUOUS
 10
185.2523284551
 20
110.0910477961
 11
185.0608389374
 21
110.1535475577
  0
LINE
  5
383
100
AcDbEntity
  8
0
100
AcDbLine
 62
7
  6
CONTINUOUS
 10
186.2736050185
 20
110.0910477961
 11
186.0821155902
 21
110.1535475577
  0
LINE
  5
384
100
AcDbEntity
  8
0
100
AcDbLine
 62
7
  6
CONTINUOUS
 10
184.8693495986
 20
109.9035477961
 11
185.1884986755
 21
109.7785475577
  0
LINE
  5
385
100
AcDbEntity
  8
0
100
AcDbLine
 62
7
  6
CONTINUOUS
 10
185.0608389374
 20
110.1535475577
 11
184.8693495986
 21
110.2785477961
  0
LINE
  5
386
100
AcDbEntity
  8
0
100
AcDbLine
 62
7
  6
CONTINUOUS
 10
184.6140304801
 20
110.0910477961
 11
184.8693495986
 21
109.9035477961
  0
LINE
  5
387
100
AcDbEntity
  8
0
100
AcDbLine
 62
7
  6
CONTINUOUS
 10
186.0821155902
 20
110.1535475577
 11
185.954456031
 21
110.2785477961
  0
LINE
  5
388
100
AcDbEntity
  8
0
100
AcDbLine
 62
7
  6
CONTINUOUS
 10
185.954456031
 20
105.7160476769
 11
185.7629666921
 21
105.9660474385
  0
LINE
  5
389
100
AcDbEntity
  8
0
100
AcDbLine
 62
7
  6
CONTINUOUS
 10
184.8693495986
 20
110.2785477961
 11
184.7416900393
 21
110.4660477961
  0
LINE
  5
38A
100
AcDbEntity
  8
0
100
AcDbLine
 62
7
  6
CONTINUOUS
 10
184.4225411412
 20
110.4035473193
 11
184.6140304801
 21
110.0910477961
  0
LINE
  5
38B
100
AcDbEntity
  8
0
100
AcDbLine
 62
7
  6
CONTINUOUS
 10
177.6087113616
 20
101.9405983653
 11
177.6087113616
 21
69.5085475577
  0
LINE
  5
38C
100
AcDbEntity
  8
0
100
AcDbLine
 62
7
  6
CONTINUOUS
 10
186.0821155902
 20
109.7160477961
 11
186.528924137
 21
109.7785475577
  0
LINE
  5
38D
100
AcDbEntity
  8
0
100
AcDbLine
 62
7
  6
CONTINUOUS
 10
210.6392458782
 20
108.5378585249
 11
210.0349116501
 21
108.5378585249
  0
LINE
  5
38E
100
AcDbEntity
  8
0
100
AcDbLine
 62
7
  6
CONTINUOUS
 10
212.3292207525
 20
108.9378585249
 11
211.7248865243
 21
108.9378585249
  0
LINE
  5
38F
100
AcDbEntity
  8
0
100
AcDbLine
 62
7
  6
CONTINUOUS
 10
208.9536052322
 20
108.9378585249
 11
208.349271004
 21
108.9378585249
  0
LINE
  5
390
100
AcDbEntity
  8
0
100
AcDbLine
 62
7
  6
CONTINUOUS
 10
185.6353071329
 20
109.7160477961
 11
186.0821155902
 21
109.7160477961
  0
LINE
  5
391
100
AcDbEntity
  8
0
100
AcDbLine
 62
7
  6
CONTINUOUS
 10
185.7629666921
 20
110.0285473193
 11
185.6353071329
 21
110.0285473193
  0
LINE
  5
392
100
AcDbEntity
  8
0
100
AcDbLine
 62
7
  6
CONTINUOUS
 10
186.4650943574
 20
110.0910477961
 11
186.2736050185
 21
110.0910477961
  0
LINE
  5
393
100
AcDbEntity
  8
0
100
AcDbLine
 62
7
  6
CONTINUOUS
 10
186.2736050185
 20
111.6535475577
 11
186.4650943574
 21
111.6535475577
  0
LINE
  5
394
100
AcDbEntity
  8
0
100
AcDbLine
 62
7
  6
CONTINUOUS
 10
186.528924137
 20
111.9660477961
 11
186.2097751495
 21
111.9660477961
  0
LINE
  5
395
100
AcDbEntity
  8
0
100
AcDbLine
 62
7
  6
CONTINUOUS
 10
186.4650943574
 20
111.6535475577
 11
186.6565836963
 21
111.5910477961
  0
LINE
  5
396
100
AcDbEntity
  8
0
100
AcDbLine
 62
7
  6
CONTINUOUS
 10
186.8480730799
 20
111.8410475577
 11
186.528924137
 21
111.9660477961
  0
LINE
  5
397
100
AcDbEntity
  8
0
100
AcDbLine
 62
7
  6
CONTINUOUS
 10
186.6565836963
 20
111.5910477961
 11
186.8480730799
 21
111.4660475577
  0
LINE
  5
398
100
AcDbEntity
  8
0
100
AcDbLine
 62
7
  6
CONTINUOUS
 10
187.1033922207
 20
111.6535475577
 11
186.8480730799
 21
111.8410475577
  0
LINE
  5
399
100
AcDbEntity
  8
0
100
AcDbLine
 62
7
  6
CONTINUOUS
 10
185.5076475736
 20
110.4035473193
 11
185.7629666921
 21
110.0285473193
  0
LINE
  5
39A
100
AcDbEntity
  8
0
100
AcDbLine
 62
7
  6
CONTINUOUS
 10
185.954456031
 20
110.2785477961
 11
185.8267964717
 21
110.4660477961
  0
LINE
  5
39B
100
AcDbEntity
  8
0
100
AcDbLine
 62
7
  6
CONTINUOUS
 10
186.8480730799
 20
111.4660475577
 11
186.9757326391
 21
111.2785475577
  0
LINE
  5
39C
100
AcDbEntity
  8
0
100
AcDbLine
 62
7
  6
CONTINUOUS
 10
187.2948815763
 20
111.3410473193
 11
187.1033922207
 21
111.6535475577
  0
LINE
  5
39D
100
AcDbEntity
  8
0
100
AcDbLine
 62
7
  6
CONTINUOUS
 10
185.5714773532
 20
105.6535475577
 11
185.6353071329
 21
105.4660475577
  0
LINE
  5
39E
100
AcDbEntity
  8
0
100
AcDbLine
 62
7
  6
CONTINUOUS
 10
184.7416900393
 20
110.4660477961
 11
184.6778602597
 21
110.6535477961
  0
LINE
  5
39F
100
AcDbEntity
  8
0
100
AcDbLine
 62
7
  6
CONTINUOUS
 10
185.8267964717
 20
110.4660477961
 11
185.7629666921
 21
110.6535477961
  0
LINE
  5
3A0
100
AcDbEntity
  8
0
100
AcDbLine
 62
7
  6
CONTINUOUS
 10
184.3587113616
 20
110.7160475577
 11
184.4225411412
 21
110.4035473193
  0
LINE
  5
3A1
100
AcDbEntity
  8
RUNDUNGEN
100
AcDbLine
 62
7
  6
CONTINUOUS
 10
182.3587113616
 20
122.7327522684
 11
182.3587113616
 21
111.3736110672
  0
LINE
  5
3A2
100
AcDbEntity
  8
0
100
AcDbLine
 62
7
  6
CONTINUOUS
 10
184.3587113616
 20
110.9660473193
 11
184.3587113616
 21
110.7160475577
  0
LINE
  5
3A3
100
AcDbEntity
  8
0
100
AcDbLine
 62
7
  6
CONTINUOUS
 10
184.3587113616
 20
105.4035474385
 11
184.3587113616
 21
103.9035474385
  0
LINE
  5
3A4
100
AcDbEntity
  8
0
100
AcDbLine
 62
7
  6
CONTINUOUS
 10
184.3587113616
 20
103.4035475577
 11
184.3587113616
 21
103.0285475577
  0
LINE
  5
3A5
100
AcDbEntity
  8
0
100
AcDbLine
 62
7
  6
CONTINUOUS
 10
184.3587113616
 20
102.5285474981
 11
184.3587113616
 21
102.1535474981
  0
LINE
  5
3A6
100
AcDbEntity
  8
0
100
AcDbLine
 62
7
  6
CONTINUOUS
 10
184.3587113616
 20
100.4035475577
 11
184.3587113616
 21
100.0285475577
  0
LINE
  5
3A7
100
AcDbEntity
  8
0
100
AcDbLine
 62
7
  6
CONTINUOUS
 10
184.6778602597
 20
104.2785474385
 11
184.6778602597
 21
105.4660475577
  0
LINE
  5
3A8
100
AcDbEntity
  8
0
100
AcDbLine
 62
7
  6
CONTINUOUS
 10
184.6778602597
 20
110.6535477961
 11
184.6778602597
 21
111.0285477961
  0
LINE
  5
3A9
100
AcDbEntity
  8
0
100
AcDbLine
 62
7
  6
CONTINUOUS
 10
185.0608389374
 20
111.5285473193
 11
185.0608389374
 21
111.8410475577
  0
LINE
  5
3AA
100
AcDbEntity
  8
0
100
AcDbLine
 62
7
  6
CONTINUOUS
 10
186.9757326391
 20
111.2785475577
 11
187.0395624187
 21
111.0910475577
  0
LINE
  5
3AB
100
AcDbEntity
  8
0
100
AcDbLine
 62
7
  6
CONTINUOUS
 10
186.0182858106
 20
105.4035474385
 11
185.954456031
 21
105.7160476769
  0
LINE
  5
3AC
100
AcDbEntity
  8
0
100
AcDbLine
 62
7
  6
CONTINUOUS
 10
185.443817794
 20
110.7160475577
 11
185.5076475736
 21
110.4035473193
  0
LINE
  5
3AD
100
AcDbEntity
  8
0
100
AcDbLine
 62
7
  6
CONTINUOUS
 10
187.3587113616
 20
111.0285477961
 11
187.2948815763
 21
111.3410473193
  0
LINE
  5
3AE
100
AcDbEntity
  8
0
100
AcDbLine
 62
7
  6
CONTINUOUS
 10
185.443817794
 20
111.0285477961
 11
185.443817794
 21
110.7160475577
  0
LINE
  5
3AF
100
AcDbEntity
  8
0
100
AcDbLine
 62
7
  6
CONTINUOUS
 10
185.6353071329
 20
105.4660475577
 11
185.6353071329
 21
104.2785474385
  0
LINE
  5
3B0
100
AcDbEntity
  8
0
100
AcDbLine
 62
7
  6
CONTINUOUS
 10
185.7629666921
 20
110.6535477961
 11
185.7629666921
 21
111.0910475577
  0
LINE
  5
3B1
100
AcDbEntity
  8
0
100
AcDbLine
 62
7
  6
CONTINUOUS
 10
186.0182858106
 20
104.2785474385
 11
186.0182858106
 21
105.4035474385
  0
LINE
  5
3B2
100
AcDbEntity
  8
0
100
AcDbLine
 62
7
  6
CONTINUOUS
 10
187.0395624187
 20
111.0910475577
 11
187.0395624187
 21
110.6535477961
  0
LINE
  5
3B3
100
AcDbEntity
  8
0
100
AcDbLine
 62
7
  6
CONTINUOUS
 10
187.3587113616
 20
101.0285475875
 11
187.3587113616
 21
101.5285475577
  0
LINE
  5
3B4
100
AcDbEntity
  8
0
100
AcDbLine
 62
7
  6
CONTINUOUS
 10
187.3587113616
 20
103.0285475577
 11
187.3587113616
 21
103.4035475577
  0
LINE
  5
3B5
100
AcDbEntity
  8
0
100
AcDbLine
 62
7
  6
CONTINUOUS
 10
187.3587113616
 20
103.9035474385
 11
187.3587113616
 21
104.2785474385
  0
LINE
  5
3B6
100
AcDbEntity
  8
0
100
AcDbLine
 62
7
  6
CONTINUOUS
 10
187.3587113616
 20
110.7160475577
 11
187.3587113616
 21
111.0285477961
  0
LINE
  5
3B7
100
AcDbEntity
  8
0
100
AcDbLine
 62
7
  6
CONTINUOUS
 10
184.4225411412
 20
111.2785475577
 11
184.3587113616
 21
110.9660473193
  0
LINE
  5
3B8
100
AcDbEntity
  8
0
100
AcDbLine
 62
7
  6
CONTINUOUS
 10
185.5076475736
 20
111.3410473193
 11
185.443817794
 21
111.0285477961
  0
LINE
  5
3B9
100
AcDbEntity
  8
0
100
AcDbLine
 62
7
  6
CONTINUOUS
 10
184.4225411412
 20
105.7160476769
 11
184.3587113616
 21
105.4035474385
  0
LINE
  5
3BA
100
AcDbEntity
  8
RUNDUNGEN
100
AcDbLine
 62
7
  6
CONTINUOUS
 10
183.6900362271
 20
125.7085475579
 11
182.6935804898
 21
123.9826355934
  0
LINE
  5
3BB
100
AcDbEntity
  8
RUNDUNGEN
100
AcDbLine
 62
7
  6
CONTINUOUS
 10
203.3037395181
 20
108.561737285
 11
202.8587113616
 21
109.0559911251
  0
LINE
  5
3BC
100
AcDbEntity
  8
KONSTRUKTIONSELEMENTE
100
AcDbLine
 62
7
  6
CONTINUOUS
 10
191.8587113616
 20
183.4615355075
 11
191.8587113616
 21
165.8290689507
  0
LINE
  5
3BD
100
AcDbEntity
  8
KONSTRUKTIONSELEMENTE
100
AcDbLine
 62
7
  6
CONTINUOUS
 10
191.8587113616
 20
125.1881417838
 11
191.8587113616
 21
107.5085475577
  0
LINE
  5
3BE
100
AcDbEntity
  8
0
100
AcDbLine
 62
7
  6
CONTINUOUS
 10
187.2948815763
 20
110.4035473193
 11
187.3587113616
 21
110.7160475577
  0
LINE
  5
3BF
100
AcDbEntity
  8
KONSTRUKTIONSELEMENTE
100
AcDbLine
 62
7
  6
CONTINUOUS
 10
191.8586351414
 20
125.1781360813
 11
194.3587113616
 21
134.5085475577
  0
LINE
  5
3C0
100
AcDbEntity
  8
KONSTRUKTIONSELEMENTE
100
AcDbLine
 62
7
  6
CONTINUOUS
 10
202.8587863824
 20
165.838954558
 11
200.3587113616
 21
156.5085475577
  0
LINE
  5
3C1
100
AcDbEntity
  8
0
100
AcDbLine
 62
7
  6
CONTINUOUS
 10
184.6778602597
 20
111.0285477961
 11
184.7416900393
 21
111.2160477961
  0
LINE
  5
3C2
100
AcDbEntity
  8
0
100
AcDbLine
 62
7
  6
CONTINUOUS
 10
185.7629666921
 20
111.0910475577
 11
185.8267964717
 21
111.2785475577
  0
LINE
  5
3C3
100
AcDbEntity
  8
0
100
AcDbLine
 62
7
  6
CONTINUOUS
 10
184.6778602597
 20
105.4660475577
 11
184.7416900393
 21
105.6535475577
  0
LINE
  5
3C4
100
AcDbEntity
  8
0
100
AcDbLine
 62
7
  6
CONTINUOUS
 10
187.0395624187
 20
110.6535477961
 11
186.9757326391
 21
110.4660477961
  0
LINE
  5
3C5
100
AcDbEntity
  8
RUNDUNGEN
100
AcDbLine
 62
7
  6
CONTINUOUS
 10
181.8898002748
 20
109.6236110672
 11
177.7426859578
 21
102.4405983653
  0
LINE
  5
3C6
100
AcDbEntity
  8
KONSTRUKTIONSELEMENTE
100
AcDbLine
 62
7
  6
CONTINUOUS
 10
194.3587113616
 20
156.5085475577
 11
194.3587113616
 21
134.5085475577
  0
LINE
  5
3C7
100
AcDbEntity
  8
0
100
AcDbLine
 62
7
  6
CONTINUOUS
 10
184.6140304801
 20
111.5910477961
 11
184.4225411412
 21
111.2785475577
  0
LINE
  5
3C8
100
AcDbEntity
  8
0
100
AcDbLine
 62
7
  6
CONTINUOUS
 10
185.6991369125
 20
111.6535475577
 11
185.5076475736
 21
111.3410473193
  0
LINE
  5
3C9
100
AcDbEntity
  8
0
100
AcDbLine
 62
7
  6
CONTINUOUS
 10
184.7416900393
 20
111.2160477961
 11
184.8693495986
 21
111.4035477961
  0
LINE
  5
3CA
100
AcDbEntity
  8
0
100
AcDbLine
 62
7
  6
CONTINUOUS
 10
185.8267964717
 20
111.2785475577
 11
185.954456031
 21
111.4660475577
  0
LINE
  5
3CB
100
AcDbEntity
  8
0
100
AcDbLine
 62
7
  6
CONTINUOUS
 10
184.5560503486
 20
126.2085475577
 11
188.3033262234
 21
126.2085475577
  0
LINE
  5
3CC
100
AcDbEntity
  8
0
100
AcDbLine
 62
7
  6
CONTINUOUS
 10
206.4140964997
 20
126.2085475577
 11
211.1413724108
 21
126.2085475577
  0
LINE
  5
3CD
100
AcDbEntity
  8
KONSTRUKTIONSELEMENTE
100
AcDbLine
 62
7
  6
CONTINUOUS
 10
200.3587113616
 20
156.5085475577
 11
200.3587113616
 21
134.5085475577
  0
LINE
  5
3CE
100
AcDbEntity
  8
0
100
AcDbLine
 62
7
  6
CONTINUOUS
 10
200.8587113616
 20
154.4585475577
 11
200.8587113616
 21
149.4585475577
  0
LINE
  5
3CF
100
AcDbEntity
  8
0
100
AcDbLine
 62
7
  6
CONTINUOUS
 10
200.8587113616
 20
148.4585475577
 11
200.8587113616
 21
143.4585475577
  0
LINE
  5
3D0
100
AcDbEntity
  8
0
100
AcDbLine
 62
7
  6
CONTINUOUS
 10
200.8587113616
 20
142.4585475577
 11
200.8587113616
 21
137.4585475577
  0
LINE
  5
3D1
100
AcDbEntity
  8
0
100
AcDbLine
 62
7
  6
CONTINUOUS
 10
187.1033922207
 20
110.0910477961
 11
187.2948815763
 21
110.4035473193
  0
LINE
  5
3D2
100
AcDbEntity
  8
0
100
AcDbLine
 62
7
  6
CONTINUOUS
 10
186.9757326391
 20
110.4660477961
 11
186.8480730799
 21
110.2785477961
  0
LINE
  5
3D3
100
AcDbEntity
  8
0
100
AcDbLine
 62
7
  6
CONTINUOUS
 10
184.6140304801
 20
105.9660474385
 11
184.4225411412
 21
105.7160476769
  0
LINE
  5
3D4
100
AcDbEntity
  8
0
100
AcDbLine
 62
7
  6
CONTINUOUS
 10
185.8906262514
 20
111.8410475577
 11
185.6991369125
 21
111.6535475577
  0
LINE
  5
3D5
100
AcDbEntity
  8
0
100
AcDbLine
 62
7
  6
CONTINUOUS
 10
185.954456031
 20
111.4660475577
 11
186.0821155902
 21
111.5910477961
  0
LINE
  5
3D6
100
AcDbEntity
  8
RUNDUNGEN
100
AcDbLine
 62
7
  6
CONTINUOUS
 10
216.9747367653
 20
104.1380081567
 11
213.8076224483
 21
109.6236110672
  0
LINE
  5
3D7
100
AcDbEntity
  8
KONSTRUKTIONSELEMENTE
100
AcDbLine
 62
7
  6
CONTINUOUS
 10
194.3587113616
 20
156.5085475577
 11
191.8586385499
 21
165.8389463134
  0
LINE
  5
3D8
100
AcDbEntity
  8
KONSTRUKTIONSELEMENTE
100
AcDbLine
 62
7
  6
CONTINUOUS
 10
200.3587113616
 20
134.5085475577
 11
202.8587840515
 21
125.1781492562
  0
LINE
  5
3D9
100
AcDbEntity
  8
KONSTRUKTIONSELEMENTE
100
AcDbLine
 62
7
  6
CONTINUOUS
 10
202.8587113616
 20
178.612349968
 11
202.8587113616
 21
165.8298686449
  0
LINE
  5
3DA
100
AcDbEntity
  8
KONSTRUKTIONSELEMENTE
100
AcDbLine
 62
7
  6
CONTINUOUS
 10
202.8587113616
 20
125.1880164355
 11
202.8587113616
 21
107.5085475577
  0
LINE
  5
3DB
100
AcDbEntity
  8
0
100
AcDbLine
 62
7
  6
CONTINUOUS
 10
203.3587113616
 20
185.6239546962
 11
203.3587113616
 21
177.1528388766
  0
LINE
  5
3DC
100
AcDbEntity
  8
0
100
AcDbLine
 62
7
  6
CONTINUOUS
 10
184.7416900393
 20
105.6535475577
 11
184.8693495986
 21
105.7785474385
  0
LINE
  5
3DD
100
AcDbEntity
  8
0
100
AcDbLine
 62
7
  6
CONTINUOUS
 10
184.8693495986
 20
111.7785477961
 11
184.6140304801
 21
111.5910477961
  0
LINE
  5
3DE
100
AcDbEntity
  8
0
100
AcDbLine
 62
7
  6
CONTINUOUS
 10
184.8693495986
 20
111.4035477961
 11
185.0608389374
 21
111.5285473193
  0
LINE
  5
3DF
100
AcDbEntity
  8
0
100
AcDbLine
 62
7
  6
CONTINUOUS
 10
200.3587113616
 20
137.4585475577
 11
200.8587113616
 21
137.4585475577
  0
LINE
  5
3E0
100
AcDbEntity
  8
0
100
AcDbLine
 62
7
  6
CONTINUOUS
 10
210.0349116501
 20
108.5378585249
 11
210.0349116501
 21
107.3713371465
  0
LINE
  5
3E1
100
AcDbEntity
  8
0
100
AcDbLine
 62
7
  6
CONTINUOUS
 10
208.9403434272
 20
105.2951099118
 11
208.9536052322
 21
105.5378585249
  0
LINE
  5
3E2
100
AcDbEntity
  8
RUNDUNGEN
100
AcDbLine
 62
7
  6
CONTINUOUS
 10
191.8587113616
 20
109.0559911251
 11
191.4136575433
 21
108.5617087847
  0
LINE
  5
3E3
100
AcDbEntity
  8
0
100
AcDbLine
 62
7
  6
CONTINUOUS
 10
186.8480730799
 20
109.9035477961
 11
187.1033922207
 21
110.0910477961
  0
LINE
  5
3E4
100
AcDbEntity
  8
0
100
AcDbLine
 62
7
  6
CONTINUOUS
 10
184.8693495986
 20
106.1535477961
 11
184.6140304801
 21
105.9660474385
  0
LINE
  5
3E5
100
AcDbEntity
  8
0
100
AcDbLine
 62
7
  6
CONTINUOUS
 10
186.8480730799
 20
110.2785477961
 11
186.6565836963
 21
110.1535475577
  0
LINE
  5
3E6
100
AcDbEntity
  8
0
100
AcDbLine
 62
7
  6
CONTINUOUS
 10
186.2097751495
 20
111.9660477961
 11
185.8906262514
 21
111.8410475577
  0
LINE
  5
3E7
100
AcDbEntity
  8
0
100
AcDbLine
 62
7
  6
CONTINUOUS
 10
185.0608389374
 20
111.8410475577
 11
184.8693495986
 21
111.7785477961
  0
LINE
  5
3E8
100
AcDbEntity
  8
0
100
AcDbLine
 62
7
  6
CONTINUOUS
 10
186.0821155902
 20
111.5910477961
 11
186.2736050185
 21
111.6535475577
  0
LINE
  5
3E9
100
AcDbEntity
  8
RUNDUNGEN
100
AcDbLine
 62
7
  6
CONTINUOUS
 10
213.003774871
 20
123.9827522684
 11
212.007386496
 21
125.7085475579
  0
LINE
  5
3EA
100
AcDbEntity
  8
0
100
AcDbLine
 62
7
  6
CONTINUOUS
 10
212.3359946563
 20
105.2309880258
 11
212.3292207525
 21
105.5378585249
  0
LINE
  5
3EB
100
AcDbEntity
  8
0
100
AcDbLine
 62
7
  6
CONTINUOUS
 10
212.3359946563
 20
108.6309880258
 11
212.3292207525
 21
108.9378585249
  0
LINE
  5
3EC
100
AcDbEntity
  8
0
100
AcDbLine
 62
7
  6
CONTINUOUS
 10
210.6392458782
 20
107.3703790917
 11
210.6392458782
 21
108.5378585249
  0
LINE
  5
3ED
100
AcDbEntity
  8
RUNDUNGEN
100
AcDbLine
 62
7
  6
CONTINUOUS
 10
213.3387113616
 20
111.3736110672
 11
213.3387113616
 21
122.7327522684
  0
LINE
  5
3EE
100
AcDbEntity
  8
0
100
AcDbLine
 62
7
  6
CONTINUOUS
 10
186.528924137
 20
109.7785475577
 11
186.8480730799
 21
109.9035477961
  0
LINE
  5
3EF
100
AcDbEntity
  8
0
100
AcDbLine
 62
7
  6
CONTINUOUS
 10
186.6565836963
 20
110.1535475577
 11
186.4650943574
 21
110.0910477961
  0
LINE
  5
3F0
100
AcDbEntity
  8
0
100
AcDbLine
 62
7
  6
CONTINUOUS
 10
200.3587113616
 20
142.4585475577
 11
200.8587113616
 21
142.4585475577
  0
LINE
  5
3F1
100
AcDbEntity
  8
0
100
AcDbLine
 62
7
  6
CONTINUOUS
 10
200.3587113616
 20
143.4585475577
 11
200.8587113616
 21
143.4585475577
  0
LINE
  5
3F2
100
AcDbEntity
  8
0
100
AcDbLine
 62
7
  6
CONTINUOUS
 10
200.3587113616
 20
143.5649305331
 11
200.8587113616
 21
143.5649305331
  0
LINE
  5
3F3
100
AcDbEntity
  8
0
100
AcDbLine
 62
7
  6
CONTINUOUS
 10
200.3587113616
 20
143.7776964931
 11
200.8587113616
 21
143.7776964931
  0
LINE
  5
3F4
100
AcDbEntity
  8
0
100
AcDbLine
 62
7
  6
CONTINUOUS
 10
200.3587113616
 20
144.2032283945
 11
200.8587113616
 21
144.2032283945
  0
LINE
  5
3F5
100
AcDbEntity
  8
0
100
AcDbLine
 62
7
  6
CONTINUOUS
 10
200.3587113616
 20
144.6287603332
 11
200.8587113616
 21
144.6287603332
  0
LINE
  5
3F6
100
AcDbEntity
  8
0
100
AcDbLine
 62
7
  6
CONTINUOUS
 10
200.3587113616
 20
145.1606751634
 11
200.8587113616
 21
145.1606751634
  0
LINE
  5
3F7
100
AcDbEntity
  8
0
100
AcDbLine
 62
7
  6
CONTINUOUS
 10
217.1087113616
 20
103.6380081567
 11
217.1087113616
 21
69.5085475577
  0
LINE
  5
3F8
100
AcDbEntity
  8
0
100
AcDbLine
 62
7
  6
CONTINUOUS
 10
185.0608389374
 20
106.2160475577
 11
184.8693495986
 21
106.1535477961
  0
LINE
  5
3F9
100
AcDbEntity
  8
0
100
AcDbLine
 62
7
  6
CONTINUOUS
 10
184.8693495986
 20
105.7785474385
 11
185.0608389374
 21
105.8410475577
  0
LINE
  5
3FA
100
AcDbEntity
  8
0
100
AcDbLine
 62
7
  6
CONTINUOUS
 10
200.3587113616
 20
148.4585475577
 11
200.8587113616
 21
148.4585475577
  0
LINE
  5
3FB
100
AcDbEntity
  8
0
100
AcDbLine
 62
7
  6
CONTINUOUS
 10
200.3587113616
 20
149.4585475577
 11
200.8587113616
 21
149.4585475577
  0
LINE
  5
3FC
100
AcDbEntity
  8
0
100
AcDbLine
 62
7
  6
CONTINUOUS
 10
186.9757326391
 20
101.2785475279
 11
184.3587113616
 21
100.4035475577
  0
LINE
  5
3FD
100
AcDbEntity
  8
0
100
AcDbLine
 62
7
  6
CONTINUOUS
 10
184.3587113616
 20
100.0285475577
 11
187.3587113616
 21
101.0285475875
  0
LINE
  5
3FE
100
AcDbEntity
  8
0
100
AcDbLine
 62
7
  6
CONTINUOUS
 10
200.3587113616
 20
154.4585475577
 11
200.8587113616
 21
154.4585475577
  0
LINE
  5
3FF
100
AcDbEntity
  8
0
100
AcDbLine
 62
7
  6
CONTINUOUS
 10
202.8587113616
 20
177.1528388766
 11
203.3587113616
 21
177.1528388766
  0
LINE
  5
400
100
AcDbEntity
  8
0
100
AcDbLine
 62
7
  6
CONTINUOUS
 10
202.4050073914
 20
180.3839779516
 11
203.3587113616
 21
180.3839779516
  0
LINE
  5
401
100
AcDbEntity
  8
0
100
AcDbLine
 62
7
  6
CONTINUOUS
 10
202.4254599372
 20
181.5629330268
 11
203.3587113616
 21
181.5629330268
  0
LINE
  5
402
100
AcDbEntity
  8
0
100
AcDbLine
 62
7
  6
CONTINUOUS
 10
202.4555805291
 20
181.7398010827
 11
203.3587113616
 21
181.7398010827
  0
LINE
  5
403
100
AcDbEntity
  8
0
100
AcDbLine
 62
7
  6
CONTINUOUS
 10
202.4050073879
 20
182.949216556
 11
203.3587113616
 21
182.949216556
  0
LINE
  5
404
100
AcDbEntity
  8
0
100
AcDbLine
 62
7
  6
CONTINUOUS
 10
202.4254599382
 20
183.7814629228
 11
203.3587113616
 21
183.7814629228
  0
LINE
  5
405
100
AcDbEntity
  8
0
100
AcDbLine
 62
7
  6
CONTINUOUS
 10
202.4555805347
 20
183.8774595893
 11
203.3587113616
 21
183.8774595893
  0
LINE
  5
406
100
AcDbEntity
  8
0
100
AcDbLine
 62
7
  6
CONTINUOUS
 10
217.1087113616
 20
69.5085475577
 11
216.6087113616
 21
69.0085475577
  0
LINE
  5
407
100
AcDbEntity
  8
0
100
AcDbLine
 62
7
  6
CONTINUOUS
 10
202.7903834614
 20
184.2812767378
 11
203.3587113616
 21
184.2812767378
  0
LINE
  5
408
100
AcDbEntity
  8
0
100
AcDbLine
 62
7
  6
CONTINUOUS
 10
202.6372720126
 20
184.9604988114
 11
203.3587113616
 21
184.9604988114
  0
LINE
  5
409
100
AcDbEntity
  8
0
100
AcDbLine
 62
7
  6
CONTINUOUS
 10
202.4274168176
 20
185.5893863069
 11
203.3587113616
 21
185.5893863069
  0
LINE
  5
40A
100
AcDbEntity
  8
0
100
AcDbLine
 62
7
  6
CONTINUOUS
 10
202.4250874479
 20
185.6239546962
 11
203.3587113616
 21
185.6239546962
  0
LINE
  5
40B
100
AcDbEntity
  8
RUNDUNGEN
100
AcDbLine
 62
7
  6
CONTINUOUS
 10
108.4500244951
 20
8.8190755411
 11
124.4500244951
 21
8.8190755411
  0
LINE
  5
40C
100
AcDbEntity
  8
0
100
AcDbLine
 62
7
  6
CONTINUOUS
 10
101.8618656114
 20
19.7527795113
 11
101.8618656114
 21
18.7990755411
  0
LINE
  5
40D
100
AcDbEntity
  8
0
100
AcDbLine
 62
7
  6
CONTINUOUS
 10
107.4500244951
 20
9.8185410244
 11
106.9500244951
 21
9.8185410244
  0
LINE
  5
40E
100
AcDbEntity
  8
0
100
AcDbLine
 62
7
  6
CONTINUOUS
 10
107.4500244951
 20
9.8285661502
 11
106.9500244951
 21
9.8285661502
  0
LINE
  5
40F
100
AcDbEntity
  8
0
100
AcDbLine
 62
7
  6
CONTINUOUS
 10
107.4500244951
 20
10.4329003783
 11
106.9500244951
 21
10.4329003783
  0
LINE
  5
410
100
AcDbEntity
  8
0
100
AcDbLine
 62
7
  6
CONTINUOUS
 10
103.4774351489
 20
19.7323269654
 11
103.4774351489
 21
18.7990755411
  0
LINE
  5
411
100
AcDbEntity
  8
0
100
AcDbLine
 62
7
  6
CONTINUOUS
 10
103.8641804952
 20
19.7022063735
 11
103.8641804952
 21
18.7990755411
  0
LINE
  5
412
100
AcDbEntity
  8
0
100
AcDbLine
 62
7
  6
CONTINUOUS
 10
104.2839469059
 20
19.6114950509
 11
104.2839469059
 21
18.7990755411
  0
LINE
  5
413
100
AcDbEntity
  8
0
100
AcDbLine
 62
7
  6
CONTINUOUS
 10
104.6865662784
 20
19.5082912047
 11
104.6865662784
 21
18.7990755411
  0
LINE
  5
414
100
AcDbEntity
  8
0
100
AcDbLine
 62
7
  6
CONTINUOUS
 10
104.9043864969
 20
19.4438286727
 11
104.9043864969
 21
18.7990755411
  0
LINE
  5
415
100
AcDbEntity
  8
0
100
AcDbLine
 62
7
  6
CONTINUOUS
 10
105.1050598178
 20
19.3755474867
 11
105.1050598178
 21
18.7990755411
  0
LINE
  5
416
100
AcDbEntity
  8
0
100
AcDbLine
 62
7
  6
CONTINUOUS
 10
105.1882493699
 20
19.3380271249
 11
105.1882493699
 21
18.7990755411
  0
LINE
  5
417
100
AcDbEntity
  8
0
100
AcDbLine
 62
7
  6
CONTINUOUS
 10
107.4500244951
 20
11.5185410244
 11
106.9500244951
 21
11.5185410244
  0
LINE
  5
418
100
AcDbEntity
  8
0
100
AcDbLine
 62
7
  6
CONTINUOUS
 10
107.4500244951
 20
12.1228752525
 11
106.9500244951
 21
12.1228752525
  0
LINE
  5
419
100
AcDbEntity
  8
0
100
AcDbLine
 62
7
  6
CONTINUOUS
 10
132.1364039371
 20
12.7990755411
 11
132.4500244951
 21
12.7990755411
  0
LINE
  5
41A
100
AcDbEntity
  8
0
100
AcDbLine
 62
7
  6
CONTINUOUS
 10
107.4500244951
 20
13.2041816704
 11
106.9500244951
 21
13.2041816704
  0
LINE
  5
41B
100
AcDbEntity
  8
0
100
AcDbLine
 62
7
  6
CONTINUOUS
 10
105.6292259451
 20
19.7527795148
 11
105.6292259451
 21
18.7990755411
  0
LINE
  5
41C
100
AcDbEntity
  8
0
100
AcDbLine
 62
7
  6
CONTINUOUS
 10
106.9500244951
 20
9.8285661502
 11
106.9500244951
 21
10.4329003783
  0
LINE
  5
41D
100
AcDbEntity
  8
0
100
AcDbLine
 62
7
  6
CONTINUOUS
 10
106.9500244951
 20
10.4557915033
 11
106.9500244951
 21
13.8085158986
  0
LINE
  5
41E
100
AcDbEntity
  8
0
100
AcDbLine
 62
7
  6
CONTINUOUS
 10
106.9500244951
 20
34.7990755411
 11
106.9500244951
 21
37.7990755411
  0
LINE
  5
41F
100
AcDbEntity
  8
0
100
AcDbLine
 62
7
  6
CONTINUOUS
 10
107.4478424481
 20
19.7323269644
 11
107.4478424481
 21
18.7990755411
  0
LINE
  5
420
100
AcDbEntity
  8
RUNDUNGEN
100
AcDbLine
 62
7
  6
CONTINUOUS
 10
107.4500244951
 20
8.4876531629
 11
107.4500244951
 21
16.4297743228
  0
LINE
  5
421
100
AcDbEntity
  8
RUNDUNGEN
100
AcDbLine
 62
7
  6
CONTINUOUS
 10
107.4500267439
 20
33.1674004541
 11
107.4500244951
 21
41.1104979193
  0
LINE
  5
422
100
AcDbEntity
  8
0
100
AcDbLine
 62
7
  6
CONTINUOUS
 10
107.4500244951
 20
13.8085158986
 11
106.9500244951
 21
13.8085158986
  0
LINE
  5
423
100
AcDbEntity
  8
0
100
AcDbLine
 62
7
  6
CONTINUOUS
 10
107.4500244951
 20
13.8185410244
 11
106.9500244951
 21
13.8185410244
  0
LINE
  5
424
100
AcDbEntity
  8
0
100
AcDbLine
 62
7
  6
CONTINUOUS
 10
134.0301979868
 20
15.7990755411
 11
134.3105955946
 21
15.7990755411
  0
LWPOLYLINE
  5
425
100
AcDbEntity
  8
RUNDUNGEN
100
AcDbPolyline
 62
7
  6
CONTINUOUS
 90
7
 70
0
 10
107.4500223487
 20
33.1674376409
 10
107.4518293991
 20
33.0921883787
 10
107.460689629
 20
32.9825070062
 10
107.4755303967
 20
32.8801247952
 10
107.495126537
 20
32.7839533614
 10
107.5184509149
 20
32.6933346317
 10
107.5276250982
 20
32.6618335554
  0
LINE
  5
426
100
AcDbEntity
  8
0
100
AcDbLine
 62
7
  6
CONTINUOUS
 10
107.8621354765
 20
19.7022063679
 11
107.8621354765
 21
18.7990755411
  0
LINE
  5
427
100
AcDbEntity
  8
0
100
AcDbLine
 62
7
  6
CONTINUOUS
 10
108.2714825759
 20
19.6114950486
 11
108.2714825759
 21
18.7990755411
  0
LINE
  5
428
100
AcDbEntity
  8
0
100
AcDbLine
 62
7
  6
CONTINUOUS
 10
108.6404685779
 20
19.5082912025
 11
108.6404685779
 21
18.7990755411
  0
LINE
  5
429
100
AcDbEntity
  8
0
100
AcDbLine
 62
7
  6
CONTINUOUS
 10
108.8224886145
 20
19.4438286747
 11
108.8224886145
 21
18.7990755411
  0
LINE
  5
42A
100
AcDbEntity
  8
0
100
AcDbLine
 62
7
  6
CONTINUOUS
 10
108.9641476528
 20
19.3755474881
 11
108.9641476528
 21
18.7990755411
  0
LINE
  5
42B
100
AcDbEntity
  8
0
100
AcDbLine
 62
7
  6
CONTINUOUS
 10
108.9946160251
 20
19.3380271239
 11
108.9946160251
 21
18.7990755411
  0
LWPOLYLINE
  5
42C
100
AcDbEntity
  8
RUNDUNGEN
100
AcDbPolyline
 62
7
  6
CONTINUOUS
 90
6
 70
0
 10
107.5161423301
 20
16.8965820553
 10
107.4928767534
 20
16.8043684253
 10
107.4737137458
 20
16.707493426
 10
107.4594954546
 20
16.604869239
 10
107.4513390299
 20
16.4947997502
 10
107.4500244184
 20
16.4293348225
  0
LINE
  5
42D
100
AcDbEntity
  8
0
100
AcDbLine
 62
7
  6
CONTINUOUS
 10
134.3363845775
 20
16.4240756603
 11
134.6120556865
 21
16.4240756603
  0
LINE
  5
42E
100
AcDbEntity
  8
0
100
AcDbLine
 62
7
  6
CONTINUOUS
 10
134.5072252748
 20
16.7990755411
 11
134.7803272749
 21
16.7990755411
  0
LINE
  5
42F
100
AcDbEntity
  8
RUNDUNGEN
100
AcDbLine
 62
7
  6
CONTINUOUS
 10
107.5275646525
 20
16.9361185213
 11
107.5161423301
 21
16.8965820553
  0
LINE
  5
430
100
AcDbEntity
  8
RUNDUNGEN
100
AcDbLine
 62
7
  6
CONTINUOUS
 10
107.5275576652
 20
16.9361205899
 11
107.5276453491
 21
16.9364130353
  0
LINE
  5
431
100
AcDbEntity
  8
RUNDUNGEN
100
AcDbLine
 62
7
  6
CONTINUOUS
 10
107.5869952023
 20
17.1043356498
 11
107.5276453491
 21
16.9364130353
  0
LINE
  5
432
100
AcDbEntity
  8
RUNDUNGEN
100
AcDbLine
 62
7
  6
CONTINUOUS
 10
108.3703401231
 20
18.5394641438
 11
108.3344056697
 21
18.4585122603
  0
LWPOLYLINE
  5
433
100
AcDbEntity
  8
RUNDUNGEN
100
AcDbPolyline
 62
7
  6
CONTINUOUS
 90
3
 70
0
 10
108.3344056697
 20
18.4585122603
 10
108.2990358628
 20
18.3807263128
 10
108.2622162844
 20
18.3016820264
  0
LINE
  5
434
100
AcDbEntity
  8
RUNDUNGEN
100
AcDbLine
 62
7
  6
CONTINUOUS
 10
108.2622162844
 20
18.3016820264
 11
108.2301754922
 21
18.2343870759
  0
LWPOLYLINE
  5
435
100
AcDbEntity
  8
RUNDUNGEN
100
AcDbPolyline
 62
7
  6
CONTINUOUS
 90
3
 70
0
 10
108.2301507725
 20
18.2343412235
 10
108.1843779934
 20
18.1410043789
 10
108.0957434509
 20
17.9703302841
  0
LINE
  5
436
100
AcDbEntity
  8
0
100
AcDbLine
 62
7
  6
CONTINUOUS
 10
124.8412845509
 20
19.2991020118
 11
124.8338239938
 21
19.299075527
  0
LINE
  5
437
100
AcDbEntity
  8
0
100
AcDbLine
 62
7
  6
CONTINUOUS
 10
130.0386878384
 20
18.7990755411
 11
124.6553753469
 21
18.7990755411
  0
LINE
  5
438
100
AcDbEntity
  8
0
100
AcDbLine
 62
7
  6
CONTINUOUS
 10
124.2933361991
 20
18.7990755411
 11
122.2905506979
 21
18.7990755411
  0
LINE
  5
439
100
AcDbEntity
  8
0
100
AcDbLine
 62
7
  6
CONTINUOUS
 10
121.3475591552
 20
18.7990755411
 11
118.0786559479
 21
18.7990755411
  0
LINE
  5
43A
100
AcDbEntity
  8
0
100
AcDbLine
 62
7
  6
CONTINUOUS
 10
117.2517499418
 20
18.7990755411
 11
116.3179016226
 21
18.7990755411
  0
LINE
  5
43B
100
AcDbEntity
  8
0
100
AcDbLine
 62
7
  6
CONTINUOUS
 10
115.6604642223
 20
18.7990755411
 11
114.4274977812
 21
18.7990755411
  0
LINE
  5
43C
100
AcDbEntity
  8
0
100
AcDbLine
 62
7
  6
CONTINUOUS
 10
108.9946160251
 20
18.7990755411
 11
105.6292259451
 21
18.7990755411
  0
LINE
  5
43D
100
AcDbEntity
  8
0
100
AcDbLine
 62
7
  6
CONTINUOUS
 10
105.1882493699
 20
18.7990755411
 11
101.8618656114
 21
18.7990755411
  0
LINE
  5
43E
100
AcDbEntity
  8
KONSTRUKTIONSELEMENTE
100
AcDbLine
 62
7
  6
CONTINUOUS
 10
136.9241276055
 20
19.2990755411
 11
130.0386878384
 21
19.2990755411
  0
LINE
  5
43F
100
AcDbEntity
  8
KONSTRUKTIONSELEMENTE
100
AcDbLine
 62
7
  6
CONTINUOUS
 10
126.708387739
 20
19.2990755411
 11
125.8844648738
 21
19.2990755411
  0
LINE
  5
440
100
AcDbEntity
  8
KONSTRUKTIONSELEMENTE
100
AcDbLine
 62
7
  6
CONTINUOUS
 10
124.8338214859
 20
19.2990755411
 11
124.2933361991
 21
19.2990755411
  0
LINE
  5
441
100
AcDbEntity
  8
KONSTRUKTIONSELEMENTE
100
AcDbLine
 62
7
  6
CONTINUOUS
 10
122.2905506979
 20
19.2990755411
 11
121.3475591552
 21
19.2990755411
  0
LINE
  5
442
100
AcDbEntity
  8
KONSTRUKTIONSELEMENTE
100
AcDbLine
 62
7
  6
CONTINUOUS
 10
118.203400305
 20
19.2990755411
 11
115.5319909417
 21
19.2990755411
  0
LINE
  5
443
100
AcDbEntity
  8
KONSTRUKTIONSELEMENTE
100
AcDbLine
 62
7
  6
CONTINUOUS
 10
114.4274977812
 20
19.2990755411
 11
108.9946160251
 21
19.2990755411
  0
LINE
  5
444
100
AcDbEntity
  8
KONSTRUKTIONSELEMENTE
100
AcDbLine
 62
7
  6
CONTINUOUS
 10
105.6292259451
 20
19.2990755411
 11
105.1882493699
 21
19.2990755411
  0
LINE
  5
445
100
AcDbEntity
  8
KONSTRUKTIONSELEMENTE
100
AcDbLine
 62
7
  6
CONTINUOUS
 10
101.8618656114
 20
19.2990755411
 11
95.9761535227
 21
19.2990755411
  0
LWPOLYLINE
  5
446
100
AcDbEntity
  8
RUNDUNGEN
100
AcDbPolyline
 62
7
  6
CONTINUOUS
 90
4
 70
0
 10
108.2301469972
 20
31.3638191154
 10
108.2657352064
 20
31.288995342
 10
108.3024747447
 20
31.2099444736
 10
108.3384224152
 20
31.1307052637
  0
LWPOLYLINE
  5
447
100
AcDbEntity
  8
RUNDUNGEN
100
AcDbPolyline
 62
7
  6
CONTINUOUS
 90
4
 70
0
 10
107.5905772899
 20
32.4851113444
 10
107.6696476548
 20
32.3185684881
 10
107.7652168873
 20
32.1603117703
 10
107.8344102023
 20
32.0606255949
  0
LINE
  5
448
100
AcDbEntity
  8
RUNDUNGEN
100
AcDbLine
 62
7
  6
CONTINUOUS
 10
108.3703406525
 20
31.0586857435
 11
108.3384224152
 21
31.1307052637
  0
LINE
  5
449
100
AcDbEntity
  8
RUNDUNGEN
100
AcDbLine
 62
7
  6
CONTINUOUS
 10
107.5276672386
 20
32.6616796602
 11
107.5905772899
 21
32.4851113444
  0
LINE
  5
44A
100
AcDbEntity
  8
RUNDUNGEN
100
AcDbLine
 62
7
  6
CONTINUOUS
 10
107.5276672386
 20
32.6616796602
 11
107.5276213865
 21
32.6618324335
  0
LINE
  5
44B
100
AcDbEntity
  8
0
100
AcDbLine
 62
7
  6
CONTINUOUS
 10
114.4274977812
 20
19.52051489
 11
114.4274977812
 21
18.7990755411
  0
LWPOLYLINE
  5
44C
100
AcDbEntity
  8
RUNDUNGEN
100
AcDbPolyline
 62
7
  6
CONTINUOUS
 90
5
 70
0
 10
108.0957434509
 20
17.9703302841
 10
108.0068234481
 20
17.811702405
 10
107.9182355678
 20
17.6654979608
 10
107.8306555565
 20
17.532021516
 10
107.7907768591
 20
17.4747688115
  0
LWPOLYLINE
  5
44D
100
AcDbEntity
  8
RUNDUNGEN
100
AcDbPolyline
 62
7
  6
CONTINUOUS
 90
4
 70
0
 10
107.7901108098
 20
17.4738087356
 10
107.7551564871
 20
17.4227544209
 10
107.6631646362
 20
17.2674175378
 10
107.5869952023
 20
17.1043356498
  0
LINE
  5
44E
100
AcDbEntity
  8
RUNDUNGEN
100
AcDbLine
 62
7
  6
CONTINUOUS
 10
107.7903114498
 20
17.4740915042
 11
107.7907681993
 21
17.4747347187
  0
LINE
  5
44F
100
AcDbEntity
  8
KONSTRUKTIONSELEMENTE
100
AcDbLine
 62
7
  6
CONTINUOUS
 10
144.0597967237
 20
21.7990755411
 11
143.3664912316
 21
21.7990755411
  0
LINE
  5
450
100
AcDbEntity
  8
KONSTRUKTIONSELEMENTE
100
AcDbLine
 62
7
  6
CONTINUOUS
 10
89.5335577586
 20
21.7990755411
 11
88.8402522664
 21
21.7990755411
  0
LINE
  5
451
100
AcDbEntity
  8
RUNDUNGEN
100
AcDbLine
 62
7
  6
CONTINUOUS
 10
107.7907662152
 20
32.1234012826
 11
107.7904699298
 21
32.123818508
  0
LWPOLYLINE
  5
452
100
AcDbEntity
  8
RUNDUNGEN
100
AcDbPolyline
 62
7
  6
CONTINUOUS
 90
4
 70
0
 10
107.8344102023
 20
32.0606255949
 10
107.922062252
 20
31.9265753637
 10
108.0106825052
 20
31.7798212761
 10
108.0996054373
 20
31.6206562801
  0
LWPOLYLINE
  5
453
100
AcDbEntity
  8
RUNDUNGEN
100
AcDbPolyline
 62
7
  6
CONTINUOUS
 90
3
 70
0
 10
108.0996054373
 20
31.6206562801
 10
108.1882172089
 20
31.4494601854
 10
108.2301469972
 20
31.3638191154
  0
LINE
  5
454
100
AcDbEntity
  8
0
100
AcDbLine
 62
7
  6
CONTINUOUS
 10
114.8851135132
 20
19.730370085
 11
114.8851135132
 21
18.7990755411
  0
LINE
  5
455
100
AcDbEntity
  8
0
100
AcDbLine
 62
7
  6
CONTINUOUS
 10
115.3839171082
 20
19.7326994547
 11
115.3839171082
 21
18.7990755411
  0
LINE
  5
456
100
AcDbEntity
  8
0
100
AcDbLine
 62
7
  6
CONTINUOUS
 10
115.6604642223
 20
19.2990755411
 11
115.6604642223
 21
18.7990755411
  0
LINE
  5
457
100
AcDbEntity
  8
0
100
AcDbLine
 62
7
  6
CONTINUOUS
 10
116.3179016226
 20
19.2990755411
 11
116.3179016226
 21
18.7990755411
  0
LINE
  5
458
100
AcDbEntity
  8
0
100
AcDbLine
 62
7
  6
CONTINUOUS
 10
116.835155387
 20
19.2990755411
 11
116.835155387
 21
18.7990755411
  0
LINE
  5
459
100
AcDbEntity
  8
0
100
AcDbLine
 62
7
  6
CONTINUOUS
 10
117.2517499418
 20
19.2990755411
 11
117.2517499418
 21
18.7990755411
  0
LINE
  5
45A
100
AcDbEntity
  8
0
100
AcDbLine
 62
7
  6
CONTINUOUS
 10
118.0786559479
 20
19.2990755411
 11
118.0786559479
 21
18.7990755411
  0
LINE
  5
45B
100
AcDbEntity
  8
0
100
AcDbLine
 62
7
  6
CONTINUOUS
 10
118.1998350065
 20
19.2991226049
 11
118.1998350065
 21
18.7990755411
  0
LINE
  5
45C
100
AcDbEntity
  8
0
100
AcDbLine
 62
7
  6
CONTINUOUS
 10
118.5499078258
 20
19.7515696229
 11
118.5499078258
 21
18.7990755411
  0
LINE
  5
45D
100
AcDbEntity
  8
0
100
AcDbLine
 62
7
  6
CONTINUOUS
 10
121.3475591552
 20
19.7470764026
 11
121.3475591552
 21
18.7990755411
  0
LINE
  5
45E
100
AcDbEntity
  8
RUNDUNGEN
100
AcDbLine
 62
7
  6
CONTINUOUS
 10
124.5297089371
 20
31.0586870731
 11
124.5656432608
 21
31.1396388388
  0
LWPOLYLINE
  5
45F
100
AcDbEntity
  8
RUNDUNGEN
100
AcDbPolyline
 62
7
  6
CONTINUOUS
 90
3
 70
0
 10
124.5656432608
 20
31.1396388388
 10
124.6010114146
 20
31.217421127
 10
124.6378312417
 20
31.2964659419
  0
LINE
  5
460
100
AcDbEntity
  8
RUNDUNGEN
100
AcDbLine
 62
7
  6
CONTINUOUS
 10
124.6378312417
 20
31.2964659419
 11
124.6698734899
 21
31.3637639468
  0
LWPOLYLINE
  5
461
100
AcDbEntity
  8
RUNDUNGEN
100
AcDbPolyline
 62
7
  6
CONTINUOUS
 90
3
 70
0
 10
124.6698974759
 20
31.363808637
 10
124.7156896353
 20
31.4571838161
 10
124.8043346927
 20
31.6278732034
  0
LWPOLYLINE
  5
462
100
AcDbEntity
  8
RUNDUNGEN
100
AcDbPolyline
 62
7
  6
CONTINUOUS
 90
5
 70
0
 10
124.8043346927
 20
31.6278732034
 10
124.893260626
 20
31.7865063004
 10
124.9818484706
 20
31.9327072685
 10
125.0694177018
 20
32.0661654465
 10
125.1092752151
 20
32.123387156
  0
LWPOLYLINE
  5
463
100
AcDbEntity
  8
RUNDUNGEN
100
AcDbPolyline
 62
7
  6
CONTINUOUS
 90
4
 70
0
 10
125.1099404219
 20
32.1243461966
 10
125.1448928832
 20
32.1753978191
 10
125.2368851562
 20
32.330735341
 10
125.3130547562
 20
32.4938180108
  0
LINE
  5
464
100
AcDbEntity
  8
RUNDUNGEN
100
AcDbLine
 62
7
  6
CONTINUOUS
 10
125.1097394764
 20
32.1240629972
 11
125.1092838329
 21
32.123421337
  0
LINE
  5
465
100
AcDbEntity
  8
KONSTRUKTIONSELEMENTE
100
AcDbLine
 62
7
  6
CONTINUOUS
 10
144.0597967237
 20
27.7990755411
 11
143.3664912316
 21
27.7990755411
  0
LINE
  5
466
100
AcDbEntity
  8
KONSTRUKTIONSELEMENTE
100
AcDbLine
 62
7
  6
CONTINUOUS
 10
89.5335577586
 20
27.7990755411
 11
88.8402522664
 21
27.7990755411
  0
LINE
  5
467
100
AcDbEntity
  8
RUNDUNGEN
100
AcDbLine
 62
7
  6
CONTINUOUS
 10
125.1092836657
 20
17.4747493275
 11
125.109557838
 21
17.4743632454
  0
LWPOLYLINE
  5
468
100
AcDbEntity
  8
RUNDUNGEN
100
AcDbPolyline
 62
7
  6
CONTINUOUS
 90
4
 70
0
 10
125.065643413
 20
17.5375184036
 10
124.9779939307
 20
17.6715643818
 10
124.8893737158
 20
17.8183184107
 10
124.8004495091
 20
17.9774851547
  0
LWPOLYLINE
  5
469
100
AcDbEntity
  8
RUNDUNGEN
100
AcDbPolyline
 62
7
  6
CONTINUOUS
 90
3
 70
0
 10
124.8004495091
 20
17.9774851547
 10
124.7118351673
 20
18.1486852932
 10
124.6699013352
 20
18.2343341872
  0
LWPOLYLINE
  5
46A
100
AcDbEntity
  8
RUNDUNGEN
100
AcDbPolyline
 62
7
  6
CONTINUOUS
 90
4
 70
0
 10
124.6699013352
 20
18.2343341872
 10
124.6343133549
 20
18.3091564633
 10
124.5975738067
 20
18.3882073058
 10
124.5616262146
 20
18.4674463165
  0
LWPOLYLINE
  5
46B
100
AcDbEntity
  8
RUNDUNGEN
100
AcDbPolyline
 62
7
  6
CONTINUOUS
 90
4
 70
0
 10
125.3094683802
 20
17.1130503982
 10
125.2304021171
 20
17.2795818029
 10
125.1348408596
 20
17.4378265653
 10
125.065643413
 20
17.5375184036
  0
LINE
  5
46C
100
AcDbEntity
  8
RUNDUNGEN
100
AcDbLine
 62
7
  6
CONTINUOUS
 10
124.5297083802
 20
18.5394652842
 11
124.5616262146
 21
18.4674463165
  0
LINE
  5
46D
100
AcDbEntity
  8
0
100
AcDbLine
 62
7
  6
CONTINUOUS
 10
122.2905506979
 20
19.3258221956
 11
122.2905506979
 21
18.7990755411
  0
LINE
  5
46E
100
AcDbEntity
  8
0
100
AcDbLine
 62
7
  6
CONTINUOUS
 10
122.400478137
 20
19.3702242452
 11
122.400478137
 21
18.7990755411
  0
LINE
  5
46F
100
AcDbEntity
  8
0
100
AcDbLine
 62
7
  6
CONTINUOUS
 10
123.0314320278
 20
19.366887196
 11
123.0314320278
 21
18.7990755411
  0
LINE
  5
470
100
AcDbEntity
  8
0
100
AcDbLine
 62
7
  6
CONTINUOUS
 10
123.2512869829
 20
19.5195938598
 11
123.2512869829
 21
18.7990755411
  0
LINE
  5
471
100
AcDbEntity
  8
0
100
AcDbLine
 62
7
  6
CONTINUOUS
 10
123.6456318108
 20
19.5189043504
 11
123.6456318108
 21
18.7990755411
  0
LWPOLYLINE
  5
472
100
AcDbEntity
  8
RUNDUNGEN
100
AcDbPolyline
 62
7
  6
CONTINUOUS
 90
6
 70
0
 10
125.383889072
 20
32.7015061048
 10
125.4071572116
 20
32.7937166945
 10
125.4263254235
 20
32.8906001732
 10
125.4405490497
 20
32.9932384907
 10
125.4487085039
 20
33.1033209897
 10
125.4500244274
 20
33.1688416333
  0
LINE
  5
473
100
AcDbEntity
  8
RUNDUNGEN
100
AcDbLine
 62
7
  6
CONTINUOUS
 10
125.3724832217
 20
32.6620284663
 11
125.383889072
 21
32.7015061048
  0
LINE
  5
474
100
AcDbEntity
  8
RUNDUNGEN
100
AcDbLine
 62
7
  6
CONTINUOUS
 10
125.3724900776
 20
32.6620264417
 11
125.37240441
 21
32.6617407277
  0
LINE
  5
475
100
AcDbEntity
  8
RUNDUNGEN
100
AcDbLine
 62
7
  6
CONTINUOUS
 10
125.3130547562
 20
32.4938180108
 11
125.37240441
 21
32.6617407277
  0
LINE
  5
476
100
AcDbEntity
  8
KONSTRUKTIONSELEMENTE
100
AcDbLine
 62
7
  6
CONTINUOUS
 10
136.9241273412
 20
30.2990755411
 11
95.9759515876
 21
30.2990755411
  0
LINE
  5
477
100
AcDbEntity
  8
0
100
AcDbLine
 62
7
  6
CONTINUOUS
 10
135.1850184903
 20
31.0490755411
 11
135.448379687
 21
31.0490755411
  0
LINE
  5
478
100
AcDbEntity
  8
0
100
AcDbLine
 62
7
  6
CONTINUOUS
 10
134.9647988238
 20
31.6740760179
 11
135.2312483222
 21
31.6740760179
  0
LINE
  5
479
100
AcDbEntity
  8
RUNDUNGEN
100
AcDbLine
 62
7
  6
CONTINUOUS
 10
125.3723818823
 20
16.9364696277
 11
125.3094683802
 21
17.1130503982
  0
LINE
  5
47A
100
AcDbEntity
  8
RUNDUNGEN
100
AcDbLine
 62
7
  6
CONTINUOUS
 10
125.3723818823
 20
16.9364696277
 11
125.372468203
 21
16.9361818587
  0
LWPOLYLINE
  5
47B
100
AcDbEntity
  8
RUNDUNGEN
100
AcDbPolyline
 62
7
  6
CONTINUOUS
 90
7
 70
0
 10
125.4500245521
 20
16.429088268
 10
125.4482816858
 20
16.5046534388
 10
125.439663926
 20
16.6129546532
 10
125.425209314
 20
16.7140677257
 10
125.4060016746
 20
16.8095115198
 10
125.3828782846
 20
16.9002652227
 10
125.3724656788
 20
16.9361811044
  0
LINE
  5
47C
100
AcDbEntity
  8
0
100
AcDbLine
 62
7
  6
CONTINUOUS
 10
124.2933361991
 20
19.3702242452
 11
124.2933361991
 21
18.7990755411
  0
LINE
  5
47D
100
AcDbEntity
  8
0
100
AcDbLine
 62
7
  6
CONTINUOUS
 10
124.6553753469
 20
19.2990755411
 11
124.6553753469
 21
18.7990755411
  0
LINE
  5
47E
100
AcDbEntity
  8
0
100
AcDbLine
 62
7
  6
CONTINUOUS
 10
124.8412845509
 20
19.2991020118
 11
124.8412845509
 21
18.7990755411
  0
LINE
  5
47F
100
AcDbEntity
  8
0
100
AcDbLine
 62
7
  6
CONTINUOUS
 10
125.4500244951
 20
38.7990755411
 11
125.4500244951
 21
33.8544606792
  0
LINE
  5
480
100
AcDbEntity
  8
RUNDUNGEN
100
AcDbLine
 62
7
  6
CONTINUOUS
 10
125.4500244951
 20
8.4876531629
 11
125.4500244951
 21
16.4297774436
  0
LINE
  5
481
100
AcDbEntity
  8
RUNDUNGEN
100
AcDbLine
 62
7
  6
CONTINUOUS
 10
125.4500244951
 20
33.1687014618
 11
125.4500244951
 21
41.1104979193
  0
LINE
  5
482
100
AcDbEntity
  8
0
100
AcDbLine
 62
7
  6
CONTINUOUS
 10
125.8907200259
 20
19.299094183
 11
125.8907200259
 21
18.7990755411
  0
LINE
  5
483
100
AcDbEntity
  8
0
100
AcDbLine
 62
7
  6
CONTINUOUS
 10
134.7713747455
 20
32.1740755411
 11
135.0405967025
 21
32.1740755411
  0
LINE
  5
484
100
AcDbEntity
  8
0
100
AcDbLine
 62
7
  6
CONTINUOUS
 10
134.5620890519
 20
32.6740750642
 11
134.8343760613
 21
32.6740750642
  0
LINE
  5
485
100
AcDbEntity
  8
0
100
AcDbLine
 62
7
  6
CONTINUOUS
 10
134.4513265313
 20
32.9240755411
 11
134.7252638916
 21
32.9240755411
  0
LINE
  5
486
100
AcDbEntity
  8
0
100
AcDbLine
 62
7
  6
CONTINUOUS
 10
134.3943831592
 20
33.0490750642
 11
134.669176722
 21
33.0490750642
  0
LINE
  5
487
100
AcDbEntity
  8
0
100
AcDbLine
 62
7
  6
CONTINUOUS
 10
127.9456589603
 20
19.7527795218
 11
127.9456589603
 21
18.7990755411
  0
LINE
  5
488
100
AcDbEntity
  8
0
100
AcDbLine
 62
7
  6
CONTINUOUS
 10
107.4500244951
 20
34.7990755411
 11
106.9500244951
 21
34.7990755411
  0
LINE
  5
489
100
AcDbEntity
  8
0
100
AcDbLine
 62
7
  6
CONTINUOUS
 10
107.4500244951
 20
34.8629053263
 11
106.9500244951
 21
34.8629053263
  0
LINE
  5
48A
100
AcDbEntity
  8
0
100
AcDbLine
 62
7
  6
CONTINUOUS
 10
107.4500244951
 20
35.0543946819
 11
106.9500244951
 21
35.0543946819
  0
LINE
  5
48B
100
AcDbEntity
  8
0
100
AcDbLine
 62
7
  6
CONTINUOUS
 10
107.4500244951
 20
35.3097138228
 11
106.9500244951
 21
35.3097138228
  0
LINE
  5
48C
100
AcDbEntity
  8
0
100
AcDbLine
 62
7
  6
CONTINUOUS
 10
107.4500244951
 20
35.6288627656
 11
106.9500244951
 21
35.6288627656
  0
LINE
  5
48D
100
AcDbEntity
  8
0
100
AcDbLine
 62
7
  6
CONTINUOUS
 10
132.7686293494
 20
35.9240760179
 11
133.0703242634
 21
35.9240760179
  0
LINE
  5
48E
100
AcDbEntity
  8
0
100
AcDbLine
 62
7
  6
CONTINUOUS
 10
107.4500244951
 20
35.9480117531
 11
106.9500244951
 21
35.9480117531
  0
LINE
  5
48F
100
AcDbEntity
  8
0
100
AcDbLine
 62
7
  6
CONTINUOUS
 10
132.5953608449
 20
36.1740750642
 11
132.90023379
 21
36.1740750642
  0
LINE
  5
490
100
AcDbEntity
  8
0
100
AcDbLine
 62
7
  6
CONTINUOUS
 10
107.4500244951
 20
36.2671606513
 11
106.9500244951
 21
36.2671606513
  0
LINE
  5
491
100
AcDbEntity
  8
0
100
AcDbLine
 62
7
  6
CONTINUOUS
 10
107.4500244951
 20
36.4586499901
 11
106.9500244951
 21
36.4586499901
  0
LINE
  5
492
100
AcDbEntity
  8
0
100
AcDbLine
 62
7
  6
CONTINUOUS
 10
129.5970606491
 20
19.7323269624
 11
129.5970606491
 21
18.7990755411
  0
LINE
  5
493
100
AcDbEntity
  8
0
100
AcDbLine
 62
7
  6
CONTINUOUS
 10
129.8930945106
 20
19.7022063866
 11
129.8930945106
 21
18.7990755411
  0
LINE
  5
494
100
AcDbEntity
  8
0
100
AcDbLine
 62
7
  6
CONTINUOUS
 10
130.0242994548
 20
19.611495044
 11
130.0242994548
 21
18.7990755411
  0
LINE
  5
495
100
AcDbEntity
  8
0
100
AcDbLine
 62
7
  6
CONTINUOUS
 10
130.0386878384
 20
19.508291198
 11
130.0386878384
 21
18.7990755411
  0
LINE
  5
496
100
AcDbEntity
  8
0
100
AcDbLine
 62
7
  6
CONTINUOUS
 10
107.4500244951
 20
36.650139329
 11
106.9500244951
 21
36.650139329
  0
LINE
  5
497
100
AcDbEntity
  8
0
100
AcDbLine
 62
7
  6
CONTINUOUS
 10
107.4500244951
 20
36.7139691086
 11
106.9500244951
 21
36.7139691086
  0
LINE
  5
498
100
AcDbEntity
  8
0
100
AcDbLine
 62
7
  6
CONTINUOUS
 10
107.4500244951
 20
36.9054584475
 11
106.9500244951
 21
36.9054584475
  0
LINE
  5
499
100
AcDbEntity
  8
0
100
AcDbLine
 62
7
  6
CONTINUOUS
 10
107.4500244951
 20
37.0969479652
 11
106.9500244951
 21
37.0969479652
  0
LINE
  5
49A
100
AcDbEntity
  8
0
100
AcDbLine
 62
7
  6
CONTINUOUS
 10
131.8422912222
 20
37.1740755411
 11
132.1617836264
 21
37.1740755411
  0
LINE
  5
49B
100
AcDbEntity
  8
0
100
AcDbLine
 62
7
  6
CONTINUOUS
 10
107.4500244951
 20
37.2884373041
 11
106.9500244951
 21
37.2884373041
  0
LINE
  5
49C
100
AcDbEntity
  8
0
100
AcDbLine
 62
7
  6
CONTINUOUS
 10
107.4500244951
 20
37.5437564226
 11
106.9500244951
 21
37.5437564226
  0
LINE
  5
49D
100
AcDbEntity
  8
0
100
AcDbLine
 62
7
  6
CONTINUOUS
 10
107.4500244951
 20
37.7352457614
 11
106.9500244951
 21
37.7352457614
  0
LINE
  5
49E
100
AcDbEntity
  8
0
100
AcDbLine
 62
7
  6
CONTINUOUS
 10
107.4500244951
 20
37.7990755411
 11
106.9500244951
 21
37.7990755411
  0
LINE
  5
49F
100
AcDbEntity
  8
0
100
AcDbLine
 62
7
  6
CONTINUOUS
 10
130.9817793963
 20
38.1740745874
 11
131.3197723245
 21
38.1740745874
  0
LINE
  5
4A0
100
AcDbEntity
  8
0
100
AcDbLine
 62
7
  6
CONTINUOUS
 10
130.3806552524
 20
38.7990764947
 11
130.7328804174
 21
38.7990764947
  0
LINE
  5
4A1
100
AcDbEntity
  8
RUNDUNGEN
100
AcDbLine
 62
7
  6
CONTINUOUS
 10
108.4500244951
 20
39.7990755411
 11
124.4500244951
 21
39.7990755411
  0
LINE
  5
4A2
100
AcDbEntity
  8
0
100
AcDbLine
 62
7
  6
CONTINUOUS
 10
128.8464705584
 20
40.1740755411
 11
129.2410125335
 21
40.1740755411
  0
ARC
  5
4A3
100
AcDbEntity
  8
RUNDUNGEN
100
AcDbCircle
 62
7
  6
CONTINUOUS
 10
102.4500244951
 20
98.7085475577
 40
5.0
100
AcDbArc
 50
270.0003558636
 51
360.0
  0
ARC
  5
4A4
100
AcDbEntity
  8
RUNDUNGEN
100
AcDbCircle
 62
7
  6
CONTINUOUS
 10
98.7000244951
 20
91.7085475577
 40
2.0
100
AcDbArc
 50
90.0
 51
180.0
  0
ARC
  5
4A5
100
AcDbEntity
  8
KONSTRUKTIONSELEMENTE
100
AcDbCircle
 62
7
  6
CONTINUOUS
 10
56.4500244951
 20
145.5085475577
 40
88.5
100
AcDbArc
 50
343.7397952917
 51
16.2602047083
  0
ARC
  5
4A6
100
AcDbEntity
  8
KONSTRUKTIONSELEMENTE
100
AcDbCircle
 62
7
  6
CONTINUOUS
 10
56.4500244951
 20
145.5085475577
 40
87.6097722286
100
AcDbArc
 50
352.7870903408
 51
7.2129096592
  0
ARC
  5
4A7
100
AcDbEntity
  8
KONSTRUKTIONSELEMENTE
100
AcDbCircle
 62
7
  6
CONTINUOUS
 10
56.4500244951
 20
145.5085475577
 40
78.3902277714
100
AcDbArc
 50
351.9334272256
 51
8.0665727744
  0
ARC
  5
4A8
100
AcDbEntity
  8
KONSTRUKTIONSELEMENTE
100
AcDbCircle
 62
7
  6
CONTINUOUS
 10
56.4500244951
 20
145.5085475577
 40
77.5
100
AcDbArc
 50
343.7397952917
 51
16.2602047083
  0
ARC
  5
4A9
100
AcDbEntity
  8
RUNDUNGEN
100
AcDbCircle
 62
7
  6
CONTINUOUS
 10
116.4500244951
 20
117.2085475577
 40
9.0
100
AcDbArc
 50
0.0
 51
180.0
  0
ARC
  5
4AA
100
AcDbEntity
  8
RUNDUNGEN
100
AcDbCircle
 62
7
  6
CONTINUOUS
 10
130.4500244951
 20
98.7085475577
 40
5.0
100
AcDbArc
 50
180.0
 51
269.9999675918
  0
ARC
  5
4AB
100
AcDbEntity
  8
RUNDUNGEN
100
AcDbCircle
 62
7
  6
CONTINUOUS
 10
134.2000244951
 20
91.7085475577
 40
2.0
100
AcDbArc
 50
0.0
 51
90.0
  0
ARC
  5
4AC
100
AcDbEntity
  8
KONSTRUKTIONSELEMENTE
100
AcDbCircle
 62
7
  6
CONTINUOUS
 10
176.4500244951
 20
145.5085475577
 40
88.5
100
AcDbArc
 50
163.7397952917
 51
196.2602047083
  0
ARC
  5
4AD
100
AcDbEntity
  8
KONSTRUKTIONSELEMENTE
100
AcDbCircle
 62
7
  6
CONTINUOUS
 10
176.4500244951
 20
145.5085475577
 40
87.6097722286
100
AcDbArc
 50
172.7870903408
 51
187.2129096592
  0
ARC
  5
4AE
100
AcDbEntity
  8
KONSTRUKTIONSELEMENTE
100
AcDbCircle
 62
7
  6
CONTINUOUS
 10
176.4500244951
 20
145.5085475577
 40
78.3902277714
100
AcDbArc
 50
171.9334272256
 51
188.0665727744
  0
ARC
  5
4AF
100
AcDbEntity
  8
KONSTRUKTIONSELEMENTE
100
AcDbCircle
 62
7
  6
CONTINUOUS
 10
176.4500244951
 20
145.5085475577
 40
77.5
100
AcDbArc
 50
163.7397952917
 51
196.2602047083
  0
ARC
  5
4B0
100
AcDbEntity
  8
KONSTRUKTIONSELEMENTE
100
AcDbCircle
 62
7
  6
CONTINUOUS
 10
116.4500244951
 20
128.0085475577
 40
26.0
100
AcDbArc
 50
196.2602047083
 51
248.5654002565
  0
ARC
  5
4B1
100
AcDbEntity
  8
KONSTRUKTIONSELEMENTE
100
AcDbCircle
 62
7
  6
CONTINUOUS
 10
116.4500244951
 20
128.0085475577
 40
26.0
100
AcDbArc
 50
290.2608690755
 51
343.7397952917
  0
ARC
  5
4B2
100
AcDbEntity
  8
KONSTRUKTIONSELEMENTE
100
AcDbCircle
 62
7
  6
CONTINUOUS
 10
116.4500244951
 20
163.0085475577
 40
26.0
100
AcDbArc
 50
16.2602047083
 51
163.7397952917
  0
ARC
  5
4B3
100
AcDbEntity
  8
KONSTRUKTIONSELEMENTE
100
AcDbCircle
 62
7
  6
CONTINUOUS
 10
116.4500244951
 20
163.0085475577
 40
15.0
100
AcDbArc
 50
16.2602047083
 51
163.7397952917
  0
ARC
  5
4B4
100
AcDbEntity
  8
KONSTRUKTIONSELEMENTE
100
AcDbCircle
 62
7
  6
CONTINUOUS
 10
116.4500244951
 20
128.0085475577
 40
15.0
100
AcDbArc
 50
196.2602047083
 51
233.099312579
  0
ARC
  5
4B5
100
AcDbEntity
  8
KONSTRUKTIONSELEMENTE
100
AcDbCircle
 62
7
  6
CONTINUOUS
 10
116.4500244951
 20
128.0085475577
 40
15.0
100
AcDbArc
 50
306.900687421
 51
343.7397952917
  0
ARC
  5
4B6
100
AcDbEntity
  8
RUNDUNGEN
100
AcDbCircle
 62
7
  6
CONTINUOUS
 10
197.3587113616
 20
103.2085475577
 40
8.0
100
AcDbArc
 50
137.9988784384
 51
42.0013962293
  0
ARC
  5
4B7
100
AcDbEntity
  8
KONSTRUKTIONSELEMENTE
100
AcDbCircle
 62
7
  6
CONTINUOUS
 10
197.3587113616
 20
107.5085475577
 40
5.5
100
AcDbArc
 50
180.0
 51
360.0
  0
ARC
  5
4B8
100
AcDbEntity
  8
RUNDUNGEN
100
AcDbCircle
 62
7
  6
CONTINUOUS
 10
178.8587113616
 20
111.3736110672
 40
3.5
100
AcDbArc
 50
330.0
 51
360.0
  0
ARC
  5
4B9
100
AcDbEntity
  8
RUNDUNGEN
100
AcDbCircle
 62
7
  6
CONTINUOUS
 10
184.8587113616
 20
122.7327522684
 40
2.5
100
AcDbArc
 50
150.0030876611
 51
179.9990290171
  0
ARC
  5
4BA
100
AcDbEntity
  8
RUNDUNGEN
100
AcDbCircle
 62
7
  6
CONTINUOUS
 10
188.3033262234
 20
124.7085475577
 40
1.5
100
AcDbArc
 50
65.0908472631
 51
90.0
  0
ARC
  5
4BB
100
AcDbEntity
  8
RUNDUNGEN
100
AcDbCircle
 62
7
  6
CONTINUOUS
 10
184.5560616307
 20
125.2085475577
 40
1.0
100
AcDbArc
 50
90.0000000006
 51
150.0
  0
ARC
  5
4BC
100
AcDbEntity
  8
RUNDUNGEN
100
AcDbCircle
 62
7
  6
CONTINUOUS
 10
178.6087196101
 20
101.9406126522
 40
1.0
100
AcDbArc
 50
150.0009452138
 51
180.0008185712
  0
ARC
  5
4BD
100
AcDbEntity
  8
0
100
AcDbCircle
 62
7
  6
CONTINUOUS
 10
197.3587113616
 20
144.2085475577
 40
20.0
100
AcDbArc
 50
285.9663322658
 51
294.909152737
  0
ARC
  5
4BE
100
AcDbEntity
  8
0
100
AcDbCircle
 62
7
  6
CONTINUOUS
 10
197.3587113616
 20
144.2085475577
 40
20.0
100
AcDbArc
 50
245.090847263
 51
254.0336677342
  0
ARC
  5
4BF
100
AcDbEntity
  8
0
100
AcDbCircle
 62
7
  6
CONTINUOUS
 10
184.1184296269
 20
181.2908689605
 40
18.3090517952
100
AcDbArc
 50
357.1608416034
 51
0.8514201964
  0
ARC
  5
4C0
100
AcDbEntity
  8
0
100
AcDbCircle
 62
7
  6
CONTINUOUS
 10
193.2922922645
 20
183.5895370753
 40
9.1351840313
100
AcDbArc
 50
355.9806204455
 51
1.2038454992
  0
ARC
  5
4C1
100
AcDbEntity
  8
0
100
AcDbCircle
 62
7
  6
CONTINUOUS
 10
195.1824795562
 20
182.887409823
 40
7.3630838365
100
AcDbArc
 50
349.6371880419
 51
351.0333350391
  0
ARC
  5
4C2
100
AcDbEntity
  8
0
100
AcDbCircle
 62
7
  6
CONTINUOUS
 10
197.0547134977
 20
183.4470968594
 40
5.784059564
100
AcDbArc
 50
15.1680182549
 51
21.7389424365
  0
ARC
  5
4C3
100
AcDbEntity
  8
KONSTRUKTIONSELEMENTE
100
AcDbCircle
 62
7
  6
CONTINUOUS
 10
197.3587113616
 20
183.5085475577
 40
5.5
100
AcDbArc
 50
22.6669822791
 51
180.0
  0
ARC
  5
4C4
100
AcDbEntity
  8
0
100
AcDbCircle
 62
7
  6
CONTINUOUS
 10
197.375123345
 20
183.4174275278
 40
5.4837284384
100
AcDbArc
 50
9.0635307779
 51
16.3432355456
  0
ARC
  5
4C5
100
AcDbEntity
  8
0
100
AcDbCircle
 62
7
  6
CONTINUOUS
 10
197.3880683219
 20
183.4597194038
 40
5.4706349882
100
AcDbArc
 50
4.3826540673
 51
8.6470219385
  0
ARC
  5
4C6
100
AcDbEntity
  8
RUNDUNGEN
100
AcDbCircle
 62
7
  6
CONTINUOUS
 10
216.8387113616
 20
111.3736110672
 40
3.5
100
AcDbArc
 50
180.0
 51
210.0
  0
ARC
  5
4C7
100
AcDbEntity
  8
RUNDUNGEN
100
AcDbCircle
 62
7
  6
CONTINUOUS
 10
210.8387113616
 20
122.7327522684
 40
2.5
100
AcDbArc
 50
359.9999173245
 51
30.0
  0
ARC
  5
4C8
100
AcDbEntity
  8
0
100
AcDbCircle
 62
7
  6
CONTINUOUS
 10
210.3392458782
 20
108.7378585249
 40
2.0
100
AcDbArc
 50
174.2608295227
 51
356.9363238298
  0
ARC
  5
4C9
100
AcDbEntity
  8
0
100
AcDbCircle
 62
7
  6
CONTINUOUS
 10
210.3392458782
 20
105.3378585249
 40
2.0
100
AcDbArc
 50
174.2608295227
 51
356.9363238298
  0
ARC
  5
4CA
100
AcDbEntity
  8
RUNDUNGEN
100
AcDbCircle
 62
7
  6
CONTINUOUS
 10
206.4140964997
 20
124.7085475577
 40
1.5
100
AcDbArc
 50
90.0
 51
114.9091527369
  0
ARC
  5
4CB
100
AcDbEntity
  8
0
100
AcDbCircle
 62
7
  6
CONTINUOUS
 10
210.3392458782
 20
108.7378585249
 40
1.4
100
AcDbArc
 50
282.3736251162
 51
8.2132107017
  0
ARC
  5
4CC
100
AcDbEntity
  8
0
100
AcDbCircle
 62
7
  6
CONTINUOUS
 10
210.3392458782
 20
108.7378585249
 40
1.4
100
AcDbArc
 50
171.7867892983
 51
257.4447123387
  0
ARC
  5
4CD
100
AcDbEntity
  8
0
100
AcDbCircle
 62
7
  6
CONTINUOUS
 10
210.3392458782
 20
105.3378585249
 40
1.4
100
AcDbArc
 50
181.7503387136
 51
8.2132107017
  0
ARC
  5
4CE
100
AcDbEntity
  8
RUNDUNGEN
100
AcDbCircle
 62
7
  6
CONTINUOUS
 10
211.1413610924
 20
125.2085475577
 40
1.0
100
AcDbArc
 50
30.0
 51
89.9999999995
  0
ARC
  5
4CF
100
AcDbEntity
  8
RUNDUNGEN
100
AcDbCircle
 62
7
  6
CONTINUOUS
 10
216.1086629415
 20
103.6380920226
 40
1.0
100
AcDbArc
 50
359.9951951704
 51
29.9944514745
  0
ARC
  5
4D0
100
AcDbEntity
  8
0
100
AcDbCircle
 62
7
  6
CONTINUOUS
 10
198.163849928
 20
180.9295052277
 40
4.6975153485
100
AcDbArc
 50
9.933796636
 51
25.4645843539
  0
ARC
  5
4D1
100
AcDbEntity
  8
0
100
AcDbCircle
 62
7
  6
CONTINUOUS
 10
200.1577174812
 20
184.5457296766
 40
2.3930648805
100
AcDbArc
 50
341.3753316787
 51
343.7843849818
  0
ARC
  5
4D2
100
AcDbEntity
  8
0
100
AcDbCircle
 62
7
  6
CONTINUOUS
 10
202.1686578137
 20
185.5893126666
 40
0.2587590144
100
AcDbArc
 50
0.0163058281
 51
7.6937205597
  0
ARC
  5
4D3
100
AcDbEntity
  8
0
100
AcDbCircle
 62
7
  6
CONTINUOUS
 10
89.4500244951
 20
24.7990755411
 40
20.0
100
AcDbArc
 50
335.090847263
 51
341.4166327144
  0
ARC
  5
4D4
100
AcDbEntity
  8
0
100
AcDbCircle
 62
7
  6
CONTINUOUS
 10
89.4500244951
 20
24.7990755411
 40
20.0
100
AcDbArc
 50
18.5833672856
 51
24.9091527369
  0
ARC
  5
4D5
100
AcDbEntity
  8
RUNDUNGEN
100
AcDbCircle
 62
7
  6
CONTINUOUS
 10
89.4500244951
 20
24.7990755411
 40
20.0
100
AcDbArc
 50
335.090847263
 51
341.4166327144
  0
ARC
  5
4D6
100
AcDbEntity
  8
RUNDUNGEN
100
AcDbCircle
 62
7
  6
CONTINUOUS
 10
89.4500244951
 20
24.7990755411
 40
20.0
100
AcDbArc
 50
18.5833672856
 51
24.909152737
  0
ARC
  5
4D7
100
AcDbEntity
  8
KONSTRUKTIONSELEMENTE
100
AcDbCircle
 62
7
  6
CONTINUOUS
 10
95.9775533747
 20
25.2748973938
 40
5.9758035035
100
AcDbArc
 50
269.1351752577
 51
270.0163892118
  0
ARC
  5
4D8
100
AcDbEntity
  8
KONSTRUKTIONSELEMENTE
100
AcDbCircle
 62
7
  6
CONTINUOUS
 10
95.9774234494
 20
24.3864783874
 40
5.9125786668
100
AcDbArc
 50
89.9816002187
 51
90.1288570281
  0
ARC
  5
4D9
100
AcDbEntity
  8
KONSTRUKTIONSELEMENTE
100
AcDbCircle
 62
7
  6
CONTINUOUS
 10
93.4500244951
 20
24.7990755411
 40
5.5
100
AcDbArc
 50
146.9442688491
 51
213.0557311509
  0
ARC
  5
4DA
100
AcDbEntity
  8
RUNDUNGEN
100
AcDbCircle
 62
7
  6
CONTINUOUS
 10
108.9500244951
 20
15.7436904029
 40
1.5
100
AcDbArc
 50
155.0908472631
 51
180.0
  0
ARC
  5
4DB
100
AcDbEntity
  8
RUNDUNGEN
100
AcDbCircle
 62
7
  6
CONTINUOUS
 10
108.4500244951
 20
9.8190755411
 40
1.0
100
AcDbArc
 50
180.0
 51
270.0
  0
ARC
  5
4DC
100
AcDbEntity
  8
0
100
AcDbCircle
 62
7
  6
CONTINUOUS
 10
106.7732275598
 20
32.1472244795
 40
12.7804941408
100
AcDbArc
 50
256.8432340662
 51
258.7686032243
  0
ARC
  5
4DD
100
AcDbEntity
  8
0
100
AcDbCircle
 62
7
  6
CONTINUOUS
 10
106.3935893318
 20
27.004690574
 40
7.6882983299
100
AcDbArc
 50
254.0739451415
 51
257.1717823973
  0
ARC
  5
4DE
100
AcDbEntity
  8
0
100
AcDbCircle
 62
7
  6
CONTINUOUS
 10
106.0126487044
 20
23.5889101726
 40
4.2906812701
100
AcDbArc
 50
251.9973463354
 51
255.0310729814
  0
ARC
  5
4DF
100
AcDbEntity
  8
0
100
AcDbCircle
 62
7
  6
CONTINUOUS
 10
105.6875946859
 20
21.4165966507
 40
2.1225523697
100
AcDbArc
 50
248.3464381091
 51
254.0707491644
  0
ARC
  5
4E0
100
AcDbEntity
  8
RUNDUNGEN
100
AcDbCircle
 62
7
  6
CONTINUOUS
 10
108.9500244951
 20
33.8544606792
 40
1.5
100
AcDbArc
 50
180.0
 51
204.9091527382
  0
ARC
  5
4E1
100
AcDbEntity
  8
RUNDUNGEN
100
AcDbCircle
 62
7
  6
CONTINUOUS
 10
110.2112491478
 20
17.727237741
 40
2.012080303
100
AcDbArc
 50
151.1137068477
 51
156.1924763392
  0
ARC
  5
4E2
100
AcDbEntity
  8
RUNDUNGEN
100
AcDbCircle
 62
7
  6
CONTINUOUS
 10
110.2052089694
 20
17.7305485281
 40
2.0051922913
100
AcDbArc
 50
148.9804405491
 51
151.1131643102
  0
ARC
  5
4E3
100
AcDbEntity
  8
RUNDUNGEN
100
AcDbCircle
 62
7
  6
CONTINUOUS
 10
109.4500244951
 20
8.4876531629
 40
2.0
100
AcDbArc
 50
180.0
 51
246.7726241047
  0
ARC
  5
4E4
100
AcDbEntity
  8
RUNDUNGEN
100
AcDbCircle
 62
7
  6
CONTINUOUS
 10
110.3029650461
 20
17.7880226543
 40
1.9999999845
100
AcDbArc
 50
149.5775927231
 51
161.4165915854
  0
ARC
  5
4E5
100
AcDbEntity
  8
RUNDUNGEN
100
AcDbCircle
 62
7
  6
CONTINUOUS
 10
110.1983179578
 20
17.7346716787
 40
1.9971619676
100
AcDbArc
 50
147.7694896392
 51
148.9799343426
  0
ARC
  5
4E6
100
AcDbEntity
  8
0
100
AcDbCircle
 62
7
  6
CONTINUOUS
 10
110.7050496911
 20
31.5622685974
 40
12.1960336716
100
AcDbArc
 50
256.520258644
 51
258.4900803812
  0
ARC
  5
4E7
100
AcDbEntity
  8
0
100
AcDbCircle
 62
7
  6
CONTINUOUS
 10
110.2255266646
 20
25.886591265
 40
6.5722995082
100
AcDbArc
 50
252.7035851885
 51
256.0442457645
  0
ARC
  5
4E8
100
AcDbEntity
  8
0
100
AcDbCircle
 62
7
  6
CONTINUOUS
 10
113.1982807584
 20
22.8048497289
 40
3.5068261752
100
AcDbArc
 50
290.5191991506
 51
298.751653924
  0
ARC
  5
4E9
100
AcDbEntity
  8
0
100
AcDbCircle
 62
7
  6
CONTINUOUS
 10
109.7840357743
 20
22.4481198704
 40
3.1544157192
100
AcDbArc
 50
248.7444075718
 51
252.2523186521
  0
ARC
  5
4EA
100
AcDbEntity
  8
RUNDUNGEN
100
AcDbCircle
 62
7
  6
CONTINUOUS
 10
110.3029656715
 20
31.8101271234
 40
2.0
100
AcDbArc
 50
198.5833672856
 51
229.1811331197
  0
ARC
  5
4EB
100
AcDbEntity
  8
RUNDUNGEN
100
AcDbCircle
 62
7
  6
CONTINUOUS
 10
110.1985980962
 20
31.8641738849
 40
1.9977855671
100
AcDbArc
 50
203.7771842008
 51
231.7154744814
  0
ARC
  5
4EC
100
AcDbEntity
  8
0
100
AcDbCircle
 62
7
  6
CONTINUOUS
 10
107.0280028948
 20
63.2655289584
 40
43.5352264391
100
AcDbArc
 50
268.1587827206
 51
270.552550413
  0
ARC
  5
4ED
100
AcDbEntity
  8
0
100
AcDbCircle
 62
7
  6
CONTINUOUS
 10
110.4833391068
 20
58.6197414557
 40
39.0057078616
100
AcDbArc
 50
265.5366230126
 51
266.1467903039
  0
ARC
  5
4EE
100
AcDbEntity
  8
0
100
AcDbCircle
 62
7
  6
CONTINUOUS
 10
103.1044982375
 20
54.0916732986
 40
34.3613702052
100
AcDbArc
 50
267.9275234807
 51
270.6218649154
  0
ARC
  5
4EF
100
AcDbEntity
  8
0
100
AcDbCircle
 62
7
  6
CONTINUOUS
 10
106.3131445082
 20
53.6446018152
 40
34.0306278675
100
AcDbArc
 50
265.2201060107
 51
265.8732264532
  0
ARC
  5
4F0
100
AcDbEntity
  8
RUNDUNGEN
100
AcDbCircle
 62
7
  6
CONTINUOUS
 10
109.4500244951
 20
41.1104979193
 40
2.0
100
AcDbArc
 50
113.2248924501
 51
180.0
  0
ARC
  5
4F1
100
AcDbEntity
  8
RUNDUNGEN
100
AcDbCircle
 62
7
  6
CONTINUOUS
 10
108.4500244951
 20
38.7990755411
 40
1.0
100
AcDbArc
 50
90.0
 51
180.0
  0
ARC
  5
4F2
100
AcDbEntity
  8
0
100
AcDbCircle
 62
7
  6
CONTINUOUS
 10
114.885455263
 20
73.0644378448
 40
53.3340677609
100
AcDbArc
 50
269.9996328646
 51
270.5354959216
  0
ARC
  5
4F3
100
AcDbEntity
  8
0
100
AcDbCircle
 62
7
  6
CONTINUOUS
 10
116.4500244951
 20
24.7990755411
 40
20.0
100
AcDbArc
 50
38.2249102016
 51
50.2417722628
  0
ARC
  5
4F4
100
AcDbEntity
  8
0
100
AcDbCircle
 62
7
  6
CONTINUOUS
 10
116.4500244951
 20
24.7990755411
 40
20.0
100
AcDbArc
 50
15.9621771144
 51
34.6631037125
  0
ARC
  5
4F5
100
AcDbEntity
  8
0
100
AcDbCircle
 62
7
  6
CONTINUOUS
 10
116.4500244951
 20
24.7990755411
 40
20.0
100
AcDbArc
 50
323.1301023542
 51
344.0345141124
  0
ARC
  5
4F6
100
AcDbEntity
  8
RUNDUNGEN
100
AcDbCircle
 62
7
  6
CONTINUOUS
 10
116.4500244951
 20
24.7990755411
 40
19.75
100
AcDbArc
 50
16.1835988214
 51
163.8164012103
  0
ARC
  5
4F7
100
AcDbEntity
  8
RUNDUNGEN
100
AcDbCircle
 62
7
  6
CONTINUOUS
 10
116.4500244951
 20
24.7990755411
 40
19.75
100
AcDbArc
 50
196.1835987991
 51
343.8164011886
  0
ARC
  5
4F8
100
AcDbEntity
  8
RUNDUNGEN
100
AcDbCircle
 62
7
  6
CONTINUOUS
 10
122.6911514912
 20
17.728338221
 40
2.009484557
100
AcDbArc
 50
23.8059179038
 51
32.9058945803
  0
ARC
  5
4F9
100
AcDbEntity
  8
RUNDUNGEN
100
AcDbCircle
 62
7
  6
CONTINUOUS
 10
123.4500244951
 20
8.4876531629
 40
2.0
100
AcDbArc
 50
293.2270472543
 51
360.0
  0
ARC
  5
4FA
100
AcDbEntity
  8
RUNDUNGEN
100
AcDbCircle
 62
7
  6
CONTINUOUS
 10
122.5970833186
 20
17.7880239587
 40
2.0
100
AcDbArc
 50
18.5833672856
 51
31.9135714161
  0
ARC
  5
4FB
100
AcDbEntity
  8
RUNDUNGEN
100
AcDbCircle
 62
7
  6
CONTINUOUS
 10
122.7036675882
 20
17.7356889577
 40
1.9949844572
100
AcDbArc
 50
33.8934357955
 51
37.0186854679
  0
ARC
  5
4FC
100
AcDbEntity
  8
RUNDUNGEN
100
AcDbCircle
 62
7
  6
CONTINUOUS
 10
122.707554759
 20
17.7383399961
 40
1.990279458
100
AcDbArc
 50
32.9206950462
 51
33.8924891658
  0
ARC
  5
4FD
100
AcDbEntity
  8
RUNDUNGEN
100
AcDbCircle
 62
7
  6
CONTINUOUS
 10
123.9500244951
 20
15.7436904029
 40
1.5
100
AcDbArc
 50
0.0
 51
24.909152737
  0
ARC
  5
4FE
100
AcDbEntity
  8
RUNDUNGEN
100
AcDbCircle
 62
7
  6
CONTINUOUS
 10
124.4500244951
 20
9.8190755411
 40
1.0
100
AcDbArc
 50
270.0
 51
360.0
  0
ARC
  5
4FF
100
AcDbEntity
  8
RUNDUNGEN
100
AcDbCircle
 62
7
  6
CONTINUOUS
 10
122.5970840347
 20
31.8101286294
 40
1.9999999826
100
AcDbArc
 50
310.8188231296
 51
341.4165852833
  0
ARC
  5
500
100
AcDbEntity
  8
RUNDUNGEN
100
AcDbCircle
 62
7
  6
CONTINUOUS
 10
122.7014516287
 20
31.8641753776
 40
1.997785506
100
AcDbArc
 50
308.2844421638
 51
336.2228099538
  0
ARC
  5
501
100
AcDbEntity
  8
RUNDUNGEN
100
AcDbCircle
 62
7
  6
CONTINUOUS
 10
123.9500244951
 20
33.8544606792
 40
1.5
100
AcDbArc
 50
335.0908472631
 51
360.0
  0
ARC
  5
502
100
AcDbEntity
  8
RUNDUNGEN
100
AcDbCircle
 62
7
  6
CONTINUOUS
 10
124.4500244951
 20
38.7990755411
 40
1.0
100
AcDbArc
 50
0.0
 51
90.0
  0
ARC
  5
503
100
AcDbEntity
  8
0
100
AcDbCircle
 62
7
  6
CONTINUOUS
 10
120.0310199341
 20
70.9840193046
 40
51.2538544255
100
AcDbArc
 50
268.3440603822
 51
271.4718978564
  0
ARC
  5
504
100
AcDbEntity
  8
0
100
AcDbCircle
 62
7
  6
CONTINUOUS
 10
129.2158467301
 20
55.631775931
 40
35.9014729545
100
AcDbArc
 50
267.9724623053
 51
270.6083972973
  0
ARC
  5
505
100
AcDbEntity
  8
RUNDUNGEN
100
AcDbCircle
 62
7
  6
CONTINUOUS
 10
123.4500531318
 20
41.1104950911
 40
1.9999918181
100
AcDbArc
 50
0.0000810222
 51
66.7743345796
  0
ARC
  5
506
100
AcDbEntity
  8
0
100
AcDbCircle
 62
7
  6
CONTINUOUS
 10
131.7762897389
 20
39.6806161247
 40
20.0669698741
100
AcDbArc
 50
263.765507917
 51
264.6151238645
  0
ARC
  5
507
100
AcDbEntity
  8
0
100
AcDbCircle
 62
7
  6
CONTINUOUS
 10
143.4500244951
 20
24.7990755411
 40
20.0
100
AcDbArc
 50
198.5833672856
 51
204.909152737
  0
ARC
  5
508
100
AcDbEntity
  8
0
100
AcDbCircle
 62
7
  6
CONTINUOUS
 10
143.4500244951
 20
24.7990755411
 40
20.0
100
AcDbArc
 50
155.090847263
 51
161.4166327144
  0
ARC
  5
509
100
AcDbEntity
  8
RUNDUNGEN
100
AcDbCircle
 62
7
  6
CONTINUOUS
 10
143.4500244951
 20
24.7990755411
 40
20.0
100
AcDbArc
 50
198.5833672856
 51
204.9091527369
  0
ARC
  5
50A
100
AcDbEntity
  8
RUNDUNGEN
100
AcDbCircle
 62
7
  6
CONTINUOUS
 10
143.4500244951
 20
24.7990755411
 40
20.0
100
AcDbArc
 50
155.090847263
 51
161.4166327144
  0
ARC
  5
50B
100
AcDbEntity
  8
KONSTRUKTIONSELEMENTE
100
AcDbCircle
 62
7
  6
CONTINUOUS
 10
136.9225807081
 20
25.2623148215
 40
5.96322259
100
AcDbArc
 50
269.9823152536
 51
270.8811962514
  0
ARC
  5
50C
100
AcDbEntity
  8
KONSTRUKTIONSELEMENTE
100
AcDbCircle
 62
7
  6
CONTINUOUS
 10
136.9225296885
 20
24.3361867018
 40
5.9628702556
100
AcDbArc
 50
89.334795223
 51
90.0169085605
  0
ARC
  5
50D
100
AcDbEntity
  8
KONSTRUKTIONSELEMENTE
100
AcDbCircle
 62
7
  6
CONTINUOUS
 10
139.4500244951
 20
24.7990755411
 40
5.5
100
AcDbArc
 50
326.9442688491
 51
33.0557311509
  0
ARC
  5
50E
100
AcDbEntity
  8
0
100
AcDbCircle
 62
7
  6
CONTINUOUS
 10
131.1437975221
 20
21.3709808968
 40
2.0854415333
100
AcDbArc
 50
233.1493973805
 51
237.5328581785
  0
ARC
  5
50F
100
AcDbEntity
  8
0
100
AcDbCircle
 62
7
  6
CONTINUOUS
 10
123.3607863467
 20
136.0237540965
 40
116.6572572796
100
AcDbArc
 50
270.1399009563
 51
270.4580232817
  0
ARC
  5
510
100
AcDbEntity
  8
0
100
AcDbCircle
 62
7
  6
CONTINUOUS
 10
123.3324360277
 20
135.9299314506
 40
116.5634328995
100
AcDbArc
 50
269.5418990209
 51
269.8520438396
  0
ARC
  5
511
100
AcDbEntity
  8
0
100
AcDbCircle
 62
7
  6
CONTINUOUS
 10
123.5667074941
 20
87.1478080261
 40
67.6289497288
100
AcDbArc
 50
269.7327722867
 51
270.0668653186
  0
SPLINE
  5
512
100
AcDbEntity
  8
KONSTRUKTIONSELEMENTE
100
AcDbSpline
 62
7
  6
CONTINUOUS
 70
0
 71
3
 72
33
 73
29
 74
0
 42
0.0000001
 43
0.0000001
 44
0.0000000001
 40
0.0
 40
0.0
 40
0.0
 40
0.0
 40
0.0621725717
 40
0.1244040391
 40
0.1867076418
 40
0.2491029413
 40
0.3116183166
 40
0.3429433535
 40
0.3743216433
 40
0.4057675706
 40
0.4373025086
 40
0.4689577542
 40
0.5007664375
 40
0.5167787485
 40
0.5328231904
 40
0.5488591118
 40
0.564831365
 40
0.5807009527
 40
0.5964678631
 40
0.6277509968
 40
0.6589015598
 40
0.6899836924
 40
0.721028636
 40
0.7520520113
 40
0.8140582028
 40
0.8760458005
 40
0.9380249079
 40
1.0
 40
1.0
 40
1.0
 40
1.0
 10
89.5335577586
 20
134.5085475577
 30
0.0
 10
89.6667370895
 20
134.0680352514
 30
0.0
 10
89.9516714148
 20
133.1920283035
 30
0.0
 10
90.438152844
 20
131.8979428086
 30
0.0
 10
90.9892498395
 20
130.6280326656
 30
0.0
 10
91.6126907841
 20
129.3895269474
 30
0.0
 10
92.2021471804
 20
128.3930635501
 30
0.0
 10
92.7254166105
 20
127.6276424471
 30
0.0
 10
93.1482675135
 20
127.0732051356
 30
0.0
 10
93.6064642809
 20
126.5453285202
 30
0.0
 10
94.1078836677
 20
126.0545674379
 30
0.0
 10
94.6630850695
 20
125.6204723065
 30
0.0
 10
95.1848456987
 20
125.3371337913
 30
0.0
 10
95.6398904418
 20
125.2018805917
 30
0.0
 10
95.9965599525
 20
125.1647964686
 30
0.0
 10
96.3530273301
 20
125.2104805946
 30
0.0
 10
96.6852939963
 20
125.3441204819
 30
0.0
 10
96.9750300225
 20
125.5492853079
 30
0.0
 10
97.3003795433
 20
125.8852589958
 30
0.0
 10
97.6114475904
 20
126.3795149167
 30
0.0
 10
97.8839697564
 20
127.0171545531
 30
0.0
 10
98.0910076489
 20
127.6767207863
 30
0.0
 10
98.2524598185
 20
128.3474015412
 30
0.0
 10
98.423501449
 20
129.2500106129
 30
0.0
 10
98.5757755967
 20
130.3880330162
 30
0.0
 10
98.6986443919
 20
131.7593331089
 30
0.0
 10
98.7819522141
 20
133.1332959759
 30
0.0
 10
98.8196442387
 20
134.0500763175
 30
0.0
 10
98.8354136924
 20
134.5085475577
 30
0.0
  0
SPLINE
  5
513
100
AcDbEntity
  8
KONSTRUKTIONSELEMENTE
100
AcDbSpline
 62
7
  6
CONTINUOUS
 70
0
 71
3
 72
33
 73
29
 74
0
 42
0.0000001
 43
0.0000001
 44
0.0000000001
 40
0.0
 40
0.0
 40
0.0
 40
0.0
 40
0.0619751921
 40
0.1239544002
 40
0.1859421014
 40
0.247948395
 40
0.2789718228
 40
0.3100168157
 40
0.3410989761
 40
0.3722494853
 40
0.4035320345
 40
0.4192987955
 40
0.4351676016
 40
0.4511396284
 40
0.4671757569
 40
0.4832199443
 40
0.499232052
 40
0.5310411544
 40
0.562696553
 40
0.5942315719
 40
0.6256775714
 40
0.6570559283
 40
0.6883810341
 40
0.7508965589
 40
0.8132919862
 40
0.8755957109
 40
0.9378273095
 40
1.0
 40
1.0
 40
1.0
 40
1.0
 10
98.8354136924
 20
156.5085475577
 30
0.0
 10
98.8196442118
 20
156.9670195787
 30
0.0
 10
98.7819521217
 20
157.8838014894
 30
0.0
 10
98.6986439846
 20
159.2577667134
 30
0.0
 10
98.5757751209
 20
160.6290692117
 30
0.0
 10
98.4234998024
 20
161.7670934964
 30
0.0
 10
98.2524575305
 20
162.6697040627
 30
0.0
 10
98.0910047605
 20
163.3403857322
 30
0.0
 10
97.8839657971
 20
163.999951898
 30
0.0
 10
97.6114436168
 20
164.6375867192
 30
0.0
 10
97.3003786565
 20
165.1318373679
 30
0.0
 10
96.9750356587
 20
165.4678025258
 30
0.0
 10
96.6853072045
 20
165.6729606061
 30
0.0
 10
96.3530555031
 20
165.8066206418
 30
0.0
 10
95.996587511
 20
165.8523065926
 30
0.0
 10
95.6399227713
 20
165.8152091667
 30
0.0
 10
95.1848700465
 20
165.6799857606
 30
0.0
 10
94.6631101959
 20
165.3966330442
 30
0.0
 10
94.1079016701
 20
164.9625420624
 30
0.0
 10
93.6064789576
 20
164.4717801174
 30
0.0
 10
93.1482795675
 20
163.943903768
 30
0.0
 10
92.7254262966
 20
163.3894661763
 30
0.0
 10
92.2021541119
 20
162.6240442847
 30
0.0
 10
91.6126968813
 20
161.6275782347
 30
0.0
 10
90.9892533836
 20
160.3890703929
 30
0.0
 10
90.4381548842
 20
159.119157661
 30
0.0
 10
89.9516723063
 20
157.8250695261
 30
0.0
 10
89.6667373559
 20
156.9490607453
 30
0.0
 10
89.5335577586
 20
156.5085475577
 30
0.0
  0
SPLINE
  5
514
100
AcDbEntity
  8
KONSTRUKTIONSELEMENTE
100
AcDbSpline
 62
7
  6
CONTINUOUS
 70
0
 71
3
 72
33
 73
29
 74
0
 42
0.0000001
 43
0.0000001
 44
0.0000000001
 40
0.0
 40
0.0
 40
0.0
 40
0.0
 40
0.0619751903
 40
0.1239543967
 40
0.1859420966
 40
0.2479483888
 40
0.2789718168
 40
0.3100168115
 40
0.3410989751
 40
0.3722494873
 40
0.4035320865
 40
0.4192988429
 40
0.4351677546
 40
0.4511397669
 40
0.4671758321
 40
0.4832200272
 40
0.4992321513
 40
0.5310412047
 40
0.562696591
 40
0.5942316057
 40
0.6256776021
 40
0.6570559565
 40
0.6883810596
 40
0.7508965774
 40
0.813292
 40
0.8755957205
 40
0.9378273136
 40
1.0
 40
1.0
 40
1.0
 40
1.0
 10
134.0646352977
 20
134.5085475577
 30
0.0
 10
134.0804047777
 20
134.050075556
 30
0.0
 10
134.1180968645
 20
133.1332936826
 30
0.0
 10
134.2014050116
 20
131.7593285131
 30
0.0
 10
134.3242738126
 20
130.3880260581
 30
0.0
 10
134.4765492018
 20
129.250001817
 30
0.0
 10
134.6475914308
 20
128.3473912516
 30
0.0
 10
134.8090441568
 20
127.6767095413
 30
0.0
 10
135.016083065
 20
127.0171433076
 30
0.0
 10
135.288605625
 20
126.3795081681
 30
0.0
 10
135.5996711544
 20
125.8852575121
 30
0.0
 10
135.9250143859
 20
125.5492911312
 30
0.0
 10
136.2147435983
 20
125.3441326033
 30
0.0
 10
136.54699669
 20
125.2104755244
 30
0.0
 10
136.9034637651
 20
125.1647893478
 30
0.0
 10
137.2601285696
 20
125.2018851795
 30
0.0
 10
137.7151802995
 20
125.3371114346
 30
0.0
 10
138.2369403444
 20
125.6204623738
 30
0.0
 10
138.7921482333
 20
126.054553692
 30
0.0
 10
139.2935707456
 20
126.545315524
 30
0.0
 10
139.7517699882
 20
127.0731919202
 30
0.0
 10
140.1746231178
 20
127.6276295245
 30
0.0
 10
140.6978951309
 20
128.393051409
 30
0.0
 10
141.287352405
 20
129.3895172878
 30
0.0
 10
141.9107957492
 20
130.6280250592
 30
0.0
 10
142.4618941864
 20
131.8979376787
 30
0.0
 10
142.9483767201
 20
133.1920257025
 30
0.0
 10
143.2333116447
 20
134.0680344048
 30
0.0
 10
143.3664912316
 20
134.5085475577
 30
0.0
  0
SPLINE
  5
515
100
AcDbEntity
  8
KONSTRUKTIONSELEMENTE
100
AcDbSpline
 62
7
  6
CONTINUOUS
 70
0
 71
3
 72
33
 73
29
 74
0
 42
0.0000001
 43
0.0000001
 44
0.0000000001
 40
0.0
 40
0.0
 40
0.0
 40
0.0
 40
0.0621725734
 40
0.1244040403
 40
0.1867076444
 40
0.2491029445
 40
0.3116183171
 40
0.3429433538
 40
0.3743216439
 40
0.4057675707
 40
0.4373025061
 40
0.4689577353
 40
0.5007663432
 40
0.5167786827
 40
0.5328231295
 40
0.5488589041
 40
0.564831071
 40
0.5807008592
 40
0.5964677511
 40
0.6277509368
 40
0.6589015066
 40
0.689983652
 40
0.7210286053
 40
0.7520519864
 40
0.814058185
 40
0.8760457895
 40
0.9380249025
 40
1.0
 40
1.0
 40
1.0
 40
1.0
 10
143.3664912316
 20
156.5085475577
 30
0.0
 10
143.2333119006
 20
156.9490598644
 30
0.0
 10
142.948377578
 20
157.8250667975
 30
0.0
 10
142.4618961456
 20
159.119152275
 30
0.0
 10
141.9107991619
 20
160.3890623929
 30
0.0
 10
141.2873583428
 20
161.6275681371
 30
0.0
 10
140.6979017637
 20
162.6240313679
 30
0.0
 10
140.174632481
 20
163.3894525178
 30
0.0
 10
139.751781703
 20
163.943889891
 30
0.0
 10
139.2935850494
 20
164.471766588
 30
0.0
 10
138.7921658585
 20
164.9625275151
 30
0.0
 10
138.2369652153
 20
165.3966228834
 30
0.0
 10
137.7152041937
 20
165.6799587826
 30
0.0
 10
137.2601608821
 20
165.8152156168
 30
0.0
 10
136.903491688
 20
165.8522981703
 30
0.0
 10
136.5470267699
 20
165.8066121894
 30
0.0
 10
136.2147585324
 20
165.6729775552
 30
0.0
 10
135.9250207904
 20
165.4678130868
 30
0.0
 10
135.5996718792
 20
165.1318365244
 30
0.0
 10
135.2886023469
 20
164.6375814997
 30
0.0
 10
135.0160793529
 20
163.9999414939
 30
0.0
 10
134.809041454
 20
163.3403750767
 30
0.0
 10
134.6475893299
 20
162.6696941071
 30
0.0
 10
134.4765477067
 20
161.7670848922
 30
0.0
 10
134.3242733237
 20
160.6290624017
 30
0.0
 10
134.2014046422
 20
159.2577621856
 30
0.0
 10
134.1180967754
 20
157.8837992263
 30
0.0
 10
134.0804047524
 20
156.9670188257
 30
0.0
 10
134.0646352977
 20
156.5085475577
 30
0.0
  0
SPLINE
  5
516
100
AcDbEntity
  8
0
100
AcDbSpline
 62
7
  6
CONTINUOUS
 70
0
 71
3
 72
9
 73
5
 74
0
 42
0.0000001
 43
0.0000001
 44
0.0000000001
 40
0.0
 40
0.0
 40
0.0
 40
0.0
 40
0.5052275049
 40
1.0
 40
1.0
 40
1.0
 40
1.0
 10
202.4050073914
 20
180.3839779516
 30
0.0
 10
202.5515126047
 20
180.1103312605
 30
0.0
 10
202.7800667266
 20
179.53282943
 30
0.0
 10
202.8587468313
 20
178.9160319145
 30
0.0
 10
202.8587107943
 20
178.6120581823
 30
0.0
  0
SPLINE
  5
517
100
AcDbEntity
  8
KONSTRUKTIONSELEMENTE
100
AcDbSpline
 62
7
  6
CONTINUOUS
 70
0
 71
3
 72
14
 73
10
 74
0
 42
0.0000001
 43
0.0000001
 44
0.0000000001
 40
0.0
 40
0.0
 40
0.0
 40
0.0
 40
0.1743619957
 40
0.3820727197
 40
0.5029786241
 40
0.6400105295
 40
0.8011374201
 40
0.8953528947
 40
1.0
 40
1.0
 40
1.0
 40
1.0
 10
143.3664912316
 20
21.7990755411
 30
0.0
 10
143.0603816183
 20
21.5277750136
 30
0.0
 10
142.3385250668
 20
20.990079685
 30
0.0
 10
141.3007209588
 20
20.4212553768
 30
0.0
 10
140.2955646199
 20
19.9916712143
 30
0.0
 10
139.3644650952
 20
19.6732821267
 30
0.0
 10
138.4686870095
 20
19.4533399122
 30
0.0
 10
137.6329933034
 20
19.3278921077
 30
0.0
 10
137.1662601276
 20
19.2990168402
 30
0.0
 10
136.920770857
 20
19.2990943679
 30
0.0
  0
SPLINE
  5
518
100
AcDbEntity
  8
KONSTRUKTIONSELEMENTE
100
AcDbSpline
 62
7
  6
CONTINUOUS
 70
0
 71
3
 72
14
 73
10
 74
0
 42
0.0000001
 43
0.0000001
 44
0.0000000001
 40
0.0
 40
0.0
 40
0.0
 40
0.0
 40
0.1046459681
 40
0.1988626208
 40
0.3599900217
 40
0.49702193
 40
0.6179278421
 40
0.8256382985
 40
1.0
 40
1.0
 40
1.0
 40
1.0
 10
95.9793072078
 20
19.2990923092
 30
0.0
 10
95.7338195929
 20
19.299008689
 30
0.0
 10
95.2670842851
 20
19.3278906643
 30
0.0
 10
94.4313858873
 20
19.4533359023
 30
0.0
 10
93.5355991014
 20
19.6732766354
 30
0.0
 10
92.6044947462
 20
19.9916678337
 30
0.0
 10
91.5993340356
 20
20.421251707
 30
0.0
 10
90.5615268016
 20
20.9900779019
 30
0.0
 10
89.8396681198
 20
21.5277743507
 30
0.0
 10
89.5335577586
 20
21.7990755411
 30
0.0
  0
SPLINE
  5
519
100
AcDbEntity
  8
KONSTRUKTIONSELEMENTE
100
AcDbSpline
 62
7
  6
CONTINUOUS
 70
0
 71
3
 72
14
 73
10
 74
0
 42
0.0000001
 43
0.0000001
 44
0.0000000001
 40
0.0
 40
0.0
 40
0.0
 40
0.0
 40
0.1046472013
 40
0.1988629942
 40
0.3599902197
 40
0.4970221718
 40
0.6179279918
 40
0.8256384019
 40
1.0
 40
1.0
 40
1.0
 40
1.0
 10
136.9207268823
 20
30.299056742
 30
0.0
 10
137.1662179089
 20
30.2991358334
 30
0.0
 10
137.6329551884
 20
30.2702633997
 30
0.0
 10
138.4686563633
 20
30.1448176829
 30
0.0
 10
139.3644422088
 20
29.9248758931
 30
0.0
 10
140.2955487426
 20
29.6064861264
 30
0.0
 10
141.300711081
 20
29.1769007323
 30
0.0
 10
142.3385205052
 20
28.6080746122
 30
0.0
 10
143.0603804068
 20
28.0703771422
 30
0.0
 10
143.3664912316
 20
27.7990755411
 30
0.0
  0
SPLINE
  5
51A
100
AcDbEntity
  8
KONSTRUKTIONSELEMENTE
100
AcDbSpline
 62
7
  6
CONTINUOUS
 70
0
 71
3
 72
14
 73
10
 74
0
 42
0.0000001
 43
0.0000001
 44
0.0000000001
 40
0.0
 40
0.0
 40
0.0
 40
0.0
 40
0.1743621068
 40
0.3820729048
 40
0.5029788303
 40
0.6400107008
 40
0.8011374999
 40
0.8953530086
 40
1.0
 40
1.0
 40
1.0
 40
1.0
 10
89.5335577586
 20
27.7990755411
 30
0.0
 10
89.839666939
 20
28.0703756849
 30
0.0
 10
90.5615223021
 20
28.6080702262
 30
0.0
 10
91.5993244971
 20
29.1768939779
 30
0.0
 10
92.6044787859
 20
29.6064775862
 30
0.0
 10
93.5355759159
 20
29.9248666298
 30
0.0
 10
94.4313518485
 20
30.1448089146
 30
0.0
 10
95.2670432105
 20
30.2702572449
 30
0.0
 10
95.7337751704
 20
30.2991348374
 30
0.0
 10
95.9792636702
 20
30.2990569297
 30
0.0
  0
SPLINE
  5
51B
100
AcDbEntity
  8
0
100
AcDbSpline
 62
7
  6
CONTINUOUS
 70
0
 71
3
 72
13
 73
9
 74
0
 42
0.0000001
 43
0.0000001
 44
0.0000000001
 40
0.0
 40
0.0
 40
0.0
 40
0.0
 40
0.3575758896
 40
0.6354778526
 40
0.746712854
 40
0.8418726757
 40
0.9244845999
 40
1.0
 40
1.0
 40
1.0
 40
1.0
 10
118.5499078258
 20
19.7515696229
 30
0.0
 10
118.5254302497
 20
19.684750855
 30
0.0
 10
118.4773142317
 20
19.5676501907
 30
0.0
 10
118.4029172883
 20
19.4378411642
 30
0.0
 10
118.3399862947
 20
19.3644306672
 30
0.0
 10
118.2955335725
 20
19.3273637368
 30
0.0
 10
118.2500380669
 20
19.3044034918
 30
0.0
 10
118.2183900954
 20
19.2990671737
 30
0.0
 10
118.2033617984
 20
19.299075628
 30
0.0
  0
SPLINE
  5
51C
100
AcDbEntity
  8
0
100
AcDbSpline
 62
7
  6
CONTINUOUS
 70
0
 71
3
 72
9
 73
5
 74
0
 42
0.0000001
 43
0.0000001
 44
0.0000000001
 40
0.0
 40
0.0
 40
0.0
 40
0.0
 40
0.2661584408
 40
1.0
 40
1.0
 40
1.0
 40
1.0
 10
123.2512869829
 20
19.5195938598
 30
0.0
 10
123.2336412116
 20
19.5036373857
 30
0.0
 10
123.1656756958
 20
19.4456189769
 30
0.0
 10
123.090316371
 20
19.3957869283
 30
0.0
 10
123.0314320278
 20
19.366887196
 30
0.0
  0
SPLINE
  5
51D
100
AcDbEntity
  8
0
100
AcDbSpline
 62
7
  6
CONTINUOUS
 70
0
 71
3
 72
9
 73
5
 74
0
 42
0.0000001
 43
0.0000001
 44
0.0000000001
 40
0.0
 40
0.0
 40
0.0
 40
0.0
 40
0.2559130243
 40
1.0
 40
1.0
 40
1.0
 40
1.0
 10
122.400478137
 20
19.3702242452
 30
0.0
 10
122.391435452
 20
19.365680639
 30
0.0
 10
122.3557587727
 20
19.3486196353
 30
0.0
 10
122.3186861146
 20
19.3344367972
 30
0.0
 10
122.2905506979
 20
19.3258221956
 30
0.0
  0
SPLINE
  5
51E
100
AcDbEntity
  8
0
100
AcDbSpline
 62
7
  6
CONTINUOUS
 70
0
 71
3
 72
9
 73
5
 74
0
 42
0.0000001
 43
0.0000001
 44
0.0000000001
 40
0.0
 40
0.0
 40
0.0
 40
0.0
 40
0.2317503173
 40
1.0
 40
1.0
 40
1.0
 40
1.0
 10
108.9946160251
 20
19.3380271239
 30
0.0
 10
108.9920040339
 20
19.3406987188
 30
0.0
 10
108.981034342
 20
19.3525209358
 30
0.0
 10
108.9712068905
 20
19.3653703182
 30
0.0
 10
108.9641476528
 20
19.3755474881
 30
0.0
  0
SPLINE
  5
51F
100
AcDbEntity
  8
0
100
AcDbSpline
 62
7
  6
CONTINUOUS
 70
0
 71
3
 72
9
 73
5
 74
0
 42
0.0000001
 43
0.0000001
 44
0.0000000001
 40
0.0
 40
0.0
 40
0.0
 40
0.0
 40
0.245582057
 40
1.0
 40
1.0
 40
1.0
 40
1.0
 10
108.9641476528
 20
19.3755474881
 30
0.0
 10
108.9522068764
 20
19.3803706617
 30
0.0
 10
108.9039159081
 20
19.4008249304
 30
0.0
 10
108.8569896171
 20
19.4244702161
 30
0.0
 10
108.8224886145
 20
19.4438286747
 30
0.0
  0
LINE
  5
520
100
AcDbEntity
  8
0
100
AcDbLine
 62
7
  6
CONTINUOUS
 10
125.8907200259
 20
19.299094183
 11
124.8412845509
 21
19.2991020118
  0
SPLINE
  5
521
100
AcDbEntity
  8
0
100
AcDbSpline
 62
7
  6
CONTINUOUS
 70
0
 71
3
 72
9
 73
5
 74
0
 42
0.0000001
 43
0.0000001
 44
0.0000000001
 40
0.0
 40
0.0
 40
0.0
 40
0.0
 40
0.2305744342
 40
1.0
 40
1.0
 40
1.0
 40
1.0
 10
130.0386878384
 20
19.508291198
 30
0.0
 10
130.037447147
 20
19.5162034743
 30
0.0
 10
130.0322316991
 20
19.5505449008
 30
0.0
 10
130.02761824
 20
19.5849760541
 30
0.0
 10
130.0242994548
 20
19.611495044
 30
0.0
  0
SPLINE
  5
522
100
AcDbEntity
  8
0
100
AcDbSpline
 62
7
  6
CONTINUOUS
 70
0
 71
3
 72
10
 73
6
 74
0
 42
0.0000001
 43
0.0000001
 44
0.0000000001
 40
0.0
 40
0.0
 40
0.0
 40
0.0
 40
0.5185011265
 40
0.7618392946
 40
1.0
 40
1.0
 40
1.0
 40
1.0
 10
127.9456589603
 20
19.7527795218
 30
0.0
 10
127.7620351062
 20
19.6120046332
 30
0.0
 10
127.4618302023
 20
19.437850637
 30
0.0
 10
127.0299339872
 20
19.3187433168
 30
0.0
 10
126.8145341508
 20
19.2990580663
 30
0.0
 10
126.7082568603
 20
19.2990761083
 30
0.0
  0
SPLINE
  5
523
100
AcDbEntity
  8
0
100
AcDbSpline
 62
7
  6
CONTINUOUS
 70
0
 71
3
 72
13
 73
9
 74
0
 42
0.0000001
 43
0.0000001
 44
0.0000000001
 40
0.0
 40
0.0
 40
0.0
 40
0.0
 40
0.0996903624
 40
0.182902015
 40
0.2922069161
 40
0.4284756083
 40
0.5919621692
 40
1.0
 40
1.0
 40
1.0
 40
1.0
 10
115.5319512874
 20
19.2990759036
 30
0.0
 10
115.516343045
 20
19.2990713853
 30
0.0
 10
115.4928271166
 20
19.3244501617
 30
0.0
 10
115.4729782917
 20
19.363766505
 30
0.0
 10
115.454273767
 20
19.4124646399
 30
0.0
 10
115.4362651322
 20
19.4737351811
 30
0.0
 10
115.4101881882
 20
19.5815761813
 30
0.0
 10
115.3942364772
 20
19.6696530551
 30
0.0
 10
115.3839171082
 20
19.7326994547
 30
0.0
  0
SPLINE
  5
524
100
AcDbEntity
  8
0
100
AcDbSpline
 62
7
  6
CONTINUOUS
 70
0
 71
3
 72
9
 73
5
 74
0
 42
0.0000001
 43
0.0000001
 44
0.0000000001
 40
0.0
 40
0.0
 40
0.0
 40
0.0
 40
0.2453995908
 40
1.0
 40
1.0
 40
1.0
 40
1.0
 10
105.1882493699
 20
19.3380271249
 30
0.0
 10
105.1812560765
 20
19.3406468824
 30
0.0
 10
105.1529387096
 20
19.3517998138
 30
0.0
 10
105.1253664875
 20
19.3648251767
 30
0.0
 10
105.1050598178
 20
19.3755474867
 30
0.0
  0
ELLIPSE
  5
525
100
AcDbEntity
  8
0
100
AcDbEllipse
 62
7
  6
CONTINUOUS
 10
116.4500244951
 20
77.2319527718
 30
0.0
 11
-0.0
 21
23.8297843933
 31
0.0
 40
0.8392858143
 41
4.8352874542
 42
4.8503259527
  0
ELLIPSE
  5
526
100
AcDbEntity
  8
0
100
AcDbEllipse
 62
7
  6
CONTINUOUS
 10
116.4500244951
 20
83.9553443427
 30
0.0
 11
0.0
 21
61.2764715643
 31
0.0
 40
0.3263895503
 41
-1.6646842019
 42
-1.6584083549
  0
ELLIPSE
  5
527
100
AcDbEntity
  8
0
100
AcDbEllipse
 62
7
  6
CONTINUOUS
 10
116.4500244951
 20
80.7638663186
 30
0.0
 11
-0.0
 21
27.2340393066
 31
0.0
 40
0.7343750875
 41
-1.6835349933
 42
-1.6646842019
  0
ELLIPSE
  5
528
100
AcDbEntity
  8
0
100
AcDbEllipse
 62
7
  6
CONTINUOUS
 10
116.4500244951
 20
79.4234401247
 30
0.0
 11
20.0
 21
0.0
 31
0.0
 40
0.7659569903
 41
-0.1379370085
 42
-0.1127386665
  0
ELLIPSE
  5
529
100
AcDbEntity
  8
0
100
AcDbEllipse
 62
7
  6
CONTINUOUS
 10
116.4500244951
 20
77.8787605425
 30
0.0
 11
20.0
 21
0.0
 31
0.0
 40
0.2042553727
 41
-0.1695613439
 42
-0.1379370085
  0
ELLIPSE
  5
52A
100
AcDbEntity
  8
0
100
AcDbEllipse
 62
7
  6
CONTINUOUS
 10
116.4500244951
 20
79.8191856748
 30
0.0
 11
20.0
 21
-0.0
 31
0.0
 40
0.2042553727
 41
0.1379370085
 42
0.1695613439
  0
ELLIPSE
  5
52B
100
AcDbEntity
  8
0
100
AcDbEllipse
 62
7
  6
CONTINUOUS
 10
116.4500244951
 20
78.2745060926
 30
0.0
 11
20.0
 21
-0.0
 31
0.0
 40
0.7659569903
 41
0.1127386665
 42
0.1379370085
  0
ELLIPSE
  5
52C
100
AcDbEntity
  8
0
100
AcDbEllipse
 62
7
  6
CONTINUOUS
 10
116.4500244951
 20
76.9340798987
 30
0.0
 11
0.0
 21
27.2340393066
 31
0.0
 40
0.7343750875
 41
-1.4769084517
 42
-1.4580576603
  0
ELLIPSE
  5
52D
100
AcDbEntity
  8
0
100
AcDbEllipse
 62
7
  6
CONTINUOUS
 10
116.4500244951
 20
73.7426018745
 30
0.0
 11
0.0
 21
61.2764715643
 31
0.0
 40
0.3263895503
 41
-1.4831842987
 42
-1.4769084517
  0
ELLIPSE
  5
52E
100
AcDbEntity
  8
0
100
AcDbEllipse
 62
7
  6
CONTINUOUS
 10
116.4500244951
 20
101.1894177128
 30
0.0
 11
0.0
 21
61.2766468779
 31
0.0
 40
0.3263886165
 41
-1.9551931013
 42
-1.948460227
  0
ELLIPSE
  5
52F
100
AcDbEntity
  8
0
100
AcDbEllipse
 62
7
  6
CONTINUOUS
 10
116.4500244951
 20
88.4234398736
 30
0.0
 11
0.0
 21
27.2340393066
 31
0.0
 40
0.7343750875
 41
-1.975503929
 42
-1.9551931013
  0
ELLIPSE
  5
530
100
AcDbEntity
  8
0
100
AcDbEllipse
 62
7
  6
CONTINUOUS
 10
116.4500244951
 20
83.7319525093
 30
0.0
 11
20.0
 21
-0.0
 31
0.0
 40
0.7659575381
 41
-0.4320683779
 42
-0.4047076022
  0
ELLIPSE
  5
531
100
AcDbEntity
  8
0
100
AcDbEllipse
 62
7
  6
CONTINUOUS
 10
116.4500244951
 20
79.0276959622
 30
0.0
 11
20.0
 21
-0.0
 31
0.0
 40
0.2042552558
 41
-0.466765339
 42
-0.4320683779
  0
ELLIPSE
  5
532
100
AcDbEntity
  8
0
100
AcDbEllipse
 62
7
  6
CONTINUOUS
 10
116.4500244951
 20
78.6702502551
 30
0.0
 11
20.0
 21
-0.0
 31
0.0
 40
0.2042552558
 41
0.4320683779
 42
0.466765339
  0
ELLIPSE
  5
533
100
AcDbEntity
  8
0
100
AcDbEllipse
 62
7
  6
CONTINUOUS
 10
116.4500244951
 20
73.965993708
 30
0.0
 11
20.0
 21
0.0
 31
0.0
 40
0.7659575381
 41
0.4047076022
 42
0.4320683779
  0
ELLIPSE
  5
534
100
AcDbEntity
  8
0
100
AcDbEllipse
 62
7
  6
CONTINUOUS
 10
116.4500244951
 20
69.2745063437
 30
0.0
 11
0.0
 21
27.2340393066
 31
0.0
 40
0.7343750875
 41
-1.1863995523
 42
-1.1660887246
  0
ELLIPSE
  5
535
100
AcDbEntity
  8
0
100
AcDbEllipse
 62
7
  6
CONTINUOUS
 10
116.4500244951
 20
56.5085285045
 30
0.0
 11
0.0
 21
61.2766468779
 31
0.0
 40
0.3263886165
 41
-1.1931324266
 42
-1.1863995523
  0
ELLIPSE
  5
536
100
AcDbEntity
  8
0
100
AcDbEllipse
 62
7
  6
CONTINUOUS
 10
116.4500244951
 20
77.4234194392
 30
0.0
 11
0.0
 21
81.70242959
 31
0.0
 40
0.244790762
 41
-1.5019920408
 42
-1.4957258477
  0
ELLIPSE
  5
537
100
AcDbEntity
  8
0
100
AcDbEllipse
 62
7
  6
CONTINUOUS
 10
116.4500244951
 20
80.9340833723
 30
0.0
 11
0.0
 21
30.6382357822
 31
0.0
 40
0.6527791007
 41
-1.5145166333
 42
-1.5019920408
  0
ELLIPSE
  5
538
100
AcDbEntity
  8
0
100
AcDbEllipse
 62
7
  6
CONTINUOUS
 10
116.4500244951
 20
81.8915263084
 30
0.0
 11
20.0
 21
0.0
 31
0.0
 40
0.6808512211
 41
0.0375087827
 42
0.0562796935
  0
ELLIPSE
  5
539
100
AcDbEntity
  8
0
100
AcDbEllipse
 62
7
  6
CONTINUOUS
 10
116.4500244951
 20
82.2106752534
 30
0.0
 11
20.0
 21
0.0
 31
0.0
 40
0.2553189968
 41
0.0125003255
 42
0.0375087827
  0
ELLIPSE
  5
53A
100
AcDbEntity
  8
0
100
AcDbEllipse
 62
7
  6
CONTINUOUS
 10
116.4500244951
 20
86.4872712785
 30
0.0
 11
20.0
 21
-0.0
 31
0.0
 40
0.2042552558
 41
0.2205332548
 42
0.2526802551
  0
ELLIPSE
  5
53B
100
AcDbEntity
  8
0
100
AcDbEllipse
 62
7
  6
CONTINUOUS
 10
116.4500244951
 20
84.0298238605
 30
0.0
 11
20.0
 21
-0.0
 31
0.0
 40
0.7659575381
 41
0.1949831456
 42
0.2205332548
  0
ELLIPSE
  5
53C
100
AcDbEntity
  8
0
100
AcDbEllipse
 62
7
  6
CONTINUOUS
 10
116.4500244951
 20
81.721314205
 30
0.0
 11
0.0
 21
27.2340393066
 31
0.0
 40
0.7343750875
 41
-1.3948905586
 42
-1.3758131812
  0
ELLIPSE
  5
53D
100
AcDbEntity
  8
0
100
AcDbEllipse
 62
7
  6
CONTINUOUS
 10
116.4500244951
 20
75.7638578801
 30
0.0
 11
0.0
 21
61.2766468779
 31
0.0
 40
0.3263886165
 41
-1.4012349769
 42
-1.3948905586
  0
ELLIPSE
  5
53E
100
AcDbEntity
  8
0
100
AcDbEllipse
 62
7
  6
CONTINUOUS
 10
116.4500244951
 20
95.9340883372
 30
0.0
 11
0.0
 21
61.2766468779
 31
0.0
 40
0.3263886165
 41
-1.746702095
 42
-1.7403576767
  0
ELLIPSE
  5
53F
100
AcDbEntity
  8
0
100
AcDbEllipse
 62
7
  6
CONTINUOUS
 10
116.4500244951
 20
89.9766320122
 30
0.0
 11
0.0
 21
27.2340393066
 31
0.0
 40
0.7343750875
 41
-1.7657794724
 42
-1.746702095
  0
ELLIPSE
  5
540
100
AcDbEntity
  8
0
100
AcDbEllipse
 62
7
  6
CONTINUOUS
 10
116.4500244951
 20
86.6787605367
 30
0.0
 11
20.0
 21
-0.0
 31
0.0
 40
0.5106383587
 41
-0.2205332548
 42
-0.1949831456
  0
ELLIPSE
  5
541
100
AcDbEntity
  8
0
100
AcDbEllipse
 62
7
  6
CONTINUOUS
 10
116.4500244951
 20
73.0262783433
 30
0.0
 11
0.0
 21
52.1985816956
 31
0.0
 40
0.3831521729
 41
-1.4075725293
 42
-1.350263072
  0
ELLIPSE
  5
542
100
AcDbEntity
  8
0
100
AcDbEllipse
 62
7
  6
CONTINUOUS
 10
116.4500244951
 20
72.0617616575
 30
0.0
 11
0.0
 21
100.8508594497
 31
0.0
 40
0.1958337302
 41
-1.4625035236
 42
-1.4566243888
  0
ELLIPSE
  5
543
100
AcDbEntity
  8
0
100
AcDbEllipse
 62
7
  6
CONTINUOUS
 10
116.4500244951
 20
78.7638669958
 30
0.0
 11
19.75
 21
0.0
 31
0.0
 40
0.3404254913
 41
0.1460886891
 42
0.1653088211
  0
ELLIPSE
  5
544
100
AcDbEntity
  8
0
100
AcDbEllipse
 62
7
  6
CONTINUOUS
 10
116.4500244951
 20
76.8064177828
 30
0.0
 11
0.0
 21
20.1702295973
 31
0.0
 40
0.9791658496
 41
-1.4374904675
 42
-1.4247076377
  0
ELLIPSE
  5
545
100
AcDbEntity
  8
0
100
AcDbEllipse
 62
7
  6
CONTINUOUS
 10
116.4500244951
 20
71.4447341909
 30
0.0
 11
0.0
 21
60.5105156698
 31
0.0
 40
0.3263895503
 41
-1.4438735601
 42
-1.4374904675
  0
ELLIPSE
  5
546
100
AcDbEntity
  8
0
100
AcDbEllipse
 62
7
  6
CONTINUOUS
 10
116.4500244951
 20
86.3808715856
 30
0.0
 11
0.0
 21
60.5105156698
 31
0.0
 40
0.3263895503
 41
-1.7041021861
 42
-1.6977190935
  0
ELLIPSE
  5
547
100
AcDbEntity
  8
0
100
AcDbEllipse
 62
7
  6
CONTINUOUS
 10
116.4500244951
 20
79.0617387807
 30
0.0
 11
20.0
 21
0.0
 31
0.0
 40
0.3404254913
 41
-0.1632237914
 42
-0.1442497255
  0
ELLIPSE
  5
548
100
AcDbEntity
  8
0
100
AcDbEllipse
 62
7
  6
CONTINUOUS
 10
116.4500244951
 20
81.0191879937
 30
0.0
 11
0.0
 21
20.4255489593
 31
0.0
 40
0.9791658496
 41
-1.7150460523
 42
-1.7024261093
  0
ELLIPSE
  5
549
100
AcDbEntity
  8
0
100
AcDbEllipse
 62
7
  6
CONTINUOUS
 10
116.4500244951
 20
86.3808715856
 30
0.0
 11
0.0
 21
61.2764715643
 31
0.0
 40
0.3263895503
 41
-1.7024261093
 42
-1.6961241459
  0
ELLIPSE
  5
54A
100
AcDbEntity
  8
0
100
AcDbEllipse
 62
7
  6
CONTINUOUS
 10
116.4500244951
 20
81.0191879937
 30
0.0
 11
0.0
 21
20.1702295973
 31
0.0
 40
0.9791658496
 41
-1.7168850159
 42
-1.7041021861
  0
ELLIPSE
  5
54B
100
AcDbEntity
  8
0
100
AcDbEllipse
 62
7
  6
CONTINUOUS
 10
116.4500244951
 20
79.0617387807
 30
0.0
 11
19.75
 21
-0.0
 31
0.0
 40
0.3404254913
 41
-0.1653088211
 42
-0.1460886891
  0
ELLIPSE
  5
54C
100
AcDbEntity
  8
0
100
AcDbEllipse
 62
7
  6
CONTINUOUS
 10
116.4500244951
 20
76.8489734853
 30
0.0
 11
19.75
 21
-0.0
 31
0.0
 40
0.3404254913
 41
6.7280987518
 42
6.7492420547
  0
ELLIPSE
  5
54D
100
AcDbEntity
  8
0
100
AcDbEllipse
 62
7
  6
CONTINUOUS
 10
116.4500244951
 20
71.0617441908
 30
0.0
 11
0.0
 21
20.1702007436
 31
0.0
 40
0.9791672503
 41
-1.1398602086
 42
-1.1258828822
  0
ELLIPSE
  5
54E
100
AcDbEntity
  8
0
100
AcDbEllipse
 62
7
  6
CONTINUOUS
 10
116.4500244951
 20
54.2106542466
 30
0.0
 11
0.0
 21
60.5106887919
 31
0.0
 40
0.3263886165
 41
-1.1468151164
 42
-1.1398602086
  0
ELLIPSE
  5
54F
100
AcDbEntity
  8
0
100
AcDbEllipse
 62
7
  6
CONTINUOUS
 10
116.4500244951
 20
71.4447341909
 30
0.0
 11
0.0
 21
61.2764715643
 31
0.0
 40
0.3263895503
 41
-1.4454685076
 42
-1.4391665443
  0
ELLIPSE
  5
550
100
AcDbEntity
  8
0
100
AcDbEllipse
 62
7
  6
CONTINUOUS
 10
116.4500244951
 20
76.8064177828
 30
0.0
 11
0.0
 21
20.4255489593
 31
0.0
 40
0.9791658496
 41
-1.4391665443
 42
-1.4265466013
  0
ELLIPSE
  5
551
100
AcDbEntity
  8
0
100
AcDbEllipse
 62
7
  6
CONTINUOUS
 10
116.4500244951
 20
78.7638669958
 30
0.0
 11
20.0
 21
-0.0
 31
0.0
 40
0.3404254913
 41
0.1442497255
 42
0.1632237914
  0
ELLIPSE
  5
552
100
AcDbEntity
  8
0
100
AcDbEllipse
 62
7
  6
CONTINUOUS
 10
116.4500244951
 20
103.61495153
 30
0.0
 11
0.0
 21
60.5106887919
 31
0.0
 40
0.3263886165
 41
-2.0017324449
 42
-1.9947775372
  0
ELLIPSE
  5
553
100
AcDbEntity
  8
0
100
AcDbEllipse
 62
7
  6
CONTINUOUS
 10
116.4500244951
 20
86.7638615857
 30
0.0
 11
0.0
 21
20.1702007436
 31
0.0
 40
0.9791672503
 41
-2.0157097714
 42
-2.0017324449
  0
ELLIPSE
  5
554
100
AcDbEntity
  8
0
100
AcDbEllipse
 62
7
  6
CONTINUOUS
 10
116.4500244951
 20
80.9766322912
 30
0.0
 11
19.75
 21
-0.0
 31
0.0
 40
0.3404254913
 41
-0.4660567476
 42
-0.4449134446
  0
ELLIPSE
  5
555
100
AcDbEntity
  8
0
100
AcDbEllipse
 62
7
  6
CONTINUOUS
 10
116.4500244951
 20
81.1893988251
 30
0.0
 11
19.75
 21
-0.0
 31
0.0
 40
0.5106380606
 41
0.0443183037
 42
0.0581343681
  0
ELLIPSE
  5
556
100
AcDbEntity
  8
0
100
AcDbEllipse
 62
7
  6
CONTINUOUS
 10
116.4500244951
 20
80.9766322912
 30
0.0
 11
20.0
 21
0.0
 31
0.0
 40
0.3404254913
 41
-0.4597789302
 42
-0.4389618922
  0
ELLIPSE
  5
557
100
AcDbEntity
  8
0
100
AcDbEllipse
 62
7
  6
CONTINUOUS
 10
116.4500244951
 20
86.7638615857
 30
0.0
 11
0.0
 21
20.4255197403
 31
0.0
 40
0.9791672503
 41
-2.009758219
 42
-1.9959930541
  0
ELLIPSE
  5
558
100
AcDbEntity
  8
0
100
AcDbEllipse
 62
7
  6
CONTINUOUS
 10
116.4500244951
 20
103.61495153
 30
0.0
 11
0.0
 21
61.2766468779
 31
0.0
 40
0.3263886165
 41
-1.9959930541
 42
-1.9891427198
  0
ELLIPSE
  5
559
100
AcDbEntity
  8
0
100
AcDbEllipse
 62
7
  6
CONTINUOUS
 10
116.4500244951
 20
54.2106542466
 30
0.0
 11
0.0
 21
61.2766468779
 31
0.0
 40
0.3263886165
 41
-1.1524499338
 42
-1.1455995994
  0
ELLIPSE
  5
55A
100
AcDbEntity
  8
0
100
AcDbEllipse
 62
7
  6
CONTINUOUS
 10
116.4500244951
 20
71.0617441908
 30
0.0
 11
0.0
 21
20.4255197403
 31
0.0
 40
0.9791672503
 41
-1.1455995994
 42
-1.1318344346
  0
ELLIPSE
  5
55B
100
AcDbEntity
  8
0
100
AcDbEllipse
 62
7
  6
CONTINUOUS
 10
116.4500244951
 20
76.8489734853
 30
0.0
 11
20.0
 21
-0.0
 31
0.0
 40
0.3404254913
 41
0.4389618922
 42
0.4597789302
  0
ELLIPSE
  5
55C
100
AcDbEntity
  8
0
100
AcDbEllipse
 62
7
  6
CONTINUOUS
 10
116.4500244951
 20
81.4574836614
 30
0.0
 11
19.75
 21
-0.0
 31
0.0
 40
0.2042553906
 41
6.2958438852
 42
6.3275036109
  0
ELLIPSE
  5
55D
100
AcDbEntity
  8
0
100
AcDbEllipse
 62
7
  6
CONTINUOUS
 10
116.4500244951
 20
85.2106754506
 30
0.0
 11
19.75
 21
-0.0
 31
0.0
 40
0.3404254913
 41
0.2298670857
 42
0.2494132931
  0
ELLIPSE
  5
55E
100
AcDbEntity
  8
0
100
AcDbEllipse
 62
7
  6
CONTINUOUS
 10
116.4500244951
 20
82.1468481389
 30
0.0
 11
-0.0
 21
20.1702007436
 31
0.0
 40
0.9791672503
 41
-1.3539100727
 42
-1.3409292411
  0
ELLIPSE
  5
55F
100
AcDbEntity
  8
0
100
AcDbEllipse
 62
7
  6
CONTINUOUS
 10
116.4500244951
 20
73.4659836222
 30
0.0
 11
0.0
 21
60.5106887919
 31
0.0
 40
0.3263886165
 41
-1.3603864387
 42
-1.3539100727
  0
ELLIPSE
  5
560
100
AcDbEntity
  8
0
100
AcDbEllipse
 62
7
  6
CONTINUOUS
 10
116.4500244951
 20
98.3596221544
 30
0.0
 11
0.0
 21
60.5106887919
 31
0.0
 40
0.3263886165
 41
-1.7876825809
 42
-1.7812062149
  0
ELLIPSE
  5
561
100
AcDbEntity
  8
0
100
AcDbEllipse
 62
7
  6
CONTINUOUS
 10
116.4500244951
 20
89.6787576376
 30
0.0
 11
0.0
 21
20.1702007436
 31
0.0
 40
0.9791672503
 41
-1.8006634125
 42
-1.7876825809
  0
ELLIPSE
  5
562
100
AcDbEntity
  8
0
100
AcDbEllipse
 62
7
  6
CONTINUOUS
 10
116.4500244951
 20
86.6149303259
 30
0.0
 11
19.75
 21
-0.0
 31
0.0
 40
0.3404254913
 41
-0.2494132931
 42
-0.2298670857
  0
ELLIPSE
  5
563
100
AcDbEntity
  8
0
100
AcDbEllipse
 62
7
  6
CONTINUOUS
 10
116.4500244951
 20
70.4500357837
 30
0.0
 11
0.0
 21
52.9468124179
 31
0.0
 40
0.3730158455
 41
-1.3603864387
 42
-1.3082984464
  0
ELLIPSE
  5
564
100
AcDbEntity
  8
0
100
AcDbEllipse
 62
7
  6
CONTINUOUS
 10
116.4500244951
 20
81.4574836614
 30
0.0
 11
20.0
 21
-0.0
 31
0.0
 40
0.2042553906
 41
0.0125003375
 42
0.0437639687
  0
ELLIPSE
  5
565
100
AcDbEntity
  8
0
100
AcDbEllipse
 62
7
  6
CONTINUOUS
 10
116.4500244951
 20
81.1893988251
 30
0.0
 11
20.0
 21
-0.0
 31
0.0
 40
0.5106380606
 41
0.0437639687
 42
0.068804286
  0
ELLIPSE
  5
566
100
AcDbEntity
  8
0
100
AcDbEllipse
 62
7
  6
CONTINUOUS
 10
116.4500244951
 20
80.4872694228
 30
0.0
 11
-0.0
 21
20.4255507474
 31
0.0
 40
0.9791657639
 41
-1.5019920408
 42
-1.4769084637
  0
ELLIPSE
  5
567
100
AcDbEntity
  8
0
100
AcDbEllipse
 62
7
  6
CONTINUOUS
 10
116.4500244951
 20
78.572379427
 30
0.0
 11
0.0
 21
40.8510466332
 31
0.0
 40
0.4895835394
 41
-1.4769084637
 42
-1.4643453999
  0
ELLIPSE
  5
568
100
AcDbEntity
  8
0
100
AcDbEllipse
 62
7
  6
CONTINUOUS
 10
116.4500244951
 20
72.0617616575
 30
0.0
 11
0.0
 21
102.1274526072
 31
0.0
 40
0.1958337302
 41
-1.4643453999
 42
-1.4580576543
  0
ELLIPSE
  5
569
100
AcDbEntity
  8
0
100
AcDbEllipse
 62
7
  6
CONTINUOUS
 10
116.4500244951
 20
86.6149303259
 30
0.0
 11
20.0
 21
0.0
 31
0.0
 40
0.3404254913
 41
-0.2462306146
 42
-0.2269430423
  0
ELLIPSE
  5
56A
100
AcDbEntity
  8
0
100
AcDbEllipse
 62
7
  6
CONTINUOUS
 10
116.4500244951
 20
89.6787576376
 30
0.0
 11
0.0
 21
20.4255197403
 31
0.0
 40
0.9791672503
 41
-1.7977393691
 42
-1.7849290099
  0
ELLIPSE
  5
56B
100
AcDbEntity
  8
0
100
AcDbEllipse
 62
7
  6
CONTINUOUS
 10
116.4500244951
 20
98.3596221544
 30
0.0
 11
0.0
 21
61.2766468779
 31
0.0
 40
0.3263886165
 41
-1.7849290099
 42
-1.7785373349
  0
ELLIPSE
  5
56C
100
AcDbEntity
  8
0
100
AcDbEllipse
 62
7
  6
CONTINUOUS
 10
116.4500244951
 20
73.4659836222
 30
0.0
 11
0.0
 21
61.2766468779
 31
0.0
 40
0.3263886165
 41
-1.3630553187
 42
-1.3566636437
  0
ELLIPSE
  5
56D
100
AcDbEntity
  8
0
100
AcDbEllipse
 62
7
  6
CONTINUOUS
 10
116.4500244951
 20
82.1468481389
 30
0.0
 11
0.0
 21
20.4255197403
 31
0.0
 40
0.9791672503
 41
-1.3566636437
 42
-1.3438532845
  0
ELLIPSE
  5
56E
100
AcDbEntity
  8
0
100
AcDbEllipse
 62
7
  6
CONTINUOUS
 10
116.4500244951
 20
85.2106754506
 30
0.0
 11
20.0
 21
-0.0
 31
0.0
 40
0.3404254913
 41
0.2269430423
 42
0.2462306146
  0
ELLIPSE
  5
56F
100
AcDbEntity
  8
0
100
AcDbEllipse
 62
7
  6
CONTINUOUS
 10
116.4500244951
 20
70.4500357837
 30
0.0
 11
0.0
 21
53.6170252333
 31
0.0
 40
0.3730158455
 41
-1.3630553187
 42
-1.3116556632
  0
ENDSEC
  0
SECTION
  2
OBJECTS
  0
DICTIONARY
  5
C
100
AcDbDictionary
280
0
281
1
  3
ACAD_GROUP
350
D
  3
ACAD_MLINESTYLE
350
17
  3
ACAD_LAYOUT
350
1A
  3
ACAD_PLOTSETTINGS
350
19
  3
ACAD_PLOTSTYLENAME
350
E
  0
DICTIONARY
  5
D
102
{ACAD_REACTORS
330
C
102
}
100
AcDbDictionary
280
0
281
1
  0
ACDBDICTIONARYWDFLT
  5
E
102
{ACAD_REACTORS
330
C
102
}
100
AcDbDictionary
281
1
  3
Normal
350
F
100
AcDbDictionaryWithDefault
340
F
  0
DICTIONARY
  5
17
102
{ACAD_REACTORS
330
C
102
}
100
AcDbDictionary
280
0
281
1
  3
Standard
350
18
  0
DICTIONARY
  5
19
102
{ACAD_REACTORS
330
C
102
}
100
AcDbDictionary
281
1
  0
DICTIONARY
  5
1A
102
{ACAD_REACTORS
330
C
102
}
100
AcDbDictionary
281
1
  3
Model
350
570
  3
Layout1
350
571
  0
ACDBPLACEHOLDER
  5
F
102
{ACAD_REACTORS
330
E
102
}
  0
MLINESTYLE
  5
18
102
{ACAD_REACTORS
330
17
102
}
100
AcDbMlineStyle
  2
STANDARD
 70
0
  3

 62
256
 51
90.0
 52
90.0
 71
2
 49
0.5
 62
256
  6
BYLAYER
 49
-0.5
 62
256
  6
BYLAYER
  0
LAYOUT
  5
570
102
{ACAD_REACTORS
330
1A
102
}
100
AcDbPlotSettings
  1

  2
none_device
  4
ISO_A4_(297.00_x_210.00_MM)
  6

 40
0.0
 41
0.0
 42
0.0
 43
0.0
 44
297.0
 45
210.0
 46
0.0
 47
0.0
 48
0.0
 49
0.0
140
0.0
141
0.0
142
1.0
143
1.0
 70
1024
 72
1
 73
0
 74
0
  7

 75
0
147
1.0
148
0.0
149
0.0
100
AcDbLayout
  1
Model
 70
0
 71
0
 10
0.0
 20
0.0
 11
297.0
 21
210.0
 12
0.0
 22
0.0
 32
0.0
 14
0.0
 24
0.0
 34
0.0
 15
0.0
 25
0.0
 35
0.0
146
0.0
 13
0.0
 23
0.0
 33
0.0
 16
1.0
 26
0.0
 36
0.0
 17
0.0
 27
1.0
 37
0.0
 76
0
330
20C
345
0
346
0
  0
LAYOUT
  5
571
102
{ACAD_REACTORS
330
1A
102
}
100
AcDbPlotSettings
  1

  2
none_device
  4
ISO_A4_(297.00_x_210.00_MM)
  6

 40
0.0
 41
0.0
 42
0.0
 43
0.0
 44
297.0
 45
210.0
 46
0.0
 47
0.0
 48
0.0
 49
0.0
140
0.0
141
0.0
142
1.0
143
1.0
 70
0
 72
1
 73
0
 74
0
  7

 75
0
147
1.0
148
0.0
149
0.0
100
AcDbLayout
  1
Layout1
 70
0
 71
1
 10
0.0
 20
0.0
 11
297.0
 21
210.0
 12
0.0
 22
0.0
 32
0.0
 14
0.0
 24
0.0
 34
0.0
 15
0.0
 25
0.0
 35
0.0
146
0.0
 13
0.0
 23
0.0
 33
0.0
 16
1.0
 26
0.0
 36
0.0
 17
0.0
 27
1.0
 37
0.0
 76
0
330
20D
345
0
346
0
  0
ENDSEC
  0
EOF
