999
DXF file: 001-m31453-p-50.dxf
999
Pro/ENGINEER 2011490 by Parametric Technology Corporation
  0
SECTION
  2
HEADER
  9
$ACADVER
  1
AC1015
  9
$DWGCODEPAGE
  3
ANSI_1252
  9
$EXTMAX
 10
297.0
 20
210.0
 30
0.0
  9
$EXTMIN
 10
0.0
 20
0.0
 30
0.0
  9
$LIMMIN
 10
0.0
 20
0.0
  9
$LIMMAX
 10
297.0
 20
210.0
  9
$VIEWCTR
 10
148.5
 20
105.0
  9
$VIEWSIZE
 40
210.0
  9
$CLAYER
  8
0
  9
$LTSCALE
 40
16.335
  9
$CELTYPE
  6
BYLAYER
  9
$DIMSCALE
 40
1.0
  9
$DIMASZ
 40
3.5
  9
$DIMEXO
 40
1.85625
  9
$DIMDLI
 40
11.286
  9
$DIMEXE
 40
5.346
  9
$DIMCEN
 40
2.673
  9
$DIMLFAC
 40
1.0
  9
$DIMBLK
  1
_FILLED
  9
$DIMTXT
 40
3.5
  9
$DIMTOL
 70
1
  9
$DIMLIM
 70
0
  9
$DIMTFAC
 40
1.0
  9
$DIMTP
 40
0.005
  9
$DIMTM
 40
0.005
  9
$PDMODE
 70
3
  9
$PDSIZE
 40
0.3125
  9
$HANDSEED
  5
630
  9
$TILEMODE
 70
1
  9
$MEASUREMENT
 70
1
  9
$INSUNITS
 70
4
  0
ENDSEC
  0
SECTION
  2
CLASSES
  0
CLASS
  1
ACDBDICTIONARYWDFLT
  2
AcDbDictionaryWithDefault
  3
AutoCAD 2000
 90
0
280
0
281
0
  0
CLASS
  1
ACDBPLACEHOLDER
  2
AcDbPlaceHolder
  3
AutoCAD 2000
 90
0
280
0
281
0
  0
CLASS
  1
LAYOUT
  2
AcDbLayout
  3
AutoCAD 2000
 90
0
280
0
281
0
  0
ENDSEC
  0
SECTION
  2
TABLES
  0
TABLE
  2
VPORT
  5
8
100
AcDbSymbolTable
 70
2
  0
VPORT
  5
1F4
100
AcDbSymbolTableRecord
100
AcDbViewportTableRecord
  2
*ACTIVE
 70
0
 10
0.0
 20
0.0
 11
1.0
 21
1.0
 12
148.5
 22
105.0
 13
0.0
 23
0.0
 14
1.0
 24
1.0
 15
0.0
 25
0.0
 16
0.0
 26
0.0
 36
1.0
 17
0.0
 27
0.0
 37
0.0
 40
210.0
 41
1.4142857143
 42
50.0
 43
0.0
 44
0.0
 50
0.0
 51
0.0
 71
0
 72
100
 73
1
 74
1
 75
0
 76
0
 77
0
 78
0
  0
ENDTAB
  0
TABLE
  2
LTYPE
  5
5
100
AcDbSymbolTable
 70
6
  0
LTYPE
  5
14
100
AcDbSymbolTableRecord
100
AcDbLinetypeTableRecord
  2
BYBLOCK
 70
0
  3

 72
65
 73
0
 40
0.0
  0
LTYPE
  5
15
100
AcDbSymbolTableRecord
100
AcDbLinetypeTableRecord
  2
BYLAYER
 70
0
  3

 72
65
 73
0
 40
0.0
  0
LTYPE
  5
16
100
AcDbSymbolTableRecord
100
AcDbLinetypeTableRecord
  2
CONTINUOUS
 70
64
  3
Solid line
 72
65
 73
0
 40
0.0
  0
LTYPE
  5
1F5
100
AcDbSymbolTableRecord
100
AcDbLinetypeTableRecord
  2
CENTER
 70
64
  3
____ _ ____ _ ____ _ ____ _ ____ _ ____ _ ____
 72
65
 73
4
 40
0.6
 49
0.375
 74
0
 49
-0.075
 74
0
 49
0.075
 74
0
 49
-0.075
 74
0
  0
LTYPE
  5
1F6
100
AcDbSymbolTableRecord
100
AcDbLinetypeTableRecord
  2
HIDDEN
 70
64
  3
- - - - - - - - - - - - - - - - - - - -
 72
65
 73
2
 40
0.2
 49
0.1
 74
0
 49
-0.1
 74
0
  0
LTYPE
  5
1F7
100
AcDbSymbolTableRecord
100
AcDbLinetypeTableRecord
  2
PHANTOM
 70
64
  3
_____ _ _ _____ _ _ _____ _ _ _____
 72
65
 73
6
 40
0.8
 49
0.45
 74
0
 49
-0.05
 74
0
 49
0.1
 74
0
 49
-0.05
 74
0
 49
0.1
 74
0
 49
-0.05
 74
0
  0
LTYPE
  5
1F8
100
AcDbSymbolTableRecord
100
AcDbLinetypeTableRecord
  2
DOT
 70
64
  3
. . . . . . . . . . . . . . . . . . . .
 72
65
 73
2
 40
0.2
 49
0.1
 74
0
 49
-0.1
 74
0
  0
LTYPE
  5
1F9
100
AcDbSymbolTableRecord
100
AcDbLinetypeTableRecord
  2
DASHED
 70
64
  3
- - - - - - - - - - - - - - - - - - - -
 72
65
 73
2
 40
0.2
 49
0.1
 74
0
 49
-0.1
 74
0
  0
ENDTAB
  0
TABLE
  2
LAYER
  5
2
100
AcDbSymbolTable
 70
36
  0
LAYER
  5
10
100
AcDbSymbolTableRecord
100
AcDbLayerTableRecord
  2
0
 70
0
 62
7
  6
CONTINUOUS
370
-3
390
F
  0
LAYER
  5
1FA
100
AcDbSymbolTableRecord
100
AcDbLayerTableRecord
  2
DEFAULT_1
 70
0
 62
7
  6
CENTER
370
-3
390
F
  0
LAYER
  5
1FB
100
AcDbSymbolTableRecord
100
AcDbLayerTableRecord
  2
DEFAULT_2
 70
0
 62
8
  6
HIDDEN
370
-3
390
F
  0
LAYER
  5
1FC
100
AcDbSymbolTableRecord
100
AcDbLayerTableRecord
  2
DEFAULT_3
 70
0
 62
7
  6
PHANTOM
370
-3
390
F
  0
LAYER
  5
1FD
100
AcDbSymbolTableRecord
100
AcDbLayerTableRecord
  2
BEZUGSACHSEN
 70
0
 62
7
  6
CONTINUOUS
370
-3
390
F
  0
LAYER
  5
1FE
100
AcDbSymbolTableRecord
100
AcDbLayerTableRecord
  2
BEZUGSEBENEN
 70
0
 62
7
  6
CONTINUOUS
370
-3
390
F
  0
LAYER
  5
1FF
100
AcDbSymbolTableRecord
100
AcDbLayerTableRecord
  2
BG_STARTBEZUEGE
 70
0
 62
7
  6
CONTINUOUS
370
-3
390
F
  0
LAYER
  5
200
100
AcDbSymbolTableRecord
100
AcDbLayerTableRecord
  2
FASEN
 70
0
 62
7
  6
CONTINUOUS
370
-3
390
F
  0
LAYER
  5
201
100
AcDbSymbolTableRecord
100
AcDbLayerTableRecord
  2
HILFEN
 70
0
 62
7
  6
CONTINUOUS
370
-3
390
F
  0
LAYER
  5
202
100
AcDbSymbolTableRecord
100
AcDbLayerTableRecord
  2
KONSTRUKTIONSELEMENTE
 70
0
 62
7
  6
CONTINUOUS
370
-3
390
F
  0
LAYER
  5
203
100
AcDbSymbolTableRecord
100
AcDbLayerTableRecord
  2
KURVEN
 70
0
 62
7
  6
CONTINUOUS
370
-3
390
F
  0
LAYER
  5
204
100
AcDbSymbolTableRecord
100
AcDbLayerTableRecord
  2
NORM
 70
0
 62
7
  6
CONTINUOUS
370
-3
390
F
  0
LAYER
  5
205
100
AcDbSymbolTableRecord
100
AcDbLayerTableRecord
  2
PLATZIERUNG
 70
0
 62
7
  6
CONTINUOUS
370
-3
390
F
  0
LAYER
  5
206
100
AcDbSymbolTableRecord
100
AcDbLayerTableRecord
  2
PLAZIERUNG
 70
0
 62
7
  6
CONTINUOUS
370
-3
390
F
  0
LAYER
  5
207
100
AcDbSymbolTableRecord
100
AcDbLayerTableRecord
  2
RUNDUNGEN
 70
0
 62
7
  6
CONTINUOUS
370
-3
390
F
  0
LAYER
  5
208
100
AcDbSymbolTableRecord
100
AcDbLayerTableRecord
  2
TEIL_STARTBEZUEGE
 70
0
 62
7
  6
CONTINUOUS
370
-3
390
F
  0
LAYER
  5
209
100
AcDbSymbolTableRecord
100
AcDbLayerTableRecord
  2
T_STARTBEZUEGE
 70
0
 62
7
  6
CONTINUOUS
370
-3
390
F
  0
LAYER
  5
20A
100
AcDbSymbolTableRecord
100
AcDbLayerTableRecord
  2
ZEICHNUNGSBEMASSUNGEN
 70
0
 62
7
  6
CONTINUOUS
370
-3
390
F
  0
ENDTAB
  0
TABLE
  2
STYLE
  5
3
100
AcDbSymbolTable
 70
1
  0
STYLE
  5
11
100
AcDbSymbolTableRecord
100
AcDbTextStyleTableRecord
  2
STANDARD
 70
0
 40
0.0
 41
0.7
 50
0.0
 71
0
 42
0.2
  3
txt
  4

  0
STYLE
  5
20B
100
AcDbSymbolTableRecord
100
AcDbTextStyleTableRecord
  2
TEXTSTYLE_1
 70
0
 40
0.0
 41
0.8
 50
0.0
 71
0
 42
0.2
  3
gdt
  4

  0
ENDTAB
  0
TABLE
  2
VIEW
  5
6
100
AcDbSymbolTable
 70
0
  0
ENDTAB
  0
TABLE
  2
UCS
  5
7
100
AcDbSymbolTable
 70
0
  0
ENDTAB
  0
TABLE
  2
APPID
  5
9
100
AcDbSymbolTable
 70
1
  0
APPID
  5
20C
100
AcDbSymbolTableRecord
100
AcDbRegAppTableRecord
  2
ACAD
 70
0
  0
ENDTAB
  0
TABLE
  2
BLOCK_RECORD
  5
1
100
AcDbSymbolTable
 70
0
  0
BLOCK_RECORD
  5
20D
100
AcDbSymbolTableRecord
100
AcDbBlockTableRecord
  2
*Model_Space
  0
BLOCK_RECORD
  5
20E
100
AcDbSymbolTableRecord
100
AcDbBlockTableRecord
  2
*Paper_Space
  0
ENDTAB
  0
TABLE
  2
DIMSTYLE
  5
A
100
AcDbSymbolTable
 70
1
100
AcDbDimStyleTable
 71
0
  0
DIMSTYLE
105
20F
100
AcDbSymbolTableRecord
100
AcDbDimStyleTableRecord
  2
STANDARD
 70
0
  3

  4

 40
1.0
 41
3.5
 42
0.0625
 43
0.38
 44
0.18
 45
0.0
 46
0.0
 47
0.005
 48
0.005
140
3.5
141
0.09
142
0.0
143
25.4
144
1.0
145
0.0
146
1.0
147
0.09
 71
1.0
 72
0.0
 73
0
 74
0
 75
0
 76
0
 77
1
 78
8
170
0
171
2
172
0
173
0
174
0
175
0
176
0
177
0
178
5
270
2
271
3
272
3
273
2
274
2
275
0
280
0
281
0
282
0
283
1
284
8
285
0
286
0
287
3
288
0
340
11
  0
ENDTAB
  0
ENDSEC
  0
SECTION
  2
BLOCKS
  0
BLOCK
  5
20
100
AcDbEntity
  8
0
100
AcDbBlockBegin
  2
*Model_Space
 70
0
 10
0.0
 20
0.0
 30
0.0
  3
*Model_Space
  1

  0
ENDBLK
  5
21
100
AcDbEntity
  8
0
100
AcDbBlockEnd
  0
BLOCK
  5
1C
100
AcDbEntity
  8
0
100
AcDbBlockBegin
  2
*Paper_Space
 70
0
 10
0.0
 20
0.0
 30
0.0
  3
*Paper_Space
  1

  0
ENDBLK
  5
1D
100
AcDbEntity
  8
0
100
AcDbBlockEnd
  0
ENDSEC
  0
SECTION
  2
ENTITIES
  0
MTEXT
  5
210
100
AcDbEntity
  8
0
100
AcDbMText
 62
5
  6
CONTINUOUS
  7
STANDARD
 71
2
 72
1
 10
108.6481212599
 20
41.6280520988
 30
0.0
 11
0.0
 21
1.0
 31
0.0
 44
0.9
  1
RUD WPPH-B\P0,63t
 40
4.0
 41
34.6666666667
  0
MTEXT
  5
211
100
AcDbEntity
  8
0
100
AcDbMText
 62
5
  6
CONTINUOUS
  7
STANDARD
 71
2
 72
1
 10
182.8306551152
 20
100.8775248477
 30
0.0
 11
1.0
 21
0.0
 31
0.0
 44
0.9
  1
RUD\PWPPH-B 0,63t
 40
3.5
 41
33.0
  0
LINE
  5
212
100
AcDbEntity
  8
0
100
AcDbLine
 62
7
  6
CONTINUOUS
 10
0.0
 20
0.0
 11
0.0
 21
210.0
  0
LINE
  5
213
100
AcDbEntity
  8
0
100
AcDbLine
 62
7
  6
CONTINUOUS
 10
0.0
 20
0.0
 11
297.0
 21
0.0
  0
LINE
  5
214
100
AcDbEntity
  8
0
100
AcDbLine
 62
7
  6
CONTINUOUS
 10
0.0
 20
210.0
 11
297.0
 21
210.0
  0
LINE
  5
215
100
AcDbEntity
  8
0
100
AcDbLine
 62
7
  6
CONTINUOUS
 10
297.0
 20
0.0
 11
297.0
 21
210.0
  0
LINE
  5
216
100
AcDbEntity
  8
0
100
AcDbLine
 62
7
  6
CONTINUOUS
 10
96.4588516769
 20
87.0902640893
 11
129.4579521938
 21
87.0902640893
  0
LINE
  5
217
100
AcDbEntity
  8
0
100
AcDbLine
 62
7
  6
CONTINUOUS
 10
129.9584019353
 20
87.5902640893
 11
95.9584019353
 21
87.5902640893
  0
LINE
  5
218
100
AcDbEntity
  8
KONSTRUKTIONSELEMENTE
100
AcDbLine
 62
7
  6
CONTINUOUS
 10
103.2998579258
 20
190.1227294497
 11
101.9273341629
 21
189.3971835418
  0
LINE
  5
219
100
AcDbEntity
  8
KONSTRUKTIONSELEMENTE
100
AcDbLine
 62
7
  6
CONTINUOUS
 10
109.7066635881
 20
191.6667834841
 11
110.0149029877
 21
191.7965631672
  0
LINE
  5
21A
100
AcDbEntity
  8
KONSTRUKTIONSELEMENTE
100
AcDbLine
 62
7
  6
CONTINUOUS
 10
100.5640270231
 20
188.3706384802
 11
100.2555738715
 21
188.2413681157
  0
LINE
  5
21B
100
AcDbEntity
  8
KONSTRUKTIONSELEMENTE
100
AcDbLine
 62
7
  6
CONTINUOUS
 10
109.9550137022
 20
192.2178595485
 11
109.5827311446
 21
192.0789758257
  0
LINE
  5
21C
100
AcDbEntity
  8
0
100
AcDbLine
 62
7
  6
CONTINUOUS
 10
129.9584019353
 20
89.9796257927
 11
130.2084019353
 21
89.9796257927
  0
LINE
  5
21D
100
AcDbEntity
  8
0
100
AcDbLine
 62
7
  6
CONTINUOUS
 10
123.9128530855
 20
90.4902640893
 11
124.8458953633
 21
90.4902640893
  0
LINE
  5
21E
100
AcDbEntity
  8
0
100
AcDbLine
 62
7
  6
CONTINUOUS
 10
127.2215537609
 20
90.4902640893
 11
127.8244706827
 21
90.4902640893
  0
LINE
  5
21F
100
AcDbEntity
  8
0
100
AcDbLine
 62
7
  6
CONTINUOUS
 10
129.8197646969
 20
90.4902640893
 11
130.0717900913
 21
90.4902640893
  0
LINE
  5
220
100
AcDbEntity
  8
0
100
AcDbLine
 62
7
  6
CONTINUOUS
 10
129.7479488975
 20
90.5753704696
 11
130.0010363325
 21
90.5753704696
  0
LINE
  5
221
100
AcDbEntity
  8
0
100
AcDbLine
 62
7
  6
CONTINUOUS
 10
129.6764477995
 20
90.8306896104
 11
129.9306014839
 21
90.8306896104
  0
LINE
  5
222
100
AcDbEntity
  8
0
100
AcDbLine
 62
7
  6
CONTINUOUS
 10
130.1630524694
 20
90.915796013
 11
130.2011540359
 21
90.915796013
  0
LINE
  5
223
100
AcDbEntity
  8
0
100
AcDbLine
 62
7
  6
CONTINUOUS
 10
130.0138670575
 20
91.0009023859
 11
130.1194042371
 21
91.0009023859
  0
LINE
  5
224
100
AcDbEntity
  8
0
100
AcDbLine
 62
7
  6
CONTINUOUS
 10
129.6284016656
 20
91.0860087587
 11
129.8832768539
 21
91.0860087587
  0
LINE
  5
225
100
AcDbEntity
  8
0
100
AcDbLine
 62
7
  6
CONTINUOUS
 10
129.9741218444
 20
91.1711151315
 11
130.1430607914
 21
91.1711151315
  0
LINE
  5
226
100
AcDbEntity
  8
0
100
AcDbLine
 62
7
  6
CONTINUOUS
 10
129.594206695
 20
91.4264343096
 11
129.849597867
 21
91.4264343096
  0
LINE
  5
227
100
AcDbEntity
  8
0
100
AcDbLine
 62
7
  6
CONTINUOUS
 10
129.5764561085
 20
91.6817534281
 11
129.8321159456
 21
91.6817534281
  0
LINE
  5
228
100
AcDbEntity
  8
0
100
AcDbLine
 62
7
  6
CONTINUOUS
 10
129.9183219867
 20
91.6817534281
 11
130.1689041984
 21
91.6817534281
  0
LINE
  5
229
100
AcDbEntity
  8
0
100
AcDbLine
 62
7
  6
CONTINUOUS
 10
129.0441098775
 20
91.9370725466
 11
129.6552496911
 21
91.9370725466
  0
LINE
  5
22A
100
AcDbEntity
  8
0
100
AcDbLine
 62
7
  6
CONTINUOUS
 10
129.6552496911
 20
92.1072854115
 11
129.8142037028
 21
92.1072854115
  0
LINE
  5
22B
100
AcDbEntity
  8
0
100
AcDbLine
 62
7
  6
CONTINUOUS
 10
129.9238488666
 20
92.1923917844
 11
130.1743506335
 21
92.1923917844
  0
LINE
  5
22C
100
AcDbEntity
  8
0
100
AcDbLine
 62
7
  6
CONTINUOUS
 10
128.6108777778
 20
92.2774981572
 11
127.8244706827
 21
92.2774981572
  0
LINE
  5
22D
100
AcDbEntity
  8
0
100
AcDbLine
 62
7
  6
CONTINUOUS
 10
126.2460842013
 20
92.2774981572
 11
124.8458953633
 21
92.2774981572
  0
LINE
  5
22E
100
AcDbEntity
  8
0
100
AcDbLine
 62
7
  6
CONTINUOUS
 10
129.0441098775
 20
92.36260453
 11
129.6552496911
 21
92.36260453
  0
LINE
  5
22F
100
AcDbEntity
  8
0
100
AcDbLine
 62
7
  6
CONTINUOUS
 10
128.6492078792
 20
92.7881363942
 11
127.8244706827
 21
92.7881363942
  0
LINE
  5
230
100
AcDbEntity
  8
0
100
AcDbLine
 62
7
  6
CONTINUOUS
 10
126.3146322102
 20
92.7881363942
 11
124.8458953633
 21
92.7881363942
  0
LINE
  5
231
100
AcDbEntity
  8
0
100
AcDbLine
 62
7
  6
CONTINUOUS
 10
129.9238488666
 20
92.7881363942
 11
130.1743506335
 21
92.7881363942
  0
LINE
  5
232
100
AcDbEntity
  8
0
100
AcDbLine
 62
7
  6
CONTINUOUS
 10
126.1955549724
 20
92.873242767
 11
126.5151242725
 21
92.873242767
  0
LINE
  5
233
100
AcDbEntity
  8
0
100
AcDbLine
 62
7
  6
CONTINUOUS
 10
128.4877201567
 20
92.873242767
 11
128.7610037598
 21
92.873242767
  0
LINE
  5
234
100
AcDbEntity
  8
0
100
AcDbLine
 62
7
  6
CONTINUOUS
 10
129.5582679958
 20
92.873242767
 11
129.8142037028
 21
92.873242767
  0
LINE
  5
235
100
AcDbEntity
  8
0
100
AcDbLine
 62
7
  6
CONTINUOUS
 10
126.3281438925
 20
93.0434555127
 11
126.6446176285
 21
93.0434555127
  0
LINE
  5
236
100
AcDbEntity
  8
0
100
AcDbLine
 62
7
  6
CONTINUOUS
 10
128.560885712
 20
93.0434555127
 11
128.8329098017
 21
93.0434555127
  0
LINE
  5
237
100
AcDbEntity
  8
0
100
AcDbLine
 62
7
  6
CONTINUOUS
 10
126.3931722683
 20
93.2987746312
 11
126.7081493476
 21
93.2987746312
  0
LINE
  5
238
100
AcDbEntity
  8
0
100
AcDbLine
 62
7
  6
CONTINUOUS
 10
128.5966741441
 20
93.2987746312
 11
128.8680863343
 21
93.2987746312
  0
LINE
  5
239
100
AcDbEntity
  8
0
100
AcDbLine
 62
7
  6
CONTINUOUS
 10
129.5764561085
 20
93.2987746312
 11
129.8321159456
 21
93.2987746312
  0
LINE
  5
23A
100
AcDbEntity
  8
0
100
AcDbLine
 62
7
  6
CONTINUOUS
 10
129.9183219867
 20
93.2987746312
 11
130.1689041984
 21
93.2987746312
  0
LINE
  5
23B
100
AcDbEntity
  8
0
100
AcDbLine
 62
7
  6
CONTINUOUS
 10
96.4584019353
 20
87.0902640893
 11
95.9584019353
 21
87.5902640893
  0
LINE
  5
23C
100
AcDbEntity
  8
KONSTRUKTIONSELEMENTE
100
AcDbLine
 62
7
  6
CONTINUOUS
 10
100.2555738715
 20
188.2413681157
 11
99.0235732911
 21
187.2966920262
  0
LINE
  5
23D
100
AcDbEntity
  8
KONSTRUKTIONSELEMENTE
100
AcDbLine
 62
7
  6
CONTINUOUS
 10
99.5905050114
 20
187.1951750898
 11
100.5658387553
 21
187.9430436232
  0
LINE
  5
23E
100
AcDbEntity
  8
KONSTRUKTIONSELEMENTE
100
AcDbLine
 62
7
  6
CONTINUOUS
 10
102.4693340567
 20
189.2023672717
 11
103.5559154781
 21
189.7767578398
  0
LINE
  5
23F
100
AcDbEntity
  8
KONSTRUKTIONSELEMENTE
100
AcDbLine
 62
7
  6
CONTINUOUS
 10
104.1525224485
 20
188.6481493876
 11
103.0659410271
 21
188.0737588195
  0
LINE
  5
240
100
AcDbEntity
  8
KONSTRUKTIONSELEMENTE
100
AcDbLine
 62
7
  6
CONTINUOUS
 10
103.3045837708
 20
187.622315523
 11
104.333976593
 21
188.1664749539
  0
LINE
  5
241
100
AcDbEntity
  8
KONSTRUKTIONSELEMENTE
100
AcDbLine
 62
7
  6
CONTINUOUS
 10
103.7967025441
 20
185.8608772973
 11
104.1398334849
 21
186.0422637742
  0
LINE
  5
242
100
AcDbEntity
  8
KONSTRUKTIONSELEMENTE
100
AcDbLine
 62
7
  6
CONTINUOUS
 10
110.7663231579
 20
188.8087492154
 11
110.4580837583
 21
188.6789695323
  0
LINE
  5
243
100
AcDbEntity
  8
KONSTRUKTIONSELEMENTE
100
AcDbLine
 62
7
  6
CONTINUOUS
 10
110.5179730521
 20
188.257673092
 11
110.8902556088
 21
188.3965568221
  0
LINE
  5
244
100
AcDbEntity
  8
KONSTRUKTIONSELEMENTE
100
AcDbLine
 62
7
  6
CONTINUOUS
 10
117.4161161442
 20
191.8788937105
 11
117.1247852749
 21
191.7737746164
  0
LINE
  5
245
100
AcDbEntity
  8
KONSTRUKTIONSELEMENTE
100
AcDbLine
 62
7
  6
CONTINUOUS
 10
114.057867907
 20
191.8942097717
 11
114.2575088809
 21
191.965248848
  0
LINE
  5
246
100
AcDbEntity
  8
KONSTRUKTIONSELEMENTE
100
AcDbLine
 62
7
  6
CONTINUOUS
 10
113.9546086115
 20
190.4510907277
 11
114.1542495854
 21
190.522129804
  0
LINE
  5
247
100
AcDbEntity
  8
KONSTRUKTIONSELEMENTE
100
AcDbLine
 62
7
  6
CONTINUOUS
 10
114.6840656317
 20
188.8630645502
 11
114.4844246578
 21
188.7920254739
  0
LINE
  5
248
100
AcDbEntity
  8
0
100
AcDbLine
 62
7
  6
CONTINUOUS
 10
126.3931722683
 20
93.5540939881
 11
126.7081493476
 21
93.5540939881
  0
LINE
  5
249
100
AcDbEntity
  8
0
100
AcDbLine
 62
7
  6
CONTINUOUS
 10
128.5966741441
 20
93.5540939881
 11
128.8680863343
 21
93.5540939881
  0
LINE
  5
24A
100
AcDbEntity
  8
0
100
AcDbLine
 62
7
  6
CONTINUOUS
 10
129.594206695
 20
93.5540939881
 11
129.849597867
 21
93.5540939881
  0
LINE
  5
24B
100
AcDbEntity
  8
0
100
AcDbLine
 62
7
  6
CONTINUOUS
 10
126.3281438925
 20
93.8094131066
 11
126.6446176285
 21
93.8094131066
  0
LINE
  5
24C
100
AcDbEntity
  8
0
100
AcDbLine
 62
7
  6
CONTINUOUS
 10
128.560885712
 20
93.8094131066
 11
128.8329098017
 21
93.8094131066
  0
LINE
  5
24D
100
AcDbEntity
  8
0
100
AcDbLine
 62
7
  6
CONTINUOUS
 10
129.9741218444
 20
93.8094131066
 11
130.1430607914
 21
93.8094131066
  0
LINE
  5
24E
100
AcDbEntity
  8
0
100
AcDbLine
 62
7
  6
CONTINUOUS
 10
129.6284016656
 20
93.8945194794
 11
129.8832768539
 21
93.8945194794
  0
LINE
  5
24F
100
AcDbEntity
  8
0
100
AcDbLine
 62
7
  6
CONTINUOUS
 10
126.1955549724
 20
93.9796258523
 11
126.5151242725
 21
93.9796258523
  0
LINE
  5
250
100
AcDbEntity
  8
0
100
AcDbLine
 62
7
  6
CONTINUOUS
 10
128.4877201567
 20
93.9796258523
 11
128.7610037598
 21
93.9796258523
  0
LINE
  5
251
100
AcDbEntity
  8
0
100
AcDbLine
 62
7
  6
CONTINUOUS
 10
130.0138670575
 20
93.9796258523
 11
130.1194042371
 21
93.9796258523
  0
LINE
  5
252
100
AcDbEntity
  8
0
100
AcDbLine
 62
7
  6
CONTINUOUS
 10
128.6492078792
 20
94.0647322251
 11
127.8244706827
 21
94.0647322251
  0
LINE
  5
253
100
AcDbEntity
  8
0
100
AcDbLine
 62
7
  6
CONTINUOUS
 10
126.3146322102
 20
94.0647322251
 11
124.8458953633
 21
94.0647322251
  0
LINE
  5
254
100
AcDbEntity
  8
0
100
AcDbLine
 62
7
  6
CONTINUOUS
 10
129.6764477995
 20
94.1498385979
 11
129.9306014839
 21
94.1498385979
  0
LINE
  5
255
100
AcDbEntity
  8
0
100
AcDbLine
 62
7
  6
CONTINUOUS
 10
129.7479488975
 20
94.4051577164
 11
130.0010363325
 21
94.4051577164
  0
LINE
  5
256
100
AcDbEntity
  8
0
100
AcDbLine
 62
7
  6
CONTINUOUS
 10
123.9128530855
 20
94.4902640893
 11
126.2460842013
 21
94.4902640893
  0
LINE
  5
257
100
AcDbEntity
  8
0
100
AcDbLine
 62
7
  6
CONTINUOUS
 10
127.2215537609
 20
94.4902640893
 11
128.6108777778
 21
94.4902640893
  0
LINE
  5
258
100
AcDbEntity
  8
0
100
AcDbLine
 62
7
  6
CONTINUOUS
 10
129.8197646969
 20
94.4902640893
 11
130.0717900913
 21
94.4902640893
  0
LINE
  5
259
100
AcDbEntity
  8
0
100
AcDbLine
 62
7
  6
CONTINUOUS
 10
129.2064787446
 20
96.4902640893
 11
129.6111044187
 21
96.4902640893
  0
LINE
  5
25A
100
AcDbEntity
  8
0
100
AcDbLine
 62
7
  6
CONTINUOUS
 10
129.7857523459
 20
96.4902640893
 11
130.2075967651
 21
96.4902640893
  0
LINE
  5
25B
100
AcDbEntity
  8
0
100
AcDbLine
 62
7
  6
CONTINUOUS
 10
130.1107017572
 20
96.5753704696
 11
130.206590246
 21
96.5753704696
  0
LINE
  5
25C
100
AcDbEntity
  8
0
100
AcDbLine
 62
7
  6
CONTINUOUS
 10
130.0997014148
 20
96.7455832376
 11
130.1985359846
 21
96.7455832376
  0
LINE
  5
25D
100
AcDbEntity
  8
0
100
AcDbLine
 62
7
  6
CONTINUOUS
 10
130.084588228
 20
97.0860087587
 11
130.1840288474
 21
97.0860087587
  0
LINE
  5
25E
100
AcDbEntity
  8
0
100
AcDbLine
 62
7
  6
CONTINUOUS
 10
130.0684734384
 20
97.4264343096
 11
130.1743506185
 21
97.4264343096
  0
LINE
  5
25F
100
AcDbEntity
  8
KONSTRUKTIONSELEMENTE
100
AcDbLine
 62
7
  6
CONTINUOUS
 10
104.333976593
 20
188.1664749539
 11
104.5801451439
 21
188.3928708431
  0
LINE
  5
260
100
AcDbEntity
  8
KONSTRUKTIONSELEMENTE
100
AcDbLine
 62
7
  6
CONTINUOUS
 10
101.3426336262
 20
186.9299855577
 11
100.3672998823
 21
186.1821170243
  0
LINE
  5
261
100
AcDbEntity
  8
KONSTRUKTIONSELEMENTE
100
AcDbLine
 62
7
  6
CONTINUOUS
 10
100.6780177726
 20
185.7768938738
 11
101.602018208
 21
186.4854009409
  0
LINE
  5
262
100
AcDbEntity
  8
KONSTRUKTIONSELEMENTE
100
AcDbLine
 62
7
  6
CONTINUOUS
 10
101.4575303887
 20
184.1224436354
 11
101.7655305338
 21
184.3586126578
  0
LINE
  5
263
100
AcDbEntity
  8
KONSTRUKTIONSELEMENTE
100
AcDbLine
 62
7
  6
CONTINUOUS
 10
113.8521528578
 20
191.7382813539
 11
114.057867907
 21
191.8942097717
  0
LINE
  5
264
100
AcDbEntity
  8
KONSTRUKTIONSELEMENTE
100
AcDbLine
 62
7
  6
CONTINUOUS
 10
114.0237154911
 20
192.3232732698
 11
113.6828822599
 21
192.0916889854
  0
LINE
  5
265
100
AcDbEntity
  8
KONSTRUKTIONSELEMENTE
100
AcDbLine
 62
7
  6
CONTINUOUS
 10
117.1512678298
 20
191.3297993205
 11
117.3796975885
 21
191.4500166166
  0
LINE
  5
266
100
AcDbEntity
  8
KONSTRUKTIONSELEMENTE
100
AcDbLine
 62
7
  6
CONTINUOUS
 10
117.7736340022
 20
188.3796523851
 11
117.6279692875
 21
188.3270926653
  0
LINE
  5
267
100
AcDbEntity
  8
KONSTRUKTIONSELEMENTE
100
AcDbLine
 62
7
  6
CONTINUOUS
 10
117.528649609
 20
187.9133137228
 11
117.8199790437
 21
188.0184331841
  0
LINE
  5
268
100
AcDbEntity
  8
KONSTRUKTIONSELEMENTE
100
AcDbLine
 62
7
  6
CONTINUOUS
 10
124.8533434788
 20
187.0528093907
 11
124.6502524965
 21
186.9859928256
  0
LINE
  5
269
100
AcDbEntity
  8
0
100
AcDbLine
 62
7
  6
CONTINUOUS
 10
130.0467031944
 20
97.8519661738
 11
130.1689042146
 21
97.8519661738
  0
LINE
  5
26A
100
AcDbEntity
  8
0
100
AcDbLine
 62
7
  6
CONTINUOUS
 10
129.9306014189
 20
98.2774981572
 11
129.6111044187
 21
98.2774981572
  0
LINE
  5
26B
100
AcDbEntity
  8
0
100
AcDbLine
 62
7
  6
CONTINUOUS
 10
129.9600358301
 20
98.7881363942
 11
129.6111044187
 21
98.7881363942
  0
LINE
  5
26C
100
AcDbEntity
  8
0
100
AcDbLine
 62
7
  6
CONTINUOUS
 10
129.7479489353
 20
98.873242767
 11
130.0010363698
 21
98.873242767
  0
LINE
  5
26D
100
AcDbEntity
  8
0
100
AcDbLine
 62
7
  6
CONTINUOUS
 10
129.7735736561
 20
99.0434555127
 11
130.026281124
 21
99.0434555127
  0
LINE
  5
26E
100
AcDbEntity
  8
0
100
AcDbLine
 62
7
  6
CONTINUOUS
 10
129.7857523459
 20
99.2987746312
 11
130.0382796234
 21
99.2987746312
  0
LINE
  5
26F
100
AcDbEntity
  8
0
100
AcDbLine
 62
7
  6
CONTINUOUS
 10
129.7857523459
 20
99.5540939881
 11
130.0382796234
 21
99.5540939881
  0
LINE
  5
270
100
AcDbEntity
  8
0
100
AcDbLine
 62
7
  6
CONTINUOUS
 10
129.7735736561
 20
99.8094131066
 11
130.026281124
 21
99.8094131066
  0
LINE
  5
271
100
AcDbEntity
  8
0
100
AcDbLine
 62
7
  6
CONTINUOUS
 10
129.7479489353
 20
99.9796258523
 11
130.0010363698
 21
99.9796258523
  0
LINE
  5
272
100
AcDbEntity
  8
0
100
AcDbLine
 62
7
  6
CONTINUOUS
 10
129.9600358301
 20
100.0647322251
 11
129.6111044187
 21
100.0647322251
  0
LINE
  5
273
100
AcDbEntity
  8
0
100
AcDbLine
 62
7
  6
CONTINUOUS
 10
129.2064787446
 20
100.4902640893
 11
130.1955146799
 21
100.4902640893
  0
LINE
  5
274
100
AcDbEntity
  8
KONSTRUKTIONSELEMENTE
100
AcDbLine
 62
7
  6
CONTINUOUS
 10
101.602018208
 20
186.4854009409
 11
101.8068987295
 21
186.7497456889
  0
LINE
  5
275
100
AcDbEntity
  8
KONSTRUKTIONSELEMENTE
100
AcDbLine
 62
7
  6
CONTINUOUS
 10
104.2843141283
 20
188.8140831755
 11
104.1525224485
 21
188.6481493876
  0
LINE
  5
276
100
AcDbEntity
  8
KONSTRUKTIONSELEMENTE
100
AcDbLine
 62
7
  6
CONTINUOUS
 10
109.5827311446
 20
192.0789758257
 11
109.2984474592
 21
191.7806775901
  0
LINE
  5
277
100
AcDbEntity
  8
KONSTRUKTIONSELEMENTE
100
AcDbLine
 62
7
  6
CONTINUOUS
 10
117.1247852749
 20
191.7737746164
 11
116.7937279789
 21
191.5031436201
  0
LINE
  5
278
100
AcDbEntity
  8
KONSTRUKTIONSELEMENTE
100
AcDbLine
 62
7
  6
CONTINUOUS
 10
113.9204561956
 20
190.8801542257
 11
113.5090260974
 21
190.5682973901
  0
LINE
  5
279
100
AcDbEntity
  8
KONSTRUKTIONSELEMENTE
100
AcDbLine
 62
7
  6
CONTINUOUS
 10
113.7488935623
 20
190.2951623099
 11
113.9546086115
 21
190.4510907277
  0
LINE
  5
27A
100
AcDbEntity
  8
KONSTRUKTIONSELEMENTE
100
AcDbLine
 62
7
  6
CONTINUOUS
 10
114.8897806809
 20
189.018992968
 11
114.6840656317
 21
188.8630645502
  0
LINE
  5
27B
100
AcDbEntity
  8
KONSTRUKTIONSELEMENTE
100
AcDbLine
 62
7
  6
CONTINUOUS
 10
114.718216567
 20
188.4340011058
 11
115.0590512767
 21
188.6655853068
  0
LINE
  5
27C
100
AcDbEntity
  8
KONSTRUKTIONSELEMENTE
100
AcDbLine
 62
7
  6
CONTINUOUS
 10
118.1113209094
 20
189.7865007911
 11
118.4225157119
 21
189.9743756635
  0
LINE
  5
27D
100
AcDbEntity
  8
KONSTRUKTIONSELEMENTE
100
AcDbLine
 62
7
  6
CONTINUOUS
 10
117.8199790437
 20
188.0184331841
 11
118.0484088093
 21
188.1386505092
  0
LINE
  5
27E
100
AcDbEntity
  8
KONSTRUKTIONSELEMENTE
100
AcDbLine
 62
7
  6
CONTINUOUS
 10
124.771840158
 20
186.5922721498
 11
125.1247427339
 21
186.762593203
  0
LINE
  5
27F
100
AcDbEntity
  8
KONSTRUKTIONSELEMENTE
100
AcDbLine
 62
7
  6
CONTINUOUS
 10
123.8397296522
 20
185.5808066061
 11
123.636638636
 21
185.5139899919
  0
LINE
  5
280
100
AcDbEntity
  8
KONSTRUKTIONSELEMENTE
100
AcDbLine
 62
7
  6
CONTINUOUS
 10
101.4448473837
 20
187.1156072606
 11
101.3426336262
 21
186.9299855577
  0
LINE
  5
281
100
AcDbEntity
  8
KONSTRUKTIONSELEMENTE
100
AcDbLine
 62
7
  6
CONTINUOUS
 10
109.5384890949
 20
191.4709527083
 11
109.7066635881
 21
191.6667834841
  0
LINE
  5
282
100
AcDbEntity
  8
KONSTRUKTIONSELEMENTE
100
AcDbLine
 62
7
  6
CONTINUOUS
 10
110.9344976511
 20
189.0045799912
 11
110.7663231579
 21
188.8087492154
  0
LINE
  5
283
100
AcDbEntity
  8
KONSTRUKTIONSELEMENTE
100
AcDbLine
 62
7
  6
CONTINUOUS
 10
113.607701305
 20
190.1346171018
 11
113.7488935623
 21
190.2951623099
  0
LINE
  5
284
100
AcDbEntity
  8
KONSTRUKTIONSELEMENTE
100
AcDbLine
 62
7
  6
CONTINUOUS
 10
110.8902556088
 20
188.3965568221
 11
111.174539291
 21
188.6948550799
  0
LINE
  5
285
100
AcDbEntity
  8
KONSTRUKTIONSELEMENTE
100
AcDbLine
 62
7
  6
CONTINUOUS
 10
118.230504509
 20
190.2830354613
 11
118.064975861
 21
190.1477199631
  0
LINE
  5
286
100
AcDbEntity
  8
KONSTRUKTIONSELEMENTE
100
AcDbLine
 62
7
  6
CONTINUOUS
 10
117.9391626642
 20
188.5149679412
 11
117.7736340022
 21
188.3796523851
  0
LINE
  5
287
100
AcDbEntity
  8
KONSTRUKTIONSELEMENTE
100
AcDbLine
 62
7
  6
CONTINUOUS
 10
123.7582262806
 20
185.1202692916
 11
124.1111288735
 21
185.2905903694
  0
LINE
  5
288
100
AcDbEntity
  8
RUNDUNGEN
100
AcDbLine
 62
7
  6
CONTINUOUS
 10
128.4579890553
 20
105.9902640893
 11
123.4582948399
 21
105.9902640893
  0
LINE
  5
289
100
AcDbEntity
  8
RUNDUNGEN
100
AcDbLine
 62
7
  6
CONTINUOUS
 10
102.4584820369
 20
105.9902640893
 11
97.4584019353
 21
105.9902640893
  0
LINE
  5
28A
100
AcDbEntity
  8
KONSTRUKTIONSELEMENTE
100
AcDbLine
 62
7
  6
CONTINUOUS
 10
109.2984474592
 20
191.7806775901
 11
109.142250823
 21
191.500587538
  0
LINE
  5
28B
100
AcDbEntity
  8
KONSTRUKTIONSELEMENTE
100
AcDbLine
 62
7
  6
CONTINUOUS
 10
113.6828822599
 20
192.0916889854
 11
113.4650190604
 21
191.7659818845
  0
LINE
  5
28C
100
AcDbEntity
  8
KONSTRUKTIONSELEMENTE
100
AcDbLine
 62
7
  6
CONTINUOUS
 10
116.9658738088
 20
191.1117283895
 11
117.1512678298
 21
191.3297993205
  0
LINE
  5
28D
100
AcDbEntity
  8
KONSTRUKTIONSELEMENTE
100
AcDbLine
 62
7
  6
CONTINUOUS
 10
118.4225157119
 20
189.9743756635
 11
118.6079082932
 21
190.1924469401
  0
LINE
  5
28E
100
AcDbEntity
  8
KONSTRUKTIONSELEMENTE
100
AcDbLine
 62
7
  6
CONTINUOUS
 10
92.2709019353
 20
159.4626044406
 11
92.0834018459
 21
159.2711151017
  0
LINE
  5
28F
100
AcDbEntity
  8
0
100
AcDbLine
 62
7
  6
CONTINUOUS
 10
106.4584019353
 20
112.4502640893
 11
105.9584019353
 21
112.4502640893
  0
LINE
  5
290
100
AcDbEntity
  8
0
100
AcDbLine
 62
7
  6
CONTINUOUS
 10
106.0421319477
 20
113.1169307758
 11
105.9584019353
 21
113.1169307758
  0
LINE
  5
291
100
AcDbEntity
  8
KONSTRUKTIONSELEMENTE
100
AcDbLine
 62
7
  6
CONTINUOUS
 10
89.4584019353
 20
161.0902640893
 11
89.4584019353
 21
156.5902640893
  0
LINE
  5
292
100
AcDbEntity
  8
KONSTRUKTIONSELEMENTE
100
AcDbLine
 62
7
  6
CONTINUOUS
 10
89.4584019353
 20
155.0902640893
 11
89.4584019353
 21
152.1221789344
  0
LINE
  5
293
100
AcDbEntity
  8
KONSTRUKTIONSELEMENTE
100
AcDbLine
 62
7
  6
CONTINUOUS
 10
89.4584019353
 20
149.0902640893
 11
89.4584019353
 21
144.5902640893
  0
LINE
  5
294
100
AcDbEntity
  8
KONSTRUKTIONSELEMENTE
100
AcDbLine
 62
7
  6
CONTINUOUS
 10
92.3646518459
 20
159.7498384489
 11
92.2709019353
 21
159.4626044406
  0
LINE
  5
295
100
AcDbEntity
  8
KONSTRUKTIONSELEMENTE
100
AcDbLine
 62
7
  6
CONTINUOUS
 10
92.8334019353
 20
159.3668597712
 11
92.9271518459
 21
159.6540937795
  0
LINE
  5
296
100
AcDbEntity
  8
KONSTRUKTIONSELEMENTE
100
AcDbLine
 62
7
  6
CONTINUOUS
 10
111.174539291
 20
188.6948550799
 11
111.330735923
 21
188.9749451614
  0
LINE
  5
297
100
AcDbEntity
  8
KONSTRUKTIONSELEMENTE
100
AcDbLine
 62
7
  6
CONTINUOUS
 10
113.7048865253
 20
191.4928468043
 11
113.8521528578
 21
191.7382813539
  0
LINE
  5
298
100
AcDbEntity
  8
KONSTRUKTIONSELEMENTE
100
AcDbLine
 62
7
  6
CONTINUOUS
 10
115.0590512767
 20
188.6655853068
 11
115.2769144783
 21
188.9912924374
  0
LINE
  5
299
100
AcDbEntity
  8
KONSTRUKTIONSELEMENTE
100
AcDbLine
 62
7
  6
CONTINUOUS
 10
92.5521519353
 20
158.9838810934
 11
92.8334019353
 21
159.3668597712
  0
LINE
  5
29A
100
AcDbEntity
  8
KONSTRUKTIONSELEMENTE
100
AcDbLine
 62
7
  6
CONTINUOUS
 10
118.0484088093
 20
188.1386505092
 11
118.2338028303
 21
188.3567214402
  0
LINE
  5
29B
100
AcDbEntity
  8
KONSTRUKTIONSELEMENTE
100
AcDbLine
 62
7
  6
CONTINUOUS
 10
125.0514223943
 20
187.2264092449
 11
124.8533434788
 21
187.0528093907
  0
LINE
  5
29C
100
AcDbEntity
  8
KONSTRUKTIONSELEMENTE
100
AcDbLine
 62
7
  6
CONTINUOUS
 10
125.1247427339
 20
186.762593203
 11
125.3228216494
 21
186.9361930573
  0
LINE
  5
29D
100
AcDbEntity
  8
KONSTRUKTIONSELEMENTE
100
AcDbLine
 62
7
  6
CONTINUOUS
 10
124.0378085676
 20
185.7544064603
 11
123.8397296522
 21
185.5808066061
  0
LINE
  5
29E
100
AcDbEntity
  8
KONSTRUKTIONSELEMENTE
100
AcDbLine
 62
7
  6
CONTINUOUS
 10
124.1111288735
 20
185.2905903694
 11
124.3092078227
 21
185.4641902727
  0
LINE
  5
29F
100
AcDbEntity
  8
KONSTRUKTIONSELEMENTE
100
AcDbLine
 62
7
  6
CONTINUOUS
 10
92.1771520248
 20
158.7923917546
 11
92.5521519353
 21
158.9838810934
  0
LINE
  5
2A0
100
AcDbEntity
  8
KONSTRUKTIONSELEMENTE
100
AcDbLine
 62
7
  6
CONTINUOUS
 10
92.0834018459
 20
159.2711151017
 11
91.8021518459
 21
159.1753704323
  0
LINE
  5
2A1
100
AcDbEntity
  8
0
100
AcDbLine
 62
7
  6
CONTINUOUS
 10
106.4584019353
 20
114.3664366759
 11
105.9584019353
 21
114.3664366759
  0
LINE
  5
2A2
100
AcDbEntity
  8
0
100
AcDbLine
 62
7
  6
CONTINUOUS
 10
106.4584019353
 20
116.0164366759
 11
105.9584019353
 21
116.0164366759
  0
LINE
  5
2A3
100
AcDbEntity
  8
0
100
AcDbLine
 62
7
  6
CONTINUOUS
 10
106.4584019353
 20
116.9164366759
 11
105.9584019353
 21
116.9164366759
  0
LINE
  5
2A4
100
AcDbEntity
  8
KONSTRUKTIONSELEMENTE
100
AcDbLine
 62
7
  6
CONTINUOUS
 10
90.0209019353
 20
145.164732173
 11
90.0209019353
 21
148.5157960727
  0
LINE
  5
2A5
100
AcDbEntity
  8
KONSTRUKTIONSELEMENTE
100
AcDbLine
 62
7
  6
CONTINUOUS
 10
90.0209019353
 20
152.1221789344
 11
90.0209019353
 21
155.0902640893
  0
LINE
  5
2A6
100
AcDbEntity
  8
KONSTRUKTIONSELEMENTE
100
AcDbLine
 62
7
  6
CONTINUOUS
 10
90.0209019353
 20
156.5902640893
 11
90.0209019353
 21
158.6009024157
  0
LINE
  5
2A7
100
AcDbEntity
  8
KONSTRUKTIONSELEMENTE
100
AcDbLine
 62
7
  6
CONTINUOUS
 10
90.0209019353
 20
159.1753704323
 11
90.0209019353
 21
160.6115407421
  0
LINE
  5
2A8
100
AcDbEntity
  8
KONSTRUKTIONSELEMENTE
100
AcDbLine
 62
7
  6
CONTINUOUS
 10
92.2709019353
 20
155.0902640893
 11
92.2709019353
 21
152.1221789344
  0
LINE
  5
2A9
100
AcDbEntity
  8
KONSTRUKTIONSELEMENTE
100
AcDbLine
 62
7
  6
CONTINUOUS
 10
92.3646518459
 20
160.0370727255
 11
92.3646518459
 21
159.7498384489
  0
LINE
  5
2AA
100
AcDbEntity
  8
KONSTRUKTIONSELEMENTE
100
AcDbLine
 62
7
  6
CONTINUOUS
 10
92.6459018459
 20
147.5583491101
 11
92.6459018459
 21
146.1221789344
  0
LINE
  5
2AB
100
AcDbEntity
  8
KONSTRUKTIONSELEMENTE
100
AcDbLine
 62
7
  6
CONTINUOUS
 10
92.8334019353
 20
152.1221789344
 11
92.8334019353
 21
155.0902640893
  0
LINE
  5
2AC
100
AcDbEntity
  8
KONSTRUKTIONSELEMENTE
100
AcDbLine
 62
7
  6
CONTINUOUS
 10
92.9271518459
 20
159.6540937795
 11
92.9271518459
 21
160.0370727255
  0
LINE
  5
2AD
100
AcDbEntity
  8
KONSTRUKTIONSELEMENTE
100
AcDbLine
 62
7
  6
CONTINUOUS
 10
93.2084018459
 20
146.1221789344
 11
93.2084018459
 21
147.5583491101
  0
LINE
  5
2AE
100
AcDbEntity
  8
KONSTRUKTIONSELEMENTE
100
AcDbLine
 62
7
  6
CONTINUOUS
 10
92.7396520248
 20
151.6434555872
 11
92.8334019353
 21
152.1221789344
  0
LINE
  5
2AF
100
AcDbEntity
  8
KONSTRUKTIONSELEMENTE
100
AcDbLine
 62
7
  6
CONTINUOUS
 10
93.1146519353
 20
145.6434555872
 11
93.2084018459
 21
146.1221789344
  0
LINE
  5
2B0
100
AcDbEntity
  8
KONSTRUKTIONSELEMENTE
100
AcDbLine
 62
7
  6
CONTINUOUS
 10
92.2709019353
 20
152.1221789344
 11
92.1771520248
 21
151.7392002566
  0
LINE
  5
2B1
100
AcDbEntity
  8
KONSTRUKTIONSELEMENTE
100
AcDbLine
 62
7
  6
CONTINUOUS
 10
92.6459018459
 20
146.1221789344
 11
92.5521519353
 21
145.7392002566
  0
LINE
  5
2B2
100
AcDbEntity
  8
KONSTRUKTIONSELEMENTE
100
AcDbLine
 62
7
  6
CONTINUOUS
 10
104.5801451439
 20
188.3928708431
 11
104.6895778416
 21
188.7395168671
  0
LINE
  5
2B3
100
AcDbEntity
  8
KONSTRUKTIONSELEMENTE
100
AcDbLine
 62
7
  6
CONTINUOUS
 10
92.5521519353
 20
151.2604768424
 11
92.7396520248
 21
151.6434555872
  0
LINE
  5
2B4
100
AcDbEntity
  8
KONSTRUKTIONSELEMENTE
100
AcDbLine
 62
7
  6
CONTINUOUS
 10
92.9271518459
 20
145.2604768424
 11
93.1146519353
 21
145.6434555872
  0
LINE
  5
2B5
100
AcDbEntity
  8
KONSTRUKTIONSELEMENTE
100
AcDbLine
 62
7
  6
CONTINUOUS
 10
115.0370470176
 20
189.2644275771
 11
114.8897806809
 21
189.018992968
  0
LINE
  5
2B6
100
AcDbEntity
  8
KONSTRUKTIONSELEMENTE
100
AcDbLine
 62
7
  6
CONTINUOUS
 10
92.1771520248
 20
151.7392002566
 11
91.9896519353
 21
151.4519662483
  0
LINE
  5
2B7
100
AcDbEntity
  8
KONSTRUKTIONSELEMENTE
100
AcDbLine
 62
7
  6
CONTINUOUS
 10
92.5521519353
 20
145.7392002566
 11
92.3646518459
 21
145.4519662483
  0
LINE
  5
2B8
100
AcDbEntity
  8
KONSTRUKTIONSELEMENTE
100
AcDbLine
 62
7
  6
CONTINUOUS
 10
118.4357610236
 20
190.5838625162
 11
118.230504509
 21
190.2830354613
  0
LINE
  5
2B9
100
AcDbEntity
  8
KONSTRUKTIONSELEMENTE
100
AcDbLine
 62
7
  6
CONTINUOUS
 10
118.0417916413
 20
188.6653812959
 11
117.9391626642
 21
188.5149679412
  0
LINE
  5
2BA
100
AcDbEntity
  8
KONSTRUKTIONSELEMENTE
100
AcDbLine
 62
7
  6
CONTINUOUS
 10
92.1771520248
 20
150.8774981311
 11
92.5521519353
 21
151.2604768424
  0
LINE
  5
2BB
100
AcDbEntity
  8
KONSTRUKTIONSELEMENTE
100
AcDbLine
 62
7
  6
CONTINUOUS
 10
91.9896519353
 20
151.4519662483
 11
91.7084019353
 21
151.2604768424
  0
LINE
  5
2BC
100
AcDbEntity
  8
0
100
AcDbLine
 62
7
  6
CONTINUOUS
 10
106.4584019353
 20
118.5664366759
 11
105.9584019353
 21
118.5664366759
  0
LINE
  5
2BD
100
AcDbEntity
  8
KONSTRUKTIONSELEMENTE
100
AcDbLine
 62
7
  6
CONTINUOUS
 10
90.114651913
 20
151.7392002566
 11
90.0209019353
 21
152.1221789344
  0
LINE
  5
2BE
100
AcDbEntity
  8
KONSTRUKTIONSELEMENTE
100
AcDbLine
 62
7
  6
CONTINUOUS
 10
89.4584019353
 20
152.1221789344
 11
89.5521519381
 21
151.6434555872
  0
LINE
  5
2BF
100
AcDbEntity
  8
0
100
AcDbLine
 62
7
  6
CONTINUOUS
 10
95.9584019353
 20
104.4902640893
 11
95.9584019353
 21
87.5902640893
  0
LINE
  5
2C0
100
AcDbEntity
  8
KONSTRUKTIONSELEMENTE
100
AcDbLine
 62
7
  6
CONTINUOUS
 10
101.8068987295
 20
186.7497456889
 11
101.8568731654
 21
187.1098032415
  0
LINE
  5
2C1
100
AcDbEntity
  8
KONSTRUKTIONSELEMENTE
100
AcDbLine
 62
7
  6
CONTINUOUS
 10
104.3191434183
 20
189.0250263757
 11
104.2843141283
 21
188.8140831755
  0
LINE
  5
2C2
100
AcDbEntity
  8
KONSTRUKTIONSELEMENTE
100
AcDbLine
 62
7
  6
CONTINUOUS
 10
109.3541829054
 20
190.9289805517
 11
109.5384890949
 21
191.4709527083
  0
LINE
  5
2C3
100
AcDbEntity
  8
KONSTRUKTIONSELEMENTE
100
AcDbLine
 62
7
  6
CONTINUOUS
 10
111.1188038658
 20
189.5465519707
 11
110.9344976511
 21
189.0045799912
  0
LINE
  5
2C4
100
AcDbEntity
  8
KONSTRUKTIONSELEMENTE
100
AcDbLine
 62
7
  6
CONTINUOUS
 10
113.4650190604
 20
191.7659818845
 11
113.3056045605
 21
191.3507684139
  0
LINE
  5
2C5
100
AcDbEntity
  8
KONSTRUKTIONSELEMENTE
100
AcDbLine
 62
7
  6
CONTINUOUS
 10
116.7937279789
 20
191.5031436201
 11
116.6513711352
 21
191.1872187087
  0
LINE
  5
2C6
100
AcDbEntity
  8
KONSTRUKTIONSELEMENTE
100
AcDbLine
 62
7
  6
CONTINUOUS
 10
118.2338028303
 20
188.3567214402
 11
118.3562943149
 21
188.5898909768
  0
LINE
  5
2C7
100
AcDbEntity
  8
KONSTRUKTIONSELEMENTE
100
AcDbLine
 62
7
  6
CONTINUOUS
 10
124.0755552009
 20
189.3450349173
 11
121.8069908031
 21
186.0505523217
  0
LINE
  5
2C8
100
AcDbEntity
  8
KONSTRUKTIONSELEMENTE
100
AcDbLine
 62
7
  6
CONTINUOUS
 10
122.416261345
 20
186.2510037453
 11
123.1402712743
 21
187.3024343828
  0
LINE
  5
2C9
100
AcDbEntity
  8
KONSTRUKTIONSELEMENTE
100
AcDbLine
 62
7
  6
CONTINUOUS
 10
123.4298752054
 20
187.723006579
 11
124.1056178467
 21
188.7043418996
  0
LINE
  5
2CA
100
AcDbEntity
  8
KONSTRUKTIONSELEMENTE
100
AcDbLine
 62
7
  6
CONTINUOUS
 10
125.147957038
 20
187.3665999769
 11
125.0514223943
 21
187.2264092449
  0
LINE
  5
2CB
100
AcDbEntity
  8
KONSTRUKTIONSELEMENTE
100
AcDbLine
 62
7
  6
CONTINUOUS
 10
124.1826105332
 20
185.9646925584
 11
124.0378085676
 21
185.7544064603
  0
LINE
  5
2CC
100
AcDbEntity
  8
KONSTRUKTIONSELEMENTE
100
AcDbLine
 62
7
  6
CONTINUOUS
 10
124.3092078227
 20
185.4641902727
 11
124.550544432
 21
185.8146671028
  0
LINE
  5
2CD
100
AcDbEntity
  8
KONSTRUKTIONSELEMENTE
100
AcDbLine
 62
7
  6
CONTINUOUS
 10
125.3228216494
 20
186.9361930573
 11
125.515891072
 21
187.2165747177
  0
LINE
  5
2CE
100
AcDbEntity
  8
KONSTRUKTIONSELEMENTE
100
AcDbLine
 62
7
  6
CONTINUOUS
 10
92.5521519353
 20
144.8774981311
 11
92.9271518459
 21
145.2604768424
  0
LINE
  5
2CF
100
AcDbEntity
  8
KONSTRUKTIONSELEMENTE
100
AcDbLine
 62
7
  6
CONTINUOUS
 10
91.8021518459
 20
150.6860087671
 11
92.1771520248
 21
150.8774981311
  0
LINE
  5
2D0
100
AcDbEntity
  8
KONSTRUKTIONSELEMENTE
100
AcDbLine
 62
7
  6
CONTINUOUS
 10
89.5521519381
 20
151.6434555872
 11
89.7396519353
 21
151.2604768424
  0
LINE
  5
2D1
100
AcDbEntity
  8
KONSTRUKTIONSELEMENTE
100
AcDbLine
 62
7
  6
CONTINUOUS
 10
92.5521519353
 20
147.9413277878
 11
92.6459018459
 21
147.5583491101
  0
LINE
  5
2D2
100
AcDbEntity
  8
KONSTRUKTIONSELEMENTE
100
AcDbLine
 62
7
  6
CONTINUOUS
 10
93.2084018459
 20
147.5583491101
 11
93.1146519353
 21
148.0370727255
  0
LINE
  5
2D3
100
AcDbEntity
  8
KONSTRUKTIONSELEMENTE
100
AcDbLine
 62
7
  6
CONTINUOUS
 10
109.142250823
 20
191.500587538
 11
109.062075935
 21
191.1453423536
  0
LINE
  5
2D4
100
AcDbEntity
  8
KONSTRUKTIONSELEMENTE
100
AcDbLine
 62
7
  6
CONTINUOUS
 10
111.330735923
 20
188.9749451614
 11
111.4109108026
 21
189.3301904049
  0
LINE
  5
2D5
100
AcDbEntity
  8
KONSTRUKTIONSELEMENTE
100
AcDbLine
 62
7
  6
CONTINUOUS
 10
113.6221414909
 20
191.2427953322
 11
113.7048865253
 21
191.4928468043
  0
LINE
  5
2D6
100
AcDbEntity
  8
KONSTRUKTIONSELEMENTE
100
AcDbLine
 62
7
  6
CONTINUOUS
 10
113.5249562791
 20
189.8845657486
 11
113.607701305
 21
190.1346171018
  0
LINE
  5
2D7
100
AcDbEntity
  8
KONSTRUKTIONSELEMENTE
100
AcDbLine
 62
7
  6
CONTINUOUS
 10
115.1197920351
 20
189.5144788114
 11
115.0370470176
 21
189.2644275771
  0
LINE
  5
2D8
100
AcDbEntity
  8
KONSTRUKTIONSELEMENTE
100
AcDbLine
 62
7
  6
CONTINUOUS
 10
115.2769144783
 20
188.9912924374
 11
115.4363289655
 21
189.4065057296
  0
LINE
  5
2D9
100
AcDbEntity
  8
KONSTRUKTIONSELEMENTE
100
AcDbLine
 62
7
  6
CONTINUOUS
 10
119.6289910661
 20
190.0282158268
 11
119.5035635692
 21
189.7117391955
  0
LINE
  5
2DA
100
AcDbEntity
  8
KONSTRUKTIONSELEMENTE
100
AcDbLine
 62
7
  6
CONTINUOUS
 10
118.6079082932
 20
190.1924469401
 11
118.7502651369
 21
190.5083718515
  0
LINE
  5
2DB
100
AcDbEntity
  8
KONSTRUKTIONSELEMENTE
100
AcDbLine
 62
7
  6
CONTINUOUS
 10
121.4005510345
 20
188.3557550595
 11
121.2036898546
 21
187.978497661
  0
LINE
  5
2DC
100
AcDbEntity
  8
KONSTRUKTIONSELEMENTE
100
AcDbLine
 62
7
  6
CONTINUOUS
 10
122.0065725745
 20
187.5595358587
 11
122.2034337545
 21
187.9367932571
  0
LINE
  5
2DD
100
AcDbEntity
  8
KONSTRUKTIONSELEMENTE
100
AcDbLine
 62
7
  6
CONTINUOUS
 10
92.3646518459
 20
145.4519662483
 11
92.0834018459
 21
145.2604768424
  0
LINE
  5
2DE
100
AcDbEntity
  8
KONSTRUKTIONSELEMENTE
100
AcDbLine
 62
7
  6
CONTINUOUS
 10
92.1771520248
 20
144.6860087671
 11
92.5521519353
 21
144.8774981311
  0
LINE
  5
2DF
100
AcDbEntity
  8
KONSTRUKTIONSELEMENTE
100
AcDbLine
 62
7
  6
CONTINUOUS
 10
92.3646518459
 20
148.2285620643
 11
92.5521519353
 21
147.9413277878
  0
LINE
  5
2E0
100
AcDbEntity
  8
KONSTRUKTIONSELEMENTE
100
AcDbLine
 62
7
  6
CONTINUOUS
 10
90.3021519353
 20
151.4519662483
 11
90.114651913
 21
151.7392002566
  0
LINE
  5
2E1
100
AcDbEntity
  8
KONSTRUKTIONSELEMENTE
100
AcDbLine
 62
7
  6
CONTINUOUS
 10
93.1146519353
 20
148.0370727255
 11
92.9271518459
 21
148.4200514032
  0
LINE
  5
2E2
100
AcDbEntity
  8
KONSTRUKTIONSELEMENTE
100
AcDbLine
 62
7
  6
CONTINUOUS
 10
93.0209020248
 20
156.5902640893
 11
92.1771520248
 21
158.7923917546
  0
LINE
  5
2E3
100
AcDbEntity
  8
KONSTRUKTIONSELEMENTE
100
AcDbLine
 62
7
  6
CONTINUOUS
 10
91.6146518906
 20
158.6009024157
 11
92.3646518459
 21
156.5902640893
  0
LINE
  5
2E4
100
AcDbEntity
  8
KONSTRUKTIONSELEMENTE
100
AcDbLine
 62
7
  6
CONTINUOUS
 10
92.2709019353
 20
160.3243067338
 11
92.3646518459
 21
160.0370727255
  0
LINE
  5
2E5
100
AcDbEntity
  8
KONSTRUKTIONSELEMENTE
100
AcDbLine
 62
7
  6
CONTINUOUS
 10
92.9271518459
 20
160.0370727255
 11
92.8334019353
 21
160.3243067338
  0
LINE
  5
2E6
100
AcDbEntity
  8
KONSTRUKTIONSELEMENTE
100
AcDbLine
 62
7
  6
CONTINUOUS
 10
101.4439415176
 20
187.3294046891
 11
101.4448473837
 21
187.1156072606
  0
LINE
  5
2E7
100
AcDbEntity
  8
KONSTRUKTIONSELEMENTE
100
AcDbLine
 62
7
  6
CONTINUOUS
 10
104.6895778416
 20
188.7395168671
 11
104.7020481496
 21
189.1311723032
  0
LINE
  5
2E8
100
AcDbEntity
  8
KONSTRUKTIONSELEMENTE
100
AcDbLine
 62
7
  6
CONTINUOUS
 10
109.062075935
 20
191.1453423536
 11
109.0339656488
 21
190.8834601449
  0
LINE
  5
2E9
100
AcDbEntity
  8
KONSTRUKTIONSELEMENTE
100
AcDbLine
 62
7
  6
CONTINUOUS
 10
113.3056045605
 20
191.3507684139
 11
113.1985632422
 21
190.7611598135
  0
LINE
  5
2EA
100
AcDbEntity
  8
KONSTRUKTIONSELEMENTE
100
AcDbLine
 62
7
  6
CONTINUOUS
 10
113.5211742478
 20
190.7380760732
 11
113.6221414909
 21
191.2427953322
  0
LINE
  5
2EB
100
AcDbEntity
  8
KONSTRUKTIONSELEMENTE
100
AcDbLine
 62
7
  6
CONTINUOUS
 10
120.3609378884
 20
190.4705007851
 11
120.1100828067
 21
189.8375473008
  0
LINE
  5
2EC
100
AcDbEntity
  8
KONSTRUKTIONSELEMENTE
100
AcDbLine
 62
7
  6
CONTINUOUS
 10
119.9846553098
 20
189.5210706695
 11
119.3575177594
 21
187.9386873467
  0
LINE
  5
2ED
100
AcDbEntity
  8
KONSTRUKTIONSELEMENTE
100
AcDbLine
 62
7
  6
CONTINUOUS
 10
119.7209136956
 20
187.9777579572
 11
120.2853374756
 21
189.4019029089
  0
LINE
  5
2EE
100
AcDbEntity
  8
KONSTRUKTIONSELEMENTE
100
AcDbLine
 62
7
  6
CONTINUOUS
 10
120.4107649726
 20
189.7183795402
 11
120.6616200542
 21
190.3513330245
  0
LINE
  5
2EF
100
AcDbEntity
  8
KONSTRUKTIONSELEMENTE
100
AcDbLine
 62
7
  6
CONTINUOUS
 10
119.9485736337
 20
186.9720639717
 11
120.0740011416
 21
187.2885406308
  0
LINE
  5
2F0
100
AcDbEntity
  8
KONSTRUKTIONSELEMENTE
100
AcDbLine
 62
7
  6
CONTINUOUS
 10
120.9468401674
 20
189.139733072
 11
121.0722676643
 21
189.4562097033
  0
LINE
  5
2F1
100
AcDbEntity
  8
KONSTRUKTIONSELEMENTE
100
AcDbLine
 62
7
  6
CONTINUOUS
 10
89.7396519353
 20
151.2604768424
 11
90.114651913
 21
150.8774981311
  0
LINE
  5
2F2
100
AcDbEntity
  8
KONSTRUKTIONSELEMENTE
100
AcDbLine
 62
7
  6
CONTINUOUS
 10
92.9271518459
 20
148.4200514032
 11
92.5521519353
 21
148.803030081
  0
LINE
  5
2F3
100
AcDbEntity
  8
0
100
AcDbLine
 62
7
  6
CONTINUOUS
 10
105.9584019353
 20
112.4502640893
 11
105.9584019353
 21
113.1396510375
  0
LINE
  5
2F4
100
AcDbEntity
  8
0
100
AcDbLine
 62
7
  6
CONTINUOUS
 10
105.9584019353
 20
114.3670974147
 11
105.9584019353
 21
116.0164366759
  0
LINE
  5
2F5
100
AcDbEntity
  8
0
100
AcDbLine
 62
7
  6
CONTINUOUS
 10
105.9584019353
 20
116.9170974147
 11
105.9584019353
 21
118.5664366759
  0
LINE
  5
2F6
100
AcDbEntity
  8
RUNDUNGEN
100
AcDbLine
 62
7
  6
CONTINUOUS
 10
106.4584019353
 20
109.990264097
 11
106.4584019353
 21
122.4902640893
  0
LINE
  5
2F7
100
AcDbEntity
  8
KONSTRUKTIONSELEMENTE
100
AcDbLine
 62
7
  6
CONTINUOUS
 10
109.0339656488
 20
190.8834601449
 11
109.029811776
 21
190.4530597239
  0
LINE
  5
2F8
100
AcDbEntity
  8
KONSTRUKTIONSELEMENTE
100
AcDbLine
 62
7
  6
CONTINUOUS
 10
111.4109108026
 20
189.3301904049
 11
111.4390211224
 21
189.5920723776
  0
LINE
  5
2F9
100
AcDbEntity
  8
KONSTRUKTIONSELEMENTE
100
AcDbLine
 62
7
  6
CONTINUOUS
 10
117.3962412075
 20
190.1331893902
 11
117.3167854745
 21
189.8021662768
  0
LINE
  5
2FA
100
AcDbEntity
  8
KONSTRUKTIONSELEMENTE
100
AcDbLine
 62
7
  6
CONTINUOUS
 10
118.4754889457
 20
190.7493743047
 11
118.4357610236
 21
190.5838625162
  0
LINE
  5
2FB
100
AcDbEntity
  8
KONSTRUKTIONSELEMENTE
100
AcDbLine
 62
7
  6
CONTINUOUS
 10
118.1212473743
 20
188.9964044093
 11
118.0417916413
 21
188.6653812959
  0
LINE
  5
2FC
100
AcDbEntity
  8
KONSTRUKTIONSELEMENTE
100
AcDbLine
 62
7
  6
CONTINUOUS
 10
118.7502651369
 20
190.5083718515
 11
118.789993059
 21
190.67388364
  0
LINE
  5
2FD
100
AcDbEntity
  8
KONSTRUKTIONSELEMENTE
100
AcDbLine
 62
7
  6
CONTINUOUS
 10
118.3562943149
 20
188.5898909768
 11
118.435750048
 21
188.9209140902
  0
LINE
  5
2FE
100
AcDbEntity
  8
KONSTRUKTIONSELEMENTE
100
AcDbLine
 62
7
  6
CONTINUOUS
 10
124.2741356165
 20
186.2116649984
 11
124.1826105332
 21
185.9646925584
  0
LINE
  5
2FF
100
AcDbEntity
  8
KONSTRUKTIONSELEMENTE
100
AcDbLine
 62
7
  6
CONTINUOUS
 10
124.550544432
 20
185.8146671028
 11
124.6420695153
 21
186.0616395429
  0
LINE
  5
300
100
AcDbEntity
  8
KONSTRUKTIONSELEMENTE
100
AcDbLine
 62
7
  6
CONTINUOUS
 10
125.2394821889
 20
187.6135725152
 11
125.147957038
 21
187.3665999769
  0
LINE
  5
301
100
AcDbEntity
  8
KONSTRUKTIONSELEMENTE
100
AcDbLine
 62
7
  6
CONTINUOUS
 10
125.515891072
 20
187.2165747177
 11
125.6074160877
 21
187.4635470596
  0
LINE
  5
302
100
AcDbEntity
  8
KONSTRUKTIONSELEMENTE
100
AcDbLine
 62
7
  6
CONTINUOUS
 10
92.0834018459
 20
148.4200514032
 11
92.3646518459
 21
148.2285620643
  0
LINE
  5
303
100
AcDbEntity
  8
KONSTRUKTIONSELEMENTE
100
AcDbLine
 62
7
  6
CONTINUOUS
 10
90.5834019353
 20
151.2604768424
 11
90.3021519353
 21
151.4519662483
  0
LINE
  5
304
100
AcDbEntity
  8
KONSTRUKTIONSELEMENTE
100
AcDbLine
 62
7
  6
CONTINUOUS
 10
92.8334019353
 20
160.3243067338
 11
92.5521519353
 21
160.7072854115
  0
LINE
  5
305
100
AcDbEntity
  8
KONSTRUKTIONSELEMENTE
100
AcDbLine
 62
7
  6
CONTINUOUS
 10
101.8568731654
 20
187.1098032415
 11
101.8037279777
 21
187.4980365197
  0
LINE
  5
306
100
AcDbEntity
  8
KONSTRUKTIONSELEMENTE
100
AcDbLine
 62
7
  6
CONTINUOUS
 10
109.3620068897
 20
190.4143208544
 11
109.3541829054
 21
190.9289805517
  0
LINE
  5
307
100
AcDbEntity
  8
KONSTRUKTIONSELEMENTE
100
AcDbLine
 62
7
  6
CONTINUOUS
 10
111.1109798647
 20
190.061211786
 11
111.1188038658
 21
189.5465519707
  0
LINE
  5
308
100
AcDbEntity
  8
KONSTRUKTIONSELEMENTE
100
AcDbLine
 62
7
  6
CONTINUOUS
 10
111.4390211224
 20
189.5920723776
 11
111.4431749784
 21
190.0224729166
  0
LINE
  5
309
100
AcDbEntity
  8
KONSTRUKTIONSELEMENTE
100
AcDbLine
 62
7
  6
CONTINUOUS
 10
113.1985632422
 20
190.7611598135
 11
113.1560447158
 21
190.1669344227
  0
LINE
  5
30A
100
AcDbEntity
  8
KONSTRUKTIONSELEMENTE
100
AcDbLine
 62
7
  6
CONTINUOUS
 10
113.5090260974
 20
190.5682973901
 11
113.5211742478
 21
190.7380760732
  0
LINE
  5
30B
100
AcDbEntity
  8
KONSTRUKTIONSELEMENTE
100
AcDbLine
 62
7
  6
CONTINUOUS
 10
113.5067340535
 20
189.629897724
 11
113.5249562791
 21
189.8845657486
  0
LINE
  5
30C
100
AcDbEntity
  8
KONSTRUKTIONSELEMENTE
100
AcDbLine
 62
7
  6
CONTINUOUS
 10
115.1380142607
 20
189.769146836
 11
115.1197920351
 21
189.5144788114
  0
LINE
  5
30D
100
AcDbEntity
  8
KONSTRUKTIONSELEMENTE
100
AcDbLine
 62
7
  6
CONTINUOUS
 10
115.4363289655
 20
189.4065057296
 11
115.46669935
 21
189.8309525562
  0
LINE
  5
30E
100
AcDbEntity
  8
KONSTRUKTIONSELEMENTE
100
AcDbLine
 62
7
  6
CONTINUOUS
 10
92.5521519353
 20
148.803030081
 11
92.1771520248
 21
148.9945194198
  0
LINE
  5
30F
100
AcDbEntity
  8
KONSTRUKTIONSELEMENTE
100
AcDbLine
 62
7
  6
CONTINUOUS
 10
90.114651913
 20
150.8774981311
 11
90.4896519577
 21
150.6860087671
  0
LINE
  5
310
100
AcDbEntity
  8
KONSTRUKTIONSELEMENTE
100
AcDbLine
 62
7
  6
CONTINUOUS
 10
92.0834018459
 20
160.5157960727
 11
92.2709019353
 21
160.3243067338
  0
LINE
  5
311
100
AcDbEntity
  8
KONSTRUKTIONSELEMENTE
100
AcDbLine
 62
7
  6
CONTINUOUS
 10
113.1560447158
 20
190.1669344227
 11
113.1780489726
 21
189.5680921227
  0
LINE
  5
312
100
AcDbEntity
  8
KONSTRUKTIONSELEMENTE
100
AcDbLine
 62
7
  6
CONTINUOUS
 10
112.1770906995
 20
188.8393445044
 11
112.1919339709
 21
188.4140715385
  0
LINE
  5
313
100
AcDbEntity
  8
KONSTRUKTIONSELEMENTE
100
AcDbLine
 62
7
  6
CONTINUOUS
 10
112.5151729487
 20
188.425353525
 11
112.5003296774
 21
188.8506264908
  0
LINE
  5
314
100
AcDbEntity
  8
KONSTRUKTIONSELEMENTE
100
AcDbLine
 62
7
  6
CONTINUOUS
 10
116.0918716096
 20
189.133422104
 11
116.0951809065
 21
188.8700565089
  0
LINE
  5
315
100
AcDbEntity
  8
KONSTRUKTIONSELEMENTE
100
AcDbLine
 62
7
  6
CONTINUOUS
 10
118.435750048
 20
188.9209140902
 11
118.4523061379
 21
189.2670351761
  0
LINE
  5
316
100
AcDbEntity
  8
KONSTRUKTIONSELEMENTE
100
AcDbLine
 62
7
  6
CONTINUOUS
 10
118.789993059
 20
190.67388364
 11
118.8065476815
 21
191.0200049555
  0
LINE
  5
317
100
AcDbEntity
  8
KONSTRUKTIONSELEMENTE
100
AcDbLine
 62
7
  6
CONTINUOUS
 10
119.6869800347
 20
187.716566658
 11
119.7209136956
 21
187.9777579572
  0
LINE
  5
318
100
AcDbEntity
  8
KONSTRUKTIONSELEMENTE
100
AcDbLine
 62
7
  6
CONTINUOUS
 10
87.6334048046
 20
142.5902640893
 11
95.7693815721
 21
142.5902640893
  0
LINE
  5
319
100
AcDbEntity
  8
KONSTRUKTIONSELEMENTE
100
AcDbLine
 62
7
  6
CONTINUOUS
 10
130.1474222986
 20
142.5902640893
 11
138.2833990661
 21
142.5902640893
  0
LINE
  5
31A
100
AcDbEntity
  8
KONSTRUKTIONSELEMENTE
100
AcDbLine
 62
7
  6
CONTINUOUS
 10
89.4584019353
 20
144.5902640893
 11
91.7084019353
 21
144.5902640893
  0
LINE
  5
31B
100
AcDbEntity
  8
KONSTRUKTIONSELEMENTE
100
AcDbLine
 62
7
  6
CONTINUOUS
 10
91.7084019353
 20
145.164732173
 11
90.0209019353
 21
145.164732173
  0
LINE
  5
31C
100
AcDbEntity
  8
KONSTRUKTIONSELEMENTE
100
AcDbLine
 62
7
  6
CONTINUOUS
 10
92.1771520248
 20
148.9945194198
 11
91.7084019353
 21
149.0902640893
  0
LINE
  5
31D
100
AcDbEntity
  8
KONSTRUKTIONSELEMENTE
100
AcDbLine
 62
7
  6
CONTINUOUS
 10
91.7084019353
 20
148.5157960727
 11
92.0834018459
 21
148.4200514032
  0
LINE
  5
31E
100
AcDbEntity
  8
KONSTRUKTIONSELEMENTE
100
AcDbLine
 62
7
  6
CONTINUOUS
 10
90.9584019801
 20
151.164732173
 11
90.5834019353
 21
151.2604768424
  0
LINE
  5
31F
100
AcDbEntity
  8
KONSTRUKTIONSELEMENTE
100
AcDbLine
 62
7
  6
CONTINUOUS
 10
92.5521519353
 20
160.7072854115
 11
92.1771520248
 21
160.9945194198
  0
LINE
  5
320
100
AcDbEntity
  8
KONSTRUKTIONSELEMENTE
100
AcDbLine
 62
7
  6
CONTINUOUS
 10
104.2570106456
 20
189.2809791611
 11
104.3191434183
 21
189.0250263757
  0
LINE
  5
321
100
AcDbEntity
  8
KONSTRUKTIONSELEMENTE
100
AcDbLine
 62
7
  6
CONTINUOUS
 10
104.7020481496
 20
189.1311723032
 11
104.639915377
 21
189.3871250887
  0
LINE
  5
322
100
AcDbEntity
  8
KONSTRUKTIONSELEMENTE
100
AcDbLine
 62
7
  6
CONTINUOUS
 10
109.029811776
 20
190.4530597239
 11
109.1376124897
 21
189.6947262375
  0
LINE
  5
323
100
AcDbEntity
  8
KONSTRUKTIONSELEMENTE
100
AcDbLine
 62
7
  6
CONTINUOUS
 10
109.4458518893
 20
189.8245059206
 11
109.3620068897
 21
190.4143208544
  0
LINE
  5
324
100
AcDbEntity
  8
RUNDUNGEN
100
AcDbLine
 62
7
  6
CONTINUOUS
 10
119.4584019353
 20
109.9902640893
 11
119.4584019353
 21
122.4902640893
  0
LINE
  5
325
100
AcDbEntity
  8
KONSTRUKTIONSELEMENTE
100
AcDbLine
 62
7
  6
CONTINUOUS
 10
119.3575177594
 20
187.9386873467
 11
119.3523628425
 21
187.5745436925
  0
LINE
  5
326
100
AcDbEntity
  8
KONSTRUKTIONSELEMENTE
100
AcDbLine
 62
7
  6
CONTINUOUS
 10
124.6420695153
 20
186.0616395429
 11
124.6753055143
 21
186.4520814177
  0
LINE
  5
327
100
AcDbEntity
  8
KONSTRUKTIONSELEMENTE
100
AcDbLine
 62
7
  6
CONTINUOUS
 10
91.7084019353
 20
144.5902640893
 11
92.1771520248
 21
144.6860087671
  0
LINE
  5
328
100
AcDbEntity
  8
KONSTRUKTIONSELEMENTE
100
AcDbLine
 62
7
  6
CONTINUOUS
 10
90.0209019353
 20
148.5157960727
 11
91.7084019353
 21
148.5157960727
  0
LINE
  5
329
100
AcDbEntity
  8
KONSTRUKTIONSELEMENTE
100
AcDbLine
 62
7
  6
CONTINUOUS
 10
91.7084019353
 20
149.0902640893
 11
89.4584019353
 21
149.0902640893
  0
LINE
  5
32A
100
AcDbEntity
  8
KONSTRUKTIONSELEMENTE
100
AcDbLine
 62
7
  6
CONTINUOUS
 10
90.4896519577
 20
150.6860087671
 11
90.9584019801
 21
150.5902640893
  0
LINE
  5
32B
100
AcDbEntity
  8
KONSTRUKTIONSELEMENTE
100
AcDbLine
 62
7
  6
CONTINUOUS
 10
101.339915881
 20
187.5713777306
 11
101.4439415176
 21
187.3294046891
  0
LINE
  5
32C
100
AcDbEntity
  8
KONSTRUKTIONSELEMENTE
100
AcDbLine
 62
7
  6
CONTINUOUS
 10
101.8037279777
 20
187.4980365197
 11
101.6997023412
 21
187.7400095612
  0
LINE
  5
32D
100
AcDbEntity
  8
KONSTRUKTIONSELEMENTE
100
AcDbLine
 62
7
  6
CONTINUOUS
 10
111.0271348651
 20
190.6510267199
 11
111.1109798647
 21
190.061211786
  0
LINE
  5
32E
100
AcDbEntity
  8
KONSTRUKTIONSELEMENTE
100
AcDbLine
 62
7
  6
CONTINUOUS
 10
111.4431749784
 20
190.0224729166
 11
111.3353742646
 21
190.780806403
  0
LINE
  5
32F
100
AcDbEntity
  8
0
100
AcDbLine
 62
7
  6
CONTINUOUS
 10
123.9128530855
 20
94.4902640893
 11
123.9128530855
 21
90.4902640893
  0
LINE
  5
330
100
AcDbEntity
  8
0
100
AcDbLine
 62
7
  6
CONTINUOUS
 10
124.2969424058
 20
94.4902640893
 11
124.2969424058
 21
90.4902640893
  0
LINE
  5
331
100
AcDbEntity
  8
0
100
AcDbLine
 62
7
  6
CONTINUOUS
 10
124.8458953633
 20
94.0647322251
 11
124.8458953633
 21
92.7881363942
  0
LINE
  5
332
100
AcDbEntity
  8
0
100
AcDbLine
 62
7
  6
CONTINUOUS
 10
124.8458953633
 20
92.2774981572
 11
124.8458953633
 21
90.4902640893
  0
LINE
  5
333
100
AcDbEntity
  8
KONSTRUKTIONSELEMENTE
100
AcDbLine
 62
7
  6
CONTINUOUS
 10
125.6074160877
 20
187.4635470596
 11
125.6406520867
 21
187.8539889345
  0
LINE
  5
334
100
AcDbEntity
  8
KONSTRUKTIONSELEMENTE
100
AcDbLine
 62
7
  6
CONTINUOUS
 10
92.0834018459
 20
145.2604768424
 11
91.7084019353
 21
145.164732173
  0
LINE
  5
335
100
AcDbEntity
  8
KONSTRUKTIONSELEMENTE
100
AcDbLine
 62
7
  6
CONTINUOUS
 10
90.9584019801
 20
150.5902640893
 11
91.3334018906
 21
150.5902640893
  0
LINE
  5
336
100
AcDbEntity
  8
KONSTRUKTIONSELEMENTE
100
AcDbLine
 62
7
  6
CONTINUOUS
 10
91.3334018906
 20
151.164732173
 11
90.9584019801
 21
151.164732173
  0
LINE
  5
337
100
AcDbEntity
  8
KONSTRUKTIONSELEMENTE
100
AcDbLine
 62
7
  6
CONTINUOUS
 10
91.8021518459
 20
160.6115407421
 11
92.0834018459
 21
160.5157960727
  0
LINE
  5
338
100
AcDbEntity
  8
KONSTRUKTIONSELEMENTE
100
AcDbLine
 62
7
  6
CONTINUOUS
 10
109.1376124897
 20
189.6947262375
 11
109.2615449501
 21
189.2825337778
  0
LINE
  5
339
100
AcDbEntity
  8
KONSTRUKTIONSELEMENTE
100
AcDbLine
 62
7
  6
CONTINUOUS
 10
109.5817622067
 20
189.3280541847
 11
109.4458518893
 21
189.8245059206
  0
LINE
  5
33A
100
AcDbEntity
  8
KONSTRUKTIONSELEMENTE
100
AcDbLine
 62
7
  6
CONTINUOUS
 10
110.8912245645
 20
191.1474783378
 11
111.0271348651
 21
190.6510267199
  0
LINE
  5
33B
100
AcDbEntity
  8
KONSTRUKTIONSELEMENTE
100
AcDbLine
 62
7
  6
CONTINUOUS
 10
113.1780489726
 20
189.5680921227
 11
113.2767226993
 21
189.1344118806
  0
LINE
  5
33C
100
AcDbEntity
  8
KONSTRUKTIONSELEMENTE
100
AcDbLine
 62
7
  6
CONTINUOUS
 10
113.5530346197
 20
189.370612909
 11
113.5067340535
 21
189.629897724
  0
LINE
  5
33D
100
AcDbEntity
  8
KONSTRUKTIONSELEMENTE
100
AcDbLine
 62
7
  6
CONTINUOUS
 10
115.091713703
 20
190.0284317699
 11
115.1380142607
 21
189.769146836
  0
LINE
  5
33E
100
AcDbEntity
  8
KONSTRUKTIONSELEMENTE
100
AcDbLine
 62
7
  6
CONTINUOUS
 10
115.4469886138
 20
191.3681944167
 11
115.4006880476
 21
191.6274792317
  0
LINE
  5
33F
100
AcDbEntity
  8
KONSTRUKTIONSELEMENTE
100
AcDbLine
 62
7
  6
CONTINUOUS
 10
116.4295475273
 20
188.877322026
 11
116.4063757229
 21
189.0579314393
  0
LINE
  5
340
100
AcDbEntity
  8
KONSTRUKTIONSELEMENTE
100
AcDbLine
 62
7
  6
CONTINUOUS
 10
118.0749023537
 20
189.3576236973
 11
118.1212473743
 21
188.9964044093
  0
LINE
  5
341
100
AcDbEntity
  8
KONSTRUKTIONSELEMENTE
100
AcDbLine
 62
7
  6
CONTINUOUS
 10
124.2641139216
 20
186.4252298975
 11
124.2741356165
 21
186.2116649984
  0
LINE
  5
342
100
AcDbEntity
  8
KONSTRUKTIONSELEMENTE
100
AcDbLine
 62
7
  6
CONTINUOUS
 10
125.229460494
 20
187.8271374142
 11
125.2394821889
 21
187.6135725152
  0
LINE
  5
343
100
AcDbEntity
  8
0
100
AcDbLine
 62
7
  6
CONTINUOUS
 10
126.3931722683
 20
93.5540939881
 11
126.3931722683
 21
93.2987746312
  0
LINE
  5
344
100
AcDbEntity
  8
0
100
AcDbLine
 62
7
  6
CONTINUOUS
 10
126.7081493476
 20
93.5540939881
 11
126.7081493476
 21
93.2987746312
  0
LINE
  5
345
100
AcDbEntity
  8
0
100
AcDbLine
 62
7
  6
CONTINUOUS
 10
127.0730121193
 20
93.5540939881
 11
127.0730121193
 21
93.2136682584
  0
LINE
  5
346
100
AcDbEntity
  8
0
100
AcDbLine
 62
7
  6
CONTINUOUS
 10
127.2215537609
 20
94.4902640893
 11
127.2215537609
 21
90.4902640893
  0
LINE
  5
347
100
AcDbEntity
  8
0
100
AcDbLine
 62
7
  6
CONTINUOUS
 10
127.5186217139
 20
94.4902640893
 11
127.5186217139
 21
90.4902640893
  0
LINE
  5
348
100
AcDbEntity
  8
0
100
AcDbLine
 62
7
  6
CONTINUOUS
 10
127.8244706827
 20
94.0647322251
 11
127.8244706827
 21
92.7881363942
  0
LINE
  5
349
100
AcDbEntity
  8
0
100
AcDbLine
 62
7
  6
CONTINUOUS
 10
127.8244706827
 20
92.2774981572
 11
127.8244706827
 21
90.4902640893
  0
LINE
  5
34A
100
AcDbEntity
  8
0
100
AcDbLine
 62
7
  6
CONTINUOUS
 10
128.5966741441
 20
93.5540939881
 11
128.5966741441
 21
93.2987746312
  0
LINE
  5
34B
100
AcDbEntity
  8
0
100
AcDbLine
 62
7
  6
CONTINUOUS
 10
128.8680863343
 20
93.5540939881
 11
128.8680863343
 21
93.2987746312
  0
LINE
  5
34C
100
AcDbEntity
  8
0
100
AcDbLine
 62
7
  6
CONTINUOUS
 10
129.0441098775
 20
92.36260453
 11
129.0441098775
 21
91.9370725466
  0
LINE
  5
34D
100
AcDbEntity
  8
0
100
AcDbLine
 62
7
  6
CONTINUOUS
 10
129.0684833809
 20
93.5540939881
 11
129.0684833809
 21
93.2136682584
  0
LINE
  5
34E
100
AcDbEntity
  8
0
100
AcDbLine
 62
7
  6
CONTINUOUS
 10
129.2064787446
 20
100.4902640893
 11
129.2064787446
 21
96.4902640893
  0
LINE
  5
34F
100
AcDbEntity
  8
0
100
AcDbLine
 62
7
  6
CONTINUOUS
 10
129.3080961221
 20
92.36260453
 11
129.3080961221
 21
91.9370725466
  0
LINE
  5
350
100
AcDbEntity
  8
0
100
AcDbLine
 62
7
  6
CONTINUOUS
 10
129.4678689164
 20
100.4902640893
 11
129.4678689164
 21
96.4902640893
  0
LINE
  5
351
100
AcDbEntity
  8
KONSTRUKTIONSELEMENTE
100
AcDbLine
 62
7
  6
CONTINUOUS
 10
91.7084019353
 20
151.2604768424
 11
91.3334018906
 21
151.164732173
  0
LINE
  5
352
100
AcDbEntity
  8
KONSTRUKTIONSELEMENTE
100
AcDbLine
 62
7
  6
CONTINUOUS
 10
91.3334018906
 20
150.5902640893
 11
91.8021518459
 21
150.6860087671
  0
LINE
  5
353
100
AcDbEntity
  8
KONSTRUKTIONSELEMENTE
100
AcDbLine
 62
7
  6
CONTINUOUS
 10
92.8334019353
 20
155.0902640893
 11
92.2709019353
 21
155.0902640893
  0
LINE
  5
354
100
AcDbEntity
  8
KONSTRUKTIONSELEMENTE
100
AcDbLine
 62
7
  6
CONTINUOUS
 10
90.0209019353
 20
155.0902640893
 11
89.4584019353
 21
155.0902640893
  0
LINE
  5
355
100
AcDbEntity
  8
KONSTRUKTIONSELEMENTE
100
AcDbLine
 62
7
  6
CONTINUOUS
 10
89.4584019353
 20
156.5902640893
 11
90.0209019353
 21
156.5902640893
  0
LINE
  5
356
100
AcDbEntity
  8
KONSTRUKTIONSELEMENTE
100
AcDbLine
 62
7
  6
CONTINUOUS
 10
92.3646518459
 20
156.5902640893
 11
93.0209020248
 21
156.5902640893
  0
LINE
  5
357
100
AcDbEntity
  8
KONSTRUKTIONSELEMENTE
100
AcDbLine
 62
7
  6
CONTINUOUS
 10
92.1771520248
 20
160.9945194198
 11
91.7084019353
 21
161.0902640893
  0
LINE
  5
358
100
AcDbEntity
  8
KONSTRUKTIONSELEMENTE
100
AcDbLine
 62
7
  6
CONTINUOUS
 10
101.9273341629
 20
189.3971835418
 11
103.7967025441
 21
185.8608772973
  0
LINE
  5
359
100
AcDbEntity
  8
KONSTRUKTIONSELEMENTE
100
AcDbLine
 62
7
  6
CONTINUOUS
 10
104.1398334849
 20
186.0422637742
 11
103.3045837708
 21
187.622315523
  0
LINE
  5
35A
100
AcDbEntity
  8
KONSTRUKTIONSELEMENTE
100
AcDbLine
 62
7
  6
CONTINUOUS
 10
103.0659410271
 20
188.0737588195
 11
102.4693340567
 21
189.2023672717
  0
LINE
  5
35B
100
AcDbEntity
  8
KONSTRUKTIONSELEMENTE
100
AcDbLine
 62
7
  6
CONTINUOUS
 10
104.1376891624
 20
189.5067010202
 11
104.2570106456
 21
189.2809791611
  0
LINE
  5
35C
100
AcDbEntity
  8
KONSTRUKTIONSELEMENTE
100
AcDbLine
 62
7
  6
CONTINUOUS
 10
104.639915377
 20
189.3871250887
 11
104.4808201031
 21
189.6880874972
  0
LINE
  5
35D
100
AcDbEntity
  8
KONSTRUKTIONSELEMENTE
100
AcDbLine
 62
7
  6
CONTINUOUS
 10
109.2615449501
 20
189.2825337778
 11
109.3615224124
 21
189.0388600929
  0
LINE
  5
35E
100
AcDbEntity
  8
KONSTRUKTIONSELEMENTE
100
AcDbLine
 62
7
  6
CONTINUOUS
 10
111.3353742646
 20
190.780806403
 11
111.2114418211
 21
191.1929987446
  0
LINE
  5
35F
100
AcDbEntity
  8
KONSTRUKTIONSELEMENTE
100
AcDbLine
 62
7
  6
CONTINUOUS
 10
116.0951809065
 20
188.8700565089
 11
116.1613898882
 21
188.5915931152
  0
LINE
  5
360
100
AcDbEntity
  8
KONSTRUKTIONSELEMENTE
100
AcDbLine
 62
7
  6
CONTINUOUS
 10
118.4523061379
 20
189.2670351761
 11
118.3860957165
 21
189.5454989152
  0
LINE
  5
361
100
AcDbEntity
  8
KONSTRUKTIONSELEMENTE
100
AcDbLine
 62
7
  6
CONTINUOUS
 10
115.46669935
 20
189.8309525562
 11
115.3680256192
 21
190.2646327389
  0
LINE
  5
362
100
AcDbEntity
  8
0
100
AcDbLine
 62
7
  6
CONTINUOUS
 10
129.5582679958
 20
92.36260453
 11
129.5582679958
 21
92.873242767
  0
LINE
  5
363
100
AcDbEntity
  8
0
100
AcDbLine
 62
7
  6
CONTINUOUS
 10
129.6111044187
 20
100.0647322251
 11
129.6111044187
 21
98.7881363942
  0
LINE
  5
364
100
AcDbEntity
  8
0
100
AcDbLine
 62
7
  6
CONTINUOUS
 10
129.6111044187
 20
98.2774981572
 11
129.6111044187
 21
96.4902640893
  0
LINE
  5
365
100
AcDbEntity
  8
0
100
AcDbLine
 62
7
  6
CONTINUOUS
 10
129.6552496911
 20
92.36260453
 11
129.6552496911
 21
91.9370725466
  0
LINE
  5
366
100
AcDbEntity
  8
0
100
AcDbLine
 62
7
  6
CONTINUOUS
 10
129.7857523459
 20
99.5540939881
 11
129.7857523459
 21
99.2987746312
  0
LINE
  5
367
100
AcDbEntity
  8
0
100
AcDbLine
 62
7
  6
CONTINUOUS
 10
129.8142037028
 20
92.1072854115
 11
129.8142037028
 21
92.873242767
  0
LINE
  5
368
100
AcDbEntity
  8
0
100
AcDbLine
 62
7
  6
CONTINUOUS
 10
129.8994762814
 20
92.7881363942
 11
129.8994762814
 21
92.1923917844
  0
LINE
  5
369
100
AcDbEntity
  8
0
100
AcDbLine
 62
7
  6
CONTINUOUS
 10
129.9238488666
 20
92.7881363942
 11
129.9238488666
 21
92.1923917844
  0
LINE
  5
36A
100
AcDbEntity
  8
0
100
AcDbLine
 62
7
  6
CONTINUOUS
 10
129.9584019353
 20
104.4902640893
 11
129.9584019353
 21
100.4902640893
  0
LINE
  5
36B
100
AcDbEntity
  8
0
100
AcDbLine
 62
7
  6
CONTINUOUS
 10
129.9584019353
 20
96.4902640893
 11
129.9584019353
 21
94.4902640893
  0
LINE
  5
36C
100
AcDbEntity
  8
0
100
AcDbLine
 62
7
  6
CONTINUOUS
 10
129.9584019353
 20
90.4902640893
 11
129.9584019353
 21
87.5902640893
  0
LINE
  5
36D
100
AcDbEntity
  8
0
100
AcDbLine
 62
7
  6
CONTINUOUS
 10
130.0382796234
 20
99.5540939881
 11
130.0382796234
 21
99.2987746312
  0
LINE
  5
36E
100
AcDbEntity
  8
0
100
AcDbLine
 62
7
  6
CONTINUOUS
 10
130.101589754
 20
99.5540939881
 11
130.101589754
 21
99.2136682584
  0
LINE
  5
36F
100
AcDbEntity
  8
0
100
AcDbLine
 62
7
  6
CONTINUOUS
 10
130.1689042146
 20
100.4902640893
 11
130.1689042146
 21
97.8519661738
  0
LINE
  5
370
100
AcDbEntity
  8
0
100
AcDbLine
 62
7
  6
CONTINUOUS
 10
130.1743506335
 20
92.7881363942
 11
130.1743506335
 21
92.1923917844
  0
LINE
  5
371
100
AcDbEntity
  8
0
100
AcDbLine
 62
7
  6
CONTINUOUS
 10
130.1955146799
 20
100.4902640893
 11
130.1955146799
 21
97.8519661738
  0
LINE
  5
372
100
AcDbEntity
  8
0
100
AcDbLine
 62
7
  6
CONTINUOUS
 10
130.1955146614
 20
92.873242767
 11
130.1955146614
 21
92.1072854115
  0
LINE
  5
373
100
AcDbEntity
  8
0
100
AcDbLine
 62
7
  6
CONTINUOUS
 10
130.2084019353
 20
97.0434555723
 11
130.2084019353
 21
96.7455832376
  0
LINE
  5
374
100
AcDbEntity
  8
KONSTRUKTIONSELEMENTE
100
AcDbLine
 62
7
  6
CONTINUOUS
 10
90.0209019353
 20
158.6009024157
 11
91.6146518906
 21
158.6009024157
  0
LINE
  5
375
100
AcDbEntity
  8
KONSTRUKTIONSELEMENTE
100
AcDbLine
 62
7
  6
CONTINUOUS
 10
91.8021518459
 20
159.1753704323
 11
90.0209019353
 21
159.1753704323
  0
LINE
  5
376
100
AcDbEntity
  8
KONSTRUKTIONSELEMENTE
100
AcDbLine
 62
7
  6
CONTINUOUS
 10
90.0209019353
 20
160.6115407421
 11
91.8021518459
 21
160.6115407421
  0
LINE
  5
377
100
AcDbEntity
  8
KONSTRUKTIONSELEMENTE
100
AcDbLine
 62
7
  6
CONTINUOUS
 10
91.7084019353
 20
161.0902640893
 11
89.4584019353
 21
161.0902640893
  0
LINE
  5
378
100
AcDbEntity
  8
KONSTRUKTIONSELEMENTE
100
AcDbLine
 62
7
  6
CONTINUOUS
 10
99.0235732911
 20
187.2966920262
 11
101.4575303887
 21
184.1224436354
  0
LINE
  5
379
100
AcDbEntity
  8
KONSTRUKTIONSELEMENTE
100
AcDbLine
 62
7
  6
CONTINUOUS
 10
101.7655305338
 20
184.3586126578
 11
100.6780177726
 21
185.7768938738
  0
LINE
  5
37A
100
AcDbEntity
  8
KONSTRUKTIONSELEMENTE
100
AcDbLine
 62
7
  6
CONTINUOUS
 10
100.3672998823
 20
186.1821170243
 11
99.5905050114
 21
187.1951750898
  0
LINE
  5
37B
100
AcDbEntity
  8
KONSTRUKTIONSELEMENTE
100
AcDbLine
 62
7
  6
CONTINUOUS
 10
101.1845567908
 20
187.773989495
 11
101.339915881
 21
187.5713777306
  0
LINE
  5
37C
100
AcDbEntity
  8
KONSTRUKTIONSELEMENTE
100
AcDbLine
 62
7
  6
CONTINUOUS
 10
101.6997023412
 20
187.7400095612
 11
101.4925569359
 21
188.0101585174
  0
LINE
  5
37D
100
AcDbEntity
  8
KONSTRUKTIONSELEMENTE
100
AcDbLine
 62
7
  6
CONTINUOUS
 10
109.3615224124
 20
189.0388600929
 11
109.5375201654
 21
188.7200310082
  0
LINE
  5
37E
100
AcDbEntity
  8
KONSTRUKTIONSELEMENTE
100
AcDbLine
 62
7
  6
CONTINUOUS
 10
113.6638564967
 20
189.10671135
 11
113.5530346197
 21
189.370612909
  0
LINE
  5
37F
100
AcDbEntity
  8
KONSTRUKTIONSELEMENTE
100
AcDbLine
 62
7
  6
CONTINUOUS
 10
111.2114418211
 20
191.1929987446
 11
111.1114643252
 21
191.4366726656
  0
LINE
  5
380
100
AcDbEntity
  8
KONSTRUKTIONSELEMENTE
100
AcDbLine
 62
7
  6
CONTINUOUS
 10
118.409279964
 20
191.0278376984
 11
118.4754889457
 21
190.7493743047
  0
LINE
  5
381
100
AcDbEntity
  8
KONSTRUKTIONSELEMENTE
100
AcDbLine
 62
7
  6
CONTINUOUS
 10
87.6334048046
 20
164.5902640893
 11
95.7693815721
 21
164.5902640893
  0
LINE
  5
382
100
AcDbEntity
  8
KONSTRUKTIONSELEMENTE
100
AcDbLine
 62
7
  6
CONTINUOUS
 10
130.1474222986
 20
164.5902640893
 11
138.2833990661
 21
164.5902640893
  0
LINE
  5
383
100
AcDbEntity
  8
KONSTRUKTIONSELEMENTE
100
AcDbLine
 62
7
  6
CONTINUOUS
 10
111.1114643252
 20
191.4366726656
 11
110.9354665806
 21
191.7555016912
  0
LINE
  5
384
100
AcDbEntity
  8
KONSTRUKTIONSELEMENTE
100
AcDbLine
 62
7
  6
CONTINUOUS
 10
113.2767226993
 20
189.1344118806
 11
113.445993295
 21
188.7810042194
  0
LINE
  5
385
100
AcDbEntity
  8
KONSTRUKTIONSELEMENTE
100
AcDbLine
 62
7
  6
CONTINUOUS
 10
115.4006880476
 20
191.6274792317
 11
115.2314174497
 21
191.9808868631
  0
LINE
  5
386
100
AcDbEntity
  8
KONSTRUKTIONSELEMENTE
100
AcDbLine
 62
7
  6
CONTINUOUS
 10
116.5156218681
 20
188.6816140072
 11
116.4295475273
 21
188.877322026
  0
LINE
  5
387
100
AcDbEntity
  8
KONSTRUKTIONSELEMENTE
100
AcDbLine
 62
7
  6
CONTINUOUS
 10
115.0135542502
 20
191.6551797622
 11
115.1243761314
 21
191.3912782626
  0
LINE
  5
388
100
AcDbEntity
  8
KONSTRUKTIONSELEMENTE
100
AcDbLine
 62
7
  6
CONTINUOUS
 10
125.6406520867
 20
187.8539889345
 11
125.5723425945
 21
188.2110225268
  0
LINE
  5
389
100
AcDbEntity
  8
KONSTRUKTIONSELEMENTE
100
AcDbLine
 62
7
  6
CONTINUOUS
 10
103.9611791914
 20
189.7021915313
 11
104.1376891624
 21
189.5067010202
  0
LINE
  5
38A
100
AcDbEntity
  8
KONSTRUKTIONSELEMENTE
100
AcDbLine
 62
7
  6
CONTINUOUS
 10
104.4808201031
 20
189.6880874972
 11
104.3043101321
 21
189.8835780083
  0
LINE
  5
38B
100
AcDbEntity
  8
KONSTRUKTIONSELEMENTE
100
AcDbLine
 62
7
  6
CONTINUOUS
 10
109.9098027231
 20
188.858914731
 11
109.5817622067
 21
189.3280541847
  0
LINE
  5
38C
100
AcDbEntity
  8
KONSTRUKTIONSELEMENTE
100
AcDbLine
 62
7
  6
CONTINUOUS
 10
110.5631840229
 20
191.6166179685
 11
110.8912245645
 21
191.1474783378
  0
LINE
  5
38D
100
AcDbEntity
  8
KONSTRUKTIONSELEMENTE
100
AcDbLine
 62
7
  6
CONTINUOUS
 10
114.9748177465
 20
190.2074439279
 11
115.091713703
 21
190.0284317699
  0
LINE
  5
38E
100
AcDbEntity
  8
KONSTRUKTIONSELEMENTE
100
AcDbLine
 62
7
  6
CONTINUOUS
 10
119.3523628425
 20
187.5745436925
 11
119.4700586634
 21
187.3448045976
  0
LINE
  5
38F
100
AcDbEntity
  8
KONSTRUKTIONSELEMENTE
100
AcDbLine
 62
7
  6
CONTINUOUS
 10
119.804675861
 20
187.4868275769
 11
119.6869800347
 21
187.716566658
  0
LINE
  5
390
100
AcDbEntity
  8
KONSTRUKTIONSELEMENTE
100
AcDbLine
 62
7
  6
CONTINUOUS
 10
118.8065476815
 20
191.0200049555
 11
118.6344004118
 21
191.4114205316
  0
LINE
  5
391
100
AcDbEntity
  8
KONSTRUKTIONSELEMENTE
100
AcDbLine
 62
7
  6
CONTINUOUS
 10
124.6753055143
 20
186.4520814177
 11
124.6170164975
 21
186.5955509507
  0
LINE
  5
392
100
AcDbEntity
  8
KONSTRUKTIONSELEMENTE
100
AcDbLine
 62
7
  6
CONTINUOUS
 10
100.977864537
 20
187.9372396041
 11
101.1845567908
 21
187.773989495
  0
LINE
  5
393
100
AcDbEntity
  8
KONSTRUKTIONSELEMENTE
100
AcDbLine
 62
7
  6
CONTINUOUS
 10
101.4925569359
 20
188.0101585174
 11
101.2858646821
 21
188.1734086265
  0
LINE
  5
394
100
AcDbEntity
  8
KONSTRUKTIONSELEMENTE
100
AcDbLine
 62
7
  6
CONTINUOUS
 10
109.5375201654
 20
188.7200310082
 11
109.7655839482
 21
188.4945653732
  0
LINE
  5
395
100
AcDbEntity
  8
KONSTRUKTIONSELEMENTE
100
AcDbLine
 62
7
  6
CONTINUOUS
 10
116.1613898882
 20
188.5915931152
 11
116.3103639069
 21
188.3807872689
  0
LINE
  5
396
100
AcDbEntity
  8
KONSTRUKTIONSELEMENTE
100
AcDbLine
 62
7
  6
CONTINUOUS
 10
117.9259283281
 20
189.5684295146
 11
118.0749023537
 21
189.3576236973
  0
LINE
  5
397
100
AcDbEntity
  8
KONSTRUKTIONSELEMENTE
100
AcDbLine
 62
7
  6
CONTINUOUS
 10
115.3680256192
 20
190.2646327389
 11
115.1926809461
 21
190.5331510288
  0
LINE
  5
398
100
AcDbEntity
  8
KONSTRUKTIONSELEMENTE
100
AcDbLine
 62
7
  6
CONTINUOUS
 10
104.3043101321
 20
189.8835780083
 11
103.9736494994
 21
190.0938469675
  0
LINE
  5
399
100
AcDbEntity
  8
KONSTRUKTIONSELEMENTE
100
AcDbLine
 62
7
  6
CONTINUOUS
 10
113.445993295
 20
188.7810042194
 11
113.7503820734
 21
188.5032524322
  0
LINE
  5
39A
100
AcDbEntity
  8
KONSTRUKTIONSELEMENTE
100
AcDbLine
 62
7
  6
CONTINUOUS
 10
110.9354665806
 20
191.7555016912
 11
110.707402802
 21
191.9809672968
  0
LINE
  5
39B
100
AcDbEntity
  8
KONSTRUKTIONSELEMENTE
100
AcDbLine
 62
7
  6
CONTINUOUS
 10
113.845275245
 20
188.9230824016
 11
113.6638564967
 21
189.10671135
  0
LINE
  5
39C
100
AcDbEntity
  8
KONSTRUKTIONSELEMENTE
100
AcDbLine
 62
7
  6
CONTINUOUS
 10
114.7933989982
 20
190.3910728763
 11
114.9748177465
 21
190.2074439279
  0
LINE
  5
39D
100
AcDbEntity
  8
KONSTRUKTIONSELEMENTE
100
AcDbLine
 62
7
  6
CONTINUOUS
 10
116.3103639069
 20
188.3807872689
 11
116.5222390378
 21
188.1548832278
  0
LINE
  5
39E
100
AcDbEntity
  8
KONSTRUKTIONSELEMENTE
100
AcDbLine
 62
7
  6
CONTINUOUS
 10
116.6215587163
 20
188.5686621703
 11
116.5156218681
 21
188.6816140072
  0
LINE
  5
39F
100
AcDbEntity
  8
KONSTRUKTIONSELEMENTE
100
AcDbLine
 62
7
  6
CONTINUOUS
 10
118.2603059384
 20
191.2386435157
 11
118.409279964
 21
191.0278376984
  0
LINE
  5
3A0
100
AcDbEntity
  8
KONSTRUKTIONSELEMENTE
100
AcDbLine
 62
7
  6
CONTINUOUS
 10
124.152547955
 20
186.6053856743
 11
124.2641139216
 21
186.4252298975
  0
LINE
  5
3A1
100
AcDbEntity
  8
KONSTRUKTIONSELEMENTE
100
AcDbLine
 62
7
  6
CONTINUOUS
 10
125.1178945274
 20
188.007293191
 11
125.229460494
 21
187.8271374142
  0
LINE
  5
3A2
100
AcDbEntity
  8
KONSTRUKTIONSELEMENTE
100
AcDbLine
 62
7
  6
CONTINUOUS
 10
101.2858646821
 20
188.1734086265
 11
100.9247193494
 21
188.3254728823
  0
LINE
  5
3A3
100
AcDbEntity
  8
KONSTRUKTIONSELEMENTE
100
AcDbLine
 62
7
  6
CONTINUOUS
 10
103.767254739
 20
189.7922105288
 11
103.9611791914
 21
189.7021915313
  0
LINE
  5
3A4
100
AcDbEntity
  8
KONSTRUKTIONSELEMENTE
100
AcDbLine
 62
7
  6
CONTINUOUS
 10
109.7655839482
 20
188.4945653732
 11
110.1217347792
 21
188.2873079291
  0
LINE
  5
3A5
100
AcDbEntity
  8
KONSTRUKTIONSELEMENTE
100
AcDbLine
 62
7
  6
CONTINUOUS
 10
110.1258886446
 20
188.7177084017
 11
109.9098027231
 21
188.858914731
  0
LINE
  5
3A6
100
AcDbEntity
  8
KONSTRUKTIONSELEMENTE
100
AcDbLine
 62
7
  6
CONTINUOUS
 10
118.3860957165
 20
189.5454989152
 11
118.1113209094
 21
189.7865007911
  0
LINE
  5
3A7
100
AcDbEntity
  8
KONSTRUKTIONSELEMENTE
100
AcDbLine
 62
7
  6
CONTINUOUS
 10
115.1926809461
 20
190.5331510288
 11
114.8882906893
 21
190.8109028993
  0
LINE
  5
3A8
100
AcDbEntity
  8
KONSTRUKTIONSELEMENTE
100
AcDbLine
 62
7
  6
CONTINUOUS
 10
115.2314174497
 20
191.9808868631
 11
114.9270286697
 21
192.258638628
  0
LINE
  5
3A9
100
AcDbEntity
  8
KONSTRUKTIONSELEMENTE
100
AcDbLine
 62
7
  6
CONTINUOUS
 10
119.4700586634
 20
187.3448045976
 11
119.6191113612
 21
187.1941846674
  0
LINE
  5
3AA
100
AcDbEntity
  8
KONSTRUKTIONSELEMENTE
100
AcDbLine
 62
7
  6
CONTINUOUS
 10
114.8321355019
 20
191.8388087106
 11
115.0135542502
 21
191.6551797622
  0
LINE
  5
3AB
100
AcDbEntity
  8
KONSTRUKTIONSELEMENTE
100
AcDbLine
 62
7
  6
CONTINUOUS
 10
118.6344004118
 20
191.4114205316
 11
118.4225267153
 21
191.6373242054
  0
LINE
  5
3AC
100
AcDbEntity
  8
KONSTRUKTIONSELEMENTE
100
AcDbLine
 62
7
  6
CONTINUOUS
 10
125.5723425945
 20
188.2110225268
 11
125.3542215087
 21
188.4645516309
  0
LINE
  5
3AD
100
AcDbEntity
  8
KONSTRUKTIONSELEMENTE
100
AcDbLine
 62
7
  6
CONTINUOUS
 10
123.4003128446
 20
185.0567306694
 11
123.7582262806
 21
185.1202692916
  0
LINE
  5
3AE
100
AcDbEntity
  8
KONSTRUKTIONSELEMENTE
100
AcDbLine
 62
7
  6
CONTINUOUS
 10
100.7716251429
 20
187.9935909426
 11
100.977864537
 21
187.9372396041
  0
LINE
  5
3AF
100
AcDbEntity
  8
KONSTRUKTIONSELEMENTE
100
AcDbLine
 62
7
  6
CONTINUOUS
 10
103.9736494994
 20
190.0938469675
 11
103.625574058
 21
190.1986442401
  0
LINE
  5
3B0
100
AcDbEntity
  8
KONSTRUKTIONSELEMENTE
100
AcDbLine
 62
7
  6
CONTINUOUS
 10
114.0327680685
 20
188.8243427948
 11
113.845275245
 21
188.9230824016
  0
LINE
  5
3B1
100
AcDbEntity
  8
KONSTRUKTIONSELEMENTE
100
AcDbLine
 62
7
  6
CONTINUOUS
 10
114.6059061747
 20
190.4898124831
 11
114.7933989982
 21
190.3910728763
  0
LINE
  5
3B2
100
AcDbEntity
  8
KONSTRUKTIONSELEMENTE
100
AcDbLine
 62
7
  6
CONTINUOUS
 10
116.9161974567
 20
188.4104160728
 11
116.6215587163
 21
188.5686621703
  0
LINE
  5
3B3
100
AcDbEntity
  8
KONSTRUKTIONSELEMENTE
100
AcDbLine
 62
7
  6
CONTINUOUS
 10
110.707402802
 20
191.9809672968
 11
110.3512519741
 21
192.1882247187
  0
LINE
  5
3B4
100
AcDbEntity
  8
KONSTRUKTIONSELEMENTE
100
AcDbLine
 62
7
  6
CONTINUOUS
 10
116.5222390378
 20
188.1548832278
 11
116.7539781055
 21
188.0117349796
  0
LINE
  5
3B5
100
AcDbEntity
  8
KONSTRUKTIONSELEMENTE
100
AcDbLine
 62
7
  6
CONTINUOUS
 10
110.3470981013
 20
191.7578242977
 11
110.5631840229
 21
191.6166179685
  0
LINE
  5
3B6
100
AcDbEntity
  8
KONSTRUKTIONSELEMENTE
100
AcDbLine
 62
7
  6
CONTINUOUS
 10
119.6191113612
 20
187.1941846674
 11
119.9485736337
 21
186.9720639717
  0
LINE
  5
3B7
100
AcDbEntity
  8
KONSTRUKTIONSELEMENTE
100
AcDbLine
 62
7
  6
CONTINUOUS
 10
121.8069908031
 20
186.0505523217
 11
123.0856571109
 21
185.1700690353
  0
LINE
  5
3B8
100
AcDbEntity
  8
KONSTRUKTIONSELEMENTE
100
AcDbLine
 62
7
  6
CONTINUOUS
 10
123.4285380257
 20
185.5539550367
 11
122.416261345
 21
186.2510037453
  0
LINE
  5
3B9
100
AcDbEntity
  8
KONSTRUKTIONSELEMENTE
100
AcDbLine
 62
7
  6
CONTINUOUS
 10
123.1402712743
 20
187.3024343828
 11
124.152547955
 21
186.6053856743
  0
LINE
  5
3BA
100
AcDbEntity
  8
KONSTRUKTIONSELEMENTE
100
AcDbLine
 62
7
  6
CONTINUOUS
 10
124.4421518862
 20
187.0259578704
 11
123.4298752054
 21
187.723006579
  0
LINE
  5
3BB
100
AcDbEntity
  8
KONSTRUKTIONSELEMENTE
100
AcDbLine
 62
7
  6
CONTINUOUS
 10
120.0740011416
 20
187.2885406308
 11
119.804675861
 21
187.4868275769
  0
LINE
  5
3BC
100
AcDbEntity
  8
KONSTRUKTIONSELEMENTE
100
AcDbLine
 62
7
  6
CONTINUOUS
 10
100.5658387553
 20
187.9430436232
 11
100.7716251429
 21
187.9935909426
  0
LINE
  5
3BD
100
AcDbEntity
  8
KONSTRUKTIONSELEMENTE
100
AcDbLine
 62
7
  6
CONTINUOUS
 10
114.3895314857
 20
188.3721954971
 11
114.718216567
 21
188.4340011058
  0
LINE
  5
3BE
100
AcDbEntity
  8
KONSTRUKTIONSELEMENTE
100
AcDbLine
 62
7
  6
CONTINUOUS
 10
118.064975861
 20
190.1477199631
 11
117.6478442102
 21
190.0727969276
  0
LINE
  5
3BF
100
AcDbEntity
  8
KONSTRUKTIONSELEMENTE
100
AcDbLine
 62
7
  6
CONTINUOUS
 10
117.2571826713
 20
187.8909503998
 11
117.528649609
 21
187.9133137228
  0
LINE
  5
3C0
100
AcDbEntity
  8
KONSTRUKTIONSELEMENTE
100
AcDbLine
 62
7
  6
CONTINUOUS
 10
112.1919339709
 20
188.4140715385
 11
112.5151729487
 21
188.425353525
  0
LINE
  5
3C1
100
AcDbEntity
  8
KONSTRUKTIONSELEMENTE
100
AcDbLine
 62
7
  6
CONTINUOUS
 10
112.5003296774
 20
188.8506264908
 11
112.1770906995
 21
188.8393445044
  0
LINE
  5
3C2
100
AcDbEntity
  8
KONSTRUKTIONSELEMENTE
100
AcDbLine
 62
7
  6
CONTINUOUS
 10
117.6279692875
 20
188.3270926653
 11
117.2936012409
 21
188.3198275516
  0
LINE
  5
3C3
100
AcDbEntity
  8
KONSTRUKTIONSELEMENTE
100
AcDbLine
 62
7
  6
CONTINUOUS
 10
124.6170164975
 20
186.5955509507
 11
124.771840158
 21
186.5922721498
  0
LINE
  5
3C4
100
AcDbEntity
  8
KONSTRUKTIONSELEMENTE
100
AcDbLine
 62
7
  6
CONTINUOUS
 10
114.0669204801
 20
188.3952792373
 11
114.3895314857
 21
188.3721954971
  0
LINE
  5
3C5
100
AcDbEntity
  8
KONSTRUKTIONSELEMENTE
100
AcDbLine
 62
7
  6
CONTINUOUS
 10
114.4844246578
 20
188.7920254739
 11
114.0327680685
 21
188.8243427948
  0
LINE
  5
3C6
100
AcDbEntity
  8
KONSTRUKTIONSELEMENTE
100
AcDbLine
 62
7
  6
CONTINUOUS
 10
110.1217347792
 20
188.2873079291
 11
110.5179730521
 21
188.257673092
  0
LINE
  5
3C7
100
AcDbEntity
  8
KONSTRUKTIONSELEMENTE
100
AcDbLine
 62
7
  6
CONTINUOUS
 10
110.4580837583
 20
188.6789695323
 11
110.1258886446
 21
188.7177084017
  0
LINE
  5
3C8
100
AcDbEntity
  8
KONSTRUKTIONSELEMENTE
100
AcDbLine
 62
7
  6
CONTINUOUS
 10
100.9247193494
 20
188.3254728823
 11
100.5640270231
 21
188.3706384802
  0
LINE
  5
3C9
100
AcDbEntity
  8
KONSTRUKTIONSELEMENTE
100
AcDbLine
 62
7
  6
CONTINUOUS
 10
123.636638636
 20
185.5139899919
 11
123.4285380257
 21
185.5539550367
  0
LINE
  5
3CA
100
AcDbEntity
  8
KONSTRUKTIONSELEMENTE
100
AcDbLine
 62
7
  6
CONTINUOUS
 10
124.6502524965
 20
186.9859928256
 11
124.4421518862
 21
187.0259578704
  0
LINE
  5
3CB
100
AcDbEntity
  8
KONSTRUKTIONSELEMENTE
100
AcDbLine
 62
7
  6
CONTINUOUS
 10
116.7539781055
 20
188.0117349796
 11
117.2571826713
 21
187.8909503998
  0
LINE
  5
3CC
100
AcDbEntity
  8
KONSTRUKTIONSELEMENTE
100
AcDbLine
 62
7
  6
CONTINUOUS
 10
117.2936012409
 20
188.3198275516
 11
116.9161974567
 21
188.4104160728
  0
LINE
  5
3CD
100
AcDbEntity
  8
KONSTRUKTIONSELEMENTE
100
AcDbLine
 62
7
  6
CONTINUOUS
 10
116.4063757229
 20
189.0579314393
 11
116.0918716096
 21
189.133422104
  0
LINE
  5
3CE
100
AcDbEntity
  8
KONSTRUKTIONSELEMENTE
100
AcDbLine
 62
7
  6
CONTINUOUS
 10
117.3167854745
 20
189.8021662768
 11
117.5683884772
 21
189.7417738141
  0
LINE
  5
3CF
100
AcDbEntity
  8
KONSTRUKTIONSELEMENTE
100
AcDbLine
 62
7
  6
CONTINUOUS
 10
113.7503820734
 20
188.5032524322
 11
114.0669204801
 21
188.3952792373
  0
LINE
  5
3D0
100
AcDbEntity
  8
KONSTRUKTIONSELEMENTE
100
AcDbLine
 62
7
  6
CONTINUOUS
 10
114.8882906893
 20
190.8109028993
 11
114.5717537589
 21
190.9188759811
  0
LINE
  5
3D1
100
AcDbEntity
  8
KONSTRUKTIONSELEMENTE
100
AcDbLine
 62
7
  6
CONTINUOUS
 10
123.0856571109
 20
185.1700690353
 11
123.4003128446
 21
185.0567306694
  0
LINE
  5
3D2
100
AcDbEntity
  8
KONSTRUKTIONSELEMENTE
100
AcDbLine
 62
7
  6
CONTINUOUS
 10
119.5035635692
 20
189.7117391955
 11
119.9846553098
 21
189.5210706695
  0
LINE
  5
3D3
100
AcDbEntity
  8
KONSTRUKTIONSELEMENTE
100
AcDbLine
 62
7
  6
CONTINUOUS
 10
120.2853374756
 20
189.4019029089
 11
120.9468401674
 21
189.139733072
  0
LINE
  5
3D4
100
AcDbEntity
  8
KONSTRUKTIONSELEMENTE
100
AcDbLine
 62
7
  6
CONTINUOUS
 10
121.0722676643
 20
189.4562097033
 11
120.4107649726
 21
189.7183795402
  0
LINE
  5
3D5
100
AcDbEntity
  8
KONSTRUKTIONSELEMENTE
100
AcDbLine
 62
7
  6
CONTINUOUS
 10
120.1100828067
 20
189.8375473008
 11
119.6289910661
 21
190.0282158268
  0
LINE
  5
3D6
100
AcDbEntity
  8
KONSTRUKTIONSELEMENTE
100
AcDbLine
 62
7
  6
CONTINUOUS
 10
118.4225267153
 20
191.6373242054
 11
118.0020857538
 21
191.8257667071
  0
LINE
  5
3D7
100
AcDbEntity
  8
KONSTRUKTIONSELEMENTE
100
AcDbLine
 62
7
  6
CONTINUOUS
 10
117.5683884772
 20
189.7417738141
 11
117.9259283281
 21
189.5684295146
  0
LINE
  5
3D8
100
AcDbEntity
  8
KONSTRUKTIONSELEMENTE
100
AcDbLine
 62
7
  6
CONTINUOUS
 10
121.2036898546
 20
187.978497661
 11
122.0065725745
 21
187.5595358587
  0
LINE
  5
3D9
100
AcDbEntity
  8
KONSTRUKTIONSELEMENTE
100
AcDbLine
 62
7
  6
CONTINUOUS
 10
122.2034337545
 20
187.9367932571
 11
121.4005510345
 21
188.3557550595
  0
LINE
  5
3DA
100
AcDbEntity
  8
KONSTRUKTIONSELEMENTE
100
AcDbLine
 62
7
  6
CONTINUOUS
 10
114.6446426783
 20
191.9375483174
 11
114.8321355019
 21
191.8388087106
  0
LINE
  5
3DB
100
AcDbEntity
  8
KONSTRUKTIONSELEMENTE
100
AcDbLine
 62
7
  6
CONTINUOUS
 10
117.9656671981
 20
191.3968896132
 11
118.2603059384
 21
191.2386435157
  0
LINE
  5
3DC
100
AcDbEntity
  8
KONSTRUKTIONSELEMENTE
100
AcDbLine
 62
7
  6
CONTINUOUS
 10
124.1056178467
 20
188.7043418996
 11
125.1178945274
 21
188.007293191
  0
LINE
  5
3DD
100
AcDbEntity
  8
KONSTRUKTIONSELEMENTE
100
AcDbLine
 62
7
  6
CONTINUOUS
 10
125.3542215087
 20
188.4645516309
 11
124.0755552009
 21
189.3450349173
  0
LINE
  5
3DE
100
AcDbEntity
  8
0
100
AcDbLine
 62
7
  6
CONTINUOUS
 10
129.4584019353
 20
87.0902640893
 11
129.9584019353
 21
87.5902640893
  0
LINE
  5
3DF
100
AcDbEntity
  8
KONSTRUKTIONSELEMENTE
100
AcDbLine
 62
7
  6
CONTINUOUS
 10
103.625574058
 20
190.1986442401
 11
103.2998579258
 21
190.1227294497
  0
LINE
  5
3E0
100
AcDbEntity
  8
KONSTRUKTIONSELEMENTE
100
AcDbLine
 62
7
  6
CONTINUOUS
 10
114.2491427533
 20
190.9419597214
 11
113.9204561956
 21
190.8801542257
  0
LINE
  5
3E1
100
AcDbEntity
  8
KONSTRUKTIONSELEMENTE
100
AcDbLine
 62
7
  6
CONTINUOUS
 10
114.3524020488
 20
192.3850787654
 11
114.0237154911
 21
192.3232732698
  0
LINE
  5
3E2
100
AcDbEntity
  8
KONSTRUKTIONSELEMENTE
100
AcDbLine
 62
7
  6
CONTINUOUS
 10
103.5559154781
 20
189.7767578398
 11
103.767254739
 21
189.7922105288
  0
LINE
  5
3E3
100
AcDbEntity
  8
KONSTRUKTIONSELEMENTE
100
AcDbLine
 62
7
  6
CONTINUOUS
 10
117.3796975885
 20
191.4500166166
 11
117.7140641953
 21
191.4572820759
  0
LINE
  5
3E4
100
AcDbEntity
  8
KONSTRUKTIONSELEMENTE
100
AcDbLine
 62
7
  6
CONTINUOUS
 10
117.8762849723
 20
191.8559627656
 11
117.4161161442
 21
191.8788937105
  0
LINE
  5
3E5
100
AcDbEntity
  8
KONSTRUKTIONSELEMENTE
100
AcDbLine
 62
7
  6
CONTINUOUS
 10
114.1542495854
 20
190.522129804
 11
114.6059061747
 21
190.4898124831
  0
LINE
  5
3E6
100
AcDbEntity
  8
KONSTRUKTIONSELEMENTE
100
AcDbLine
 62
7
  6
CONTINUOUS
 10
114.5717537589
 20
190.9188759811
 11
114.2491427533
 21
190.9419597214
  0
LINE
  5
3E7
100
AcDbEntity
  8
KONSTRUKTIONSELEMENTE
100
AcDbLine
 62
7
  6
CONTINUOUS
 10
115.1243761314
 20
191.3912782626
 11
115.4469886138
 21
191.3681944167
  0
LINE
  5
3E8
100
AcDbEntity
  8
KONSTRUKTIONSELEMENTE
100
AcDbLine
 62
7
  6
CONTINUOUS
 10
114.2575088809
 20
191.965248848
 11
114.6446426783
 21
191.9375483174
  0
LINE
  5
3E9
100
AcDbEntity
  8
KONSTRUKTIONSELEMENTE
100
AcDbLine
 62
7
  6
CONTINUOUS
 10
114.6104902625
 20
192.3666118154
 11
114.3524020488
 21
192.3850787654
  0
LINE
  5
3EA
100
AcDbEntity
  8
KONSTRUKTIONSELEMENTE
100
AcDbLine
 62
7
  6
CONTINUOUS
 10
110.3512519741
 20
192.1882247187
 11
109.9550137022
 21
192.2178595485
  0
LINE
  5
3EB
100
AcDbEntity
  8
KONSTRUKTIONSELEMENTE
100
AcDbLine
 62
7
  6
CONTINUOUS
 10
110.0149029877
 20
191.7965631672
 11
110.3470981013
 21
191.7578242977
  0
LINE
  5
3EC
100
AcDbEntity
  8
KONSTRUKTIONSELEMENTE
100
AcDbLine
 62
7
  6
CONTINUOUS
 10
117.6478442102
 20
190.0727969276
 11
117.3962412075
 21
190.1331893902
  0
LINE
  5
3ED
100
AcDbEntity
  8
KONSTRUKTIONSELEMENTE
100
AcDbLine
 62
7
  6
CONTINUOUS
 10
116.6513711352
 20
191.1872187087
 11
116.9658738088
 21
191.1117283895
  0
LINE
  5
3EE
100
AcDbEntity
  8
KONSTRUKTIONSELEMENTE
100
AcDbLine
 62
7
  6
CONTINUOUS
 10
117.7140641953
 20
191.4572820759
 11
117.9656671981
 21
191.3968896132
  0
LINE
  5
3EF
100
AcDbEntity
  8
KONSTRUKTIONSELEMENTE
100
AcDbLine
 62
7
  6
CONTINUOUS
 10
118.0020857538
 20
191.8257667071
 11
117.8762849723
 21
191.8559627656
  0
LINE
  5
3F0
100
AcDbEntity
  8
KONSTRUKTIONSELEMENTE
100
AcDbLine
 62
7
  6
CONTINUOUS
 10
114.9270286697
 20
192.258638628
 11
114.6104902625
 21
192.3666118154
  0
LINE
  5
3F1
100
AcDbEntity
  8
KONSTRUKTIONSELEMENTE
100
AcDbLine
 62
7
  6
CONTINUOUS
 10
120.6616200542
 20
190.3513330245
 11
120.3609378884
 21
190.4705007851
  0
LINE
  5
3F2
100
AcDbEntity
  8
0
100
AcDbLine
 62
7
  6
CONTINUOUS
 10
166.2814993752
 20
87.0902640893
 11
199.2814993752
 21
87.0902640893
  0
LINE
  5
3F3
100
AcDbEntity
  8
0
100
AcDbLine
 62
7
  6
CONTINUOUS
 10
199.7814993752
 20
87.5902640893
 11
165.7814993752
 21
87.5902640893
  0
LINE
  5
3F4
100
AcDbEntity
  8
0
100
AcDbLine
 62
7
  6
CONTINUOUS
 10
166.2814993752
 20
87.0902640893
 11
165.7814993752
 21
87.5902640893
  0
LINE
  5
3F5
100
AcDbEntity
  8
RUNDUNGEN
100
AcDbLine
 62
7
  6
CONTINUOUS
 10
194.1833422756
 20
105.9902640893
 11
171.3796554023
 21
105.9902640893
  0
LINE
  5
3F6
100
AcDbEntity
  8
0
100
AcDbLine
 62
7
  6
CONTINUOUS
 10
171.9764993752
 20
114.4502640893
 11
173.9764993752
 21
114.4502640893
  0
LINE
  5
3F7
100
AcDbEntity
  8
0
100
AcDbLine
 62
7
  6
CONTINUOUS
 10
173.9764993752
 20
114.7002640893
 11
171.9764993752
 21
114.7002640893
  0
LINE
  5
3F8
100
AcDbEntity
  8
0
100
AcDbLine
 62
7
  6
CONTINUOUS
 10
171.9764993752
 20
115.0335973431
 11
173.9764993752
 21
115.0335973431
  0
LINE
  5
3F9
100
AcDbEntity
  8
0
100
AcDbLine
 62
7
  6
CONTINUOUS
 10
172.5722441043
 20
116.3252640893
 11
172.6999036635
 21
116.2835973431
  0
LINE
  5
3FA
100
AcDbEntity
  8
0
100
AcDbLine
 62
7
  6
CONTINUOUS
 10
172.74245685
 20
116.5335975816
 11
172.6147972907
 21
116.5752640893
  0
LINE
  5
3FB
100
AcDbEntity
  8
0
100
AcDbLine
 62
7
  6
CONTINUOUS
 10
173.9764993752
 20
113.4502640893
 11
171.9764993752
 21
114.1169307162
  0
LINE
  5
3FC
100
AcDbEntity
  8
0
100
AcDbLine
 62
7
  6
CONTINUOUS
 10
171.9764993752
 20
113.8669307162
 11
173.7211802269
 21
113.2835974027
  0
LINE
  5
3FD
100
AcDbEntity
  8
0
100
AcDbLine
 62
7
  6
CONTINUOUS
 10
173.9764993752
 20
115.2835973431
 11
173.0828823413
 21
115.2835973431
  0
LINE
  5
3FE
100
AcDbEntity
  8
0
100
AcDbLine
 62
7
  6
CONTINUOUS
 10
172.8275632228
 20
115.2835973431
 11
172.1892653073
 21
115.2835973431
  0
LINE
  5
3FF
100
AcDbEntity
  8
0
100
AcDbLine
 62
7
  6
CONTINUOUS
 10
194.33322693
 20
116.0164366759
 11
193.8799762589
 21
116.0164366759
  0
LINE
  5
400
100
AcDbEntity
  8
0
100
AcDbLine
 62
7
  6
CONTINUOUS
 10
191.8015152898
 20
116.0164366759
 11
191.3482646187
 21
116.0164366759
  0
LINE
  5
401
100
AcDbEntity
  8
0
100
AcDbLine
 62
7
  6
CONTINUOUS
 10
172.4445844258
 20
116.3252640893
 11
172.5722441043
 21
116.3252640893
  0
LINE
  5
402
100
AcDbEntity
  8
0
100
AcDbLine
 62
7
  6
CONTINUOUS
 10
172.6147972907
 20
116.5752640893
 11
172.4445844258
 21
116.5752640893
  0
LINE
  5
403
100
AcDbEntity
  8
0
100
AcDbLine
 62
7
  6
CONTINUOUS
 10
193.0707457743
 20
118.2664366759
 11
192.6174951032
 21
118.2664366759
  0
LINE
  5
404
100
AcDbEntity
  8
0
100
AcDbLine
 62
7
  6
CONTINUOUS
 10
194.33322693
 20
118.5664366759
 11
193.8799762589
 21
118.5664366759
  0
LINE
  5
405
100
AcDbEntity
  8
0
100
AcDbLine
 62
7
  6
CONTINUOUS
 10
191.8015152898
 20
118.5664366759
 11
191.3482646187
 21
118.5664366759
  0
LINE
  5
406
100
AcDbEntity
  8
0
100
AcDbLine
 62
7
  6
CONTINUOUS
 10
173.1254355277
 20
118.9085975816
 11
173.3807547058
 21
118.9085975816
  0
LINE
  5
407
100
AcDbEntity
  8
0
100
AcDbLine
 62
7
  6
CONTINUOUS
 10
172.9126695956
 20
116.4085973431
 11
172.74245685
 21
116.5335975816
  0
LINE
  5
408
100
AcDbEntity
  8
0
100
AcDbLine
 62
7
  6
CONTINUOUS
 10
171.9764993752
 20
119.9085975816
 11
173.1254355277
 21
118.9085975816
  0
LINE
  5
409
100
AcDbEntity
  8
0
100
AcDbLine
 62
7
  6
CONTINUOUS
 10
173.1254355277
 20
119.2002640893
 11
172.3169248666
 21
119.9085975816
  0
LINE
  5
40A
100
AcDbEntity
  8
0
100
AcDbLine
 62
7
  6
CONTINUOUS
 10
172.6999036635
 20
116.2835973431
 11
172.7850100364
 21
116.2002640893
  0
LINE
  5
40B
100
AcDbEntity
  8
0
100
AcDbLine
 62
7
  6
CONTINUOUS
 10
173.0403291549
 20
116.2419308354
 11
172.9126695956
 21
116.4085973431
  0
LINE
  5
40C
100
AcDbEntity
  8
0
100
AcDbLine
 62
7
  6
CONTINUOUS
 10
172.3169248666
 20
119.9085975816
 11
173.1254355277
 21
119.9085975816
  0
LINE
  5
40D
100
AcDbEntity
  8
0
100
AcDbLine
 62
7
  6
CONTINUOUS
 10
173.3807547058
 20
119.9085975816
 11
173.9764993752
 21
119.9085975816
  0
LINE
  5
40E
100
AcDbEntity
  8
0
100
AcDbLine
 62
7
  6
CONTINUOUS
 10
173.9764993752
 20
120.1585975816
 11
173.3807547058
 21
120.1585975816
  0
LINE
  5
40F
100
AcDbEntity
  8
0
100
AcDbLine
 62
7
  6
CONTINUOUS
 10
173.1254355277
 20
120.1585975816
 11
171.9764993752
 21
120.1585975816
  0
LINE
  5
410
100
AcDbEntity
  8
0
100
AcDbLine
 62
7
  6
CONTINUOUS
 10
173.3807547058
 20
120.5752640893
 11
173.1254355277
 21
120.5752640893
  0
LINE
  5
411
100
AcDbEntity
  8
0
100
AcDbLine
 62
7
  6
CONTINUOUS
 10
165.7814993752
 20
112.2223148968
 11
165.7814993752
 21
87.5902640893
  0
LINE
  5
412
100
AcDbEntity
  8
0
100
AcDbLine
 62
7
  6
CONTINUOUS
 10
172.7850100364
 20
116.2002640893
 11
172.8275632228
 21
116.0752640893
  0
LINE
  5
413
100
AcDbEntity
  8
RUNDUNGEN
100
AcDbLine
 62
7
  6
CONTINUOUS
 10
169.7814993752
 20
126.4238010099
 11
169.7814993752
 21
120.3562894931
  0
LINE
  5
414
100
AcDbEntity
  8
0
100
AcDbLine
 62
7
  6
CONTINUOUS
 10
171.63780549
 20
128.9902640893
 11
176.5968409368
 21
128.9902640893
  0
LINE
  5
415
100
AcDbEntity
  8
0
100
AcDbLine
 62
7
  6
CONTINUOUS
 10
188.9661578137
 20
128.9902640893
 11
193.9251930608
 21
128.9902640893
  0
LINE
  5
416
100
AcDbEntity
  8
RUNDUNGEN
100
AcDbLine
 62
7
  6
CONTINUOUS
 10
187.6119418246
 20
117.839611827
 11
187.2814993752
 21
118.2066053467
  0
LINE
  5
417
100
AcDbEntity
  8
0
100
AcDbLine
 62
7
  6
CONTINUOUS
 10
173.0828823413
 20
116.0335973431
 11
173.0403291549
 21
116.2419308354
  0
LINE
  5
418
100
AcDbEntity
  8
0
100
AcDbLine
 62
7
  6
CONTINUOUS
 10
171.9764993752
 20
120.1585975816
 11
171.9764993752
 21
119.9085975816
  0
LINE
  5
419
100
AcDbEntity
  8
0
100
AcDbLine
 62
7
  6
CONTINUOUS
 10
171.9764993752
 20
116.0335973431
 11
171.9764993752
 21
115.0335973431
  0
LINE
  5
41A
100
AcDbEntity
  8
0
100
AcDbLine
 62
7
  6
CONTINUOUS
 10
171.9764993752
 20
114.7002640893
 11
171.9764993752
 21
114.4502640893
  0
LINE
  5
41B
100
AcDbEntity
  8
0
100
AcDbLine
 62
7
  6
CONTINUOUS
 10
171.9764993752
 20
114.1169307162
 11
171.9764993752
 21
113.8669307162
  0
LINE
  5
41C
100
AcDbEntity
  8
0
100
AcDbLine
 62
7
  6
CONTINUOUS
 10
171.9764993752
 20
112.7002640893
 11
171.9764993752
 21
112.4502640893
  0
LINE
  5
41D
100
AcDbEntity
  8
0
100
AcDbLine
 62
7
  6
CONTINUOUS
 10
172.1892653073
 20
115.2835973431
 11
172.1892653073
 21
116.0752640893
  0
LINE
  5
41E
100
AcDbEntity
  8
0
100
AcDbLine
 62
7
  6
CONTINUOUS
 10
172.8275632228
 20
116.0752640893
 11
172.8275632228
 21
115.2835973431
  0
LINE
  5
41F
100
AcDbEntity
  8
0
100
AcDbLine
 62
7
  6
CONTINUOUS
 10
173.0828823413
 20
115.2835973431
 11
173.0828823413
 21
116.0335973431
  0
LINE
  5
420
100
AcDbEntity
  8
0
100
AcDbLine
 62
7
  6
CONTINUOUS
 10
173.1254355277
 20
120.5752640893
 11
173.1254355277
 21
120.1585975816
  0
LINE
  5
421
100
AcDbEntity
  8
0
100
AcDbLine
 62
7
  6
CONTINUOUS
 10
173.1254355277
 20
119.9085975816
 11
173.1254355277
 21
119.2002640893
  0
LINE
  5
422
100
AcDbEntity
  8
0
100
AcDbLine
 62
7
  6
CONTINUOUS
 10
173.3807547058
 20
118.9085975816
 11
173.3807547058
 21
119.9085975816
  0
LINE
  5
423
100
AcDbEntity
  8
0
100
AcDbLine
 62
7
  6
CONTINUOUS
 10
173.3807547058
 20
120.1585975816
 11
173.3807547058
 21
120.5752640893
  0
LINE
  5
424
100
AcDbEntity
  8
0
100
AcDbLine
 62
7
  6
CONTINUOUS
 10
173.9764993752
 20
113.1169307758
 11
173.9764993752
 21
113.4502640893
  0
LINE
  5
425
100
AcDbEntity
  8
0
100
AcDbLine
 62
7
  6
CONTINUOUS
 10
173.9764993752
 20
114.4502640893
 11
173.9764993752
 21
114.7002640893
  0
LINE
  5
426
100
AcDbEntity
  8
0
100
AcDbLine
 62
7
  6
CONTINUOUS
 10
173.9764993752
 20
115.0335973431
 11
173.9764993752
 21
115.2835973431
  0
LINE
  5
427
100
AcDbEntity
  8
0
100
AcDbLine
 62
7
  6
CONTINUOUS
 10
173.9764993752
 20
119.9085975816
 11
173.9764993752
 21
120.1585975816
  0
LINE
  5
428
100
AcDbEntity
  8
KONSTRUKTIONSELEMENTE
100
AcDbLine
 62
7
  6
CONTINUOUS
 10
178.2814993752
 20
190.5455453098
 11
178.2814993752
 21
173.9118128265
  0
LINE
  5
429
100
AcDbEntity
  8
KONSTRUKTIONSELEMENTE
100
AcDbLine
 62
7
  6
CONTINUOUS
 10
178.2814993752
 20
133.2695179737
 11
178.2814993752
 21
116.5902640893
  0
LINE
  5
42A
100
AcDbEntity
  8
0
100
AcDbLine
 62
7
  6
CONTINUOUS
 10
172.0190525617
 20
116.2419308354
 11
171.9764993752
 21
116.0335973431
  0
LINE
  5
42B
100
AcDbEntity
  8
KONSTRUKTIONSELEMENTE
100
AcDbLine
 62
7
  6
CONTINUOUS
 10
187.2815610828
 20
173.9206214038
 11
184.7814993752
 21
164.5902640893
  0
LINE
  5
42C
100
AcDbEntity
  8
KONSTRUKTIONSELEMENTE
100
AcDbLine
 62
7
  6
CONTINUOUS
 10
180.7814993752
 20
164.5902640893
 11
180.7814993752
 21
142.5902640893
  0
LINE
  5
42D
100
AcDbEntity
  8
KONSTRUKTIONSELEMENTE
100
AcDbLine
 62
7
  6
CONTINUOUS
 10
178.2814380461
 20
133.2599081868
 11
180.7814993752
 21
142.5902640893
  0
LINE
  5
42E
100
AcDbEntity
  8
0
100
AcDbLine
 62
7
  6
CONTINUOUS
 10
172.1892653073
 20
116.0752640893
 11
172.2318184937
 21
116.2002640893
  0
LINE
  5
42F
100
AcDbEntity
  8
RUNDUNGEN
100
AcDbLine
 62
7
  6
CONTINUOUS
 10
169.3125882885
 20
118.6062894931
 11
165.9154739715
 21
112.7223148968
  0
LINE
  5
430
100
AcDbEntity
  8
RUNDUNGEN
100
AcDbLine
 62
7
  6
CONTINUOUS
 10
170.8717625903
 20
128.6330516989
 11
170.3663882674
 21
128.0307700341
  0
LINE
  5
431
100
AcDbEntity
  8
RUNDUNGEN
100
AcDbLine
 62
7
  6
CONTINUOUS
 10
199.647524779
 20
112.7223148968
 11
196.250410462
 21
118.6062894931
  0
LINE
  5
432
100
AcDbEntity
  8
KONSTRUKTIONSELEMENTE
100
AcDbLine
 62
7
  6
CONTINUOUS
 10
184.7814993752
 20
164.5902640893
 11
184.7814993752
 21
142.5902640893
  0
LINE
  5
433
100
AcDbEntity
  8
KONSTRUKTIONSELEMENTE
100
AcDbLine
 62
7
  6
CONTINUOUS
 10
185.2064993752
 20
161.0902640893
 11
185.2064993752
 21
156.5902640893
  0
LINE
  5
434
100
AcDbEntity
  8
KONSTRUKTIONSELEMENTE
100
AcDbLine
 62
7
  6
CONTINUOUS
 10
185.2064993752
 20
155.0902640893
 11
185.2064993752
 21
150.5902640893
  0
LINE
  5
435
100
AcDbEntity
  8
KONSTRUKTIONSELEMENTE
100
AcDbLine
 62
7
  6
CONTINUOUS
 10
185.2064993752
 20
149.0902640893
 11
185.2064993752
 21
144.5902640893
  0
LINE
  5
436
100
AcDbEntity
  8
KONSTRUKTIONSELEMENTE
100
AcDbLine
 62
7
  6
CONTINUOUS
 10
184.7814993752
 20
144.5902640893
 11
185.2064993752
 21
144.5902640893
  0
LINE
  5
437
100
AcDbEntity
  8
RUNDUNGEN
100
AcDbLine
 62
7
  6
CONTINUOUS
 10
195.1966071611
 20
128.0307739931
 11
194.6912361602
 21
128.6330516989
  0
LINE
  5
438
100
AcDbEntity
  8
KONSTRUKTIONSELEMENTE
100
AcDbLine
 62
7
  6
CONTINUOUS
 10
184.7814993752
 20
142.5902640893
 11
187.2815561976
 21
133.2599250063
  0
LINE
  5
439
100
AcDbEntity
  8
KONSTRUKTIONSELEMENTE
100
AcDbLine
 62
7
  6
CONTINUOUS
 10
180.7814993752
 20
164.5902640893
 11
178.2814426383
 21
173.9206028534
  0
LINE
  5
43A
100
AcDbEntity
  8
KONSTRUKTIONSELEMENTE
100
AcDbLine
 62
7
  6
CONTINUOUS
 10
187.2814993752
 20
185.8072910342
 11
187.2814993752
 21
173.911001873
  0
LINE
  5
43B
100
AcDbEntity
  8
KONSTRUKTIONSELEMENTE
100
AcDbLine
 62
7
  6
CONTINUOUS
 10
187.2814993752
 20
133.2687201861
 11
187.2814993752
 21
116.5902640893
  0
LINE
  5
43C
100
AcDbEntity
  8
KONSTRUKTIONSELEMENTE
100
AcDbLine
 62
7
  6
CONTINUOUS
 10
187.7814993752
 20
192.3850787654
 11
187.7814993752
 21
184.1224436354
  0
LINE
  5
43D
100
AcDbEntity
  8
0
100
AcDbLine
 62
7
  6
CONTINUOUS
 10
172.1467121209
 20
116.4085973431
 11
172.0190525617
 21
116.2419308354
  0
LINE
  5
43E
100
AcDbEntity
  8
KONSTRUKTIONSELEMENTE
100
AcDbLine
 62
7
  6
CONTINUOUS
 10
184.7814993752
 20
149.0902640893
 11
185.2064993752
 21
149.0902640893
  0
LINE
  5
43F
100
AcDbEntity
  8
0
100
AcDbLine
 62
7
  6
CONTINUOUS
 10
192.6174951032
 20
118.2664366759
 11
192.6174951032
 21
117.3904448934
  0
LINE
  5
440
100
AcDbEntity
  8
0
100
AcDbLine
 62
7
  6
CONTINUOUS
 10
193.0707457743
 20
117.391936798
 11
193.0707457743
 21
118.2664366759
  0
LINE
  5
441
100
AcDbEntity
  8
0
100
AcDbLine
 62
7
  6
CONTINUOUS
 10
191.7925899464
 20
115.8134525843
 11
191.8015152898
 21
116.0164366759
  0
LINE
  5
442
100
AcDbEntity
  8
0
100
AcDbLine
 62
7
  6
CONTINUOUS
 10
172.2318184937
 20
116.2002640893
 11
172.3169248666
 21
116.2835973431
  0
LINE
  5
443
100
AcDbEntity
  8
KONSTRUKTIONSELEMENTE
100
AcDbLine
 62
7
  6
CONTINUOUS
 10
184.7814993752
 20
150.5902640893
 11
185.2064993752
 21
150.5902640893
  0
LINE
  5
444
100
AcDbEntity
  8
KONSTRUKTIONSELEMENTE
100
AcDbLine
 62
7
  6
CONTINUOUS
 10
184.7814993752
 20
150.6860087671
 11
185.2064993752
 21
150.6860087671
  0
LINE
  5
445
100
AcDbEntity
  8
KONSTRUKTIONSELEMENTE
100
AcDbLine
 62
7
  6
CONTINUOUS
 10
184.7814993752
 20
150.8774981311
 11
185.2064993752
 21
150.8774981311
  0
LINE
  5
446
100
AcDbEntity
  8
KONSTRUKTIONSELEMENTE
100
AcDbLine
 62
7
  6
CONTINUOUS
 10
184.7814993752
 20
151.2604768424
 11
185.2064993752
 21
151.2604768424
  0
LINE
  5
447
100
AcDbEntity
  8
KONSTRUKTIONSELEMENTE
100
AcDbLine
 62
7
  6
CONTINUOUS
 10
184.7814993752
 20
151.6434555872
 11
185.2064993752
 21
151.6434555872
  0
LINE
  5
448
100
AcDbEntity
  8
KONSTRUKTIONSELEMENTE
100
AcDbLine
 62
7
  6
CONTINUOUS
 10
184.7814993752
 20
152.1221789344
 11
185.2064993752
 21
152.1221789344
  0
LINE
  5
449
100
AcDbEntity
  8
RUNDUNGEN
100
AcDbLine
 62
7
  6
CONTINUOUS
 10
195.7814993752
 20
120.3562894931
 11
195.7814993752
 21
126.4238010099
  0
LINE
  5
44A
100
AcDbEntity
  8
RUNDUNGEN
100
AcDbLine
 62
7
  6
CONTINUOUS
 10
178.2814993752
 20
118.2066053467
 11
177.9510570207
 21
117.8396119323
  0
LINE
  5
44B
100
AcDbEntity
  8
0
100
AcDbLine
 62
7
  6
CONTINUOUS
 10
172.3169248666
 20
116.5335975816
 11
172.1467121209
 21
116.4085973431
  0
LINE
  5
44C
100
AcDbEntity
  8
KONSTRUKTIONSELEMENTE
100
AcDbLine
 62
7
  6
CONTINUOUS
 10
184.7814993752
 20
155.0902640893
 11
185.2064993752
 21
155.0902640893
  0
LINE
  5
44D
100
AcDbEntity
  8
KONSTRUKTIONSELEMENTE
100
AcDbLine
 62
7
  6
CONTINUOUS
 10
184.7814993752
 20
156.5902640893
 11
185.2064993752
 21
156.5902640893
  0
LINE
  5
44E
100
AcDbEntity
  8
0
100
AcDbLine
 62
7
  6
CONTINUOUS
 10
199.7814993752
 20
112.2223148968
 11
199.7814993752
 21
87.5902640893
  0
LINE
  5
44F
100
AcDbEntity
  8
0
100
AcDbLine
 62
7
  6
CONTINUOUS
 10
172.4445844258
 20
116.5752640893
 11
172.3169248666
 21
116.5335975816
  0
LINE
  5
450
100
AcDbEntity
  8
0
100
AcDbLine
 62
7
  6
CONTINUOUS
 10
172.3169248666
 20
116.2835973431
 11
172.4445844258
 21
116.3252640893
  0
LINE
  5
451
100
AcDbEntity
  8
KONSTRUKTIONSELEMENTE
100
AcDbLine
 62
7
  6
CONTINUOUS
 10
184.7814993752
 20
161.0902640893
 11
185.2064993752
 21
161.0902640893
  0
LINE
  5
452
100
AcDbEntity
  8
0
100
AcDbLine
 62
7
  6
CONTINUOUS
 10
173.7211802269
 20
113.2835974027
 11
171.9764993752
 21
112.7002640893
  0
LINE
  5
453
100
AcDbEntity
  8
0
100
AcDbLine
 62
7
  6
CONTINUOUS
 10
171.9764993752
 20
112.4502640893
 11
173.9764993752
 21
113.1169307758
  0
LINE
  5
454
100
AcDbEntity
  8
KONSTRUKTIONSELEMENTE
100
AcDbLine
 62
7
  6
CONTINUOUS
 10
187.2814993752
 20
184.1224436354
 11
187.7814993752
 21
184.1224436354
  0
LINE
  5
455
100
AcDbEntity
  8
KONSTRUKTIONSELEMENTE
100
AcDbLine
 62
7
  6
CONTINUOUS
 10
186.872940181
 20
187.2966920262
 11
187.7814993752
 21
187.2966920262
  0
LINE
  5
456
100
AcDbEntity
  8
KONSTRUKTIONSELEMENTE
100
AcDbLine
 62
7
  6
CONTINUOUS
 10
186.8867978109
 20
188.2413681157
 11
187.7814993752
 21
188.2413681157
  0
LINE
  5
457
100
AcDbEntity
  8
KONSTRUKTIONSELEMENTE
100
AcDbLine
 62
7
  6
CONTINUOUS
 10
186.9205992858
 20
188.3706384802
 11
187.7814993752
 21
188.3706384802
  0
LINE
  5
458
100
AcDbEntity
  8
KONSTRUKTIONSELEMENTE
100
AcDbLine
 62
7
  6
CONTINUOUS
 10
186.8729401786
 20
189.3971835418
 11
187.7814993752
 21
189.3971835418
  0
LINE
  5
459
100
AcDbEntity
  8
KONSTRUKTIONSELEMENTE
100
AcDbLine
 62
7
  6
CONTINUOUS
 10
186.8867978116
 20
190.1227294497
 11
187.7814993752
 21
190.1227294497
  0
LINE
  5
45A
100
AcDbEntity
  8
KONSTRUKTIONSELEMENTE
100
AcDbLine
 62
7
  6
CONTINUOUS
 10
186.9205992896
 20
190.1986442401
 11
187.7814993752
 21
190.1986442401
  0
LINE
  5
45B
100
AcDbEntity
  8
KONSTRUKTIONSELEMENTE
100
AcDbLine
 62
7
  6
CONTINUOUS
 10
187.274136313
 20
190.4530597239
 11
187.7814993752
 21
190.4530597239
  0
LINE
  5
45C
100
AcDbEntity
  8
0
100
AcDbLine
 62
7
  6
CONTINUOUS
 10
199.7814993752
 20
87.5902640893
 11
199.2814993752
 21
87.0902640893
  0
LINE
  5
45D
100
AcDbEntity
  8
KONSTRUKTIONSELEMENTE
100
AcDbLine
 62
7
  6
CONTINUOUS
 10
187.2300541403
 20
190.8834601449
 11
187.7814993752
 21
190.8834601449
  0
LINE
  5
45E
100
AcDbEntity
  8
KONSTRUKTIONSELEMENTE
100
AcDbLine
 62
7
  6
CONTINUOUS
 10
187.1843371769
 20
191.1453423536
 11
187.7814993752
 21
191.1453423536
  0
LINE
  5
45F
100
AcDbEntity
  8
KONSTRUKTIONSELEMENTE
100
AcDbLine
 62
7
  6
CONTINUOUS
 10
187.1003263531
 20
191.500587538
 11
187.7814993752
 21
191.500587538
  0
LINE
  5
460
100
AcDbEntity
  8
KONSTRUKTIONSELEMENTE
100
AcDbLine
 62
7
  6
CONTINUOUS
 10
187.0200112848
 20
191.7806775901
 11
187.7814993752
 21
191.7806775901
  0
LINE
  5
461
100
AcDbEntity
  8
KONSTRUKTIONSELEMENTE
100
AcDbLine
 62
7
  6
CONTINUOUS
 10
186.923708549
 20
192.0789758257
 11
187.7814993752
 21
192.0789758257
  0
LINE
  5
462
100
AcDbEntity
  8
KONSTRUKTIONSELEMENTE
100
AcDbLine
 62
7
  6
CONTINUOUS
 10
186.88812784
 20
192.2178595485
 11
187.7814993752
 21
192.2178595485
  0
LINE
  5
463
100
AcDbEntity
  8
KONSTRUKTIONSELEMENTE
100
AcDbLine
 62
7
  6
CONTINUOUS
 10
186.9231651842
 20
192.3232732698
 11
187.7814993752
 21
192.3232732698
  0
LINE
  5
464
100
AcDbEntity
  8
KONSTRUKTIONSELEMENTE
100
AcDbLine
 62
7
  6
CONTINUOUS
 10
186.9060811915
 20
192.3850787654
 11
187.7814993752
 21
192.3850787654
  0
LINE
  5
465
100
AcDbEntity
  8
KONSTRUKTIONSELEMENTE
100
AcDbLine
 62
7
  6
CONTINUOUS
 10
99.0235732911
 20
37.0596231032
 11
99.0235732911
 21
36.151063909
  0
LINE
  5
466
100
AcDbEntity
  8
KONSTRUKTIONSELEMENTE
100
AcDbLine
 62
7
  6
CONTINUOUS
 10
100.2555738715
 20
37.0457654733
 11
100.2555738715
 21
36.151063909
  0
LINE
  5
467
100
AcDbEntity
  8
KONSTRUKTIONSELEMENTE
100
AcDbLine
 62
7
  6
CONTINUOUS
 10
100.5640270231
 20
37.0119639984
 11
100.5640270231
 21
36.151063909
  0
LINE
  5
468
100
AcDbEntity
  8
RUNDUNGEN
100
AcDbLine
 62
7
  6
CONTINUOUS
 10
107.4584019353
 20
28.151063909
 11
118.4584019353
 21
28.151063909
  0
LINE
  5
469
100
AcDbEntity
  8
0
100
AcDbLine
 62
7
  6
CONTINUOUS
 10
123.9128530855
 20
28.151063909
 11
124.2969424058
 21
28.151063909
  0
LINE
  5
46A
100
AcDbEntity
  8
KONSTRUKTIONSELEMENTE
100
AcDbLine
 62
7
  6
CONTINUOUS
 10
100.9247193494
 20
36.9157313073
 11
100.9247193494
 21
36.151063909
  0
LINE
  5
46B
100
AcDbEntity
  8
KONSTRUKTIONSELEMENTE
100
AcDbLine
 62
7
  6
CONTINUOUS
 10
101.2858646821
 20
36.8112985547
 11
101.2858646821
 21
36.151063909
  0
LINE
  5
46C
100
AcDbEntity
  8
KONSTRUKTIONSELEMENTE
100
AcDbLine
 62
7
  6
CONTINUOUS
 10
101.4925569359
 20
36.7501008132
 11
101.4925569359
 21
36.151063909
  0
LINE
  5
46D
100
AcDbEntity
  8
KONSTRUKTIONSELEMENTE
100
AcDbLine
 62
7
  6
CONTINUOUS
 10
101.6997023412
 20
36.6911173507
 11
101.6997023412
 21
36.151063909
  0
LINE
  5
46E
100
AcDbEntity
  8
KONSTRUKTIONSELEMENTE
100
AcDbLine
 62
7
  6
CONTINUOUS
 10
101.8037279777
 20
36.6639575897
 11
101.8037279777
 21
36.151063909
  0
LINE
  5
46F
100
AcDbEntity
  8
KONSTRUKTIONSELEMENTE
100
AcDbLine
 62
7
  6
CONTINUOUS
 10
101.8568731654
 20
36.6510744864
 11
101.8568731654
 21
36.151063909
  0
LINE
  5
470
100
AcDbEntity
  8
KONSTRUKTIONSELEMENTE
100
AcDbLine
 62
7
  6
CONTINUOUS
 10
101.9273341629
 20
37.0596231056
 11
101.9273341629
 21
36.151063909
  0
LINE
  5
471
100
AcDbEntity
  8
0
100
AcDbLine
 62
7
  6
CONTINUOUS
 10
106.4584019353
 20
29.5993363542
 11
105.9584019353
 21
29.5993363542
  0
LINE
  5
472
100
AcDbEntity
  8
0
100
AcDbLine
 62
7
  6
CONTINUOUS
 10
106.4584019353
 20
30.0525870253
 11
105.9584019353
 21
30.0525870253
  0
LINE
  5
473
100
AcDbEntity
  8
0
100
AcDbLine
 62
7
  6
CONTINUOUS
 10
125.9198833322
 20
30.151063909
 11
126.2460842013
 21
30.151063909
  0
LINE
  5
474
100
AcDbEntity
  8
0
100
AcDbLine
 62
7
  6
CONTINUOUS
 10
126.2622757035
 20
30.5677306551
 11
126.5802798249
 21
30.5677306551
  0
LINE
  5
475
100
AcDbEntity
  8
0
100
AcDbLine
 62
7
  6
CONTINUOUS
 10
106.4584019353
 20
30.8618175099
 11
105.9584019353
 21
30.8618175099
  0
LINE
  5
476
100
AcDbEntity
  8
0
100
AcDbLine
 62
7
  6
CONTINUOUS
 10
126.5207579254
 20
30.901063909
 11
126.8328388609
 21
30.901063909
  0
LINE
  5
477
100
AcDbEntity
  8
KONSTRUKTIONSELEMENTE
100
AcDbLine
 62
7
  6
CONTINUOUS
 10
103.2998579258
 20
37.0457654726
 11
103.2998579258
 21
36.151063909
  0
LINE
  5
478
100
AcDbEntity
  8
KONSTRUKTIONSELEMENTE
100
AcDbLine
 62
7
  6
CONTINUOUS
 10
103.625574058
 20
37.0119639946
 11
103.625574058
 21
36.151063909
  0
LINE
  5
479
100
AcDbEntity
  8
KONSTRUKTIONSELEMENTE
100
AcDbLine
 62
7
  6
CONTINUOUS
 10
103.9736494994
 20
36.9157313058
 11
103.9736494994
 21
36.151063909
  0
LINE
  5
47A
100
AcDbEntity
  8
KONSTRUKTIONSELEMENTE
100
AcDbLine
 62
7
  6
CONTINUOUS
 10
104.3043101321
 20
36.8112985533
 11
104.3043101321
 21
36.151063909
  0
LINE
  5
47B
100
AcDbEntity
  8
KONSTRUKTIONSELEMENTE
100
AcDbLine
 62
7
  6
CONTINUOUS
 10
104.4808201031
 20
36.7501008144
 11
104.4808201031
 21
36.151063909
  0
LINE
  5
47C
100
AcDbEntity
  8
KONSTRUKTIONSELEMENTE
100
AcDbLine
 62
7
  6
CONTINUOUS
 10
104.639915377
 20
36.6911173514
 11
104.639915377
 21
36.151063909
  0
LINE
  5
47D
100
AcDbEntity
  8
KONSTRUKTIONSELEMENTE
100
AcDbLine
 62
7
  6
CONTINUOUS
 10
104.7020481496
 20
36.6639575893
 11
104.7020481496
 21
36.151063909
  0
LINE
  5
47E
100
AcDbEntity
  8
0
100
AcDbLine
 62
7
  6
CONTINUOUS
 10
126.7061290202
 20
31.151063909
 11
127.0140947322
 21
31.151063909
  0
LINE
  5
47F
100
AcDbEntity
  8
0
100
AcDbLine
 62
7
  6
CONTINUOUS
 10
126.7663605334
 20
31.2343971628
 11
127.0730121193
 21
31.2343971628
  0
LINE
  5
480
100
AcDbEntity
  8
0
100
AcDbLine
 62
7
  6
CONTINUOUS
 10
106.4584019353
 20
31.315068181
 11
105.9584019353
 21
31.315068181
  0
LINE
  5
481
100
AcDbEntity
  8
0
100
AcDbLine
 62
7
  6
CONTINUOUS
 10
127.2215537609
 20
31.901063909
 11
127.5186217139
 21
31.901063909
  0
LINE
  5
482
100
AcDbEntity
  8
0
100
AcDbLine
 62
7
  6
CONTINUOUS
 10
106.4584019353
 20
32.1310479944
 11
105.9584019353
 21
32.1310479944
  0
LINE
  5
483
100
AcDbEntity
  8
0
100
AcDbLine
 62
7
  6
CONTINUOUS
 10
106.4584019353
 20
32.5842986655
 11
105.9584019353
 21
32.5842986655
  0
LINE
  5
484
100
AcDbEntity
  8
0
100
AcDbLine
 62
7
  6
CONTINUOUS
 10
105.9584019353
 20
29.5993363542
 11
105.9584019353
 21
32.5842986655
  0
LINE
  5
485
100
AcDbEntity
  8
0
100
AcDbLine
 62
7
  6
CONTINUOUS
 10
105.9584019353
 20
49.956063909
 11
105.9584019353
 21
51.956063909
  0
LINE
  5
486
100
AcDbEntity
  8
RUNDUNGEN
100
AcDbLine
 62
7
  6
CONTINUOUS
 10
106.4584019353
 20
26.4796753009
 11
106.4584019353
 21
35.0224499731
  0
LINE
  5
487
100
AcDbEntity
  8
RUNDUNGEN
100
AcDbLine
 62
7
  6
CONTINUOUS
 10
106.4584019353
 20
47.2796718275
 11
106.4584019353
 21
55.822452706
  0
LINE
  5
488
100
AcDbEntity
  8
0
100
AcDbLine
 62
7
  6
CONTINUOUS
 10
128.33492625
 20
33.901063909
 11
128.6108777778
 21
33.901063909
  0
LINE
  5
489
100
AcDbEntity
  8
0
100
AcDbLine
 62
7
  6
CONTINUOUS
 10
128.5245688811
 20
34.3177304167
 11
128.7972167074
 21
34.3177304167
  0
LINE
  5
48A
100
AcDbEntity
  8
0
100
AcDbLine
 62
7
  6
CONTINUOUS
 10
128.6666800078
 20
34.651063909
 11
128.9369031166
 21
34.651063909
  0
LINE
  5
48B
100
AcDbEntity
  8
0
100
AcDbLine
 62
7
  6
CONTINUOUS
 10
128.7678136891
 20
34.901063909
 11
129.0363371262
 21
34.901063909
  0
LINE
  5
48C
100
AcDbEntity
  8
0
100
AcDbLine
 62
7
  6
CONTINUOUS
 10
128.8005048318
 20
34.9843974012
 11
129.0684833809
 21
34.9843974012
  0
LINE
  5
48D
100
AcDbEntity
  8
KONSTRUKTIONSELEMENTE
100
AcDbLine
 62
7
  6
CONTINUOUS
 10
109.029811776
 20
36.6584269713
 11
109.029811776
 21
36.151063909
  0
LINE
  5
48E
100
AcDbEntity
  8
KONSTRUKTIONSELEMENTE
100
AcDbLine
 62
7
  6
CONTINUOUS
 10
109.0339656488
 20
36.7025091439
 11
109.0339656488
 21
36.151063909
  0
LINE
  5
48F
100
AcDbEntity
  8
0
100
AcDbLine
 62
7
  6
CONTINUOUS
 10
129.0441098775
 20
35.651063909
 11
129.3080961221
 21
35.651063909
  0
LINE
  5
490
100
AcDbEntity
  8
KONSTRUKTIONSELEMENTE
100
AcDbLine
 62
7
  6
CONTINUOUS
 10
125.6406520867
 20
36.151063909
 11
121.2036898546
 21
36.151063909
  0
LINE
  5
491
100
AcDbEntity
  8
KONSTRUKTIONSELEMENTE
100
AcDbLine
 62
7
  6
CONTINUOUS
 10
121.0722676643
 20
36.151063909
 11
119.3523628425
 21
36.151063909
  0
LINE
  5
492
100
AcDbEntity
  8
KONSTRUKTIONSELEMENTE
100
AcDbLine
 62
7
  6
CONTINUOUS
 10
118.8065476815
 20
36.151063909
 11
116.0918716096
 21
36.151063909
  0
LINE
  5
493
100
AcDbEntity
  8
KONSTRUKTIONSELEMENTE
100
AcDbLine
 62
7
  6
CONTINUOUS
 10
115.46669935
 20
36.151063909
 11
113.1560447158
 21
36.151063909
  0
LINE
  5
494
100
AcDbEntity
  8
KONSTRUKTIONSELEMENTE
100
AcDbLine
 62
7
  6
CONTINUOUS
 10
112.5151729487
 20
36.151063909
 11
112.1770906995
 21
36.151063909
  0
LINE
  5
495
100
AcDbEntity
  8
KONSTRUKTIONSELEMENTE
100
AcDbLine
 62
7
  6
CONTINUOUS
 10
111.4431749784
 20
36.151063909
 11
109.029811776
 21
36.151063909
  0
LINE
  5
496
100
AcDbEntity
  8
KONSTRUKTIONSELEMENTE
100
AcDbLine
 62
7
  6
CONTINUOUS
 10
104.7020481496
 20
36.151063909
 11
101.9273341629
 21
36.151063909
  0
LINE
  5
497
100
AcDbEntity
  8
KONSTRUKTIONSELEMENTE
100
AcDbLine
 62
7
  6
CONTINUOUS
 10
101.8568731654
 20
36.151063909
 11
99.0235732911
 21
36.151063909
  0
LINE
  5
498
100
AcDbEntity
  8
0
100
AcDbLine
 62
7
  6
CONTINUOUS
 10
129.2064787446
 20
36.151063909
 11
129.4678689164
 21
36.151063909
  0
LINE
  5
499
100
AcDbEntity
  8
KONSTRUKTIONSELEMENTE
100
AcDbLine
 62
7
  6
CONTINUOUS
 10
132.400072979
 20
36.651063909
 11
125.6406520867
 21
36.651063909
  0
LINE
  5
49A
100
AcDbEntity
  8
KONSTRUKTIONSELEMENTE
100
AcDbLine
 62
7
  6
CONTINUOUS
 10
123.0110673845
 20
36.651063909
 11
121.0722676643
 21
36.651063909
  0
LINE
  5
49B
100
AcDbEntity
  8
KONSTRUKTIONSELEMENTE
100
AcDbLine
 62
7
  6
CONTINUOUS
 10
119.5035635692
 20
36.651063909
 11
118.8065476815
 21
36.651063909
  0
LINE
  5
49C
100
AcDbEntity
  8
KONSTRUKTIONSELEMENTE
100
AcDbLine
 62
7
  6
CONTINUOUS
 10
116.6513711352
 20
36.651063909
 11
115.4469886138
 21
36.651063909
  0
LINE
  5
49D
100
AcDbEntity
  8
KONSTRUKTIONSELEMENTE
100
AcDbLine
 62
7
  6
CONTINUOUS
 10
113.186173284
 20
36.651063909
 11
111.3716550176
 21
36.651063909
  0
LINE
  5
49E
100
AcDbEntity
  8
KONSTRUKTIONSELEMENTE
100
AcDbLine
 62
7
  6
CONTINUOUS
 10
109.029811776
 20
36.651063909
 11
104.7020481496
 21
36.651063909
  0
LINE
  5
49F
100
AcDbEntity
  8
KONSTRUKTIONSELEMENTE
100
AcDbLine
 62
7
  6
CONTINUOUS
 10
101.9273341629
 20
36.651063909
 11
101.8553495212
 21
36.651063909
  0
LINE
  5
4A0
100
AcDbEntity
  8
KONSTRUKTIONSELEMENTE
100
AcDbLine
 62
7
  6
CONTINUOUS
 10
99.0235732911
 20
36.651063909
 11
93.5161737697
 21
36.651063909
  0
LINE
  5
4A1
100
AcDbEntity
  8
KONSTRUKTIONSELEMENTE
100
AcDbLine
 62
7
  6
CONTINUOUS
 10
109.062075935
 20
36.7482261073
 11
109.062075935
 21
36.151063909
  0
LINE
  5
4A2
100
AcDbEntity
  8
KONSTRUKTIONSELEMENTE
100
AcDbLine
 62
7
  6
CONTINUOUS
 10
109.142250823
 20
36.8322369311
 11
109.142250823
 21
36.151063909
  0
LINE
  5
4A3
100
AcDbEntity
  8
KONSTRUKTIONSELEMENTE
100
AcDbLine
 62
7
  6
CONTINUOUS
 10
109.2984474592
 20
36.9125519994
 11
109.2984474592
 21
36.151063909
  0
LINE
  5
4A4
100
AcDbEntity
  8
KONSTRUKTIONSELEMENTE
100
AcDbLine
 62
7
  6
CONTINUOUS
 10
109.5827311446
 20
37.0088547352
 11
109.5827311446
 21
36.151063909
  0
LINE
  5
4A5
100
AcDbEntity
  8
KONSTRUKTIONSELEMENTE
100
AcDbLine
 62
7
  6
CONTINUOUS
 10
109.9550137022
 20
37.0444354442
 11
109.9550137022
 21
36.151063909
  0
LINE
  5
4A6
100
AcDbEntity
  8
KONSTRUKTIONSELEMENTE
100
AcDbLine
 62
7
  6
CONTINUOUS
 10
110.3512519741
 20
37.0088547352
 11
110.3512519741
 21
36.151063909
  0
LINE
  5
4A7
100
AcDbEntity
  8
KONSTRUKTIONSELEMENTE
100
AcDbLine
 62
7
  6
CONTINUOUS
 10
110.707402802
 20
36.9125519994
 11
110.707402802
 21
36.151063909
  0
LINE
  5
4A8
100
AcDbEntity
  8
KONSTRUKTIONSELEMENTE
100
AcDbLine
 62
7
  6
CONTINUOUS
 10
110.9354665806
 20
36.8322369311
 11
110.9354665806
 21
36.151063909
  0
LINE
  5
4A9
100
AcDbEntity
  8
KONSTRUKTIONSELEMENTE
100
AcDbLine
 62
7
  6
CONTINUOUS
 10
111.1114643252
 20
36.7482261073
 11
111.1114643252
 21
36.151063909
  0
LINE
  5
4AA
100
AcDbEntity
  8
RUNDUNGEN
100
AcDbLine
 62
7
  6
CONTINUOUS
 10
106.9710353018
 20
36.3843140522
 11
106.9595703541
 21
36.3580200891
  0
LWPOLYLINE
  5
4AB
100
AcDbEntity
  8
RUNDUNGEN
100
AcDbPolyline
 62
7
  6
CONTINUOUS
 90
4
 70
0
 10
106.9595703541
 20
36.3580200891
 10
106.9120579084
 20
36.2529155623
 10
106.8621575955
 20
36.1484770342
 10
106.8099007808
 20
36.0447222917
  0
LINE
  5
4AC
100
AcDbEntity
  8
RUNDUNGEN
100
AcDbLine
 62
7
  6
CONTINUOUS
 10
106.8099007808
 20
36.0447222917
 11
106.755320645
 21
35.9416717522
  0
LWPOLYLINE
  5
4AD
100
AcDbEntity
  8
RUNDUNGEN
100
AcDbPolyline
 62
7
  6
CONTINUOUS
 90
3
 70
0
 10
106.755320645
 20
35.9416717522
 10
106.7347663166
 20
35.9041430997
 10
106.7050632141
 20
35.8511984567
  0
LINE
  5
4AE
100
AcDbEntity
  8
RUNDUNGEN
100
AcDbLine
 62
7
  6
CONTINUOUS
 10
106.7050632141
 20
35.8511984567
 11
106.6751625097
 21
35.7994118767
  0
LINE
  5
4AF
100
AcDbEntity
  8
RUNDUNGEN
100
AcDbLine
 62
7
  6
CONTINUOUS
 10
106.6751625097
 20
35.7994118767
 11
106.6667987431
 21
35.7851915226
  0
LINE
  5
4B0
100
AcDbEntity
  8
KONSTRUKTIONSELEMENTE
100
AcDbLine
 62
7
  6
CONTINUOUS
 10
138.9895308095
 20
39.151063909
 11
138.2833990661
 21
39.151063909
  0
LINE
  5
4B1
100
AcDbEntity
  8
KONSTRUKTIONSELEMENTE
100
AcDbLine
 62
7
  6
CONTINUOUS
 10
87.6334048046
 20
39.151063909
 11
86.9272730612
 21
39.151063909
  0
LWPOLYLINE
  5
4B2
100
AcDbEntity
  8
RUNDUNGEN
100
AcDbPolyline
 62
7
  6
CONTINUOUS
 90
3
 70
0
 10
106.6674726188
 20
46.5157990592
 10
106.6794416094
 20
46.4953959829
 10
106.7093283006
 20
46.4434199837
  0
LINE
  5
4B3
100
AcDbEntity
  8
RUNDUNGEN
100
AcDbLine
 62
7
  6
CONTINUOUS
 10
106.7093283006
 20
46.4434199837
 11
106.7390163241
 21
46.3902844019
  0
LINE
  5
4B4
100
AcDbEntity
  8
RUNDUNGEN
100
AcDbLine
 62
7
  6
CONTINUOUS
 10
106.7390163241
 20
46.3902844019
 11
106.7591850472
 21
46.3533234
  0
LINE
  5
4B5
100
AcDbEntity
  8
RUNDUNGEN
100
AcDbLine
 62
7
  6
CONTINUOUS
 10
106.7591850472
 20
46.3533234
 11
106.813583279
 21
46.2502654165
  0
LWPOLYLINE
  5
4B6
100
AcDbEntity
  8
RUNDUNGEN
100
AcDbPolyline
 62
7
  6
CONTINUOUS
 90
3
 70
0
 10
106.813583279
 20
46.2502654165
 10
106.865658521
 20
46.1465036
 10
106.915377863
 20
46.0420577968
  0
LWPOLYLINE
  5
4B7
100
AcDbEntity
  8
RUNDUNGEN
100
AcDbPolyline
 62
7
  6
CONTINUOUS
 90
3
 70
0
 10
106.915377863
 20
46.0420577968
 10
106.9627098253
 20
45.9369457568
 10
106.9710352867
 20
45.9178137876
  0
LINE
  5
4B8
100
AcDbEntity
  8
KONSTRUKTIONSELEMENTE
100
AcDbLine
 62
7
  6
CONTINUOUS
 10
111.2114418211
 20
36.7025091439
 11
111.2114418211
 21
36.151063909
  0
LINE
  5
4B9
100
AcDbEntity
  8
KONSTRUKTIONSELEMENTE
100
AcDbLine
 62
7
  6
CONTINUOUS
 10
111.3353742646
 20
36.6584269713
 11
111.3353742646
 21
36.151063909
  0
LINE
  5
4BA
100
AcDbEntity
  8
KONSTRUKTIONSELEMENTE
100
AcDbLine
 62
7
  6
CONTINUOUS
 10
111.4431749784
 20
36.651063909
 11
111.4431749784
 21
36.151063909
  0
LINE
  5
4BB
100
AcDbEntity
  8
KONSTRUKTIONSELEMENTE
100
AcDbLine
 62
7
  6
CONTINUOUS
 10
112.1770906995
 20
36.651063909
 11
112.1770906995
 21
36.151063909
  0
LINE
  5
4BC
100
AcDbEntity
  8
KONSTRUKTIONSELEMENTE
100
AcDbLine
 62
7
  6
CONTINUOUS
 10
112.5003296774
 20
36.651063909
 11
112.5003296774
 21
36.151063909
  0
LINE
  5
4BD
100
AcDbEntity
  8
KONSTRUKTIONSELEMENTE
100
AcDbLine
 62
7
  6
CONTINUOUS
 10
112.5151729487
 20
36.651063909
 11
112.5151729487
 21
36.151063909
  0
LINE
  5
4BE
100
AcDbEntity
  8
KONSTRUKTIONSELEMENTE
100
AcDbLine
 62
7
  6
CONTINUOUS
 10
113.1560447158
 20
36.651063909
 11
113.1560447158
 21
36.151063909
  0
LINE
  5
4BF
100
AcDbEntity
  8
KONSTRUKTIONSELEMENTE
100
AcDbLine
 62
7
  6
CONTINUOUS
 10
113.1985632422
 20
36.6543660723
 11
113.1985632422
 21
36.151063909
  0
LINE
  5
4C0
100
AcDbEntity
  8
KONSTRUKTIONSELEMENTE
100
AcDbLine
 62
7
  6
CONTINUOUS
 10
113.3056045605
 20
36.7163035246
 11
113.3056045605
 21
36.151063909
  0
LINE
  5
4C1
100
AcDbEntity
  8
KONSTRUKTIONSELEMENTE
100
AcDbLine
 62
7
  6
CONTINUOUS
 10
113.4650190604
 20
36.809053268
 11
113.4650190604
 21
36.151063909
  0
LINE
  5
4C2
100
AcDbEntity
  8
KONSTRUKTIONSELEMENTE
100
AcDbLine
 62
7
  6
CONTINUOUS
 10
113.6828822599
 20
36.9133694329
 11
113.6828822599
 21
36.151063909
  0
LINE
  5
4C3
100
AcDbEntity
  8
KONSTRUKTIONSELEMENTE
100
AcDbLine
 62
7
  6
CONTINUOUS
 10
114.0237154911
 20
37.0093981
 11
114.0237154911
 21
36.151063909
  0
LINE
  5
4C4
100
AcDbEntity
  8
KONSTRUKTIONSELEMENTE
100
AcDbLine
 62
7
  6
CONTINUOUS
 10
114.3524020488
 20
37.0446111775
 11
114.3524020488
 21
36.151063909
  0
LINE
  5
4C5
100
AcDbEntity
  8
KONSTRUKTIONSELEMENTE
100
AcDbLine
 62
7
  6
CONTINUOUS
 10
114.6104902625
 20
37.0446111775
 11
114.6104902625
 21
36.151063909
  0
LINE
  5
4C6
100
AcDbEntity
  8
KONSTRUKTIONSELEMENTE
100
AcDbLine
 62
7
  6
CONTINUOUS
 10
114.9270286697
 20
37.0093981
 11
114.9270286697
 21
36.151063909
  0
LINE
  5
4C7
100
AcDbEntity
  8
KONSTRUKTIONSELEMENTE
100
AcDbLine
 62
7
  6
CONTINUOUS
 10
115.2314174497
 20
36.9133694329
 11
115.2314174497
 21
36.151063909
  0
LINE
  5
4C8
100
AcDbEntity
  8
KONSTRUKTIONSELEMENTE
100
AcDbLine
 62
7
  6
CONTINUOUS
 10
138.9895308095
 20
43.151063909
 11
138.2833990661
 21
43.151063909
  0
LINE
  5
4C9
100
AcDbEntity
  8
KONSTRUKTIONSELEMENTE
100
AcDbLine
 62
7
  6
CONTINUOUS
 10
87.6334048046
 20
43.151063909
 11
86.9272730612
 21
43.151063909
  0
LINE
  5
4CA
100
AcDbEntity
  8
KONSTRUKTIONSELEMENTE
100
AcDbLine
 62
7
  6
CONTINUOUS
 10
115.4006880476
 20
36.809053268
 11
115.4006880476
 21
36.151063909
  0
LINE
  5
4CB
100
AcDbEntity
  8
KONSTRUKTIONSELEMENTE
100
AcDbLine
 62
7
  6
CONTINUOUS
 10
115.4469886138
 20
36.7482261152
 11
115.4469886138
 21
36.151063909
  0
LINE
  5
4CC
100
AcDbEntity
  8
KONSTRUKTIONSELEMENTE
100
AcDbLine
 62
7
  6
CONTINUOUS
 10
115.46669935
 20
36.651063909
 11
115.46669935
 21
36.151063909
  0
LINE
  5
4CD
100
AcDbEntity
  8
KONSTRUKTIONSELEMENTE
100
AcDbLine
 62
7
  6
CONTINUOUS
 10
116.0918716096
 20
36.651063909
 11
116.0918716096
 21
36.151063909
  0
LINE
  5
4CE
100
AcDbEntity
  8
KONSTRUKTIONSELEMENTE
100
AcDbLine
 62
7
  6
CONTINUOUS
 10
116.4063757229
 20
36.651063909
 11
116.4063757229
 21
36.151063909
  0
LINE
  5
4CF
100
AcDbEntity
  8
KONSTRUKTIONSELEMENTE
100
AcDbLine
 62
7
  6
CONTINUOUS
 10
116.4295475273
 20
36.651063909
 11
116.4295475273
 21
36.151063909
  0
LINE
  5
4D0
100
AcDbEntity
  8
KONSTRUKTIONSELEMENTE
100
AcDbLine
 62
7
  6
CONTINUOUS
 10
116.5156218681
 20
36.651063909
 11
116.5156218681
 21
36.151063909
  0
LINE
  5
4D1
100
AcDbEntity
  8
KONSTRUKTIONSELEMENTE
100
AcDbLine
 62
7
  6
CONTINUOUS
 10
116.6215587163
 20
36.651063909
 11
116.6215587163
 21
36.151063909
  0
LINE
  5
4D2
100
AcDbEntity
  8
KONSTRUKTIONSELEMENTE
100
AcDbLine
 62
7
  6
CONTINUOUS
 10
116.6513711352
 20
36.7489412912
 11
116.6513711352
 21
36.151063909
  0
LINE
  5
4D3
100
AcDbEntity
  8
KONSTRUKTIONSELEMENTE
100
AcDbLine
 62
7
  6
CONTINUOUS
 10
116.7937279789
 20
36.8340106822
 11
116.7937279789
 21
36.151063909
  0
LINE
  5
4D4
100
AcDbEntity
  8
KONSTRUKTIONSELEMENTE
100
AcDbLine
 62
7
  6
CONTINUOUS
 10
117.1247852749
 20
36.944722462
 11
117.1247852749
 21
36.151063909
  0
LINE
  5
4D5
100
AcDbEntity
  8
KONSTRUKTIONSELEMENTE
100
AcDbLine
 62
7
  6
CONTINUOUS
 10
117.4161161442
 20
37.0100255836
 11
117.4161161442
 21
36.151063909
  0
LINE
  5
4D6
100
AcDbEntity
  8
RUNDUNGEN
100
AcDbLine
 62
7
  6
CONTINUOUS
 10
118.9457812442
 20
45.9178430665
 11
118.9572292837
 21
45.9440980485
  0
LWPOLYLINE
  5
4D7
100
AcDbEntity
  8
RUNDUNGEN
100
AcDbPolyline
 62
7
  6
CONTINUOUS
 90
5
 70
0
 10
118.9572292837
 20
45.9440980485
 10
119.0047390217
 20
46.0491973018
 10
119.0546380981
 20
46.1536341089
 10
119.1068952403
 20
46.2573903956
 10
119.1614781023
 20
46.3604466531
  0
LWPOLYLINE
  5
4D8
100
AcDbEntity
  8
RUNDUNGEN
100
AcDbPolyline
 62
7
  6
CONTINUOUS
 90
3
 70
0
 10
119.1614781023
 20
46.3604466531
 10
119.1820412893
 20
46.3979915211
 10
119.2117449018
 20
46.450936815
  0
LINE
  5
4D9
100
AcDbEntity
  8
RUNDUNGEN
100
AcDbLine
 62
7
  6
CONTINUOUS
 10
119.2117449018
 20
46.450936815
 11
119.2416454642
 21
46.5027229366
  0
LINE
  5
4DA
100
AcDbEntity
  8
RUNDUNGEN
100
AcDbLine
 62
7
  6
CONTINUOUS
 10
119.2416454642
 20
46.5027229366
 11
119.2500051337
 21
46.5169362964
  0
LWPOLYLINE
  5
4DB
100
AcDbEntity
  8
RUNDUNGEN
100
AcDbPolyline
 62
7
  6
CONTINUOUS
 90
3
 70
0
 10
119.2493308768
 20
35.7863287784
 10
119.2373595669
 20
35.8067364436
 10
119.2074727791
 20
35.8587127581
  0
LINE
  5
4DC
100
AcDbEntity
  8
RUNDUNGEN
100
AcDbLine
 62
7
  6
CONTINUOUS
 10
119.2074727791
 20
35.8587127581
 11
119.1777850868
 21
35.9118479353
  0
LINE
  5
4DD
100
AcDbEntity
  8
RUNDUNGEN
100
AcDbLine
 62
7
  6
CONTINUOUS
 10
119.1777850868
 20
35.9118479353
 11
119.1576119511
 21
35.9488170654
  0
LINE
  5
4DE
100
AcDbEntity
  8
RUNDUNGEN
100
AcDbLine
 62
7
  6
CONTINUOUS
 10
119.1576119511
 20
35.9488170654
 11
119.1032102939
 21
36.0518823673
  0
LWPOLYLINE
  5
4DF
100
AcDbEntity
  8
RUNDUNGEN
100
AcDbPolyline
 62
7
  6
CONTINUOUS
 90
3
 70
0
 10
119.1032102939
 20
36.0518823673
 10
119.0511345273
 20
36.1556463679
 10
119.0014168735
 20
36.2600897729
  0
LWPOLYLINE
  5
4E0
100
AcDbEntity
  8
RUNDUNGEN
100
AcDbPolyline
 62
7
  6
CONTINUOUS
 90
3
 70
0
 10
119.0014168735
 20
36.2600897729
 10
118.9540885872
 20
36.3651945433
 10
118.9457809788
 20
36.3842853561
  0
LINE
  5
4E1
100
AcDbEntity
  8
KONSTRUKTIONSELEMENTE
100
AcDbLine
 62
7
  6
CONTINUOUS
 10
117.8762849723
 20
37.0444793726
 11
117.8762849723
 21
36.151063909
  0
LINE
  5
4E2
100
AcDbEntity
  8
KONSTRUKTIONSELEMENTE
100
AcDbLine
 62
7
  6
CONTINUOUS
 10
118.0020857538
 20
37.0444793747
 11
118.0020857538
 21
36.151063909
  0
LINE
  5
4E3
100
AcDbEntity
  8
KONSTRUKTIONSELEMENTE
100
AcDbLine
 62
7
  6
CONTINUOUS
 10
118.4225267153
 20
37.0100255989
 11
118.4225267153
 21
36.151063909
  0
LINE
  5
4E4
100
AcDbEntity
  8
KONSTRUKTIONSELEMENTE
100
AcDbLine
 62
7
  6
CONTINUOUS
 10
118.6344004118
 20
36.944722462
 11
118.6344004118
 21
36.151063909
  0
LINE
  5
4E5
100
AcDbEntity
  8
KONSTRUKTIONSELEMENTE
100
AcDbLine
 62
7
  6
CONTINUOUS
 10
118.8065476815
 20
36.8340107039
 11
118.8065476815
 21
36.151063909
  0
LINE
  5
4E6
100
AcDbEntity
  8
KONSTRUKTIONSELEMENTE
100
AcDbLine
 62
7
  6
CONTINUOUS
 10
119.3523628425
 20
36.651063909
 11
119.3523628425
 21
36.151063909
  0
LINE
  5
4E7
100
AcDbEntity
  8
KONSTRUKTIONSELEMENTE
100
AcDbLine
 62
7
  6
CONTINUOUS
 10
119.3575177594
 20
36.651063909
 11
119.3575177594
 21
36.151063909
  0
LINE
  5
4E8
100
AcDbEntity
  8
RUNDUNGEN
100
AcDbLine
 62
7
  6
CONTINUOUS
 10
119.4584019353
 20
26.4796751119
 11
119.4584019353
 21
35.0224549086
  0
LINE
  5
4E9
100
AcDbEntity
  8
RUNDUNGEN
100
AcDbLine
 62
7
  6
CONTINUOUS
 10
119.4584019353
 20
47.2796788457
 11
119.4584019353
 21
55.8224646601
  0
LINE
  5
4EA
100
AcDbEntity
  8
KONSTRUKTIONSELEMENTE
100
AcDbLine
 62
7
  6
CONTINUOUS
 10
119.5035635692
 20
36.6573752921
 11
119.5035635692
 21
36.151063909
  0
LINE
  5
4EB
100
AcDbEntity
  8
KONSTRUKTIONSELEMENTE
100
AcDbLine
 62
7
  6
CONTINUOUS
 10
132.400629673
 20
45.651063909
 11
93.51638121
 21
45.651063909
  0
LINE
  5
4EC
100
AcDbEntity
  8
0
100
AcDbLine
 62
7
  6
CONTINUOUS
 10
129.2318891389
 20
46.0677308935
 11
129.4928776078
 21
46.0677308935
  0
LINE
  5
4ED
100
AcDbEntity
  8
0
100
AcDbLine
 62
7
  6
CONTINUOUS
 10
129.1274309724
 20
46.401063909
 11
129.3900786605
 21
46.401063909
  0
LINE
  5
4EE
100
AcDbEntity
  8
0
100
AcDbLine
 62
7
  6
CONTINUOUS
 10
129.0153752628
 20
46.7343969244
 11
129.2798262739
 21
46.7343969244
  0
LINE
  5
4EF
100
AcDbEntity
  8
0
100
AcDbLine
 62
7
  6
CONTINUOUS
 10
128.9564486911
 20
46.901063909
 11
129.2218579026
 21
46.901063909
  0
LINE
  5
4F0
100
AcDbEntity
  8
0
100
AcDbLine
 62
7
  6
CONTINUOUS
 10
128.9262516945
 20
46.9843969244
 11
129.1921546109
 21
46.9843969244
  0
LINE
  5
4F1
100
AcDbEntity
  8
0
100
AcDbLine
 62
7
  6
CONTINUOUS
 10
128.8326908271
 20
47.2343978781
 11
129.1001350461
 21
47.2343978781
  0
LINE
  5
4F2
100
AcDbEntity
  8
KONSTRUKTIONSELEMENTE
100
AcDbLine
 62
7
  6
CONTINUOUS
 10
119.6289910661
 20
36.6883925872
 11
119.6289910661
 21
36.151063909
  0
LINE
  5
4F3
100
AcDbEntity
  8
KONSTRUKTIONSELEMENTE
100
AcDbLine
 62
7
  6
CONTINUOUS
 10
120.1100828067
 20
36.686683532
 11
120.1100828067
 21
36.151063909
  0
LINE
  5
4F4
100
AcDbEntity
  8
KONSTRUKTIONSELEMENTE
100
AcDbLine
 62
7
  6
CONTINUOUS
 10
120.3609378884
 20
36.826967646
 11
120.3609378884
 21
36.151063909
  0
LINE
  5
4F5
100
AcDbEntity
  8
KONSTRUKTIONSELEMENTE
100
AcDbLine
 62
7
  6
CONTINUOUS
 10
120.6616200542
 20
36.8265320566
 11
120.6616200542
 21
36.151063909
  0
LINE
  5
4F6
100
AcDbEntity
  8
KONSTRUKTIONSELEMENTE
100
AcDbLine
 62
7
  6
CONTINUOUS
 10
121.0722676643
 20
36.6883925872
 11
121.0722676643
 21
36.151063909
  0
LINE
  5
4F7
100
AcDbEntity
  8
KONSTRUKTIONSELEMENTE
100
AcDbLine
 62
7
  6
CONTINUOUS
 10
121.2036898546
 20
36.651063909
 11
121.2036898546
 21
36.151063909
  0
LINE
  5
4F8
100
AcDbEntity
  8
KONSTRUKTIONSELEMENTE
100
AcDbLine
 62
7
  6
CONTINUOUS
 10
121.4005510345
 20
36.651063909
 11
121.4005510345
 21
36.151063909
  0
LINE
  5
4F9
100
AcDbEntity
  8
0
100
AcDbLine
 62
7
  6
CONTINUOUS
 10
128.5966743474
 20
47.8177299398
 11
128.8680865341
 21
47.8177299398
  0
LINE
  5
4FA
100
AcDbEntity
  8
0
100
AcDbLine
 62
7
  6
CONTINUOUS
 10
128.5245686718
 20
47.9843978781
 11
128.7972165017
 21
47.9843978781
  0
LINE
  5
4FB
100
AcDbEntity
  8
0
100
AcDbLine
 62
7
  6
CONTINUOUS
 10
128.2552337964
 20
48.5677299398
 11
128.5325974197
 21
48.5677299398
  0
LINE
  5
4FC
100
AcDbEntity
  8
0
100
AcDbLine
 62
7
  6
CONTINUOUS
 10
128.0890826867
 20
48.901063909
 11
128.3694369428
 21
48.901063909
  0
LINE
  5
4FD
100
AcDbEntity
  8
0
100
AcDbLine
 62
7
  6
CONTINUOUS
 10
127.9136589356
 20
49.2343978781
 11
128.1972408657
 21
49.2343978781
  0
LINE
  5
4FE
100
AcDbEntity
  8
0
100
AcDbLine
 62
7
  6
CONTINUOUS
 10
127.8683169566
 20
49.3177299398
 11
128.1527451571
 21
49.3177299398
  0
LINE
  5
4FF
100
AcDbEntity
  8
0
100
AcDbLine
 62
7
  6
CONTINUOUS
 10
127.8223684315
 20
49.401063909
 11
128.1076593429
 21
49.401063909
  0
LINE
  5
500
100
AcDbEntity
  8
KONSTRUKTIONSELEMENTE
100
AcDbLine
 62
7
  6
CONTINUOUS
 10
122.2034337545
 20
36.651063909
 11
122.2034337545
 21
36.151063909
  0
LINE
  5
501
100
AcDbEntity
  8
0
100
AcDbLine
 62
7
  6
CONTINUOUS
 10
106.4584019353
 20
49.956063909
 11
105.9584019353
 21
49.956063909
  0
LINE
  5
502
100
AcDbEntity
  8
0
100
AcDbLine
 62
7
  6
CONTINUOUS
 10
127.4322772593
 20
50.0677299398
 11
127.7251066081
 21
50.0677299398
  0
LINE
  5
503
100
AcDbEntity
  8
0
100
AcDbLine
 62
7
  6
CONTINUOUS
 10
106.4584019353
 20
50.5518085784
 11
105.9584019353
 21
50.5518085784
  0
LINE
  5
504
100
AcDbEntity
  8
0
100
AcDbLine
 62
7
  6
CONTINUOUS
 10
126.9997590648
 20
50.7343978781
 11
127.3014214932
 21
50.7343978781
  0
LINE
  5
505
100
AcDbEntity
  8
0
100
AcDbLine
 62
7
  6
CONTINUOUS
 10
106.4584019353
 20
50.8071277565
 11
105.9584019353
 21
50.8071277565
  0
LINE
  5
506
100
AcDbEntity
  8
0
100
AcDbLine
 62
7
  6
CONTINUOUS
 10
126.7061290202
 20
51.151063909
 11
127.0140947322
 21
51.151063909
  0
LINE
  5
507
100
AcDbEntity
  8
KONSTRUKTIONSELEMENTE
100
AcDbLine
 62
7
  6
CONTINUOUS
 10
124.0755552009
 20
37.0596230913
 11
124.0755552009
 21
36.151063909
  0
LINE
  5
508
100
AcDbEntity
  8
KONSTRUKTIONSELEMENTE
100
AcDbLine
 62
7
  6
CONTINUOUS
 10
125.3542215087
 20
37.0457654767
 11
125.3542215087
 21
36.151063909
  0
LINE
  5
509
100
AcDbEntity
  8
KONSTRUKTIONSELEMENTE
100
AcDbLine
 62
7
  6
CONTINUOUS
 10
125.5723425945
 20
37.0119639971
 11
125.5723425945
 21
36.151063909
  0
LINE
  5
50A
100
AcDbEntity
  8
KONSTRUKTIONSELEMENTE
100
AcDbLine
 62
7
  6
CONTINUOUS
 10
125.6406520867
 20
36.9157313147
 11
125.6406520867
 21
36.151063909
  0
LINE
  5
50B
100
AcDbEntity
  8
0
100
AcDbLine
 62
7
  6
CONTINUOUS
 10
106.4584019353
 20
51.956063909
 11
105.9584019353
 21
51.956063909
  0
LINE
  5
50C
100
AcDbEntity
  8
0
100
AcDbLine
 62
7
  6
CONTINUOUS
 10
125.9901478955
 20
52.0677299398
 11
126.3146327948
 21
52.0677299398
  0
LINE
  5
50D
100
AcDbEntity
  8
RUNDUNGEN
100
AcDbLine
 62
7
  6
CONTINUOUS
 10
107.4584019353
 20
54.151063909
 11
118.4584019353
 21
54.151063909
  0
ARC
  5
50E
100
AcDbEntity
  8
RUNDUNGEN
100
AcDbCircle
 62
7
  6
CONTINUOUS
 10
102.4584019353
 20
109.9902640893
 40
4.0
100
AcDbArc
 50
270.0011473704
 51
360.0
  0
ARC
  5
50F
100
AcDbEntity
  8
RUNDUNGEN
100
AcDbCircle
 62
7
  6
CONTINUOUS
 10
97.4584019353
 20
104.4902640893
 40
1.5
100
AcDbArc
 50
90.0
 51
180.0
  0
ARC
  5
510
100
AcDbEntity
  8
KONSTRUKTIONSELEMENTE
100
AcDbCircle
 62
7
  6
CONTINUOUS
 10
52.9584019353
 20
153.5902640893
 40
86.5
100
AcDbArc
 50
343.7397952917
 51
16.2602047083
  0
ARC
  5
511
100
AcDbEntity
  8
KONSTRUKTIONSELEMENTE
100
AcDbCircle
 62
7
  6
CONTINUOUS
 10
52.9584019353
 20
153.5902640893
 40
86.0311288741
100
AcDbArc
 50
352.6540124577
 51
7.3459875423
  0
ARC
  5
512
100
AcDbEntity
  8
KONSTRUKTIONSELEMENTE
100
AcDbCircle
 62
7
  6
CONTINUOUS
 10
52.9584019353
 20
153.5902640893
 40
77.9688711259
100
AcDbArc
 50
351.8895414224
 51
8.1104585776
  0
ARC
  5
513
100
AcDbEntity
  8
KONSTRUKTIONSELEMENTE
100
AcDbCircle
 62
7
  6
CONTINUOUS
 10
52.9584019353
 20
153.5902640893
 40
77.5
100
AcDbArc
 50
343.7397952917
 51
16.2602047083
  0
ARC
  5
514
100
AcDbEntity
  8
KONSTRUKTIONSELEMENTE
100
AcDbCircle
 62
7
  6
CONTINUOUS
 10
112.9584019353
 20
136.0902640893
 40
24.0
100
AcDbArc
 50
196.2602047083
 51
254.2842786346
  0
ARC
  5
515
100
AcDbEntity
  8
KONSTRUKTIONSELEMENTE
100
AcDbCircle
 62
7
  6
CONTINUOUS
 10
112.9584019353
 20
136.0902640893
 40
24.0
100
AcDbArc
 50
285.7157213654
 51
343.7397952917
  0
ARC
  5
516
100
AcDbEntity
  8
KONSTRUKTIONSELEMENTE
100
AcDbCircle
 62
7
  6
CONTINUOUS
 10
112.9584019353
 20
136.0902640893
 40
15.0
100
AcDbArc
 50
196.2602047083
 51
244.3325538844
  0
ARC
  5
517
100
AcDbEntity
  8
KONSTRUKTIONSELEMENTE
100
AcDbCircle
 62
7
  6
CONTINUOUS
 10
112.9584019353
 20
136.0902640893
 40
15.0
100
AcDbArc
 50
295.6674461155
 51
343.7397952917
  0
ARC
  5
518
100
AcDbEntity
  8
RUNDUNGEN
100
AcDbCircle
 62
7
  6
CONTINUOUS
 10
112.9584019353
 20
122.4902640893
 40
6.5
100
AcDbArc
 50
0.0
 51
180.0
  0
ARC
  5
519
100
AcDbEntity
  8
RUNDUNGEN
100
AcDbCircle
 62
7
  6
CONTINUOUS
 10
123.4584019353
 20
109.9902640893
 40
4.0
100
AcDbArc
 50
180.0
 51
269.9984659712
  0
ARC
  5
51A
100
AcDbEntity
  8
RUNDUNGEN
100
AcDbCircle
 62
7
  6
CONTINUOUS
 10
128.4584019353
 20
104.4902640893
 40
1.5
100
AcDbArc
 50
0.0
 51
90.0
  0
ARC
  5
51B
100
AcDbEntity
  8
KONSTRUKTIONSELEMENTE
100
AcDbCircle
 62
7
  6
CONTINUOUS
 10
172.9584019353
 20
153.5902640893
 40
86.5
100
AcDbArc
 50
163.7397952917
 51
196.2602047083
  0
ARC
  5
51C
100
AcDbEntity
  8
KONSTRUKTIONSELEMENTE
100
AcDbCircle
 62
7
  6
CONTINUOUS
 10
172.9584019353
 20
153.5902640893
 40
86.0311288741
100
AcDbArc
 50
172.6540124577
 51
187.3459875423
  0
ARC
  5
51D
100
AcDbEntity
  8
KONSTRUKTIONSELEMENTE
100
AcDbCircle
 62
7
  6
CONTINUOUS
 10
172.9584019353
 20
153.5902640893
 40
77.9688711259
100
AcDbArc
 50
171.8895414224
 51
188.1104585776
  0
ARC
  5
51E
100
AcDbEntity
  8
KONSTRUKTIONSELEMENTE
100
AcDbCircle
 62
7
  6
CONTINUOUS
 10
172.9584019353
 20
153.5902640893
 40
77.5
100
AcDbArc
 50
163.7397952917
 51
196.2602047083
  0
ARC
  5
51F
100
AcDbEntity
  8
KONSTRUKTIONSELEMENTE
100
AcDbCircle
 62
7
  6
CONTINUOUS
 10
112.9584019353
 20
171.0902640893
 40
24.0
100
AcDbArc
 50
16.2602047083
 51
163.7397952917
  0
ARC
  5
520
100
AcDbEntity
  8
KONSTRUKTIONSELEMENTE
100
AcDbCircle
 62
7
  6
CONTINUOUS
 10
112.9584019353
 20
171.0902640893
 40
15.0
100
AcDbArc
 50
16.2602047083
 51
163.7397952917
  0
ARC
  5
521
100
AcDbEntity
  8
RUNDUNGEN
100
AcDbCircle
 62
7
  6
CONTINUOUS
 10
166.2814993752
 20
120.3562894931
 40
3.5
100
AcDbArc
 50
330.0
 51
360.0
  0
ARC
  5
522
100
AcDbEntity
  8
RUNDUNGEN
100
AcDbCircle
 62
7
  6
CONTINUOUS
 10
172.2814993752
 20
126.4238010099
 40
2.5
100
AcDbArc
 50
140.0
 51
179.9993956533
  0
ARC
  5
523
100
AcDbEntity
  8
RUNDUNGEN
100
AcDbCircle
 62
7
  6
CONTINUOUS
 10
176.5968409368
 20
127.4902640893
 40
1.5
100
AcDbArc
 50
62.7339555493
 51
90.0
  0
ARC
  5
524
100
AcDbEntity
  8
RUNDUNGEN
100
AcDbCircle
 62
7
  6
CONTINUOUS
 10
171.6378070334
 20
127.9902640893
 40
1.0
100
AcDbArc
 50
90.0
 51
140.0
  0
ARC
  5
525
100
AcDbEntity
  8
RUNDUNGEN
100
AcDbCircle
 62
7
  6
CONTINUOUS
 10
166.7815082498
 20
112.2223302681
 40
1.0
100
AcDbArc
 50
150.0010169546
 51
180.0008806989
  0
ARC
  5
526
100
AcDbEntity
  8
KONSTRUKTIONSELEMENTE
100
AcDbCircle
 62
7
  6
CONTINUOUS
 10
169.5181402063
 20
188.0237125119
 40
17.3700213284
100
AcDbArc
 50
357.6011902106
 51
0.7179653739
  0
ARC
  5
527
100
AcDbEntity
  8
KONSTRUKTIONSELEMENTE
100
AcDbCircle
 62
7
  6
CONTINUOUS
 10
176.6356275669
 20
189.955617358
 40
10.2525322646
100
AcDbArc
 50
356.8776745311
 51
0.9339391803
  0
ARC
  5
528
100
AcDbEntity
  8
KONSTRUKTIONSELEMENTE
100
AcDbCircle
 62
7
  6
CONTINUOUS
 10
181.7596101348
 20
190.2471016564
 40
5.4793864076
100
AcDbArc
 50
16.2531002226
 51
19.5312561121
  0
ARC
  5
529
100
AcDbEntity
  8
KONSTRUKTIONSELEMENTE
100
AcDbCircle
 62
7
  6
CONTINUOUS
 10
181.9079732292
 20
190.1632543504
 40
5.3618085585
100
AcDbArc
 50
14.4430929898
 51
17.557110507
  0
ARC
  5
52A
100
AcDbEntity
  8
KONSTRUKTIONSELEMENTE
100
AcDbCircle
 62
7
  6
CONTINUOUS
 10
182.2860777596
 20
190.1745246078
 40
4.9935390671
100
AcDbArc
 50
11.2105380792
 51
15.3999771853
  0
ARC
  5
52B
100
AcDbEntity
  8
KONSTRUKTIONSELEMENTE
100
AcDbCircle
 62
7
  6
CONTINUOUS
 10
182.4395551102
 20
190.1821108484
 40
4.8415670804
100
AcDbArc
 50
8.32917086
 51
11.4755855577
  0
ARC
  5
52C
100
AcDbEntity
  8
KONSTRUKTIONSELEMENTE
100
AcDbCircle
 62
7
  6
CONTINUOUS
 10
182.3247424213
 20
189.5033037872
 40
4.7333741683
100
AcDbArc
 50
344.5377256909
 51
346.1551586208
  0
ARC
  5
52D
100
AcDbEntity
  8
KONSTRUKTIONSELEMENTE
100
AcDbCircle
 62
7
  6
CONTINUOUS
 10
182.5880217992
 20
190.1905594493
 40
4.6934609438
100
AcDbArc
 50
3.2061649483
 51
8.4896688862
  0
ARC
  5
52E
100
AcDbEntity
  8
0
100
AcDbCircle
 62
7
  6
CONTINUOUS
 10
182.7814993752
 20
139.4902640893
 40
12.0
100
AcDbArc
 50
292.028587925
 51
297.2660444507
  0
ARC
  5
52F
100
AcDbEntity
  8
0
100
AcDbCircle
 62
7
  6
CONTINUOUS
 10
182.7814993752
 20
139.4902640893
 40
12.0
100
AcDbArc
 50
242.7339555493
 51
247.971412075
  0
ARC
  5
530
100
AcDbEntity
  8
RUNDUNGEN
100
AcDbCircle
 62
7
  6
CONTINUOUS
 10
182.7814993752
 20
113.4902640893
 40
6.5
100
AcDbArc
 50
138.0000130275
 51
41.9999857237
  0
ARC
  5
531
100
AcDbEntity
  8
KONSTRUKTIONSELEMENTE
100
AcDbCircle
 62
7
  6
CONTINUOUS
 10
182.7814993752
 20
116.5902640893
 40
4.5
100
AcDbArc
 50
180.0
 51
360.0
  0
ARC
  5
532
100
AcDbEntity
  8
RUNDUNGEN
100
AcDbCircle
 62
7
  6
CONTINUOUS
 10
199.2814993752
 20
120.3562894931
 40
3.5
100
AcDbArc
 50
180.0
 51
210.0
  0
ARC
  5
533
100
AcDbEntity
  8
RUNDUNGEN
100
AcDbCircle
 62
7
  6
CONTINUOUS
 10
193.2814993752
 20
126.4238010099
 40
2.5
100
AcDbArc
 50
359.9998064356
 51
40.0001184437
  0
ARC
  5
534
100
AcDbEntity
  8
RUNDUNGEN
100
AcDbCircle
 62
7
  6
CONTINUOUS
 10
188.9661578137
 20
127.4902640893
 40
1.5
100
AcDbArc
 50
90.0
 51
117.2660444507
  0
ARC
  5
535
100
AcDbEntity
  8
0
100
AcDbCircle
 62
7
  6
CONTINUOUS
 10
192.8407457743
 20
118.4164366759
 40
1.5
100
AcDbArc
 50
174.2608295227
 51
5.7391704773
  0
ARC
  5
536
100
AcDbEntity
  8
0
100
AcDbCircle
 62
7
  6
CONTINUOUS
 10
192.8407457743
 20
115.8664366759
 40
1.5
100
AcDbArc
 50
174.2608295227
 51
5.7391704773
  0
ARC
  5
537
100
AcDbEntity
  8
0
100
AcDbCircle
 62
7
  6
CONTINUOUS
 10
192.8407457743
 20
118.4164366759
 40
1.05
100
AcDbArc
 50
282.6531012477
 51
8.2132107017
  0
ARC
  5
538
100
AcDbEntity
  8
0
100
AcDbCircle
 62
7
  6
CONTINUOUS
 10
192.8407457743
 20
118.4164366759
 40
1.05
100
AcDbArc
 50
171.7867892983
 51
257.7240830835
  0
ARC
  5
539
100
AcDbEntity
  8
0
100
AcDbCircle
 62
7
  6
CONTINUOUS
 10
192.8407457743
 20
115.8664366759
 40
1.05
100
AcDbArc
 50
182.8938283409
 51
8.2132107017
  0
ARC
  5
53A
100
AcDbEntity
  8
RUNDUNGEN
100
AcDbCircle
 62
7
  6
CONTINUOUS
 10
193.9251917171
 20
127.9902640893
 40
1.0
100
AcDbArc
 50
40.0
 51
89.9999999999
  0
ARC
  5
53B
100
AcDbEntity
  8
RUNDUNGEN
100
AcDbCircle
 62
7
  6
CONTINUOUS
 10
198.7814365764
 20
112.2224236676
 40
1.0
100
AcDbArc
 50
359.993768506
 51
29.9928037816
  0
ARC
  5
53C
100
AcDbEntity
  8
KONSTRUKTIONSELEMENTE
100
AcDbCircle
 62
7
  6
CONTINUOUS
 10
182.7814993752
 20
190.5902640893
 40
4.5
100
AcDbArc
 50
21.2339996808
 51
180.0
  0
ARC
  5
53D
100
AcDbEntity
  8
KONSTRUKTIONSELEMENTE
100
AcDbCircle
 62
7
  6
CONTINUOUS
 10
182.8538958407
 20
190.1978200538
 40
4.4276035416
100
AcDbArc
 50
0.000448404
 51
3.304782765
  0
ARC
  5
53E
100
AcDbEntity
  8
KONSTRUKTIONSELEMENTE
100
AcDbCircle
 62
7
  6
CONTINUOUS
 10
182.8085393952
 20
191.0987076144
 40
4.2303123916
100
AcDbArc
 50
13.3986380901
 51
15.3405355337
  0
ARC
  5
53F
100
AcDbEntity
  8
KONSTRUKTIONSELEMENTE
100
AcDbCircle
 62
7
  6
CONTINUOUS
 10
185.1322902015
 20
190.9494161558
 40
1.9395122748
100
AcDbArc
 50
334.7711827724
 51
337.2262528135
  0
ARC
  5
540
100
AcDbEntity
  8
0
100
AcDbCircle
 62
7
  6
CONTINUOUS
 10
95.9584019353
 20
41.151063909
 40
12.0
100
AcDbArc
 50
332.7339555493
 51
337.9707809999
  0
ARC
  5
541
100
AcDbEntity
  8
0
100
AcDbCircle
 62
7
  6
CONTINUOUS
 10
95.9584019353
 20
41.151063909
 40
12.0
100
AcDbArc
 50
22.0292190001
 51
27.2660444507
  0
ARC
  5
542
100
AcDbEntity
  8
RUNDUNGEN
100
AcDbCircle
 62
7
  6
CONTINUOUS
 10
95.9584019353
 20
41.151063909
 40
12.0
100
AcDbArc
 50
22.0252968834
 51
27.2660444507
  0
ARC
  5
543
100
AcDbEntity
  8
RUNDUNGEN
100
AcDbCircle
 62
7
  6
CONTINUOUS
 10
95.9584019353
 20
41.151063909
 40
12.0
100
AcDbArc
 50
332.7339555493
 51
337.9747041083
  0
ARC
  5
544
100
AcDbEntity
  8
KONSTRUKTIONSELEMENTE
100
AcDbCircle
 62
7
  6
CONTINUOUS
 10
90.9584019353
 20
41.151063909
 40
4.5
100
AcDbArc
 50
153.6122000388
 51
206.3877999612
  0
ARC
  5
545
100
AcDbEntity
  8
KONSTRUKTIONSELEMENTE
100
AcDbCircle
 62
7
  6
CONTINUOUS
 10
99.9716622858
 20
66.5767528021
 40
29.5323520636
100
AcDbArc
 50
268.1602944089
 51
270.5508259606
  0
ARC
  5
546
100
AcDbEntity
  8
KONSTRUKTIONSELEMENTE
100
AcDbCircle
 62
7
  6
CONTINUOUS
 10
102.8206165674
 20
44.7458710654
 40
8.0563958997
100
AcDbArc
 50
253.7338783579
 51
256.3890296457
  0
ARC
  5
547
100
AcDbEntity
  8
KONSTRUKTIONSELEMENTE
100
AcDbCircle
 62
7
  6
CONTINUOUS
 10
105.8130905891
 20
44.2466382955
 40
7.5581572367
100
AcDbArc
 50
253.176490017
 51
255.9143771357
  0
ARC
  5
548
100
AcDbEntity
  8
KONSTRUKTIONSELEMENTE
100
AcDbCircle
 62
7
  6
CONTINUOUS
 10
102.5311851889
 20
41.7944839218
 40
5.1364345189
100
AcDbArc
 50
251.7744237813
 51
255.9689058871
  0
ARC
  5
549
100
AcDbEntity
  8
KONSTRUKTIONSELEMENTE
100
AcDbCircle
 62
7
  6
CONTINUOUS
 10
105.4640304724
 20
41.0589620308
 40
4.4031348248
100
AcDbArc
 50
250.2155962966
 51
254.7289796062
  0
ARC
  5
54A
100
AcDbEntity
  8
KONSTRUKTIONSELEMENTE
100
AcDbCircle
 62
7
  6
CONTINUOUS
 10
102.2843139243
 20
39.8038648469
 40
3.1547351556
100
AcDbArc
 50
251.54907663
 51
255.4648348893
  0
ARC
  5
54B
100
AcDbEntity
  8
KONSTRUKTIONSELEMENTE
100
AcDbCircle
 62
7
  6
CONTINUOUS
 10
105.1818371687
 20
39.0571626574
 40
2.4112153106
100
AcDbArc
 50
248.6579089987
 51
253.0982246685
  0
ARC
  5
54C
100
AcDbEntity
  8
KONSTRUKTIONSELEMENTE
100
AcDbCircle
 62
7
  6
CONTINUOUS
 10
102.0852309721
 20
38.4382955253
 40
1.7892076177
100
AcDbArc
 50
250.6553705342
 51
257.5566328786
  0
ARC
  5
54D
100
AcDbEntity
  8
KONSTRUKTIONSELEMENTE
100
AcDbCircle
 62
7
  6
CONTINUOUS
 10
101.9535707338
 20
37.4496668168
 40
0.7999040276
100
AcDbArc
 50
251.4958366496
 51
257.2954262217
  0
ARC
  5
54E
100
AcDbEntity
  8
KONSTRUKTIONSELEMENTE
100
AcDbCircle
 62
7
  6
CONTINUOUS
 10
101.9458920296
 20
37.4175809153
 40
0.7669150765
100
AcDbArc
 50
257.3278683515
 51
259.3172186986
  0
ARC
  5
54F
100
AcDbEntity
  8
KONSTRUKTIONSELEMENTE
100
AcDbCircle
 62
7
  6
CONTINUOUS
 10
104.8189048681
 20
37.0109324297
 40
0.3664954601
100
AcDbArc
 50
240.7657622843
 51
243.5055857965
  0
ARC
  5
550
100
AcDbEntity
  8
RUNDUNGEN
100
AcDbCircle
 62
7
  6
CONTINUOUS
 10
107.9711431496
 20
35.0201742858
 40
1.5128141456
100
AcDbArc
 50
161.763986643
 51
177.2409332672
  0
ARC
  5
551
100
AcDbEntity
  8
RUNDUNGEN
100
AcDbCircle
 62
7
  6
CONTINUOUS
 10
107.9584019353
 20
34.9664054705
 40
1.5
100
AcDbArc
 50
152.7339555493
 51
180.0
  0
ARC
  5
552
100
AcDbEntity
  8
RUNDUNGEN
100
AcDbCircle
 62
7
  6
CONTINUOUS
 10
107.9583482863
 20
26.4796628079
 40
1.4999853684
100
AcDbArc
 50
179.9999866315
 51
251.180116958
  0
ARC
  5
553
100
AcDbEntity
  8
RUNDUNGEN
100
AcDbCircle
 62
7
  6
CONTINUOUS
 10
107.9558530688
 20
35.0237781109
 40
1.4971648682
100
AcDbArc
 50
149.3260166524
 51
161.7118662262
  0
ARC
  5
554
100
AcDbEntity
  8
RUNDUNGEN
100
AcDbCircle
 62
7
  6
CONTINUOUS
 10
107.9482056936
 20
35.0220962908
 40
1.4898109844
100
AcDbArc
 50
177.2723020817
 51
177.8522674214
  0
ARC
  5
555
100
AcDbEntity
  8
RUNDUNGEN
100
AcDbCircle
 62
7
  6
CONTINUOUS
 10
107.9390214169
 20
35.0223978691
 40
1.4806218581
100
AcDbArc
 50
177.8506101936
 51
179.9979060447
  0
ARC
  5
556
100
AcDbEntity
  8
RUNDUNGEN
100
AcDbCircle
 62
7
  6
CONTINUOUS
 10
107.4584019353
 20
29.151063909
 40
1.0
100
AcDbArc
 50
180.0
 51
270.0
  0
ARC
  5
557
100
AcDbEntity
  8
KONSTRUKTIONSELEMENTE
100
AcDbCircle
 62
7
  6
CONTINUOUS
 10
112.4915844197
 20
44.217604848
 40
7.5197806594
100
AcDbArc
 50
253.4634474249
 51
256.2748187822
  0
ARC
  5
558
100
AcDbEntity
  8
KONSTRUKTIONSELEMENTE
100
AcDbCircle
 62
7
  6
CONTINUOUS
 10
111.9579687469
 20
43.6884530029
 40
6.9912147734
100
AcDbArc
 50
284.2838499586
 51
287.1861732584
  0
ARC
  5
559
100
AcDbEntity
  8
KONSTRUKTIONSELEMENTE
100
AcDbCircle
 62
7
  6
CONTINUOUS
 10
107.820974063
 20
41.7417740709
 40
5.0501795465
100
AcDbArc
 50
287.0111971948
 51
290.417015672
  0
ARC
  5
55A
100
AcDbEntity
  8
KONSTRUKTIONSELEMENTE
100
AcDbCircle
 62
7
  6
CONTINUOUS
 10
112.0709668558
 20
40.4205832787
 40
3.7637202852
100
AcDbArc
 50
248.7590052197
 51
252.4404879834
  0
ARC
  5
55B
100
AcDbEntity
  8
KONSTRUKTIONSELEMENTE
100
AcDbCircle
 62
7
  6
CONTINUOUS
 10
112.6016308913
 20
38.8918908344
 40
2.2546954248
100
AcDbArc
 50
292.5152274659
 51
298.6563685829
  0
ARC
  5
55C
100
AcDbEntity
  8
KONSTRUKTIONSELEMENTE
100
AcDbCircle
 62
7
  6
CONTINUOUS
 10
108.2539417284
 20
38.7518622933
 40
2.1151961089
100
AcDbArc
 50
294.8324005208
 51
299.5913340231
  0
ARC
  5
55D
100
AcDbEntity
  8
RUNDUNGEN
100
AcDbCircle
 62
7
  6
CONTINUOUS
 10
107.9711452584
 20
47.2819431124
 40
1.5128135429
100
AcDbArc
 50
182.7599223079
 51
198.2361069108
  0
ARC
  5
55E
100
AcDbEntity
  8
RUNDUNGEN
100
AcDbCircle
 62
7
  6
CONTINUOUS
 10
107.9584019353
 20
47.3357223474
 40
1.5
100
AcDbArc
 50
180.0
 51
207.2660444537
  0
ARC
  5
55F
100
AcDbEntity
  8
RUNDUNGEN
100
AcDbCircle
 62
7
  6
CONTINUOUS
 10
107.9558557227
 20
47.2783392972
 40
1.4971647884
100
AcDbArc
 50
198.2882221393
 51
210.6733632327
  0
ARC
  5
560
100
AcDbEntity
  8
RUNDUNGEN
100
AcDbCircle
 62
7
  6
CONTINUOUS
 10
107.9482037727
 20
47.2800207777
 40
1.4898063285
100
AcDbArc
 50
182.1461775896
 51
182.7285614045
  0
ARC
  5
561
100
AcDbEntity
  8
RUNDUNGEN
100
AcDbCircle
 62
7
  6
CONTINUOUS
 10
107.9390177368
 20
47.2797192733
 40
1.4806154458
100
AcDbArc
 50
180.0026274028
 51
182.1478305777
  0
ARC
  5
562
100
AcDbEntity
  8
KONSTRUKTIONSELEMENTE
100
AcDbCircle
 62
7
  6
CONTINUOUS
 10
102.9835459697
 20
73.6942379159
 40
36.6498374577
100
AcDbArc
 50
268.3485640599
 51
270.4945060157
  0
ARC
  5
563
100
AcDbEntity
  8
KONSTRUKTIONSELEMENTE
100
AcDbCircle
 62
7
  6
CONTINUOUS
 10
107.1047242646
 20
64.9017470294
 40
28.0027491263
100
AcDbArc
 50
275.0768334255
 51
275.842028916
  0
ARC
  5
564
100
AcDbEntity
  8
KONSTRUKTIONSELEMENTE
100
AcDbCircle
 62
7
  6
CONTINUOUS
 10
106.3165020253
 20
64.5283767109
 40
27.6476773364
100
AcDbArc
 50
263.7359739153
 51
264.4146020136
  0
ARC
  5
565
100
AcDbEntity
  8
KONSTRUKTIONSELEMENTE
100
AcDbCircle
 62
7
  6
CONTINUOUS
 10
111.2886297829
 20
64.0909081507
 40
27.2192740619
100
AcDbArc
 50
275.7670085374
 51
276.4628475931
  0
ARC
  5
566
100
AcDbEntity
  8
KONSTRUKTIONSELEMENTE
100
AcDbCircle
 62
7
  6
CONTINUOUS
 10
103.1156552
 20
61.7209655629
 40
24.8404018621
100
AcDbArc
 50
263.3883986849
 51
264.1041269281
  0
ARC
  5
567
100
AcDbEntity
  8
RUNDUNGEN
100
AcDbCircle
 62
7
  6
CONTINUOUS
 10
107.9584019353
 20
55.8224646601
 40
1.5
100
AcDbArc
 50
108.8196295078
 51
180.0
  0
ARC
  5
568
100
AcDbEntity
  8
RUNDUNGEN
100
AcDbCircle
 62
7
  6
CONTINUOUS
 10
107.4584019353
 20
53.151063909
 40
1.0
100
AcDbArc
 50
90.0
 51
180.0
  0
ARC
  5
569
100
AcDbEntity
  8
0
100
AcDbCircle
 62
7
  6
CONTINUOUS
 10
112.9584019353
 20
41.151063909
 40
17.25
100
AcDbArc
 50
31.1250856063
 51
39.2607199174
  0
ARC
  5
56A
100
AcDbEntity
  8
0
100
AcDbCircle
 62
7
  6
CONTINUOUS
 10
112.9584019353
 20
41.151063909
 40
17.25
100
AcDbArc
 50
327.5725066183
 51
339.0539998895
  0
ARC
  5
56B
100
AcDbEntity
  8
0
100
AcDbCircle
 62
7
  6
CONTINUOUS
 10
112.9584019353
 20
41.151063909
 40
17.25
100
AcDbArc
 50
311.094787995
 51
324.9088248461
  0
ARC
  5
56C
100
AcDbEntity
  8
0
100
AcDbCircle
 62
7
  6
CONTINUOUS
 10
112.9584019353
 20
41.151063909
 40
17.25
100
AcDbArc
 50
15.1216653149
 51
28.5718781423
  0
ARC
  5
56D
100
AcDbEntity
  8
0
100
AcDbCircle
 62
7
  6
CONTINUOUS
 10
112.9584019353
 20
41.151063909
 40
17.25
100
AcDbArc
 50
341.4071774506
 51
344.8782650379
  0
ARC
  5
56E
100
AcDbEntity
  8
RUNDUNGEN
100
AcDbCircle
 62
7
  6
CONTINUOUS
 10
112.9584019353
 20
41.151063909
 40
17.0
100
AcDbArc
 50
15.3540074203
 51
164.6459926497
  0
ARC
  5
56F
100
AcDbEntity
  8
RUNDUNGEN
100
AcDbCircle
 62
7
  6
CONTINUOUS
 10
112.9584019353
 20
41.151063909
 40
17.0
100
AcDbArc
 50
195.3540073617
 51
344.6459925745
  0
ARC
  5
570
100
AcDbEntity
  8
KONSTRUKTIONSELEMENTE
100
AcDbCircle
 62
7
  6
CONTINUOUS
 10
115.5787433745
 20
41.0174637371
 40
4.3563134703
100
AcDbArc
 50
286.1946844608
 51
290.7871222979
  0
ARC
  5
571
100
AcDbEntity
  8
KONSTRUKTIONSELEMENTE
100
AcDbCircle
 62
7
  6
CONTINUOUS
 10
114.9605160029
 20
47.2824753701
 40
10.5618746759
100
AcDbArc
 50
281.8244275195
 51
283.4441027752
  0
ARC
  5
572
100
AcDbEntity
  8
RUNDUNGEN
100
AcDbCircle
 62
7
  6
CONTINUOUS
 10
117.9456584799
 20
35.0201840667
 40
1.512813699
100
AcDbArc
 50
2.7603439773
 51
18.2357758824
  0
ARC
  5
573
100
AcDbEntity
  8
RUNDUNGEN
100
AcDbCircle
 62
7
  6
CONTINUOUS
 10
117.9584019353
 20
26.4796631578
 40
1.5
100
AcDbArc
 50
288.8196331525
 51
360.0
  0
ARC
  5
574
100
AcDbEntity
  8
RUNDUNGEN
100
AcDbCircle
 62
7
  6
CONTINUOUS
 10
117.9584019353
 20
34.9664054705
 40
1.5
100
AcDbArc
 50
0.0
 51
27.2660444545
  0
ARC
  5
575
100
AcDbEntity
  8
RUNDUNGEN
100
AcDbCircle
 62
7
  6
CONTINUOUS
 10
117.960947952
 20
35.0237877647
 40
1.4971650338
100
AcDbArc
 50
18.2878911391
 51
30.6734798329
  0
ARC
  5
576
100
AcDbEntity
  8
RUNDUNGEN
100
AcDbCircle
 62
7
  6
CONTINUOUS
 10
117.9685977966
 20
35.0221062113
 40
1.4898086541
100
AcDbArc
 50
2.1457088561
 51
2.7289929182
  0
ARC
  5
577
100
AcDbEntity
  8
RUNDUNGEN
100
AcDbCircle
 62
7
  6
CONTINUOUS
 10
117.9777865639
 20
35.0224077541
 40
1.4806150401
100
AcDbArc
 50
0.002207705
 51
2.1473614089
  0
ARC
  5
578
100
AcDbEntity
  8
RUNDUNGEN
100
AcDbCircle
 62
7
  6
CONTINUOUS
 10
118.4584019353
 20
29.151063909
 40
1.0
100
AcDbArc
 50
270.0
 51
360.0
  0
ARC
  5
579
100
AcDbEntity
  8
KONSTRUKTIONSELEMENTE
100
AcDbCircle
 62
7
  6
CONTINUOUS
 10
120.2801334973
 20
42.6606046012
 40
5.9480875933
100
AcDbArc
 50
251.8019131056
 51
253.9376812664
  0
ARC
  5
57A
100
AcDbEntity
  8
KONSTRUKTIONSELEMENTE
100
AcDbCircle
 62
7
  6
CONTINUOUS
 10
116.8036038965
 20
42.4272742681
 40
5.7336652113
100
AcDbArc
 50
250.8955865236
 51
254.0854944314
  0
ARC
  5
57B
100
AcDbEntity
  8
RUNDUNGEN
100
AcDbCircle
 62
7
  6
CONTINUOUS
 10
117.9456607556
 20
47.2819539952
 40
1.5128141451
100
AcDbArc
 50
341.764083299
 51
357.2408405937
  0
ARC
  5
57C
100
AcDbEntity
  8
RUNDUNGEN
100
AcDbCircle
 62
7
  6
CONTINUOUS
 10
117.9584019353
 20
47.3357223474
 40
1.5
100
AcDbArc
 50
332.7339555493
 51
360.0
  0
ARC
  5
57D
100
AcDbEntity
  8
RUNDUNGEN
100
AcDbCircle
 62
7
  6
CONTINUOUS
 10
117.9609509429
 20
47.2783501422
 40
1.4971647555
100
AcDbArc
 50
329.3259704255
 51
341.7119636263
  0
ARC
  5
57E
100
AcDbEntity
  8
RUNDUNGEN
100
AcDbCircle
 62
7
  6
CONTINUOUS
 10
117.9685975902
 20
47.2800320426
 40
1.4898116057
100
AcDbArc
 50
357.2722071009
 51
357.8523466466
  0
ARC
  5
57F
100
AcDbEntity
  8
RUNDUNGEN
100
AcDbCircle
 62
7
  6
CONTINUOUS
 10
117.9777824364
 20
47.2797304543
 40
1.4806219098
100
AcDbArc
 50
357.850689474
 51
359.9979958742
  0
ARC
  5
580
100
AcDbEntity
  8
RUNDUNGEN
100
AcDbCircle
 62
7
  6
CONTINUOUS
 10
118.4584019353
 20
53.151063909
 40
1.0
100
AcDbArc
 50
0.0
 51
90.0
  0
ARC
  5
581
100
AcDbEntity
  8
KONSTRUKTIONSELEMENTE
100
AcDbCircle
 62
7
  6
CONTINUOUS
 10
114.4814461556
 20
84.4187868116
 40
47.3743513876
100
AcDbArc
 50
269.8439304893
 51
270.1560695107
  0
ARC
  5
582
100
AcDbEntity
  8
KONSTRUKTIONSELEMENTE
100
AcDbCircle
 62
7
  6
CONTINUOUS
 10
117.9391846432
 20
82.0751861368
 40
45.0307506938
100
AcDbArc
 50
269.9199683152
 51
270.0800335167
  0
ARC
  5
583
100
AcDbEntity
  8
KONSTRUKTIONSELEMENTE
100
AcDbCircle
 62
7
  6
CONTINUOUS
 10
114.9985543427
 20
72.3895243733
 40
35.462001349
100
AcDbArc
 50
273.9090745653
 51
274.6546533488
  0
ARC
  5
584
100
AcDbEntity
  8
KONSTRUKTIONSELEMENTE
100
AcDbCircle
 62
7
  6
CONTINUOUS
 10
112.9856938108
 20
68.5709593001
 40
31.6718601973
100
AcDbArc
 50
264.5089655208
 51
265.2286667639
  0
ARC
  5
585
100
AcDbEntity
  8
KONSTRUKTIONSELEMENTE
100
AcDbCircle
 62
7
  6
CONTINUOUS
 10
120.6340542382
 20
66.5799513602
 40
29.6525102396
100
AcDbArc
 50
264.9077025314
 51
265.7228255912
  0
ARC
  5
586
100
AcDbEntity
  8
KONSTRUKTIONSELEMENTE
100
AcDbCircle
 62
7
  6
CONTINUOUS
 10
117.5635111814
 20
62.1496669669
 40
25.2781359822
100
AcDbArc
 50
263.2913226301
 51
264.0132236222
  0
ARC
  5
587
100
AcDbEntity
  8
RUNDUNGEN
100
AcDbCircle
 62
7
  6
CONTINUOUS
 10
117.9584384228
 20
55.8224639225
 40
1.4999900489
100
AcDbArc
 50
0.0000281736
 51
71.1803883162
  0
ARC
  5
588
100
AcDbEntity
  8
KONSTRUKTIONSELEMENTE
100
AcDbCircle
 62
7
  6
CONTINUOUS
 10
127.3994716481
 20
49.5231040969
 40
12.6438533357
100
AcDbArc
 50
260.6910221976
 51
261.6912511741
  0
ARC
  5
589
100
AcDbEntity
  8
RUNDUNGEN
100
AcDbCircle
 62
7
  6
CONTINUOUS
 10
129.9584019353
 20
41.151063909
 40
12.0
100
AcDbArc
 50
152.7339555493
 51
157.9756710363
  0
ARC
  5
58A
100
AcDbEntity
  8
RUNDUNGEN
100
AcDbCircle
 62
7
  6
CONTINUOUS
 10
129.9584019353
 20
41.151063909
 40
12.0
100
AcDbArc
 50
202.0243289638
 51
207.2660444507
  0
ARC
  5
58B
100
AcDbEntity
  8
KONSTRUKTIONSELEMENTE
100
AcDbCircle
 62
7
  6
CONTINUOUS
 10
134.9584019353
 20
41.151063909
 40
4.5
100
AcDbArc
 50
333.6122000388
 51
26.3877999612
  0
ARC
  5
58C
100
AcDbEntity
  8
KONSTRUKTIONSELEMENTE
100
AcDbCircle
 62
7
  6
CONTINUOUS
 10
125.0595496254
 20
68.855191836
 40
31.8107912008
100
AcDbArc
 50
268.2274027092
 51
270.5307537501
  0
ARC
  5
58D
100
AcDbEntity
  8
KONSTRUKTIONSELEMENTE
100
AcDbCircle
 62
7
  6
CONTINUOUS
 10
120.3432943353
 20
170.2845206287
 40
133.5980406463
100
AcDbArc
 50
269.745214851
 51
269.8999832405
  0
ARC
  5
58E
100
AcDbEntity
  8
KONSTRUKTIONSELEMENTE
100
AcDbCircle
 62
7
  6
CONTINUOUS
 10
120.3639897713
 20
168.4809571779
 40
131.7944677858
100
AcDbArc
 50
270.1293906706
 51
270.3079152715
  0
ARC
  5
58F
100
AcDbEntity
  8
KONSTRUKTIONSELEMENTE
100
AcDbCircle
 62
7
  6
CONTINUOUS
 10
120.6014511469
 20
99.0715301706
 40
62.2450271951
100
AcDbArc
 50
269.7786099622
 51
270.0553847454
  0
SPLINE
  5
590
100
AcDbEntity
  8
KONSTRUKTIONSELEMENTE
100
AcDbSpline
 62
7
  6
CONTINUOUS
 70
0
 71
3
 72
36
 73
32
 74
0
 42
0.0000001
 43
0.0000001
 44
0.0000000001
 40
0.0
 40
0.0
 40
0.0
 40
0.0
 40
0.0621919403
 40
0.12443698
 40
0.1867480229
 40
0.2491429826
 40
0.2803845154
 40
0.3116593393
 40
0.342974403
 40
0.3743391956
 40
0.4057676349
 40
0.4372810372
 40
0.4689133407
 40
0.484806172
 40
0.500760002
 40
0.5167784169
 40
0.5328328271
 40
0.540876572
 40
0.548902507
 40
0.5648325217
 40
0.5806490975
 40
0.5963639241
 40
0.6275763674
 40
0.6586954263
 40
0.689767973
 40
0.7208162095
 40
0.7518510689
 40
0.8138960714
 40
0.8759325482
 40
0.9379664449
 40
1.0
 40
1.0
 40
1.0
 40
1.0
 10
87.6334048046
 20
142.5902640893
 30
0.0
 10
87.7476742446
 20
142.1557118747
 30
0.0
 10
87.9947108856
 20
141.2909398175
 30
0.0
 10
88.4236864054
 20
140.011218455
 30
0.0
 10
88.9160045606
 20
138.7528235402
 30
0.0
 10
89.3847886648
 20
137.7274319008
 30
0.0
 10
89.8005014108
 20
136.926233918
 30
0.0
 10
90.1350271162
 20
136.3363992852
 30
0.0
 10
90.4948497468
 20
135.7605269659
 30
0.0
 10
90.8837674502
 20
135.2024288045
 30
0.0
 10
91.3072160932
 20
134.6679077755
 30
0.0
 10
91.7731459714
 20
134.1670677149
 30
0.0
 10
92.2071342216
 20
133.792674359
 30
0.0
 10
92.5907282819
 20
133.5400010481
 30
0.0
 10
92.9003862752
 20
133.3837548447
 30
0.0
 10
93.2325721176
 20
133.2772028511
 30
0.0
 10
93.5246494803
 20
133.2507744932
 30
0.0
 10
93.7558635712
 20
133.2786750488
 30
0.0
 10
93.9793634205
 20
133.3409310596
 30
0.0
 10
94.2358519176
 20
133.479398897
 30
0.0
 10
94.4893665609
 20
133.7140744631
 30
0.0
 10
94.7622367527
 20
134.0781448053
 30
0.0
 10
95.0114546405
 20
134.5884060531
 30
0.0
 10
95.2218497734
 20
135.2304856812
 30
0.0
 10
95.3756566527
 20
135.8869898671
 30
0.0
 10
95.4903752982
 20
136.5504208903
 30
0.0
 10
95.605361189
 20
137.4400231792
 30
0.0
 10
95.6960637981
 20
138.5575800944
 30
0.0
 10
95.7528495349
 20
139.9012001516
 30
0.0
 10
95.7746647566
 20
141.24569988
 30
0.0
 10
95.773067366
 20
142.1420983527
 30
0.0
 10
95.7693815721
 20
142.5902640893
 30
0.0
  0
SPLINE
  5
591
100
AcDbEntity
  8
KONSTRUKTIONSELEMENTE
100
AcDbSpline
 62
7
  6
CONTINUOUS
 70
0
 71
3
 72
37
 73
33
 74
0
 42
0.0000001
 43
0.0000001
 44
0.0000000001
 40
0.0
 40
0.0
 40
0.0
 40
0.0
 40
0.0620312252
 40
0.1240627961
 40
0.1860969547
 40
0.2481396457
 40
0.2791733494
 40
0.3102204352
 40
0.3412918559
 40
0.3724098881
 40
0.4036211132
 40
0.4193358923
 40
0.4351517575
 40
0.443115191
 40
0.4511191283
 40
0.459145377
 40
0.467187837
 40
0.4832417527
 40
0.4992595882
 40
0.5152124849
 40
0.5311045061
 40
0.5627356698
 40
0.5942478542
 40
0.6256750761
 40
0.657038661
 40
0.68835252
 40
0.7196261514
 40
0.750866501
 40
0.813259082
 40
0.8755677578
 40
0.937810423
 40
1.0
 40
1.0
 40
1.0
 40
1.0
 10
95.7693815721
 20
164.5902640893
 30
0.0
 10
95.7730673707
 20
165.0384303976
 30
0.0
 10
95.7746647044
 20
165.9348300426
 30
0.0
 10
95.7528494233
 20
167.2793316025
 30
0.0
 10
95.6960638956
 20
168.6229536165
 30
0.0
 10
95.6053611128
 20
169.7405123124
 30
0.0
 10
95.4903728253
 20
170.6301157349
 30
0.0
 10
95.3756555764
 20
171.2935483557
 30
0.0
 10
95.2218371439
 20
171.9500528117
 30
0.0
 10
95.0114803764
 20
172.5921409273
 30
0.0
 10
94.7621493028
 20
173.1023896191
 30
0.0
 10
94.4894951328
 20
173.4664935568
 30
0.0
 10
94.277972584
 20
173.6617045781
 30
0.0
 10
94.0829348405
 20
173.7841369319
 30
0.0
 10
93.9240037425
 20
173.8548873772
 30
0.0
 10
93.7558516896
 20
173.9018972788
 30
0.0
 10
93.5246426427
 20
173.9297348005
 30
0.0
 10
93.2325681852
 20
173.9033420997
 30
0.0
 10
92.9003883432
 20
173.7967652181
 30
0.0
 10
92.5907334936
 20
173.6405250651
 30
0.0
 10
92.2071339845
 20
173.3878639626
 30
0.0
 10
91.7731533984
 20
173.0134620911
 30
0.0
 10
91.3072204858
 20
172.5126246757
 30
0.0
 10
90.8837716177
 20
171.9781033594
 30
0.0
 10
90.4948532366
 20
171.4200055445
 30
0.0
 10
90.1350295619
 20
170.8441334815
 30
0.0
 10
89.8005032777
 20
170.2542986375
 30
0.0
 10
89.3847908393
 20
169.4530997134
 30
0.0
 10
88.9160054172
 20
168.4277076856
 30
0.0
 10
88.4236871731
 20
167.1693116957
 30
0.0
 10
87.9947111731
 20
165.8895893841
 30
0.0
 10
87.7476743399
 20
165.0248166664
 30
0.0
 10
87.6334048046
 20
164.5902640893
 30
0.0
  0
SPLINE
  5
592
100
AcDbEntity
  8
KONSTRUKTIONSELEMENTE
100
AcDbSpline
 62
7
  6
CONTINUOUS
 70
0
 71
3
 72
35
 73
31
 74
0
 42
0.0000001
 43
0.0000001
 44
0.0000000001
 40
0.0
 40
0.0
 40
0.0
 40
0.0
 40
0.0621947149
 40
0.1244425437
 40
0.1867563673
 40
0.2491541233
 40
0.2803970475
 40
0.3116732777
 40
0.3429897632
 40
0.3743559842
 40
0.405785871
 40
0.4373007339
 40
0.4689343655
 40
0.4848282619
 40
0.5007832455
 40
0.516802126
 40
0.5328572063
 40
0.5488835437
 40
0.5648154359
 40
0.5806319376
 40
0.5963464979
 40
0.6275602953
 40
0.65868051
 40
0.6897543604
 40
0.7208039411
 40
0.7518401561
 40
0.8138878762
 40
0.8759270802
 40
0.9379637095
 40
1.0
 40
1.0
 40
1.0
 40
1.0
 10
138.2833990661
 20
164.5902640893
 30
0.0
 10
138.1691296466
 20
165.0248162259
 30
0.0
 10
137.9220930134
 20
165.8895882042
 30
0.0
 10
137.4931176555
 20
167.1693094801
 30
0.0
 10
137.0007990074
 20
168.4277041084
 30
0.0
 10
136.5320159624
 20
169.4530961266
 30
0.0
 10
136.1163021464
 20
170.2542935468
 30
0.0
 10
135.7817768046
 20
170.8441285082
 30
0.0
 10
135.4219548037
 20
171.4200016023
 30
0.0
 10
135.0330371529
 20
171.9781006553
 30
0.0
 10
134.6095879056
 20
172.5126218203
 30
0.0
 10
134.1436604544
 20
173.0134654082
 30
0.0
 10
133.7096626642
 20
173.3878490653
 30
0.0
 10
133.3260673808
 20
173.6405326288
 30
0.0
 10
133.0164308468
 20
173.7968093914
 30
0.0
 10
132.6841303585
 20
173.9032181449
 30
0.0
 10
132.3343475864
 20
173.9353712836
 30
0.0
 10
131.9886039596
 20
173.8676807451
 30
0.0
 10
131.6810073694
 20
173.7010651718
 30
0.0
 10
131.4274081472
 20
173.4664275629
 30
0.0
 10
131.1545619538
 20
173.1023653672
 30
0.0
 10
130.9053496908
 20
172.592108645
 30
0.0
 10
130.6949503352
 20
171.9500342719
 30
0.0
 10
130.5411453903
 20
171.2935319824
 30
0.0
 10
130.4264274069
 20
170.6301022076
 30
0.0
 10
130.3114426313
 20
169.7405007742
 30
0.0
 10
130.2207401929
 20
168.6229449588
 30
0.0
 10
130.1639542744
 20
167.2793260496
 30
0.0
 10
130.1421390762
 20
165.9348273412
 30
0.0
 10
130.1437365072
 20
165.0384295134
 30
0.0
 10
130.1474222986
 20
164.5902640893
 30
0.0
  0
SPLINE
  5
593
100
AcDbEntity
  8
KONSTRUKTIONSELEMENTE
100
AcDbSpline
 62
7
  6
CONTINUOUS
 70
0
 71
3
 72
37
 73
33
 74
0
 42
0.0000001
 43
0.0000001
 44
0.0000000001
 40
0.0
 40
0.0
 40
0.0
 40
0.0
 40
0.0620312243
 40
0.1240627943
 40
0.1860969521
 40
0.2481396424
 40
0.2791733456
 40
0.3102204311
 40
0.3412918516
 40
0.3724098849
 40
0.4036211102
 40
0.4193358964
 40
0.43515176
 40
0.4431151944
 40
0.4511191291
 40
0.4591453881
 40
0.4671878416
 40
0.4832417677
 40
0.4992596069
 40
0.5152124992
 40
0.5311045171
 40
0.5627356809
 40
0.5942478639
 40
0.6256750844
 40
0.6570386682
 40
0.6883525261
 40
0.7196261566
 40
0.7508665054
 40
0.8132590849
 40
0.8755677594
 40
0.9378104236
 40
1.0
 40
1.0
 40
1.0
 40
1.0
 10
130.1474222986
 20
142.5902640893
 30
0.0
 10
130.1437365
 20
142.1420977869
 30
0.0
 10
130.142139167
 20
141.2456981536
 30
0.0
 10
130.1639544473
 20
139.9011966111
 30
0.0
 10
130.2207399685
 20
138.5575746138
 30
0.0
 10
130.3114427498
 20
137.4400159307
 30
0.0
 10
130.4264310397
 20
136.5504125195
 30
0.0
 10
130.5411482853
 20
135.8869799018
 30
0.0
 10
130.6949667257
 20
135.2304754508
 30
0.0
 10
130.9053234294
 20
134.5883872835
 30
0.0
 10
131.1546545863
 20
134.0781386207
 30
0.0
 10
131.4273086295
 20
133.7140344556
 30
0.0
 10
131.6388315288
 20
133.5188238395
 30
0.0
 10
131.8338689457
 20
133.3963909758
 30
0.0
 10
131.9928003125
 20
133.3256409676
 30
0.0
 10
132.1609522756
 20
133.2786307671
 30
0.0
 10
132.392161463
 20
133.2507934384
 30
0.0
 10
132.6842359868
 20
133.2771859084
 30
0.0
 10
133.0164157999
 20
133.3837632053
 30
0.0
 10
133.3260706011
 20
133.5400033278
 30
0.0
 10
133.7096701697
 20
133.7926642598
 30
0.0
 10
134.1436505857
 20
134.1670662911
 30
0.0
 10
134.6095835057
 20
134.6679036597
 30
0.0
 10
135.0330323443
 20
135.2024249688
 30
0.0
 10
135.4219507098
 20
135.7605227623
 30
0.0
 10
135.7817743771
 20
136.3363948045
 30
0.0
 10
136.1163006465
 20
136.9262296347
 30
0.0
 10
136.5320130636
 20
137.7274285444
 30
0.0
 10
137.0007984777
 20
138.752820548
 30
0.0
 10
137.4931167084
 20
140.0112165155
 30
0.0
 10
137.9220927021
 20
141.2909388088
 30
0.0
 10
138.1691295319
 20
142.1557115163
 30
0.0
 10
138.2833990661
 20
142.5902640893
 30
0.0
  0
SPLINE
  5
594
100
AcDbEntity
  8
KONSTRUKTIONSELEMENTE
100
AcDbSpline
 62
7
  6
CONTINUOUS
 70
0
 71
3
 72
9
 73
5
 74
0
 42
0.0000001
 43
0.0000001
 44
0.0000000001
 40
0.0
 40
0.0
 40
0.0
 40
0.0
 40
0.5062953466
 40
1.0
 40
1.0
 40
1.0
 40
1.0
 10
186.872940181
 20
187.2966920262
 30
0.0
 10
187.0041772806
 20
187.0689017773
 30
0.0
 10
187.2100849007
 20
186.5853137933
 30
0.0
 10
187.2814926563
 20
186.0637543291
 30
0.0
 10
187.2814987995
 20
185.8074011685
 30
0.0
  0
SPLINE
  5
595
100
AcDbEntity
  8
KONSTRUKTIONSELEMENTE
100
AcDbSpline
 62
7
  6
CONTINUOUS
 70
0
 71
3
 72
9
 73
5
 74
0
 42
0.0000001
 43
0.0000001
 44
0.0000000001
 40
0.0
 40
0.0
 40
0.0
 40
0.0
 40
0.5025507651
 40
1.0
 40
1.0
 40
1.0
 40
1.0
 10
186.8729401786
 20
189.3971835418
 30
0.0
 10
186.9566552347
 20
189.2353043468
 30
0.0
 10
187.1001246852
 20
188.9006485844
 30
0.0
 10
187.1921862771
 20
188.5482859956
 30
0.0
 10
187.2244143903
 20
188.3707936142
 30
0.0
  0
SPLINE
  5
596
100
AcDbEntity
  8
KONSTRUKTIONSELEMENTE
100
AcDbSpline
 62
7
  6
CONTINUOUS
 70
0
 71
3
 72
14
 73
10
 74
0
 42
0.0000001
 43
0.0000001
 44
0.0000000001
 40
0.0
 40
0.0
 40
0.0
 40
0.0
 40
0.1718395365
 40
0.3773785471
 40
0.4974219782
 40
0.6338686688
 40
0.7953713403
 40
0.8911939958
 40
1.0
 40
1.0
 40
1.0
 40
1.0
 10
138.2833990661
 20
39.151063909
 30
0.0
 10
138.0214228067
 20
38.8841161632
 30
0.0
 10
137.3885551318
 20
38.3535347154
 30
0.0
 10
136.4587128685
 20
37.7915004106
 30
0.0
 10
135.5476766549
 20
37.3638261129
 30
0.0
 10
134.6952051502
 20
37.0431754031
 30
0.0
 10
133.8663817049
 20
36.8171562233
 30
0.0
 10
133.0801909022
 20
36.6833489627
 30
0.0
 10
132.6345660978
 20
36.6509943041
 30
0.0
 10
132.3977412845
 20
36.6510804099
 30
0.0
  0
SPLINE
  5
597
100
AcDbEntity
  8
KONSTRUKTIONSELEMENTE
100
AcDbSpline
 62
7
  6
CONTINUOUS
 70
0
 71
3
 72
14
 73
10
 74
0
 42
0.0000001
 43
0.0000001
 44
0.0000000001
 40
0.0
 40
0.0
 40
0.0
 40
0.0
 40
0.1088073918
 40
0.204630343
 40
0.3661346119
 40
0.5025814767
 40
0.6226245404
 40
0.8281622618
 40
1.0
 40
1.0
 40
1.0
 40
1.0
 10
93.5192592314
 20
36.6510853218
 30
0.0
 10
93.2824242895
 20
36.6510091767
 30
0.0
 10
92.836780194
 20
36.6833129311
 30
0.0
 10
92.0505577254
 20
36.8171335211
 30
0.0
 10
91.2217006944
 20
37.0431387065
 30
0.0
 10
90.3691983777
 20
37.3637960991
 30
0.0
 10
89.4581352076
 20
37.7914758863
 30
0.0
 10
88.5282685666
 20
38.3535187874
 30
0.0
 10
87.8953861817
 20
38.8841109483
 30
0.0
 10
87.6334048046
 20
39.151063909
 30
0.0
  0
SPLINE
  5
598
100
AcDbEntity
  8
KONSTRUKTIONSELEMENTE
100
AcDbSpline
 62
7
  6
CONTINUOUS
 70
0
 71
3
 72
14
 73
10
 74
0
 42
0.0000001
 43
0.0000001
 44
0.0000000001
 40
0.0
 40
0.0
 40
0.0
 40
0.0
 40
0.108807409
 40
0.2046303367
 40
0.3661345761
 40
0.502581434
 40
0.6226245
 40
0.8281622372
 40
1.0
 40
1.0
 40
1.0
 40
1.0
 10
132.397547265
 20
45.6510424815
 30
0.0
 10
132.6343821492
 20
45.6511186026
 30
0.0
 10
133.0800260352
 20
45.6188145433
 30
0.0
 10
133.8662480724
 20
45.4849938575
 30
0.0
 10
134.6951046012
 20
45.2589886285
 30
0.0
 10
135.5476064684
 20
44.9383312986
 30
0.0
 10
136.4586692601
 20
44.5106515981
 30
0.0
 10
137.3885355706
 20
43.9486088171
 30
0.0
 10
138.0214177567
 20
43.4180168006
 30
0.0
 10
138.2833990661
 20
43.151063909
 30
0.0
  0
SPLINE
  5
599
100
AcDbEntity
  8
KONSTRUKTIONSELEMENTE
100
AcDbSpline
 62
7
  6
CONTINUOUS
 70
0
 71
3
 72
14
 73
10
 74
0
 42
0.0000001
 43
0.0000001
 44
0.0000000001
 40
0.0
 40
0.0
 40
0.0
 40
0.0
 40
0.171838283
 40
0.3773763704
 40
0.4974195329
 40
0.6338663216
 40
0.7953700544
 40
0.8911930861
 40
1.0
 40
1.0
 40
1.0
 40
1.0
 10
87.6334048046
 20
43.151063909
 30
0.0
 10
87.895384572
 20
43.4180152293
 30
0.0
 10
88.5282623301
 20
43.9486039714
 30
0.0
 10
89.4581212177
 20
44.5106442176
 30
0.0
 10
90.3691758789
 20
44.9383222843
 30
0.0
 10
91.2216684587
 20
45.2589773807
 30
0.0
 10
92.0505152419
 20
45.4849878622
 30
0.0
 10
92.8367281038
 20
45.6188024467
 30
0.0
 10
93.2823664593
 20
45.6511261808
 30
0.0
 10
93.519198153
 20
45.6510441735
 30
0.0
  0
SPLINE
  5
59A
100
AcDbEntity
  8
KONSTRUKTIONSELEMENTE
100
AcDbSpline
 62
7
  6
CONTINUOUS
 70
0
 71
3
 72
9
 73
5
 74
0
 42
0.0000001
 43
0.0000001
 44
0.0000000001
 40
0.0
 40
0.0
 40
0.0
 40
0.0
 40
0.2647357597
 40
1.0
 40
1.0
 40
1.0
 40
1.0
 10
109.142250823
 20
36.8322369311
 30
0.0
 10
109.1357535119
 20
36.8243041689
 30
0.0
 10
109.1106974575
 20
36.7947710786
 30
0.0
 10
109.0834710891
 20
36.7670221937
 30
0.0
 10
109.062075935
 20
36.7482261073
 30
0.0
  0
SPLINE
  5
59B
100
AcDbEntity
  8
KONSTRUKTIONSELEMENTE
100
AcDbSpline
 62
7
  6
CONTINUOUS
 70
0
 71
3
 72
9
 73
5
 74
0
 42
0.0000001
 43
0.0000001
 44
0.0000000001
 40
0.0
 40
0.0
 40
0.0
 40
0.0
 40
0.2713652718
 40
1.0
 40
1.0
 40
1.0
 40
1.0
 10
109.062075935
 20
36.7482261073
 30
0.0
 10
109.0598060254
 20
36.7439324085
 30
0.0
 10
109.051216319
 20
36.7282336257
 30
0.0
 10
109.0416756952
 20
36.713026638
 30
0.0
 10
109.0339656488
 20
36.7025091439
 30
0.0
  0
SPLINE
  5
59C
100
AcDbEntity
  8
KONSTRUKTIONSELEMENTE
100
AcDbSpline
 62
7
  6
CONTINUOUS
 70
0
 71
3
 72
9
 73
5
 74
0
 42
0.0000001
 43
0.0000001
 44
0.0000000001
 40
0.0
 40
0.0
 40
0.0
 40
0.0
 40
0.3337078336
 40
1.0
 40
1.0
 40
1.0
 40
1.0
 10
109.0339656488
 20
36.7025091439
 30
0.0
 10
109.0336479322
 20
36.6975934525
 30
0.0
 10
109.0325786371
 20
36.6828784848
 30
0.0
 10
109.0314815497
 20
36.6681195055
 30
0.0
 10
109.029811776
 20
36.6584269713
 30
0.0
  0
SPLINE
  5
59D
100
AcDbEntity
  8
KONSTRUKTIONSELEMENTE
100
AcDbSpline
 62
7
  6
CONTINUOUS
 70
0
 71
3
 72
9
 73
5
 74
0
 42
0.0000001
 43
0.0000001
 44
0.0000000001
 40
0.0
 40
0.0
 40
0.0
 40
0.0
 40
0.2363275825
 40
1.0
 40
1.0
 40
1.0
 40
1.0
 10
115.4469886138
 20
36.7482261152
 30
0.0
 10
115.4430326192
 20
36.7527692672
 30
0.0
 10
115.4266403465
 20
36.7722951468
 30
0.0
 10
115.4115786247
 20
36.7929182663
 30
0.0
 10
115.4006880476
 20
36.809053268
 30
0.0
  0
SPLINE
  5
59E
100
AcDbEntity
  8
KONSTRUKTIONSELEMENTE
100
AcDbSpline
 62
7
  6
CONTINUOUS
 70
0
 71
3
 72
9
 73
5
 74
0
 42
0.0000001
 43
0.0000001
 44
0.0000000001
 40
0.0
 40
0.0
 40
0.0
 40
0.0
 40
0.2447338606
 40
1.0
 40
1.0
 40
1.0
 40
1.0
 10
115.4006880476
 20
36.809053268
 30
0.0
 10
115.3863640588
 20
36.816676484
 30
0.0
 10
115.3283410492
 20
36.8487701535
 30
0.0
 10
115.2723856279
 20
36.8845746435
 30
0.0
 10
115.2314174497
 20
36.9133694329
 30
0.0
  0
SPLINE
  5
59F
100
AcDbEntity
  8
KONSTRUKTIONSELEMENTE
100
AcDbSpline
 62
7
  6
CONTINUOUS
 70
0
 71
3
 72
9
 73
5
 74
0
 42
0.0000001
 43
0.0000001
 44
0.0000000001
 40
0.0
 40
0.0
 40
0.0
 40
0.0
 40
0.2593511352
 40
1.0
 40
1.0
 40
1.0
 40
1.0
 10
113.4650190604
 20
36.809053268
 30
0.0
 10
113.4520402247
 20
36.7997675797
 30
0.0
 10
113.4012179734
 20
36.7650783701
 30
0.0
 10
113.3471443614
 20
36.7350499864
 30
0.0
 10
113.3056045605
 20
36.7163035246
 30
0.0
  0
SPLINE
  5
5A0
100
AcDbEntity
  8
KONSTRUKTIONSELEMENTE
100
AcDbSpline
 62
7
  6
CONTINUOUS
 70
0
 71
3
 72
9
 73
5
 74
0
 42
0.0000001
 43
0.0000001
 44
0.0000000001
 40
0.0
 40
0.0
 40
0.0
 40
0.0
 40
0.2815248629
 40
1.0
 40
1.0
 40
1.0
 40
1.0
 10
113.3056045605
 20
36.7163035246
 30
0.0
 10
113.2971393583
 20
36.7082522993
 30
0.0
 10
113.2658870762
 20
36.6811168101
 30
0.0
 10
113.227732296
 20
36.6605378606
 30
0.0
 10
113.1985632422
 20
36.6543660723
 30
0.0
  0
SPLINE
  5
5A1
100
AcDbEntity
  8
KONSTRUKTIONSELEMENTE
100
AcDbSpline
 62
7
  6
CONTINUOUS
 70
0
 71
3
 72
8
 73
4
 74
0
 42
0.0000001
 43
0.0000001
 44
0.0000000001
 40
0.0
 40
0.0
 40
0.0
 40
0.0
 40
1.0
 40
1.0
 40
1.0
 40
1.0
 10
113.1985632422
 20
36.6543660723
 30
0.0
 10
113.1948141112
 20
36.6523560651
 30
0.0
 10
113.1904898746
 20
36.6510635689
 30
0.0
 10
113.1862359221
 20
36.6510642259
 30
0.0
  0
SPLINE
  5
5A2
100
AcDbEntity
  8
KONSTRUKTIONSELEMENTE
100
AcDbSpline
 62
7
  6
CONTINUOUS
 70
0
 71
3
 72
9
 73
5
 74
0
 42
0.0000001
 43
0.0000001
 44
0.0000000001
 40
0.0
 40
0.0
 40
0.0
 40
0.0
 40
0.2446960954
 40
1.0
 40
1.0
 40
1.0
 40
1.0
 10
104.7020481496
 20
36.6639575893
 30
0.0
 10
104.6981295627
 20
36.6651948444
 30
0.0
 10
104.6822212557
 20
36.6705830838
 30
0.0
 10
104.6667609551
 20
36.6772717959
 30
0.0
 10
104.655407372
 20
36.6829271081
 30
0.0
  0
SPLINE
  5
5A3
100
AcDbEntity
  8
KONSTRUKTIONSELEMENTE
100
AcDbSpline
 62
7
  6
CONTINUOUS
 70
0
 71
3
 72
9
 73
5
 74
0
 42
0.0000001
 43
0.0000001
 44
0.0000000001
 40
0.0
 40
0.0
 40
0.0
 40
0.0
 40
0.2463007133
 40
1.0
 40
1.0
 40
1.0
 40
1.0
 10
104.639915377
 20
36.6911173514
 30
0.0
 10
104.6265180716
 20
36.6949610945
 30
0.0
 10
104.5724287008
 20
36.7116168637
 30
0.0
 10
104.5196308573
 20
36.7324143598
 30
0.0
 10
104.4808201031
 20
36.7501008144
 30
0.0
  0
SPLINE
  5
5A4
100
AcDbEntity
  8
KONSTRUKTIONSELEMENTE
100
AcDbSpline
 62
7
  6
CONTINUOUS
 70
0
 71
3
 72
9
 73
5
 74
0
 42
0.0000001
 43
0.0000001
 44
0.0000000001
 40
0.0
 40
0.0
 40
0.0
 40
0.0
 40
0.2419112654
 40
1.0
 40
1.0
 40
1.0
 40
1.0
 10
101.8553864437
 20
36.6510639099
 30
0.0
 10
101.85107023
 20
36.6510640235
 30
0.0
 10
101.8332266766
 20
36.6521638605
 30
0.0
 10
101.8158212709
 20
36.6578993034
 30
0.0
 10
101.8037279777
 20
36.6639575897
 30
0.0
  0
SPLINE
  5
5A5
100
AcDbEntity
  8
KONSTRUKTIONSELEMENTE
100
AcDbSpline
 62
7
  6
CONTINUOUS
 70
0
 71
3
 72
9
 73
5
 74
0
 42
0.0000001
 43
0.0000001
 44
0.0000000001
 40
0.0
 40
0.0
 40
0.0
 40
0.0
 40
0.2444367121
 40
1.0
 40
1.0
 40
1.0
 40
1.0
 10
118.8065476815
 20
36.8340107039
 30
0.0
 10
118.7919860855
 20
36.8421509542
 30
0.0
 10
118.7329398542
 20
36.8763879372
 30
0.0
 10
118.6760458603
 20
36.9143133332
 30
0.0
 10
118.6344004118
 20
36.944722462
 30
0.0
  0
SPLINE
  5
5A6
100
AcDbEntity
  8
KONSTRUKTIONSELEMENTE
100
AcDbSpline
 62
7
  6
CONTINUOUS
 70
0
 71
3
 72
9
 73
5
 74
0
 42
0.0000001
 43
0.0000001
 44
0.0000000001
 40
0.0
 40
0.0
 40
0.0
 40
0.0
 40
0.2564865349
 40
1.0
 40
1.0
 40
1.0
 40
1.0
 10
116.7937279789
 20
36.8340106822
 30
0.0
 10
116.7820851667
 20
36.8259073922
 30
0.0
 10
116.7361722907
 20
36.7950714629
 30
0.0
 10
116.6881334559
 20
36.7673647826
 30
0.0
 10
116.6513711352
 20
36.7489412912
 30
0.0
  0
SPLINE
  5
5A7
100
AcDbEntity
  8
KONSTRUKTIONSELEMENTE
100
AcDbSpline
 62
7
  6
CONTINUOUS
 70
0
 71
3
 72
9
 73
5
 74
0
 42
0.0000001
 43
0.0000001
 44
0.0000000001
 40
0.0
 40
0.0
 40
0.0
 40
0.0
 40
0.7410935615
 40
1.0
 40
1.0
 40
1.0
 40
1.0
 10
111.3716529199
 20
36.6510639021
 30
0.0
 10
111.3624763684
 20
36.6510641249
 30
0.0
 10
111.3500049128
 20
36.6530478298
 30
0.0
 10
111.338344414
 20
36.6572203327
 30
0.0
 10
111.3353742646
 20
36.6584269713
 30
0.0
  0
SPLINE
  5
5A8
100
AcDbEntity
  8
KONSTRUKTIONSELEMENTE
100
AcDbSpline
 62
7
  6
CONTINUOUS
 70
0
 71
3
 72
9
 73
5
 74
0
 42
0.0000001
 43
0.0000001
 44
0.0000000001
 40
0.0
 40
0.0
 40
0.0
 40
0.0
 40
0.2654757463
 40
1.0
 40
1.0
 40
1.0
 40
1.0
 10
120.3609378884
 20
36.826967646
 30
0.0
 10
120.3408518033
 20
36.8112615541
 30
0.0
 10
120.2632383786
 20
36.7547331175
 30
0.0
 10
120.1768036687
 20
36.7096026796
 30
0.0
 10
120.1100828067
 20
36.686683532
 30
0.0
  0
LINE
  5
5A9
100
AcDbEntity
  8
KONSTRUKTIONSELEMENTE
100
AcDbLine
 62
7
  6
CONTINUOUS
 10
119.7492072177
 20
36.6878008897
 11
119.6289910661
 21
36.6883925872
  0
SPLINE
  5
5AA
100
AcDbEntity
  8
KONSTRUKTIONSELEMENTE
100
AcDbSpline
 62
7
  6
CONTINUOUS
 70
0
 71
3
 72
9
 73
5
 74
0
 42
0.0000001
 43
0.0000001
 44
0.0000000001
 40
0.0
 40
0.0
 40
0.0
 40
0.0
 40
0.2542741732
 40
1.0
 40
1.0
 40
1.0
 40
1.0
 10
119.6289910661
 20
36.6883925872
 30
0.0
 10
119.6186503923
 20
36.6847576368
 30
0.0
 10
119.5776607174
 20
36.6714025694
 30
0.0
 10
119.5353821916
 20
36.6619504154
 30
0.0
 10
119.5035635692
 20
36.6573752921
 30
0.0
  0
SPLINE
  5
5AB
100
AcDbEntity
  8
KONSTRUKTIONSELEMENTE
100
AcDbSpline
 62
7
  6
CONTINUOUS
 70
0
 71
3
 72
9
 73
5
 74
0
 42
0.0000001
 43
0.0000001
 44
0.0000000001
 40
0.0
 40
0.0
 40
0.0
 40
0.0
 40
0.2422494026
 40
1.0
 40
1.0
 40
1.0
 40
1.0
 10
111.3353742646
 20
36.6584269713
 30
0.0
 10
111.3249274019
 20
36.6604594864
 30
0.0
 10
111.2821327338
 20
36.6705227204
 30
0.0
 10
111.2409947057
 20
36.6871837068
 30
0.0
 10
111.2114418211
 20
36.7025091439
 30
0.0
  0
SPLINE
  5
5AC
100
AcDbEntity
  8
KONSTRUKTIONSELEMENTE
100
AcDbSpline
 62
7
  6
CONTINUOUS
 70
0
 71
3
 72
9
 73
5
 74
0
 42
0.0000001
 43
0.0000001
 44
0.0000000001
 40
0.0
 40
0.0
 40
0.0
 40
0.0
 40
0.2396754618
 40
1.0
 40
1.0
 40
1.0
 40
1.0
 10
125.6406520867
 20
36.9157313147
 30
0.0
 10
125.6348461274
 20
36.9231619898
 30
0.0
 10
125.6109964404
 20
36.954457024
 30
0.0
 10
125.5886189053
 20
36.9868647323
 30
0.0
 10
125.5723425945
 20
37.0119639971
 30
0.0
  0
SPLINE
  5
5AD
100
AcDbEntity
  8
KONSTRUKTIONSELEMENTE
100
AcDbSpline
 62
7
  6
CONTINUOUS
 70
0
 71
3
 72
10
 73
6
 74
0
 42
0.0000001
 43
0.0000001
 44
0.0000000001
 40
0.0
 40
0.0
 40
0.0
 40
0.0
 40
0.5198437728
 40
0.7627166418
 40
1.0
 40
1.0
 40
1.0
 40
1.0
 10
124.0755552009
 20
37.0596230913
 30
0.0
 10
123.9191399311
 20
36.9335302497
 30
0.0
 10
123.6618843138
 20
36.7766240758
 30
0.0
 10
123.2889663183
 20
36.6688898045
 30
0.0
 10
123.102898302
 20
36.6510675597
 30
0.0
 10
123.0111923186
 20
36.6510644847
 30
0.0
  0
SPLINE
  5
5AE
100
AcDbEntity
  8
KONSTRUKTIONSELEMENTE
100
AcDbSpline
 62
7
  6
CONTINUOUS
 70
0
 71
3
 72
9
 73
5
 74
0
 42
0.0000001
 43
0.0000001
 44
0.0000000001
 40
0.0
 40
0.0
 40
0.0
 40
0.0
 40
0.2457893424
 40
1.0
 40
1.0
 40
1.0
 40
1.0
 10
111.2114418211
 20
36.7025091439
 30
0.0
 10
111.2030292782
 20
36.7057357473
 30
0.0
 10
111.169014626
 20
36.719411815
 30
0.0
 10
111.135874416
 20
36.7352436945
 30
0.0
 10
111.1114643252
 20
36.7482261073
 30
0.0
  0
SPLINE
  5
5AF
100
AcDbEntity
  8
KONSTRUKTIONSELEMENTE
100
AcDbSpline
 62
7
  6
CONTINUOUS
 70
0
 71
3
 72
9
 73
5
 74
0
 42
0.0000001
 43
0.0000001
 44
0.0000000001
 40
0.0
 40
0.0
 40
0.0
 40
0.0
 40
0.2460194699
 40
1.0
 40
1.0
 40
1.0
 40
1.0
 10
111.1114643252
 20
36.7482261073
 30
0.0
 10
111.0966106386
 20
36.7541706374
 30
0.0
 10
111.0366355548
 20
36.779327374
 30
0.0
 10
110.9783172446
 20
36.8084038833
 30
0.0
 10
110.9354665806
 20
36.8322369311
 30
0.0
  0
ELLIPSE
  5
5B0
100
AcDbEntity
  8
0
100
AcDbEllipse
 62
7
  6
CONTINUOUS
 10
112.9584019353
 20
97.0434555723
 30
0.0
 11
17.25
 21
-0.0
 31
0.0
 40
0.255319362
 41
0.0
 42
0.0096619769
  0
ELLIPSE
  5
5B1
100
AcDbEntity
  8
0
100
AcDbEllipse
 62
7
  6
CONTINUOUS
 10
112.9584019353
 20
89.9796257927
 30
0.0
 11
0.0
 21
32.2978726029
 31
0.0
 40
0.5340909047
 41
-1.5707963268
 42
-1.5418067593
  0
ELLIPSE
  5
5B2
100
AcDbEntity
  8
0
100
AcDbEllipse
 62
7
  6
CONTINUOUS
 10
112.9584019353
 20
72.2774199226
 30
0.0
 11
-0.0
 21
105.7025429584
 31
0.0
 40
0.1631938033
 41
-1.3861744009
 42
-1.3812577075
  0
ELLIPSE
  5
5B3
100
AcDbEntity
  8
0
100
AcDbEllipse
 62
7
  6
CONTINUOUS
 10
112.9584019353
 20
86.8306983761
 30
0.0
 11
-0.0
 21
26.4254814467
 31
0.0
 40
0.6527790245
 41
4.877387823
 42
4.8970109063
  0
ELLIPSE
  5
5B4
100
AcDbEntity
  8
0
100
AcDbEllipse
 62
7
  6
CONTINUOUS
 10
112.9584019353
 20
89.2420375638
 30
0.0
 11
17.25
 21
-0.0
 31
0.0
 40
0.6808509827
 41
0.1503239486
 42
0.1649988426
  0
ELLIPSE
  5
5B5
100
AcDbEntity
  8
0
100
AcDbEllipse
 62
7
  6
CONTINUOUS
 10
112.9584019353
 20
90.4732421341
 30
0.0
 11
17.25
 21
0.0
 31
0.0
 40
0.2042556065
 41
6.4091218187
 42
6.4335092558
  0
ELLIPSE
  5
5B6
100
AcDbEntity
  8
0
100
AcDbEllipse
 62
7
  6
CONTINUOUS
 10
112.9584019353
 20
94.5072861041
 30
0.0
 11
17.25
 21
0.0
 31
0.0
 40
0.2042556065
 41
-0.1503239486
 42
-0.1259365116
  0
ELLIPSE
  5
5B7
100
AcDbEntity
  8
0
100
AcDbEllipse
 62
7
  6
CONTINUOUS
 10
112.9584019353
 20
95.7384906744
 30
0.0
 11
17.25
 21
0.0
 31
0.0
 40
0.6808509827
 41
-0.1649988426
 42
-0.1503239486
  0
ELLIPSE
  5
5B8
100
AcDbEntity
  8
0
100
AcDbEllipse
 62
7
  6
CONTINUOUS
 10
112.9584019353
 20
98.149831382
 30
0.0
 11
0.0
 21
26.4254907003
 31
0.0
 40
0.6527787959
 41
-1.7554182527
 42
-1.7357951694
  0
ELLIPSE
  5
5B9
100
AcDbEntity
  8
0
100
AcDbEllipse
 62
7
  6
CONTINUOUS
 10
112.9584019353
 20
112.7031036067
 30
0.0
 11
-0.0
 21
105.702518282
 31
0.0
 40
0.1631938414
 41
-1.7603349461
 42
-1.7554182527
  0
ELLIPSE
  5
5BA
100
AcDbEntity
  8
0
100
AcDbEllipse
 62
7
  6
CONTINUOUS
 10
112.9584019353
 20
94.1214697529
 30
0.0
 11
17.25
 21
-0.0
 31
0.0
 40
0.1702127457
 41
0.0967693348
 42
0.1259365116
  0
ELLIPSE
  5
5BB
100
AcDbEntity
  8
0
100
AcDbEllipse
 62
7
  6
CONTINUOUS
 10
112.9584019353
 20
93.3838818268
 30
0.0
 11
17.25
 21
0.0
 31
0.0
 40
0.6127654169
 41
0.0725273363
 42
0.0967693348
  0
ELLIPSE
  5
5BC
100
AcDbEntity
  8
0
100
AcDbEllipse
 62
7
  6
CONTINUOUS
 10
112.9584019353
 20
92.8732430054
 30
0.0
 11
-0.0
 21
17.6170191765
 31
0.0
 40
0.9791667834
 41
4.770392514
 42
4.7849163167
  0
ELLIPSE
  5
5BD
100
AcDbEntity
  8
0
100
AcDbEllipse
 62
7
  6
CONTINUOUS
 10
112.9584019353
 20
91.8519704273
 30
0.0
 11
0.0
 21
35.2339711495
 31
0.0
 40
0.4895843255
 41
4.7607169509
 42
4.770392514
  0
ELLIPSE
  5
5BE
100
AcDbEntity
  8
0
100
AcDbEllipse
 62
7
  6
CONTINUOUS
 10
112.9584019353
 20
91.0008916532
 30
0.0
 11
-0.0
 21
52.8513084938
 31
0.0
 40
0.3263873779
 41
-1.527304356
 42
-1.5224683563
  0
ELLIPSE
  5
5BF
100
AcDbEntity
  8
0
100
AcDbEllipse
 62
7
  6
CONTINUOUS
 10
112.9584019353
 20
89.4689732442
 30
0.0
 11
-0.0
 21
88.0854319017
 31
0.0
 40
0.1958326096
 41
-1.5321393382
 42
-1.527304356
  0
ELLIPSE
  5
5C0
100
AcDbEntity
  8
0
100
AcDbEllipse
 62
7
  6
CONTINUOUS
 10
112.9584019353
 20
95.5115558881
 30
0.0
 11
-0.0
 21
88.0854565781
 31
0.0
 40
0.1958325548
 41
-1.6142882976
 42
-1.6094533154
  0
ELLIPSE
  5
5C1
100
AcDbEntity
  8
0
100
AcDbEllipse
 62
7
  6
CONTINUOUS
 10
112.9584019353
 20
93.9796342604
 30
0.0
 11
-0.0
 21
52.851259141
 31
0.0
 40
0.3263876827
 41
-1.6191242973
 42
-1.6142882976
  0
ELLIPSE
  5
5C2
100
AcDbEntity
  8
0
100
AcDbEllipse
 62
7
  6
CONTINUOUS
 10
112.9584019353
 20
93.1285581685
 30
0.0
 11
0.0
 21
35.2339773186
 31
0.0
 40
0.4895842398
 41
-1.6287998604
 42
-1.6191242973
  0
ELLIPSE
  5
5C3
100
AcDbEntity
  8
0
100
AcDbEllipse
 62
7
  6
CONTINUOUS
 10
112.9584019353
 20
92.1072853519
 30
0.0
 11
0.0
 21
17.6170212328
 31
0.0
 40
0.9791666691
 41
-1.6433236631
 42
-1.6287998604
  0
ELLIPSE
  5
5C4
100
AcDbEntity
  8
0
100
AcDbEllipse
 62
7
  6
CONTINUOUS
 10
112.9584019353
 20
91.5966464486
 30
0.0
 11
17.25
 21
-0.0
 31
0.0
 40
0.6127654705
 41
-0.0967693348
 42
-0.0725273363
  0
ELLIPSE
  5
5C5
100
AcDbEntity
  8
0
100
AcDbEllipse
 62
7
  6
CONTINUOUS
 10
112.9584019353
 20
90.8590584579
 30
0.0
 11
17.25
 21
-0.0
 31
0.0
 40
0.1702127606
 41
-0.1259365116
 42
-0.0967693348
  0
ELLIPSE
  5
5C6
100
AcDbEntity
  8
0
100
AcDbEllipse
 62
7
  6
CONTINUOUS
 10
112.9584019353
 20
112.1072465037
 30
0.0
 11
-0.0
 21
52.8509567242
 31
0.0
 40
0.3263895503
 41
-1.9415509026
 42
-1.9363729938
  0
ELLIPSE
  5
5C7
100
AcDbEntity
  8
0
100
AcDbEllipse
 62
7
  6
CONTINUOUS
 10
112.9584019353
 20
101.4689864232
 30
0.0
 11
0.0
 21
23.489358902
 31
0.0
 40
0.7343750875
 41
-1.9571480781
 42
-1.9415509026
  0
ELLIPSE
  5
5C8
100
AcDbEntity
  8
0
100
AcDbEllipse
 62
7
  6
CONTINUOUS
 10
112.9584019353
 20
97.5966440852
 30
0.0
 11
17.25
 21
-0.0
 31
0.0
 40
0.7659569903
 41
-0.4073039459
 42
-0.3863517513
  0
ELLIPSE
  5
5C9
100
AcDbEntity
  8
0
100
AcDbEllipse
 62
7
  6
CONTINUOUS
 10
112.9584019353
 20
93.7583496094
 30
0.0
 11
17.25
 21
-0.0
 31
0.0
 40
0.2042553727
 41
-0.4337647347
 42
-0.4073039459
  0
ELLIPSE
  5
5CA
100
AcDbEntity
  8
0
100
AcDbEllipse
 62
7
  6
CONTINUOUS
 10
112.9584019353
 20
93.0094126371
 30
0.0
 11
17.25
 21
0.0
 31
0.0
 40
0.2042553727
 41
0.4073039459
 42
0.4337647347
  0
ELLIPSE
  5
5CB
100
AcDbEntity
  8
0
100
AcDbEllipse
 62
7
  6
CONTINUOUS
 10
112.9584019353
 20
89.1711181612
 30
0.0
 11
17.25
 21
0.0
 31
0.0
 40
0.7659569903
 41
0.3863517513
 42
0.4073039459
  0
ELLIPSE
  5
5CC
100
AcDbEntity
  8
0
100
AcDbEllipse
 62
7
  6
CONTINUOUS
 10
112.9584019353
 20
85.2987758233
 30
0.0
 11
-0.0
 21
23.489358902
 31
0.0
 40
0.7343750875
 41
-1.200041751
 42
-1.1844445755
  0
ELLIPSE
  5
5CD
100
AcDbEntity
  8
0
100
AcDbEllipse
 62
7
  6
CONTINUOUS
 10
112.9584019353
 20
74.6605157428
 30
0.0
 11
-0.0
 21
52.8509567242
 31
0.0
 40
0.3263895503
 41
-1.2052196597
 42
-1.200041751
  0
ELLIPSE
  5
5CE
100
AcDbEntity
  8
0
100
AcDbEllipse
 62
7
  6
CONTINUOUS
 10
112.9584019353
 20
123.5966725788
 30
0.0
 11
-0.0
 21
52.8511079322
 31
0.0
 40
0.3263886165
 41
-2.1891692447
 42
-2.1832528716
  0
ELLIPSE
  5
5CF
100
AcDbEntity
  8
0
100
AcDbEllipse
 62
7
  6
CONTINUOUS
 10
112.9584019353
 20
106.5753687932
 30
0.0
 11
0.0
 21
23.489358902
 31
0.0
 40
0.7343750875
 41
-2.2070705811
 42
-2.1891692447
  0
ELLIPSE
  5
5D0
100
AcDbEntity
  8
0
100
AcDbEllipse
 62
7
  6
CONTINUOUS
 10
112.9584019353
 20
100.4689884142
 30
0.0
 11
17.25
 21
-0.0
 31
0.0
 40
0.7659575381
 41
-0.6605187342
 42
-0.6362742543
  0
ELLIPSE
  5
5D1
100
AcDbEntity
  8
0
100
AcDbEllipse
 62
7
  6
CONTINUOUS
 10
112.9584019353
 20
94.5243059714
 30
0.0
 11
17.25
 21
-0.0
 31
0.0
 40
0.2042552558
 41
-0.691484194
 42
-0.6605187342
  0
ELLIPSE
  5
5D2
100
AcDbEntity
  8
0
100
AcDbEllipse
 62
7
  6
CONTINUOUS
 10
112.9584019353
 20
92.243456275
 30
0.0
 11
17.25
 21
0.0
 31
0.0
 40
0.2042552558
 41
0.6605187342
 42
0.691484194
  0
ELLIPSE
  5
5D3
100
AcDbEntity
  8
0
100
AcDbEllipse
 62
7
  6
CONTINUOUS
 10
112.9584019353
 20
86.2987738322
 30
0.0
 11
17.25
 21
-0.0
 31
0.0
 40
0.7659575381
 41
0.6362742543
 42
0.6605187342
  0
ELLIPSE
  5
5D4
100
AcDbEntity
  8
0
100
AcDbEllipse
 62
7
  6
CONTINUOUS
 10
112.9584019353
 20
80.1923934533
 30
0.0
 11
-0.0
 21
23.489358902
 31
0.0
 40
0.7343750875
 41
-0.9524234089
 42
-0.9345220725
  0
ELLIPSE
  5
5D5
100
AcDbEntity
  8
0
100
AcDbEllipse
 62
7
  6
CONTINUOUS
 10
112.9584019353
 20
63.1710896677
 30
0.0
 11
-0.0
 21
52.8511079322
 31
0.0
 40
0.3263886165
 41
-0.958339782
 42
-0.9524234089
  0
ELLIPSE
  5
5D6
100
AcDbEntity
  8
0
100
AcDbEllipse
 62
7
  6
CONTINUOUS
 10
112.9584019353
 20
95.1285525035
 30
0.0
 11
-0.0
 21
70.4683455213
 31
0.0
 40
0.244790762
 41
-1.536973444
 42
-1.5321393658
  0
ELLIPSE
  5
5D7
100
AcDbEntity
  8
0
100
AcDbEllipse
 62
7
  6
CONTINUOUS
 10
112.9584019353
 20
96.6179252287
 30
0.0
 11
-0.0
 21
26.4254783621
 31
0.0
 40
0.6527791007
 41
-1.5466393972
 42
-1.536973444
  0
ELLIPSE
  5
5D8
100
AcDbEntity
  8
0
100
AcDbEllipse
 62
7
  6
CONTINUOUS
 10
112.9584019353
 20
96.9725336634
 30
0.0
 11
17.25
 21
0.0
 31
0.0
 40
0.6808512211
 41
6.292847284
 42
6.3073422368
  0
ELLIPSE
  5
5D9
100
AcDbEntity
  8
0
100
AcDbEllipse
 62
7
  6
CONTINUOUS
 10
112.9584019353
 20
99.8774983218
 30
0.0
 11
17.25
 21
-0.0
 31
0.0
 40
0.2042552558
 41
0.1503239626
 42
0.1748018834
  0
ELLIPSE
  5
5DA
100
AcDbEntity
  8
0
100
AcDbEllipse
 62
7
  6
CONTINUOUS
 10
112.9584019353
 20
98.4264341372
 30
0.0
 11
17.25
 21
0.0
 31
0.0
 40
0.7659575381
 41
0.1308074961
 42
0.1503239626
  0
ELLIPSE
  5
5DB
100
AcDbEntity
  8
0
100
AcDbEllipse
 62
7
  6
CONTINUOUS
 10
112.9584019353
 20
97.0860091759
 30
0.0
 11
-0.0
 21
23.489358902
 31
0.0
 40
0.7343750875
 41
4.8285923529
 42
4.8431964765
  0
ELLIPSE
  5
5DC
100
AcDbEntity
  8
0
100
AcDbEllipse
 62
7
  6
CONTINUOUS
 10
112.9584019353
 20
93.6817484188
 30
0.0
 11
-0.0
 21
52.8511079322
 31
0.0
 40
0.3263886165
 41
-1.4594553078
 42
-1.4545929543
  0
ELLIPSE
  5
5DD
100
AcDbEntity
  8
0
100
AcDbEllipse
 62
7
  6
CONTINUOUS
 10
112.9584019353
 20
105.0860138276
 30
0.0
 11
-0.0
 21
52.8511079322
 31
0.0
 40
0.3263886165
 41
-1.6869996993
 42
-1.6821373458
  0
ELLIPSE
  5
5DE
100
AcDbEntity
  8
0
100
AcDbEllipse
 62
7
  6
CONTINUOUS
 10
112.9584019353
 20
101.6817530705
 30
0.0
 11
-0.0
 21
23.489358902
 31
0.0
 40
0.7343750875
 41
-1.7016038229
 42
-1.6869996993
  0
ELLIPSE
  5
5DF
100
AcDbEntity
  8
0
100
AcDbEllipse
 62
7
  6
CONTINUOUS
 10
112.9584019353
 20
99.7668599557
 30
0.0
 11
17.25
 21
0.0
 31
0.0
 40
0.5106383587
 41
-0.1503239626
 42
-0.1308074961
  0
ELLIPSE
  5
5E0
100
AcDbEntity
  8
0
100
AcDbEllipse
 62
7
  6
CONTINUOUS
 10
112.9584019353
 20
91.7053943079
 30
0.0
 11
-0.0
 21
45.0212767124
 31
0.0
 40
0.3831521729
 41
4.8188702738
 42
4.862712943
  0
ELLIPSE
  5
5E1
100
AcDbEntity
  8
0
100
AcDbEllipse
 62
7
  6
CONTINUOUS
 10
112.9584019353
 20
97.2987740681
 30
0.0
 11
-0.0
 21
17.6170191765
 31
0.0
 40
0.9791667834
 41
-1.7652562815
 42
-1.7505060134
  0
ELLIPSE
  5
5E2
100
AcDbEntity
  8
0
100
AcDbEllipse
 62
7
  6
CONTINUOUS
 10
112.9584019353
 20
96.039202763
 30
0.0
 11
17.25
 21
-0.0
 31
0.0
 40
0.6127668194
 41
-0.1797096866
 42
-0.1552118342
  0
ELLIPSE
  5
5E3
100
AcDbEntity
  8
0
100
AcDbEllipse
 62
7
  6
CONTINUOUS
 10
112.9584019353
 20
94.8590584257
 30
0.0
 11
17.25
 21
0.0
 31
0.0
 40
0.1702127457
 41
-0.1552118342
 42
-0.1259365116
  0
ELLIPSE
  5
5E4
100
AcDbEntity
  8
0
100
AcDbEllipse
 62
7
  6
CONTINUOUS
 10
112.9584019353
 20
96.5243066219
 30
0.0
 11
17.25
 21
0.0
 31
0.0
 40
0.2042553906
 41
6.2735233303
 42
6.2976785682
  0
ELLIPSE
  5
5E5
100
AcDbEntity
  8
0
100
AcDbEllipse
 62
7
  6
CONTINUOUS
 10
112.9584019353
 20
99.071824515
 30
0.0
 11
17.0
 21
0.0
 31
0.0
 40
0.3404254913
 41
0.1575132709
 42
0.1724216907
  0
ELLIPSE
  5
5E6
100
AcDbEntity
  8
0
100
AcDbEllipse
 62
7
  6
CONTINUOUS
 10
112.9584019353
 20
97.2562231391
 30
0.0
 11
-0.0
 21
17.3616917793
 31
0.0
 40
0.9791672503
 41
-1.4232022211
 42
-1.4132830559
  0
ELLIPSE
  5
5E7
100
AcDbEntity
  8
0
100
AcDbEllipse
 62
7
  6
CONTINUOUS
 10
112.9584019353
 20
92.1498322469
 30
0.0
 11
0.0
 21
52.0851498462
 31
0.0
 40
0.3263886165
 41
-1.4281562542
 42
-1.4232022211
  0
ELLIPSE
  5
5E8
100
AcDbEntity
  8
0
100
AcDbEllipse
 62
7
  6
CONTINUOUS
 10
112.9584019353
 20
106.7030363724
 30
0.0
 11
-0.0
 21
52.0851498462
 31
0.0
 40
0.3263886165
 41
-1.7183904325
 42
-1.7134363994
  0
ELLIPSE
  5
5E9
100
AcDbEntity
  8
0
100
AcDbEllipse
 62
7
  6
CONTINUOUS
 10
112.9584019353
 20
101.5966454802
 30
0.0
 11
-0.0
 21
17.3616917793
 31
0.0
 40
0.9791672503
 41
-1.7283095977
 42
-1.7183904325
  0
ELLIPSE
  5
5EA
100
AcDbEntity
  8
0
100
AcDbEllipse
 62
7
  6
CONTINUOUS
 10
112.9584019353
 20
99.7810441043
 30
0.0
 11
17.0
 21
-0.0
 31
0.0
 40
0.3404254913
 41
-0.1724216907
 42
-0.1575132709
  0
ELLIPSE
  5
5EB
100
AcDbEntity
  8
0
100
AcDbEllipse
 62
7
  6
CONTINUOUS
 10
112.9584019353
 20
73.3840193669
 30
0.0
 11
-0.0
 21
88.0844485277
 31
0.0
 40
0.1958347959
 41
-1.3615431249
 42
-1.3566018266
  0
ELLIPSE
  5
5EC
100
AcDbEntity
  8
0
100
AcDbEllipse
 62
7
  6
CONTINUOUS
 10
112.9584019353
 20
80.702990426
 30
0.0
 11
-0.0
 21
52.851259141
 31
0.0
 40
0.3263876827
 41
-1.366479187
 42
-1.3615431249
  0
ELLIPSE
  5
5ED
100
AcDbEntity
  8
0
100
AcDbEllipse
 62
7
  6
CONTINUOUS
 10
112.9584019353
 20
84.2775113754
 30
0.0
 11
-0.0
 21
35.2339773186
 31
0.0
 40
0.4895842398
 41
4.9068489351
 42
4.9167061202
  0
ELLIPSE
  5
5EE
100
AcDbEntity
  8
0
100
AcDbEllipse
 62
7
  6
CONTINUOUS
 10
112.9584019353
 20
87.6817537727
 30
0.0
 11
-0.0
 21
17.6170212328
 31
0.0
 40
0.9791666691
 41
-1.3910866401
 42
-1.3763363721
  0
ELLIPSE
  5
5EF
100
AcDbEntity
  8
0
100
AcDbEllipse
 62
7
  6
CONTINUOUS
 10
112.9584019353
 20
88.94132528
 30
0.0
 11
17.25
 21
0.0
 31
0.0
 40
0.6127668731
 41
0.1552118342
 42
0.1797096866
  0
ELLIPSE
  5
5F0
100
AcDbEntity
  8
0
100
AcDbEllipse
 62
7
  6
CONTINUOUS
 10
112.9584019353
 20
90.1214697206
 30
0.0
 11
17.25
 21
0.0
 31
0.0
 40
0.1702127606
 41
0.1259365116
 42
0.1552118342
  0
ELLIPSE
  5
5F1
100
AcDbEntity
  8
0
100
AcDbEllipse
 62
7
  6
CONTINUOUS
 10
112.9584019353
 20
94.8590584257
 30
0.0
 11
17.0
 21
0.0
 31
0.0
 40
0.1702127457
 41
-0.1575132851
 42
-0.1277985931
  0
ELLIPSE
  5
5F2
100
AcDbEntity
  8
0
100
AcDbEllipse
 62
7
  6
CONTINUOUS
 10
112.9584019353
 20
95.2278523613
 30
0.0
 11
17.25
 21
0.0
 31
0.0
 40
0.3404254913
 41
-0.4284472765
 42
-0.4125712715
  0
ELLIPSE
  5
5F3
100
AcDbEntity
  8
0
100
AcDbEllipse
 62
7
  6
CONTINUOUS
 10
112.9584019353
 20
99.9370782865
 30
0.0
 11
-0.0
 21
17.6170359774
 31
0.0
 40
0.9791658496
 41
-1.9833675983
 42
-1.9728448599
  0
ELLIPSE
  5
5F4
100
AcDbEntity
  8
0
100
AcDbEllipse
 62
7
  6
CONTINUOUS
 10
112.9584019353
 20
113.7242646657
 30
0.0
 11
-0.0
 21
52.8509567242
 31
0.0
 40
0.3263895503
 41
-1.9728448599
 42
-1.9676011651
  0
ELLIPSE
  5
5F5
100
AcDbEntity
  8
0
100
AcDbEllipse
 62
7
  6
CONTINUOUS
 10
112.9584019353
 20
73.1286039536
 30
0.0
 11
-0.0
 21
52.8509567242
 31
0.0
 40
0.3263895503
 41
-1.1739914885
 42
-1.1687477937
  0
ELLIPSE
  5
5F6
100
AcDbEntity
  8
0
100
AcDbEllipse
 62
7
  6
CONTINUOUS
 10
112.9584019353
 20
86.9157903328
 30
0.0
 11
-0.0
 21
17.6170359774
 31
0.0
 40
0.9791658496
 41
-1.1687477937
 42
-1.1582250553
  0
ELLIPSE
  5
5F7
100
AcDbEntity
  8
0
100
AcDbEllipse
 62
7
  6
CONTINUOUS
 10
112.9584019353
 20
91.625016258
 30
0.0
 11
17.25
 21
0.0
 31
0.0
 40
0.3404254913
 41
0.4125712715
 42
0.4284472765
  0
ELLIPSE
  5
5F8
100
AcDbEntity
  8
0
100
AcDbEllipse
 62
7
  6
CONTINUOUS
 10
112.9584019353
 20
96.039202763
 30
0.0
 11
17.0
 21
0.0
 31
0.0
 40
0.6127668194
 41
-0.1823819505
 42
-0.1575132851
  0
ELLIPSE
  5
5F9
100
AcDbEntity
  8
0
100
AcDbEllipse
 62
7
  6
CONTINUOUS
 10
112.9584019353
 20
97.2987740681
 30
0.0
 11
0.0
 21
17.361700058
 31
0.0
 40
0.9791667834
 41
-1.7681534173
 42
-1.7531782773
  0
ELLIPSE
  5
5FA
100
AcDbEntity
  8
0
100
AcDbEllipse
 62
7
  6
CONTINUOUS
 10
112.9584019353
 20
100.7030156706
 30
0.0
 11
-0.0
 21
34.7233338865
 31
0.0
 40
0.4895843255
 41
-1.7781616183
 42
-1.7681534173
  0
ELLIPSE
  5
5FB
100
AcDbEntity
  8
0
100
AcDbEllipse
 62
7
  6
CONTINUOUS
 10
112.9584019353
 20
104.2775478854
 30
0.0
 11
-0.0
 21
52.0853475012
 31
0.0
 40
0.3263873779
 41
-1.7831735383
 42
-1.7781616183
  0
ELLIPSE
  5
5FC
100
AcDbEntity
  8
0
100
AcDbEllipse
 62
7
  6
CONTINUOUS
 10
112.9584019353
 20
111.5965035665
 30
0.0
 11
-0.0
 21
86.8078379987
 31
0.0
 40
0.1958348508
 41
-1.7881909382
 42
-1.7831735383
  0
ELLIPSE
  5
5FD
100
AcDbEntity
  8
0
100
AcDbEllipse
 62
7
  6
CONTINUOUS
 10
112.9584019353
 20
73.3840193669
 30
0.0
 11
-0.0
 21
86.8078623172
 31
0.0
 40
0.1958347959
 41
-1.3584191152
 42
-1.3554093345
  0
ELLIPSE
  5
5FE
100
AcDbEntity
  8
0
100
AcDbEllipse
 62
7
  6
CONTINUOUS
 10
112.9584019353
 20
80.702990426
 30
0.0
 11
0.0
 21
52.0852988636
 31
0.0
 40
0.3263876827
 41
-1.3634310353
 42
-1.3584191152
  0
ELLIPSE
  5
5FF
100
AcDbEntity
  8
0
100
AcDbEllipse
 62
7
  6
CONTINUOUS
 10
112.9584019353
 20
84.2775113754
 30
0.0
 11
-0.0
 21
34.7233399661
 31
0.0
 40
0.4895842398
 41
-1.3734392363
 42
-1.3634310353
  0
ELLIPSE
  5
600
100
AcDbEntity
  8
0
100
AcDbEllipse
 62
7
  6
CONTINUOUS
 10
112.9584019353
 20
87.6817537727
 30
0.0
 11
-0.0
 21
17.3617020845
 31
0.0
 40
0.9791666691
 41
-1.3884143763
 42
-1.3734392363
  0
ELLIPSE
  5
601
100
AcDbEntity
  8
0
100
AcDbEllipse
 62
7
  6
CONTINUOUS
 10
112.9584019353
 20
88.94132528
 30
0.0
 11
17.0
 21
0.0
 31
0.0
 40
0.6127668731
 41
0.1575132851
 42
0.1823819505
  0
ELLIPSE
  5
602
100
AcDbEntity
  8
0
100
AcDbEllipse
 62
7
  6
CONTINUOUS
 10
112.9584019353
 20
90.0115399939
 30
0.0
 11
-0.0
 21
45.5744714483
 31
0.0
 40
0.3730158455
 41
-1.4281562542
 42
-1.3884143549
  0
ELLIPSE
  5
603
100
AcDbEntity
  8
0
100
AcDbEllipse
 62
7
  6
CONTINUOUS
 10
112.9584019353
 20
96.504448035
 30
0.0
 11
17.25
 21
0.0
 31
0.0
 40
0.3404254913
 41
-0.6852288828
 42
-0.6666510023
  0
ELLIPSE
  5
604
100
AcDbEntity
  8
0
100
AcDbEllipse
 62
7
  6
CONTINUOUS
 10
112.9584019353
 20
103.7668533764
 30
0.0
 11
0.0
 21
17.617010776
 31
0.0
 40
0.9791672503
 41
-2.237447329
 42
-2.225211889
  0
ELLIPSE
  5
605
100
AcDbEntity
  8
0
100
AcDbEllipse
 62
7
  6
CONTINUOUS
 10
112.9584019353
 20
125.2136951236
 30
0.0
 11
-0.0
 21
52.8511079322
 31
0.0
 40
0.3263886165
 41
-2.225211889
 42
-2.2191371617
  0
ELLIPSE
  5
606
100
AcDbEntity
  8
0
100
AcDbEllipse
 62
7
  6
CONTINUOUS
 10
112.9584019353
 20
61.6391734957
 30
0.0
 11
-0.0
 21
52.8511079322
 31
0.0
 40
0.3263886165
 41
-0.9224554919
 42
-0.9163807645
  0
ELLIPSE
  5
607
100
AcDbEntity
  8
0
100
AcDbEllipse
 62
7
  6
CONTINUOUS
 10
112.9584019353
 20
83.0860152429
 30
0.0
 11
-0.0
 21
17.617010776
 31
0.0
 40
0.9791672503
 41
-0.9163807645
 42
-0.9041453245
  0
ELLIPSE
  5
608
100
AcDbEntity
  8
0
100
AcDbEllipse
 62
7
  6
CONTINUOUS
 10
112.9584019353
 20
90.3484205843
 30
0.0
 11
17.25
 21
-0.0
 31
0.0
 40
0.3404254913
 41
0.6666510023
 42
0.6852288828
  0
ELLIPSE
  5
609
100
AcDbEntity
  8
0
100
AcDbEllipse
 62
7
  6
CONTINUOUS
 10
112.9584019353
 20
91.3583488791
 30
0.0
 11
17.25
 21
0.0
 31
0.0
 40
0.204255139
 41
-0.1259365116
 42
-0.1016241049
  0
ELLIPSE
  5
60A
100
AcDbEntity
  8
0
100
AcDbEllipse
 62
7
  6
CONTINUOUS
 10
112.9584019353
 20
92.1923916055
 30
0.0
 11
17.25
 21
-0.0
 31
0.0
 40
0.6808509827
 41
-0.1016241049
 42
-0.0870664823
  0
ELLIPSE
  5
60B
100
AcDbEntity
  8
0
100
AcDbEllipse
 62
7
  6
CONTINUOUS
 10
112.9584019353
 20
93.4689896577
 30
0.0
 11
0.0
 21
26.4255570506
 31
0.0
 40
0.6527771569
 41
-1.6578628091
 42
-1.638480863
  0
ELLIPSE
  5
60C
100
AcDbEntity
  8
0
100
AcDbEllipse
 62
7
  6
CONTINUOUS
 10
112.9584019353
 20
98.8306378213
 30
0.0
 11
-0.0
 21
105.701333298
 31
0.0
 40
0.1631956709
 41
-1.638480863
 42
-1.6336395968
  0
ELLIPSE
  5
60D
100
AcDbEntity
  8
0
100
AcDbEllipse
 62
7
  6
CONTINUOUS
 10
112.9584019353
 20
86.1498919069
 30
0.0
 11
-0.0
 21
105.7013086219
 31
0.0
 40
0.163195709
 41
-1.5079530568
 42
-1.5031117906
  0
ELLIPSE
  5
60E
100
AcDbEntity
  8
0
100
AcDbEllipse
 62
7
  6
CONTINUOUS
 10
112.9584019353
 20
86.1498919069
 30
0.0
 11
-0.0
 21
104.1694055984
 31
0.0
 40
0.163195709
 41
4.7761576617
 42
4.781070434
  0
ELLIPSE
  5
60F
100
AcDbEntity
  8
0
100
AcDbEllipse
 62
7
  6
CONTINUOUS
 10
112.9584019353
 20
98.8306378213
 30
0.0
 11
-0.0
 21
104.1694299169
 31
0.0
 40
0.1631956709
 41
-1.6394777804
 42
-1.6345650081
  0
ELLIPSE
  5
610
100
AcDbEntity
  8
0
100
AcDbEllipse
 62
7
  6
CONTINUOUS
 10
112.9584019353
 20
96.4477109544
 30
0.0
 11
17.25
 21
0.0
 31
0.0
 40
0.5106380606
 41
6.2976785682
 42
6.31700819
  0
ELLIPSE
  5
611
100
AcDbEntity
  8
0
100
AcDbEllipse
 62
7
  6
CONTINUOUS
 10
112.9584019353
 20
96.1498378451
 30
0.0
 11
0.0
 21
17.6170375197
 31
0.0
 40
0.9791657639
 41
-1.536973444
 42
-1.5176311974
  0
ELLIPSE
  5
612
100
AcDbEntity
  8
0
100
AcDbEllipse
 62
7
  6
CONTINUOUS
 10
112.9584019353
 20
95.213669446
 30
0.0
 11
0.0
 21
35.2340277212
 31
0.0
 40
0.4895835394
 41
-1.5176311974
 42
-1.5079530429
  0
ELLIPSE
  5
613
100
AcDbEntity
  8
0
100
AcDbEllipse
 62
7
  6
CONTINUOUS
 10
112.9584019353
 20
91.8945310326
 30
0.0
 11
-0.0
 21
88.0849278737
 31
0.0
 40
0.1958337302
 41
-1.5079530429
 42
-1.5031118045
  0
ELLIPSE
  5
614
100
AcDbEntity
  8
0
100
AcDbEllipse
 62
7
  6
CONTINUOUS
 10
112.9584019353
 20
91.5115377758
 30
0.0
 11
-0.0
 21
26.4255663043
 31
0.0
 40
0.6527769283
 41
4.7800735166
 42
4.7994554627
  0
ELLIPSE
  5
615
100
AcDbEntity
  8
0
100
AcDbEllipse
 62
7
  6
CONTINUOUS
 10
112.9584019353
 20
92.7881366326
 30
0.0
 11
17.25
 21
-0.0
 31
0.0
 40
0.6808509827
 41
6.3702517895
 42
6.384809412
  0
ELLIPSE
  5
616
100
AcDbEntity
  8
0
100
AcDbEllipse
 62
7
  6
CONTINUOUS
 10
112.9584019353
 20
93.6221793591
 30
0.0
 11
17.25
 21
0.0
 31
0.0
 40
0.204255139
 41
6.384809412
 42
6.4091218187
  0
ELLIPSE
  5
617
100
AcDbEntity
  8
0
100
AcDbEllipse
 62
7
  6
CONTINUOUS
 10
112.9584019353
 20
90.1214697206
 30
0.0
 11
17.0
 21
0.0
 31
0.0
 40
0.1702127606
 41
0.1277985931
 42
0.1575132851
  0
ELLIPSE
  5
618
100
AcDbEntity
  8
0
100
AcDbEllipse
 62
7
  6
CONTINUOUS
 10
112.9584019353
 20
91.625016258
 30
0.0
 11
17.0
 21
0.0
 31
0.0
 40
0.3404254913
 41
0.4190170503
 42
0.4351744717
  0
ELLIPSE
  5
619
100
AcDbEntity
  8
0
100
AcDbEllipse
 62
7
  6
CONTINUOUS
 10
112.9584019353
 20
86.9157903328
 30
0.0
 11
-0.0
 21
17.3617166154
 31
0.0
 40
0.9791658496
 41
-1.1624863287
 42
-1.1517792765
  0
ELLIPSE
  5
61A
100
AcDbEntity
  8
0
100
AcDbEllipse
 62
7
  6
CONTINUOUS
 10
112.9584019353
 20
99.7810441043
 30
0.0
 11
17.25
 21
-0.0
 31
0.0
 40
0.3404254913
 41
-0.1698983162
 42
-0.1552118202
  0
ELLIPSE
  5
61B
100
AcDbEntity
  8
0
100
AcDbEllipse
 62
7
  6
CONTINUOUS
 10
112.9584019353
 20
101.5966454802
 30
0.0
 11
0.0
 21
17.617010776
 31
0.0
 40
0.9791672503
 41
-1.726008147
 42
-1.7162360619
  0
ELLIPSE
  5
61C
100
AcDbEntity
  8
0
100
AcDbEllipse
 62
7
  6
CONTINUOUS
 10
112.9584019353
 20
106.7030363724
 30
0.0
 11
-0.0
 21
52.8511079322
 31
0.0
 40
0.3263886165
 41
-1.7162360619
 42
-1.7113553262
  0
ELLIPSE
  5
61D
100
AcDbEntity
  8
0
100
AcDbEllipse
 62
7
  6
CONTINUOUS
 10
112.9584019353
 20
92.1498322469
 30
0.0
 11
-0.0
 21
52.8511079322
 31
0.0
 40
0.3263886165
 41
-1.4302373274
 42
-1.4253565917
  0
ELLIPSE
  5
61E
100
AcDbEntity
  8
0
100
AcDbEllipse
 62
7
  6
CONTINUOUS
 10
112.9584019353
 20
97.2562231391
 30
0.0
 11
-0.0
 21
17.617010776
 31
0.0
 40
0.9791672503
 41
-1.4253565917
 42
-1.4155845066
  0
ELLIPSE
  5
61F
100
AcDbEntity
  8
0
100
AcDbEllipse
 62
7
  6
CONTINUOUS
 10
112.9584019353
 20
99.071824515
 30
0.0
 11
17.25
 21
0.0
 31
0.0
 40
0.3404254913
 41
0.1552118202
 42
0.1698983162
  0
ELLIPSE
  5
620
100
AcDbEntity
  8
0
100
AcDbEllipse
 62
7
  6
CONTINUOUS
 10
112.9584019353
 20
73.1286039536
 30
0.0
 11
-0.0
 21
52.0850008297
 31
0.0
 40
0.3263895503
 41
-1.1678212377
 42
-1.1624863287
  0
ELLIPSE
  5
621
100
AcDbEntity
  8
0
100
AcDbEllipse
 62
7
  6
CONTINUOUS
 10
112.9584019353
 20
113.7242646657
 30
0.0
 11
-0.0
 21
52.0850008297
 31
0.0
 40
0.3263895503
 41
-1.9791063249
 42
-1.9737714159
  0
ELLIPSE
  5
622
100
AcDbEntity
  8
0
100
AcDbEllipse
 62
7
  6
CONTINUOUS
 10
112.9584019353
 20
99.9370782865
 30
0.0
 11
-0.0
 21
17.3617166154
 31
0.0
 40
0.9791658496
 41
-1.9898133771
 42
-1.9791063249
  0
ELLIPSE
  5
623
100
AcDbEntity
  8
0
100
AcDbEllipse
 62
7
  6
CONTINUOUS
 10
112.9584019353
 20
95.2278523613
 30
0.0
 11
17.0
 21
0.0
 31
0.0
 40
0.3404254913
 41
-0.4351744717
 42
-0.4190170503
  0
ELLIPSE
  5
624
100
AcDbEntity
  8
0
100
AcDbEllipse
 62
7
  6
CONTINUOUS
 10
112.9584019353
 20
111.5965035665
 30
0.0
 11
-0.0
 21
88.0844238516
 31
0.0
 40
0.1958348508
 41
-1.784990827
 42
-1.7800495287
  0
ELLIPSE
  5
625
100
AcDbEntity
  8
0
100
AcDbEllipse
 62
7
  6
CONTINUOUS
 10
112.9584019353
 20
90.3484205843
 30
0.0
 11
17.0
 21
0.0
 31
0.0
 40
0.3404254913
 41
0.6782752682
 42
0.6973086094
  0
ELLIPSE
  5
626
100
AcDbEntity
  8
0
100
AcDbEllipse
 62
7
  6
CONTINUOUS
 10
112.9584019353
 20
83.0860152429
 30
0.0
 11
-0.0
 21
17.3616917793
 31
0.0
 40
0.9791672503
 41
-0.9050489816
 42
-0.8925210586
  0
ELLIPSE
  5
627
100
AcDbEntity
  8
0
100
AcDbEllipse
 62
7
  6
CONTINUOUS
 10
112.9584019353
 20
61.6391734957
 30
0.0
 11
-0.0
 21
52.0851498462
 31
0.0
 40
0.3263886165
 41
-0.9112668142
 42
-0.9050489816
  0
ELLIPSE
  5
628
100
AcDbEntity
  8
0
100
AcDbEllipse
 62
7
  6
CONTINUOUS
 10
112.9584019353
 20
125.2136951236
 30
0.0
 11
-0.0
 21
52.0851498462
 31
0.0
 40
0.3263886165
 41
-2.236543672
 42
-2.2303258394
  0
ELLIPSE
  5
629
100
AcDbEntity
  8
0
100
AcDbEllipse
 62
7
  6
CONTINUOUS
 10
112.9584019353
 20
103.7668533764
 30
0.0
 11
-0.0
 21
17.3616917793
 31
0.0
 40
0.9791672503
 41
-2.249071595
 42
-2.236543672
  0
ELLIPSE
  5
62A
100
AcDbEntity
  8
0
100
AcDbEllipse
 62
7
  6
CONTINUOUS
 10
112.9584019353
 20
96.504448035
 30
0.0
 11
17.0
 21
0.0
 31
0.0
 40
0.3404254913
 41
-0.6973086094
 42
-0.6782752682
  0
ELLIPSE
  5
62B
100
AcDbEntity
  8
0
100
AcDbEllipse
 62
7
  6
CONTINUOUS
 10
112.9584019353
 20
104.2775478854
 30
0.0
 11
-0.0
 21
52.8513084938
 31
0.0
 40
0.3263873779
 41
-1.7800495287
 42
-1.7751134666
  0
ELLIPSE
  5
62C
100
AcDbEntity
  8
0
100
AcDbEllipse
 62
7
  6
CONTINUOUS
 10
112.9584019353
 20
100.7030156706
 30
0.0
 11
0.0
 21
35.2339711495
 31
0.0
 40
0.4895843255
 41
-1.7751134666
 42
-1.7652562815
  0
ELLIPSE
  5
62D
100
AcDbEntity
  8
0
100
AcDbEllipse
 62
7
  6
CONTINUOUS
 10
112.9584019353
 20
90.0115399939
 30
0.0
 11
-0.0
 21
46.2446842637
 31
0.0
 40
0.3730158455
 41
-1.4302373274
 42
-1.3910866191
  0
ENDSEC
  0
SECTION
  2
OBJECTS
  0
DICTIONARY
  5
C
100
AcDbDictionary
280
0
281
1
  3
ACAD_GROUP
350
D
  3
ACAD_MLINESTYLE
350
17
  3
ACAD_LAYOUT
350
1A
  3
ACAD_PLOTSETTINGS
350
19
  3
ACAD_PLOTSTYLENAME
350
E
  0
DICTIONARY
  5
D
102
{ACAD_REACTORS
330
C
102
}
100
AcDbDictionary
280
0
281
1
  0
ACDBDICTIONARYWDFLT
  5
E
102
{ACAD_REACTORS
330
C
102
}
100
AcDbDictionary
281
1
  3
Normal
350
F
100
AcDbDictionaryWithDefault
340
F
  0
DICTIONARY
  5
17
102
{ACAD_REACTORS
330
C
102
}
100
AcDbDictionary
280
0
281
1
  3
Standard
350
18
  0
DICTIONARY
  5
19
102
{ACAD_REACTORS
330
C
102
}
100
AcDbDictionary
281
1
  0
DICTIONARY
  5
1A
102
{ACAD_REACTORS
330
C
102
}
100
AcDbDictionary
281
1
  3
Model
350
62E
  3
Layout1
350
62F
  0
ACDBPLACEHOLDER
  5
F
102
{ACAD_REACTORS
330
E
102
}
  0
MLINESTYLE
  5
18
102
{ACAD_REACTORS
330
17
102
}
100
AcDbMlineStyle
  2
STANDARD
 70
0
  3

 62
256
 51
90.0
 52
90.0
 71
2
 49
0.5
 62
256
  6
BYLAYER
 49
-0.5
 62
256
  6
BYLAYER
  0
LAYOUT
  5
62E
102
{ACAD_REACTORS
330
1A
102
}
100
AcDbPlotSettings
  1

  2
none_device
  4
ISO_A4_(297.00_x_210.00_MM)
  6

 40
0.0
 41
0.0
 42
0.0
 43
0.0
 44
297.0
 45
210.0
 46
0.0
 47
0.0
 48
0.0
 49
0.0
140
0.0
141
0.0
142
1.0
143
1.0
 70
1024
 72
1
 73
0
 74
0
  7

 75
0
147
1.0
148
0.0
149
0.0
100
AcDbLayout
  1
Model
 70
0
 71
0
 10
0.0
 20
0.0
 11
297.0
 21
210.0
 12
0.0
 22
0.0
 32
0.0
 14
0.0
 24
0.0
 34
0.0
 15
0.0
 25
0.0
 35
0.0
146
0.0
 13
0.0
 23
0.0
 33
0.0
 16
1.0
 26
0.0
 36
0.0
 17
0.0
 27
1.0
 37
0.0
 76
0
330
20D
345
0
346
0
  0
LAYOUT
  5
62F
102
{ACAD_REACTORS
330
1A
102
}
100
AcDbPlotSettings
  1

  2
none_device
  4
ISO_A4_(297.00_x_210.00_MM)
  6

 40
0.0
 41
0.0
 42
0.0
 43
0.0
 44
297.0
 45
210.0
 46
0.0
 47
0.0
 48
0.0
 49
0.0
140
0.0
141
0.0
142
1.0
143
1.0
 70
0
 72
1
 73
0
 74
0
  7

 75
0
147
1.0
148
0.0
149
0.0
100
AcDbLayout
  1
Layout1
 70
0
 71
1
 10
0.0
 20
0.0
 11
297.0
 21
210.0
 12
0.0
 22
0.0
 32
0.0
 14
0.0
 24
0.0
 34
0.0
 15
0.0
 25
0.0
 35
0.0
146
0.0
 13
0.0
 23
0.0
 33
0.0
 16
1.0
 26
0.0
 36
0.0
 17
0.0
 27
1.0
 37
0.0
 76
0
330
20E
345
0
346
0
  0
ENDSEC
  0
EOF
