999
DXF file: 001-m31342-p-40.dxf
999
Pro/ENGINEER 2011490 by Parametric Technology Corporation
  0
SECTION
  2
HEADER
  9
$ACADVER
  1
AC1015
  9
$DWGCODEPAGE
  3
ANSI_1252
  9
$EXTMAX
 10
841.0
 20
594.0
 30
0.0
  9
$EXTMIN
 10
0.0
 20
0.0
 30
0.0
  9
$LIMMIN
 10
0.0
 20
0.0
  9
$LIMMAX
 10
841.0
 20
594.0
  9
$VIEWCTR
 10
420.5
 20
297.0
  9
$VIEWSIZE
 40
594.0
  9
$CLAYER
  8
0
  9
$LTSCALE
 40
46.255
  9
$CELTYPE
  6
BYLAYER
  9
$DIMSCALE
 40
1.0
  9
$DIMASZ
 40
3.5
  9
$DIMEXO
 40
5.25625
  9
$DIMDLI
 40
31.958
  9
$DIMEXE
 40
15.138
  9
$DIMCEN
 40
7.569
  9
$DIMLFAC
 40
1.0
  9
$DIMBLK
  1
_FILLED
  9
$DIMTXT
 40
3.5
  9
$DIMTOL
 70
1
  9
$DIMLIM
 70
0
  9
$DIMTFAC
 40
1.0
  9
$DIMTP
 40
0.005
  9
$DIMTM
 40
0.005
  9
$PDMODE
 70
3
  9
$PDSIZE
 40
0.3125
  9
$HANDSEED
  5
5BC
  9
$TILEMODE
 70
1
  9
$MEASUREMENT
 70
1
  9
$INSUNITS
 70
4
  0
ENDSEC
  0
SECTION
  2
CLASSES
  0
CLASS
  1
ACDBDICTIONARYWDFLT
  2
AcDbDictionaryWithDefault
  3
AutoCAD 2000
 90
0
280
0
281
0
  0
CLASS
  1
ACDBPLACEHOLDER
  2
AcDbPlaceHolder
  3
AutoCAD 2000
 90
0
280
0
281
0
  0
CLASS
  1
LAYOUT
  2
AcDbLayout
  3
AutoCAD 2000
 90
0
280
0
281
0
  0
ENDSEC
  0
SECTION
  2
TABLES
  0
TABLE
  2
VPORT
  5
8
100
AcDbSymbolTable
 70
2
  0
VPORT
  5
1F4
100
AcDbSymbolTableRecord
100
AcDbViewportTableRecord
  2
*ACTIVE
 70
0
 10
0.0
 20
0.0
 11
1.0
 21
1.0
 12
420.5
 22
297.0
 13
0.0
 23
0.0
 14
1.0
 24
1.0
 15
0.0
 25
0.0
 16
0.0
 26
0.0
 36
1.0
 17
0.0
 27
0.0
 37
0.0
 40
594.0
 41
1.4158249158
 42
50.0
 43
0.0
 44
0.0
 50
0.0
 51
0.0
 71
0
 72
100
 73
1
 74
1
 75
0
 76
0
 77
0
 78
0
  0
ENDTAB
  0
TABLE
  2
LTYPE
  5
5
100
AcDbSymbolTable
 70
6
  0
LTYPE
  5
14
100
AcDbSymbolTableRecord
100
AcDbLinetypeTableRecord
  2
BYBLOCK
 70
0
  3

 72
65
 73
0
 40
0.0
  0
LTYPE
  5
15
100
AcDbSymbolTableRecord
100
AcDbLinetypeTableRecord
  2
BYLAYER
 70
0
  3

 72
65
 73
0
 40
0.0
  0
LTYPE
  5
16
100
AcDbSymbolTableRecord
100
AcDbLinetypeTableRecord
  2
CONTINUOUS
 70
64
  3
Solid line
 72
65
 73
0
 40
0.0
  0
LTYPE
  5
1F5
100
AcDbSymbolTableRecord
100
AcDbLinetypeTableRecord
  2
CENTER
 70
64
  3
____ _ ____ _ ____ _ ____ _ ____ _ ____ _ ____
 72
65
 73
4
 40
0.6
 49
0.375
 74
0
 49
-0.075
 74
0
 49
0.075
 74
0
 49
-0.075
 74
0
  0
LTYPE
  5
1F6
100
AcDbSymbolTableRecord
100
AcDbLinetypeTableRecord
  2
HIDDEN
 70
64
  3
- - - - - - - - - - - - - - - - - - - -
 72
65
 73
2
 40
0.2
 49
0.1
 74
0
 49
-0.1
 74
0
  0
LTYPE
  5
1F7
100
AcDbSymbolTableRecord
100
AcDbLinetypeTableRecord
  2
PHANTOM
 70
64
  3
_____ _ _ _____ _ _ _____ _ _ _____
 72
65
 73
6
 40
0.8
 49
0.45
 74
0
 49
-0.05
 74
0
 49
0.1
 74
0
 49
-0.05
 74
0
 49
0.1
 74
0
 49
-0.05
 74
0
  0
LTYPE
  5
1F8
100
AcDbSymbolTableRecord
100
AcDbLinetypeTableRecord
  2
DOT
 70
64
  3
. . . . . . . . . . . . . . . . . . . .
 72
65
 73
2
 40
0.2
 49
0.1
 74
0
 49
-0.1
 74
0
  0
LTYPE
  5
1F9
100
AcDbSymbolTableRecord
100
AcDbLinetypeTableRecord
  2
DASHED
 70
64
  3
- - - - - - - - - - - - - - - - - - - -
 72
65
 73
2
 40
0.2
 49
0.1
 74
0
 49
-0.1
 74
0
  0
ENDTAB
  0
TABLE
  2
LAYER
  5
2
100
AcDbSymbolTable
 70
36
  0
LAYER
  5
10
100
AcDbSymbolTableRecord
100
AcDbLayerTableRecord
  2
0
 70
0
 62
7
  6
CONTINUOUS
370
-3
390
F
  0
LAYER
  5
1FA
100
AcDbSymbolTableRecord
100
AcDbLayerTableRecord
  2
DEFAULT_1
 70
0
 62
7
  6
CENTER
370
-3
390
F
  0
LAYER
  5
1FB
100
AcDbSymbolTableRecord
100
AcDbLayerTableRecord
  2
DEFAULT_2
 70
0
 62
8
  6
HIDDEN
370
-3
390
F
  0
LAYER
  5
1FC
100
AcDbSymbolTableRecord
100
AcDbLayerTableRecord
  2
DEFAULT_3
 70
0
 62
7
  6
PHANTOM
370
-3
390
F
  0
LAYER
  5
1FD
100
AcDbSymbolTableRecord
100
AcDbLayerTableRecord
  2
AUSFORMSCHRAEGEN
 70
0
 62
7
  6
CONTINUOUS
370
-3
390
F
  0
LAYER
  5
1FE
100
AcDbSymbolTableRecord
100
AcDbLayerTableRecord
  2
BEZUGSACHSEN
 70
0
 62
7
  6
CONTINUOUS
370
-3
390
F
  0
LAYER
  5
1FF
100
AcDbSymbolTableRecord
100
AcDbLayerTableRecord
  2
BEZUGSEBENEN
 70
0
 62
7
  6
CONTINUOUS
370
-3
390
F
  0
LAYER
  5
200
100
AcDbSymbolTableRecord
100
AcDbLayerTableRecord
  2
BG_STARTBEZUEGE
 70
0
 62
7
  6
CONTINUOUS
370
-3
390
F
  0
LAYER
  5
201
100
AcDbSymbolTableRecord
100
AcDbLayerTableRecord
  2
FASEN
 70
0
 62
7
  6
CONTINUOUS
370
-3
390
F
  0
LAYER
  5
202
100
AcDbSymbolTableRecord
100
AcDbLayerTableRecord
  2
HILFEN
 70
0
 62
7
  6
CONTINUOUS
370
-3
390
F
  0
LAYER
  5
203
100
AcDbSymbolTableRecord
100
AcDbLayerTableRecord
  2
KONSTRUKTIONSELEMENTE
 70
0
 62
7
  6
CONTINUOUS
370
-3
390
F
  0
LAYER
  5
204
100
AcDbSymbolTableRecord
100
AcDbLayerTableRecord
  2
NORM
 70
0
 62
7
  6
CONTINUOUS
370
-3
390
F
  0
LAYER
  5
205
100
AcDbSymbolTableRecord
100
AcDbLayerTableRecord
  2
PLATZIERUNG
 70
0
 62
7
  6
CONTINUOUS
370
-3
390
F
  0
LAYER
  5
206
100
AcDbSymbolTableRecord
100
AcDbLayerTableRecord
  2
PLAZIERUNG
 70
0
 62
7
  6
CONTINUOUS
370
-3
390
F
  0
LAYER
  5
207
100
AcDbSymbolTableRecord
100
AcDbLayerTableRecord
  2
RUNDUNGEN
 70
0
 62
7
  6
CONTINUOUS
370
-3
390
F
  0
LAYER
  5
208
100
AcDbSymbolTableRecord
100
AcDbLayerTableRecord
  2
TEIL_STARTBEZUEGE
 70
0
 62
7
  6
CONTINUOUS
370
-3
390
F
  0
LAYER
  5
209
100
AcDbSymbolTableRecord
100
AcDbLayerTableRecord
  2
T_STARTBEZUEGE
 70
0
 62
7
  6
CONTINUOUS
370
-3
390
F
  0
LAYER
  5
20A
100
AcDbSymbolTableRecord
100
AcDbLayerTableRecord
  2
ZEICHNUNGSBEMASSUNGEN
 70
0
 62
7
  6
CONTINUOUS
370
-3
390
F
  0
ENDTAB
  0
TABLE
  2
STYLE
  5
3
100
AcDbSymbolTable
 70
1
  0
STYLE
  5
11
100
AcDbSymbolTableRecord
100
AcDbTextStyleTableRecord
  2
STANDARD
 70
0
 40
0.0
 41
0.7
 50
0.0
 71
0
 42
0.2
  3
txt
  4

  0
STYLE
  5
20B
100
AcDbSymbolTableRecord
100
AcDbTextStyleTableRecord
  2
TEXTSTYLE_1
 70
0
 40
0.0
 41
0.8
 50
0.0
 71
0
 42
0.2
  3
gdt
  4

  0
ENDTAB
  0
TABLE
  2
VIEW
  5
6
100
AcDbSymbolTable
 70
0
  0
ENDTAB
  0
TABLE
  2
UCS
  5
7
100
AcDbSymbolTable
 70
0
  0
ENDTAB
  0
TABLE
  2
APPID
  5
9
100
AcDbSymbolTable
 70
1
  0
APPID
  5
20C
100
AcDbSymbolTableRecord
100
AcDbRegAppTableRecord
  2
ACAD
 70
0
  0
ENDTAB
  0
TABLE
  2
BLOCK_RECORD
  5
1
100
AcDbSymbolTable
 70
0
  0
BLOCK_RECORD
  5
20D
100
AcDbSymbolTableRecord
100
AcDbBlockTableRecord
  2
*Model_Space
  0
BLOCK_RECORD
  5
20E
100
AcDbSymbolTableRecord
100
AcDbBlockTableRecord
  2
*Paper_Space
  0
ENDTAB
  0
TABLE
  2
DIMSTYLE
  5
A
100
AcDbSymbolTable
 70
1
100
AcDbDimStyleTable
 71
0
  0
DIMSTYLE
105
20F
100
AcDbSymbolTableRecord
100
AcDbDimStyleTableRecord
  2
STANDARD
 70
0
  3

  4

 40
1.0
 41
3.5
 42
0.0625
 43
0.38
 44
0.18
 45
0.0
 46
0.0
 47
0.005
 48
0.005
140
3.5
141
0.09
142
0.0
143
25.4
144
1.0
145
0.0
146
1.0
147
0.09
 71
1.0
 72
0.0
 73
0
 74
0
 75
0
 76
0
 77
1
 78
8
170
0
171
2
172
0
173
0
174
0
175
0
176
0
177
0
178
5
270
2
271
3
272
3
273
2
274
2
275
0
280
0
281
0
282
0
283
1
284
8
285
0
286
0
287
3
288
0
340
11
  0
ENDTAB
  0
ENDSEC
  0
SECTION
  2
BLOCKS
  0
BLOCK
  5
20
100
AcDbEntity
  8
0
100
AcDbBlockBegin
  2
*Model_Space
 70
0
 10
0.0
 20
0.0
 30
0.0
  3
*Model_Space
  1

  0
ENDBLK
  5
21
100
AcDbEntity
  8
0
100
AcDbBlockEnd
  0
BLOCK
  5
1C
100
AcDbEntity
  8
0
100
AcDbBlockBegin
  2
*Paper_Space
 70
0
 10
0.0
 20
0.0
 30
0.0
  3
*Paper_Space
  1

  0
ENDBLK
  5
1D
100
AcDbEntity
  8
0
100
AcDbBlockEnd
  0
ENDSEC
  0
SECTION
  2
ENTITIES
  0
MTEXT
  5
210
100
AcDbEntity
  8
0
100
AcDbMText
 62
5
  6
CONTINUOUS
  7
STANDARD
 71
2
 72
1
 10
318.8908357315
 20
101.0530928448
 30
0.0
 11
0.0
 21
1.0
 31
0.0
 44
0.9
  1
RUD WPP-B\P8t
 40
10.0
 41
78.8095238095
  0
MTEXT
  5
211
100
AcDbEntity
  8
0
100
AcDbMText
 62
5
  6
CONTINUOUS
  7
STANDARD
 71
2
 72
1
 10
538.3616963456
 20
307.3707075841
 30
0.0
 11
1.0
 21
0.0
 31
0.0
 44
0.9
  1
RUD\PWPP-B 8t
 40
10.0
 41
65.7142857143
  0
LINE
  5
212
100
AcDbEntity
  8
0
100
AcDbLine
 62
7
  6
CONTINUOUS
 10
0.0
 20
0.0
 11
0.0
 21
594.0
  0
LINE
  5
213
100
AcDbEntity
  8
0
100
AcDbLine
 62
7
  6
CONTINUOUS
 10
0.0
 20
0.0
 11
841.0
 21
0.0
  0
LINE
  5
214
100
AcDbEntity
  8
0
100
AcDbLine
 62
7
  6
CONTINUOUS
 10
0.0
 20
594.0
 11
841.0
 21
594.0
  0
LINE
  5
215
100
AcDbEntity
  8
0
100
AcDbLine
 62
7
  6
CONTINUOUS
 10
841.0
 20
0.0
 11
841.0
 21
594.0
  0
LINE
  5
216
100
AcDbEntity
  8
FASEN
100
AcDbLine
 62
7
  6
CONTINUOUS
 10
377.8520873735
 20
257.0196892064
 11
283.8524907843
 21
257.0196892064
  0
LINE
  5
217
100
AcDbEntity
  8
FASEN
100
AcDbLine
 62
7
  6
CONTINUOUS
 10
380.8522890789
 20
260.0196892064
 11
280.8522890789
 21
260.0196892064
  0
LINE
  5
218
100
AcDbEntity
  8
FASEN
100
AcDbLine
 62
7
  6
CONTINUOUS
 10
283.8522890789
 20
257.0196892064
 11
280.8522890789
 21
260.0196892064
  0
LINE
  5
219
100
AcDbEntity
  8
BEZUGSACHSEN
100
AcDbLine
 62
7
  6
CONTINUOUS
 10
304.816311243
 20
506.2989931949
 11
304.0624444459
 21
505.9051643671
  0
LINE
  5
21A
100
AcDbEntity
  8
BEZUGSACHSEN
100
AcDbLine
 62
7
  6
CONTINUOUS
 10
318.5348249787
 20
513.4554447557
 11
317.5996439739
 21
513.1012746155
  0
LINE
  5
21B
100
AcDbEntity
  8
BEZUGSACHSEN
100
AcDbLine
 62
7
  6
CONTINUOUS
 10
313.2354647623
 20
511.4484801774
 11
312.3002837575
 21
511.0943100372
  0
LINE
  5
21C
100
AcDbEntity
  8
BEZUGSACHSEN
100
AcDbLine
 62
7
  6
CONTINUOUS
 10
304.7287953072
 20
505.3501293384
 11
305.2240803006
 21
505.5336100025
  0
LINE
  5
21D
100
AcDbEntity
  8
BEZUGSACHSEN
100
AcDbLine
 62
7
  6
CONTINUOUS
 10
328.6906720218
 20
510.6251883505
 11
329.5080598204
 21
510.8603306279
  0
LINE
  5
21E
100
AcDbEntity
  8
FASEN
100
AcDbLine
 62
7
  6
CONTINUOUS
 10
280.8522890789
 20
275.5196892064
 11
380.8522890789
 21
275.5196892064
  0
LINE
  5
21F
100
AcDbEntity
  8
BEZUGSACHSEN
100
AcDbLine
 62
7
  6
CONTINUOUS
 10
298.1155600652
 20
500.0815291994
 11
297.4607822989
 21
499.5386819235
  0
LINE
  5
220
100
AcDbEntity
  8
BEZUGSACHSEN
100
AcDbLine
 62
7
  6
CONTINUOUS
 10
304.0624444459
 20
505.9051643671
 11
300.9594598421
 21
503.3809839955
  0
LINE
  5
221
100
AcDbEntity
  8
BEZUGSACHSEN
100
AcDbLine
 62
7
  6
CONTINUOUS
 10
302.2722655825
 20
503.351819677
 11
304.7287953072
 21
505.3501293384
  0
LINE
  5
222
100
AcDbEntity
  8
BEZUGSACHSEN
100
AcDbLine
 62
7
  6
CONTINUOUS
 10
298.2285162007
 20
499.1353559381
 11
298.674447673
 21
499.4184062883
  0
LINE
  5
223
100
AcDbEntity
  8
BEZUGSACHSEN
100
AcDbLine
 62
7
  6
CONTINUOUS
 10
312.1451829601
 20
506.1217462334
 11
310.1188296577
 21
504.9648799035
  0
LINE
  5
224
100
AcDbEntity
  8
BEZUGSACHSEN
100
AcDbLine
 62
7
  6
CONTINUOUS
 10
310.5407869346
 20
504.2257845565
 11
312.567140237
 21
505.3826508864
  0
LINE
  5
225
100
AcDbEntity
  8
BEZUGSACHSEN
100
AcDbLine
 62
7
  6
CONTINUOUS
 10
329.2616928038
 20
511.8653609059
 11
328.7766072182
 21
511.6564007341
  0
LINE
  5
226
100
AcDbEntity
  8
BEZUGSACHSEN
100
AcDbLine
 62
7
  6
CONTINUOUS
 10
317.6274620812
 20
504.5573161563
 11
318.8743688985
 21
505.0295425595
  0
LINE
  5
227
100
AcDbEntity
  8
BEZUGSACHSEN
100
AcDbLine
 62
7
  6
CONTINUOUS
 10
345.5922890789
 20
510.5072943254
 11
344.8522890789
 21
510.2309140419
  0
LINE
  5
228
100
AcDbEntity
  8
BEZUGSACHSEN
100
AcDbLine
 62
7
  6
CONTINUOUS
 10
339.0888493478
 20
507.3666064934
 11
340.3333111391
 21
507.8252169524
  0
LINE
  5
229
100
AcDbEntity
  8
BEZUGSACHSEN
100
AcDbLine
 62
7
  6
CONTINUOUS
 10
345.1878272876
 20
509.6035512753
 11
346.4322890789
 21
510.0621617344
  0
LINE
  5
22A
100
AcDbEntity
  8
BEZUGSACHSEN
100
AcDbLine
 62
7
  6
CONTINUOUS
 10
340.1912788136
 20
508.4411166549
 11
338.0722890789
 21
507.7275898776
  0
LINE
  5
22B
100
AcDbEntity
  8
FASEN
100
AcDbLine
 62
7
  6
CONTINUOUS
 10
281.3522890789
 20
276.0196892064
 11
380.3522890789
 21
276.0196892064
  0
LINE
  5
22C
100
AcDbEntity
  8
0
100
AcDbLine
 62
7
  6
CONTINUOUS
 10
368.9574068454
 20
281.5196892064
 11
370.3491243952
 21
281.5196892064
  0
LINE
  5
22D
100
AcDbEntity
  8
0
100
AcDbLine
 62
7
  6
CONTINUOUS
 10
373.5188743653
 20
281.5196892064
 11
374.3802973035
 21
281.5196892064
  0
LINE
  5
22E
100
AcDbEntity
  8
0
100
AcDbLine
 62
7
  6
CONTINUOUS
 10
374.8522890789
 20
283.3069232147
 11
374.875010485
 21
283.3069232147
  0
LINE
  5
22F
100
AcDbEntity
  8
0
100
AcDbLine
 62
7
  6
CONTINUOUS
 10
374.8522890789
 20
284.583518986
 11
374.9459395452
 21
284.583518986
  0
LINE
  5
230
100
AcDbEntity
  8
0
100
AcDbLine
 62
7
  6
CONTINUOUS
 10
374.8522890789
 20
285.3494763415
 11
374.9459395452
 21
285.3494763415
  0
LINE
  5
231
100
AcDbEntity
  8
BEZUGSACHSEN
100
AcDbLine
 62
7
  6
CONTINUOUS
 10
306.3399743766
 20
503.369500734
 11
303.8834446519
 21
501.3711910726
  0
LINE
  5
232
100
AcDbEntity
  8
BEZUGSACHSEN
100
AcDbLine
 62
7
  6
CONTINUOUS
 10
304.5279161593
 20
500.5789397788
 11
306.8551546122
 21
502.4720750575
  0
LINE
  5
233
100
AcDbEntity
  8
BEZUGSACHSEN
100
AcDbLine
 62
7
  6
CONTINUOUS
 10
306.0078205852
 20
497.1750147878
 11
306.7835667361
 21
497.8060598807
  0
LINE
  5
234
100
AcDbEntity
  8
BEZUGSACHSEN
100
AcDbLine
 62
7
  6
CONTINUOUS
 10
352.6310986158
 20
509.2675349086
 11
351.1694863514
 21
508.7352416162
  0
LINE
  5
235
100
AcDbEntity
  8
BEZUGSACHSEN
100
AcDbLine
 62
7
  6
CONTINUOUS
 10
350.488984788
 20
507.555770903
 11
351.9505972907
 21
508.0880646085
  0
LINE
  5
236
100
AcDbEntity
  8
BEZUGSACHSEN
100
AcDbLine
 62
7
  6
CONTINUOUS
 10
355.4232592769
 20
505.2710953367
 11
356.0022466597
 21
505.4624987929
  0
LINE
  5
237
100
AcDbEntity
  8
BEZUGSACHSEN
100
AcDbLine
 62
7
  6
CONTINUOUS
 10
355.7671262748
 20
499.5541089791
 11
355.1881388176
 21
499.3627054298
  0
LINE
  5
238
100
AcDbEntity
  8
0
100
AcDbLine
 62
7
  6
CONTINUOUS
 10
374.8494480781
 20
285.8601145785
 11
375.3494800015
 21
285.8601145785
  0
LINE
  5
239
100
AcDbEntity
  8
0
100
AcDbLine
 62
7
  6
CONTINUOUS
 10
375.0980515879
 20
286.8813914102
 11
374.3802973035
 21
286.8813914102
  0
LINE
  5
23A
100
AcDbEntity
  8
0
100
AcDbLine
 62
7
  6
CONTINUOUS
 10
372.3763784729
 20
286.8813914102
 11
370.3491243952
 21
286.8813914102
  0
LINE
  5
23B
100
AcDbEntity
  8
0
100
AcDbLine
 62
7
  6
CONTINUOUS
 10
375.2144350669
 20
287.1367105287
 11
375.3494800015
 21
287.1367105287
  0
LINE
  5
23C
100
AcDbEntity
  8
0
100
AcDbLine
 62
7
  6
CONTINUOUS
 10
375.1241763697
 20
288.4133061212
 11
374.3802973035
 21
288.4133061212
  0
LINE
  5
23D
100
AcDbEntity
  8
0
100
AcDbLine
 62
7
  6
CONTINUOUS
 10
372.4718456898
 20
288.4133061212
 11
370.3491243952
 21
288.4133061212
  0
LINE
  5
23E
100
AcDbEntity
  8
0
100
AcDbLine
 62
7
  6
CONTINUOUS
 10
372.2165247524
 20
288.6686252397
 11
372.7479928306
 21
288.6686252397
  0
LINE
  5
23F
100
AcDbEntity
  8
0
100
AcDbLine
 62
7
  6
CONTINUOUS
 10
374.6921967382
 20
288.6686252397
 11
375.1940019865
 21
288.6686252397
  0
LINE
  5
240
100
AcDbEntity
  8
0
100
AcDbLine
 62
7
  6
CONTINUOUS
 10
372.3944363513
 20
289.1792634767
 11
372.9236570148
 21
289.1792634767
  0
LINE
  5
241
100
AcDbEntity
  8
0
100
AcDbLine
 62
7
  6
CONTINUOUS
 10
374.7320965078
 20
289.1792634767
 11
375.233450623
 21
289.1792634767
  0
LINE
  5
242
100
AcDbEntity
  8
0
100
AcDbLine
 62
7
  6
CONTINUOUS
 10
372.4808549106
 20
289.9452208322
 11
373.0089907194
 21
289.9452208322
  0
LINE
  5
243
100
AcDbEntity
  8
0
100
AcDbLine
 62
7
  6
CONTINUOUS
 10
374.7498972468
 20
289.9452208322
 11
375.2510503551
 21
289.9452208322
  0
LINE
  5
244
100
AcDbEntity
  8
0
100
AcDbLine
 62
7
  6
CONTINUOUS
 10
372.4808549106
 20
290.7111789029
 11
373.0089907194
 21
290.7111789029
  0
LINE
  5
245
100
AcDbEntity
  8
0
100
AcDbLine
 62
7
  6
CONTINUOUS
 10
374.7498972468
 20
290.7111789029
 11
375.2510503551
 21
290.7111789029
  0
LINE
  5
246
100
AcDbEntity
  8
0
100
AcDbLine
 62
7
  6
CONTINUOUS
 10
372.3944363513
 20
291.4771362584
 11
372.9236570148
 21
291.4771362584
  0
LINE
  5
247
100
AcDbEntity
  8
0
100
AcDbLine
 62
7
  6
CONTINUOUS
 10
374.7320965078
 20
291.4771362584
 11
375.233450623
 21
291.4771362584
  0
LINE
  5
248
100
AcDbEntity
  8
0
100
AcDbLine
 62
7
  6
CONTINUOUS
 10
372.2165247524
 20
291.9877744954
 11
372.7479928306
 21
291.9877744954
  0
LINE
  5
249
100
AcDbEntity
  8
0
100
AcDbLine
 62
7
  6
CONTINUOUS
 10
374.6921967382
 20
291.9877744954
 11
375.1940019865
 21
291.9877744954
  0
LINE
  5
24A
100
AcDbEntity
  8
0
100
AcDbLine
 62
7
  6
CONTINUOUS
 10
375.1241763697
 20
292.2430936139
 11
374.3802973035
 21
292.2430936139
  0
LINE
  5
24B
100
AcDbEntity
  8
0
100
AcDbLine
 62
7
  6
CONTINUOUS
 10
372.4718456898
 20
292.2430936139
 11
370.3491243952
 21
292.2430936139
  0
LINE
  5
24C
100
AcDbEntity
  8
0
100
AcDbLine
 62
7
  6
CONTINUOUS
 10
368.9574068454
 20
293.5196892064
 11
372.3763784729
 21
293.5196892064
  0
LINE
  5
24D
100
AcDbEntity
  8
0
100
AcDbLine
 62
7
  6
CONTINUOUS
 10
373.5188743653
 20
293.5196892064
 11
375.0980515879
 21
293.5196892064
  0
LINE
  5
24E
100
AcDbEntity
  8
BEZUGSACHSEN
100
AcDbLine
 62
7
  6
CONTINUOUS
 10
297.4607822989
 20
499.5386819235
 11
294.9546279666
 21
496.4211203022
  0
LINE
  5
24F
100
AcDbEntity
  8
BEZUGSACHSEN
100
AcDbLine
 62
7
  6
CONTINUOUS
 10
296.2444774539
 20
496.6672864451
 11
298.2285162007
 21
499.1353559381
  0
LINE
  5
250
100
AcDbEntity
  8
BEZUGSACHSEN
100
AcDbLine
 62
7
  6
CONTINUOUS
 10
300.2184492849
 20
497.535682852
 11
298.2344105381
 21
495.067613359
  0
LINE
  5
251
100
AcDbEntity
  8
BEZUGSACHSEN
100
AcDbLine
 62
7
  6
CONTINUOUS
 10
299.0303836231
 20
494.427744244
 11
300.9099993723
 21
496.76591546
  0
LINE
  5
252
100
AcDbEntity
  8
BEZUGSACHSEN
100
AcDbLine
 62
7
  6
CONTINUOUS
 10
301.1897512092
 20
491.4088116376
 11
301.8162897923
 21
492.188202043
  0
LINE
  5
253
100
AcDbEntity
  8
BEZUGSACHSEN
100
AcDbLine
 62
7
  6
CONTINUOUS
 10
306.8551546122
 20
502.4720750575
 11
307.3941975735
 21
503.1299876499
  0
LINE
  5
254
100
AcDbEntity
  8
BEZUGSACHSEN
100
AcDbLine
 62
7
  6
CONTINUOUS
 10
329.5080598204
 20
510.8603306279
 11
330.1325591435
 21
511.4217557293
  0
LINE
  5
255
100
AcDbEntity
  8
BEZUGSACHSEN
100
AcDbLine
 62
7
  6
CONTINUOUS
 10
355.2204156646
 20
506.0859892058
 11
354.4291759543
 21
505.6284301762
  0
LINE
  5
256
100
AcDbEntity
  8
0
100
AcDbLine
 62
7
  6
CONTINUOUS
 10
371.8400921428
 20
295.5196892064
 11
372.9236570148
 21
295.5196892064
  0
LINE
  5
257
100
AcDbEntity
  8
0
100
AcDbLine
 62
7
  6
CONTINUOUS
 10
374.0719315585
 20
295.5196892064
 11
375.3494799961
 21
295.5196892064
  0
LINE
  5
258
100
AcDbEntity
  8
0
100
AcDbLine
 62
7
  6
CONTINUOUS
 10
374.8601371764
 20
295.7750083473
 11
375.3178656523
 21
295.7750083473
  0
LINE
  5
259
100
AcDbEntity
  8
0
100
AcDbLine
 62
7
  6
CONTINUOUS
 10
374.8303904875
 20
296.2856466513
 11
375.2672358579
 21
296.2856466513
  0
LINE
  5
25A
100
AcDbEntity
  8
0
100
AcDbLine
 62
7
  6
CONTINUOUS
 10
375.3522890789
 20
297.0516040962
 11
375.3494799961
 21
297.0516040962
  0
LINE
  5
25B
100
AcDbEntity
  8
0
100
AcDbLine
 62
7
  6
CONTINUOUS
 10
374.7682004833
 20
297.3069232147
 11
375.1940019865
 21
297.3069232147
  0
LINE
  5
25C
100
AcDbEntity
  8
0
100
AcDbLine
 62
7
  6
CONTINUOUS
 10
374.7024364112
 20
298.3281998675
 11
375.148874749
 21
298.3281998675
  0
LINE
  5
25D
100
AcDbEntity
  8
0
100
AcDbLine
 62
7
  6
CONTINUOUS
 10
374.6215705198
 20
299.60479546
 11
375.124176297
 21
299.60479546
  0
LINE
  5
25E
100
AcDbEntity
  8
0
100
AcDbLine
 62
7
  6
CONTINUOUS
 10
374.1557242493
 20
300.8813914102
 11
372.9236570148
 21
300.8813914102
  0
LINE
  5
25F
100
AcDbEntity
  8
0
100
AcDbLine
 62
7
  6
CONTINUOUS
 10
374.2710349769
 20
302.4133061212
 11
372.9236570148
 21
302.4133061212
  0
LINE
  5
260
100
AcDbEntity
  8
0
100
AcDbLine
 62
7
  6
CONTINUOUS
 10
373.9219999638
 20
302.6686252397
 11
374.4326745259
 21
302.6686252397
  0
LINE
  5
261
100
AcDbEntity
  8
0
100
AcDbLine
 62
7
  6
CONTINUOUS
 10
374.0234600151
 20
303.1792634767
 11
374.5329484146
 21
303.1792634767
  0
LINE
  5
262
100
AcDbEntity
  8
0
100
AcDbLine
 62
7
  6
CONTINUOUS
 10
374.0719315585
 20
303.9452208322
 11
374.5808552121
 21
303.9452208322
  0
LINE
  5
263
100
AcDbEntity
  8
BEZUGSACHSEN
100
AcDbLine
 62
7
  6
CONTINUOUS
 10
306.6204355342
 20
503.8170651628
 11
306.3399743766
 21
503.369500734
  0
LINE
  5
264
100
AcDbEntity
  8
BEZUGSACHSEN
100
AcDbLine
 62
7
  6
CONTINUOUS
 10
329.5672557463
 20
512.2309167385
 11
329.2616928038
 21
511.8653609059
  0
LINE
  5
265
100
AcDbEntity
  8
BEZUGSACHSEN
100
AcDbLine
 62
7
  6
CONTINUOUS
 10
354.9745747744
 20
504.9757780246
 11
355.4232592769
 21
505.2710953367
  0
LINE
  5
266
100
AcDbEntity
  8
BEZUGSACHSEN
100
AcDbLine
 62
7
  6
CONTINUOUS
 10
353.2765583845
 20
502.8465362328
 11
353.7252427384
 21
503.1418533586
  0
LINE
  5
267
100
AcDbEntity
  8
BEZUGSACHSEN
100
AcDbLine
 62
7
  6
CONTINUOUS
 10
356.21581048
 20
499.8494259185
 11
355.7671262748
 21
499.5541089791
  0
LINE
  5
268
100
AcDbEntity
  8
BEZUGSACHSEN
100
AcDbLine
 62
7
  6
CONTINUOUS
 10
355.9699698128
 20
498.7392150169
 11
356.7612093001
 21
499.1967737669
  0
LINE
  5
269
100
AcDbEntity
  8
0
100
AcDbLine
 62
7
  6
CONTINUOUS
 10
374.0719315585
 20
304.7111789029
 11
374.5808552121
 21
304.7111789029
  0
LINE
  5
26A
100
AcDbEntity
  8
0
100
AcDbLine
 62
7
  6
CONTINUOUS
 10
374.0234600151
 20
305.4771362584
 11
374.5329484146
 21
305.4771362584
  0
LINE
  5
26B
100
AcDbEntity
  8
0
100
AcDbLine
 62
7
  6
CONTINUOUS
 10
373.9219999638
 20
305.9877744954
 11
374.4326745259
 21
305.9877744954
  0
LINE
  5
26C
100
AcDbEntity
  8
0
100
AcDbLine
 62
7
  6
CONTINUOUS
 10
374.2710349769
 20
306.2430936139
 11
372.9236570148
 21
306.2430936139
  0
LINE
  5
26D
100
AcDbEntity
  8
0
100
AcDbLine
 62
7
  6
CONTINUOUS
 10
371.8400921428
 20
307.5196892064
 11
374.2141386705
 21
307.5196892064
  0
LINE
  5
26E
100
AcDbEntity
  8
0
100
AcDbLine
 62
7
  6
CONTINUOUS
 10
374.6215705198
 20
307.5196892064
 11
375.2510503551
 21
307.5196892064
  0
LINE
  5
26F
100
AcDbEntity
  8
BEZUGSACHSEN
100
AcDbLine
 62
7
  6
CONTINUOUS
 10
300.9099993723
 20
496.76591546
 11
301.2994527769
 21
497.5220524408
  0
LINE
  5
270
100
AcDbEntity
  8
0
100
AcDbLine
 62
7
  6
CONTINUOUS
 10
289.8801068659
 20
447.2108844607
 11
289.3801066275
 21
446.7002462237
  0
LINE
  5
271
100
AcDbEntity
  8
BEZUGSACHSEN
100
AcDbLine
 62
7
  6
CONTINUOUS
 10
354.4291759543
 20
505.6284301762
 11
353.5559876888
 21
504.8008028354
  0
LINE
  5
272
100
AcDbEntity
  8
BEZUGSACHSEN
100
AcDbLine
 62
7
  6
CONTINUOUS
 10
354.2075155064
 20
504.2812259057
 11
354.9745747744
 21
504.9757780246
  0
LINE
  5
273
100
AcDbEntity
  8
BEZUGSACHSEN
100
AcDbLine
 62
7
  6
CONTINUOUS
 10
365.4537289567
 20
498.1929660015
 11
358.7888622831
 21
493.7680872209
  0
LINE
  5
274
100
AcDbEntity
  8
BEZUGSACHSEN
100
AcDbLine
 62
7
  6
CONTINUOUS
 10
360.192806172
 20
493.4998570275
 11
362.319891325
 21
494.9120524125
  0
LINE
  5
275
100
AcDbEntity
  8
BEZUGSACHSEN
100
AcDbLine
 62
7
  6
CONTINUOUS
 10
363.170725267
 20
495.4769304873
 11
365.1560048623
 21
496.7949795924
  0
LINE
  5
276
100
AcDbEntity
  8
0
100
AcDbLine
 62
7
  6
CONTINUOUS
 10
289.6301071043
 20
445.4236506312
 11
290.6301068659
 21
445.9342888682
  0
LINE
  5
277
100
AcDbEntity
  8
0
100
AcDbLine
 62
7
  6
CONTINUOUS
 10
289.3801066275
 20
446.7002462237
 11
288.6301066275
 21
446.4449271052
  0
LINE
  5
278
100
AcDbEntity
  8
RUNDUNGEN
100
AcDbLine
 62
7
  6
CONTINUOUS
 10
370.8522890789
 20
318.0196892064
 11
359.3522688172
 21
318.0196892064
  0
LINE
  5
279
100
AcDbEntity
  8
RUNDUNGEN
100
AcDbLine
 62
7
  6
CONTINUOUS
 10
302.3523204565
 20
318.0196892064
 11
290.8522890789
 21
318.0196892064
  0
LINE
  5
27A
100
AcDbEntity
  8
0
100
AcDbLine
 62
7
  6
CONTINUOUS
 10
290.1301066275
 20
447.9768418162
 11
289.8801068659
 21
447.2108844607
  0
LINE
  5
27B
100
AcDbEntity
  8
BEZUGSACHSEN
100
AcDbLine
 62
7
  6
CONTINUOUS
 10
300.3990563956
 20
498.0320229071
 11
300.2184492849
 21
497.535682852
  0
LINE
  5
27C
100
AcDbEntity
  8
BEZUGSACHSEN
100
AcDbLine
 62
7
  6
CONTINUOUS
 10
330.1325591435
 20
511.4217557293
 11
330.5775358234
 21
512.1397764915
  0
LINE
  5
27D
100
AcDbEntity
  8
0
100
AcDbLine
 62
7
  6
CONTINUOUS
 10
290.6301068659
 20
445.9342888682
 11
291.3801068659
 21
446.9555653422
  0
LINE
  5
27E
100
AcDbEntity
  8
BEZUGSACHSEN
100
AcDbLine
 62
7
  6
CONTINUOUS
 10
359.0292077618
 20
498.978911439
 11
358.401405846
 21
498.4043031985
  0
LINE
  5
27F
100
AcDbEntity
  8
BEZUGSACHSEN
100
AcDbLine
 62
7
  6
CONTINUOUS
 10
359.9767889931
 20
496.6830808276
 11
360.604590909
 21
497.2576890681
  0
LINE
  5
280
100
AcDbEntity
  8
BEZUGSACHSEN
100
AcDbLine
 62
7
  6
CONTINUOUS
 10
366.6097934813
 20
492.7588186467
 11
366.3261821673
 21
492.570525955
  0
LINE
  5
281
100
AcDbEntity
  8
BEZUGSACHSEN
100
AcDbLine
 62
7
  6
CONTINUOUS
 10
363.7736801426
 20
490.8758915986
 11
363.3482631716
 21
490.5934525611
  0
LINE
  5
282
100
AcDbEntity
  8
BEZUGSACHSEN
100
AcDbLine
 62
7
  6
CONTINUOUS
 10
363.7595673622
 20
489.6661978811
 11
364.4685956472
 21
490.1369296102
  0
LINE
  5
283
100
AcDbEntity
  8
BEZUGSACHSEN
100
AcDbLine
 62
7
  6
CONTINUOUS
 10
366.7374863578
 20
491.643271275
 11
367.3047093831
 21
492.019856922
  0
LINE
  5
284
100
AcDbEntity
  8
BEZUGSACHSEN
100
AcDbLine
 62
7
  6
CONTINUOUS
 10
280.8522890789
 20
260.0196892064
 11
280.8522890789
 21
275.5196892064
  0
LINE
  5
285
100
AcDbEntity
  8
0
100
AcDbLine
 62
7
  6
CONTINUOUS
 10
282.3801068659
 20
451.5513101905
 11
282.3801068659
 21
439.5513101905
  0
LINE
  5
286
100
AcDbEntity
  8
0
100
AcDbLine
 62
7
  6
CONTINUOUS
 10
282.3801068659
 20
435.5513101905
 11
282.3801068659
 21
427.6364164441
  0
LINE
  5
287
100
AcDbEntity
  8
0
100
AcDbLine
 62
7
  6
CONTINUOUS
 10
282.3801068659
 20
420.5513101905
 11
282.3801068659
 21
408.5513101905
  0
LINE
  5
288
100
AcDbEntity
  8
0
100
AcDbLine
 62
7
  6
CONTINUOUS
 10
283.8801068659
 20
410.0832250803
 11
283.8801068659
 21
419.0193954795
  0
LINE
  5
289
100
AcDbEntity
  8
0
100
AcDbLine
 62
7
  6
CONTINUOUS
 10
283.8801068659
 20
427.6364164441
 11
283.8801068659
 21
435.5513101905
  0
LINE
  5
28A
100
AcDbEntity
  8
0
100
AcDbLine
 62
7
  6
CONTINUOUS
 10
283.8801068659
 20
439.5513101905
 11
283.8801068659
 21
444.9130123942
  0
LINE
  5
28B
100
AcDbEntity
  8
0
100
AcDbLine
 62
7
  6
CONTINUOUS
 10
283.8801068659
 20
446.4449271052
 11
283.8801068659
 21
450.274714598
  0
LINE
  5
28C
100
AcDbEntity
  8
BEZUGSACHSEN
100
AcDbLine
 62
7
  6
CONTINUOUS
 10
307.3941975735
 20
503.1299876499
 11
307.5891261671
 21
503.946810226
  0
LINE
  5
28D
100
AcDbEntity
  8
0
100
AcDbLine
 62
7
  6
CONTINUOUS
 10
289.8801068659
 20
427.6364164441
 11
289.6301071043
 21
426.6151399701
  0
LINE
  5
28E
100
AcDbEntity
  8
0
100
AcDbLine
 62
7
  6
CONTINUOUS
 10
291.3801068659
 20
446.9555653422
 11
291.6301066275
 21
447.7215226977
  0
LINE
  5
28F
100
AcDbEntity
  8
0
100
AcDbLine
 62
7
  6
CONTINUOUS
 10
290.6301068659
 20
425.3385441988
 11
291.1301071043
 21
426.3598208516
  0
LINE
  5
290
100
AcDbEntity
  8
0
100
AcDbLine
 62
7
  6
CONTINUOUS
 10
289.6301071043
 20
426.6151399701
 11
289.1301068659
 21
425.8491826146
  0
LINE
  5
291
100
AcDbEntity
  8
BEZUGSACHSEN
100
AcDbLine
 62
7
  6
CONTINUOUS
 10
353.5559876888
 20
504.8008028354
 11
352.8131055832
 21
503.8692596331
  0
LINE
  5
292
100
AcDbEntity
  8
BEZUGSACHSEN
100
AcDbLine
 62
7
  6
CONTINUOUS
 10
353.9952634762
 20
504.0150707051
 11
354.2075155064
 21
504.2812259057
  0
LINE
  5
293
100
AcDbEntity
  8
BEZUGSACHSEN
100
AcDbLine
 62
7
  6
CONTINUOUS
 10
352.9581803393
 20
502.4473034318
 11
353.2765583845
 21
502.8465362328
  0
LINE
  5
294
100
AcDbEntity
  8
BEZUGSACHSEN
100
AcDbLine
 62
7
  6
CONTINUOUS
 10
356.5341885252
 20
500.2486587195
 11
356.21581048
 21
499.8494259185
  0
LINE
  5
295
100
AcDbEntity
  8
BEZUGSACHSEN
100
AcDbLine
 62
7
  6
CONTINUOUS
 10
356.7612093001
 20
499.1967737669
 11
357.2918395241
 21
499.862161955
  0
LINE
  5
296
100
AcDbEntity
  8
0
100
AcDbLine
 62
7
  6
CONTINUOUS
 10
289.6301071043
 20
424.3172676354
 11
290.6301068659
 21
425.3385441988
  0
LINE
  5
297
100
AcDbEntity
  8
0
100
AcDbLine
 62
7
  6
CONTINUOUS
 10
289.1301068659
 20
425.8491826146
 11
288.3801068659
 21
425.3385441988
  0
LINE
  5
298
100
AcDbEntity
  8
0
100
AcDbLine
 62
7
  6
CONTINUOUS
 10
288.6301066275
 20
423.8066293313
 11
289.6301071043
 21
424.3172676354
  0
LINE
  5
299
100
AcDbEntity
  8
0
100
AcDbLine
 62
7
  6
CONTINUOUS
 10
307.3522890789
 20
338.5931984947
 11
306.3522890789
 21
338.5931984947
  0
LINE
  5
29A
100
AcDbEntity
  8
0
100
AcDbLine
 62
7
  6
CONTINUOUS
 10
307.3522890789
 20
339.4631984947
 11
306.3522890789
 21
339.4631984947
  0
LINE
  5
29B
100
AcDbEntity
  8
0
100
AcDbLine
 62
7
  6
CONTINUOUS
 10
307.3522890789
 20
340.1863629848
 11
306.3522890789
 21
340.1863629848
  0
LINE
  5
29C
100
AcDbEntity
  8
0
100
AcDbLine
 62
7
  6
CONTINUOUS
 10
307.3522890789
 20
343.126497581
 11
306.3522890789
 21
343.126497581
  0
LINE
  5
29D
100
AcDbEntity
  8
0
100
AcDbLine
 62
7
  6
CONTINUOUS
 10
286.8522890789
 20
314.0196892064
 11
286.8522890789
 21
276.0196892064
  0
LINE
  5
29E
100
AcDbEntity
  8
0
100
AcDbLine
 62
7
  6
CONTINUOUS
 10
289.8801068659
 20
435.5513101905
 11
289.8801068659
 21
427.6364164441
  0
LINE
  5
29F
100
AcDbEntity
  8
0
100
AcDbLine
 62
7
  6
CONTINUOUS
 10
290.1301066275
 20
448.742799887
 11
290.1301066275
 21
447.9768418162
  0
LINE
  5
2A0
100
AcDbEntity
  8
0
100
AcDbLine
 62
7
  6
CONTINUOUS
 10
290.8801066275
 20
416.4662035792
 11
290.8801066275
 21
412.6364164441
  0
LINE
  5
2A1
100
AcDbEntity
  8
0
100
AcDbLine
 62
7
  6
CONTINUOUS
 10
291.3801068659
 20
427.6364164441
 11
291.3801068659
 21
435.5513101905
  0
LINE
  5
2A2
100
AcDbEntity
  8
0
100
AcDbLine
 62
7
  6
CONTINUOUS
 10
291.6301066275
 20
447.7215226977
 11
291.6301066275
 21
448.742799887
  0
LINE
  5
2A3
100
AcDbEntity
  8
0
100
AcDbLine
 62
7
  6
CONTINUOUS
 10
292.3801066275
 20
412.6364164441
 11
292.3801066275
 21
416.4662035792
  0
LINE
  5
2A4
100
AcDbEntity
  8
0
100
AcDbLine
 62
7
  6
CONTINUOUS
 10
291.1301071043
 20
426.3598208516
 11
291.3801068659
 21
427.6364164441
  0
LINE
  5
2A5
100
AcDbEntity
  8
0
100
AcDbLine
 62
7
  6
CONTINUOUS
 10
292.1301068659
 20
411.3598208516
 11
292.3801066275
 21
412.6364164441
  0
LINE
  5
2A6
100
AcDbEntity
  8
0
100
AcDbLine
 62
7
  6
CONTINUOUS
 10
290.8801066275
 20
412.6364164441
 11
290.6301068659
 21
411.6151399701
  0
LINE
  5
2A7
100
AcDbEntity
  8
0
100
AcDbLine
 62
7
  6
CONTINUOUS
 10
291.6301066275
 20
410.3385441988
 11
292.1301068659
 21
411.3598208516
  0
LINE
  5
2A8
100
AcDbEntity
  8
BEZUGSACHSEN
100
AcDbLine
 62
7
  6
CONTINUOUS
 10
351.1694863514
 20
508.7352416162
 11
350.488984788
 21
507.555770903
  0
LINE
  5
2A9
100
AcDbEntity
  8
BEZUGSACHSEN
100
AcDbLine
 62
7
  6
CONTINUOUS
 10
351.9505972907
 20
508.0880646085
 11
348.6331528541
 21
502.3381460693
  0
LINE
  5
2AA
100
AcDbEntity
  8
BEZUGSACHSEN
100
AcDbLine
 62
7
  6
CONTINUOUS
 10
349.499326459
 20
501.8384028491
 11
353.4972722207
 21
508.7677916884
  0
LINE
  5
2AB
100
AcDbEntity
  8
BEZUGSACHSEN
100
AcDbLine
 62
7
  6
CONTINUOUS
 10
352.8131055832
 20
503.8692596331
 11
352.200529489
 21
502.8338003827
  0
LINE
  5
2AC
100
AcDbEntity
  8
0
100
AcDbLine
 62
7
  6
CONTINUOUS
 10
290.6301068659
 20
411.6151399701
 11
290.1301066275
 21
410.8491826146
  0
LINE
  5
2AD
100
AcDbEntity
  8
0
100
AcDbLine
 62
7
  6
CONTINUOUS
 10
290.6301068659
 20
409.3172676354
 11
291.6301066275
 21
410.3385441988
  0
LINE
  5
2AE
100
AcDbEntity
  8
0
100
AcDbLine
 62
7
  6
CONTINUOUS
 10
290.1301066275
 20
410.8491826146
 11
289.3801066275
 21
410.3385441988
  0
LINE
  5
2AF
100
AcDbEntity
  8
0
100
AcDbLine
 62
7
  6
CONTINUOUS
 10
307.3522890789
 20
348.626497581
 11
306.3522890789
 21
348.626497581
  0
LINE
  5
2B0
100
AcDbEntity
  8
0
100
AcDbLine
 62
7
  6
CONTINUOUS
 10
307.3522890789
 20
351.626497581
 11
306.3522890789
 21
351.626497581
  0
LINE
  5
2B1
100
AcDbEntity
  8
FASEN
100
AcDbLine
 62
7
  6
CONTINUOUS
 10
380.3522890789
 20
276.0196892064
 11
380.8522890789
 21
275.5196892064
  0
LINE
  5
2B2
100
AcDbEntity
  8
0
100
AcDbLine
 62
7
  6
CONTINUOUS
 10
282.3801068659
 20
427.6364164441
 11
282.6301068733
 21
426.3598208516
  0
LINE
  5
2B3
100
AcDbEntity
  8
BEZUGSACHSEN
100
AcDbLine
 62
7
  6
CONTINUOUS
 10
301.2994527769
 20
497.5220524408
 11
301.3191585236
 21
498.361580478
  0
LINE
  5
2B4
100
AcDbEntity
  8
BEZUGSACHSEN
100
AcDbLine
 62
7
  6
CONTINUOUS
 10
306.6641935021
 20
504.291497091
 11
306.6204355342
 21
503.8170651628
  0
LINE
  5
2B5
100
AcDbEntity
  8
BEZUGSACHSEN
100
AcDbLine
 62
7
  6
CONTINUOUS
 10
329.6932998484
 20
512.7530685316
 11
329.5672557463
 21
512.2309167385
  0
LINE
  5
2B6
100
AcDbEntity
  8
BEZUGSACHSEN
100
AcDbLine
 62
7
  6
CONTINUOUS
 10
330.5775358234
 20
512.1397764915
 11
330.7035799255
 21
512.6619282846
  0
LINE
  5
2B7
100
AcDbEntity
  8
BEZUGSACHSEN
100
AcDbLine
 62
7
  6
CONTINUOUS
 10
364.1069137443
 20
491.2971800382
 11
363.7736801426
 21
490.8758915986
  0
LINE
  5
2B8
100
AcDbEntity
  8
BEZUGSACHSEN
100
AcDbLine
 62
7
  6
CONTINUOUS
 10
364.4685956472
 20
490.1369296102
 11
364.8018292488
 21
490.5582180498
  0
LINE
  5
2B9
100
AcDbEntity
  8
BEZUGSACHSEN
100
AcDbLine
 62
7
  6
CONTINUOUS
 10
366.9430272816
 20
493.1801072182
 11
366.6097934813
 21
492.7588186467
  0
LINE
  5
2BA
100
AcDbEntity
  8
BEZUGSACHSEN
100
AcDbLine
 62
7
  6
CONTINUOUS
 10
367.3047093831
 20
492.019856922
 11
367.6379427861
 21
492.4411452298
  0
LINE
  5
2BB
100
AcDbEntity
  8
0
100
AcDbLine
 62
7
  6
CONTINUOUS
 10
289.6301071043
 20
408.8066293313
 11
290.6301068659
 21
409.3172676354
  0
LINE
  5
2BC
100
AcDbEntity
  8
0
100
AcDbLine
 62
7
  6
CONTINUOUS
 10
307.3522890789
 20
357.126497581
 11
306.3522890789
 21
357.126497581
  0
LINE
  5
2BD
100
AcDbEntity
  8
0
100
AcDbLine
 62
7
  6
CONTINUOUS
 10
284.1301068063
 20
426.6151399701
 11
283.8801068659
 21
427.6364164441
  0
LINE
  5
2BE
100
AcDbEntity
  8
0
100
AcDbLine
 62
7
  6
CONTINUOUS
 10
290.6301068659
 20
417.4874800532
 11
290.8801066275
 21
416.4662035792
  0
LINE
  5
2BF
100
AcDbEntity
  8
0
100
AcDbLine
 62
7
  6
CONTINUOUS
 10
292.3801066275
 20
416.4662035792
 11
292.1301068659
 21
417.742799887
  0
LINE
  5
2C0
100
AcDbEntity
  8
0
100
AcDbLine
 62
7
  6
CONTINUOUS
 10
306.3522890789
 20
338.5931984947
 11
306.3522890789
 21
341.2284909413
  0
LINE
  5
2C1
100
AcDbEntity
  8
0
100
AcDbLine
 62
7
  6
CONTINUOUS
 10
306.3522890789
 20
343.1266720326
 11
306.3522890789
 21
348.626497581
  0
LINE
  5
2C2
100
AcDbEntity
  8
0
100
AcDbLine
 62
7
  6
CONTINUOUS
 10
306.3522890789
 20
351.6266720326
 11
306.3522890789
 21
357.126497581
  0
LINE
  5
2C3
100
AcDbEntity
  8
RUNDUNGEN
100
AcDbLine
 62
7
  6
CONTINUOUS
 10
307.3522890789
 20
369.5194751905
 11
307.3522890789
 21
323.0197317126
  0
LINE
  5
2C4
100
AcDbEntity
  8
BEZUGSACHSEN
100
AcDbLine
 62
7
  6
CONTINUOUS
 10
352.7701084541
 20
501.9441547691
 11
352.9581803393
 21
502.4473034318
  0
LINE
  5
2C5
100
AcDbEntity
  8
0
100
AcDbLine
 62
7
  6
CONTINUOUS
 10
284.6301068659
 20
425.8491826146
 11
284.1301068063
 21
426.6151399701
  0
LINE
  5
2C6
100
AcDbEntity
  8
0
100
AcDbLine
 62
7
  6
CONTINUOUS
 10
290.1301066275
 20
418.253438124
 11
290.6301068659
 21
417.4874800532
  0
LINE
  5
2C7
100
AcDbEntity
  8
0
100
AcDbLine
 62
7
  6
CONTINUOUS
 10
282.6301068733
 20
426.3598208516
 11
283.1301068659
 21
425.3385441988
  0
LINE
  5
2C8
100
AcDbEntity
  8
0
100
AcDbLine
 62
7
  6
CONTINUOUS
 10
292.1301068659
 20
417.742799887
 11
291.6301066275
 21
418.764076361
  0
LINE
  5
2C9
100
AcDbEntity
  8
0
100
AcDbLine
 62
7
  6
CONTINUOUS
 10
291.8801071043
 20
439.5513101905
 11
289.6301071043
 21
445.4236506312
  0
LINE
  5
2CA
100
AcDbEntity
  8
0
100
AcDbLine
 62
7
  6
CONTINUOUS
 10
288.1301067467
 20
444.9130123942
 11
290.1301066275
 21
439.5513101905
  0
LINE
  5
2CB
100
AcDbEntity
  8
0
100
AcDbLine
 62
7
  6
CONTINUOUS
 10
289.8801068659
 20
449.5087572425
 11
290.1301066275
 21
448.742799887
  0
LINE
  5
2CC
100
AcDbEntity
  8
0
100
AcDbLine
 62
7
  6
CONTINUOUS
 10
291.6301066275
 20
448.742799887
 11
291.3801068659
 21
449.5087572425
  0
LINE
  5
2CD
100
AcDbEntity
  8
BEZUGSACHSEN
100
AcDbLine
 62
7
  6
CONTINUOUS
 10
307.5891261671
 20
503.946810226
 11
307.547351571
 21
504.7905003016
  0
LINE
  5
2CE
100
AcDbEntity
  8
BEZUGSACHSEN
100
AcDbLine
 62
7
  6
CONTINUOUS
 10
317.5996439739
 20
513.1012746155
 11
317.8892098156
 21
505.7485078285
  0
LINE
  5
2CF
100
AcDbEntity
  8
BEZUGSACHSEN
100
AcDbLine
 62
7
  6
CONTINUOUS
 10
352.200529489
 20
502.8338003827
 11
351.9305086769
 21
501.960582943
  0
LINE
  5
2D0
100
AcDbEntity
  8
BEZUGSACHSEN
100
AcDbLine
 62
7
  6
CONTINUOUS
 10
356.7222605591
 20
500.7518075686
 11
356.5341885252
 21
500.2486587195
  0
LINE
  5
2D1
100
AcDbEntity
  8
BEZUGSACHSEN
100
AcDbLine
 62
7
  6
CONTINUOUS
 10
358.9414987552
 20
502.4653884787
 11
359.1295706405
 21
502.9685371413
  0
LINE
  5
2D2
100
AcDbEntity
  8
0
100
AcDbLine
 62
7
  6
CONTINUOUS
 10
283.1301068659
 20
425.3385441988
 11
284.1301068063
 21
424.3172676354
  0
LINE
  5
2D3
100
AcDbEntity
  8
BEZUGSACHSEN
100
AcDbLine
 62
7
  6
CONTINUOUS
 10
300.3425783278
 20
498.5051095378
 11
300.3990563956
 21
498.0320229071
  0
LINE
  5
2D4
100
AcDbEntity
  8
BEZUGSACHSEN
100
AcDbLine
 62
7
  6
CONTINUOUS
 10
318.8743688985
 20
505.0295425595
 11
318.5348249787
 21
513.4554447557
  0
LINE
  5
2D5
100
AcDbEntity
  8
BEZUGSACHSEN
100
AcDbLine
 62
7
  6
CONTINUOUS
 10
357.2918395241
 20
499.862161955
 11
357.5618602619
 21
500.7353793015
  0
LINE
  5
2D6
100
AcDbEntity
  8
BEZUGSACHSEN
100
AcDbLine
 62
7
  6
CONTINUOUS
 10
364.8018292488
 20
490.5582180498
 11
365.0924969531
 21
491.3513576002
  0
LINE
  5
2D7
100
AcDbEntity
  8
BEZUGSACHSEN
100
AcDbLine
 62
7
  6
CONTINUOUS
 10
367.6379427861
 20
492.4411452298
 11
367.9286104904
 21
493.2342847801
  0
LINE
  5
2D8
100
AcDbEntity
  8
0
100
AcDbLine
 62
7
  6
CONTINUOUS
 10
289.3801066275
 20
418.764076361
 11
290.1301066275
 21
418.253438124
  0
LINE
  5
2D9
100
AcDbEntity
  8
0
100
AcDbLine
 62
7
  6
CONTINUOUS
 10
291.6301066275
 20
418.764076361
 11
290.6301068659
 21
419.785352835
  0
LINE
  5
2DA
100
AcDbEntity
  8
BEZUGSACHSEN
100
AcDbLine
 62
7
  6
CONTINUOUS
 10
301.3191585236
 20
498.361580478
 11
301.1017790917
 21
499.1778550906
  0
LINE
  5
2DB
100
AcDbEntity
  8
BEZUGSACHSEN
100
AcDbLine
 62
7
  6
CONTINUOUS
 10
324.3554197001
 20
514.7228608104
 11
324.9837926325
 21
506.7475772757
  0
LINE
  5
2DC
100
AcDbEntity
  8
BEZUGSACHSEN
100
AcDbLine
 62
7
  6
CONTINUOUS
 10
325.9807030744
 20
506.8261238923
 11
325.6999406963
 21
510.3895485009
  0
LINE
  5
2DD
100
AcDbEntity
  8
BEZUGSACHSEN
100
AcDbLine
 62
7
  6
CONTINUOUS
 10
325.6197228847
 20
511.4076696818
 11
325.4191783183
 21
513.9529731095
  0
LINE
  5
2DE
100
AcDbEntity
  8
BEZUGSACHSEN
100
AcDbLine
 62
7
  6
CONTINUOUS
 10
329.6531909051
 20
513.2621295974
 11
329.6932998484
 21
512.7530685316
  0
LINE
  5
2DF
100
AcDbEntity
  8
BEZUGSACHSEN
100
AcDbLine
 62
7
  6
CONTINUOUS
 10
330.7035799255
 20
512.6619282846
 11
330.650101347
 21
513.3406762139
  0
LINE
  5
2E0
100
AcDbEntity
  8
0
100
AcDbLine
 62
7
  6
CONTINUOUS
 10
290.6301068659
 20
419.785352835
 11
289.6301071043
 21
420.295991072
  0
LINE
  5
2E1
100
AcDbEntity
  8
0
100
AcDbLine
 62
7
  6
CONTINUOUS
 10
284.1301068063
 20
424.3172676354
 11
285.1301069255
 21
423.8066293313
  0
LINE
  5
2E2
100
AcDbEntity
  8
0
100
AcDbLine
 62
7
  6
CONTINUOUS
 10
285.3801068659
 20
425.3385441988
 11
284.6301068659
 21
425.8491826146
  0
LINE
  5
2E3
100
AcDbEntity
  8
0
100
AcDbLine
 62
7
  6
CONTINUOUS
 10
291.3801068659
 20
449.5087572425
 11
290.6301068659
 21
450.5300337165
  0
LINE
  5
2E4
100
AcDbEntity
  8
BEZUGSACHSEN
100
AcDbLine
 62
7
  6
CONTINUOUS
 10
351.9305086769
 20
501.960582943
 11
351.896920077
 21
501.1165272886
  0
LINE
  5
2E5
100
AcDbEntity
  8
BEZUGSACHSEN
100
AcDbLine
 62
7
  6
CONTINUOUS
 10
352.7123396721
 20
501.3370925301
 11
352.7701084541
 21
501.9441547691
  0
LINE
  5
2E6
100
AcDbEntity
  8
BEZUGSACHSEN
100
AcDbLine
 62
7
  6
CONTINUOUS
 10
358.3477396453
 20
503.5920275542
 11
358.2899739201
 21
502.98496303
  0
LINE
  5
2E7
100
AcDbEntity
  8
BEZUGSACHSEN
100
AcDbLine
 62
7
  6
CONTINUOUS
 10
364.2061537024
 20
491.7631776266
 11
364.1069137443
 21
491.2971800382
  0
LINE
  5
2E8
100
AcDbEntity
  8
BEZUGSACHSEN
100
AcDbLine
 62
7
  6
CONTINUOUS
 10
367.0422672397
 20
493.6461048066
 11
366.9430272816
 21
493.1801072182
  0
LINE
  5
2E9
100
AcDbEntity
  8
KONSTRUKTIONSELEMENTE
100
AcDbLine
 62
7
  6
CONTINUOUS
 10
279.0440759418
 20
401.5196892064
 11
297.0710665164
 21
401.5196892064
  0
LINE
  5
2EA
100
AcDbEntity
  8
KONSTRUKTIONSELEMENTE
100
AcDbLine
 62
7
  6
CONTINUOUS
 10
364.6335116414
 20
401.5196892064
 11
382.660502216
 21
401.5196892064
  0
LINE
  5
2EB
100
AcDbEntity
  8
0
100
AcDbLine
 62
7
  6
CONTINUOUS
 10
282.3801068659
 20
408.5513101905
 11
288.3801068659
 21
408.5513101905
  0
LINE
  5
2EC
100
AcDbEntity
  8
0
100
AcDbLine
 62
7
  6
CONTINUOUS
 10
288.3801068659
 20
410.0832250803
 11
283.8801068659
 21
410.0832250803
  0
LINE
  5
2ED
100
AcDbEntity
  8
0
100
AcDbLine
 62
7
  6
CONTINUOUS
 10
288.3801068659
 20
419.0193954795
 11
289.3801066275
 21
418.764076361
  0
LINE
  5
2EE
100
AcDbEntity
  8
0
100
AcDbLine
 62
7
  6
CONTINUOUS
 10
289.3801066275
 20
450.0193954795
 11
289.8801068659
 21
449.5087572425
  0
LINE
  5
2EF
100
AcDbEntity
  8
BEZUGSACHSEN
100
AcDbLine
 62
7
  6
CONTINUOUS
 10
306.4712490202
 20
504.7927971207
 11
306.6641935021
 21
504.291497091
  0
LINE
  5
2F0
100
AcDbEntity
  8
BEZUGSACHSEN
100
AcDbLine
 62
7
  6
CONTINUOUS
 10
307.547351571
 20
504.7905003016
 11
307.354407089
 21
505.2918003313
  0
LINE
  5
2F1
100
AcDbEntity
  8
BEZUGSACHSEN
100
AcDbLine
 62
7
  6
CONTINUOUS
 10
320.989100233
 20
513.9718258522
 11
322.7100538717
 21
506.1591234661
  0
LINE
  5
2F2
100
AcDbEntity
  8
BEZUGSACHSEN
100
AcDbLine
 62
7
  6
CONTINUOUS
 10
323.6866416699
 20
506.3742426709
 11
321.9656880313
 21
514.186945057
  0
LINE
  5
2F3
100
AcDbEntity
  8
RUNDUNGEN
100
AcDbLine
 62
7
  6
CONTINUOUS
 10
354.3522890789
 20
323.0197777242
 11
354.3522890789
 21
369.5195548334
  0
LINE
  5
2F4
100
AcDbEntity
  8
BEZUGSACHSEN
100
AcDbLine
 62
7
  6
CONTINUOUS
 10
359.1295706405
 20
502.9685371413
 11
359.1631592032
 21
503.8125927491
  0
LINE
  5
2F5
100
AcDbEntity
  8
BEZUGSACHSEN
100
AcDbLine
 62
7
  6
CONTINUOUS
 10
367.9286104904
 20
493.2342847801
 11
367.9852847497
 21
494.0721336111
  0
LINE
  5
2F6
100
AcDbEntity
  8
0
100
AcDbLine
 62
7
  6
CONTINUOUS
 10
289.3801066275
 20
410.3385441988
 11
288.3801068659
 21
410.0832250803
  0
LINE
  5
2F7
100
AcDbEntity
  8
0
100
AcDbLine
 62
7
  6
CONTINUOUS
 10
288.3801068659
 20
408.5513101905
 11
289.6301071043
 21
408.8066293313
  0
LINE
  5
2F8
100
AcDbEntity
  8
0
100
AcDbLine
 62
7
  6
CONTINUOUS
 10
283.8801068659
 20
419.0193954795
 11
288.3801068659
 21
419.0193954795
  0
LINE
  5
2F9
100
AcDbEntity
  8
0
100
AcDbLine
 62
7
  6
CONTINUOUS
 10
289.6301071043
 20
420.295991072
 11
288.3801068659
 21
420.5513101905
  0
LINE
  5
2FA
100
AcDbEntity
  8
0
100
AcDbLine
 62
7
  6
CONTINUOUS
 10
285.1301069255
 20
423.8066293313
 11
286.3801069851
 21
423.5513101905
  0
LINE
  5
2FB
100
AcDbEntity
  8
0
100
AcDbLine
 62
7
  6
CONTINUOUS
 10
286.3801069851
 20
425.0832250803
 11
285.3801068659
 21
425.3385441988
  0
LINE
  5
2FC
100
AcDbEntity
  8
0
100
AcDbLine
 62
7
  6
CONTINUOUS
 10
290.6301068659
 20
450.5300337165
 11
289.6301071043
 21
451.295991072
  0
LINE
  5
2FD
100
AcDbEntity
  8
BEZUGSACHSEN
100
AcDbLine
 62
7
  6
CONTINUOUS
 10
356.6739032517
 20
501.2257921141
 11
356.7222605591
 21
500.7518075686
  0
LINE
  5
2FE
100
AcDbEntity
  8
BEZUGSACHSEN
100
AcDbLine
 62
7
  6
CONTINUOUS
 10
357.5618602619
 20
500.7353793015
 11
357.4893228096
 21
501.446357309
  0
LINE
  5
2FF
100
AcDbEntity
  8
0
100
AcDbLine
 62
7
  6
CONTINUOUS
 10
368.9574068454
 20
293.5196892064
 11
368.9574068454
 21
281.5196892064
  0
LINE
  5
300
100
AcDbEntity
  8
0
100
AcDbLine
 62
7
  6
CONTINUOUS
 10
369.5336799536
 20
293.5196892064
 11
369.5336799536
 21
281.5196892064
  0
LINE
  5
301
100
AcDbEntity
  8
0
100
AcDbLine
 62
7
  6
CONTINUOUS
 10
370.3491243952
 20
292.2430936139
 11
370.3491243952
 21
288.4133061212
  0
LINE
  5
302
100
AcDbEntity
  8
0
100
AcDbLine
 62
7
  6
CONTINUOUS
 10
370.3491243952
 20
286.8813914102
 11
370.3491243952
 21
281.5196892064
  0
LINE
  5
303
100
AcDbEntity
  8
0
100
AcDbLine
 62
7
  6
CONTINUOUS
 10
288.3801068659
 20
420.5513101905
 11
282.3801068659
 21
420.5513101905
  0
LINE
  5
304
100
AcDbEntity
  8
0
100
AcDbLine
 62
7
  6
CONTINUOUS
 10
286.3801069851
 20
423.5513101905
 11
287.3801067467
 21
423.5513101905
  0
LINE
  5
305
100
AcDbEntity
  8
0
100
AcDbLine
 62
7
  6
CONTINUOUS
 10
287.3801067467
 20
425.0832250803
 11
286.3801069851
 21
425.0832250803
  0
LINE
  5
306
100
AcDbEntity
  8
BEZUGSACHSEN
100
AcDbLine
 62
7
  6
CONTINUOUS
 10
300.0490147829
 20
498.9549423722
 11
300.3425783278
 21
498.5051095378
  0
LINE
  5
307
100
AcDbEntity
  8
BEZUGSACHSEN
100
AcDbLine
 62
7
  6
CONTINUOUS
 10
301.1017790917
 20
499.1778550906
 11
300.8082155468
 21
499.6276879251
  0
LINE
  5
308
100
AcDbEntity
  8
BEZUGSACHSEN
100
AcDbLine
 62
7
  6
CONTINUOUS
 10
310.1188296577
 20
504.9648799035
 11
310.5407869346
 21
504.2257845565
  0
LINE
  5
309
100
AcDbEntity
  8
0
100
AcDbLine
 62
7
  6
CONTINUOUS
 10
371.8400921428
 20
307.5196892064
 11
371.8400921428
 21
295.5196892064
  0
LINE
  5
30A
100
AcDbEntity
  8
0
100
AcDbLine
 62
7
  6
CONTINUOUS
 10
372.3763784729
 20
307.5196892064
 11
372.3763784729
 21
295.5196892064
  0
LINE
  5
30B
100
AcDbEntity
  8
0
100
AcDbLine
 62
7
  6
CONTINUOUS
 10
372.4808549106
 20
290.7111789029
 11
372.4808549106
 21
289.9452208322
  0
LINE
  5
30C
100
AcDbEntity
  8
0
100
AcDbLine
 62
7
  6
CONTINUOUS
 10
372.9236570148
 20
306.2430936139
 11
372.9236570148
 21
302.4133061212
  0
LINE
  5
30D
100
AcDbEntity
  8
0
100
AcDbLine
 62
7
  6
CONTINUOUS
 10
372.9236570148
 20
300.8813914102
 11
372.9236570148
 21
295.5196892064
  0
LINE
  5
30E
100
AcDbEntity
  8
0
100
AcDbLine
 62
7
  6
CONTINUOUS
 10
373.0089907194
 20
290.7111789029
 11
373.0089907194
 21
289.9452208322
  0
LINE
  5
30F
100
AcDbEntity
  8
0
100
AcDbLine
 62
7
  6
CONTINUOUS
 10
373.4866354902
 20
290.7111789029
 11
373.4866354902
 21
289.6899017137
  0
LINE
  5
310
100
AcDbEntity
  8
0
100
AcDbLine
 62
7
  6
CONTINUOUS
 10
373.5188743653
 20
293.5196892064
 11
373.5188743653
 21
281.5196892064
  0
LINE
  5
311
100
AcDbEntity
  8
0
100
AcDbLine
 62
7
  6
CONTINUOUS
 10
374.0343165904
 20
293.5196892064
 11
374.0343165904
 21
281.5196892064
  0
LINE
  5
312
100
AcDbEntity
  8
0
100
AcDbLine
 62
7
  6
CONTINUOUS
 10
374.0719315585
 20
304.7111789029
 11
374.0719315585
 21
303.9452208322
  0
LINE
  5
313
100
AcDbEntity
  8
0
100
AcDbLine
 62
7
  6
CONTINUOUS
 10
374.3802973035
 20
292.2430936139
 11
374.3802973035
 21
288.4133061212
  0
LINE
  5
314
100
AcDbEntity
  8
0
100
AcDbLine
 62
7
  6
CONTINUOUS
 10
374.3802973035
 20
286.8813914102
 11
374.3802973035
 21
281.5196892064
  0
LINE
  5
315
100
AcDbEntity
  8
0
100
AcDbLine
 62
7
  6
CONTINUOUS
 10
374.5808552121
 20
304.7111789029
 11
374.5808552121
 21
303.9452208322
  0
LINE
  5
316
100
AcDbEntity
  8
0
100
AcDbLine
 62
7
  6
CONTINUOUS
 10
374.6215705198
 20
307.5196892064
 11
374.6215705198
 21
306.7134603276
  0
LINE
  5
317
100
AcDbEntity
  8
0
100
AcDbLine
 62
7
  6
CONTINUOUS
 10
374.6215705198
 20
301.7593021338
 11
374.6215705198
 21
299.60479546
  0
LINE
  5
318
100
AcDbEntity
  8
0
100
AcDbLine
 62
7
  6
CONTINUOUS
 10
374.7498972468
 20
290.7111789029
 11
374.7498972468
 21
289.9452208322
  0
LINE
  5
319
100
AcDbEntity
  8
0
100
AcDbLine
 62
7
  6
CONTINUOUS
 10
374.8373717409
 20
304.7111789029
 11
374.8373717409
 21
303.6899017137
  0
LINE
  5
31A
100
AcDbEntity
  8
0
100
AcDbLine
 62
7
  6
CONTINUOUS
 10
374.8522890789
 20
314.0196892064
 11
374.8522890789
 21
307.5196892064
  0
LINE
  5
31B
100
AcDbEntity
  8
0
100
AcDbLine
 62
7
  6
CONTINUOUS
 10
374.8522890789
 20
295.5196892064
 11
374.8522890789
 21
293.5196892064
  0
LINE
  5
31C
100
AcDbEntity
  8
0
100
AcDbLine
 62
7
  6
CONTINUOUS
 10
374.8522890789
 20
286.8813914102
 11
374.8522890789
 21
276.0196892064
  0
LINE
  5
31D
100
AcDbEntity
  8
0
100
AcDbLine
 62
7
  6
CONTINUOUS
 10
374.9459395452
 20
284.583518986
 11
374.9459395452
 21
285.3494763415
  0
LINE
  5
31E
100
AcDbEntity
  8
0
100
AcDbLine
 62
7
  6
CONTINUOUS
 10
375.124176297
 20
307.5196892064
 11
375.124176297
 21
299.60479546
  0
LINE
  5
31F
100
AcDbEntity
  8
0
100
AcDbLine
 62
7
  6
CONTINUOUS
 10
375.2510503551
 20
307.5196892064
 11
375.2510503551
 21
299.60479546
  0
LINE
  5
320
100
AcDbEntity
  8
0
100
AcDbLine
 62
7
  6
CONTINUOUS
 10
375.2510503551
 20
290.7111789029
 11
375.2510503551
 21
289.9452208322
  0
LINE
  5
321
100
AcDbEntity
  8
0
100
AcDbLine
 62
7
  6
CONTINUOUS
 10
375.3270010109
 20
290.7111789029
 11
375.3270010109
 21
289.6899017137
  0
LINE
  5
322
100
AcDbEntity
  8
0
100
AcDbLine
 62
7
  6
CONTINUOUS
 10
375.3494800015
 20
287.1367105287
 11
375.3494800015
 21
285.8601145785
  0
LINE
  5
323
100
AcDbEntity
  8
0
100
AcDbLine
 62
7
  6
CONTINUOUS
 10
375.3522890789
 20
297.0516040962
 11
375.3522890789
 21
295.5196892064
  0
LINE
  5
324
100
AcDbEntity
  8
FASEN
100
AcDbLine
 62
7
  6
CONTINUOUS
 10
281.3522890789
 20
276.0196892064
 11
280.8522890789
 21
275.5196892064
  0
LINE
  5
325
100
AcDbEntity
  8
0
100
AcDbLine
 62
7
  6
CONTINUOUS
 10
288.3801068659
 20
425.3385441988
 11
287.3801067467
 21
425.0832250803
  0
LINE
  5
326
100
AcDbEntity
  8
0
100
AcDbLine
 62
7
  6
CONTINUOUS
 10
287.3801067467
 20
423.5513101905
 11
288.6301066275
 21
423.8066293313
  0
LINE
  5
327
100
AcDbEntity
  8
0
100
AcDbLine
 62
7
  6
CONTINUOUS
 10
291.3801068659
 20
435.5513101905
 11
289.8801068659
 21
435.5513101905
  0
LINE
  5
328
100
AcDbEntity
  8
0
100
AcDbLine
 62
7
  6
CONTINUOUS
 10
283.8801068659
 20
435.5513101905
 11
282.3801068659
 21
435.5513101905
  0
LINE
  5
329
100
AcDbEntity
  8
0
100
AcDbLine
 62
7
  6
CONTINUOUS
 10
288.6301066275
 20
450.274714598
 11
289.3801066275
 21
450.0193954795
  0
LINE
  5
32A
100
AcDbEntity
  8
BEZUGSACHSEN
100
AcDbLine
 62
7
  6
CONTINUOUS
 10
300.9594598421
 20
503.3809839955
 11
306.0078205852
 21
497.1750147878
  0
LINE
  5
32B
100
AcDbEntity
  8
BEZUGSACHSEN
100
AcDbLine
 62
7
  6
CONTINUOUS
 10
306.7835667361
 20
497.8060598807
 11
304.5279161593
 21
500.5789397788
  0
LINE
  5
32C
100
AcDbEntity
  8
BEZUGSACHSEN
100
AcDbLine
 62
7
  6
CONTINUOUS
 10
303.8834446519
 20
501.3711910726
 11
302.2722655825
 21
503.351819677
  0
LINE
  5
32D
100
AcDbEntity
  8
BEZUGSACHSEN
100
AcDbLine
 62
7
  6
CONTINUOUS
 10
312.567140237
 20
505.3826508864
 11
312.1451829601
 21
506.1217462334
  0
LINE
  5
32E
100
AcDbEntity
  8
BEZUGSACHSEN
100
AcDbLine
 62
7
  6
CONTINUOUS
 10
329.4469289914
 20
513.7580989852
 11
329.6531909051
 21
513.2621295974
  0
LINE
  5
32F
100
AcDbEntity
  8
BEZUGSACHSEN
100
AcDbLine
 62
7
  6
CONTINUOUS
 10
330.650101347
 20
513.3406762139
 11
330.4438394332
 21
513.8366456018
  0
LINE
  5
330
100
AcDbEntity
  8
BEZUGSACHSEN
100
AcDbLine
 62
7
  6
CONTINUOUS
 10
365.0924969531
 20
491.3513576002
 11
365.0499312542
 21
491.7232088427
  0
LINE
  5
331
100
AcDbEntity
  8
BEZUGSACHSEN
100
AcDbLine
 62
7
  6
CONTINUOUS
 10
380.8522890789
 20
260.0196892064
 11
380.8522890789
 21
275.5196892064
  0
LINE
  5
332
100
AcDbEntity
  8
0
100
AcDbLine
 62
7
  6
CONTINUOUS
 10
282.3801068659
 20
439.5513101905
 11
283.8801068659
 21
439.5513101905
  0
LINE
  5
333
100
AcDbEntity
  8
0
100
AcDbLine
 62
7
  6
CONTINUOUS
 10
290.1301066275
 20
439.5513101905
 11
291.8801071043
 21
439.5513101905
  0
LINE
  5
334
100
AcDbEntity
  8
0
100
AcDbLine
 62
7
  6
CONTINUOUS
 10
283.8801068659
 20
444.9130123942
 11
288.1301067467
 21
444.9130123942
  0
LINE
  5
335
100
AcDbEntity
  8
0
100
AcDbLine
 62
7
  6
CONTINUOUS
 10
288.6301066275
 20
446.4449271052
 11
283.8801068659
 21
446.4449271052
  0
LINE
  5
336
100
AcDbEntity
  8
0
100
AcDbLine
 62
7
  6
CONTINUOUS
 10
289.6301071043
 20
451.295991072
 11
288.3801068659
 21
451.5513101905
  0
LINE
  5
337
100
AcDbEntity
  8
BEZUGSACHSEN
100
AcDbLine
 62
7
  6
CONTINUOUS
 10
306.1490129656
 20
505.1889231375
 11
306.4712490202
 21
504.7927971207
  0
LINE
  5
338
100
AcDbEntity
  8
BEZUGSACHSEN
100
AcDbLine
 62
7
  6
CONTINUOUS
 10
307.354407089
 20
505.2918003313
 11
306.9247591165
 21
505.8199682304
  0
LINE
  5
339
100
AcDbEntity
  8
BEZUGSACHSEN
100
AcDbLine
 62
7
  6
CONTINUOUS
 10
351.896920077
 20
501.1165272886
 11
352.2300698215
 21
500.1977175229
  0
LINE
  5
33A
100
AcDbEntity
  8
BEZUGSACHSEN
100
AcDbLine
 62
7
  6
CONTINUOUS
 10
352.8910031395
 20
500.759192123
 11
352.7123396721
 21
501.3370925301
  0
LINE
  5
33B
100
AcDbEntity
  8
BEZUGSACHSEN
100
AcDbLine
 62
7
  6
CONTINUOUS
 10
356.4952397843
 20
501.8036925212
 11
356.6739032517
 21
501.2257921141
  0
LINE
  5
33C
100
AcDbEntity
  8
BEZUGSACHSEN
100
AcDbLine
 62
7
  6
CONTINUOUS
 10
364.0714044357
 20
492.2738781395
 11
364.2061537024
 21
491.7631776266
  0
LINE
  5
33D
100
AcDbEntity
  8
0
100
AcDbLine
 62
7
  6
CONTINUOUS
 10
283.8801068659
 20
450.274714598
 11
288.6301066275
 21
450.274714598
  0
LINE
  5
33E
100
AcDbEntity
  8
0
100
AcDbLine
 62
7
  6
CONTINUOUS
 10
288.3801068659
 20
451.5513101905
 11
282.3801068659
 21
451.5513101905
  0
LINE
  5
33F
100
AcDbEntity
  8
KONSTRUKTIONSELEMENTE
100
AcDbLine
 62
7
  6
CONTINUOUS
 10
279.0440759418
 20
456.5196892064
 11
297.0710665164
 21
456.5196892064
  0
LINE
  5
340
100
AcDbEntity
  8
KONSTRUKTIONSELEMENTE
100
AcDbLine
 62
7
  6
CONTINUOUS
 10
364.6335116414
 20
456.5196892064
 11
382.660502216
 21
456.5196892064
  0
LINE
  5
341
100
AcDbEntity
  8
BEZUGSACHSEN
100
AcDbLine
 62
7
  6
CONTINUOUS
 10
294.9546279666
 20
496.4211203022
 11
301.1897512092
 21
491.4088116376
  0
LINE
  5
342
100
AcDbEntity
  8
BEZUGSACHSEN
100
AcDbLine
 62
7
  6
CONTINUOUS
 10
301.8162897923
 20
492.188202043
 11
299.0303836231
 21
494.427744244
  0
LINE
  5
343
100
AcDbEntity
  8
BEZUGSACHSEN
100
AcDbLine
 62
7
  6
CONTINUOUS
 10
298.2344105381
 20
495.067613359
 11
296.2444774539
 21
496.6672864451
  0
LINE
  5
344
100
AcDbEntity
  8
BEZUGSACHSEN
100
AcDbLine
 62
7
  6
CONTINUOUS
 10
299.6510278688
 20
499.2748772285
 11
300.0490147829
 21
498.9549423722
  0
LINE
  5
345
100
AcDbEntity
  8
BEZUGSACHSEN
100
AcDbLine
 62
7
  6
CONTINUOUS
 10
300.8082155468
 20
499.6276879251
 11
300.2775664518
 21
500.0542676338
  0
LINE
  5
346
100
AcDbEntity
  8
BEZUGSACHSEN
100
AcDbLine
 62
7
  6
CONTINUOUS
 10
317.8892098156
 20
505.7485078285
 11
313.2354647623
 21
511.4484801774
  0
LINE
  5
347
100
AcDbEntity
  8
BEZUGSACHSEN
100
AcDbLine
 62
7
  6
CONTINUOUS
 10
312.3002837575
 20
511.0943100372
 11
317.6274620812
 21
504.5573161563
  0
LINE
  5
348
100
AcDbEntity
  8
BEZUGSACHSEN
100
AcDbLine
 62
7
  6
CONTINUOUS
 10
357.4893228096
 20
501.446357309
 11
357.1561760196
 21
502.3651646613
  0
LINE
  5
349
100
AcDbEntity
  8
BEZUGSACHSEN
100
AcDbLine
 62
7
  6
CONTINUOUS
 10
359.1631592032
 20
503.8125927491
 11
358.8300124132
 21
504.7314001014
  0
LINE
  5
34A
100
AcDbEntity
  8
BEZUGSACHSEN
100
AcDbLine
 62
7
  6
CONTINUOUS
 10
358.1690761778
 20
504.1699279613
 11
358.3477396453
 21
503.5920275542
  0
LINE
  5
34B
100
AcDbEntity
  8
BEZUGSACHSEN
100
AcDbLine
 62
7
  6
CONTINUOUS
 10
366.907517973
 20
494.1568053195
 11
367.0422672397
 21
493.6461048066
  0
LINE
  5
34C
100
AcDbEntity
  8
BEZUGSACHSEN
100
AcDbLine
 62
7
  6
CONTINUOUS
 10
353.175792622
 20
500.3143693162
 11
352.8910031395
 21
500.759192123
  0
LINE
  5
34D
100
AcDbEntity
  8
BEZUGSACHSEN
100
AcDbLine
 62
7
  6
CONTINUOUS
 10
367.9852847497
 20
494.0721336111
 11
367.666168347
 21
494.8605326647
  0
LINE
  5
34E
100
AcDbEntity
  8
BEZUGSACHSEN
100
AcDbLine
 62
7
  6
CONTINUOUS
 10
363.2419667239
 20
489.5226080481
 11
363.7595673622
 21
489.6661978811
  0
LINE
  5
34F
100
AcDbEntity
  8
BEZUGSACHSEN
100
AcDbLine
 62
7
  6
CONTINUOUS
 10
305.6974859401
 20
505.4798744016
 11
306.1490129656
 21
505.1889231375
  0
LINE
  5
350
100
AcDbEntity
  8
BEZUGSACHSEN
100
AcDbLine
 62
7
  6
CONTINUOUS
 10
306.9247591165
 20
505.8199682304
 11
306.4732320911
 21
506.1109194945
  0
LINE
  5
351
100
AcDbEntity
  8
BEZUGSACHSEN
100
AcDbLine
 62
7
  6
CONTINUOUS
 10
330.4438394332
 20
513.8366456018
 11
329.8919056713
 21
514.4761197474
  0
LINE
  5
352
100
AcDbEntity
  8
BEZUGSACHSEN
100
AcDbLine
 62
7
  6
CONTINUOUS
 10
352.2300698215
 20
500.1977175229
 11
352.7754686323
 21
499.5450653597
  0
LINE
  5
353
100
AcDbEntity
  8
BEZUGSACHSEN
100
AcDbLine
 62
7
  6
CONTINUOUS
 10
358.7888622831
 20
493.7680872209
 11
361.0013016734
 21
490.4356538841
  0
LINE
  5
354
100
AcDbEntity
  8
BEZUGSACHSEN
100
AcDbLine
 62
7
  6
CONTINUOUS
 10
361.9443192827
 20
490.8616827545
 11
360.192806172
 21
493.4998570275
  0
LINE
  5
355
100
AcDbEntity
  8
BEZUGSACHSEN
100
AcDbLine
 62
7
  6
CONTINUOUS
 10
362.319891325
 20
494.9120524125
 11
364.0714044357
 21
492.2738781395
  0
LINE
  5
356
100
AcDbEntity
  8
BEZUGSACHSEN
100
AcDbLine
 62
7
  6
CONTINUOUS
 10
364.9222383777
 20
492.8387562144
 11
363.170725267
 21
495.4769304873
  0
LINE
  5
357
100
AcDbEntity
  8
BEZUGSACHSEN
100
AcDbLine
 62
7
  6
CONTINUOUS
 10
365.1560048623
 20
496.7949795924
 11
366.907517973
 21
494.1568053195
  0
LINE
  5
358
100
AcDbEntity
  8
BEZUGSACHSEN
100
AcDbLine
 62
7
  6
CONTINUOUS
 10
356.2104503017
 20
502.248515328
 11
356.4952397843
 21
501.8036925212
  0
LINE
  5
359
100
AcDbEntity
  8
BEZUGSACHSEN
100
AcDbLine
 62
7
  6
CONTINUOUS
 10
357.8842866953
 20
504.6147507681
 11
358.1690761778
 21
504.1699279613
  0
LINE
  5
35A
100
AcDbEntity
  8
BEZUGSACHSEN
100
AcDbLine
 62
7
  6
CONTINUOUS
 10
363.3482631716
 20
490.5934525611
 11
362.8306626326
 21
490.449862794
  0
LINE
  5
35B
100
AcDbEntity
  8
BEZUGSACHSEN
100
AcDbLine
 62
7
  6
CONTINUOUS
 10
366.2198858189
 20
491.4996815079
 11
366.7374863578
 21
491.643271275
  0
LINE
  5
35C
100
AcDbEntity
  8
BEZUGSACHSEN
100
AcDbLine
 62
7
  6
CONTINUOUS
 10
366.3261821673
 20
492.570525955
 11
365.8085816283
 21
492.4269361879
  0
LINE
  5
35D
100
AcDbEntity
  8
BEZUGSACHSEN
100
AcDbLine
 62
7
  6
CONTINUOUS
 10
299.1486183287
 20
499.4649135089
 11
299.6510278688
 21
499.2748772285
  0
LINE
  5
35E
100
AcDbEntity
  8
BEZUGSACHSEN
100
AcDbLine
 62
7
  6
CONTINUOUS
 10
300.2775664518
 20
500.0542676338
 11
299.7751569117
 21
500.2443039143
  0
LINE
  5
35F
100
AcDbEntity
  8
BEZUGSACHSEN
100
AcDbLine
 62
7
  6
CONTINUOUS
 10
329.0878875079
 20
514.0712906066
 11
329.4469289914
 21
513.7580989852
  0
LINE
  5
360
100
AcDbEntity
  8
BEZUGSACHSEN
100
AcDbLine
 62
7
  6
CONTINUOUS
 10
361.0013016734
 20
490.4356538841
 11
361.6040294025
 21
489.8355475304
  0
LINE
  5
361
100
AcDbEntity
  8
BEZUGSACHSEN
100
AcDbLine
 62
7
  6
CONTINUOUS
 10
358.401405846
 20
498.4043031985
 11
359.9767889931
 21
496.6830808276
  0
LINE
  5
362
100
AcDbEntity
  8
BEZUGSACHSEN
100
AcDbLine
 62
7
  6
CONTINUOUS
 10
360.604590909
 20
497.2576890681
 11
359.0292077618
 21
498.978911439
  0
LINE
  5
363
100
AcDbEntity
  8
BEZUGSACHSEN
100
AcDbLine
 62
7
  6
CONTINUOUS
 10
357.1561760196
 20
502.3651646613
 11
356.6107742171
 21
503.0178191913
  0
LINE
  5
364
100
AcDbEntity
  8
BEZUGSACHSEN
100
AcDbLine
 62
7
  6
CONTINUOUS
 10
358.8300124132
 20
504.7314001014
 11
358.2846135932
 21
505.384052253
  0
LINE
  5
365
100
AcDbEntity
  8
BEZUGSACHSEN
100
AcDbLine
 62
7
  6
CONTINUOUS
 10
367.666168347
 20
494.8605326647
 11
365.4537289567
 21
498.1929660015
  0
LINE
  5
366
100
AcDbEntity
  8
BEZUGSACHSEN
100
AcDbLine
 62
7
  6
CONTINUOUS
 10
355.1545502178
 20
498.5186497754
 11
355.9699698128
 21
498.7392150169
  0
LINE
  5
367
100
AcDbEntity
  8
BEZUGSACHSEN
100
AcDbLine
 62
7
  6
CONTINUOUS
 10
356.0358352225
 20
506.3065544007
 11
355.2204156646
 21
506.0859892058
  0
LINE
  5
368
100
AcDbEntity
  8
BEZUGSACHSEN
100
AcDbLine
 62
7
  6
CONTINUOUS
 10
362.3981891224
 20
489.562576799
 11
363.2419667239
 21
489.5226080481
  0
LINE
  5
369
100
AcDbEntity
  8
BEZUGSACHSEN
100
AcDbLine
 62
7
  6
CONTINUOUS
 10
365.3761082671
 20
491.5396502918
 11
366.2198858189
 21
491.4996815079
  0
LINE
  5
36A
100
AcDbEntity
  8
BEZUGSACHSEN
100
AcDbLine
 62
7
  6
CONTINUOUS
 10
362.8306626326
 20
490.449862794
 11
362.3626798635
 21
490.5392749333
  0
LINE
  5
36B
100
AcDbEntity
  8
BEZUGSACHSEN
100
AcDbLine
 62
7
  6
CONTINUOUS
 10
365.8085816283
 20
492.4269361879
 11
365.3405989585
 21
492.5163483931
  0
LINE
  5
36C
100
AcDbEntity
  8
BEZUGSACHSEN
100
AcDbLine
 62
7
  6
CONTINUOUS
 10
306.4732320911
 20
506.1109194945
 11
305.655711344
 21
506.3235644772
  0
LINE
  5
36D
100
AcDbEntity
  8
BEZUGSACHSEN
100
AcDbLine
 62
7
  6
CONTINUOUS
 10
361.6040294025
 20
489.8355475304
 11
362.3981891224
 21
489.562576799
  0
LINE
  5
36E
100
AcDbEntity
  8
BEZUGSACHSEN
100
AcDbLine
 62
7
  6
CONTINUOUS
 10
365.0499312542
 20
491.7232088427
 11
365.3761082671
 21
491.5396502918
  0
LINE
  5
36F
100
AcDbEntity
  8
BEZUGSACHSEN
100
AcDbLine
 62
7
  6
CONTINUOUS
 10
348.6331528541
 20
502.3381460693
 11
349.499326459
 21
501.8384028491
  0
LINE
  5
370
100
AcDbEntity
  8
BEZUGSACHSEN
100
AcDbLine
 62
7
  6
CONTINUOUS
 10
329.8919056713
 20
514.4761197474
 11
329.1871885366
 21
514.932815827
  0
LINE
  5
371
100
AcDbEntity
  8
BEZUGSACHSEN
100
AcDbLine
 62
7
  6
CONTINUOUS
 10
362.3626798635
 20
490.5392749333
 11
361.9443192827
 21
490.8616827545
  0
LINE
  5
372
100
AcDbEntity
  8
BEZUGSACHSEN
100
AcDbLine
 62
7
  6
CONTINUOUS
 10
365.3405989585
 20
492.5163483931
 11
364.9222383777
 21
492.8387562144
  0
LINE
  5
373
100
AcDbEntity
  8
BEZUGSACHSEN
100
AcDbLine
 62
7
  6
CONTINUOUS
 10
352.7754686323
 20
499.5450653597
 11
353.4269934675
 21
499.0254908084
  0
LINE
  5
374
100
AcDbEntity
  8
BEZUGSACHSEN
100
AcDbLine
 62
7
  6
CONTINUOUS
 10
354.0879297772
 20
499.5869630417
 11
353.175792622
 21
500.3143693162
  0
LINE
  5
375
100
AcDbEntity
  8
BEZUGSACHSEN
100
AcDbLine
 62
7
  6
CONTINUOUS
 10
355.2983131465
 20
502.9759216025
 11
356.2104503017
 21
502.248515328
  0
LINE
  5
376
100
AcDbEntity
  8
BEZUGSACHSEN
100
AcDbLine
 62
7
  6
CONTINUOUS
 10
356.6107742171
 20
503.0178191913
 11
355.9592493819
 21
503.5373937426
  0
LINE
  5
377
100
AcDbEntity
  8
BEZUGSACHSEN
100
AcDbLine
 62
7
  6
CONTINUOUS
 10
358.2899739201
 20
502.98496303
 11
358.9414987552
 21
502.4653884787
  0
LINE
  5
378
100
AcDbEntity
  8
BEZUGSACHSEN
100
AcDbLine
 62
7
  6
CONTINUOUS
 10
357.1024557002
 20
505.238241181
 11
357.8842866953
 21
504.6147507681
  0
LINE
  5
379
100
AcDbEntity
  8
BEZUGSACHSEN
100
AcDbLine
 62
7
  6
CONTINUOUS
 10
298.9312388968
 20
500.2811881216
 11
298.1155600652
 21
500.0815291994
  0
LINE
  5
37A
100
AcDbEntity
  8
BEZUGSACHSEN
100
AcDbLine
 62
7
  6
CONTINUOUS
 10
322.7100538717
 20
506.1591234661
 11
323.6866416699
 21
506.3742426709
  0
LINE
  5
37B
100
AcDbEntity
  8
BEZUGSACHSEN
100
AcDbLine
 62
7
  6
CONTINUOUS
 10
353.7252427384
 20
503.1418533586
 11
354.1981041061
 21
503.2001792144
  0
LINE
  5
37C
100
AcDbEntity
  8
BEZUGSACHSEN
100
AcDbLine
 62
7
  6
CONTINUOUS
 10
298.674447673
 20
499.4184062883
 11
299.1486183287
 21
499.4649135089
  0
LINE
  5
37D
100
AcDbEntity
  8
BEZUGSACHSEN
100
AcDbLine
 62
7
  6
CONTINUOUS
 10
324.9837926325
 20
506.7475772757
 11
325.9807030744
 21
506.8261238923
  0
LINE
  5
37E
100
AcDbEntity
  8
BEZUGSACHSEN
100
AcDbLine
 62
7
  6
CONTINUOUS
 10
299.7751569117
 20
500.2443039143
 11
298.9312388968
 21
500.2811881216
  0
LINE
  5
37F
100
AcDbEntity
  8
BEZUGSACHSEN
100
AcDbLine
 62
7
  6
CONTINUOUS
 10
355.1881388176
 20
499.3627054298
 11
354.5849712899
 21
499.4082954355
  0
LINE
  5
380
100
AcDbEntity
  8
BEZUGSACHSEN
100
AcDbLine
 62
7
  6
CONTINUOUS
 10
354.1981041061
 20
503.2001792144
 11
354.8012716339
 21
503.1545892086
  0
LINE
  5
381
100
AcDbEntity
  8
BEZUGSACHSEN
100
AcDbLine
 62
7
  6
CONTINUOUS
 10
355.2015985317
 20
503.9238906935
 11
353.9952634762
 21
504.0150707051
  0
LINE
  5
382
100
AcDbEntity
  8
BEZUGSACHSEN
100
AcDbLine
 62
7
  6
CONTINUOUS
 10
305.2240803006
 20
505.5336100025
 11
305.6974859401
 21
505.4798744016
  0
LINE
  5
383
100
AcDbEntity
  8
BEZUGSACHSEN
100
AcDbLine
 62
7
  6
CONTINUOUS
 10
354.1846473095
 20
498.6389914907
 11
355.1545502178
 21
498.5186497754
  0
LINE
  5
384
100
AcDbEntity
  8
BEZUGSACHSEN
100
AcDbLine
 62
7
  6
CONTINUOUS
 10
338.0722890789
 20
507.7275898776
 11
339.0888493478
 21
507.3666064934
  0
LINE
  5
385
100
AcDbEntity
  8
BEZUGSACHSEN
100
AcDbLine
 62
7
  6
CONTINUOUS
 10
354.5849712899
 20
499.4082954355
 11
354.0879297772
 21
499.5869630417
  0
LINE
  5
386
100
AcDbEntity
  8
BEZUGSACHSEN
100
AcDbLine
 62
7
  6
CONTINUOUS
 10
354.8012716339
 20
503.1545892086
 11
355.2983131465
 21
502.9759216025
  0
LINE
  5
387
100
AcDbEntity
  8
BEZUGSACHSEN
100
AcDbLine
 62
7
  6
CONTINUOUS
 10
353.4269934675
 20
499.0254908084
 11
354.1846473095
 21
498.6389914907
  0
LINE
  5
388
100
AcDbEntity
  8
BEZUGSACHSEN
100
AcDbLine
 62
7
  6
CONTINUOUS
 10
355.9592493819
 20
503.5373937426
 11
355.2015985317
 21
503.9238906935
  0
LINE
  5
389
100
AcDbEntity
  8
BEZUGSACHSEN
100
AcDbLine
 62
7
  6
CONTINUOUS
 10
357.7633919355
 20
505.7997133211
 11
357.0057410853
 21
506.186210272
  0
LINE
  5
38A
100
AcDbEntity
  8
BEZUGSACHSEN
100
AcDbLine
 62
7
  6
CONTINUOUS
 10
346.4322890789
 20
510.0621617344
 11
345.5922890789
 21
510.5072943254
  0
LINE
  5
38B
100
AcDbEntity
  8
BEZUGSACHSEN
100
AcDbLine
 62
7
  6
CONTINUOUS
 10
353.4972722207
 20
508.7677916884
 11
352.6310986158
 21
509.2675349086
  0
LINE
  5
38C
100
AcDbEntity
  8
BEZUGSACHSEN
100
AcDbLine
 62
7
  6
CONTINUOUS
 10
358.2846135932
 20
505.384052253
 11
357.7633919355
 21
505.7997133211
  0
LINE
  5
38D
100
AcDbEntity
  8
BEZUGSACHSEN
100
AcDbLine
 62
7
  6
CONTINUOUS
 10
321.9656880313
 20
514.186945057
 11
320.989100233
 21
513.9718258522
  0
LINE
  5
38E
100
AcDbEntity
  8
BEZUGSACHSEN
100
AcDbLine
 62
7
  6
CONTINUOUS
 10
325.6999406963
 20
510.3895485009
 11
328.6906720218
 21
510.6251883505
  0
LINE
  5
38F
100
AcDbEntity
  8
BEZUGSACHSEN
100
AcDbLine
 62
7
  6
CONTINUOUS
 10
328.7766072182
 20
511.6564007341
 11
325.6197228847
 21
511.4076696818
  0
LINE
  5
390
100
AcDbEntity
  8
BEZUGSACHSEN
100
AcDbLine
 62
7
  6
CONTINUOUS
 10
325.4191783183
 20
513.9529731095
 11
328.5760626517
 21
514.2017041618
  0
LINE
  5
391
100
AcDbEntity
  8
BEZUGSACHSEN
100
AcDbLine
 62
7
  6
CONTINUOUS
 10
328.3430614674
 20
515.0370472766
 11
324.3554197001
 21
514.7228608104
  0
LINE
  5
392
100
AcDbEntity
  8
BEZUGSACHSEN
100
AcDbLine
 62
7
  6
CONTINUOUS
 10
305.655711344
 20
506.3235644772
 11
304.816311243
 21
506.2989931949
  0
LINE
  5
393
100
AcDbEntity
  8
BEZUGSACHSEN
100
AcDbLine
 62
7
  6
CONTINUOUS
 10
356.0022466597
 20
505.4624987929
 11
356.6054141875
 21
505.4169087871
  0
LINE
  5
394
100
AcDbEntity
  8
BEZUGSACHSEN
100
AcDbLine
 62
7
  6
CONTINUOUS
 10
329.1871885366
 20
514.932815827
 11
328.3430614674
 21
515.0370472766
  0
LINE
  5
395
100
AcDbEntity
  8
BEZUGSACHSEN
100
AcDbLine
 62
7
  6
CONTINUOUS
 10
357.0057410853
 20
506.186210272
 11
356.0358352225
 21
506.3065544007
  0
LINE
  5
396
100
AcDbEntity
  8
BEZUGSACHSEN
100
AcDbLine
 62
7
  6
CONTINUOUS
 10
328.5760626517
 20
514.2017041618
 11
329.0878875079
 21
514.0712906066
  0
LINE
  5
397
100
AcDbEntity
  8
BEZUGSACHSEN
100
AcDbLine
 62
7
  6
CONTINUOUS
 10
356.6054141875
 20
505.4169087871
 11
357.1024557002
 21
505.238241181
  0
LINE
  5
398
100
AcDbEntity
  8
FASEN
100
AcDbLine
 62
7
  6
CONTINUOUS
 10
377.8522890789
 20
257.0196892064
 11
380.8522890789
 21
260.0196892064
  0
LINE
  5
399
100
AcDbEntity
  8
FASEN
100
AcDbLine
 62
7
  6
CONTINUOUS
 10
586.3542214737
 20
257.0196892064
 11
492.3542214737
 21
257.0196892064
  0
LINE
  5
39A
100
AcDbEntity
  8
FASEN
100
AcDbLine
 62
7
  6
CONTINUOUS
 10
589.3542214737
 20
260.0196892064
 11
489.3542214737
 21
260.0196892064
  0
LINE
  5
39B
100
AcDbEntity
  8
FASEN
100
AcDbLine
 62
7
  6
CONTINUOUS
 10
492.3542214737
 20
257.0196892064
 11
489.3542214737
 21
260.0196892064
  0
LINE
  5
39C
100
AcDbEntity
  8
FASEN
100
AcDbLine
 62
7
  6
CONTINUOUS
 10
489.3542214737
 20
275.5196892064
 11
589.3542214737
 21
275.5196892064
  0
LINE
  5
39D
100
AcDbEntity
  8
FASEN
100
AcDbLine
 62
7
  6
CONTINUOUS
 10
489.8542214737
 20
276.0196892064
 11
588.8542214737
 21
276.0196892064
  0
LINE
  5
39E
100
AcDbEntity
  8
RUNDUNGEN
100
AcDbLine
 62
7
  6
CONTINUOUS
 10
567.4211414846
 20
318.0196892064
 11
511.2873019821
 21
318.0196892064
  0
LINE
  5
39F
100
AcDbEntity
  8
FASEN
100
AcDbLine
 62
7
  6
CONTINUOUS
 10
489.3542214737
 20
260.0196892064
 11
489.3542214737
 21
275.5196892064
  0
LINE
  5
3A0
100
AcDbEntity
  8
BEZUGSACHSEN
100
AcDbLine
 62
7
  6
CONTINUOUS
 10
489.3542214737
 20
260.0196892064
 11
489.3542214737
 21
275.5196892064
  0
LINE
  5
3A1
100
AcDbEntity
  8
0
100
AcDbLine
 62
7
  6
CONTINUOUS
 10
509.2654979477
 20
351.5446891468
 11
509.9037961016
 21
351.2946892064
  0
LINE
  5
3A2
100
AcDbEntity
  8
0
100
AcDbLine
 62
7
  6
CONTINUOUS
 10
509.6484766254
 20
352.0446892064
 11
509.2654979477
 21
352.2946893256
  0
LINE
  5
3A3
100
AcDbEntity
  8
0
100
AcDbLine
 62
7
  6
CONTINUOUS
 10
508.7548597107
 20
351.9196893256
 11
509.2654979477
 21
351.5446891468
  0
LINE
  5
3A4
100
AcDbEntity
  8
0
100
AcDbLine
 62
7
  6
CONTINUOUS
 10
508.2442214737
 20
349.4196892064
 11
509.1378383884
 21
348.6696892064
  0
LINE
  5
3A5
100
AcDbEntity
  8
0
100
AcDbLine
 62
7
  6
CONTINUOUS
 10
510.1591152201
 20
348.6696892064
 11
509.2654979477
 21
349.4196892064
  0
LINE
  5
3A6
100
AcDbEntity
  8
0
100
AcDbLine
 62
7
  6
CONTINUOUS
 10
511.6910299311
 20
352.0446892064
 11
511.4357108126
 21
352.2946893256
  0
LINE
  5
3A7
100
AcDbEntity
  8
0
100
AcDbLine
 62
7
  6
CONTINUOUS
 10
508.4942214737
 20
345.7942098807
 11
509.0342214737
 21
345.0577428071
  0
LINE
  5
3A8
100
AcDbEntity
  8
0
100
AcDbLine
 62
7
  6
CONTINUOUS
 10
509.5344864283
 20
344.3754674977
 11
512.3219591905
 21
340.573834335
  0
LINE
  5
3A9
100
AcDbEntity
  8
0
100
AcDbLine
 62
7
  6
CONTINUOUS
 10
512.8222241451
 20
339.8915590255
 11
513.7742214737
 21
338.5931984947
  0
LINE
  5
3AA
100
AcDbEntity
  8
0
100
AcDbLine
 62
7
  6
CONTINUOUS
 10
513.7742214737
 20
339.4631984947
 11
513.2439753314
 21
340.1863629848
  0
LINE
  5
3AB
100
AcDbEntity
  8
0
100
AcDbLine
 62
7
  6
CONTINUOUS
 10
512.7461671181
 20
340.865287722
 11
509.9400122479
 21
344.6924000651
  0
LINE
  5
3AC
100
AcDbEntity
  8
0
100
AcDbLine
 62
7
  6
CONTINUOUS
 10
509.4422040345
 20
345.3713248023
 11
508.4942214737
 21
346.6642098807
  0
LINE
  5
3AD
100
AcDbEntity
  8
0
100
AcDbLine
 62
7
  6
CONTINUOUS
 10
509.2654979477
 20
352.2946893256
 11
509.0101788292
 21
352.6696893256
  0
LINE
  5
3AE
100
AcDbEntity
  8
0
100
AcDbLine
 62
7
  6
CONTINUOUS
 10
495.3542214737
 20
344.6799432443
 11
495.3542214737
 21
276.0196892064
  0
LINE
  5
3AF
100
AcDbEntity
  8
RUNDUNGEN
100
AcDbLine
 62
7
  6
CONTINUOUS
 10
499.3542214737
 20
353.6372580528
 11
499.3542214737
 21
383.1896060104
  0
LINE
  5
3B0
100
AcDbEntity
  8
0
100
AcDbLine
 62
7
  6
CONTINUOUS
 10
573.3423580335
 20
348.626497581
 11
571.8315224631
 21
348.626497581
  0
LINE
  5
3B1
100
AcDbEntity
  8
0
100
AcDbLine
 62
7
  6
CONTINUOUS
 10
564.9033192328
 20
348.626497581
 11
563.3924836624
 21
348.626497581
  0
LINE
  5
3B2
100
AcDbEntity
  8
0
100
AcDbLine
 62
7
  6
CONTINUOUS
 10
509.1378383884
 20
348.6696892064
 11
510.1591152201
 21
348.6696892064
  0
LINE
  5
3B3
100
AcDbEntity
  8
0
100
AcDbLine
 62
7
  6
CONTINUOUS
 10
509.2654979477
 20
349.4196892064
 11
514.2442214737
 21
349.4196892064
  0
LINE
  5
3B4
100
AcDbEntity
  8
0
100
AcDbLine
 62
7
  6
CONTINUOUS
 10
514.2442214737
 20
350.1696892064
 11
508.2442214737
 21
350.1696892064
  0
LINE
  5
3B5
100
AcDbEntity
  8
0
100
AcDbLine
 62
7
  6
CONTINUOUS
 10
510.7974130163
 20
351.1696891468
 11
511.6910299311
 21
351.1696891468
  0
LINE
  5
3B6
100
AcDbEntity
  8
0
100
AcDbLine
 62
7
  6
CONTINUOUS
 10
511.0527321348
 20
351.7946890872
 11
510.7974130163
 21
351.7946890872
  0
LINE
  5
3B7
100
AcDbEntity
  8
0
100
AcDbLine
 62
7
  6
CONTINUOUS
 10
512.4569874654
 20
351.9196893256
 11
512.0740087876
 21
351.9196893256
  0
LINE
  5
3B8
100
AcDbEntity
  8
0
100
AcDbLine
 62
7
  6
CONTINUOUS
 10
509.9037961016
 20
351.2946892064
 11
510.7974130163
 21
351.1696891468
  0
LINE
  5
3B9
100
AcDbEntity
  8
0
100
AcDbLine
 62
7
  6
CONTINUOUS
 10
510.7974130163
 20
351.7946890872
 11
510.0314556608
 21
351.9196893256
  0
LINE
  5
3BA
100
AcDbEntity
  8
0
100
AcDbLine
 62
7
  6
CONTINUOUS
 10
510.0314556608
 20
351.9196893256
 11
509.6484766254
 21
352.0446892064
  0
LINE
  5
3BB
100
AcDbEntity
  8
0
100
AcDbLine
 62
7
  6
CONTINUOUS
 10
512.0740087876
 20
351.9196893256
 11
511.6910299311
 21
352.0446892064
  0
LINE
  5
3BC
100
AcDbEntity
  8
0
100
AcDbLine
 62
7
  6
CONTINUOUS
 10
512.4569874654
 20
355.0446892064
 11
512.8399661431
 21
354.919688968
  0
LINE
  5
3BD
100
AcDbEntity
  8
0
100
AcDbLine
 62
7
  6
CONTINUOUS
 10
513.2229449103
 20
355.4196892064
 11
512.5846470246
 21
355.669688968
  0
LINE
  5
3BE
100
AcDbEntity
  8
0
100
AcDbLine
 62
7
  6
CONTINUOUS
 10
512.8399661431
 20
354.919688968
 11
513.2229449103
 21
354.6696892064
  0
LINE
  5
3BF
100
AcDbEntity
  8
0
100
AcDbLine
 62
7
  6
CONTINUOUS
 10
513.733583192
 20
355.0446892064
 11
513.2229449103
 21
355.4196892064
  0
LINE
  5
3C0
100
AcDbEntity
  8
FASEN
100
AcDbLine
 62
7
  6
CONTINUOUS
 10
588.8542214737
 20
276.0196892064
 11
589.3542214737
 21
275.5196892064
  0
LINE
  5
3C1
100
AcDbEntity
  8
0
100
AcDbLine
 62
7
  6
CONTINUOUS
 10
510.5420938978
 20
352.5446890872
 11
511.0527321348
 21
351.7946890872
  0
LINE
  5
3C2
100
AcDbEntity
  8
0
100
AcDbLine
 62
7
  6
CONTINUOUS
 10
511.4357108126
 20
352.2946893256
 11
511.1803916941
 21
352.6696893256
  0
LINE
  5
3C3
100
AcDbEntity
  8
0
100
AcDbLine
 62
7
  6
CONTINUOUS
 10
513.2229449103
 20
354.6696892064
 11
513.4782640288
 21
354.2946892064
  0
LINE
  5
3C4
100
AcDbEntity
  8
0
100
AcDbLine
 62
7
  6
CONTINUOUS
 10
508.3718810329
 20
352.5446890872
 11
508.7548597107
 21
351.9196893256
  0
LINE
  5
3C5
100
AcDbEntity
  8
0
100
AcDbLine
 62
7
  6
CONTINUOUS
 10
514.1165619033
 20
354.4196890872
 11
513.733583192
 21
355.0446892064
  0
LINE
  5
3C6
100
AcDbEntity
  8
0
100
AcDbLine
 62
7
  6
CONTINUOUS
 10
509.0101788292
 20
352.6696893256
 11
508.8825192699
 21
353.0446893256
  0
LINE
  5
3C7
100
AcDbEntity
  8
0
100
AcDbLine
 62
7
  6
CONTINUOUS
 10
511.1803916941
 20
352.6696893256
 11
511.0527321348
 21
353.0446893256
  0
LINE
  5
3C8
100
AcDbEntity
  8
0
100
AcDbLine
 62
7
  6
CONTINUOUS
 10
508.2442214737
 20
353.1696892064
 11
508.3718810329
 21
352.5446890872
  0
LINE
  5
3C9
100
AcDbEntity
  8
0
100
AcDbLine
 62
7
  6
CONTINUOUS
 10
508.2442214737
 20
353.6696890872
 11
508.2442214737
 21
353.1696892064
  0
LINE
  5
3CA
100
AcDbEntity
  8
0
100
AcDbLine
 62
7
  6
CONTINUOUS
 10
508.2442214737
 20
350.1696892064
 11
508.2442214737
 21
349.4196892064
  0
LINE
  5
3CB
100
AcDbEntity
  8
0
100
AcDbLine
 62
7
  6
CONTINUOUS
 10
508.4942214737
 20
346.6642098807
 11
508.4942214737
 21
345.7942098807
  0
LINE
  5
3CC
100
AcDbEntity
  8
0
100
AcDbLine
 62
7
  6
CONTINUOUS
 10
508.8825192699
 20
353.0446893256
 11
508.8825192699
 21
353.7946893256
  0
LINE
  5
3CD
100
AcDbEntity
  8
0
100
AcDbLine
 62
7
  6
CONTINUOUS
 10
509.6484766254
 20
354.7946894448
 11
509.6484766254
 21
355.4196892064
  0
LINE
  5
3CE
100
AcDbEntity
  8
0
100
AcDbLine
 62
7
  6
CONTINUOUS
 10
510.4144343386
 20
353.7946893256
 11
510.4144343386
 21
353.1696892064
  0
LINE
  5
3CF
100
AcDbEntity
  8
0
100
AcDbLine
 62
7
  6
CONTINUOUS
 10
511.0527321348
 20
353.0446893256
 11
511.0527321348
 21
353.9196892064
  0
LINE
  5
3D0
100
AcDbEntity
  8
RUNDUNGEN
100
AcDbLine
 62
7
  6
CONTINUOUS
 10
504.1599351964
 20
391.31407164
 11
500.0776132965
 21
385.4839117558
  0
LINE
  5
3D1
100
AcDbEntity
  8
0
100
AcDbLine
 62
7
  6
CONTINUOUS
 10
511.6910299311
 20
351.1696891468
 11
512.5846470246
 21
351.2946892064
  0
LINE
  5
3D2
100
AcDbEntity
  8
0
100
AcDbLine
 62
7
  6
CONTINUOUS
 10
512.0740087876
 20
355.0446892064
 11
512.4569874654
 21
355.0446892064
  0
LINE
  5
3D3
100
AcDbEntity
  8
0
100
AcDbLine
 62
7
  6
CONTINUOUS
 10
512.5846470246
 20
355.669688968
 11
511.9463490496
 21
355.669688968
  0
LINE
  5
3D4
100
AcDbEntity
  8
0
100
AcDbLine
 62
7
  6
CONTINUOUS
 10
569.1174208479
 20
356.126497581
 11
567.6065852776
 21
356.126497581
  0
LINE
  5
3D5
100
AcDbEntity
  8
0
100
AcDbLine
 62
7
  6
CONTINUOUS
 10
573.3423580335
 20
357.126497581
 11
571.8315224631
 21
357.126497581
  0
LINE
  5
3D6
100
AcDbEntity
  8
0
100
AcDbLine
 62
7
  6
CONTINUOUS
 10
564.9033192328
 20
357.126497581
 11
563.3924836624
 21
357.126497581
  0
LINE
  5
3D7
100
AcDbEntity
  8
0
100
AcDbLine
 62
7
  6
CONTINUOUS
 10
513.4782640288
 20
354.2946892064
 11
513.605923588
 21
353.9196892064
  0
LINE
  5
3D8
100
AcDbEntity
  8
0
100
AcDbLine
 62
7
  6
CONTINUOUS
 10
510.4144343386
 20
353.1696892064
 11
510.5420938978
 21
352.5446890872
  0
LINE
  5
3D9
100
AcDbEntity
  8
0
100
AcDbLine
 62
7
  6
CONTINUOUS
 10
514.2442214737
 20
353.7946893256
 11
514.1165619033
 21
354.4196890872
  0
LINE
  5
3DA
100
AcDbEntity
  8
0
100
AcDbLine
 62
7
  6
CONTINUOUS
 10
513.605923588
 20
353.9196892064
 11
513.605923588
 21
353.0446893256
  0
LINE
  5
3DB
100
AcDbEntity
  8
0
100
AcDbLine
 62
7
  6
CONTINUOUS
 10
513.7742214737
 20
338.5931984947
 11
513.7742214737
 21
339.4631984947
  0
LINE
  5
3DC
100
AcDbEntity
  8
0
100
AcDbLine
 62
7
  6
CONTINUOUS
 10
514.2442214737
 20
349.4196892064
 11
514.2442214737
 21
350.1696892064
  0
LINE
  5
3DD
100
AcDbEntity
  8
0
100
AcDbLine
 62
7
  6
CONTINUOUS
 10
514.2442214737
 20
353.1696892064
 11
514.2442214737
 21
353.7946893256
  0
LINE
  5
3DE
100
AcDbEntity
  8
0
100
AcDbLine
 62
7
  6
CONTINUOUS
 10
508.3718810329
 20
354.2946892064
 11
508.2442214737
 21
353.6696890872
  0
LINE
  5
3DF
100
AcDbEntity
  8
0
100
AcDbLine
 62
7
  6
CONTINUOUS
 10
510.5420938978
 20
354.4196890872
 11
510.4144343386
 21
353.7946893256
  0
LINE
  5
3E0
100
AcDbEntity
  8
KONSTRUKTIONSELEMENTE
100
AcDbLine
 62
7
  6
CONTINUOUS
 10
527.3542214737
 20
511.0196892064
 11
527.3542214737
 21
471.4434126141
  0
LINE
  5
3E1
100
AcDbEntity
  8
KONSTRUKTIONSELEMENTE
100
AcDbLine
 62
7
  6
CONTINUOUS
 10
527.3542214737
 20
386.5972909004
 11
527.3542214737
 21
347.0196892064
  0
LINE
  5
3E2
100
AcDbEntity
  8
0
100
AcDbLine
 62
7
  6
CONTINUOUS
 10
514.1165619033
 20
352.5446890872
 11
514.2442214737
 21
353.1696892064
  0
LINE
  5
3E3
100
AcDbEntity
  8
KONSTRUKTIONSELEMENTE
100
AcDbLine
 62
7
  6
CONTINUOUS
 10
527.3541475712
 20
386.5912101682
 11
531.3542214737
 21
401.5196892064
  0
LINE
  5
3E4
100
AcDbEntity
  8
KONSTRUKTIONSELEMENTE
100
AcDbLine
 62
7
  6
CONTINUOUS
 10
551.3542958651
 20
471.448170069
 11
547.3542214737
 21
456.5196892064
  0
LINE
  5
3E5
100
AcDbEntity
  8
0
100
AcDbLine
 62
7
  6
CONTINUOUS
 10
508.8825192699
 20
353.7946893256
 11
509.0101788292
 21
354.1696893256
  0
LINE
  5
3E6
100
AcDbEntity
  8
0
100
AcDbLine
 62
7
  6
CONTINUOUS
 10
511.0527321348
 20
353.9196892064
 11
511.1803916941
 21
354.2946892064
  0
LINE
  5
3E7
100
AcDbEntity
  8
0
100
AcDbLine
 62
7
  6
CONTINUOUS
 10
513.605923588
 20
353.0446893256
 11
513.4782640288
 21
352.6696893256
  0
LINE
  5
3E8
100
AcDbEntity
  8
RUNDUNGEN
100
AcDbLine
 62
7
  6
CONTINUOUS
 10
498.6843484926
 20
351.7876383988
 11
496.0240944548
 21
347.1799432443
  0
LINE
  5
3E9
100
AcDbEntity
  8
KONSTRUKTIONSELEMENTE
100
AcDbLine
 62
7
  6
CONTINUOUS
 10
531.3542214737
 20
456.5196892064
 11
531.3542214737
 21
401.5196892064
  0
LINE
  5
3EA
100
AcDbEntity
  8
0
100
AcDbLine
 62
7
  6
CONTINUOUS
 10
508.7548597107
 20
354.919688968
 11
508.3718810329
 21
354.2946892064
  0
LINE
  5
3EB
100
AcDbEntity
  8
0
100
AcDbLine
 62
7
  6
CONTINUOUS
 10
510.9250725756
 20
355.0446892064
 11
510.5420938978
 21
354.4196890872
  0
LINE
  5
3EC
100
AcDbEntity
  8
0
100
AcDbLine
 62
7
  6
CONTINUOUS
 10
513.733583192
 20
351.9196893256
 11
514.1165619033
 21
352.5446890872
  0
LINE
  5
3ED
100
AcDbEntity
  8
0
100
AcDbLine
 62
7
  6
CONTINUOUS
 10
509.0101788292
 20
354.1696893256
 11
509.2654979477
 21
354.5446893256
  0
LINE
  5
3EE
100
AcDbEntity
  8
0
100
AcDbLine
 62
7
  6
CONTINUOUS
 10
511.1803916941
 20
354.2946892064
 11
511.4357108126
 21
354.6696892064
  0
LINE
  5
3EF
100
AcDbEntity
  8
0
100
AcDbLine
 62
7
  6
CONTINUOUS
 10
513.4782640288
 20
352.6696893256
 11
513.2229449103
 21
352.2946893256
  0
LINE
  5
3F0
100
AcDbEntity
  8
KONSTRUKTIONSELEMENTE
100
AcDbLine
 62
7
  6
CONTINUOUS
 10
547.3542214737
 20
456.5196892064
 11
547.3542214737
 21
401.5196892064
  0
LINE
  5
3F1
100
AcDbEntity
  8
0
100
AcDbLine
 62
7
  6
CONTINUOUS
 10
548.3542214737
 20
451.5513101905
 11
548.3542214737
 21
439.5513101905
  0
LINE
  5
3F2
100
AcDbEntity
  8
0
100
AcDbLine
 62
7
  6
CONTINUOUS
 10
548.3542214737
 20
435.5513101905
 11
548.3542214737
 21
423.5513101905
  0
LINE
  5
3F3
100
AcDbEntity
  8
0
100
AcDbLine
 62
7
  6
CONTINUOUS
 10
548.3542214737
 20
420.5513101905
 11
548.3542214737
 21
408.5513101905
  0
LINE
  5
3F4
100
AcDbEntity
  8
0
100
AcDbLine
 62
7
  6
CONTINUOUS
 10
511.3080512533
 20
355.4196892064
 11
510.9250725756
 21
355.0446892064
  0
LINE
  5
3F5
100
AcDbEntity
  8
0
100
AcDbLine
 62
7
  6
CONTINUOUS
 10
511.4357108126
 20
354.6696892064
 11
511.6910299311
 21
354.919688968
  0
LINE
  5
3F6
100
AcDbEntity
  8
0
100
AcDbLine
 62
7
  6
CONTINUOUS
 10
509.2654979477
 20
355.294688968
 11
508.7548597107
 21
354.919688968
  0
LINE
  5
3F7
100
AcDbEntity
  8
0
100
AcDbLine
 62
7
  6
CONTINUOUS
 10
507.4128358163
 20
393.0196892064
 11
521.0580470102
 21
393.0196892064
  0
LINE
  5
3F8
100
AcDbEntity
  8
0
100
AcDbLine
 62
7
  6
CONTINUOUS
 10
557.6503959372
 20
393.0196892064
 11
571.2956071261
 21
393.0196892064
  0
LINE
  5
3F9
100
AcDbEntity
  8
KONSTRUKTIONSELEMENTE
100
AcDbLine
 62
7
  6
CONTINUOUS
 10
531.3542214737
 20
456.5196892064
 11
527.354163878
 21
471.4481073866
  0
LINE
  5
3FA
100
AcDbEntity
  8
KONSTRUKTIONSELEMENTE
100
AcDbLine
 62
7
  6
CONTINUOUS
 10
547.3542214737
 20
401.5196892064
 11
551.354279048
 21
386.591271106
  0
LINE
  5
3FB
100
AcDbEntity
  8
KONSTRUKTIONSELEMENTE
100
AcDbLine
 62
7
  6
CONTINUOUS
 10
551.3542214737
 20
507.7227340747
 11
551.3542214737
 21
506.3235644772
  0
LINE
  5
3FC
100
AcDbEntity
  8
KONSTRUKTIONSELEMENTE
100
AcDbLine
 62
7
  6
CONTINUOUS
 10
551.3542214737
 20
493.788314181
 11
551.3542214737
 21
471.4420543204
  0
LINE
  5
3FD
100
AcDbEntity
  8
KONSTRUKTIONSELEMENTE
100
AcDbLine
 62
7
  6
CONTINUOUS
 10
551.3542214737
 20
386.595964017
 11
551.3542214737
 21
347.0196892064
  0
LINE
  5
3FE
100
AcDbEntity
  8
BEZUGSACHSEN
100
AcDbLine
 62
7
  6
CONTINUOUS
 10
552.3542214737
 20
515.0370472766
 11
552.3542214737
 21
489.5226080481
  0
LINE
  5
3FF
100
AcDbEntity
  8
0
100
AcDbLine
 62
7
  6
CONTINUOUS
 10
513.2229449103
 20
351.5446891468
 11
513.733583192
 21
351.9196893256
  0
LINE
  5
400
100
AcDbEntity
  8
0
100
AcDbLine
 62
7
  6
CONTINUOUS
 10
509.2654979477
 20
354.5446893256
 11
509.6484766254
 21
354.7946894448
  0
LINE
  5
401
100
AcDbEntity
  8
0
100
AcDbLine
 62
7
  6
CONTINUOUS
 10
513.2229449103
 20
352.2946893256
 11
512.8399661431
 21
352.0446892064
  0
LINE
  5
402
100
AcDbEntity
  8
0
100
AcDbLine
 62
7
  6
CONTINUOUS
 10
547.3542214737
 20
408.5513101905
 11
548.3542214737
 21
408.5513101905
  0
LINE
  5
403
100
AcDbEntity
  8
RUNDUNGEN
100
AcDbLine
 62
7
  6
CONTINUOUS
 10
582.6843484926
 20
347.1799432443
 11
580.0240944548
 21
351.7876383988
  0
LINE
  5
404
100
AcDbEntity
  8
0
100
AcDbLine
 62
7
  6
CONTINUOUS
 10
567.6065852776
 20
356.126497581
 11
567.6065852776
 21
353.210194135
  0
LINE
  5
405
100
AcDbEntity
  8
0
100
AcDbLine
 62
7
  6
CONTINUOUS
 10
511.9463490496
 20
355.669688968
 11
511.3080512533
 21
355.4196892064
  0
LINE
  5
406
100
AcDbEntity
  8
0
100
AcDbLine
 62
7
  6
CONTINUOUS
 10
512.5846470246
 20
351.2946892064
 11
513.2229449103
 21
351.5446891468
  0
LINE
  5
407
100
AcDbEntity
  8
0
100
AcDbLine
 62
7
  6
CONTINUOUS
 10
509.6484766254
 20
355.4196892064
 11
509.2654979477
 21
355.294688968
  0
LINE
  5
408
100
AcDbEntity
  8
0
100
AcDbLine
 62
7
  6
CONTINUOUS
 10
511.6910299311
 20
354.919688968
 11
512.0740087876
 21
355.0446892064
  0
LINE
  5
409
100
AcDbEntity
  8
0
100
AcDbLine
 62
7
  6
CONTINUOUS
 10
512.8399661431
 20
352.0446892064
 11
512.4569874654
 21
351.9196893256
  0
LINE
  5
40A
100
AcDbEntity
  8
RUNDUNGEN
100
AcDbLine
 62
7
  6
CONTINUOUS
 10
574.5485077351
 20
391.3140716627
 11
578.6308296509
 21
385.4839117558
  0
LINE
  5
40B
100
AcDbEntity
  8
0
100
AcDbLine
 62
7
  6
CONTINUOUS
 10
569.1174208479
 20
353.2077989982
 11
569.1174208479
 21
356.126497581
  0
LINE
  5
40C
100
AcDbEntity
  8
0
100
AcDbLine
 62
7
  6
CONTINUOUS
 10
547.3542214737
 20
420.5513101905
 11
548.3542214737
 21
420.5513101905
  0
LINE
  5
40D
100
AcDbEntity
  8
0
100
AcDbLine
 62
7
  6
CONTINUOUS
 10
547.3542214737
 20
423.5513101905
 11
548.3542214737
 21
423.5513101905
  0
LINE
  5
40E
100
AcDbEntity
  8
0
100
AcDbLine
 62
7
  6
CONTINUOUS
 10
547.3542214737
 20
423.8066293313
 11
548.3542214737
 21
423.8066293313
  0
LINE
  5
40F
100
AcDbEntity
  8
0
100
AcDbLine
 62
7
  6
CONTINUOUS
 10
547.3542214737
 20
424.3172676354
 11
548.3542214737
 21
424.3172676354
  0
LINE
  5
410
100
AcDbEntity
  8
0
100
AcDbLine
 62
7
  6
CONTINUOUS
 10
547.3542214737
 20
425.3385441988
 11
548.3542214737
 21
425.3385441988
  0
LINE
  5
411
100
AcDbEntity
  8
0
100
AcDbLine
 62
7
  6
CONTINUOUS
 10
547.3542214737
 20
426.3598208516
 11
548.3542214737
 21
426.3598208516
  0
LINE
  5
412
100
AcDbEntity
  8
0
100
AcDbLine
 62
7
  6
CONTINUOUS
 10
547.3542214737
 20
427.6364164441
 11
548.3542214737
 21
427.6364164441
  0
LINE
  5
413
100
AcDbEntity
  8
RUNDUNGEN
100
AcDbLine
 62
7
  6
CONTINUOUS
 10
579.3542214737
 20
383.1896060104
 11
579.3542214737
 21
353.6370604707
  0
LINE
  5
414
100
AcDbEntity
  8
0
100
AcDbLine
 62
7
  6
CONTINUOUS
 10
583.3542214737
 20
344.6799432443
 11
583.3542214737
 21
276.0196892064
  0
LINE
  5
415
100
AcDbEntity
  8
FASEN
100
AcDbLine
 62
7
  6
CONTINUOUS
 10
489.8542214737
 20
276.0196892065
 11
489.3542214737
 21
275.5196892065
  0
LINE
  5
416
100
AcDbEntity
  8
0
100
AcDbLine
 62
7
  6
CONTINUOUS
 10
547.3542214737
 20
435.5513101905
 11
548.3542214737
 21
435.5513101905
  0
LINE
  5
417
100
AcDbEntity
  8
FASEN
100
AcDbLine
 62
7
  6
CONTINUOUS
 10
589.3542214737
 20
260.0196892064
 11
589.3542214737
 21
275.5196892064
  0
LINE
  5
418
100
AcDbEntity
  8
BEZUGSACHSEN
100
AcDbLine
 62
7
  6
CONTINUOUS
 10
589.3542214737
 20
260.0196892064
 11
589.3542214737
 21
275.5196892064
  0
LINE
  5
419
100
AcDbEntity
  8
0
100
AcDbLine
 62
7
  6
CONTINUOUS
 10
547.3542214737
 20
439.5513101905
 11
548.3542214737
 21
439.5513101905
  0
LINE
  5
41A
100
AcDbEntity
  8
0
100
AcDbLine
 62
7
  6
CONTINUOUS
 10
547.3542214737
 20
451.5513101905
 11
548.3542214737
 21
451.5513101905
  0
LINE
  5
41B
100
AcDbEntity
  8
BEZUGSACHSEN
100
AcDbLine
 62
7
  6
CONTINUOUS
 10
551.3542214737
 20
489.5226080481
 11
552.3542214737
 21
489.5226080481
  0
LINE
  5
41C
100
AcDbEntity
  8
BEZUGSACHSEN
100
AcDbLine
 62
7
  6
CONTINUOUS
 10
551.3542214737
 20
489.562576799
 11
552.3542214737
 21
489.562576799
  0
LINE
  5
41D
100
AcDbEntity
  8
BEZUGSACHSEN
100
AcDbLine
 62
7
  6
CONTINUOUS
 10
551.3542214737
 20
489.8355475304
 11
552.3542214737
 21
489.8355475304
  0
LINE
  5
41E
100
AcDbEntity
  8
BEZUGSACHSEN
100
AcDbLine
 62
7
  6
CONTINUOUS
 10
551.3542214737
 20
490.4356538841
 11
552.3542214737
 21
490.4356538841
  0
LINE
  5
41F
100
AcDbEntity
  8
BEZUGSACHSEN
100
AcDbLine
 62
7
  6
CONTINUOUS
 10
551.3542214737
 20
491.4088116376
 11
552.3542214737
 21
491.4088116376
  0
LINE
  5
420
100
AcDbEntity
  8
BEZUGSACHSEN
100
AcDbLine
 62
7
  6
CONTINUOUS
 10
550.5993446193
 20
496.4211203022
 11
552.3542214737
 21
496.4211203022
  0
LINE
  5
421
100
AcDbEntity
  8
BEZUGSACHSEN
100
AcDbLine
 62
7
  6
CONTINUOUS
 10
550.6358369688
 20
499.5386819235
 11
552.3542214737
 21
499.5386819235
  0
LINE
  5
422
100
AcDbEntity
  8
BEZUGSACHSEN
100
AcDbLine
 62
7
  6
CONTINUOUS
 10
550.6872088212
 20
500.0815291994
 11
552.3542214737
 21
500.0815291994
  0
LINE
  5
423
100
AcDbEntity
  8
BEZUGSACHSEN
100
AcDbLine
 62
7
  6
CONTINUOUS
 10
550.8424226884
 20
500.2811881216
 11
552.3542214737
 21
500.2811881216
  0
LINE
  5
424
100
AcDbEntity
  8
BEZUGSACHSEN
100
AcDbLine
 62
7
  6
CONTINUOUS
 10
550.599344613
 20
503.3809839955
 11
552.3542214737
 21
503.3809839955
  0
LINE
  5
425
100
AcDbEntity
  8
BEZUGSACHSEN
100
AcDbLine
 62
7
  6
CONTINUOUS
 10
550.6358369706
 20
505.9051643671
 11
552.3542214737
 21
505.9051643671
  0
LINE
  5
426
100
AcDbEntity
  8
BEZUGSACHSEN
100
AcDbLine
 62
7
  6
CONTINUOUS
 10
550.6872088312
 20
506.2989931949
 11
552.3542214737
 21
506.2989931949
  0
LINE
  5
427
100
AcDbEntity
  8
BEZUGSACHSEN
100
AcDbLine
 62
7
  6
CONTINUOUS
 10
550.8424226925
 20
506.3235644772
 11
552.3542214737
 21
506.3235644772
  0
LINE
  5
428
100
AcDbEntity
  8
BEZUGSACHSEN
100
AcDbLine
 62
7
  6
CONTINUOUS
 10
550.5924900422
 20
511.0943100372
 11
552.3542214737
 21
511.0943100372
  0
LINE
  5
429
100
AcDbEntity
  8
BEZUGSACHSEN
100
AcDbLine
 62
7
  6
CONTINUOUS
 10
550.616563782
 20
511.4484801774
 11
552.3542214737
 21
511.4484801774
  0
LINE
  5
42A
100
AcDbEntity
  8
BEZUGSACHSEN
100
AcDbLine
 62
7
  6
CONTINUOUS
 10
550.616563782
 20
513.1012746155
 11
552.3542214737
 21
513.1012746155
  0
LINE
  5
42B
100
AcDbEntity
  8
BEZUGSACHSEN
100
AcDbLine
 62
7
  6
CONTINUOUS
 10
550.5924900422
 20
513.4554447557
 11
552.3542214737
 21
513.4554447557
  0
LINE
  5
42C
100
AcDbEntity
  8
BEZUGSACHSEN
100
AcDbLine
 62
7
  6
CONTINUOUS
 10
550.6382893267
 20
513.9718258522
 11
552.3542214737
 21
513.9718258522
  0
LINE
  5
42D
100
AcDbEntity
  8
BEZUGSACHSEN
100
AcDbLine
 62
7
  6
CONTINUOUS
 10
550.6382893267
 20
514.186945057
 11
552.3542214737
 21
514.186945057
  0
LINE
  5
42E
100
AcDbEntity
  8
FASEN
100
AcDbLine
 62
7
  6
CONTINUOUS
 10
586.3542214737
 20
257.0196892064
 11
589.3542214737
 21
260.0196892064
  0
LINE
  5
42F
100
AcDbEntity
  8
BEZUGSACHSEN
100
AcDbLine
 62
7
  6
CONTINUOUS
 10
550.5993446005
 20
514.7228608104
 11
552.3542214737
 21
514.7228608104
  0
LINE
  5
430
100
AcDbEntity
  8
BEZUGSACHSEN
100
AcDbLine
 62
7
  6
CONTINUOUS
 10
550.6358369743
 20
515.0370472766
 11
552.3542214737
 21
515.0370472766
  0
LINE
  5
431
100
AcDbEntity
  8
RUNDUNGEN
100
AcDbLine
 62
7
  6
CONTINUOUS
 10
313.4166933131
 20
61.5576995629
 11
348.2878849853
 21
61.5576995629
  0
LINE
  5
432
100
AcDbEntity
  8
BEZUGSACHSEN
100
AcDbLine
 62
7
  6
CONTINUOUS
 10
294.9546279666
 20
90.3125764173
 11
294.9546279666
 21
88.5576995629
  0
LINE
  5
433
100
AcDbEntity
  8
BEZUGSACHSEN
100
AcDbLine
 62
7
  6
CONTINUOUS
 10
297.4607822989
 20
90.2760840677
 11
297.4607822989
 21
88.5576995629
  0
LINE
  5
434
100
AcDbEntity
  8
BEZUGSACHSEN
100
AcDbLine
 62
7
  6
CONTINUOUS
 10
298.1155600652
 20
90.2247122154
 11
298.1155600652
 21
88.5576995629
  0
LINE
  5
435
100
AcDbEntity
  8
BEZUGSACHSEN
100
AcDbLine
 62
7
  6
CONTINUOUS
 10
298.9312388968
 20
90.0694983481
 11
298.9312388968
 21
88.5576995629
  0
LINE
  5
436
100
AcDbEntity
  8
BEZUGSACHSEN
100
AcDbLine
 62
7
  6
CONTINUOUS
 10
299.7751569117
 20
89.8934958977
 11
299.7751569117
 21
88.5576995629
  0
LINE
  5
437
100
AcDbEntity
  8
BEZUGSACHSEN
100
AcDbLine
 62
7
  6
CONTINUOUS
 10
300.2775664518
 20
89.7843928662
 11
300.2775664518
 21
88.5576995629
  0
LINE
  5
438
100
AcDbEntity
  8
BEZUGSACHSEN
100
AcDbLine
 62
7
  6
CONTINUOUS
 10
300.8082155468
 20
89.670640709
 11
300.8082155468
 21
88.5576995629
  0
LINE
  5
439
100
AcDbEntity
  8
BEZUGSACHSEN
100
AcDbLine
 62
7
  6
CONTINUOUS
 10
300.9594598421
 20
90.3125764235
 11
300.9594598421
 21
88.5576995629
  0
LINE
  5
43A
100
AcDbEntity
  8
0
100
AcDbLine
 62
7
  6
CONTINUOUS
 10
307.3522890789
 20
67.5445001886
 11
306.3522890789
 21
67.5445001886
  0
LINE
  5
43B
100
AcDbEntity
  8
0
100
AcDbLine
 62
7
  6
CONTINUOUS
 10
307.3522890789
 20
67.5695630031
 11
306.3522890789
 21
67.5695630031
  0
LINE
  5
43C
100
AcDbEntity
  8
0
100
AcDbLine
 62
7
  6
CONTINUOUS
 10
307.3522890789
 20
69.0803985735
 11
306.3522890789
 21
69.0803985735
  0
LINE
  5
43D
100
AcDbEntity
  8
0
100
AcDbLine
 62
7
  6
CONTINUOUS
 10
307.3522890789
 20
71.7945001886
 11
306.3522890789
 21
71.7945001886
  0
LINE
  5
43E
100
AcDbEntity
  8
BEZUGSACHSEN
100
AcDbLine
 62
7
  6
CONTINUOUS
 10
304.0624444459
 20
90.2760840659
 11
304.0624444459
 21
88.5576995629
  0
LINE
  5
43F
100
AcDbEntity
  8
BEZUGSACHSEN
100
AcDbLine
 62
7
  6
CONTINUOUS
 10
304.816311243
 20
90.2247122053
 11
304.816311243
 21
88.5576995629
  0
LINE
  5
440
100
AcDbEntity
  8
BEZUGSACHSEN
100
AcDbLine
 62
7
  6
CONTINUOUS
 10
305.655711344
 20
90.0694983441
 11
305.655711344
 21
88.5576995629
  0
LINE
  5
441
100
AcDbEntity
  8
0
100
AcDbLine
 62
7
  6
CONTINUOUS
 10
306.3522890789
 20
67.5446701683
 11
306.3522890789
 21
69.0803985735
  0
LINE
  5
442
100
AcDbEntity
  8
0
100
AcDbLine
 62
7
  6
CONTINUOUS
 10
306.3522890789
 20
69.0997788394
 11
306.3522890789
 21
77.5443302089
  0
LINE
  5
443
100
AcDbEntity
  8
0
100
AcDbLine
 62
7
  6
CONTINUOUS
 10
306.3522890789
 20
126.4978016653
 11
306.3522890789
 21
126.626169087
  0
LINE
  5
444
100
AcDbEntity
  8
0
100
AcDbLine
 62
7
  6
CONTINUOUS
 10
306.3522890789
 20
126.6676995629
 11
306.3522890789
 21
132.9375610487
  0
LINE
  5
445
100
AcDbEntity
  8
0
100
AcDbLine
 62
7
  6
CONTINUOUS
 10
307.3522890789
 20
73.305335759
 11
306.3522890789
 21
73.305335759
  0
LINE
  5
446
100
AcDbEntity
  8
0
100
AcDbLine
 62
7
  6
CONTINUOUS
 10
307.3522890789
 20
76.0086018037
 11
306.3522890789
 21
76.0086018037
  0
LWPOLYLINE
  5
447
100
AcDbEntity
  8
RUNDUNGEN
100
AcDbPolyline
 62
7
  6
CONTINUOUS
 90
8
 70
0
 10
307.3523290683
 20
119.7674880483
 10
307.3566330465
 20
119.6046555311
 10
307.3967159779
 20
119.2072881591
 10
307.4780131505
 20
118.8161694564
 10
307.5993492102
 20
118.4356013248
 10
307.7592911936
 20
118.0688189374
 10
307.9562804162
 20
117.7194231054
 10
308.1880704423
 20
117.3910062674
  0
LINE
  5
448
100
AcDbEntity
  8
BEZUGSACHSEN
100
AcDbLine
 62
7
  6
CONTINUOUS
 10
306.4732320911
 20
89.8934958937
 11
306.4732320911
 21
88.5576995629
  0
LINE
  5
449
100
AcDbEntity
  8
BEZUGSACHSEN
100
AcDbLine
 62
7
  6
CONTINUOUS
 10
306.9247591165
 20
89.7843928697
 11
306.9247591165
 21
88.5576995629
  0
LINE
  5
44A
100
AcDbEntity
  8
RUNDUNGEN
100
AcDbLine
 62
7
  6
CONTINUOUS
 10
307.3522890789
 20
113.5576995629
 11
307.3522890789
 21
136.4826190331
  0
LINE
  5
44B
100
AcDbEntity
  8
BEZUGSACHSEN
100
AcDbLine
 62
7
  6
CONTINUOUS
 10
307.354407089
 20
89.6706407115
 11
307.354407089
 21
88.5576995629
  0
LINE
  5
44C
100
AcDbEntity
  8
BEZUGSACHSEN
100
AcDbLine
 62
7
  6
CONTINUOUS
 10
307.547351571
 20
89.6101758881
 11
307.547351571
 21
88.5576995629
  0
LINE
  5
44D
100
AcDbEntity
  8
BEZUGSACHSEN
100
AcDbLine
 62
7
  6
CONTINUOUS
 10
307.5891261671
 20
89.5646565323
 11
307.5891261671
 21
88.5576995629
  0
LINE
  5
44E
100
AcDbEntity
  8
BEZUGSACHSEN
100
AcDbLine
 62
7
  6
CONTINUOUS
 10
310.1188296577
 20
89.5586316084
 11
310.1188296577
 21
88.5576995629
  0
LINE
  5
44F
100
AcDbEntity
  8
RUNDUNGEN
100
AcDbLine
 62
7
  6
CONTINUOUS
 10
307.3522890789
 20
66.6327800927
 11
307.3522890789
 21
88.5576995629
  0
LINE
  5
450
100
AcDbEntity
  8
0
100
AcDbLine
 62
7
  6
CONTINUOUS
 10
307.3522890789
 20
77.5194373741
 11
306.3522890789
 21
77.5194373741
  0
LINE
  5
451
100
AcDbEntity
  8
0
100
AcDbLine
 62
7
  6
CONTINUOUS
 10
307.3522890789
 20
77.5445001886
 11
306.3522890789
 21
77.5445001886
  0
LINE
  5
452
100
AcDbEntity
  8
0
100
AcDbLine
 62
7
  6
CONTINUOUS
 10
368.9574068454
 20
79.5576995629
 11
369.5336799536
 21
79.5576995629
  0
LINE
  5
453
100
AcDbEntity
  8
BEZUGSACHSEN
100
AcDbLine
 62
7
  6
CONTINUOUS
 10
312.1451829601
 20
89.5588312061
 11
312.1451829601
 21
88.5576995629
  0
LINE
  5
454
100
AcDbEntity
  8
BEZUGSACHSEN
100
AcDbLine
 62
7
  6
CONTINUOUS
 10
312.3002837575
 20
90.3194309944
 11
312.3002837575
 21
88.5576995629
  0
LINE
  5
455
100
AcDbEntity
  8
BEZUGSACHSEN
100
AcDbLine
 62
7
  6
CONTINUOUS
 10
313.2354647623
 20
90.2953572545
 11
313.2354647623
 21
88.5576995629
  0
LINE
  5
456
100
AcDbEntity
  8
0
100
AcDbLine
 62
7
  6
CONTINUOUS
 10
371.8400921428
 20
85.5576995629
 11
372.3763784729
 21
85.5576995629
  0
LINE
  5
457
100
AcDbEntity
  8
BEZUGSACHSEN
100
AcDbLine
 62
7
  6
CONTINUOUS
 10
317.5996439739
 20
90.2953572545
 11
317.5996439739
 21
88.5576995629
  0
LINE
  5
458
100
AcDbEntity
  8
BEZUGSACHSEN
100
AcDbLine
 62
7
  6
CONTINUOUS
 10
318.5348249787
 20
90.3194309944
 11
318.5348249787
 21
88.5576995629
  0
LINE
  5
459
100
AcDbEntity
  8
BEZUGSACHSEN
100
AcDbLine
 62
7
  6
CONTINUOUS
 10
318.8743688985
 20
89.5576995629
 11
318.8743688985
 21
88.5576995629
  0
LINE
  5
45A
100
AcDbEntity
  8
BEZUGSACHSEN
100
AcDbLine
 62
7
  6
CONTINUOUS
 10
320.989100233
 20
90.2736317098
 11
320.989100233
 21
88.5576995629
  0
LWPOLYLINE
  5
45B
100
AcDbEntity
  8
RUNDUNGEN
100
AcDbPolyline
 62
7
  6
CONTINUOUS
 90
8
 70
0
 10
308.1780222572
 20
85.7115299499
 10
307.9488587147
 20
85.3842002807
 10
307.7541471402
 20
85.0362198972
 10
307.5960963764
 20
84.6711276268
 10
307.4762422691
 20
84.2924641608
 10
307.3960006113
 20
83.90345057
 10
307.3565193446
 20
83.5083582293
 10
307.3523293091
 20
83.3479600924
  0
LINE
  5
45C
100
AcDbEntity
  8
BEZUGSACHSEN
100
AcDbLine
 62
7
  6
CONTINUOUS
 10
367.9852847497
 20
88.5576995629
 11
348.6331528541
 21
88.5576995629
  0
LINE
  5
45D
100
AcDbEntity
  8
BEZUGSACHSEN
100
AcDbLine
 62
7
  6
CONTINUOUS
 10
346.4322890789
 20
88.5576995629
 11
338.0722890789
 21
88.5576995629
  0
LINE
  5
45E
100
AcDbEntity
  8
BEZUGSACHSEN
100
AcDbLine
 62
7
  6
CONTINUOUS
 10
330.7035799255
 20
88.5576995629
 11
324.3554197001
 21
88.5576995629
  0
LINE
  5
45F
100
AcDbEntity
  8
BEZUGSACHSEN
100
AcDbLine
 62
7
  6
CONTINUOUS
 10
323.6866416699
 20
88.5576995629
 11
320.989100233
 21
88.5576995629
  0
LINE
  5
460
100
AcDbEntity
  8
BEZUGSACHSEN
100
AcDbLine
 62
7
  6
CONTINUOUS
 10
318.8743688985
 20
88.5576995629
 11
310.1188296577
 21
88.5576995629
  0
LINE
  5
461
100
AcDbEntity
  8
BEZUGSACHSEN
100
AcDbLine
 62
7
  6
CONTINUOUS
 10
307.5891261671
 20
88.5576995629
 11
294.9546279666
 21
88.5576995629
  0
LINE
  5
462
100
AcDbEntity
  8
KONSTRUKTIONSELEMENTE
100
AcDbLine
 62
7
  6
CONTINUOUS
 10
371.2739271121
 20
89.5576995629
 11
367.9852847497
 21
89.5576995629
  0
LINE
  5
463
100
AcDbEntity
  8
KONSTRUKTIONSELEMENTE
100
AcDbLine
 62
7
  6
CONTINUOUS
 10
361.9534789794
 20
89.5576995629
 11
359.1631592032
 21
89.5576995629
  0
LINE
  5
464
100
AcDbEntity
  8
KONSTRUKTIONSELEMENTE
100
AcDbLine
 62
7
  6
CONTINUOUS
 10
350.488984788
 20
89.5576995629
 11
346.4322890789
 21
89.5576995629
  0
LINE
  5
465
100
AcDbEntity
  8
KONSTRUKTIONSELEMENTE
100
AcDbLine
 62
7
  6
CONTINUOUS
 10
340.4444073296
 20
89.5576995629
 11
330.7035799255
 21
89.5576995629
  0
LINE
  5
466
100
AcDbEntity
  8
KONSTRUKTIONSELEMENTE
100
AcDbLine
 62
7
  6
CONTINUOUS
 10
324.3554197001
 20
89.5576995629
 11
322.8442615011
 21
89.5576995629
  0
LINE
  5
467
100
AcDbEntity
  8
KONSTRUKTIONSELEMENTE
100
AcDbLine
 62
7
  6
CONTINUOUS
 10
320.989100233
 20
89.5576995629
 11
318.7054491475
 21
89.5576995629
  0
LINE
  5
468
100
AcDbEntity
  8
KONSTRUKTIONSELEMENTE
100
AcDbLine
 62
7
  6
CONTINUOUS
 10
317.5996439739
 20
89.5576995629
 11
315.9648833321
 21
89.5576995629
  0
LINE
  5
469
100
AcDbEntity
  8
KONSTRUKTIONSELEMENTE
100
AcDbLine
 62
7
  6
CONTINUOUS
 10
312.3002837575
 20
89.5576995629
 11
307.5891261671
 21
89.5576995629
  0
LINE
  5
46A
100
AcDbEntity
  8
KONSTRUKTIONSELEMENTE
100
AcDbLine
 62
7
  6
CONTINUOUS
 10
294.9546279666
 20
89.5576995629
 11
290.4303881564
 21
89.5576995629
  0
LINE
  5
46B
100
AcDbEntity
  8
BEZUGSACHSEN
100
AcDbLine
 62
7
  6
CONTINUOUS
 10
321.9656880313
 20
90.2736317098
 11
321.9656880313
 21
88.5576995629
  0
LINE
  5
46C
100
AcDbEntity
  8
BEZUGSACHSEN
100
AcDbLine
 62
7
  6
CONTINUOUS
 10
323.6866416699
 20
89.5576995629
 11
323.6866416699
 21
88.5576995629
  0
LINE
  5
46D
100
AcDbEntity
  8
BEZUGSACHSEN
100
AcDbLine
 62
7
  6
CONTINUOUS
 10
324.3554197001
 20
90.3125764361
 11
324.3554197001
 21
88.5576995629
  0
LINE
  5
46E
100
AcDbEntity
  8
RUNDUNGEN
100
AcDbLine
 62
7
  6
CONTINUOUS
 10
308.631625986
 20
86.2679045974
 11
308.6088656603
 21
86.2386480117
  0
LINE
  5
46F
100
AcDbEntity
  8
RUNDUNGEN
100
AcDbLine
 62
7
  6
CONTINUOUS
 10
308.6088656603
 20
86.2386480117
 11
308.5412815054
 21
86.1526891337
  0
LWPOLYLINE
  5
470
100
AcDbEntity
  8
RUNDUNGEN
100
AcDbPolyline
 62
7
  6
CONTINUOUS
 90
3
 70
0
 10
308.5412815054
 20
86.1526891337
 10
308.4668848256
 20
86.0602578082
 10
308.3915997187
 20
85.9689180351
  0
LINE
  5
471
100
AcDbEntity
  8
RUNDUNGEN
100
AcDbLine
 62
7
  6
CONTINUOUS
 10
308.3003211159
 20
85.861104856
 11
308.1780222572
 21
85.7115299499
  0
LWPOLYLINE
  5
472
100
AcDbEntity
  8
RUNDUNGEN
100
AcDbPolyline
 62
7
  6
CONTINUOUS
 90
3
 70
0
 10
308.3915997187
 20
85.9689180351
 10
308.3154284274
 20
85.8787010866
 10
308.3004245421
 20
85.8611869842
  0
LINE
  5
473
100
AcDbEntity
  8
KONSTRUKTIONSELEMENTE
100
AcDbLine
 62
7
  6
CONTINUOUS
 10
384.3000440009
 20
93.5576995629
 11
382.660502216
 21
93.5576995629
  0
LINE
  5
474
100
AcDbEntity
  8
KONSTRUKTIONSELEMENTE
100
AcDbLine
 62
7
  6
CONTINUOUS
 10
279.0440759418
 20
93.5576995629
 11
277.4045341569
 21
93.5576995629
  0
LINE
  5
475
100
AcDbEntity
  8
RUNDUNGEN
100
AcDbLine
 62
7
  6
CONTINUOUS
 10
308.3002479495
 20
117.2543794803
 11
308.3205365651
 21
117.230716151
  0
LINE
  5
476
100
AcDbEntity
  8
RUNDUNGEN
100
AcDbLine
 62
7
  6
CONTINUOUS
 10
308.3205365651
 20
117.230716151
 11
308.3966811746
 21
117.1403845053
  0
LINE
  5
477
100
AcDbEntity
  8
RUNDUNGEN
100
AcDbLine
 62
7
  6
CONTINUOUS
 10
308.3966811746
 20
117.1403845053
 11
308.4719440839
 21
117.0489245186
  0
LINE
  5
478
100
AcDbEntity
  8
RUNDUNGEN
100
AcDbLine
 62
7
  6
CONTINUOUS
 10
308.1880704423
 20
117.3910062674
 11
308.3002479495
 21
117.2543794803
  0
LINE
  5
479
100
AcDbEntity
  8
RUNDUNGEN
100
AcDbLine
 62
7
  6
CONTINUOUS
 10
308.4719440839
 20
117.0489245186
 11
308.5463228572
 21
116.9563673298
  0
LINE
  5
47A
100
AcDbEntity
  8
RUNDUNGEN
100
AcDbLine
 62
7
  6
CONTINUOUS
 10
308.5463228572
 20
116.9563673298
 11
308.6205226753
 21
116.8618312415
  0
LINE
  5
47B
100
AcDbEntity
  8
RUNDUNGEN
100
AcDbLine
 62
7
  6
CONTINUOUS
 10
308.6205226753
 20
116.8618312415
 11
308.6316287825
 21
116.8474909262
  0
LINE
  5
47C
100
AcDbEntity
  8
BEZUGSACHSEN
100
AcDbLine
 62
7
  6
CONTINUOUS
 10
328.3430614674
 20
90.2760840623
 11
328.3430614674
 21
88.5576995629
  0
LINE
  5
47D
100
AcDbEntity
  8
BEZUGSACHSEN
100
AcDbLine
 62
7
  6
CONTINUOUS
 10
329.1871885366
 20
90.2247121853
 11
329.1871885366
 21
88.5576995629
  0
LINE
  5
47E
100
AcDbEntity
  8
BEZUGSACHSEN
100
AcDbLine
 62
7
  6
CONTINUOUS
 10
329.8919056713
 20
90.069498336
 11
329.8919056713
 21
88.5576995629
  0
LINE
  5
47F
100
AcDbEntity
  8
BEZUGSACHSEN
100
AcDbLine
 62
7
  6
CONTINUOUS
 10
330.4438394332
 20
89.8934958857
 11
330.4438394332
 21
88.5576995629
  0
LINE
  5
480
100
AcDbEntity
  8
BEZUGSACHSEN
100
AcDbLine
 62
7
  6
CONTINUOUS
 10
330.650101347
 20
89.7843928766
 11
330.650101347
 21
88.5576995629
  0
LINE
  5
481
100
AcDbEntity
  8
BEZUGSACHSEN
100
AcDbLine
 62
7
  6
CONTINUOUS
 10
330.7035799255
 20
89.6706407164
 11
330.7035799255
 21
88.5576995629
  0
LINE
  5
482
100
AcDbEntity
  8
RUNDUNGEN
100
AcDbLine
 62
7
  6
CONTINUOUS
 10
350.8447702819
 20
114.2415334752
 11
350.8446957096
 21
114.2414863961
  0
LINE
  5
483
100
AcDbEntity
  8
RUNDUNGEN
100
AcDbLine
 62
7
  6
CONTINUOUS
 10
310.8598917304
 20
114.241480536
 11
310.8598078759
 21
114.2415334752
  0
LINE
  5
484
100
AcDbEntity
  8
BEZUGSACHSEN
100
AcDbLine
 62
7
  6
CONTINUOUS
 10
338.0722890789
 20
89.5576995629
 11
338.0722890789
 21
88.5576995629
  0
LINE
  5
485
100
AcDbEntity
  8
BEZUGSACHSEN
100
AcDbLine
 62
7
  6
CONTINUOUS
 10
340.1772890789
 20
89.5576995629
 11
340.1772890789
 21
88.5576995629
  0
LWPOLYLINE
  5
486
100
AcDbEntity
  8
RUNDUNGEN
100
AcDbPolyline
 62
7
  6
CONTINUOUS
 90
8
 70
0
 10
353.526555924
 20
117.4038692082
 10
353.7557194978
 20
117.7311989338
 10
353.9504310657
 20
118.0791793367
 10
354.1084818064
 20
118.4442715782
 10
354.2283358916
 20
118.8229349779
 10
354.3085775382
 20
119.2119485106
 10
354.3480588075
 20
119.6070408313
 10
354.3522488579
 20
119.7674414495
  0
LWPOLYLINE
  5
487
100
AcDbEntity
  8
RUNDUNGEN
100
AcDbPolyline
 62
7
  6
CONTINUOUS
 90
3
 70
0
 10
353.0729538619
 20
116.8474967391
 10
353.089802748
 20
116.8692348245
 10
353.1633155006
 20
116.9627336876
  0
LWPOLYLINE
  5
488
100
AcDbEntity
  8
RUNDUNGEN
100
AcDbPolyline
 62
7
  6
CONTINUOUS
 90
3
 70
0
 10
353.1633155006
 20
116.9627336876
 10
353.2377145007
 20
117.0551673028
 10
353.3129973222
 20
117.1465037206
  0
LINE
  5
489
100
AcDbEntity
  8
RUNDUNGEN
100
AcDbLine
 62
7
  6
CONTINUOUS
 10
353.4042570471
 20
117.2542942794
 11
353.526555924
 21
117.4038692082
  0
LWPOLYLINE
  5
48A
100
AcDbEntity
  8
RUNDUNGEN
100
AcDbPolyline
 62
7
  6
CONTINUOUS
 90
3
 70
0
 10
353.3129973222
 20
117.1465037206
 10
353.3891616666
 20
117.2367120048
 10
353.4041536714
 20
117.2542122145
  0
LINE
  5
48B
100
AcDbEntity
  8
KONSTRUKTIONSELEMENTE
100
AcDbLine
 62
7
  6
CONTINUOUS
 10
384.3000440009
 20
109.5576995629
 11
382.660502216
 21
109.5576995629
  0
LINE
  5
48C
100
AcDbEntity
  8
KONSTRUKTIONSELEMENTE
100
AcDbLine
 62
7
  6
CONTINUOUS
 10
279.0440759418
 20
109.5576995629
 11
277.4045341569
 21
109.5576995629
  0
LINE
  5
48D
100
AcDbEntity
  8
RUNDUNGEN
100
AcDbLine
 62
7
  6
CONTINUOUS
 10
353.4043302188
 20
85.8610196254
 11
353.384035963
 21
85.8846895536
  0
LINE
  5
48E
100
AcDbEntity
  8
RUNDUNGEN
100
AcDbLine
 62
7
  6
CONTINUOUS
 10
353.384035963
 20
85.8846895536
 11
353.3078884605
 21
85.9750248483
  0
LINE
  5
48F
100
AcDbEntity
  8
RUNDUNGEN
100
AcDbLine
 62
7
  6
CONTINUOUS
 10
353.3078884605
 20
85.9750248483
 11
353.2326246884
 21
86.0664861475
  0
LINE
  5
490
100
AcDbEntity
  8
RUNDUNGEN
100
AcDbLine
 62
7
  6
CONTINUOUS
 10
353.5165078017
 20
85.7243927417
 11
353.4043302188
 21
85.8610196254
  0
LWPOLYLINE
  5
491
100
AcDbEntity
  8
RUNDUNGEN
100
AcDbPolyline
 62
7
  6
CONTINUOUS
 90
3
 70
0
 10
353.2326246884
 20
86.0664861475
 10
353.158246833
 20
86.1590424778
 10
353.0854927731
 20
86.2517247478
  0
LINE
  5
492
100
AcDbEntity
  8
RUNDUNGEN
100
AcDbLine
 62
7
  6
CONTINUOUS
 10
353.0854927731
 20
86.2517247478
 11
353.0729575281
 21
86.2678976531
  0
LINE
  5
493
100
AcDbEntity
  8
BEZUGSACHSEN
100
AcDbLine
 62
7
  6
CONTINUOUS
 10
344.8522890789
 20
89.673773187
 11
344.8522890789
 21
88.5576995629
  0
LINE
  5
494
100
AcDbEntity
  8
BEZUGSACHSEN
100
AcDbLine
 62
7
  6
CONTINUOUS
 10
345.5922890789
 20
89.7575516577
 11
345.5922890789
 21
88.5576995629
  0
LINE
  5
495
100
AcDbEntity
  8
BEZUGSACHSEN
100
AcDbLine
 62
7
  6
CONTINUOUS
 10
346.4322890789
 20
89.7379935589
 11
346.4322890789
 21
88.5576995629
  0
LINE
  5
496
100
AcDbEntity
  8
KONSTRUKTIONSELEMENTE
100
AcDbLine
 62
7
  6
CONTINUOUS
 10
371.2741540129
 20
113.5576995629
 11
290.4306519757
 21
113.5576995629
  0
LINE
  5
497
100
AcDbEntity
  8
0
100
AcDbLine
 62
7
  6
CONTINUOUS
 10
373.0393724102
 20
114.0576995629
 11
373.560602087
 21
114.0576995629
  0
LINE
  5
498
100
AcDbEntity
  8
0
100
AcDbLine
 62
7
  6
CONTINUOUS
 10
372.6486701875
 20
115.3077005165
 11
373.1747119039
 21
115.3077005165
  0
LINE
  5
499
100
AcDbEntity
  8
0
100
AcDbLine
 62
7
  6
CONTINUOUS
 10
372.3063298952
 20
116.3076995629
 11
372.8366611714
 21
116.3076995629
  0
LINE
  5
49A
100
AcDbEntity
  8
0
100
AcDbLine
 62
7
  6
CONTINUOUS
 10
371.9368059927
 20
117.3076986092
 11
372.471846141
 21
117.3076986092
  0
LINE
  5
49B
100
AcDbEntity
  8
BEZUGSACHSEN
100
AcDbLine
 62
7
  6
CONTINUOUS
 10
348.6331528541
 20
89.5576995629
 11
348.6331528541
 21
88.5576995629
  0
LINE
  5
49C
100
AcDbEntity
  8
BEZUGSACHSEN
100
AcDbLine
 62
7
  6
CONTINUOUS
 10
350.488984788
 20
89.656796301
 11
350.488984788
 21
88.5576995629
  0
LINE
  5
49D
100
AcDbEntity
  8
BEZUGSACHSEN
100
AcDbLine
 62
7
  6
CONTINUOUS
 10
351.1694863514
 20
89.9134635582
 11
351.1694863514
 21
88.5576995629
  0
LINE
  5
49E
100
AcDbEntity
  8
0
100
AcDbLine
 62
7
  6
CONTINUOUS
 10
371.7416214286
 20
117.8076995629
 11
372.2791825178
 21
117.8076995629
  0
LINE
  5
49F
100
AcDbEntity
  8
0
100
AcDbLine
 62
7
  6
CONTINUOUS
 10
371.6413811437
 20
118.0576986092
 11
372.1802460992
 21
118.0576986092
  0
LINE
  5
4A0
100
AcDbEntity
  8
0
100
AcDbLine
 62
7
  6
CONTINUOUS
 10
371.4355368543
 20
118.5576995629
 11
371.9770991089
 21
118.5576995629
  0
LINE
  5
4A1
100
AcDbEntity
  8
0
100
AcDbLine
 62
7
  6
CONTINUOUS
 10
370.5385582883
 20
120.5577005165
 11
371.0921941951
 21
120.5577005165
  0
LINE
  5
4A2
100
AcDbEntity
  8
0
100
AcDbLine
 62
7
  6
CONTINUOUS
 10
369.9155395661
 20
121.8076986092
 11
370.4778810445
 21
121.8076986092
  0
LWPOLYLINE
  5
4A3
100
AcDbEntity
  8
RUNDUNGEN
100
AcDbPolyline
 62
7
  6
CONTINUOUS
 90
8
 70
0
 10
354.3522490948
 20
83.3479097487
 10
354.3479451068
 20
83.5107436586
 10
354.3078621768
 20
83.9081109747
 10
354.2265650274
 20
84.2992295931
 10
354.1052290038
 20
84.6797976467
 10
353.9452870544
 20
85.0465799981
 10
353.7482978494
 20
85.3959758446
 10
353.5165078017
 20
85.7243927417
  0
LINE
  5
4A4
100
AcDbEntity
  8
BEZUGSACHSEN
100
AcDbLine
 62
7
  6
CONTINUOUS
 10
352.6310986158
 20
90.2725943352
 11
352.6310986158
 21
88.5576995629
  0
LINE
  5
4A5
100
AcDbEntity
  8
BEZUGSACHSEN
100
AcDbLine
 62
7
  6
CONTINUOUS
 10
353.4972722207
 20
90.2767483709
 11
353.4972722207
 21
88.5576995629
  0
LINE
  5
4A6
100
AcDbEntity
  8
BEZUGSACHSEN
100
AcDbLine
 62
7
  6
CONTINUOUS
 10
353.5559876888
 20
89.5835736532
 11
353.5559876888
 21
88.5576995629
  0
LINE
  5
4A7
100
AcDbEntity
  8
RUNDUNGEN
100
AcDbLine
 62
7
  6
CONTINUOUS
 10
354.3522890789
 20
66.6327800927
 11
354.3522890789
 21
88.5576995629
  0
LINE
  5
4A8
100
AcDbEntity
  8
BEZUGSACHSEN
100
AcDbLine
 62
7
  6
CONTINUOUS
 10
354.4291759543
 20
89.7195362146
 11
354.4291759543
 21
88.5576995629
  0
LINE
  5
4A9
100
AcDbEntity
  8
BEZUGSACHSEN
100
AcDbLine
 62
7
  6
CONTINUOUS
 10
355.2204156646
 20
89.8870816904
 11
355.2204156646
 21
88.5576995629
  0
LINE
  5
4AA
100
AcDbEntity
  8
BEZUGSACHSEN
100
AcDbLine
 62
7
  6
CONTINUOUS
 10
356.0358352225
 20
90.0630554371
 11
356.0358352225
 21
88.5576995629
  0
LINE
  5
4AB
100
AcDbEntity
  8
RUNDUNGEN
100
AcDbLine
 62
7
  6
CONTINUOUS
 10
354.3522890789
 20
136.4826190331
 11
354.3522890789
 21
113.5576995629
  0
LINE
  5
4AC
100
AcDbEntity
  8
0
100
AcDbLine
 62
7
  6
CONTINUOUS
 10
368.3622877459
 20
124.5576995629
 11
368.9475643765
 21
124.5576995629
  0
LINE
  5
4AD
100
AcDbEntity
  8
0
100
AcDbLine
 62
7
  6
CONTINUOUS
 10
307.3522890789
 20
126.4976995629
 11
306.3522890789
 21
126.4976995629
  0
LINE
  5
4AE
100
AcDbEntity
  8
0
100
AcDbLine
 62
7
  6
CONTINUOUS
 10
307.3522890789
 20
126.6676995629
 11
306.3522890789
 21
126.6676995629
  0
LINE
  5
4AF
100
AcDbEntity
  8
0
100
AcDbLine
 62
7
  6
CONTINUOUS
 10
307.3522890789
 20
126.7953591333
 11
306.3522890789
 21
126.7953591333
  0
LINE
  5
4B0
100
AcDbEntity
  8
0
100
AcDbLine
 62
7
  6
CONTINUOUS
 10
307.3522890789
 20
127.1783378446
 11
306.3522890789
 21
127.1783378446
  0
LINE
  5
4B1
100
AcDbEntity
  8
BEZUGSACHSEN
100
AcDbLine
 62
7
  6
CONTINUOUS
 10
357.0057410853
 20
90.2179134332
 11
357.0057410853
 21
88.5576995629
  0
LINE
  5
4B2
100
AcDbEntity
  8
BEZUGSACHSEN
100
AcDbLine
 62
7
  6
CONTINUOUS
 10
357.7633919355
 20
90.2730552937
 11
357.7633919355
 21
88.5576995629
  0
LINE
  5
4B3
100
AcDbEntity
  8
BEZUGSACHSEN
100
AcDbLine
 62
7
  6
CONTINUOUS
 10
358.2846135932
 20
90.2730553043
 11
358.2846135932
 21
88.5576995629
  0
LINE
  5
4B4
100
AcDbEntity
  8
BEZUGSACHSEN
100
AcDbLine
 62
7
  6
CONTINUOUS
 10
358.8300124132
 20
90.2179134687
 11
358.8300124132
 21
88.5576995629
  0
LINE
  5
4B5
100
AcDbEntity
  8
BEZUGSACHSEN
100
AcDbLine
 62
7
  6
CONTINUOUS
 10
359.1631592032
 20
90.0630554371
 11
359.1631592032
 21
88.5576995629
  0
LINE
  5
4B6
100
AcDbEntity
  8
BEZUGSACHSEN
100
AcDbLine
 62
7
  6
CONTINUOUS
 10
360.604590909
 20
89.5587648367
 11
360.604590909
 21
88.5576995629
  0
LINE
  5
4B7
100
AcDbEntity
  8
0
100
AcDbLine
 62
7
  6
CONTINUOUS
 10
307.3522890789
 20
127.6889761263
 11
306.3522890789
 21
127.6889761263
  0
LINE
  5
4B8
100
AcDbEntity
  8
0
100
AcDbLine
 62
7
  6
CONTINUOUS
 10
307.3522890789
 20
128.3272740119
 11
306.3522890789
 21
128.3272740119
  0
LINE
  5
4B9
100
AcDbEntity
  8
0
100
AcDbLine
 62
7
  6
CONTINUOUS
 10
307.3522890789
 20
128.965571987
 11
306.3522890789
 21
128.965571987
  0
LINE
  5
4BA
100
AcDbEntity
  8
0
100
AcDbLine
 62
7
  6
CONTINUOUS
 10
307.3522890789
 20
129.6038697832
 11
306.3522890789
 21
129.6038697832
  0
LINE
  5
4BB
100
AcDbEntity
  8
0
100
AcDbLine
 62
7
  6
CONTINUOUS
 10
307.3522890789
 20
129.986848461
 11
306.3522890789
 21
129.986848461
  0
LINE
  5
4BC
100
AcDbEntity
  8
0
100
AcDbLine
 62
7
  6
CONTINUOUS
 10
307.3522890789
 20
130.3698271387
 11
306.3522890789
 21
130.3698271387
  0
LINE
  5
4BD
100
AcDbEntity
  8
0
100
AcDbLine
 62
7
  6
CONTINUOUS
 10
307.3522890789
 20
130.497486698
 11
306.3522890789
 21
130.497486698
  0
LINE
  5
4BE
100
AcDbEntity
  8
0
100
AcDbLine
 62
7
  6
CONTINUOUS
 10
307.3522890789
 20
130.8804653757
 11
306.3522890789
 21
130.8804653757
  0
LINE
  5
4BF
100
AcDbEntity
  8
0
100
AcDbLine
 62
7
  6
CONTINUOUS
 10
307.3522890789
 20
131.2634444111
 11
306.3522890789
 21
131.2634444111
  0
LINE
  5
4C0
100
AcDbEntity
  8
0
100
AcDbLine
 62
7
  6
CONTINUOUS
 10
307.3522890789
 20
131.6464230889
 11
306.3522890789
 21
131.6464230889
  0
LINE
  5
4C1
100
AcDbEntity
  8
0
100
AcDbLine
 62
7
  6
CONTINUOUS
 10
307.3522890789
 20
132.1570613259
 11
306.3522890789
 21
132.1570613259
  0
LINE
  5
4C2
100
AcDbEntity
  8
BEZUGSACHSEN
100
AcDbLine
 62
7
  6
CONTINUOUS
 10
365.4537289567
 20
90.3125763859
 11
365.4537289567
 21
88.5576995629
  0
LINE
  5
4C3
100
AcDbEntity
  8
0
100
AcDbLine
 62
7
  6
CONTINUOUS
 10
307.3522890789
 20
132.5400400036
 11
306.3522890789
 21
132.5400400036
  0
LINE
  5
4C4
100
AcDbEntity
  8
0
100
AcDbLine
 62
7
  6
CONTINUOUS
 10
307.3522890789
 20
132.6676995629
 11
306.3522890789
 21
132.6676995629
  0
LINE
  5
4C5
100
AcDbEntity
  8
0
100
AcDbLine
 62
7
  6
CONTINUOUS
 10
307.3522890789
 20
132.9376995629
 11
306.3522890789
 21
132.9376995629
  0
LINE
  5
4C6
100
AcDbEntity
  8
BEZUGSACHSEN
100
AcDbLine
 62
7
  6
CONTINUOUS
 10
367.666168347
 20
90.2760840768
 11
367.666168347
 21
88.5576995629
  0
LINE
  5
4C7
100
AcDbEntity
  8
BEZUGSACHSEN
100
AcDbLine
 62
7
  6
CONTINUOUS
 10
367.9852847497
 20
90.2247121585
 11
367.9852847497
 21
88.5576995629
  0
LINE
  5
4C8
100
AcDbEntity
  8
RUNDUNGEN
100
AcDbLine
 62
7
  6
CONTINUOUS
 10
313.4166931671
 20
141.5576995629
 11
348.2878848413
 21
141.5576995629
  0
ARC
  5
4C9
100
AcDbEntity
  8
RUNDUNGEN
100
AcDbCircle
 62
7
  6
CONTINUOUS
 10
302.3522890789
 20
323.0196892064
 40
5.0
100
AcDbArc
 50
270.000359561
 51
0.0004870856
  0
ARC
  5
4CA
100
AcDbEntity
  8
RUNDUNGEN
100
AcDbCircle
 62
7
  6
CONTINUOUS
 10
290.8522890789
 20
314.0196892064
 40
4.0
100
AcDbArc
 50
90.0
 51
180.0
  0
ARC
  5
4CB
100
AcDbEntity
  8
KONSTRUKTIONSELEMENTE
100
AcDbCircle
 62
7
  6
CONTINUOUS
 10
152.8558003495
 20
429.0196892064
 40
234.5
100
AcDbArc
 50
346.5709883805
 51
13.4290116195
  0
ARC
  5
4CC
100
AcDbEntity
  8
KONSTRUKTIONSELEMENTE
100
AcDbCircle
 62
7
  6
CONTINUOUS
 10
152.8558003495
 20
429.0196892064
 40
231.44427191
100
AcDbArc
 50
353.1760456275
 51
6.8239543725
  0
ARC
  5
4CD
100
AcDbEntity
  8
KONSTRUKTIONSELEMENTE
100
AcDbCircle
 62
7
  6
CONTINUOUS
 10
152.8558003495
 20
429.0196892064
 40
213.55572809
100
AcDbArc
 50
352.601362855
 51
7.398637145
  0
ARC
  5
4CE
100
AcDbEntity
  8
KONSTRUKTIONSELEMENTE
100
AcDbCircle
 62
7
  6
CONTINUOUS
 10
152.8558003495
 20
429.0196892064
 40
210.5
100
AcDbArc
 50
346.5709883805
 51
13.4290116195
  0
ARC
  5
4CF
100
AcDbEntity
  8
KONSTRUKTIONSELEMENTE
100
AcDbCircle
 62
7
  6
CONTINUOUS
 10
330.8522890789
 20
386.5196892064
 40
51.5
100
AcDbArc
 50
193.4290116195
 51
242.843895484
  0
ARC
  5
4D0
100
AcDbEntity
  8
KONSTRUKTIONSELEMENTE
100
AcDbCircle
 62
7
  6
CONTINUOUS
 10
330.8522890789
 20
386.5196892064
 40
51.5
100
AcDbArc
 50
297.156104516
 51
346.5709883805
  0
ARC
  5
4D1
100
AcDbEntity
  8
KONSTRUKTIONSELEMENTE
100
AcDbCircle
 62
7
  6
CONTINUOUS
 10
330.8522890789
 20
386.5196892064
 40
27.5
100
AcDbArc
 50
193.4290116195
 51
211.8301357452
  0
ARC
  5
4D2
100
AcDbEntity
  8
KONSTRUKTIONSELEMENTE
100
AcDbCircle
 62
7
  6
CONTINUOUS
 10
330.8522890789
 20
386.5196892064
 40
27.5
100
AcDbArc
 50
328.1698642517
 51
346.5709883805
  0
ARC
  5
4D3
100
AcDbEntity
  8
RUNDUNGEN
100
AcDbCircle
 62
7
  6
CONTINUOUS
 10
330.8522890789
 20
369.5196892064
 40
23.5
100
AcDbArc
 50
359.9996723829
 51
180.0
  0
ARC
  5
4D4
100
AcDbEntity
  8
RUNDUNGEN
100
AcDbCircle
 62
7
  6
CONTINUOUS
 10
359.3522890789
 20
323.0196892064
 40
5.0
100
AcDbArc
 50
179.9989856612
 51
269.9997678175
  0
ARC
  5
4D5
100
AcDbEntity
  8
RUNDUNGEN
100
AcDbCircle
 62
7
  6
CONTINUOUS
 10
370.8522890789
 20
314.0196892064
 40
4.0
100
AcDbArc
 50
0.0
 51
90.0
  0
ARC
  5
4D6
100
AcDbEntity
  8
KONSTRUKTIONSELEMENTE
100
AcDbCircle
 62
7
  6
CONTINUOUS
 10
508.8487778083
 20
429.0196892064
 40
234.5
100
AcDbArc
 50
166.5709883805
 51
193.4290116195
  0
ARC
  5
4D7
100
AcDbEntity
  8
KONSTRUKTIONSELEMENTE
100
AcDbCircle
 62
7
  6
CONTINUOUS
 10
508.8487778083
 20
429.0196892064
 40
231.44427191
100
AcDbArc
 50
173.1760456275
 51
186.8239543725
  0
ARC
  5
4D8
100
AcDbEntity
  8
KONSTRUKTIONSELEMENTE
100
AcDbCircle
 62
7
  6
CONTINUOUS
 10
508.8487778083
 20
429.0196892064
 40
213.55572809
100
AcDbArc
 50
172.601362855
 51
187.398637145
  0
ARC
  5
4D9
100
AcDbEntity
  8
KONSTRUKTIONSELEMENTE
100
AcDbCircle
 62
7
  6
CONTINUOUS
 10
508.8487778083
 20
429.0196892064
 40
210.5
100
AcDbArc
 50
166.5709883805
 51
193.4290116195
  0
ARC
  5
4DA
100
AcDbEntity
  8
KONSTRUKTIONSELEMENTE
100
AcDbCircle
 62
7
  6
CONTINUOUS
 10
330.8522890789
 20
471.5196892064
 40
51.5
100
AcDbArc
 50
13.4290116195
 51
166.5709883805
  0
ARC
  5
4DB
100
AcDbEntity
  8
KONSTRUKTIONSELEMENTE
100
AcDbCircle
 62
7
  6
CONTINUOUS
 10
330.8522890789
 20
471.5196892064
 40
27.5
100
AcDbArc
 50
13.4290116195
 51
166.5709883805
  0
ARC
  5
4DC
100
AcDbEntity
  8
BEZUGSACHSEN
100
AcDbCircle
 62
7
  6
CONTINUOUS
 10
342.7622890789
 20
508.7096892064
 40
2.585
100
AcDbArc
 50
200.008260062
 51
20.2299077309
  0
ARC
  5
4DD
100
AcDbEntity
  8
BEZUGSACHSEN
100
AcDbCircle
 62
7
  6
CONTINUOUS
 10
342.7622890789
 20
508.7096892064
 40
2.585
100
AcDbArc
 50
36.0493290536
 51
185.9635951441
  0
CIRCLE
  5
4DE
100
AcDbEntity
  8
BEZUGSACHSEN
100
AcDbCircle
 62
7
  6
CONTINUOUS
 10
342.7622890789
 20
508.7096892064
 40
1.76
  0
ARC
  5
4DF
100
AcDbEntity
  8
RUNDUNGEN
100
AcDbCircle
 62
7
  6
CONTINUOUS
 10
494.3542214737
 20
354.2876529746
 40
5.0000036446
100
AcDbArc
 50
329.9998553518
 51
359.9998329743
  0
ARC
  5
4E0
100
AcDbEntity
  8
RUNDUNGEN
100
AcDbCircle
 62
7
  6
CONTINUOUS
 10
500.3542235717
 20
344.6799468782
 40
5.0
100
AcDbArc
 50
150.0000480838
 51
180.0000416417
  0
ARC
  5
4E1
100
AcDbEntity
  8
RUNDUNGEN
100
AcDbCircle
 62
7
  6
CONTINUOUS
 10
507.4364695868
 20
389.0196605161
 40
4.0
100
AcDbArc
 50
90.0003221495
 51
145.0
  0
ARC
  5
4E2
100
AcDbEntity
  8
RUNDUNGEN
100
AcDbCircle
 62
7
  6
CONTINUOUS
 10
503.3542214737
 20
383.1896060104
 40
4.0
100
AcDbArc
 50
145.0
 51
180.0
  0
ARC
  5
4E3
100
AcDbEntity
  8
0
100
AcDbCircle
 62
7
  6
CONTINUOUS
 10
511.1942214737
 20
342.6696892064
 40
3.22
100
AcDbArc
 50
132.1294150686
 51
300.3705849314
  0
ARC
  5
4E4
100
AcDbEntity
  8
0
100
AcDbCircle
 62
7
  6
CONTINUOUS
 10
511.1942214737
 20
342.6696892064
 40
3.22
100
AcDbArc
 50
309.5364903521
 51
122.9635096479
  0
ARC
  5
4E5
100
AcDbEntity
  8
0
100
AcDbCircle
 62
7
  6
CONTINUOUS
 10
511.1942214737
 20
342.6696892064
 40
2.38
100
AcDbArc
 50
310.6984581435
 51
121.8015418565
  0
ARC
  5
4E6
100
AcDbEntity
  8
0
100
AcDbCircle
 62
7
  6
CONTINUOUS
 10
511.1942214737
 20
342.6696892064
 40
2.38
100
AcDbArc
 50
134.2161911632
 51
298.2838088368
  0
ARC
  5
4E7
100
AcDbEntity
  8
RUNDUNGEN
100
AcDbCircle
 62
7
  6
CONTINUOUS
 10
521.0580470102
 20
389.0196892064
 40
4.0
100
AcDbArc
 50
50.8832562204
 51
90.0
  0
ARC
  5
4E8
100
AcDbEntity
  8
BEZUGSACHSEN
100
AcDbCircle
 62
7
  6
CONTINUOUS
 10
478.9512291009
 20
498.818785548
 40
71.688222575
100
AcDbArc
 50
358.0833431335
 51
0.5753764816
  0
ARC
  5
4E9
100
AcDbEntity
  8
BEZUGSACHSEN
100
AcDbCircle
 62
7
  6
CONTINUOUS
 10
503.6297274858
 20
505.3223829701
 40
47.0097220057
100
AcDbArc
 50
357.6331361775
 51
0.7103162569
  0
ARC
  5
4EA
100
AcDbEntity
  8
BEZUGSACHSEN
100
AcDbCircle
 62
7
  6
CONTINUOUS
 10
512.6296336695
 20
503.4092183972
 40
38.2027818597
100
AcDbArc
 50
354.1850683447
 51
355.0028644211
  0
ARC
  5
4EB
100
AcDbEntity
  8
BEZUGSACHSEN
100
AcDbCircle
 62
7
  6
CONTINUOUS
 10
530.4836688759
 20
508.7341204965
 40
20.349763431
100
AcDbArc
 50
352.0090514364
 51
353.1273077865
  0
ARC
  5
4EC
100
AcDbEntity
  8
RUNDUNGEN
100
AcDbCircle
 62
7
  6
CONTINUOUS
 10
539.3542214737
 20
341.5196892064
 40
18.5
100
AcDbArc
 50
130.4496711649
 51
49.5503332656
  0
ARC
  5
4ED
100
AcDbEntity
  8
KONSTRUKTIONSELEMENTE
100
AcDbCircle
 62
7
  6
CONTINUOUS
 10
539.3542214737
 20
347.0196892064
 40
12.0
100
AcDbArc
 50
180.0
 51
360.0
  0
ARC
  5
4EE
100
AcDbEntity
  8
0
100
AcDbCircle
 62
7
  6
CONTINUOUS
 10
539.3542214737
 20
411.5196892064
 40
25.0
100
AcDbArc
 50
296.8684518787
 51
309.1167437796
  0
ARC
  5
4EF
100
AcDbEntity
  8
0
100
AcDbCircle
 62
7
  6
CONTINUOUS
 10
539.3542214737
 20
411.5196892064
 40
25.0
100
AcDbArc
 50
230.8832562204
 51
243.1315481213
  0
ARC
  5
4F0
100
AcDbEntity
  8
RUNDUNGEN
100
AcDbCircle
 62
7
  6
CONTINUOUS
 10
557.6503959372
 20
389.0196892064
 40
4.0
100
AcDbArc
 50
90.0
 51
129.1167437796
  0
ARC
  5
4F1
100
AcDbEntity
  8
RUNDUNGEN
100
AcDbCircle
 62
7
  6
CONTINUOUS
 10
584.3542214737
 20
354.2876383988
 40
5.0
100
AcDbArc
 50
180.4067696059
 51
210.0
  0
ARC
  5
4F2
100
AcDbEntity
  8
RUNDUNGEN
100
AcDbCircle
 62
7
  6
CONTINUOUS
 10
578.3542193607
 20
344.6799469041
 40
5.0
100
AcDbArc
 50
359.9999580615
 51
29.9999515735
  0
ARC
  5
4F3
100
AcDbEntity
  8
0
100
AcDbCircle
 62
7
  6
CONTINUOUS
 10
568.3674208479
 20
356.626497581
 40
5.0
100
AcDbArc
 50
174.2608295227
 51
5.7391704773
  0
ARC
  5
4F4
100
AcDbEntity
  8
0
100
AcDbCircle
 62
7
  6
CONTINUOUS
 10
568.3674208479
 20
348.126497581
 40
5.0
100
AcDbArc
 50
174.2608295227
 51
5.7391704773
  0
ARC
  5
4F5
100
AcDbEntity
  8
0
100
AcDbCircle
 62
7
  6
CONTINUOUS
 10
568.3674208479
 20
356.626497581
 40
3.5
100
AcDbArc
 50
282.3736251162
 51
8.2132107017
  0
ARC
  5
4F6
100
AcDbEntity
  8
0
100
AcDbCircle
 62
7
  6
CONTINUOUS
 10
568.3674208479
 20
356.626497581
 40
3.5
100
AcDbArc
 50
171.7867892983
 51
257.4447123387
  0
ARC
  5
4F7
100
AcDbEntity
  8
0
100
AcDbCircle
 62
7
  6
CONTINUOUS
 10
568.3674208479
 20
348.126497581
 40
3.5
100
AcDbArc
 50
171.7867892983
 51
8.2132107017
  0
ARC
  5
4F8
100
AcDbEntity
  8
RUNDUNGEN
100
AcDbCircle
 62
7
  6
CONTINUOUS
 10
571.2719734354
 20
389.0196604093
 40
4.0
100
AcDbArc
 50
35.0
 51
89.9996766278
  0
ARC
  5
4F9
100
AcDbEntity
  8
RUNDUNGEN
100
AcDbCircle
 62
7
  6
CONTINUOUS
 10
575.3542214737
 20
383.1896060104
 40
4.0
100
AcDbArc
 50
0.0
 51
35.0
  0
ARC
  5
4FA
100
AcDbEntity
  8
BEZUGSACHSEN
100
AcDbCircle
 62
7
  6
CONTINUOUS
 10
536.4231510904
 20
512.3144197226
 40
14.2152068032
100
AcDbArc
 50
3.1731172955
 51
4.603965747
  0
ARC
  5
4FB
100
AcDbEntity
  8
BEZUGSACHSEN
100
AcDbCircle
 62
7
  6
CONTINUOUS
 10
536.4231510904
 20
512.2353350703
 40
14.2152068032
100
AcDbArc
 50
355.396034253
 51
356.8268827045
  0
ARC
  5
4FC
100
AcDbEntity
  8
BEZUGSACHSEN
100
AcDbCircle
 62
7
  6
CONTINUOUS
 10
538.5877448108
 20
508.8362348074
 40
12.7625644134
100
AcDbArc
 50
11.8152864904
 51
19.5229011516
  0
ARC
  5
4FD
100
AcDbEntity
  8
KONSTRUKTIONSELEMENTE
100
AcDbCircle
 62
7
  6
CONTINUOUS
 10
539.3542214737
 20
511.0196892064
 40
12.0
100
AcDbArc
 50
19.5984407097
 51
180.0
  0
ARC
  5
4FE
100
AcDbEntity
  8
BEZUGSACHSEN
100
AcDbCircle
 62
7
  6
CONTINUOUS
 10
539.3596054412
 20
510.5344184201
 40
11.9947944613
100
AcDbArc
 50
17.7373134394
 51
17.9504400609
  0
ARC
  5
4FF
100
AcDbEntity
  8
BEZUGSACHSEN
100
AcDbCircle
 62
7
  6
CONTINUOUS
 10
539.3785768197
 20
510.5407099424
 40
11.9748075339
100
AcDbArc
 50
17.949777843
 51
20.4411899338
  0
ARC
  5
500
100
AcDbEntity
  8
BEZUGSACHSEN
100
AcDbCircle
 62
7
  6
CONTINUOUS
 10
539.8266116429
 20
509.9667625487
 40
11.5296579411
100
AcDbArc
 50
17.6217688075
 51
17.9615736801
  0
ARC
  5
501
100
AcDbEntity
  8
BEZUGSACHSEN
100
AcDbCircle
 62
7
  6
CONTINUOUS
 10
539.8340811171
 20
509.9692378934
 40
11.5217891581
100
AcDbArc
 50
17.9613186961
 51
20.3279370104
  0
ARC
  5
502
100
AcDbEntity
  8
BEZUGSACHSEN
100
AcDbCircle
 62
7
  6
CONTINUOUS
 10
549.8368470431
 20
512.1731466122
 40
5.9353848688
100
AcDbArc
 50
278.2371037064
 51
279.7541252389
  0
ARC
  5
503
100
AcDbEntity
  8
BEZUGSACHSEN
100
AcDbCircle
 62
7
  6
CONTINUOUS
 10
545.0636736725
 20
514.0793854546
 40
5.5756532138
100
AcDbArc
 50
358.8946418788
 51
1.1053581212
  0
ARC
  5
504
100
AcDbEntity
  8
BEZUGSACHSEN
100
AcDbCircle
 62
7
  6
CONTINUOUS
 10
548.298104883
 20
502.0989675987
 40
3.1269594373
100
AcDbArc
 50
319.8211461416
 51
324.4562147628
  0
ARC
  5
505
100
AcDbEntity
  8
0
100
AcDbCircle
 62
7
  6
CONTINUOUS
 10
288.8522890789
 20
101.5576995629
 40
25.0
100
AcDbArc
 50
320.8832562204
 51
326.3576851342
  0
ARC
  5
506
100
AcDbEntity
  8
0
100
AcDbCircle
 62
7
  6
CONTINUOUS
 10
288.8522890789
 20
101.5576995629
 40
25.0
100
AcDbArc
 50
33.6423148658
 51
39.1167437796
  0
ARC
  5
507
100
AcDbEntity
  8
RUNDUNGEN
100
AcDbCircle
 62
7
  6
CONTINUOUS
 10
288.8522890789
 20
101.5576995629
 40
25.0
100
AcDbArc
 50
33.6423148658
 51
39.1167437796
  0
ARC
  5
508
100
AcDbEntity
  8
RUNDUNGEN
100
AcDbCircle
 62
7
  6
CONTINUOUS
 10
288.8522890789
 20
101.5576995629
 40
25.0
100
AcDbArc
 50
320.8832562204
 51
326.3576851342
  0
ARC
  5
509
100
AcDbEntity
  8
KONSTRUKTIONSELEMENTE
100
AcDbCircle
 62
7
  6
CONTINUOUS
 10
290.4306910082
 20
101.1417446658
 40
12.4159514946
100
AcDbArc
 50
89.9900486988
 51
90.1049961074
  0
ARC
  5
50A
100
AcDbEntity
  8
KONSTRUKTIONSELEMENTE
100
AcDbCircle
 62
7
  6
CONTINUOUS
 10
290.4307736243
 20
101.9521103383
 40
12.3944084748
100
AcDbArc
 50
269.8942650933
 51
270.008300058
  0
ARC
  5
50B
100
AcDbEntity
  8
KONSTRUKTIONSELEMENTE
100
AcDbCircle
 62
7
  6
CONTINUOUS
 10
286.3487778083
 20
101.5576995629
 40
12.0
100
AcDbArc
 50
138.1896851042
 51
221.8103148958
  0
ARC
  5
50C
100
AcDbEntity
  8
BEZUGSACHSEN
100
AcDbCircle
 62
7
  6
CONTINUOUS
 10
296.8821664803
 20
136.6137437743
 40
46.3412721378
100
AcDbArc
 50
267.6161273384
 51
270.7154120786
  0
ARC
  5
50D
100
AcDbEntity
  8
RUNDUNGEN
100
AcDbCircle
 62
7
  6
CONTINUOUS
 10
302.8522890789
 20
101.5576995629
 40
15.0
100
AcDbArc
 50
53.1350677967
 51
57.7350895893
  0
ARC
  5
50E
100
AcDbEntity
  8
BEZUGSACHSEN
100
AcDbCircle
 62
7
  6
CONTINUOUS
 10
302.5953019488
 20
101.6686807453
 40
12.1081871569
100
AcDbArc
 50
256.5314114303
 51
258.9644006146
  0
ARC
  5
50F
100
AcDbEntity
  8
BEZUGSACHSEN
100
AcDbCircle
 62
7
  6
CONTINUOUS
 10
302.1189614684
 20
97.0798201501
 40
7.5242271936
100
AcDbArc
 50
255.8341933692
 51
259.9676960398
  0
ARC
  5
510
100
AcDbEntity
  8
BEZUGSACHSEN
100
AcDbCircle
 62
7
  6
CONTINUOUS
 10
301.7597369912
 20
93.5447857003
 40
3.9892847069
100
AcDbArc
 50
256.20083456
 51
258.4275233053
  0
ARC
  5
511
100
AcDbEntity
  8
RUNDUNGEN
100
AcDbCircle
 62
7
  6
CONTINUOUS
 10
313.4166933048
 20
65.5576995629
 40
4.0
100
AcDbArc
 50
244.1580653705
 51
270.00000012
  0
ARC
  5
512
100
AcDbEntity
  8
RUNDUNGEN
100
AcDbCircle
 62
7
  6
CONTINUOUS
 10
311.3522890789
 20
83.2615250993
 40
4.0
100
AcDbArc
 50
140.8832562204
 51
180.0
  0
ARC
  5
513
100
AcDbEntity
  8
RUNDUNGEN
100
AcDbCircle
 62
7
  6
CONTINUOUS
 10
311.3522761572
 20
66.6327847504
 40
3.999994257
100
AcDbArc
 50
180.0000667175
 51
240.8237982757
  0
ARC
  5
514
100
AcDbEntity
  8
BEZUGSACHSEN
100
AcDbCircle
 62
7
  6
CONTINUOUS
 10
309.0325731335
 20
99.4965439809
 40
9.9382472869
100
AcDbArc
 50
255.0767814033
 51
257.7550744556
  0
ARC
  5
515
100
AcDbEntity
  8
BEZUGSACHSEN
100
AcDbCircle
 62
7
  6
CONTINUOUS
 10
308.4452756921
 20
94.6591873848
 40
5.1064265609
100
AcDbArc
 50
252.6765695283
 51
257.6650339091
  0
ARC
  5
516
100
AcDbEntity
  8
RUNDUNGEN
100
AcDbCircle
 62
7
  6
CONTINUOUS
 10
312.9951462218
 20
85.4915099406
 40
4.0
100
AcDbArc
 50
129.9414125317
 51
146.3576851342
  0
ARC
  5
517
100
AcDbEntity
  8
BEZUGSACHSEN
100
AcDbCircle
 62
7
  6
CONTINUOUS
 10
308.0241023197
 20
91.4628655342
 40
1.9132593962
100
AcDbArc
 50
249.5109444334
 51
251.0414776444
  0
ARC
  5
518
100
AcDbEntity
  8
BEZUGSACHSEN
100
AcDbCircle
 62
7
  6
CONTINUOUS
 10
307.9982906947
 20
91.3857477694
 40
1.8319393001
100
AcDbArc
 50
251.0213719102
 51
255.749960233
  0
ARC
  5
519
100
AcDbEntity
  8
BEZUGSACHSEN
100
AcDbCircle
 62
7
  6
CONTINUOUS
 10
302.1173005231
 20
145.4288180312
 40
55.3489586678
100
AcDbArc
 50
265.173990924
 51
265.853886477
  0
ARC
  5
51A
100
AcDbEntity
  8
BEZUGSACHSEN
100
AcDbCircle
 62
7
  6
CONTINUOUS
 10
310.47725515
 20
118.4918715616
 40
28.8284336028
100
AcDbArc
 50
258.6754274759
 51
260.3720570499
  0
ARC
  5
51B
100
AcDbEntity
  8
BEZUGSACHSEN
100
AcDbCircle
 62
7
  6
CONTINUOUS
 10
303.6264988578
 20
116.9648775021
 40
27.3021406841
100
AcDbArc
 50
258.3548334829
 51
260.0973850899
  0
ARC
  5
51C
100
AcDbEntity
  8
BEZUGSACHSEN
100
AcDbCircle
 62
7
  6
CONTINUOUS
 10
303.1486386777
 20
108.180339438
 40
18.595403354
100
AcDbArc
 50
256.8913720214
 51
259.5478200384
  0
ARC
  5
51D
100
AcDbEntity
  8
BEZUGSACHSEN
100
AcDbCircle
 62
7
  6
CONTINUOUS
 10
309.7512951641
 20
107.106569251
 40
17.5224311074
100
AcDbArc
 50
256.4830056034
 51
259.2176858196
  0
ARC
  5
51E
100
AcDbEntity
  8
RUNDUNGEN
100
AcDbCircle
 62
7
  6
CONTINUOUS
 10
313.4166933048
 20
137.5576995629
 40
4.0
100
AcDbArc
 50
90.0000019722
 51
115.8419366856
  0
ARC
  5
51F
100
AcDbEntity
  8
RUNDUNGEN
100
AcDbCircle
 62
7
  6
CONTINUOUS
 10
311.3522890789
 20
136.4826190331
 40
4.0
100
AcDbArc
 50
119.176395855
 51
180.0
  0
ARC
  5
520
100
AcDbEntity
  8
RUNDUNGEN
100
AcDbCircle
 62
7
  6
CONTINUOUS
 10
311.3522890789
 20
119.8538740264
 40
4.0
100
AcDbArc
 50
180.0
 51
219.1167437796
  0
ARC
  5
521
100
AcDbEntity
  8
RUNDUNGEN
100
AcDbCircle
 62
7
  6
CONTINUOUS
 10
312.9951462218
 20
117.6238891852
 40
4.0
100
AcDbArc
 50
213.6450003128
 51
237.7365100607
  0
ARC
  5
522
100
AcDbEntity
  8
BEZUGSACHSEN
100
AcDbCircle
 62
7
  6
CONTINUOUS
 10
327.422140825
 20
207.5336701718
 40
117.2612024289
100
AcDbArc
 50
268.5013780335
 51
270.4499818134
  0
ARC
  5
523
100
AcDbEntity
  8
BEZUGSACHSEN
100
AcDbCircle
 62
7
  6
CONTINUOUS
 10
321.4773941321
 20
205.1526421831
 40
114.8800482167
100
AcDbArc
 50
269.7564654241
 51
270.2435345759
  0
ARC
  5
524
100
AcDbEntity
  8
BEZUGSACHSEN
100
AcDbCircle
 62
7
  6
CONTINUOUS
 10
315.5321033888
 20
188.7884134919
 40
98.514754484
100
AcDbArc
 50
271.2025614647
 51
271.7466411499
  0
ARC
  5
525
100
AcDbEntity
  8
BEZUGSACHSEN
100
AcDbCircle
 62
7
  6
CONTINUOUS
 10
315.3030053473
 20
188.788413492
 40
98.5147544841
100
AcDbArc
 50
268.2533588501
 51
268.7974385353
  0
ARC
  5
526
100
AcDbEntity
  8
BEZUGSACHSEN
100
AcDbCircle
 62
7
  6
CONTINUOUS
 10
309.4161332988
 20
163.2828063947
 40
73.2027560241
100
AcDbArc
 50
265.8059245065
 51
266.3973469079
  0
ARC
  5
527
100
AcDbEntity
  8
BEZUGSACHSEN
100
AcDbCircle
 62
7
  6
CONTINUOUS
 10
303.3459163819
 20
161.2922417269
 40
71.0197723271
100
AcDbArc
 50
268.074344252
 51
270.5780746564
  0
ARC
  5
528
100
AcDbEntity
  8
FASEN
100
AcDbCircle
 62
7
  6
CONTINUOUS
 10
330.8522890789
 20
101.5576995629
 40
50.0
100
AcDbArc
 50
11.2094734218
 51
168.7903224747
  0
ARC
  5
529
100
AcDbEntity
  8
FASEN
100
AcDbCircle
 62
7
  6
CONTINUOUS
 10
330.8522890789
 20
101.5576995629
 40
50.0
100
AcDbArc
 50
191.2096797054
 51
348.7905268273
  0
ARC
  5
52A
100
AcDbEntity
  8
FASEN
100
AcDbCircle
 62
7
  6
CONTINUOUS
 10
330.8522890789
 20
101.5576995629
 40
49.5
100
AcDbArc
 50
191.6554025674
 51
348.3443700605
  0
ARC
  5
52B
100
AcDbEntity
  8
FASEN
100
AcDbCircle
 62
7
  6
CONTINUOUS
 10
330.8522890789
 20
101.5576995629
 40
49.5
100
AcDbArc
 50
11.6556296254
 51
168.3445951336
  0
ARC
  5
52C
100
AcDbEntity
  8
0
100
AcDbCircle
 62
7
  6
CONTINUOUS
 10
330.8522890789
 20
101.5576995629
 40
44.5
100
AcDbArc
 50
22.4590156109
 51
31.1214551226
  0
ARC
  5
52D
100
AcDbEntity
  8
0
100
AcDbCircle
 62
7
  6
CONTINUOUS
 10
330.8522890789
 20
101.5576995629
 40
44.5
100
AcDbArc
 50
15.348430884
 51
21.7641306659
  0
ARC
  5
52E
100
AcDbEntity
  8
0
100
AcDbCircle
 62
7
  6
CONTINUOUS
 10
330.8522890789
 20
101.5576995629
 40
44.5
100
AcDbArc
 50
330.3709915468
 51
344.6515603348
  0
ARC
  5
52F
100
AcDbEntity
  8
RUNDUNGEN
100
AcDbCircle
 62
7
  6
CONTINUOUS
 10
330.8522890789
 20
101.5576995629
 40
44.0
100
AcDbArc
 50
15.6412520525
 51
164.3584659463
  0
ARC
  5
530
100
AcDbEntity
  8
RUNDUNGEN
100
AcDbCircle
 62
7
  6
CONTINUOUS
 10
330.8522890789
 20
101.5576995629
 40
44.0
100
AcDbArc
 50
195.6415400604
 51
344.3587483084
  0
ARC
  5
531
100
AcDbEntity
  8
BEZUGSACHSEN
100
AcDbCircle
 62
7
  6
CONTINUOUS
 10
331.8360064689
 20
92.2758986932
 40
2.7593427102
100
AcDbArc
 50
239.6999419246
 51
244.5465201044
  0
ARC
  5
532
100
AcDbEntity
  8
BEZUGSACHSEN
100
AcDbCircle
 62
7
  6
CONTINUOUS
 10
332.7890844591
 20
98.2014698824
 40
8.6326476913
100
AcDbArc
 50
250.3905338389
 51
254.2362402428
  0
ARC
  5
533
100
AcDbEntity
  8
RUNDUNGEN
100
AcDbCircle
 62
7
  6
CONTINUOUS
 10
348.2878848531
 20
65.5576995629
 40
4.0
100
AcDbArc
 50
270.0000018936
 51
295.8419370084
  0
ARC
  5
534
100
AcDbEntity
  8
RUNDUNGEN
100
AcDbCircle
 62
7
  6
CONTINUOUS
 10
350.3522890789
 20
66.6327800927
 40
4.0
100
AcDbArc
 50
299.176395855
 51
360.0
  0
ARC
  5
535
100
AcDbEntity
  8
RUNDUNGEN
100
AcDbCircle
 62
7
  6
CONTINUOUS
 10
350.3522890789
 20
83.2615250993
 40
4.0
100
AcDbArc
 50
0.0
 51
39.1167437796
  0
ARC
  5
536
100
AcDbEntity
  8
BEZUGSACHSEN
100
AcDbCircle
 62
7
  6
CONTINUOUS
 10
352.569918823
 20
100.4520489758
 40
10.892367385
100
AcDbArc
 50
279.8281474215
 51
284.0834729629
  0
ARC
  5
537
100
AcDbEntity
  8
BEZUGSACHSEN
100
AcDbCircle
 62
7
  6
CONTINUOUS
 10
352.9603895158
 20
96.2805725095
 40
6.7234314798
100
AcDbArc
 50
275.0822340309
 51
282.6184717036
  0
ARC
  5
538
100
AcDbEntity
  8
BEZUGSACHSEN
100
AcDbCircle
 62
7
  6
CONTINUOUS
 10
353.0608974785
 20
94.2895852217
 40
4.7319825865
100
AcDbArc
 50
275.2914074833
 51
276.0056411724
  0
ARC
  5
539
100
AcDbEntity
  8
RUNDUNGEN
100
AcDbCircle
 62
7
  6
CONTINUOUS
 10
348.7094319361
 20
85.4915099406
 40
4.0
100
AcDbArc
 50
33.6448889392
 51
49.7067303292
  0
ARC
  5
53A
100
AcDbEntity
  8
BEZUGSACHSEN
100
AcDbCircle
 62
7
  6
CONTINUOUS
 10
349.6762959938
 20
92.7980042199
 40
3.2446340727
100
AcDbArc
 50
284.5054227334
 51
285.7894761815
  0
ARC
  5
53B
100
AcDbEntity
  8
BEZUGSACHSEN
100
AcDbCircle
 62
7
  6
CONTINUOUS
 10
350.9551963747
 20
124.9988723456
 40
35.303317042
100
AcDbArc
 50
278.2743919339
 51
279.8684968537
  0
ARC
  5
53C
100
AcDbEntity
  8
BEZUGSACHSEN
100
AcDbCircle
 62
7
  6
CONTINUOUS
 10
342.6562430051
 20
112.3810808611
 40
22.8132514159
100
AcDbArc
 50
275.5239521041
 51
277.3944276617
  0
ARC
  5
53D
100
AcDbEntity
  8
BEZUGSACHSEN
100
AcDbCircle
 62
7
  6
CONTINUOUS
 10
334.0009524727
 20
110.4032152794
 40
20.7447417518
100
AcDbArc
 50
256.5823576717
 51
258.5754968109
  0
ARC
  5
53E
100
AcDbEntity
  8
BEZUGSACHSEN
100
AcDbCircle
 62
7
  6
CONTINUOUS
 10
351.9959711168
 20
106.8055886277
 40
17.2230345651
100
AcDbArc
 50
280.7904147916
 51
283.5657873545
  0
ARC
  5
53F
100
AcDbEntity
  8
BEZUGSACHSEN
100
AcDbCircle
 62
7
  6
CONTINUOUS
 10
347.9196445085
 20
106.2937120222
 40
16.699521303
100
AcDbArc
 50
281.221759903
 51
286.3874359363
  0
ARC
  5
540
100
AcDbEntity
  8
RUNDUNGEN
100
AcDbCircle
 62
7
  6
CONTINUOUS
 10
348.287876015
 20
137.5577038464
 40
4.0000000003
100
AcDbArc
 50
64.1580076131
 51
89.999584787
  0
ARC
  5
541
100
AcDbEntity
  8
RUNDUNGEN
100
AcDbCircle
 62
7
  6
CONTINUOUS
 10
350.3522890789
 20
119.8538740264
 40
4.0
100
AcDbArc
 50
320.8832562204
 51
360.0
  0
ARC
  5
542
100
AcDbEntity
  8
RUNDUNGEN
100
AcDbCircle
 62
7
  6
CONTINUOUS
 10
348.7094319361
 20
117.6238891852
 40
4.0
100
AcDbArc
 50
302.2636471777
 51
326.3551390299
  0
ARC
  5
543
100
AcDbEntity
  8
RUNDUNGEN
100
AcDbCircle
 62
7
  6
CONTINUOUS
 10
350.35229865
 20
136.4826155352
 40
3.9999957462
100
AcDbArc
 50
0.000050104
 51
60.8237482715
  0
ARC
  5
544
100
AcDbEntity
  8
RUNDUNGEN
100
AcDbCircle
 62
7
  6
CONTINUOUS
 10
372.8522890789
 20
101.5576995629
 40
25.0
100
AcDbArc
 50
213.6423148658
 51
219.1167437796
  0
ARC
  5
545
100
AcDbEntity
  8
RUNDUNGEN
100
AcDbCircle
 62
7
  6
CONTINUOUS
 10
372.8522890789
 20
101.5576995629
 40
25.0
100
AcDbArc
 50
140.8832562204
 51
146.3576851342
  0
ARC
  5
546
100
AcDbEntity
  8
RUNDUNGEN
100
AcDbCircle
 62
7
  6
CONTINUOUS
 10
358.8522890789
 20
101.5576995629
 40
15.0
100
AcDbArc
 50
122.2649104107
 51
126.8667992565
  0
ARC
  5
547
100
AcDbEntity
  8
KONSTRUKTIONSELEMENTE
100
AcDbCircle
 62
7
  6
CONTINUOUS
 10
371.2738053716
 20
101.1631085494
 40
12.3945887049
100
AcDbArc
 50
89.8941663308
 51
90.0082951387
  0
ARC
  5
548
100
AcDbEntity
  8
KONSTRUKTIONSELEMENTE
100
AcDbCircle
 62
7
  6
CONTINUOUS
 10
375.3558003495
 20
101.5576995629
 40
12.0
100
AcDbArc
 50
318.1896851042
 51
41.8103148958
  0
ARC
  5
549
100
AcDbEntity
  8
BEZUGSACHSEN
100
AcDbCircle
 62
7
  6
CONTINUOUS
 10
361.2662055468
 20
95.0231277546
 40
5.387496758
100
AcDbArc
 50
243.1154707793
 51
247.0232936089
  0
ARC
  5
54A
100
AcDbEntity
  8
BEZUGSACHSEN
100
AcDbCircle
 62
7
  6
CONTINUOUS
 10
362.3071176651
 20
127.3341851106
 40
37.278785945
100
AcDbArc
 50
263.8055358626
 51
264.6480697565
  0
ARC
  5
54B
100
AcDbEntity
  8
BEZUGSACHSEN
100
AcDbCircle
 62
7
  6
CONTINUOUS
 10
367.1554323733
 20
126.3970508938
 40
36.1245774373
100
AcDbArc
 50
267.2999955698
 51
270.8100853434
  0
ARC
  5
54C
100
AcDbEntity
  8
BEZUGSACHSEN
100
AcDbCircle
 62
7
  6
CONTINUOUS
 10
369.9771927956
 20
103.6150571061
 40
13.5376894438
100
AcDbArc
 50
260.1708739341
 51
261.5388964502
  0
ARC
  5
54D
100
AcDbEntity
  8
KONSTRUKTIONSELEMENTE
100
AcDbCircle
 62
7
  6
CONTINUOUS
 10
371.2738811821
 20
101.9714679214
 40
12.4137650699
100
AcDbArc
 50
269.9902189363
 51
270.1054113919
  0
ARC
  5
54E
100
AcDbEntity
  8
BEZUGSACHSEN
100
AcDbCircle
 62
7
  6
CONTINUOUS
 10
349.3740169337
 20
234.130487834
 40
144.4224572764
100
AcDbArc
 50
268.4995282705
 51
268.8328667796
  0
ARC
  5
54F
100
AcDbEntity
  8
BEZUGSACHSEN
100
AcDbCircle
 62
7
  6
CONTINUOUS
 10
334.3325238543
 20
181.7322039447
 40
91.6520350217
100
AcDbArc
 50
266.2530494178
 51
266.7817291355
  0
ARC
  5
550
100
AcDbEntity
  8
BEZUGSACHSEN
100
AcDbCircle
 62
7
  6
CONTINUOUS
 10
352.6317159988
 20
180.4504950817
 40
90.1779007486
100
AcDbArc
 50
269.9996077372
 51
270.5499515907
  0
ARC
  5
551
100
AcDbEntity
  8
BEZUGSACHSEN
100
AcDbCircle
 62
7
  6
CONTINUOUS
 10
358.0240012731
 20
163.9309147048
 40
73.6583204414
100
AcDbArc
 50
269.7972822865
 51
270.2027200334
  0
ARC
  5
552
100
AcDbEntity
  8
BEZUGSACHSEN
100
AcDbCircle
 62
7
  6
CONTINUOUS
 10
352.2009365455
 20
161.4687186273
 40
71.4126276472
100
AcDbArc
 50
273.8579052559
 51
274.4673943806
  0
SPLINE
  5
553
100
AcDbEntity
  8
KONSTRUKTIONSELEMENTE
100
AcDbSpline
 62
7
  6
CONTINUOUS
 70
0
 71
3
 72
28
 73
24
 74
0
 42
0.0000001
 43
0.0000001
 44
0.0000000001
 40
0.0
 40
0.0
 40
0.0
 40
0.0
 40
0.1243402228
 40
0.1866273209
 40
0.249009927
 40
0.3115206719
 40
0.3742120005
 40
0.405674978
 40
0.4372357647
 40
0.4689232557
 40
0.5007557081
 40
0.5326745545
 40
0.5486836882
 40
0.5646472554
 40
0.596268604
 40
0.6276729248
 40
0.6589198837
 40
0.6900688418
 40
0.7521756909
 40
0.8141870209
 40
0.8761488855
 40
0.9380827507
 40
1.0
 40
1.0
 40
1.0
 40
1.0
 10
279.0440759418
 20
401.5196892064
 30
0.0
 10
279.5647668175
 20
400.0774830785
 30
0.0
 10
280.4254694828
 20
397.9392859306
 30
0.0
 10
281.7679739239
 20
395.1764508662
 30
0.0
 10
282.8908169395
 20
393.1579333863
 30
0.0
 10
284.1525965782
 20
391.2167919011
 30
0.0
 10
285.3515376985
 20
389.695925191
 30
0.0
 10
286.431931696
 20
388.5820595336
 30
0.0
 10
287.3185892885
 20
387.8186737273
 30
0.0
 10
288.2974748071
 20
387.1658965269
 30
0.0
 10
289.3836361305
 20
386.6911362497
 30
0.0
 10
290.376433898
 20
386.5496289008
 30
0.0
 10
291.161701068
 20
386.6559075562
 30
0.0
 10
291.9095262306
 20
386.9063187639
 30
0.0
 10
292.7330195427
 20
387.4583559354
 30
0.0
 10
293.5105794752
 20
388.3319638067
 30
0.0
 10
294.13207953
 20
389.3115530944
 30
0.0
 10
294.8068255255
 20
390.692947456
 30
0.0
 10
295.4443046234
 20
392.5040089313
 30
0.0
 10
296.0132818935
 20
394.7283877249
 30
0.0
 10
296.4520549308
 20
396.9795557971
 30
0.0
 10
296.7994652879
 20
399.2448455522
 30
0.0
 10
296.9862159488
 20
400.7608754897
 30
0.0
 10
297.0710665164
 20
401.5196892064
 30
0.0
  0
SPLINE
  5
554
100
AcDbEntity
  8
KONSTRUKTIONSELEMENTE
100
AcDbSpline
 62
7
  6
CONTINUOUS
 70
0
 71
3
 72
28
 73
24
 74
0
 42
0.0000001
 43
0.0000001
 44
0.0000000001
 40
0.0
 40
0.0
 40
0.0
 40
0.0
 40
0.0619172356
 40
0.1238510907
 40
0.1858129542
 40
0.2478242892
 40
0.3099311994
 40
0.3410802227
 40
0.3723272643
 40
0.4037315621
 40
0.4353531508
 40
0.4513167113
 40
0.467325827
 40
0.4992448653
 40
0.5310771413
 40
0.5627646425
 40
0.5943254185
 40
0.6257883542
 40
0.6884796568
 40
0.7509903273
 40
0.8133728837
 40
0.8756599222
 40
1.0
 40
1.0
 40
1.0
 40
1.0
 10
297.0710665164
 20
456.5196892064
 30
0.0
 10
296.986215968
 20
457.278502751
 30
0.0
 10
296.7994653841
 20
458.7945324008
 30
0.0
 10
296.4520546694
 20
461.0598217555
 30
0.0
 10
296.0132826162
 20
463.3109899644
 30
0.0
 10
295.4443042451
 20
465.5353692102
 30
0.0
 10
294.8068268104
 20
467.3464330545
 30
0.0
 10
294.1320798789
 20
468.7278296852
 30
0.0
 10
293.5105797993
 20
469.70742122
 30
0.0
 10
292.7330121576
 20
470.5810268841
 30
0.0
 10
291.9095152125
 20
471.1330644472
 30
0.0
 10
291.1616848996
 20
471.3834686586
 30
0.0
 10
290.3764159259
 20
471.4897462749
 30
0.0
 10
289.3836178616
 20
471.348239432
 30
0.0
 10
288.2974570062
 20
470.8734768454
 30
0.0
 10
287.318576143
 20
470.2206965123
 30
0.0
 10
286.4319210158
 20
469.4573089496
 30
0.0
 10
285.3515263255
 20
468.3434452523
 30
0.0
 10
284.1525915839
 20
466.8225756788
 30
0.0
 10
282.8908100898
 20
464.8814378301
 30
0.0
 10
281.7679715099
 20
462.8629203477
 30
0.0
 10
280.4254680172
 20
460.1000884589
 30
0.0
 10
279.5647662076
 20
457.9618936451
 30
0.0
 10
279.0440759418
 20
456.5196892064
 30
0.0
  0
SPLINE
  5
555
100
AcDbEntity
  8
KONSTRUKTIONSELEMENTE
100
AcDbSpline
 62
7
  6
CONTINUOUS
 70
0
 71
3
 72
28
 73
24
 74
0
 42
0.0000001
 43
0.0000001
 44
0.0000000001
 40
0.0
 40
0.0
 40
0.0
 40
0.0
 40
0.1243402244
 40
0.1866273236
 40
0.2490099309
 40
0.3115206775
 40
0.3742120078
 40
0.4056749864
 40
0.4372357734
 40
0.4689232616
 40
0.5007557067
 40
0.5326745433
 40
0.5486836797
 40
0.5646472516
 40
0.5962685993
 40
0.6276729207
 40
0.6589198797
 40
0.6900688381
 40
0.7521756878
 40
0.8141870186
 40
0.8761488839
 40
0.93808275
 40
1.0
 40
1.0
 40
1.0
 40
1.0
 10
382.660502216
 20
456.5196892064
 30
0.0
 10
382.1398113336
 20
457.9618953529
 30
0.0
 10
381.2791086542
 20
460.1000925287
 30
0.0
 10
379.9366041944
 20
462.8629276366
 30
0.0
 10
378.8137611332
 20
464.8814451441
 30
0.0
 10
377.5519814836
 20
466.8225866913
 30
0.0
 10
376.353040267
 20
468.3434533941
 30
0.0
 10
375.2726462512
 20
469.4573190838
 30
0.0
 10
374.3859886392
 20
470.2207048441
 30
0.0
 10
373.4071031829
 20
470.8734819141
 30
0.0
 10
372.3209420942
 20
471.348242095
 30
0.0
 10
371.3281445201
 20
471.4897494769
 30
0.0
 10
370.5428773751
 20
471.3834708821
 30
0.0
 10
369.7950520847
 20
471.1330597913
 30
0.0
 10
368.971558739
 20
470.5810225528
 30
0.0
 10
368.1939987672
 20
469.7074147328
 30
0.0
 10
367.5724986925
 20
468.7278254403
 30
0.0
 10
366.8977526757
 20
467.3464310766
 30
0.0
 10
366.260273565
 20
465.5353695846
 30
0.0
 10
365.6912962798
 20
463.3109907683
 30
0.0
 10
365.2525232383
 20
461.0598226692
 30
0.0
 10
364.9051128733
 20
458.7945328876
 30
0.0
 10
364.71836221
 20
457.2785029321
 30
0.0
 10
364.6335116414
 20
456.5196892064
 30
0.0
  0
SPLINE
  5
556
100
AcDbEntity
  8
KONSTRUKTIONSELEMENTE
100
AcDbSpline
 62
7
  6
CONTINUOUS
 70
0
 71
3
 72
28
 73
24
 74
0
 42
0.0000001
 43
0.0000001
 44
0.0000000001
 40
0.0
 40
0.0
 40
0.0
 40
0.0
 40
0.0619172342
 40
0.1238510876
 40
0.1858129483
 40
0.2478242794
 40
0.3099311781
 40
0.3410801903
 40
0.372327214
 40
0.4037315
 40
0.4353530176
 40
0.4513166023
 40
0.467325748
 40
0.4992447939
 40
0.5310771122
 40
0.5627646212
 40
0.5943254014
 40
0.6257883415
 40
0.6884796469
 40
0.7509903215
 40
0.8133728795
 40
0.8756599192
 40
1.0
 40
1.0
 40
1.0
 40
1.0
 10
364.6335116414
 20
401.5196892064
 30
0.0
 10
364.7183621882
 20
400.7608756761
 30
0.0
 10
364.9051127718
 20
399.2448460609
 30
0.0
 10
365.2525234311
 20
396.9795567619
 30
0.0
 10
365.6912955546
 20
394.728388669
 30
0.0
 10
366.2602737542
 20
392.5040095943
 30
0.0
 10
366.8977512844
 20
390.6929461317
 30
0.0
 10
367.5724979761
 20
389.3115499241
 30
0.0
 10
368.1939978163
 20
388.331958874
 30
0.0
 10
368.971563827
 20
387.4583534603
 30
0.0
 10
369.7950593909
 20
386.9063153578
 30
0.0
 10
370.5428891007
 20
386.6559098752
 30
0.0
 10
371.3281588384
 20
386.5496318379
 30
0.0
 10
372.3209579297
 20
386.691138403
 30
0.0
 10
373.4071195725
 20
387.1659010557
 30
0.0
 10
374.3860011901
 20
387.8186814541
 30
0.0
 10
375.2726566119
 20
388.5820690155
 30
0.0
 10
376.3530513079
 20
389.6959329042
 30
0.0
 10
377.5519864826
 20
391.2168023181
 30
0.0
 10
378.8137678213
 20
393.1579404153
 30
0.0
 10
379.9366066159
 20
395.1764578758
 30
0.0
 10
381.2791101057
 20
397.9392898634
 30
0.0
 10
382.1398119364
 20
400.0774847294
 30
0.0
 10
382.660502216
 20
401.5196892064
 30
0.0
  0
SPLINE
  5
557
100
AcDbEntity
  8
BEZUGSACHSEN
100
AcDbSpline
 62
7
  6
CONTINUOUS
 70
0
 71
3
 72
9
 73
5
 74
0
 42
0.0000001
 43
0.0000001
 44
0.0000000001
 40
0.0
 40
0.0
 40
0.0
 40
0.0
 40
0.5112601974
 40
1.0
 40
1.0
 40
1.0
 40
1.0
 10
550.5993446193
 20
496.4211203022
 30
0.0
 10
550.8395496087
 20
496.0161022818
 30
0.0
 10
551.2197969846
 20
495.1647763142
 30
0.0
 10
551.3541983601
 20
494.2393986154
 30
0.0
 10
551.3542043267
 20
493.7892501005
 30
0.0
  0
SPLINE
  5
558
100
AcDbEntity
  8
BEZUGSACHSEN
100
AcDbSpline
 62
7
  6
CONTINUOUS
 70
0
 71
3
 72
9
 73
5
 74
0
 42
0.0000001
 43
0.0000001
 44
0.0000000001
 40
0.0
 40
0.0
 40
0.0
 40
0.0
 40
0.5047722371
 40
1.0
 40
1.0
 40
1.0
 40
1.0
 10
550.5924900422
 20
511.0943100372
 30
0.0
 10
550.8408234969
 20
510.5642163128
 30
0.0
 10
551.2241339117
 20
509.4588229687
 30
0.0
 10
551.3541656046
 20
508.2955064034
 30
0.0
 10
551.3542043646
 20
507.7211957888
 30
0.0
  0
SPLINE
  5
559
100
AcDbEntity
  8
BEZUGSACHSEN
100
AcDbSpline
 62
7
  6
CONTINUOUS
 70
0
 71
3
 72
9
 73
5
 74
0
 42
0.0000001
 43
0.0000001
 44
0.0000000001
 40
0.0
 40
0.0
 40
0.0
 40
0.0
 40
0.7433435734
 40
1.0
 40
1.0
 40
1.0
 40
1.0
 10
550.6358369743
 20
515.0370472766
 30
0.0
 10
550.6434395941
 20
514.958713483
 30
0.0
 10
550.636539128
 20
514.8506485758
 30
0.0
 10
550.6079694446
 20
514.748629355
 30
0.0
 10
550.5993446005
 20
514.7228608104
 30
0.0
  0
SPLINE
  5
55A
100
AcDbEntity
  8
BEZUGSACHSEN
100
AcDbSpline
 62
7
  6
CONTINUOUS
 70
0
 71
3
 72
9
 73
5
 74
0
 42
0.0000001
 43
0.0000001
 44
0.0000000001
 40
0.0
 40
0.0
 40
0.0
 40
0.0
 40
0.5049537649
 40
1.0
 40
1.0
 40
1.0
 40
1.0
 10
550.599344613
 20
503.3809839955
 30
0.0
 10
550.8326221709
 20
502.8939748804
 30
0.0
 10
551.1993473007
 20
501.8801427949
 30
0.0
 10
551.3409009998
 20
500.8104636385
 30
0.0
 10
551.3524678786
 20
500.2811885375
 30
0.0
  0
SPLINE
  5
55B
100
AcDbEntity
  8
KONSTRUKTIONSELEMENTE
100
AcDbSpline
 62
7
  6
CONTINUOUS
 70
0
 71
3
 72
12
 73
8
 74
0
 42
0.0000001
 43
0.0000001
 44
0.0000000001
 40
0.0
 40
0.0
 40
0.0
 40
0.0
 40
0.1794455768
 40
0.3891670555
 40
0.6469242811
 40
0.8073233006
 40
1.0
 40
1.0
 40
1.0
 40
1.0
 10
382.660502216
 20
93.5576995629
 30
0.0
 10
382.0722900399
 20
93.1211497244
 30
0.0
 10
380.7371271335
 20
92.252699851
 30
0.0
 10
378.3689077802
 20
91.0726725839
 30
0.0
 10
375.9401068407
 20
90.2230665059
 30
0.0
 10
373.5011806907
 20
89.6916040264
 30
0.0
 10
372.0585306535
 20
89.5575879416
 30
0.0
 10
371.2720114032
 20
89.557701999
 30
0.0
  0
SPLINE
  5
55C
100
AcDbEntity
  8
KONSTRUKTIONSELEMENTE
100
AcDbSpline
 62
7
  6
CONTINUOUS
 70
0
 71
3
 72
12
 73
8
 74
0
 42
0.0000001
 43
0.0000001
 44
0.0000000001
 40
0.0
 40
0.0
 40
0.0
 40
0.0
 40
0.1926781925
 40
0.3530783452
 40
0.6108355881
 40
0.8205559065
 40
1.0
 40
1.0
 40
1.0
 40
1.0
 10
290.432855856
 20
89.5577031831
 30
0.0
 10
289.6463120215
 20
89.5575656993
 30
0.0
 10
288.2036140628
 20
89.6915694171
 30
0.0
 10
285.7646151852
 20
90.2230225503
 30
0.0
 10
283.3357515934
 20
91.0726352978
 30
0.0
 10
280.9674833638
 20
92.2526800783
 30
0.0
 10
279.6322970861
 20
93.1211430686
 30
0.0
 10
279.0440759418
 20
93.5576995629
 30
0.0
  0
SPLINE
  5
55D
100
AcDbEntity
  8
KONSTRUKTIONSELEMENTE
100
AcDbSpline
 62
7
  6
CONTINUOUS
 70
0
 71
3
 72
12
 73
8
 74
0
 42
0.0000001
 43
0.0000001
 44
0.0000000001
 40
0.0
 40
0.0
 40
0.0
 40
0.0
 40
0.1926781147
 40
0.3530780708
 40
0.6108352614
 40
0.8205557128
 40
1.0
 40
1.0
 40
1.0
 40
1.0
 10
371.2717670247
 20
113.5576961118
 30
0.0
 10
372.0583076805
 20
113.5578302669
 30
0.0
 10
373.5009987646
 20
113.4238240461
 30
0.0
 10
375.9399866486
 20
112.89236929
 30
0.0
 10
378.368840093
 20
112.042757685
 30
0.0
 10
380.7371001958
 20
110.862715707
 30
0.0
 10
382.072282577
 20
109.99425494
 30
0.0
 10
382.660502216
 20
109.5576995629
 30
0.0
  0
SPLINE
  5
55E
100
AcDbEntity
  8
KONSTRUKTIONSELEMENTE
100
AcDbSpline
 62
7
  6
CONTINUOUS
 70
0
 71
3
 72
12
 73
8
 74
0
 42
0.0000001
 43
0.0000001
 44
0.0000000001
 40
0.0
 40
0.0
 40
0.0
 40
0.0
 40
0.1794455571
 40
0.3891670156
 40
0.6469242231
 40
0.8073232446
 40
1.0
 40
1.0
 40
1.0
 40
1.0
 10
279.0440759418
 20
109.5576995629
 30
0.0
 10
279.6322881826
 20
109.9942494493
 30
0.0
 10
280.9674512524
 20
110.8626994145
 30
0.0
 10
283.3356709343
 20
112.0427267985
 30
0.0
 10
285.7644723072
 20
112.8923329059
 30
0.0
 10
288.2033991837
 20
113.4237954063
 30
0.0
 10
289.646049804
 20
113.5578113266
 30
0.0
 10
290.4325694555
 20
113.5576971309
 30
0.0
  0
SPLINE
  5
55F
100
AcDbEntity
  8
BEZUGSACHSEN
100
AcDbSpline
 62
7
  6
CONTINUOUS
 70
0
 71
3
 72
13
 73
9
 74
0
 42
0.0000001
 43
0.0000001
 44
0.0000000001
 40
0.0
 40
0.0
 40
0.0
 40
0.0
 40
0.2311658629
 40
0.5248918589
 40
0.6716439629
 40
0.805423995
 40
0.9174086938
 40
1.0
 40
1.0
 40
1.0
 40
1.0
 10
344.8522890789
 20
89.673773187
 30
0.0
 10
344.5143993778
 20
89.718836903
 30
0.0
 10
343.7398596538
 20
89.7652319135
 30
0.0
 10
342.7490554294
 20
89.7360025187
 30
0.0
 10
341.9046110428
 20
89.6721926469
 30
0.0
 10
341.3282201173
 20
89.6187678176
 30
0.0
 10
340.8460833581
 20
89.5754307625
 30
0.0
 10
340.5593855612
 20
89.5577354256
 30
0.0
 10
340.4375948871
 20
89.5577021102
 30
0.0
  0
SPLINE
  5
560
100
AcDbEntity
  8
BEZUGSACHSEN
100
AcDbSpline
 62
7
  6
CONTINUOUS
 70
0
 71
3
 72
9
 73
5
 74
0
 42
0.0000001
 43
0.0000001
 44
0.0000000001
 40
0.0
 40
0.0
 40
0.0
 40
0.0
 40
0.2058688819
 40
1.0
 40
1.0
 40
1.0
 40
1.0
 10
307.5891261671
 20
89.5646565323
 30
0.0
 10
307.5854351828
 20
89.5667932032
 30
0.0
 10
307.5685623161
 20
89.5790075883
 30
0.0
 10
307.556047632
 20
89.596210687
 30
0.0
 10
307.547351571
 20
89.6101758881
 30
0.0
  0
SPLINE
  5
561
100
AcDbEntity
  8
BEZUGSACHSEN
100
AcDbSpline
 62
7
  6
CONTINUOUS
 70
0
 71
3
 72
9
 73
5
 74
0
 42
0.0000001
 43
0.0000001
 44
0.0000000001
 40
0.0
 40
0.0
 40
0.0
 40
0.0
 40
0.5033480354
 40
1.0
 40
1.0
 40
1.0
 40
1.0
 10
365.4537289567
 20
90.3125763859
 30
0.0
 10
364.9020954254
 20
90.0665369816
 30
0.0
 10
363.7535212583
 20
89.6869149643
 30
0.0
 10
362.5501117309
 20
89.5577226507
 30
0.0
 10
361.95413131
 20
89.5577167099
 30
0.0
  0
SPLINE
  5
562
100
AcDbEntity
  8
BEZUGSACHSEN
100
AcDbSpline
 62
7
  6
CONTINUOUS
 70
0
 71
3
 72
9
 73
5
 74
0
 42
0.0000001
 43
0.0000001
 44
0.0000000001
 40
0.0
 40
0.0
 40
0.0
 40
0.0
 40
0.4899669347
 40
1.0
 40
1.0
 40
1.0
 40
1.0
 10
315.9642417509
 20
89.5577007706
 30
0.0
 10
315.4987191207
 20
89.5576977037
 30
0.0
 10
314.5444812435
 20
89.6866294425
 30
0.0
 10
313.6581552911
 20
90.0583806218
 30
0.0
 10
313.2354647623
 20
90.2953572545
 30
0.0
  0
SPLINE
  5
563
100
AcDbEntity
  8
BEZUGSACHSEN
100
AcDbSpline
 62
7
  6
CONTINUOUS
 70
0
 71
3
 72
12
 73
8
 74
0
 42
0.0000001
 43
0.0000001
 44
0.0000000001
 40
0.0
 40
0.0
 40
0.0
 40
0.0
 40
0.0318647904
 40
0.0849147541
 40
0.2735216105
 40
0.578463413
 40
1.0
 40
1.0
 40
1.0
 40
1.0
 10
318.7100310489
 20
89.5577166775
 30
0.0
 10
318.7015883284
 20
89.557727621
 30
0.0
 10
318.6811114441
 20
89.572664782
 30
0.0
 10
318.6488024112
 20
89.6371057611
 30
0.0
 10
318.6114006118
 20
89.7786856121
 30
0.0
 10
318.5707353772
 20
90.0171089838
 30
0.0
 10
318.5471330245
 20
90.2084231192
 30
0.0
 10
318.5348249787
 20
90.3194309944
 30
0.0
  0
SPLINE
  5
564
100
AcDbEntity
  8
BEZUGSACHSEN
100
AcDbSpline
 62
7
  6
CONTINUOUS
 70
0
 71
3
 72
11
 73
7
 74
0
 42
0.0000001
 43
0.0000001
 44
0.0000000001
 40
0.0
 40
0.0
 40
0.0
 40
0.0
 40
0.1935952112
 40
0.4140670143
 40
0.6797309759
 40
1.0
 40
1.0
 40
1.0
 40
1.0
 10
322.8440703816
 20
89.5577188401
 30
0.0
 10
322.7679723218
 20
89.5577196939
 30
0.0
 10
322.6041165163
 20
89.5933492133
 30
0.0
 10
322.3766726572
 20
89.7406393634
 30
0.0
 10
322.1584133857
 20
89.9732203017
 30
0.0
 10
322.0300263012
 20
90.165423233
 30
0.0
 10
321.9656880313
 20
90.2736317098
 30
0.0
  0
SPLINE
  5
565
100
AcDbEntity
  8
BEZUGSACHSEN
100
AcDbSpline
 62
7
  6
CONTINUOUS
 70
0
 71
3
 72
9
 73
5
 74
0
 42
0.0000001
 43
0.0000001
 44
0.0000000001
 40
0.0
 40
0.0
 40
0.0
 40
0.0
 40
0.2240841501
 40
1.0
 40
1.0
 40
1.0
 40
1.0
 10
330.7035799255
 20
89.6706407164
 30
0.0
 10
330.69892804
 20
89.6788011182
 30
0.0
 10
330.6790333028
 20
89.7157112302
 30
0.0
 10
330.6621660888
 20
89.7541883027
 30
0.0
 10
330.650101347
 20
89.7843928766
 30
0.0
  0
SPLINE
  5
566
100
AcDbEntity
  8
BEZUGSACHSEN
100
AcDbSpline
 62
7
  6
CONTINUOUS
 70
0
 71
3
 72
9
 73
5
 74
0
 42
0.0000001
 43
0.0000001
 44
0.0000000001
 40
0.0
 40
0.0
 40
0.0
 40
0.0
 40
0.255243415
 40
1.0
 40
1.0
 40
1.0
 40
1.0
 10
351.1694863514
 20
89.9134635582
 30
0.0
 10
351.1195700679
 20
89.8885917619
 30
0.0
 10
350.921914227
 20
89.7954354703
 30
0.0
 10
350.7157594148
 20
89.7200710645
 30
0.0
 10
350.5591723033
 20
89.6757967175
 30
0.0
  0
SPLINE
  5
567
100
AcDbEntity
  8
RUNDUNGEN
100
AcDbSpline
 62
7
  6
CONTINUOUS
 70
0
 71
3
 72
9
 73
5
 74
0
 42
0.0000001
 43
0.0000001
 44
0.0000000001
 40
0.0
 40
0.0
 40
0.0
 40
0.0
 40
0.4933252081
 40
1.0
 40
1.0
 40
1.0
 40
1.0
 10
307.3523310972
 20
83.3470029465
 30
0.0
 10
307.354387727
 20
83.780830542
 30
0.0
 10
307.5134929241
 20
84.665531842
 30
0.0
 10
307.9599343657
 20
85.4453723184
 30
0.0
 10
308.242316933
 20
85.7900382899
 30
0.0
  0
LINE
  5
568
100
AcDbEntity
  8
RUNDUNGEN
100
AcDbLine
 62
7
  6
CONTINUOUS
 10
308.242316933
 20
85.7900382899
 11
308.2486128167
 21
85.7977033218
  0
SPLINE
  5
569
100
AcDbEntity
  8
RUNDUNGEN
100
AcDbSpline
 62
7
  6
CONTINUOUS
 70
0
 71
3
 72
9
 73
5
 74
0
 42
0.0000001
 43
0.0000001
 44
0.0000000001
 40
0.0
 40
0.0
 40
0.0
 40
0.0
 40
0.4933252189
 40
1.0
 40
1.0
 40
1.0
 40
1.0
 10
354.3522470694
 20
119.7683984871
 30
0.0
 10
354.3501907106
 20
119.3345705072
 30
0.0
 10
354.1910857494
 20
118.4498683439
 30
0.0
 10
353.744644045
 20
117.6700270835
 30
0.0
 10
353.4622612229
 20
117.3253608369
 30
0.0
  0
LINE
  5
56A
100
AcDbEntity
  8
RUNDUNGEN
100
AcDbLine
 62
7
  6
CONTINUOUS
 10
353.4622612229
 20
117.3253608369
 11
353.4559655963
 21
117.3176961182
  0
LINE
  5
56B
100
AcDbEntity
  8
RUNDUNGEN
100
AcDbLine
 62
7
  6
CONTINUOUS
 10
308.2486530008
 20
117.3176470868
 11
308.2423170047
 21
117.3253609518
  0
SPLINE
  5
56C
100
AcDbEntity
  8
RUNDUNGEN
100
AcDbSpline
 62
7
  6
CONTINUOUS
 70
0
 71
3
 72
9
 73
5
 74
0
 42
0.0000001
 43
0.0000001
 44
0.0000000001
 40
0.0
 40
0.0
 40
0.0
 40
0.0
 40
0.506674859
 40
1.0
 40
1.0
 40
1.0
 40
1.0
 10
308.2423170047
 20
117.3253609518
 30
0.0
 10
307.9599319632
 20
117.670035271
 30
0.0
 10
307.5134805084
 20
118.4498883836
 30
0.0
 10
307.3543819659
 20
119.3346088098
 30
0.0
 10
307.3523308744
 20
119.7684441288
 30
0.0
  0
LINE
  5
56D
100
AcDbEntity
  8
RUNDUNGEN
100
AcDbLine
 62
7
  6
CONTINUOUS
 10
353.4559653365
 20
85.7977032656
 11
353.462261198
 21
85.7900382591
  0
SPLINE
  5
56E
100
AcDbEntity
  8
RUNDUNGEN
100
AcDbSpline
 62
7
  6
CONTINUOUS
 70
0
 71
3
 72
9
 73
5
 74
0
 42
0.0000001
 43
0.0000001
 44
0.0000000001
 40
0.0
 40
0.0
 40
0.0
 40
0.0
 40
0.5066748543
 40
1.0
 40
1.0
 40
1.0
 40
1.0
 10
353.462261198
 20
85.7900382591
 30
0.0
 10
353.7446489518
 20
85.4453658867
 30
0.0
 10
354.1910966542
 20
84.6655091548
 30
0.0
 10
354.3501963421
 20
83.7807892822
 30
0.0
 10
354.3522472883
 20
83.3469537469
 30
0.0
  0
ELLIPSE
  5
56F
100
AcDbEntity
  8
0
100
AcDbEllipse
 62
7
  6
CONTINUOUS
 10
330.8522890789
 20
289.9452210706
 30
0.0
 11
-0.0
 21
45.4468083978
 31
0.0
 40
0.9791666691
 41
-1.7208339036
 42
-1.7173882018
  0
ELLIPSE
  5
570
100
AcDbEntity
  8
0
100
AcDbEllipse
 62
7
  6
CONTINUOUS
 10
330.8522890789
 20
299.902636588
 30
0.0
 11
0.0
 21
113.61680694
 31
0.0
 40
0.3916674055
 41
-1.7173882018
 42
-1.7060396731
  0
ELLIPSE
  5
571
100
AcDbEntity
  8
0
100
AcDbEllipse
 62
7
  6
CONTINUOUS
 10
330.8522890789
 20
270.0303565938
 30
0.0
 11
0.0
 21
113.6168228544
 31
0.0
 40
0.3916673507
 41
-1.4355529804
 42
-1.4309822241
  0
ELLIPSE
  5
572
100
AcDbEntity
  8
0
100
AcDbEllipse
 62
7
  6
CONTINUOUS
 10
330.8522890789
 20
294.28563562
 30
0.0
 11
0.0
 21
136.3401492307
 31
0.0
 40
0.3263895503
 41
-1.6101323129
 42
-1.6045105678
  0
ELLIPSE
  5
573
100
AcDbEntity
  8
0
100
AcDbEllipse
 62
7
  6
CONTINUOUS
 10
330.8522890789
 20
291.3069227975
 30
0.0
 11
0.0
 21
60.5957374573
 31
0.0
 40
0.7343750875
 41
-1.6270056963
 42
-1.6101323129
  0
ELLIPSE
  5
574
100
AcDbEntity
  8
0
100
AcDbEllipse
 62
7
  6
CONTINUOUS
 10
330.8522890789
 20
289.8175603598
 30
0.0
 11
44.5
 21
0.0
 31
0.0
 40
0.7659569903
 41
-0.0787330137
 42
-0.0562093695
  0
ELLIPSE
  5
575
100
AcDbEntity
  8
0
100
AcDbEllipse
 62
7
  6
CONTINUOUS
 10
330.8522890789
 20
287.8516044306
 30
0.0
 11
44.5
 21
0.0
 31
0.0
 40
0.2042553727
 41
-0.1069453174
 42
-0.0787330137
  0
ELLIPSE
  5
576
100
AcDbEntity
  8
0
100
AcDbEllipse
 62
7
  6
CONTINUOUS
 10
330.8522890789
 20
292.549476186
 30
0.0
 11
44.5
 21
-0.0
 31
0.0
 40
0.2042553727
 41
0.0787330137
 42
0.1069453174
  0
ELLIPSE
  5
577
100
AcDbEntity
  8
0
100
AcDbEllipse
 62
7
  6
CONTINUOUS
 10
330.8522890789
 20
290.5835202568
 30
0.0
 11
44.5
 21
0.0
 31
0.0
 40
0.7659569903
 41
0.0562093695
 42
0.0787330137
  0
ELLIPSE
  5
578
100
AcDbEntity
  8
0
100
AcDbEllipse
 62
7
  6
CONTINUOUS
 10
330.8522890789
 20
289.0941578191
 30
0.0
 11
-0.0
 21
60.5957374573
 31
0.0
 40
0.7343750875
 41
-1.5314603407
 42
-1.5145869573
  0
ELLIPSE
  5
579
100
AcDbEntity
  8
0
100
AcDbEllipse
 62
7
  6
CONTINUOUS
 10
330.8522890789
 20
286.1154449965
 30
0.0
 11
0.0
 21
136.3401492307
 31
0.0
 40
0.3263895503
 41
-1.5370820858
 42
-1.5314603407
  0
ELLIPSE
  5
57A
100
AcDbEntity
  8
0
100
AcDbEllipse
 62
7
  6
CONTINUOUS
 10
330.8522890789
 20
328.7537648288
 30
0.0
 11
0.0
 21
136.3405393033
 31
0.0
 40
0.3263886165
 41
-1.8672546126
 42
-1.8613856171
  0
ELLIPSE
  5
57B
100
AcDbEntity
  8
0
100
AcDbEllipse
 62
7
  6
CONTINUOUS
 10
330.8522890789
 20
306.6260699075
 30
0.0
 11
0.0
 21
60.5957374573
 31
0.0
 40
0.7343750875
 41
-1.8849259092
 42
-1.8672546126
  0
ELLIPSE
  5
57C
100
AcDbEntity
  8
0
100
AcDbEllipse
 62
7
  6
CONTINUOUS
 10
330.8522890789
 20
298.4345840333
 30
0.0
 11
44.5
 21
0.0
 31
0.0
 40
0.7659575381
 41
-0.3378513444
 42
-0.3141295824
  0
ELLIPSE
  5
57D
100
AcDbEntity
  8
0
100
AcDbEllipse
 62
7
  6
CONTINUOUS
 10
330.8522890789
 20
290.1494755036
 30
0.0
 11
44.5
 21
-0.0
 31
0.0
 40
0.2042552558
 41
-0.3677862006
 42
-0.3378513444
  0
ELLIPSE
  5
57E
100
AcDbEntity
  8
0
100
AcDbEllipse
 62
7
  6
CONTINUOUS
 10
330.8522890789
 20
290.251605113
 30
0.0
 11
44.5
 21
0.0
 31
0.0
 40
0.2042552558
 41
0.3378513444
 42
0.3677862006
  0
ELLIPSE
  5
57F
100
AcDbEntity
  8
0
100
AcDbEllipse
 62
7
  6
CONTINUOUS
 10
330.8522890789
 20
281.9664965833
 30
0.0
 11
44.5
 21
0.0
 31
0.0
 40
0.7659575381
 41
0.3141295824
 42
0.3378513444
  0
ELLIPSE
  5
580
100
AcDbEntity
  8
0
100
AcDbEllipse
 62
7
  6
CONTINUOUS
 10
330.8522890789
 20
273.7750107091
 30
0.0
 11
-0.0
 21
60.5957374573
 31
0.0
 40
0.7343750875
 41
-1.274338041
 42
-1.2566667444
  0
ELLIPSE
  5
581
100
AcDbEntity
  8
0
100
AcDbEllipse
 62
7
  6
CONTINUOUS
 10
330.8522890789
 20
251.6473157878
 30
0.0
 11
0.0
 21
136.3405393033
 31
0.0
 40
0.3263886165
 41
-1.2802070364
 42
-1.274338041
  0
ELLIPSE
  5
582
100
AcDbEntity
  8
0
100
AcDbEllipse
 62
7
  6
CONTINUOUS
 10
330.8522890789
 20
287.3494329695
 30
0.0
 11
0.0
 21
181.7879058377
 31
0.0
 40
0.244790762
 41
-1.5089591616
 42
-1.5033294364
  0
ELLIPSE
  5
583
100
AcDbEntity
  8
0
100
AcDbEllipse
 62
7
  6
CONTINUOUS
 10
330.8522890789
 20
294.3707608355
 30
0.0
 11
0.0
 21
68.1700746153
 31
0.0
 40
0.6527791007
 41
-1.5202129714
 42
-1.5089591616
  0
ELLIPSE
  5
584
100
AcDbEntity
  8
0
100
AcDbEllipse
 62
7
  6
CONTINUOUS
 10
330.8522890789
 20
296.2856467078
 30
0.0
 11
44.5
 21
-0.0
 31
0.0
 40
0.6808512211
 41
0.033714241
 42
0.0505833553
  0
ELLIPSE
  5
585
100
AcDbEntity
  8
0
100
AcDbEllipse
 62
7
  6
CONTINUOUS
 10
330.8522890789
 20
296.9239442935
 30
0.0
 11
44.5
 21
0.0
 31
0.0
 40
0.255319362
 41
0.0112362022
 42
0.033714241
  0
ELLIPSE
  5
586
100
AcDbEntity
  8
0
100
AcDbEllipse
 62
7
  6
CONTINUOUS
 10
330.8522890789
 20
305.477136648
 30
0.0
 11
44.5
 21
0.0
 31
0.0
 40
0.2042552558
 41
0.1979188211
 42
0.2266547548
  0
ELLIPSE
  5
587
100
AcDbEntity
  8
0
100
AcDbEllipse
 62
7
  6
CONTINUOUS
 10
330.8522890789
 20
300.562241812
 30
0.0
 11
44.5
 21
-0.0
 31
0.0
 40
0.7659575381
 41
0.1750499286
 42
0.1979188211
  0
ELLIPSE
  5
588
100
AcDbEntity
  8
0
100
AcDbEllipse
 62
7
  6
CONTINUOUS
 10
330.8522890789
 20
295.9452225011
 30
0.0
 11
-0.0
 21
60.5957374573
 31
0.0
 40
0.7343750875
 41
-1.4128368959
 42
-1.3957463982
  0
ELLIPSE
  5
589
100
AcDbEntity
  8
0
100
AcDbEllipse
 62
7
  6
CONTINUOUS
 10
330.8522890789
 20
284.0303098511
 30
0.0
 11
0.0
 21
136.3405393033
 31
0.0
 40
0.3263886165
 41
-1.4185231473
 42
-1.4128368959
  0
ELLIPSE
  5
58A
100
AcDbEntity
  8
0
100
AcDbEllipse
 62
7
  6
CONTINUOUS
 10
330.8522890789
 20
324.3707707654
 30
0.0
 11
0.0
 21
136.3405393033
 31
0.0
 40
0.3263886165
 41
-1.7287557577
 42
-1.7230695063
  0
ELLIPSE
  5
58B
100
AcDbEntity
  8
0
100
AcDbEllipse
 62
7
  6
CONTINUOUS
 10
330.8522890789
 20
312.4558581155
 30
0.0
 11
0.0
 21
60.5957374573
 31
0.0
 40
0.7343750875
 41
-1.7458462554
 42
-1.7287557577
  0
ELLIPSE
  5
58C
100
AcDbEntity
  8
0
100
AcDbEllipse
 62
7
  6
CONTINUOUS
 10
330.8522890789
 20
305.8601151644
 30
0.0
 11
44.5
 21
-0.0
 31
0.0
 40
0.5106383587
 41
-0.1979188211
 42
-0.1750499286
  0
ELLIPSE
  5
58D
100
AcDbEntity
  8
0
100
AcDbEllipse
 62
7
  6
CONTINUOUS
 10
330.8522890789
 20
278.5551507776
 30
0.0
 11
0.0
 21
116.1418442726
 31
0.0
 40
0.3831521729
 41
-1.4242044572
 42
-1.3728775057
  0
ELLIPSE
  5
58E
100
AcDbEntity
  8
0
100
AcDbEllipse
 62
7
  6
CONTINUOUS
 10
330.8522890789
 20
288.1579845525
 30
0.0
 11
-0.0
 21
45.4468464344
 31
0.0
 40
0.9791658496
 41
-1.4976975366
 42
-1.4864266161
  0
ELLIPSE
  5
58F
100
AcDbEntity
  8
0
100
AcDbEllipse
 62
7
  6
CONTINUOUS
 10
330.8522890789
 20
290.7111790652
 30
0.0
 11
44.5
 21
-0.0
 31
0.0
 40
0.3404254913
 41
0.0843697107
 42
0.1012967307
  0
ELLIPSE
  5
590
100
AcDbEntity
  8
0
100
AcDbEllipse
 62
7
  6
CONTINUOUS
 10
330.8522890789
 20
293.7750076908
 30
0.0
 11
44.5
 21
-0.0
 31
0.0
 40
0.3404254913
 41
-0.3617725358
 42
-0.3438122292
  0
ELLIPSE
  5
591
100
AcDbEntity
  8
0
100
AcDbEllipse
 62
7
  6
CONTINUOUS
 10
330.8522890789
 20
303.9877652884
 30
0.0
 11
-0.0
 21
45.4467814222
 31
0.0
 40
0.9791672503
 41
-1.914608556
 42
-1.9026992607
  0
ELLIPSE
  5
592
100
AcDbEntity
  8
0
100
AcDbEllipse
 62
7
  6
CONTINUOUS
 10
330.8522890789
 20
333.6048324631
 30
0.0
 11
0.0
 21
136.3405393033
 31
0.0
 40
0.3263886165
 41
-1.9026992607
 42
-1.8967630204
  0
ELLIPSE
  5
593
100
AcDbEntity
  8
0
100
AcDbEllipse
 62
7
  6
CONTINUOUS
 10
330.8522890789
 20
247.0515672719
 30
0.0
 11
0.0
 21
136.3405393033
 31
0.0
 40
0.3263886165
 41
-1.2448296331
 42
-1.2388933929
  0
ELLIPSE
  5
594
100
AcDbEntity
  8
0
100
AcDbEllipse
 62
7
  6
CONTINUOUS
 10
330.8522890789
 20
276.6686344467
 30
0.0
 11
-0.0
 21
45.4467814222
 31
0.0
 40
0.9791672503
 41
-1.2388933929
 42
-1.2269840976
  0
ELLIPSE
  5
595
100
AcDbEntity
  8
0
100
AcDbEllipse
 62
7
  6
CONTINUOUS
 10
330.8522890789
 20
286.8813920443
 30
0.0
 11
44.5
 21
-0.0
 31
0.0
 40
0.3404254913
 41
0.3438122292
 42
0.3617725358
  0
ELLIPSE
  5
596
100
AcDbEntity
  8
0
100
AcDbEllipse
 62
7
  6
CONTINUOUS
 10
330.8522890789
 20
276.6261174059
 30
0.0
 11
0.0
 21
224.6803957359
 31
0.0
 40
0.1958337302
 41
-1.4689051603
 42
-1.4683444591
  0
ELLIPSE
  5
597
100
AcDbEntity
  8
0
100
AcDbEllipse
 62
7
  6
CONTINUOUS
 10
330.8522890789
 20
290.7111790652
 30
0.0
 11
44.0
 21
-0.0
 31
0.0
 40
0.3404254913
 41
0.085330778
 42
0.1024518514
  0
ELLIPSE
  5
598
100
AcDbEntity
  8
0
100
AcDbEllipse
 62
7
  6
CONTINUOUS
 10
330.8522890789
 20
288.1579845525
 30
0.0
 11
-0.0
 21
44.9362077105
 31
0.0
 40
0.9791658496
 41
-1.4968653603
 42
-1.4854655488
  0
ELLIPSE
  5
599
100
AcDbEntity
  8
0
100
AcDbEllipse
 62
7
  6
CONTINUOUS
 10
330.8522890789
 20
281.5197096292
 30
0.0
 11
0.0
 21
134.8082374416
 31
0.0
 40
0.3263895503
 41
-1.5025615818
 42
-1.4968653603
  0
ELLIPSE
  5
59A
100
AcDbEntity
  8
0
100
AcDbEllipse
 62
7
  6
CONTINUOUS
 10
330.8522890789
 20
299.1366901059
 30
0.0
 11
0.0
 21
134.8082374416
 31
0.0
 40
0.3263895503
 41
-1.6447272933
 42
-1.6390310718
  0
ELLIPSE
  5
59B
100
AcDbEntity
  8
0
100
AcDbEllipse
 62
7
  6
CONTINUOUS
 10
330.8522890789
 20
292.4984151825
 30
0.0
 11
-0.0
 21
44.9362077105
 31
0.0
 40
0.9791658496
 41
-1.6561271047
 42
-1.6447272933
  0
ELLIPSE
  5
59C
100
AcDbEntity
  8
0
100
AcDbEllipse
 62
7
  6
CONTINUOUS
 10
330.8522890789
 20
289.9452206698
 30
0.0
 11
44.0
 21
0.0
 31
0.0
 40
0.3404254913
 41
-0.1024518514
 42
-0.085330778
  0
ELLIPSE
  5
59D
100
AcDbEntity
  8
0
100
AcDbEllipse
 62
7
  6
CONTINUOUS
 10
330.8522890789
 20
286.8813920443
 30
0.0
 11
44.0
 21
0.0
 31
0.0
 40
0.3404254913
 41
0.3478837529
 42
0.3660763706
  0
ELLIPSE
  5
59E
100
AcDbEntity
  8
0
100
AcDbEllipse
 62
7
  6
CONTINUOUS
 10
330.8522890789
 20
276.6686344467
 30
0.0
 11
-0.0
 21
44.9361434287
 31
0.0
 40
0.9791672503
 41
-1.2349742309
 42
-1.2229125739
  0
ELLIPSE
  5
59F
100
AcDbEntity
  8
0
100
AcDbEllipse
 62
7
  6
CONTINUOUS
 10
330.8522890789
 20
247.0515672719
 30
0.0
 11
0.0
 21
134.8086231314
 31
0.0
 40
0.3263886165
 41
-1.2409859386
 42
-1.2349742309
  0
ELLIPSE
  5
5A0
100
AcDbEntity
  8
0
100
AcDbEllipse
 62
7
  6
CONTINUOUS
 10
330.8522890789
 20
333.6048324631
 30
0.0
 11
0.0
 21
134.8086231314
 31
0.0
 40
0.3263886165
 41
-1.9066184227
 42
-1.900606715
  0
ELLIPSE
  5
5A1
100
AcDbEntity
  8
0
100
AcDbEllipse
 62
7
  6
CONTINUOUS
 10
330.8522890789
 20
303.9877652884
 30
0.0
 11
0.0
 21
44.9361434287
 31
0.0
 40
0.9791672503
 41
-1.9186800797
 42
-1.9066184227
  0
ELLIPSE
  5
5A2
100
AcDbEntity
  8
0
100
AcDbEllipse
 62
7
  6
CONTINUOUS
 10
330.8522890789
 20
293.7750076908
 30
0.0
 11
44.0
 21
-0.0
 31
0.0
 40
0.3404254913
 41
-0.3660763706
 42
-0.3478837529
  0
ELLIPSE
  5
5A3
100
AcDbEntity
  8
0
100
AcDbEllipse
 62
7
  6
CONTINUOUS
 10
330.8522890789
 20
295.4175614137
 30
0.0
 11
44.5
 21
-0.0
 31
0.0
 40
0.2042553906
 41
0.0112362022
 42
0.0393359861
  0
ELLIPSE
  5
5A4
100
AcDbEntity
  8
0
100
AcDbEllipse
 62
7
  6
CONTINUOUS
 10
330.8522890789
 20
294.8813917413
 30
0.0
 11
44.5
 21
-0.0
 31
0.0
 40
0.5106380606
 41
0.0393359861
 42
0.0618371652
  0
ELLIPSE
  5
5A5
100
AcDbEntity
  8
0
100
AcDbEllipse
 62
7
  6
CONTINUOUS
 10
330.8522890789
 20
293.4771329366
 30
0.0
 11
0.0
 21
45.4468504131
 31
0.0
 40
0.9791657639
 41
-1.5089591616
 42
-1.4864266161
  0
ELLIPSE
  5
5A6
100
AcDbEntity
  8
0
100
AcDbEllipse
 62
7
  6
CONTINUOUS
 10
330.8522890789
 20
289.647352945
 30
0.0
 11
0.0
 21
90.8935787589
 31
0.0
 40
0.4895835394
 41
-1.4864266161
 42
-1.4751449254
  0
ELLIPSE
  5
5A7
100
AcDbEntity
  8
0
100
AcDbEllipse
 62
7
  6
CONTINUOUS
 10
330.8522890789
 20
276.6261174059
 30
0.0
 11
0.0
 21
227.2335820511
 31
0.0
 40
0.1958337302
 41
-1.4751449254
 42
-1.4694995799
  0
ELLIPSE
  5
5A8
100
AcDbEntity
  8
0
100
AcDbEllipse
 62
7
  6
CONTINUOUS
 10
330.8522890789
 20
273.4026656585
 30
0.0
 11
0.0
 21
117.9574555133
 31
0.0
 40
0.3730158455
 41
-1.3821799351
 42
-1.3356816095
  0
ELLIPSE
  5
5A9
100
AcDbEntity
  8
0
100
AcDbEllipse
 62
7
  6
CONTINUOUS
 10
330.8522890789
 20
305.7324547428
 30
0.0
 11
44.5
 21
0.0
 31
0.0
 40
0.3404254913
 41
-0.2208931195
 42
-0.2036519951
  0
ELLIPSE
  5
5AA
100
AcDbEntity
  8
0
100
AcDbEllipse
 62
7
  6
CONTINUOUS
 10
330.8522890789
 20
311.8601093663
 30
0.0
 11
-0.0
 21
45.4467814222
 31
0.0
 40
0.9791672503
 41
-1.7744483219
 42
-1.7629885745
  0
ELLIPSE
  5
5AB
100
AcDbEntity
  8
0
100
AcDbEllipse
 62
7
  6
CONTINUOUS
 10
330.8522890789
 20
329.2218383998
 30
0.0
 11
0.0
 21
136.3405393033
 31
0.0
 40
0.3263886165
 41
-1.7629885745
 42
-1.7572683755
  0
ELLIPSE
  5
5AC
100
AcDbEntity
  8
0
100
AcDbEllipse
 62
7
  6
CONTINUOUS
 10
330.8522890789
 20
279.4345613353
 30
0.0
 11
0.0
 21
136.3405393033
 31
0.0
 40
0.3263886165
 41
-1.384324278
 42
-1.3786040791
  0
ELLIPSE
  5
5AD
100
AcDbEntity
  8
0
100
AcDbEllipse
 62
7
  6
CONTINUOUS
 10
330.8522890789
 20
296.7962903688
 30
0.0
 11
0.0
 21
45.4467814222
 31
0.0
 40
0.9791672503
 41
-1.3786040791
 42
-1.3671443317
  0
ELLIPSE
  5
5AE
100
AcDbEntity
  8
0
100
AcDbEllipse
 62
7
  6
CONTINUOUS
 10
330.8522890789
 20
302.9239449923
 30
0.0
 11
44.5
 21
-0.0
 31
0.0
 40
0.3404254913
 41
0.2036519951
 42
0.2208931195
  0
ELLIPSE
  5
5AF
100
AcDbEntity
  8
0
100
AcDbEllipse
 62
7
  6
CONTINUOUS
 10
330.8522890789
 20
302.9239449923
 30
0.0
 11
44.0
 21
-0.0
 31
0.0
 40
0.3404254913
 41
0.2059993268
 42
0.2234456423
  0
ELLIPSE
  5
5B0
100
AcDbEntity
  8
0
100
AcDbEllipse
 62
7
  6
CONTINUOUS
 10
330.8522890789
 20
296.7962903688
 30
0.0
 11
-0.0
 21
44.9361434287
 31
0.0
 40
0.9791672503
 41
-1.3763923044
 42
-1.364797
  0
ELLIPSE
  5
5B1
100
AcDbEntity
  8
0
100
AcDbEllipse
 62
7
  6
CONTINUOUS
 10
330.8522890789
 20
279.4345613353
 30
0.0
 11
0.0
 21
134.8086231314
 31
0.0
 40
0.3263886165
 41
-1.3821799351
 42
-1.3763923044
  0
ELLIPSE
  5
5B2
100
AcDbEntity
  8
0
100
AcDbEllipse
 62
7
  6
CONTINUOUS
 10
330.8522890789
 20
329.2218383998
 30
0.0
 11
0.0
 21
134.8086231314
 31
0.0
 40
0.3263886165
 41
-1.7652003492
 42
-1.7594127185
  0
ELLIPSE
  5
5B3
100
AcDbEntity
  8
0
100
AcDbEllipse
 62
7
  6
CONTINUOUS
 10
330.8522890789
 20
311.8601093663
 30
0.0
 11
-0.0
 21
44.9361434287
 31
0.0
 40
0.9791672503
 41
-1.7767956536
 42
-1.7652003492
  0
ELLIPSE
  5
5B4
100
AcDbEntity
  8
0
100
AcDbEllipse
 62
7
  6
CONTINUOUS
 10
330.8522890789
 20
305.7324547428
 30
0.0
 11
44.0
 21
0.0
 31
0.0
 40
0.3404254913
 41
-0.2234456423
 42
-0.2059993268
  0
ELLIPSE
  5
5B5
100
AcDbEntity
  8
0
100
AcDbEllipse
 62
7
  6
CONTINUOUS
 10
330.8522890789
 20
289.9452206698
 30
0.0
 11
44.5
 21
-0.0
 31
0.0
 40
0.3404254913
 41
-0.1012967307
 42
-0.0843697107
  0
ELLIPSE
  5
5B6
100
AcDbEntity
  8
0
100
AcDbEllipse
 62
7
  6
CONTINUOUS
 10
330.8522890789
 20
292.4984151825
 30
0.0
 11
0.0
 21
45.4468464344
 31
0.0
 40
0.9791658496
 41
-1.6551660375
 42
-1.643895117
  0
ELLIPSE
  5
5B7
100
AcDbEntity
  8
0
100
AcDbEllipse
 62
7
  6
CONTINUOUS
 10
330.8522890789
 20
299.1366901059
 30
0.0
 11
0.0
 21
136.3401492307
 31
0.0
 40
0.3263895503
 41
-1.643895117
 42
-1.6382632172
  0
ELLIPSE
  5
5B8
100
AcDbEntity
  8
0
100
AcDbEllipse
 62
7
  6
CONTINUOUS
 10
330.8522890789
 20
281.5197096292
 30
0.0
 11
0.0
 21
136.3401492307
 31
0.0
 40
0.3263895503
 41
-1.5033294364
 42
-1.4976975366
  0
ELLIPSE
  5
5B9
100
AcDbEntity
  8
0
100
AcDbEllipse
 62
7
  6
CONTINUOUS
 10
330.8522890789
 20
273.4026656585
 30
0.0
 11
0.0
 21
119.2978811442
 31
0.0
 40
0.3730158455
 41
-1.384324278
 42
-1.3383722625
  0
ENDSEC
  0
SECTION
  2
OBJECTS
  0
DICTIONARY
  5
C
100
AcDbDictionary
280
0
281
1
  3
ACAD_GROUP
350
D
  3
ACAD_MLINESTYLE
350
17
  3
ACAD_LAYOUT
350
1A
  3
ACAD_PLOTSETTINGS
350
19
  3
ACAD_PLOTSTYLENAME
350
E
  0
DICTIONARY
  5
D
102
{ACAD_REACTORS
330
C
102
}
100
AcDbDictionary
280
0
281
1
  0
ACDBDICTIONARYWDFLT
  5
E
102
{ACAD_REACTORS
330
C
102
}
100
AcDbDictionary
281
1
  3
Normal
350
F
100
AcDbDictionaryWithDefault
340
F
  0
DICTIONARY
  5
17
102
{ACAD_REACTORS
330
C
102
}
100
AcDbDictionary
280
0
281
1
  3
Standard
350
18
  0
DICTIONARY
  5
19
102
{ACAD_REACTORS
330
C
102
}
100
AcDbDictionary
281
1
  0
DICTIONARY
  5
1A
102
{ACAD_REACTORS
330
C
102
}
100
AcDbDictionary
281
1
  3
Model
350
5BA
  3
Layout1
350
5BB
  0
ACDBPLACEHOLDER
  5
F
102
{ACAD_REACTORS
330
E
102
}
  0
MLINESTYLE
  5
18
102
{ACAD_REACTORS
330
17
102
}
100
AcDbMlineStyle
  2
STANDARD
 70
0
  3

 62
256
 51
90.0
 52
90.0
 71
2
 49
0.5
 62
256
  6
BYLAYER
 49
-0.5
 62
256
  6
BYLAYER
  0
LAYOUT
  5
5BA
102
{ACAD_REACTORS
330
1A
102
}
100
AcDbPlotSettings
  1

  2
none_device
  4
ISO_A1_(594.00_x_841.00_MM)
  6

 40
0.0
 41
0.0
 42
0.0
 43
0.0
 44
841.0
 45
594.0
 46
0.0
 47
0.0
 48
0.0
 49
0.0
140
0.0
141
0.0
142
1.0
143
1.0
 70
1024
 72
1
 73
0
 74
0
  7

 75
0
147
1.0
148
0.0
149
0.0
100
AcDbLayout
  1
Model
 70
0
 71
0
 10
0.0
 20
0.0
 11
841.0
 21
594.0
 12
0.0
 22
0.0
 32
0.0
 14
0.0
 24
0.0
 34
0.0
 15
0.0
 25
0.0
 35
0.0
146
0.0
 13
0.0
 23
0.0
 33
0.0
 16
1.0
 26
0.0
 36
0.0
 17
0.0
 27
1.0
 37
0.0
 76
0
330
20D
345
0
346
0
  0
LAYOUT
  5
5BB
102
{ACAD_REACTORS
330
1A
102
}
100
AcDbPlotSettings
  1

  2
none_device
  4
ISO_A1_(594.00_x_841.00_MM)
  6

 40
0.0
 41
0.0
 42
0.0
 43
0.0
 44
841.0
 45
594.0
 46
0.0
 47
0.0
 48
0.0
 49
0.0
140
0.0
141
0.0
142
1.0
143
1.0
 70
0
 72
1
 73
0
 74
0
  7

 75
0
147
1.0
148
0.0
149
0.0
100
AcDbLayout
  1
Layout1
 70
0
 71
1
 10
0.0
 20
0.0
 11
841.0
 21
594.0
 12
0.0
 22
0.0
 32
0.0
 14
0.0
 24
0.0
 34
0.0
 15
0.0
 25
0.0
 35
0.0
146
0.0
 13
0.0
 23
0.0
 33
0.0
 16
1.0
 26
0.0
 36
0.0
 17
0.0
 27
1.0
 37
0.0
 76
0
330
20E
345
0
346
0
  0
ENDSEC
  0
EOF
