999
DXF file: 001-m31395-p-40.dxf
999
Pro/ENGINEER 2011490 by Parametric Technology Corporation
  0
SECTION
  2
HEADER
  9
$ACADVER
  1
AC1015
  9
$DWGCODEPAGE
  3
ANSI_1252
  9
$EXTMAX
 10
594.0
 20
420.0
 30
0.0
  9
$EXTMIN
 10
0.0
 20
0.0
 30
0.0
  9
$LIMMIN
 10
0.0
 20
0.0
  9
$LIMMAX
 10
594.0
 20
420.0
  9
$VIEWCTR
 10
297.0
 20
210.0
  9
$VIEWSIZE
 40
420.0
  9
$CLAYER
  8
0
  9
$LTSCALE
 40
32.67
  9
$CELTYPE
  6
BYLAYER
  9
$DIMSCALE
 40
1.0
  9
$DIMASZ
 40
3.5
  9
$DIMEXO
 40
3.7125
  9
$DIMDLI
 40
22.572
  9
$DIMEXE
 40
10.692
  9
$DIMCEN
 40
5.346
  9
$DIMLFAC
 40
1.0
  9
$DIMBLK
  1
_FILLED
  9
$DIMTXT
 40
3.5
  9
$DIMTOL
 70
1
  9
$DIMLIM
 70
0
  9
$DIMTFAC
 40
1.0
  9
$DIMTP
 40
0.005
  9
$DIMTM
 40
0.005
  9
$PDMODE
 70
3
  9
$PDSIZE
 40
0.3125
  9
$HANDSEED
  5
5C1
  9
$TILEMODE
 70
1
  9
$MEASUREMENT
 70
1
  9
$INSUNITS
 70
4
  0
ENDSEC
  0
SECTION
  2
CLASSES
  0
CLASS
  1
ACDBDICTIONARYWDFLT
  2
AcDbDictionaryWithDefault
  3
AutoCAD 2000
 90
0
280
0
281
0
  0
CLASS
  1
ACDBPLACEHOLDER
  2
AcDbPlaceHolder
  3
AutoCAD 2000
 90
0
280
0
281
0
  0
CLASS
  1
LAYOUT
  2
AcDbLayout
  3
AutoCAD 2000
 90
0
280
0
281
0
  0
ENDSEC
  0
SECTION
  2
TABLES
  0
TABLE
  2
VPORT
  5
8
100
AcDbSymbolTable
 70
2
  0
VPORT
  5
1F4
100
AcDbSymbolTableRecord
100
AcDbViewportTableRecord
  2
*ACTIVE
 70
0
 10
0.0
 20
0.0
 11
1.0
 21
1.0
 12
297.0
 22
210.0
 13
0.0
 23
0.0
 14
1.0
 24
1.0
 15
0.0
 25
0.0
 16
0.0
 26
0.0
 36
1.0
 17
0.0
 27
0.0
 37
0.0
 40
420.0
 41
1.4142857143
 42
50.0
 43
0.0
 44
0.0
 50
0.0
 51
0.0
 71
0
 72
100
 73
1
 74
1
 75
0
 76
0
 77
0
 78
0
  0
ENDTAB
  0
TABLE
  2
LTYPE
  5
5
100
AcDbSymbolTable
 70
6
  0
LTYPE
  5
14
100
AcDbSymbolTableRecord
100
AcDbLinetypeTableRecord
  2
BYBLOCK
 70
0
  3

 72
65
 73
0
 40
0.0
  0
LTYPE
  5
15
100
AcDbSymbolTableRecord
100
AcDbLinetypeTableRecord
  2
BYLAYER
 70
0
  3

 72
65
 73
0
 40
0.0
  0
LTYPE
  5
16
100
AcDbSymbolTableRecord
100
AcDbLinetypeTableRecord
  2
CONTINUOUS
 70
64
  3
Solid line
 72
65
 73
0
 40
0.0
  0
LTYPE
  5
1F5
100
AcDbSymbolTableRecord
100
AcDbLinetypeTableRecord
  2
CENTER
 70
64
  3
____ _ ____ _ ____ _ ____ _ ____ _ ____ _ ____
 72
65
 73
4
 40
0.6
 49
0.375
 74
0
 49
-0.075
 74
0
 49
0.075
 74
0
 49
-0.075
 74
0
  0
LTYPE
  5
1F6
100
AcDbSymbolTableRecord
100
AcDbLinetypeTableRecord
  2
HIDDEN
 70
64
  3
- - - - - - - - - - - - - - - - - - - -
 72
65
 73
2
 40
0.2
 49
0.1
 74
0
 49
-0.1
 74
0
  0
LTYPE
  5
1F7
100
AcDbSymbolTableRecord
100
AcDbLinetypeTableRecord
  2
PHANTOM
 70
64
  3
_____ _ _ _____ _ _ _____ _ _ _____
 72
65
 73
6
 40
0.8
 49
0.45
 74
0
 49
-0.05
 74
0
 49
0.1
 74
0
 49
-0.05
 74
0
 49
0.1
 74
0
 49
-0.05
 74
0
  0
LTYPE
  5
1F8
100
AcDbSymbolTableRecord
100
AcDbLinetypeTableRecord
  2
DOT
 70
64
  3
. . . . . . . . . . . . . . . . . . . .
 72
65
 73
2
 40
0.2
 49
0.1
 74
0
 49
-0.1
 74
0
  0
LTYPE
  5
1F9
100
AcDbSymbolTableRecord
100
AcDbLinetypeTableRecord
  2
DASHED
 70
64
  3
- - - - - - - - - - - - - - - - - - - -
 72
65
 73
2
 40
0.2
 49
0.1
 74
0
 49
-0.1
 74
0
  0
ENDTAB
  0
TABLE
  2
LAYER
  5
2
100
AcDbSymbolTable
 70
36
  0
LAYER
  5
10
100
AcDbSymbolTableRecord
100
AcDbLayerTableRecord
  2
0
 70
0
 62
7
  6
CONTINUOUS
370
-3
390
F
  0
LAYER
  5
1FA
100
AcDbSymbolTableRecord
100
AcDbLayerTableRecord
  2
DEFAULT_1
 70
0
 62
7
  6
CENTER
370
-3
390
F
  0
LAYER
  5
1FB
100
AcDbSymbolTableRecord
100
AcDbLayerTableRecord
  2
DEFAULT_2
 70
0
 62
8
  6
HIDDEN
370
-3
390
F
  0
LAYER
  5
1FC
100
AcDbSymbolTableRecord
100
AcDbLayerTableRecord
  2
DEFAULT_3
 70
0
 62
7
  6
PHANTOM
370
-3
390
F
  0
LAYER
  5
1FD
100
AcDbSymbolTableRecord
100
AcDbLayerTableRecord
  2
AUSFORMSCHRAEGEN
 70
0
 62
7
  6
CONTINUOUS
370
-3
390
F
  0
LAYER
  5
1FE
100
AcDbSymbolTableRecord
100
AcDbLayerTableRecord
  2
BEZUGSACHSEN
 70
0
 62
7
  6
CONTINUOUS
370
-3
390
F
  0
LAYER
  5
1FF
100
AcDbSymbolTableRecord
100
AcDbLayerTableRecord
  2
BEZUGSEBENEN
 70
0
 62
7
  6
CONTINUOUS
370
-3
390
F
  0
LAYER
  5
200
100
AcDbSymbolTableRecord
100
AcDbLayerTableRecord
  2
BG_STARTBEZUEGE
 70
0
 62
7
  6
CONTINUOUS
370
-3
390
F
  0
LAYER
  5
201
100
AcDbSymbolTableRecord
100
AcDbLayerTableRecord
  2
FASEN
 70
0
 62
7
  6
CONTINUOUS
370
-3
390
F
  0
LAYER
  5
202
100
AcDbSymbolTableRecord
100
AcDbLayerTableRecord
  2
HILFEN
 70
0
 62
7
  6
CONTINUOUS
370
-3
390
F
  0
LAYER
  5
203
100
AcDbSymbolTableRecord
100
AcDbLayerTableRecord
  2
KONSTRUKTIONSELEMENTE
 70
0
 62
7
  6
CONTINUOUS
370
-3
390
F
  0
LAYER
  5
204
100
AcDbSymbolTableRecord
100
AcDbLayerTableRecord
  2
NORM
 70
0
 62
7
  6
CONTINUOUS
370
-3
390
F
  0
LAYER
  5
205
100
AcDbSymbolTableRecord
100
AcDbLayerTableRecord
  2
PLATZIERUNG
 70
0
 62
7
  6
CONTINUOUS
370
-3
390
F
  0
LAYER
  5
206
100
AcDbSymbolTableRecord
100
AcDbLayerTableRecord
  2
PLAZIERUNG
 70
0
 62
7
  6
CONTINUOUS
370
-3
390
F
  0
LAYER
  5
207
100
AcDbSymbolTableRecord
100
AcDbLayerTableRecord
  2
RUNDUNGEN
 70
0
 62
7
  6
CONTINUOUS
370
-3
390
F
  0
LAYER
  5
208
100
AcDbSymbolTableRecord
100
AcDbLayerTableRecord
  2
TEIL_STARTBEZUEGE
 70
0
 62
7
  6
CONTINUOUS
370
-3
390
F
  0
LAYER
  5
209
100
AcDbSymbolTableRecord
100
AcDbLayerTableRecord
  2
T_STARTBEZUEGE
 70
0
 62
7
  6
CONTINUOUS
370
-3
390
F
  0
LAYER
  5
20A
100
AcDbSymbolTableRecord
100
AcDbLayerTableRecord
  2
ZEICHNUNGSBEMASSUNGEN
 70
0
 62
7
  6
CONTINUOUS
370
-3
390
F
  0
ENDTAB
  0
TABLE
  2
STYLE
  5
3
100
AcDbSymbolTable
 70
1
  0
STYLE
  5
11
100
AcDbSymbolTableRecord
100
AcDbTextStyleTableRecord
  2
STANDARD
 70
0
 40
0.0
 41
0.7
 50
0.0
 71
0
 42
0.2
  3
txt
  4

  0
STYLE
  5
20B
100
AcDbSymbolTableRecord
100
AcDbTextStyleTableRecord
  2
TEXTSTYLE_1
 70
0
 40
0.0
 41
0.8
 50
0.0
 71
0
 42
0.2
  3
gdt
  4

  0
ENDTAB
  0
TABLE
  2
VIEW
  5
6
100
AcDbSymbolTable
 70
0
  0
ENDTAB
  0
TABLE
  2
UCS
  5
7
100
AcDbSymbolTable
 70
0
  0
ENDTAB
  0
TABLE
  2
APPID
  5
9
100
AcDbSymbolTable
 70
1
  0
APPID
  5
20C
100
AcDbSymbolTableRecord
100
AcDbRegAppTableRecord
  2
ACAD
 70
0
  0
ENDTAB
  0
TABLE
  2
BLOCK_RECORD
  5
1
100
AcDbSymbolTable
 70
0
  0
BLOCK_RECORD
  5
20D
100
AcDbSymbolTableRecord
100
AcDbBlockTableRecord
  2
*Model_Space
  0
BLOCK_RECORD
  5
20E
100
AcDbSymbolTableRecord
100
AcDbBlockTableRecord
  2
*Paper_Space
  0
ENDTAB
  0
TABLE
  2
DIMSTYLE
  5
A
100
AcDbSymbolTable
 70
1
100
AcDbDimStyleTable
 71
0
  0
DIMSTYLE
105
20F
100
AcDbSymbolTableRecord
100
AcDbDimStyleTableRecord
  2
STANDARD
 70
0
  3

  4

 40
1.0
 41
3.5
 42
0.0625
 43
0.38
 44
0.18
 45
0.0
 46
0.0
 47
0.005
 48
0.005
140
3.5
141
0.09
142
0.0
143
25.4
144
1.0
145
0.0
146
1.0
147
0.09
 71
1.0
 72
0.0
 73
0
 74
0
 75
0
 76
0
 77
1
 78
8
170
0
171
2
172
0
173
0
174
0
175
0
176
0
177
0
178
5
270
2
271
3
272
3
273
2
274
2
275
0
280
0
281
0
282
0
283
1
284
8
285
0
286
0
287
3
288
0
340
11
  0
ENDTAB
  0
ENDSEC
  0
SECTION
  2
BLOCKS
  0
BLOCK
  5
20
100
AcDbEntity
  8
0
100
AcDbBlockBegin
  2
*Model_Space
 70
0
 10
0.0
 20
0.0
 30
0.0
  3
*Model_Space
  1

  0
ENDBLK
  5
21
100
AcDbEntity
  8
0
100
AcDbBlockEnd
  0
BLOCK
  5
1C
100
AcDbEntity
  8
0
100
AcDbBlockBegin
  2
*Paper_Space
 70
0
 10
0.0
 20
0.0
 30
0.0
  3
*Paper_Space
  1

  0
ENDBLK
  5
1D
100
AcDbEntity
  8
0
100
AcDbBlockEnd
  0
ENDSEC
  0
SECTION
  2
ENTITIES
  0
MTEXT
  5
210
100
AcDbEntity
  8
0
100
AcDbMText
 62
5
  6
CONTINUOUS
  7
STANDARD
 71
2
 72
1
 10
199.7296652825
 20
52.0452537604
 30
0.0
 11
0.0
 21
1.0
 31
0.0
 44
0.9
  1
RUD WPP-B\P5t
 40
10.0
 41
78.8095238095
  0
MTEXT
  5
211
100
AcDbEntity
  8
0
100
AcDbMText
 62
5
  6
CONTINUOUS
  7
STANDARD
 71
2
 72
1
 10
373.7391234221
 20
199.1709814982
 30
0.0
 11
1.0
 21
0.0
 31
0.0
 44
0.9
  1
RUD\PWPP-B 5t
 40
10.0
 41
65.0
  0
LINE
  5
212
100
AcDbEntity
  8
0
100
AcDbLine
 62
7
  6
CONTINUOUS
 10
0.0
 20
0.0
 11
0.0
 21
420.0
  0
LINE
  5
213
100
AcDbEntity
  8
0
100
AcDbLine
 62
7
  6
CONTINUOUS
 10
0.0
 20
0.0
 11
594.0
 21
0.0
  0
LINE
  5
214
100
AcDbEntity
  8
0
100
AcDbLine
 62
7
  6
CONTINUOUS
 10
0.0
 20
420.0
 11
594.0
 21
420.0
  0
LINE
  5
215
100
AcDbEntity
  8
0
100
AcDbLine
 62
7
  6
CONTINUOUS
 10
594.0
 20
0.0
 11
594.0
 21
420.0
  0
LINE
  5
216
100
AcDbEntity
  8
FASEN
100
AcDbLine
 62
7
  6
CONTINUOUS
 10
255.5408796799
 20
148.9706571528
 11
166.5408796799
 21
148.9706571528
  0
LINE
  5
217
100
AcDbEntity
  8
FASEN
100
AcDbLine
 62
7
  6
CONTINUOUS
 10
258.5408796799
 20
151.9706571528
 11
163.5408796799
 21
151.9706571528
  0
LINE
  5
218
100
AcDbEntity
  8
FASEN
100
AcDbLine
 62
7
  6
CONTINUOUS
 10
166.5408796799
 20
148.9706571528
 11
163.5408796799
 21
151.9706571528
  0
LINE
  5
219
100
AcDbEntity
  8
0
100
AcDbLine
 62
7
  6
CONTINUOUS
 10
188.7343748991
 20
378.2050210977
 11
188.2078520492
 21
377.9506573404
  0
LINE
  5
21A
100
AcDbEntity
  8
0
100
AcDbLine
 62
7
  6
CONTINUOUS
 10
198.9959852282
 20
380.4297032691
 11
197.4973601453
 21
379.8574489921
  0
LINE
  5
21B
100
AcDbEntity
  8
0
100
AcDbLine
 62
7
  6
CONTINUOUS
 10
197.7060850863
 20
379.3108380805
 11
199.2047101692
 21
379.8830923576
  0
LINE
  5
21C
100
AcDbEntity
  8
0
100
AcDbLine
 62
7
  6
CONTINUOUS
 10
210.8032613484
 20
383.2428116502
 11
210.4640190693
 21
383.1133021351
  0
LINE
  5
21D
100
AcDbEntity
  8
0
100
AcDbLine
 62
7
  6
CONTINUOUS
 10
188.6537711098
 20
377.5548859675
 11
188.9980694475
 21
377.6702839445
  0
LINE
  5
21E
100
AcDbEntity
  8
FASEN
100
AcDbLine
 62
7
  6
CONTINUOUS
 10
163.5408796799
 20
165.4706571528
 11
258.5408796799
 21
165.4706571528
  0
LINE
  5
21F
100
AcDbEntity
  8
FASEN
100
AcDbLine
 62
7
  6
CONTINUOUS
 10
164.0408796799
 20
165.9706571528
 11
258.0408796799
 21
165.9706571528
  0
LINE
  5
220
100
AcDbEntity
  8
0
100
AcDbLine
 62
7
  6
CONTINUOUS
 10
188.2078520492
 20
377.9506573404
 11
186.0211558179
 21
376.2830663858
  0
LINE
  5
221
100
AcDbEntity
  8
0
100
AcDbLine
 62
7
  6
CONTINUOUS
 10
186.9226364195
 20
376.2347096626
 11
188.6537711098
 21
377.5548859675
  0
LINE
  5
222
100
AcDbEntity
  8
0
100
AcDbLine
 62
7
  6
CONTINUOUS
 10
189.7181909399
 20
376.1591223213
 11
187.9870562497
 21
374.8389460164
  0
LINE
  5
223
100
AcDbEntity
  8
0
100
AcDbLine
 62
7
  6
CONTINUOUS
 10
188.4128241022
 20
374.2806406622
 11
190.0528462757
 21
375.5313338781
  0
LINE
  5
224
100
AcDbEntity
  8
0
100
AcDbLine
 62
7
  6
CONTINUOUS
 10
184.1429879426
 20
374.3507423947
 11
183.6624934716
 21
374.0174967324
  0
LINE
  5
225
100
AcDbEntity
  8
0
100
AcDbLine
 62
7
  6
CONTINUOUS
 10
184.164598451
 20
373.6959857641
 11
184.4867289362
 21
373.8635864469
  0
LINE
  5
226
100
AcDbEntity
  8
0
100
AcDbLine
 62
7
  6
CONTINUOUS
 10
222.1508796799
 20
383.0520995158
 11
221.1608796799
 21
382.6543227638
  0
LINE
  5
227
100
AcDbEntity
  8
0
100
AcDbLine
 62
7
  6
CONTINUOUS
 10
221.3627545345
 20
381.9312439899
 11
223.0008796799
 21
382.5894339895
  0
LINE
  5
228
100
AcDbEntity
  8
0
100
AcDbLine
 62
7
  6
CONTINUOUS
 10
216.9420499486
 20
380.9096666484
 11
214.9708796799
 21
380.1968911071
  0
LINE
  5
229
100
AcDbEntity
  8
0
100
AcDbLine
 62
7
  6
CONTINUOUS
 10
216.3508796799
 20
379.9619948402
 11
217.2929527291
 21
380.2764769215
  0
LINE
  5
22A
100
AcDbEntity
  8
0
100
AcDbLine
 62
7
  6
CONTINUOUS
 10
249.0614333318
 20
167.8456571528
 11
249.7834192843
 21
167.8456571528
  0
LINE
  5
22B
100
AcDbEntity
  8
0
100
AcDbLine
 62
7
  6
CONTINUOUS
 10
251.5917254633
 20
167.8456571528
 11
252.0385453909
 21
167.8456571528
  0
LINE
  5
22C
100
AcDbEntity
  8
0
100
AcDbLine
 62
7
  6
CONTINUOUS
 10
252.2815983327
 20
171.1009761819
 11
252.5316542569
 21
171.1009761819
  0
LINE
  5
22D
100
AcDbEntity
  8
0
100
AcDbLine
 62
7
  6
CONTINUOUS
 10
252.4277265488
 20
171.8669338056
 11
252.0385453909
 21
171.8669338056
  0
LINE
  5
22E
100
AcDbEntity
  8
0
100
AcDbLine
 62
7
  6
CONTINUOUS
 10
250.9156837546
 20
171.8669338056
 11
249.7834192843
 21
171.8669338056
  0
LINE
  5
22F
100
AcDbEntity
  8
0
100
AcDbLine
 62
7
  6
CONTINUOUS
 10
252.4864388326
 20
172.0584231445
 11
252.5316542569
 21
172.0584231445
  0
LINE
  5
230
100
AcDbEntity
  8
0
100
AcDbLine
 62
7
  6
CONTINUOUS
 10
252.4411740877
 20
173.0158698389
 11
252.0385453909
 21
173.0158698389
  0
LINE
  5
231
100
AcDbEntity
  8
0
100
AcDbLine
 62
7
  6
CONTINUOUS
 10
250.969282349
 20
173.0158698389
 11
249.7834192843
 21
173.0158698389
  0
LINE
  5
232
100
AcDbEntity
  8
0
100
AcDbLine
 62
7
  6
CONTINUOUS
 10
250.8654951351
 20
173.2073591777
 11
251.1243862151
 21
173.2073591777
  0
LINE
  5
233
100
AcDbEntity
  8
0
100
AcDbLine
 62
7
  6
CONTINUOUS
 10
252.226008615
 20
173.2073591777
 11
252.4764000145
 21
173.2073591777
  0
LINE
  5
234
100
AcDbEntity
  8
0
100
AcDbLine
 62
7
  6
CONTINUOUS
 10
250.9648308245
 20
173.5903378555
 11
251.2230818968
 21
173.5903378555
  0
LINE
  5
235
100
AcDbEntity
  8
0
100
AcDbLine
 62
7
  6
CONTINUOUS
 10
252.2453526622
 20
173.5903378555
 11
252.4956272216
 21
173.5903378555
  0
LINE
  5
236
100
AcDbEntity
  8
0
100
AcDbLine
 62
7
  6
CONTINUOUS
 10
251.0130867756
 20
174.1648058721
 11
251.2710280777
 21
174.1648058721
  0
LINE
  5
237
100
AcDbEntity
  8
0
100
AcDbLine
 62
7
  6
CONTINUOUS
 10
252.2537417651
 20
174.1648058721
 11
252.5039656872
 21
174.1648058721
  0
LINE
  5
238
100
AcDbEntity
  8
0
100
AcDbLine
 62
7
  6
CONTINUOUS
 10
251.0130867756
 20
174.7392744252
 11
251.2710280777
 21
174.7392744252
  0
LINE
  5
239
100
AcDbEntity
  8
0
100
AcDbLine
 62
7
  6
CONTINUOUS
 10
252.2537417651
 20
174.7392744252
 11
252.5039656872
 21
174.7392744252
  0
LINE
  5
23A
100
AcDbEntity
  8
0
100
AcDbLine
 62
7
  6
CONTINUOUS
 10
183.6624934716
 20
374.0174967324
 11
181.7621265492
 21
372.0297579266
  0
LINE
  5
23B
100
AcDbEntity
  8
0
100
AcDbLine
 62
7
  6
CONTINUOUS
 10
182.6601413795
 20
372.1223592885
 11
184.164598451
 21
373.6959857641
  0
LINE
  5
23C
100
AcDbEntity
  8
0
100
AcDbLine
 62
7
  6
CONTINUOUS
 10
185.4333679872
 20
372.4829855189
 11
183.9289109158
 21
370.9093590433
  0
LINE
  5
23D
100
AcDbEntity
  8
0
100
AcDbLine
 62
7
  6
CONTINUOUS
 10
184.4364186355
 20
370.4241590358
 11
185.8616938273
 21
371.9149631402
  0
LINE
  5
23E
100
AcDbEntity
  8
0
100
AcDbLine
 62
7
  6
CONTINUOUS
 10
189.3563377271
 20
371.9096739231
 11
189.9030117849
 21
372.3265716618
  0
LINE
  5
23F
100
AcDbEntity
  8
0
100
AcDbLine
 62
7
  6
CONTINUOUS
 10
228.3630509268
 20
379.9120423038
 11
228.7365626252
 21
380.102438083
  0
LINE
  5
240
100
AcDbEntity
  8
0
100
AcDbLine
 62
7
  6
CONTINUOUS
 10
226.3753419158
 20
382.2632154043
 11
225.4183554104
 21
381.7858917215
  0
LINE
  5
241
100
AcDbEntity
  8
0
100
AcDbLine
 62
7
  6
CONTINUOUS
 10
225.0452870609
 20
380.9272677767
 11
226.0022736969
 21
381.4045917601
  0
LINE
  5
242
100
AcDbEntity
  8
0
100
AcDbLine
 62
7
  6
CONTINUOUS
 10
250.9648308245
 20
175.3137424418
 11
251.2230818968
 21
175.3137424418
  0
LINE
  5
243
100
AcDbEntity
  8
0
100
AcDbLine
 62
7
  6
CONTINUOUS
 10
252.2453526622
 20
175.3137424418
 11
252.4956272216
 21
175.3137424418
  0
LINE
  5
244
100
AcDbEntity
  8
0
100
AcDbLine
 62
7
  6
CONTINUOUS
 10
250.8654951351
 20
175.6967211196
 11
251.1243862151
 21
175.6967211196
  0
LINE
  5
245
100
AcDbEntity
  8
0
100
AcDbLine
 62
7
  6
CONTINUOUS
 10
252.226008615
 20
175.6967211196
 11
252.4764000145
 21
175.6967211196
  0
LINE
  5
246
100
AcDbEntity
  8
0
100
AcDbLine
 62
7
  6
CONTINUOUS
 10
252.4411740877
 20
175.8882104584
 11
252.0385453909
 21
175.8882104584
  0
LINE
  5
247
100
AcDbEntity
  8
0
100
AcDbLine
 62
7
  6
CONTINUOUS
 10
250.969282349
 20
175.8882104584
 11
249.7834192843
 21
175.8882104584
  0
LINE
  5
248
100
AcDbEntity
  8
0
100
AcDbLine
 62
7
  6
CONTINUOUS
 10
249.0614333318
 20
176.8456571528
 11
250.9156837546
 21
176.8456571528
  0
LINE
  5
249
100
AcDbEntity
  8
0
100
AcDbLine
 62
7
  6
CONTINUOUS
 10
251.5917254633
 20
176.8456571528
 11
252.4277265488
 21
176.8456571528
  0
LINE
  5
24A
100
AcDbEntity
  8
0
100
AcDbLine
 62
7
  6
CONTINUOUS
 10
251.0604061638
 20
181.8456571528
 11
251.5807905703
 21
181.8456571528
  0
LINE
  5
24B
100
AcDbEntity
  8
0
100
AcDbLine
 62
7
  6
CONTINUOUS
 10
252.0777818809
 20
181.8456571528
 11
252.5090527306
 21
181.8456571528
  0
LINE
  5
24C
100
AcDbEntity
  8
0
100
AcDbLine
 62
7
  6
CONTINUOUS
 10
252.4357018763
 20
182.0371465084
 11
252.5351846355
 21
182.0371465084
  0
LINE
  5
24D
100
AcDbEntity
  8
0
100
AcDbLine
 62
7
  6
CONTINUOUS
 10
252.4247574778
 20
182.4201252365
 11
252.5408326161
 21
182.4201252365
  0
LINE
  5
24E
100
AcDbEntity
  8
0
100
AcDbLine
 62
7
  6
CONTINUOUS
 10
252.4019359709
 20
183.186082659
 11
252.5329252348
 21
183.186082659
  0
LINE
  5
24F
100
AcDbEntity
  8
0
100
AcDbLine
 62
7
  6
CONTINUOUS
 10
252.3770350921
 20
183.9520401487
 11
252.5238863715
 21
183.9520401487
  0
LINE
  5
250
100
AcDbEntity
  8
0
100
AcDbLine
 62
7
  6
CONTINUOUS
 10
190.0528462757
 20
375.5313338781
 11
190.437446508
 21
375.9717994202
  0
LINE
  5
251
100
AcDbEntity
  8
0
100
AcDbLine
 62
7
  6
CONTINUOUS
 10
185.7376041608
 20
368.2290240817
 11
186.2126958914
 21
368.7259587832
  0
LINE
  5
252
100
AcDbEntity
  8
0
100
AcDbLine
 62
7
  6
CONTINUOUS
 10
210.94343403
 20
382.5453421586
 11
211.3886280295
 21
382.9129266139
  0
LINE
  5
253
100
AcDbEntity
  8
0
100
AcDbLine
 62
7
  6
CONTINUOUS
 10
230.4225660531
 20
377.5155817103
 11
230.7960823006
 21
377.7059748783
  0
LINE
  5
254
100
AcDbEntity
  8
0
100
AcDbLine
 62
7
  6
CONTINUOUS
 10
229.2403665413
 20
375.2257301729
 11
229.6138782397
 21
375.4161259521
  0
LINE
  5
255
100
AcDbEntity
  8
0
100
AcDbLine
 62
7
  6
CONTINUOUS
 10
252.3425229154
 20
184.909486843
 11
252.5180948047
 21
184.909486843
  0
LINE
  5
256
100
AcDbEntity
  8
0
100
AcDbLine
 62
7
  6
CONTINUOUS
 10
252.149301478
 20
185.8669338056
 11
251.5807905703
 21
185.8669338056
  0
LINE
  5
257
100
AcDbEntity
  8
0
100
AcDbLine
 62
7
  6
CONTINUOUS
 10
252.1994430884
 20
187.0158698389
 11
251.5807905703
 21
187.0158698389
  0
LINE
  5
258
100
AcDbEntity
  8
0
100
AcDbLine
 62
7
  6
CONTINUOUS
 10
252.0164821562
 20
187.2073591777
 11
252.2681461221
 21
187.2073591777
  0
LINE
  5
259
100
AcDbEntity
  8
0
100
AcDbLine
 62
7
  6
CONTINUOUS
 10
252.0582159537
 20
187.5903378555
 11
252.3096254205
 21
187.5903378555
  0
LINE
  5
25A
100
AcDbEntity
  8
0
100
AcDbLine
 62
7
  6
CONTINUOUS
 10
252.0777818809
 20
188.1648058721
 11
252.3290722082
 21
188.1648058721
  0
LINE
  5
25B
100
AcDbEntity
  8
0
100
AcDbLine
 62
7
  6
CONTINUOUS
 10
252.0777818809
 20
188.7392744252
 11
252.3290722082
 21
188.7392744252
  0
LINE
  5
25C
100
AcDbEntity
  8
0
100
AcDbLine
 62
7
  6
CONTINUOUS
 10
252.0582159537
 20
189.3137424418
 11
252.3096254205
 21
189.3137424418
  0
LINE
  5
25D
100
AcDbEntity
  8
0
100
AcDbLine
 62
7
  6
CONTINUOUS
 10
252.0164821562
 20
189.6967211196
 11
252.2681461221
 21
189.6967211196
  0
LINE
  5
25E
100
AcDbEntity
  8
0
100
AcDbLine
 62
7
  6
CONTINUOUS
 10
252.1994430884
 20
189.8882104584
 11
251.5807905703
 21
189.8882104584
  0
LINE
  5
25F
100
AcDbEntity
  8
0
100
AcDbLine
 62
7
  6
CONTINUOUS
 10
251.0604061638
 20
190.8456571528
 11
252.1748072823
 21
190.8456571528
  0
LINE
  5
260
100
AcDbEntity
  8
0
100
AcDbLine
 62
7
  6
CONTINUOUS
 10
252.267956638
 20
190.8456571528
 11
252.5401266632
 21
190.8456571528
  0
LINE
  5
261
100
AcDbEntity
  8
0
100
AcDbLine
 62
7
  6
CONTINUOUS
 10
185.8616938273
 20
371.9149631402
 11
186.1730190584
 21
372.4099421383
  0
LINE
  5
262
100
AcDbEntity
  8
0
100
AcDbLine
 62
7
  6
CONTINUOUS
 10
189.9205666601
 20
376.460622083
 11
189.7181909399
 21
376.1591223213
  0
LINE
  5
263
100
AcDbEntity
  8
0
100
AcDbLine
 62
7
  6
CONTINUOUS
 10
211.0237180638
 20
383.4850753509
 11
210.8032613484
 21
383.2428116502
  0
LINE
  5
264
100
AcDbEntity
  8
0
100
AcDbLine
 62
7
  6
CONTINUOUS
 10
230.6315904345
 20
378.340099379
 11
230.1998205789
 21
378.0482148661
  0
LINE
  5
265
100
AcDbEntity
  8
0
100
AcDbLine
 62
7
  6
CONTINUOUS
 10
229.3911328064
 20
375.948759179
 11
229.1752501531
 21
375.8028156171
  0
LINE
  5
266
100
AcDbEntity
  8
0
100
AcDbLine
 62
7
  6
CONTINUOUS
 10
237.2562927666
 20
372.8958298524
 11
236.9327800183
 21
372.7177449724
  0
LINE
  5
267
100
AcDbEntity
  8
0
100
AcDbLine
 62
7
  6
CONTINUOUS
 10
237.3548809883
 20
372.1626044522
 11
237.6783937366
 21
372.3406893323
  0
LINE
  5
268
100
AcDbEntity
  8
0
100
AcDbLine
 62
7
  6
CONTINUOUS
 10
235.5774165078
 20
371.1012773483
 11
235.2539037596
 21
370.9231924682
  0
LINE
  5
269
100
AcDbEntity
  8
0
100
AcDbLine
 62
7
  6
CONTINUOUS
 10
235.6760046735
 20
370.3680518882
 11
235.9995174778
 21
370.5461368281
  0
LINE
  5
26A
100
AcDbEntity
  8
0
100
AcDbLine
 62
7
  6
CONTINUOUS
 10
185.5863292325
 20
372.8123195375
 11
185.4333679872
 21
372.4829855189
  0
LINE
  5
26B
100
AcDbEntity
  8
0
100
AcDbLine
 62
7
  6
CONTINUOUS
 10
211.3886280295
 20
382.9129266139
 11
211.7150364653
 21
383.393265255
  0
LINE
  5
26C
100
AcDbEntity
  8
0
100
AcDbLine
 62
7
  6
CONTINUOUS
 10
228.1985545115
 20
380.5461694155
 11
227.8661646423
 21
380.197243164
  0
LINE
  5
26D
100
AcDbEntity
  8
0
100
AcDbLine
 62
7
  6
CONTINUOUS
 10
172.8658796799
 20
320.7153378555
 11
172.4908795011
 21
320.3323591777
  0
LINE
  5
26E
100
AcDbEntity
  8
0
100
AcDbLine
 62
7
  6
CONTINUOUS
 10
229.6138782397
 20
375.4161259521
 11
229.8880190909
 21
375.6635583189
  0
LINE
  5
26F
100
AcDbEntity
  8
0
100
AcDbLine
 62
7
  6
CONTINUOUS
 10
172.6783798587
 20
319.3749124834
 11
173.4283796799
 21
319.7578911611
  0
LINE
  5
270
100
AcDbEntity
  8
RUNDUNGEN
100
AcDbLine
 62
7
  6
CONTINUOUS
 10
249.2908796799
 20
208.3456571528
 11
234.5408788641
 21
208.3456571528
  0
LINE
  5
271
100
AcDbEntity
  8
RUNDUNGEN
100
AcDbLine
 62
7
  6
CONTINUOUS
 10
187.5408812737
 20
208.3456571528
 11
172.7908796799
 21
208.3456571528
  0
LINE
  5
272
100
AcDbEntity
  8
0
100
AcDbLine
 62
7
  6
CONTINUOUS
 10
173.0533795011
 20
321.2898058721
 11
172.8658796799
 21
320.7153378555
  0
LINE
  5
273
100
AcDbEntity
  8
0
100
AcDbLine
 62
7
  6
CONTINUOUS
 10
173.4283796799
 20
319.7578911611
 11
173.9908796799
 21
320.5238485166
  0
LINE
  5
274
100
AcDbEntity
  8
0
100
AcDbLine
 62
7
  6
CONTINUOUS
 10
235.7816331908
 20
376.5189063178
 11
232.0241480334
 21
372.5025266929
  0
LINE
  5
275
100
AcDbEntity
  8
0
100
AcDbLine
 62
7
  6
CONTINUOUS
 10
233.0058744415
 20
372.5455703607
 11
234.2050718572
 21
373.827393672
  0
LINE
  5
276
100
AcDbEntity
  8
0
100
AcDbLine
 62
7
  6
CONTINUOUS
 10
234.6847507563
 20
374.3401229247
 11
235.8040017448
 21
375.5364914204
  0
LINE
  5
277
100
AcDbEntity
  8
0
100
AcDbLine
 62
7
  6
CONTINUOUS
 10
230.7960823006
 20
377.7059748783
 11
231.1284721698
 21
378.0549011299
  0
LINE
  5
278
100
AcDbEntity
  8
0
100
AcDbLine
 62
7
  6
CONTINUOUS
 10
172.4908795011
 20
320.3323591777
 11
171.9283795011
 21
320.1408698389
  0
LINE
  5
279
100
AcDbEntity
  8
FASEN
100
AcDbLine
 62
7
  6
CONTINUOUS
 10
163.5408796799
 20
165.4706571528
 11
163.5408796799
 21
151.9706571528
  0
LINE
  5
27A
100
AcDbEntity
  8
0
100
AcDbLine
 62
7
  6
CONTINUOUS
 10
163.5408796799
 20
165.4706571528
 11
163.5408796799
 21
151.9706571528
  0
LINE
  5
27B
100
AcDbEntity
  8
0
100
AcDbLine
 62
7
  6
CONTINUOUS
 10
167.2408796799
 20
323.9706571528
 11
167.2408796799
 21
314.9706571528
  0
LINE
  5
27C
100
AcDbEntity
  8
0
100
AcDbLine
 62
7
  6
CONTINUOUS
 10
167.2408796799
 20
311.9706571528
 11
167.2408796799
 21
306.034486843
  0
LINE
  5
27D
100
AcDbEntity
  8
0
100
AcDbLine
 62
7
  6
CONTINUOUS
 10
167.2408796799
 20
299.9706571528
 11
167.2408796799
 21
290.9706571528
  0
LINE
  5
27E
100
AcDbEntity
  8
0
100
AcDbLine
 62
7
  6
CONTINUOUS
 10
173.8033798587
 20
305.0770401487
 11
173.9908796799
 21
306.034486843
  0
LINE
  5
27F
100
AcDbEntity
  8
0
100
AcDbLine
 62
7
  6
CONTINUOUS
 10
172.8658796799
 20
306.034486843
 11
172.6783798587
 21
305.2685294875
  0
LINE
  5
280
100
AcDbEntity
  8
0
100
AcDbLine
 62
7
  6
CONTINUOUS
 10
190.437446508
 20
375.9717994202
 11
190.5890121274
 21
376.5288840556
  0
LINE
  5
281
100
AcDbEntity
  8
0
100
AcDbLine
 62
7
  6
CONTINUOUS
 10
173.9908796799
 20
320.5238485166
 11
174.1783795011
 21
321.0983165332
  0
LINE
  5
282
100
AcDbEntity
  8
0
100
AcDbLine
 62
7
  6
CONTINUOUS
 10
173.4283796799
 20
304.311082659
 11
173.8033798587
 21
305.0770401487
  0
LINE
  5
283
100
AcDbEntity
  8
0
100
AcDbLine
 62
7
  6
CONTINUOUS
 10
172.6783798587
 20
305.2685294875
 11
172.3033796799
 21
304.6940614709
  0
LINE
  5
284
100
AcDbEntity
  8
0
100
AcDbLine
 62
7
  6
CONTINUOUS
 10
173.4283796799
 20
293.2685294875
 11
173.0533795011
 21
292.6940614709
  0
LINE
  5
285
100
AcDbEntity
  8
0
100
AcDbLine
 62
7
  6
CONTINUOUS
 10
231.5092080513
 20
376.05461258
 11
231.1612307195
 21
375.584228305
  0
LINE
  5
286
100
AcDbEntity
  8
0
100
AcDbLine
 62
7
  6
CONTINUOUS
 10
232.4508688047
 20
374.6301895673
 11
232.7988461365
 21
375.1005738423
  0
LINE
  5
287
100
AcDbEntity
  8
0
100
AcDbLine
 62
7
  6
CONTINUOUS
 10
237.416185733
 20
373.0667396033
 11
237.2562927666
 21
372.8958298524
  0
LINE
  5
288
100
AcDbEntity
  8
0
100
AcDbLine
 62
7
  6
CONTINUOUS
 10
235.8172559574
 20
371.3576419746
 11
235.5774165078
 21
371.1012773483
  0
LINE
  5
289
100
AcDbEntity
  8
0
100
AcDbLine
 62
7
  6
CONTINUOUS
 10
235.9995174778
 20
370.5461368281
 11
236.3992498937
 21
370.9734112054
  0
LINE
  5
28A
100
AcDbEntity
  8
0
100
AcDbLine
 62
7
  6
CONTINUOUS
 10
237.6783937366
 20
372.3406893323
 11
237.9981798933
 21
372.6825090735
  0
LINE
  5
28B
100
AcDbEntity
  8
0
100
AcDbLine
 62
7
  6
CONTINUOUS
 10
172.6783798587
 20
303.5451252365
 11
173.4283796799
 21
304.311082659
  0
LINE
  5
28C
100
AcDbEntity
  8
0
100
AcDbLine
 62
7
  6
CONTINUOUS
 10
172.3033796799
 20
304.6940614709
 11
171.7408796799
 21
304.311082659
  0
LINE
  5
28D
100
AcDbEntity
  8
0
100
AcDbLine
 62
7
  6
CONTINUOUS
 10
171.9283795011
 20
303.1621465084
 11
172.6783798587
 21
303.5451252365
  0
LINE
  5
28E
100
AcDbEntity
  8
0
100
AcDbLine
 62
7
  6
CONTINUOUS
 10
192.5408796799
 20
228.0656571528
 11
192.0408796799
 21
228.0656571528
  0
LINE
  5
28F
100
AcDbEntity
  8
0
100
AcDbLine
 62
7
  6
CONTINUOUS
 10
168.3658796799
 20
292.1195933202
 11
168.3658796799
 21
298.8217211196
  0
LINE
  5
290
100
AcDbEntity
  8
0
100
AcDbLine
 62
7
  6
CONTINUOUS
 10
168.3658796799
 20
306.034486843
 11
168.3658796799
 21
311.9706571528
  0
LINE
  5
291
100
AcDbEntity
  8
0
100
AcDbLine
 62
7
  6
CONTINUOUS
 10
168.3658796799
 20
314.9706571528
 11
168.3658796799
 21
318.9919338056
  0
LINE
  5
292
100
AcDbEntity
  8
0
100
AcDbLine
 62
7
  6
CONTINUOUS
 10
168.3658796799
 20
320.1408698389
 11
168.3658796799
 21
323.0132104584
  0
LINE
  5
293
100
AcDbEntity
  8
0
100
AcDbLine
 62
7
  6
CONTINUOUS
 10
169.7908796799
 20
205.3456571528
 11
169.7908796799
 21
165.9706571528
  0
LINE
  5
294
100
AcDbEntity
  8
0
100
AcDbLine
 62
7
  6
CONTINUOUS
 10
172.8658796799
 20
311.9706571528
 11
172.8658796799
 21
306.034486843
  0
LINE
  5
295
100
AcDbEntity
  8
0
100
AcDbLine
 62
7
  6
CONTINUOUS
 10
173.0533795011
 20
321.8642744252
 11
173.0533795011
 21
321.2898058721
  0
LINE
  5
296
100
AcDbEntity
  8
0
100
AcDbLine
 62
7
  6
CONTINUOUS
 10
173.6158795011
 20
296.9068271944
 11
173.6158795011
 21
294.034486843
  0
LINE
  5
297
100
AcDbEntity
  8
0
100
AcDbLine
 62
7
  6
CONTINUOUS
 10
173.9908796799
 20
306.034486843
 11
173.9908796799
 21
311.9706571528
  0
LINE
  5
298
100
AcDbEntity
  8
0
100
AcDbLine
 62
7
  6
CONTINUOUS
 10
174.1783795011
 20
321.0983165332
 11
174.1783795011
 21
321.8642744252
  0
LINE
  5
299
100
AcDbEntity
  8
0
100
AcDbLine
 62
7
  6
CONTINUOUS
 10
174.7408795011
 20
294.034486843
 11
174.7408795011
 21
296.9068271944
  0
LINE
  5
29A
100
AcDbEntity
  8
0
100
AcDbLine
 62
7
  6
CONTINUOUS
 10
186.1730190584
 20
372.4099421383
 11
186.2359929434
 21
372.983831864
  0
LINE
  5
29B
100
AcDbEntity
  8
0
100
AcDbLine
 62
7
  6
CONTINUOUS
 10
174.5533796799
 20
293.0770401487
 11
174.7408795011
 21
294.034486843
  0
LINE
  5
29C
100
AcDbEntity
  8
0
100
AcDbLine
 62
7
  6
CONTINUOUS
 10
173.6158795011
 20
294.034486843
 11
173.4283796799
 21
293.2685294875
  0
LINE
  5
29D
100
AcDbEntity
  8
0
100
AcDbLine
 62
7
  6
CONTINUOUS
 10
174.1783795011
 20
292.311082659
 11
174.5533796799
 21
293.0770401487
  0
LINE
  5
29E
100
AcDbEntity
  8
0
100
AcDbLine
 62
7
  6
CONTINUOUS
 10
228.7742827035
 20
378.3267294624
 11
228.5412682715
 21
377.9207640832
  0
LINE
  5
29F
100
AcDbEntity
  8
0
100
AcDbLine
 62
7
  6
CONTINUOUS
 10
230.7480978137
 20
378.5430823529
 11
230.6315904345
 21
378.340099379
  0
LINE
  5
2A0
100
AcDbEntity
  8
0
100
AcDbLine
 62
7
  6
CONTINUOUS
 10
229.6241472383
 20
376.3547245582
 11
229.3911328064
 21
375.948759179
  0
LINE
  5
2A1
100
AcDbEntity
  8
0
100
AcDbLine
 62
7
  6
CONTINUOUS
 10
231.1284721698
 20
378.0549011299
 11
231.244979549
 21
378.2578841038
  0
LINE
  5
2A2
100
AcDbEntity
  8
0
100
AcDbLine
 62
7
  6
CONTINUOUS
 10
229.8880190909
 20
375.6635583189
 11
230.1210335228
 21
376.0695236981
  0
LINE
  5
2A3
100
AcDbEntity
  8
0
100
AcDbLine
 62
7
  6
CONTINUOUS
 10
173.4283796799
 20
291.5451252365
 11
174.1783795011
 21
292.311082659
  0
LINE
  5
2A4
100
AcDbEntity
  8
0
100
AcDbLine
 62
7
  6
CONTINUOUS
 10
173.0533795011
 20
292.6940614709
 11
172.4908795011
 21
292.311082659
  0
LINE
  5
2A5
100
AcDbEntity
  8
0
100
AcDbLine
 62
7
  6
CONTINUOUS
 10
172.6783798587
 20
291.1621465084
 11
173.4283796799
 21
291.5451252365
  0
LINE
  5
2A6
100
AcDbEntity
  8
0
100
AcDbLine
 62
7
  6
CONTINUOUS
 10
192.5408796799
 20
232.4656571528
 11
192.0408796799
 21
232.4656571528
  0
LINE
  5
2A7
100
AcDbEntity
  8
0
100
AcDbLine
 62
7
  6
CONTINUOUS
 10
192.5408796799
 20
234.8656571528
 11
192.0408796799
 21
234.8656571528
  0
LINE
  5
2A8
100
AcDbEntity
  8
FASEN
100
AcDbLine
 62
7
  6
CONTINUOUS
 10
258.0408796798
 20
165.9706571528
 11
258.5408796798
 21
165.4706571528
  0
LINE
  5
2A9
100
AcDbEntity
  8
0
100
AcDbLine
 62
7
  6
CONTINUOUS
 10
167.2408796799
 20
306.034486843
 11
167.4283796855
 21
305.0770401487
  0
LINE
  5
2AA
100
AcDbEntity
  8
0
100
AcDbLine
 62
7
  6
CONTINUOUS
 10
189.9608685547
 20
376.7856896481
 11
189.9205666601
 21
376.460622083
  0
LINE
  5
2AB
100
AcDbEntity
  8
0
100
AcDbLine
 62
7
  6
CONTINUOUS
 10
211.1253918365
 20
383.8400933333
 11
211.0237180638
 21
383.4850753509
  0
LINE
  5
2AC
100
AcDbEntity
  8
0
100
AcDbLine
 62
7
  6
CONTINUOUS
 10
211.7150364653
 20
383.393265255
 11
211.8167102379
 21
383.7482832373
  0
LINE
  5
2AD
100
AcDbEntity
  8
0
100
AcDbLine
 62
7
  6
CONTINUOUS
 10
225.4183554104
 20
381.7858917215
 11
225.0452870609
 21
380.9272677767
  0
LINE
  5
2AE
100
AcDbEntity
  8
0
100
AcDbLine
 62
7
  6
CONTINUOUS
 10
226.0022736969
 20
381.4045917601
 11
224.1835658686
 21
377.2188008933
  0
LINE
  5
2AF
100
AcDbEntity
  8
0
100
AcDbLine
 62
7
  6
CONTINUOUS
 10
224.8141176825
 20
376.9448288874
 11
227.0058937297
 21
381.9892433984
  0
LINE
  5
2B0
100
AcDbEntity
  8
0
100
AcDbLine
 62
7
  6
CONTINUOUS
 10
192.5408796799
 20
239.2656571528
 11
192.0408796799
 21
239.2656571528
  0
LINE
  5
2B1
100
AcDbEntity
  8
0
100
AcDbLine
 62
7
  6
CONTINUOUS
 10
168.5533796352
 20
305.2685294875
 11
168.3658796799
 21
306.034486843
  0
LINE
  5
2B2
100
AcDbEntity
  8
0
100
AcDbLine
 62
7
  6
CONTINUOUS
 10
173.4283796799
 20
297.6727845499
 11
173.6158795011
 21
296.9068271944
  0
LINE
  5
2B3
100
AcDbEntity
  8
0
100
AcDbLine
 62
7
  6
CONTINUOUS
 10
174.7408795011
 20
296.9068271944
 11
174.5533796799
 21
297.8642744252
  0
LINE
  5
2B4
100
AcDbEntity
  8
0
100
AcDbLine
 62
7
  6
CONTINUOUS
 10
185.5755239783
 20
373.1396978528
 11
185.5863292325
 21
372.8123195375
  0
LINE
  5
2B5
100
AcDbEntity
  8
0
100
AcDbLine
 62
7
  6
CONTINUOUS
 10
190.5890121274
 20
376.5288840556
 11
190.5785039213
 21
377.1095364944
  0
LINE
  5
2B6
100
AcDbEntity
  8
0
100
AcDbLine
 62
7
  6
CONTINUOUS
 10
192.0408796799
 20
228.0658871899
 11
192.0408796799
 21
232.4656571528
  0
LINE
  5
2B7
100
AcDbEntity
  8
0
100
AcDbLine
 62
7
  6
CONTINUOUS
 10
192.0408796799
 20
234.8658871899
 11
192.0408796799
 21
239.2656571528
  0
LINE
  5
2B8
100
AcDbEntity
  8
RUNDUNGEN
100
AcDbLine
 62
7
  6
CONTINUOUS
 10
192.5408796799
 20
249.8456571528
 11
192.5408796799
 21
213.34569342
  0
LINE
  5
2B9
100
AcDbEntity
  8
0
100
AcDbLine
 62
7
  6
CONTINUOUS
 10
235.9734222202
 20
371.692286467
 11
235.8172559574
 21
371.3576419746
  0
LINE
  5
2BA
100
AcDbEntity
  8
0
100
AcDbLine
 62
7
  6
CONTINUOUS
 10
236.3992498937
 20
370.9734112054
 11
236.5554161565
 21
371.3080556977
  0
LINE
  5
2BB
100
AcDbEntity
  8
0
100
AcDbLine
 62
7
  6
CONTINUOUS
 10
237.5723521077
 20
373.4013842154
 11
237.416185733
 21
373.0667396033
  0
LINE
  5
2BC
100
AcDbEntity
  8
0
100
AcDbLine
 62
7
  6
CONTINUOUS
 10
237.9981798933
 20
372.6825090735
 11
238.154346044
 21
373.0171534461
  0
LINE
  5
2BD
100
AcDbEntity
  8
0
100
AcDbLine
 62
7
  6
CONTINUOUS
 10
173.0533795011
 20
298.2472531029
 11
173.4283796799
 21
297.6727845499
  0
LINE
  5
2BE
100
AcDbEntity
  8
0
100
AcDbLine
 62
7
  6
CONTINUOUS
 10
168.9283796799
 20
304.6940614709
 11
168.5533796352
 21
305.2685294875
  0
LINE
  5
2BF
100
AcDbEntity
  8
0
100
AcDbLine
 62
7
  6
CONTINUOUS
 10
167.4283796855
 20
305.0770401487
 11
167.8033796799
 21
304.311082659
  0
LINE
  5
2C0
100
AcDbEntity
  8
0
100
AcDbLine
 62
7
  6
CONTINUOUS
 10
174.5533796799
 20
297.8642744252
 11
174.1783795011
 21
298.6302317807
  0
LINE
  5
2C1
100
AcDbEntity
  8
0
100
AcDbLine
 62
7
  6
CONTINUOUS
 10
174.3658798587
 20
314.9706571528
 11
172.6783798587
 21
319.3749124834
  0
LINE
  5
2C2
100
AcDbEntity
  8
0
100
AcDbLine
 62
7
  6
CONTINUOUS
 10
171.5533795905
 20
318.9919338056
 11
173.0533795011
 21
314.9706571528
  0
LINE
  5
2C3
100
AcDbEntity
  8
0
100
AcDbLine
 62
7
  6
CONTINUOUS
 10
172.8658796799
 20
322.4387424418
 11
173.0533795011
 21
321.8642744252
  0
LINE
  5
2C4
100
AcDbEntity
  8
0
100
AcDbLine
 62
7
  6
CONTINUOUS
 10
174.1783795011
 20
321.8642744252
 11
173.9908796799
 21
322.4387424418
  0
LINE
  5
2C5
100
AcDbEntity
  8
0
100
AcDbLine
 62
7
  6
CONTINUOUS
 10
203.4294580821
 20
379.0635961099
 11
203.8637969737
 21
384.8448121789
  0
LINE
  5
2C6
100
AcDbEntity
  8
0
100
AcDbLine
 62
7
  6
CONTINUOUS
 10
203.1971224296
 20
384.6768797453
 11
202.8135033463
 21
379.6325003681
  0
LINE
  5
2C7
100
AcDbEntity
  8
0
100
AcDbLine
 62
7
  6
CONTINUOUS
 10
230.1210335228
 20
376.0695236981
 11
230.25466805
 21
376.5325309581
  0
LINE
  5
2C8
100
AcDbEntity
  8
0
100
AcDbLine
 62
7
  6
CONTINUOUS
 10
231.244979549
 20
378.2578841038
 11
231.3786185437
 21
378.7208886106
  0
LINE
  5
2C9
100
AcDbEntity
  8
0
100
AcDbLine
 62
7
  6
CONTINUOUS
 10
207.5157906715
 20
385.3474426624
 11
207.71685424
 21
379.8511190328
  0
LINE
  5
2CA
100
AcDbEntity
  8
0
100
AcDbLine
 62
7
  6
CONTINUOUS
 10
226.3104464859
 20
377.7169995509
 11
226.235063333
 21
377.3554850123
  0
LINE
  5
2CB
100
AcDbEntity
  8
0
100
AcDbLine
 62
7
  6
CONTINUOUS
 10
172.4908795011
 20
298.6302317807
 11
173.0533795011
 21
298.2472531029
  0
LINE
  5
2CC
100
AcDbEntity
  8
0
100
AcDbLine
 62
7
  6
CONTINUOUS
 10
167.8033796799
 20
304.311082659
 11
168.5533796352
 21
303.5451252365
  0
LINE
  5
2CD
100
AcDbEntity
  8
0
100
AcDbLine
 62
7
  6
CONTINUOUS
 10
174.1783795011
 20
298.6302317807
 11
173.4283796799
 21
299.3961891362
  0
LINE
  5
2CE
100
AcDbEntity
  8
0
100
AcDbLine
 62
7
  6
CONTINUOUS
 10
173.9908796799
 20
322.4387424418
 11
173.4283796799
 21
323.2046997973
  0
LINE
  5
2CF
100
AcDbEntity
  8
0
100
AcDbLine
 62
7
  6
CONTINUOUS
 10
186.2359929434
 20
372.983831864
 11
186.1352003289
 21
373.5557658864
  0
LINE
  5
2D0
100
AcDbEntity
  8
0
100
AcDbLine
 62
7
  6
CONTINUOUS
 10
208.4038946937
 20
379.8762519788
 11
208.3140577788
 21
382.3320561886
  0
LINE
  5
2D1
100
AcDbEntity
  8
0
100
AcDbLine
 62
7
  6
CONTINUOUS
 10
208.2883900923
 20
383.0337144406
 11
208.224220864
 21
384.7878603984
  0
LINE
  5
2D2
100
AcDbEntity
  8
0
100
AcDbLine
 62
7
  6
CONTINUOUS
 10
211.1125579812
 20
384.1909227869
 11
211.1253918365
 21
383.8400933333
  0
LINE
  5
2D3
100
AcDbEntity
  8
0
100
AcDbLine
 62
7
  6
CONTINUOUS
 10
211.8167102379
 20
383.7482832373
 11
211.7995984349
 21
384.216055733
  0
LINE
  5
2D4
100
AcDbEntity
  8
0
100
AcDbLine
 62
7
  6
CONTINUOUS
 10
226.7902032663
 20
377.171775568
 11
226.8073304959
 21
377.4317999963
  0
LINE
  5
2D5
100
AcDbEntity
  8
0
100
AcDbLine
 62
7
  6
CONTINUOUS
 10
173.4283796799
 20
299.3961891362
 11
172.6783798587
 21
299.7791678139
  0
LINE
  5
2D6
100
AcDbEntity
  8
0
100
AcDbLine
 62
7
  6
CONTINUOUS
 10
168.5533796352
 20
303.5451252365
 11
169.3033797246
 21
303.1621465084
  0
LINE
  5
2D7
100
AcDbEntity
  8
0
100
AcDbLine
 62
7
  6
CONTINUOUS
 10
169.4908796799
 20
304.311082659
 11
168.9283796799
 21
304.6940614709
  0
LINE
  5
2D8
100
AcDbEntity
  8
0
100
AcDbLine
 62
7
  6
CONTINUOUS
 10
172.4908795011
 20
322.8217211196
 11
172.8658796799
 21
322.4387424418
  0
LINE
  5
2D9
100
AcDbEntity
  8
RUNDUNGEN
100
AcDbLine
 62
7
  6
CONTINUOUS
 10
229.5408796799
 20
213.3457259892
 11
229.5408796799
 21
249.8456571528
  0
LINE
  5
2DA
100
AcDbEntity
  8
0
100
AcDbLine
 62
7
  6
CONTINUOUS
 10
229.6584063283
 20
376.8747709458
 11
229.6241472383
 21
376.3547245582
  0
LINE
  5
2DB
100
AcDbEntity
  8
0
100
AcDbLine
 62
7
  6
CONTINUOUS
 10
236.5554161565
 20
371.3080556977
 11
236.6241783626
 21
371.8847180219
  0
LINE
  5
2DC
100
AcDbEntity
  8
0
100
AcDbLine
 62
7
  6
CONTINUOUS
 10
238.154346044
 20
373.0171534461
 11
238.2231082502
 21
373.5938157703
  0
LINE
  5
2DD
100
AcDbEntity
  8
KONSTRUKTIONSELEMENTE
100
AcDbLine
 62
7
  6
CONTINUOUS
 10
163.2666736639
 20
286.9706571528
 11
179.8440319465
 21
286.9706571528
  0
LINE
  5
2DE
100
AcDbEntity
  8
KONSTRUKTIONSELEMENTE
100
AcDbLine
 62
7
  6
CONTINUOUS
 10
242.2377274133
 20
286.9706571528
 11
258.8150856959
 21
286.9706571528
  0
LINE
  5
2DF
100
AcDbEntity
  8
0
100
AcDbLine
 62
7
  6
CONTINUOUS
 10
171.7408796799
 20
298.8217211196
 11
172.4908795011
 21
298.6302317807
  0
LINE
  5
2E0
100
AcDbEntity
  8
0
100
AcDbLine
 62
7
  6
CONTINUOUS
 10
173.4283796799
 20
323.2046997973
 11
172.6783798587
 21
323.7791678139
  0
LINE
  5
2E1
100
AcDbEntity
  8
0
100
AcDbLine
 62
7
  6
CONTINUOUS
 10
189.8390971452
 20
377.1343254142
 11
189.9608685547
 21
376.7856896481
  0
LINE
  5
2E2
100
AcDbEntity
  8
0
100
AcDbLine
 62
7
  6
CONTINUOUS
 10
190.5785039213
 20
377.1095364944
 11
190.4567325118
 21
377.4581722605
  0
LINE
  5
2E3
100
AcDbEntity
  8
0
100
AcDbLine
 62
7
  6
CONTINUOUS
 10
205.3667316193
 20
385.0315637086
 11
206.1290871151
 21
379.5846550351
  0
LINE
  5
2E4
100
AcDbEntity
  8
0
100
AcDbLine
 62
7
  6
CONTINUOUS
 10
206.8099506993
 20
379.679949472
 11
206.0475952035
 21
385.1268581456
  0
LINE
  5
2E5
100
AcDbEntity
  8
0
100
AcDbLine
 62
7
  6
CONTINUOUS
 10
226.235063333
 20
377.3554850123
 11
226.2590579326
 21
376.9369301116
  0
LINE
  5
2E6
100
AcDbEntity
  8
0
100
AcDbLine
 62
7
  6
CONTINUOUS
 10
230.25466805
 20
376.5325309581
 11
230.2306779995
 21
376.9510832476
  0
LINE
  5
2E7
100
AcDbEntity
  8
0
100
AcDbLine
 62
7
  6
CONTINUOUS
 10
230.724103214
 20
378.9616372535
 11
230.7480978137
 21
378.5430823529
  0
LINE
  5
2E8
100
AcDbEntity
  8
0
100
AcDbLine
 62
7
  6
CONTINUOUS
 10
235.9659647587
 20
372.0197592939
 11
235.9734222202
 21
371.692286467
  0
LINE
  5
2E9
100
AcDbEntity
  8
0
100
AcDbLine
 62
7
  6
CONTINUOUS
 10
171.7408796799
 20
290.9706571528
 11
172.6783798587
 21
291.1621465084
  0
LINE
  5
2EA
100
AcDbEntity
  8
0
100
AcDbLine
 62
7
  6
CONTINUOUS
 10
167.2408796799
 20
290.9706571528
 11
171.7408796799
 21
290.9706571528
  0
LINE
  5
2EB
100
AcDbEntity
  8
0
100
AcDbLine
 62
7
  6
CONTINUOUS
 10
171.7408796799
 20
292.1195933202
 11
168.3658796799
 21
292.1195933202
  0
LINE
  5
2EC
100
AcDbEntity
  8
0
100
AcDbLine
 62
7
  6
CONTINUOUS
 10
172.6783798587
 20
299.7791678139
 11
171.7408796799
 21
299.9706571528
  0
LINE
  5
2ED
100
AcDbEntity
  8
0
100
AcDbLine
 62
7
  6
CONTINUOUS
 10
169.3033797246
 20
303.1621465084
 11
170.2408797693
 21
302.9706571528
  0
LINE
  5
2EE
100
AcDbEntity
  8
0
100
AcDbLine
 62
7
  6
CONTINUOUS
 10
170.2408797693
 20
304.1195933202
 11
169.4908796799
 21
304.311082659
  0
LINE
  5
2EF
100
AcDbEntity
  8
0
100
AcDbLine
 62
7
  6
CONTINUOUS
 10
185.4009519981
 20
373.4651202278
 11
185.5755239783
 21
373.1396978528
  0
LINE
  5
2F0
100
AcDbEntity
  8
0
100
AcDbLine
 62
7
  6
CONTINUOUS
 10
186.1352003289
 20
373.5557658864
 11
185.9606283486
 21
373.8811882613
  0
LINE
  5
2F1
100
AcDbEntity
  8
0
100
AcDbLine
 62
7
  6
CONTINUOUS
 10
197.4973601453
 20
379.8574489921
 11
197.7060850863
 21
379.3108380805
  0
LINE
  5
2F2
100
AcDbEntity
  8
0
100
AcDbLine
 62
7
  6
CONTINUOUS
 10
237.5648946463
 20
373.7288570423
 11
237.5723521077
 21
373.4013842154
  0
LINE
  5
2F3
100
AcDbEntity
  8
0
100
AcDbLine
 62
7
  6
CONTINUOUS
 10
172.4908795011
 20
292.311082659
 11
171.7408796799
 21
292.1195933202
  0
LINE
  5
2F4
100
AcDbEntity
  8
0
100
AcDbLine
 62
7
  6
CONTINUOUS
 10
168.3658796799
 20
298.8217211196
 11
171.7408796799
 21
298.8217211196
  0
LINE
  5
2F5
100
AcDbEntity
  8
0
100
AcDbLine
 62
7
  6
CONTINUOUS
 10
171.7408796799
 20
299.9706571528
 11
167.2408796799
 21
299.9706571528
  0
LINE
  5
2F6
100
AcDbEntity
  8
0
100
AcDbLine
 62
7
  6
CONTINUOUS
 10
170.2408797693
 20
302.9706571528
 11
170.9908795905
 21
302.9706571528
  0
LINE
  5
2F7
100
AcDbEntity
  8
0
100
AcDbLine
 62
7
  6
CONTINUOUS
 10
170.9908795905
 20
304.1195933202
 11
170.2408797693
 21
304.1195933202
  0
LINE
  5
2F8
100
AcDbEntity
  8
0
100
AcDbLine
 62
7
  6
CONTINUOUS
 10
199.2047101692
 20
379.8830923576
 11
198.9959852282
 21
380.4297032691
  0
LINE
  5
2F9
100
AcDbEntity
  8
0
100
AcDbLine
 62
7
  6
CONTINUOUS
 10
252.540879665
 20
182.3882092796
 11
252.5408326161
 21
182.4201252365
  0
LINE
  5
2FA
100
AcDbEntity
  8
0
100
AcDbLine
 62
7
  6
CONTINUOUS
 10
249.0614333318
 20
176.8456571528
 11
249.0614333318
 21
167.8456571528
  0
LINE
  5
2FB
100
AcDbEntity
  8
0
100
AcDbLine
 62
7
  6
CONTINUOUS
 10
249.332523677
 20
176.8456571528
 11
249.332523677
 21
167.8456571528
  0
LINE
  5
2FC
100
AcDbEntity
  8
0
100
AcDbLine
 62
7
  6
CONTINUOUS
 10
249.7834192843
 20
175.8882104584
 11
249.7834192843
 21
173.0158698389
  0
LINE
  5
2FD
100
AcDbEntity
  8
0
100
AcDbLine
 62
7
  6
CONTINUOUS
 10
249.7834192843
 20
171.8669338056
 11
249.7834192843
 21
167.8456571528
  0
LINE
  5
2FE
100
AcDbEntity
  8
0
100
AcDbLine
 62
7
  6
CONTINUOUS
 10
251.0130867756
 20
174.7392744252
 11
251.0130867756
 21
174.1648058721
  0
LINE
  5
2FF
100
AcDbEntity
  8
0
100
AcDbLine
 62
7
  6
CONTINUOUS
 10
251.0604061638
 20
190.8456571528
 11
251.0604061638
 21
181.8456571528
  0
LINE
  5
300
100
AcDbEntity
  8
0
100
AcDbLine
 62
7
  6
CONTINUOUS
 10
251.2710280777
 20
174.7392744252
 11
251.2710280777
 21
174.1648058721
  0
LINE
  5
301
100
AcDbEntity
  8
0
100
AcDbLine
 62
7
  6
CONTINUOUS
 10
251.3180444262
 20
190.8456571528
 11
251.3180444262
 21
181.8456571528
  0
LINE
  5
302
100
AcDbEntity
  8
0
100
AcDbLine
 62
7
  6
CONTINUOUS
 10
251.5392881734
 20
174.7392744252
 11
251.5392881734
 21
173.9733165332
  0
LINE
  5
303
100
AcDbEntity
  8
0
100
AcDbLine
 62
7
  6
CONTINUOUS
 10
251.5807905703
 20
189.8882104584
 11
251.5807905703
 21
187.0158698389
  0
LINE
  5
304
100
AcDbEntity
  8
0
100
AcDbLine
 62
7
  6
CONTINUOUS
 10
251.5807905703
 20
185.8669338056
 11
251.5807905703
 21
181.8456571528
  0
LINE
  5
305
100
AcDbEntity
  8
0
100
AcDbLine
 62
7
  6
CONTINUOUS
 10
251.5917254633
 20
176.8456571528
 11
251.5917254633
 21
167.8456571528
  0
LINE
  5
306
100
AcDbEntity
  8
0
100
AcDbLine
 62
7
  6
CONTINUOUS
 10
251.8460091828
 20
176.8456571528
 11
251.8460091828
 21
167.8456571528
  0
LINE
  5
307
100
AcDbEntity
  8
0
100
AcDbLine
 62
7
  6
CONTINUOUS
 10
252.0385453909
 20
175.8882104584
 11
252.0385453909
 21
173.0158698389
  0
LINE
  5
308
100
AcDbEntity
  8
0
100
AcDbLine
 62
7
  6
CONTINUOUS
 10
252.0385453909
 20
171.8669338056
 11
252.0385453909
 21
167.8456571528
  0
LINE
  5
309
100
AcDbEntity
  8
0
100
AcDbLine
 62
7
  6
CONTINUOUS
 10
252.0777818809
 20
188.7392744252
 11
252.0777818809
 21
188.1648058721
  0
LINE
  5
30A
100
AcDbEntity
  8
0
100
AcDbLine
 62
7
  6
CONTINUOUS
 10
252.2537417651
 20
174.7392744252
 11
252.2537417651
 21
174.1648058721
  0
LINE
  5
30B
100
AcDbEntity
  8
0
100
AcDbLine
 62
7
  6
CONTINUOUS
 10
252.267956638
 20
190.8456571528
 11
252.267956638
 21
190.692611279
  0
LINE
  5
30C
100
AcDbEntity
  8
0
100
AcDbLine
 62
7
  6
CONTINUOUS
 10
252.2908796799
 20
205.3456571528
 11
252.2908796799
 21
190.8456571528
  0
LINE
  5
30D
100
AcDbEntity
  8
0
100
AcDbLine
 62
7
  6
CONTINUOUS
 10
252.2908796799
 20
181.8456571528
 11
252.2908796799
 21
176.8456571528
  0
LINE
  5
30E
100
AcDbEntity
  8
0
100
AcDbLine
 62
7
  6
CONTINUOUS
 10
252.2908796799
 20
171.8669338056
 11
252.2908796799
 21
165.9706571528
  0
LINE
  5
30F
100
AcDbEntity
  8
0
100
AcDbLine
 62
7
  6
CONTINUOUS
 10
252.3290722082
 20
188.7392744252
 11
252.3290722082
 21
188.1648058721
  0
LINE
  5
310
100
AcDbEntity
  8
0
100
AcDbLine
 62
7
  6
CONTINUOUS
 10
252.4277265356
 20
188.7392744252
 11
252.4277265356
 21
187.9733165332
  0
LINE
  5
311
100
AcDbEntity
  8
0
100
AcDbLine
 62
7
  6
CONTINUOUS
 10
252.5039656872
 20
174.7392744252
 11
252.5039656872
 21
174.1648058721
  0
LINE
  5
312
100
AcDbEntity
  8
0
100
AcDbLine
 62
7
  6
CONTINUOUS
 10
252.5180948047
 20
190.8456571528
 11
252.5180948047
 21
184.909486843
  0
LINE
  5
313
100
AcDbEntity
  8
0
100
AcDbLine
 62
7
  6
CONTINUOUS
 10
252.5316542569
 20
172.0584231445
 11
252.5316542569
 21
171.1009761819
  0
LINE
  5
314
100
AcDbEntity
  8
0
100
AcDbLine
 62
7
  6
CONTINUOUS
 10
252.5361730931
 20
174.7392744252
 11
252.5361730931
 21
173.9733165332
  0
LINE
  5
315
100
AcDbEntity
  8
0
100
AcDbLine
 62
7
  6
CONTINUOUS
 10
252.5401266632
 20
190.8456571528
 11
252.5401266632
 21
184.909486843
  0
LINE
  5
316
100
AcDbEntity
  8
0
100
AcDbLine
 62
7
  6
CONTINUOUS
 10
252.5408326161
 20
184.1435294875
 11
252.5408796799
 21
183.186082659
  0
LINE
  5
317
100
AcDbEntity
  8
FASEN
100
AcDbLine
 62
7
  6
CONTINUOUS
 10
164.04087968
 20
165.9706571529
 11
163.54087968
 21
165.4706571529
  0
LINE
  5
318
100
AcDbEntity
  8
0
100
AcDbLine
 62
7
  6
CONTINUOUS
 10
171.7408796799
 20
304.311082659
 11
170.9908795905
 21
304.1195933202
  0
LINE
  5
319
100
AcDbEntity
  8
0
100
AcDbLine
 62
7
  6
CONTINUOUS
 10
170.9908795905
 20
302.9706571528
 11
171.9283795011
 21
303.1621465084
  0
LINE
  5
31A
100
AcDbEntity
  8
0
100
AcDbLine
 62
7
  6
CONTINUOUS
 10
173.9908796799
 20
311.9706571528
 11
172.8658796799
 21
311.9706571528
  0
LINE
  5
31B
100
AcDbEntity
  8
0
100
AcDbLine
 62
7
  6
CONTINUOUS
 10
168.3658796799
 20
311.9706571528
 11
167.2408796799
 21
311.9706571528
  0
LINE
  5
31C
100
AcDbEntity
  8
0
100
AcDbLine
 62
7
  6
CONTINUOUS
 10
167.2408796799
 20
314.9706571528
 11
168.3658796799
 21
314.9706571528
  0
LINE
  5
31D
100
AcDbEntity
  8
0
100
AcDbLine
 62
7
  6
CONTINUOUS
 10
173.0533795011
 20
314.9706571528
 11
174.3658798587
 21
314.9706571528
  0
LINE
  5
31E
100
AcDbEntity
  8
0
100
AcDbLine
 62
7
  6
CONTINUOUS
 10
172.6783798587
 20
323.7791678139
 11
171.7408796799
 21
323.9706571528
  0
LINE
  5
31F
100
AcDbEntity
  8
0
100
AcDbLine
 62
7
  6
CONTINUOUS
 10
171.9283795011
 20
323.0132104584
 11
172.4908795011
 21
322.8217211196
  0
LINE
  5
320
100
AcDbEntity
  8
0
100
AcDbLine
 62
7
  6
CONTINUOUS
 10
186.0211558179
 20
376.2830663858
 11
189.3563377271
 21
371.9096739231
  0
LINE
  5
321
100
AcDbEntity
  8
0
100
AcDbLine
 62
7
  6
CONTINUOUS
 10
189.9030117849
 20
372.3265716618
 11
188.4128241022
 21
374.2806406622
  0
LINE
  5
322
100
AcDbEntity
  8
0
100
AcDbLine
 62
7
  6
CONTINUOUS
 10
187.9870562497
 20
374.8389460164
 11
186.9226364195
 21
376.2347096626
  0
LINE
  5
323
100
AcDbEntity
  8
0
100
AcDbLine
 62
7
  6
CONTINUOUS
 10
210.985216522
 20
384.5375630566
 11
211.1125579812
 21
384.1909227869
  0
LINE
  5
324
100
AcDbEntity
  8
0
100
AcDbLine
 62
7
  6
CONTINUOUS
 10
211.7995984349
 20
384.216055733
 11
211.6722569757
 21
384.5626960027
  0
LINE
  5
325
100
AcDbEntity
  8
0
100
AcDbLine
 62
7
  6
CONTINUOUS
 10
226.872446884
 20
376.8547145522
 11
226.7902032663
 21
377.171775568
  0
LINE
  5
326
100
AcDbEntity
  8
0
100
AcDbLine
 62
7
  6
CONTINUOUS
 10
238.2231082502
 20
373.5938157703
 11
238.1282468441
 21
374.1633065487
  0
LINE
  5
327
100
AcDbEntity
  8
FASEN
100
AcDbLine
 62
7
  6
CONTINUOUS
 10
258.5408796799
 20
165.4706571528
 11
258.5408796799
 21
151.9706571528
  0
LINE
  5
328
100
AcDbEntity
  8
0
100
AcDbLine
 62
7
  6
CONTINUOUS
 10
258.5408796799
 20
165.4706571528
 11
258.5408796799
 21
151.9706571528
  0
LINE
  5
329
100
AcDbEntity
  8
0
100
AcDbLine
 62
7
  6
CONTINUOUS
 10
168.3658796799
 20
318.9919338056
 11
171.5533795905
 21
318.9919338056
  0
LINE
  5
32A
100
AcDbEntity
  8
0
100
AcDbLine
 62
7
  6
CONTINUOUS
 10
171.9283795011
 20
320.1408698389
 11
168.3658796799
 21
320.1408698389
  0
LINE
  5
32B
100
AcDbEntity
  8
0
100
AcDbLine
 62
7
  6
CONTINUOUS
 10
168.3658796799
 20
323.0132104584
 11
171.9283795011
 21
323.0132104584
  0
LINE
  5
32C
100
AcDbEntity
  8
0
100
AcDbLine
 62
7
  6
CONTINUOUS
 10
171.7408796799
 20
323.9706571528
 11
167.2408796799
 21
323.9706571528
  0
LINE
  5
32D
100
AcDbEntity
  8
0
100
AcDbLine
 62
7
  6
CONTINUOUS
 10
181.7621265492
 20
372.0297579266
 11
185.7376041608
 21
368.2290240817
  0
LINE
  5
32E
100
AcDbEntity
  8
0
100
AcDbLine
 62
7
  6
CONTINUOUS
 10
186.2126958914
 20
368.7259587832
 11
184.4364186355
 21
370.4241590358
  0
LINE
  5
32F
100
AcDbEntity
  8
0
100
AcDbLine
 62
7
  6
CONTINUOUS
 10
183.9289109158
 20
370.9093590433
 11
182.6601413795
 21
372.1223592885
  0
LINE
  5
330
100
AcDbEntity
  8
0
100
AcDbLine
 62
7
  6
CONTINUOUS
 10
189.6262130202
 20
377.413478352
 11
189.8390971452
 21
377.1343254142
  0
LINE
  5
331
100
AcDbEntity
  8
0
100
AcDbLine
 62
7
  6
CONTINUOUS
 10
190.4567325118
 20
377.4581722605
 11
190.172887078
 21
377.8303760906
  0
LINE
  5
332
100
AcDbEntity
  8
0
100
AcDbLine
 62
7
  6
CONTINUOUS
 10
202.8135033463
 20
379.6325003681
 11
200.085974981
 21
383.8931951619
  0
LINE
  5
333
100
AcDbEntity
  8
0
100
AcDbLine
 62
7
  6
CONTINUOUS
 10
199.4193004369
 20
383.7252627283
 11
202.5405595377
 21
378.839686412
  0
LINE
  5
334
100
AcDbEntity
  8
0
100
AcDbLine
 62
7
  6
CONTINUOUS
 10
231.3786185437
 20
378.7208886106
 11
231.2141266776
 21
379.3550131112
  0
LINE
  5
335
100
AcDbEntity
  8
KONSTRUKTIONSELEMENTE
100
AcDbLine
 62
7
  6
CONTINUOUS
 10
163.2666736639
 20
326.9706571528
 11
179.8440319465
 21
326.9706571528
  0
LINE
  5
336
100
AcDbEntity
  8
KONSTRUKTIONSELEMENTE
100
AcDbLine
 62
7
  6
CONTINUOUS
 10
242.2377274133
 20
326.9706571528
 11
258.8150856959
 21
326.9706571528
  0
LINE
  5
337
100
AcDbEntity
  8
0
100
AcDbLine
 62
7
  6
CONTINUOUS
 10
185.1471979013
 20
373.7077204581
 11
185.4009519981
 21
373.4651202278
  0
LINE
  5
338
100
AcDbEntity
  8
0
100
AcDbLine
 62
7
  6
CONTINUOUS
 10
185.9606283486
 20
373.8811882613
 11
185.6222896319
 21
374.2046551595
  0
LINE
  5
339
100
AcDbEntity
  8
0
100
AcDbLine
 62
7
  6
CONTINUOUS
 10
226.2590579326
 20
376.9369301116
 11
226.4406815571
 21
376.5628273926
  0
LINE
  5
33A
100
AcDbEntity
  8
0
100
AcDbLine
 62
7
  6
CONTINUOUS
 10
236.6241783626
 20
371.8847180219
 11
236.536774418
 21
372.1267359734
  0
LINE
  5
33B
100
AcDbEntity
  8
0
100
AcDbLine
 62
7
  6
CONTINUOUS
 10
211.6722569757
 20
384.5626960027
 11
211.3116249579
 21
385.0179016977
  0
LINE
  5
33C
100
AcDbEntity
  8
0
100
AcDbLine
 62
7
  6
CONTINUOUS
 10
226.4406815571
 20
376.5628273926
 11
226.7216806239
 21
376.1316855549
  0
LINE
  5
33D
100
AcDbEntity
  8
0
100
AcDbLine
 62
7
  6
CONTINUOUS
 10
227.0129486996
 20
376.6391423411
 11
226.872446884
 21
376.8547145522
  0
LINE
  5
33E
100
AcDbEntity
  8
0
100
AcDbLine
 62
7
  6
CONTINUOUS
 10
235.7948875153
 20
372.3400569917
 11
235.9659647587
 21
372.0197592939
  0
LINE
  5
33F
100
AcDbEntity
  8
0
100
AcDbLine
 62
7
  6
CONTINUOUS
 10
229.4767826834
 20
377.2488736292
 11
229.6584063283
 21
376.8747709458
  0
LINE
  5
340
100
AcDbEntity
  8
0
100
AcDbLine
 62
7
  6
CONTINUOUS
 10
230.5424795691
 20
379.335739937
 11
230.724103214
 21
378.9616372535
  0
LINE
  5
341
100
AcDbEntity
  8
0
100
AcDbLine
 62
7
  6
CONTINUOUS
 10
189.3222165771
 20
377.6231479401
 11
189.6262130202
 21
377.413478352
  0
LINE
  5
342
100
AcDbEntity
  8
0
100
AcDbLine
 62
7
  6
CONTINUOUS
 10
190.172887078
 20
377.8303760906
 11
189.868890635
 21
378.0400456788
  0
LINE
  5
343
100
AcDbEntity
  8
0
100
AcDbLine
 62
7
  6
CONTINUOUS
 10
230.2306779995
 20
376.9510832476
 11
229.850298931
 21
377.4392667973
  0
LINE
  5
344
100
AcDbEntity
  8
0
100
AcDbLine
 62
7
  6
CONTINUOUS
 10
231.2141266776
 20
379.3550131112
 11
230.9331230463
 21
379.7861575333
  0
LINE
  5
345
100
AcDbEntity
  8
0
100
AcDbLine
 62
7
  6
CONTINUOUS
 10
237.3938174029
 20
374.0491547401
 11
237.5648946463
 21
373.7288570423
  0
LINE
  5
346
100
AcDbEntity
  8
0
100
AcDbLine
 62
7
  6
CONTINUOUS
 10
184.8142621618
 20
373.8674980906
 11
185.1471979013
 21
373.7077204581
  0
LINE
  5
347
100
AcDbEntity
  8
0
100
AcDbLine
 62
7
  6
CONTINUOUS
 10
185.6222896319
 20
374.2046551595
 11
185.2893538924
 21
374.364432792
  0
LINE
  5
348
100
AcDbEntity
  8
0
100
AcDbLine
 62
7
  6
CONTINUOUS
 10
232.0241480334
 20
372.5025266929
 11
234.0323378458
 21
370.6237841141
  0
LINE
  5
349
100
AcDbEntity
  8
0
100
AcDbLine
 62
7
  6
CONTINUOUS
 10
234.5956900996
 20
371.0582336804
 11
233.0058744415
 21
372.5455703607
  0
LINE
  5
34A
100
AcDbEntity
  8
0
100
AcDbLine
 62
7
  6
CONTINUOUS
 10
210.7476480156
 20
384.7630715239
 11
210.985216522
 21
384.5375630566
  0
LINE
  5
34B
100
AcDbEntity
  8
0
100
AcDbLine
 62
7
  6
CONTINUOUS
 10
226.7216806239
 20
376.1316855549
 11
227.060933309
 21
375.8020350798
  0
LINE
  5
34C
100
AcDbEntity
  8
0
100
AcDbLine
 62
7
  6
CONTINUOUS
 10
238.1282468441
 20
374.1633065487
 11
237.7898230033
 21
374.6401637391
  0
LINE
  5
34D
100
AcDbEntity
  8
0
100
AcDbLine
 62
7
  6
CONTINUOUS
 10
229.1752501531
 20
375.8028156171
 11
228.8599874728
 21
375.7139137227
  0
LINE
  5
34E
100
AcDbEntity
  8
0
100
AcDbLine
 62
7
  6
CONTINUOUS
 10
230.1998205789
 20
378.0482148661
 11
229.8845579393
 21
377.9593130428
  0
LINE
  5
34F
100
AcDbEntity
  8
0
100
AcDbLine
 62
7
  6
CONTINUOUS
 10
235.1051949862
 20
370.2610751788
 11
235.6760046735
 21
370.3680518882
  0
LINE
  5
350
100
AcDbEntity
  8
0
100
AcDbLine
 62
7
  6
CONTINUOUS
 10
236.784071329
 20
372.0556277728
 11
237.3548809883
 21
372.1626044522
  0
LINE
  5
351
100
AcDbEntity
  8
0
100
AcDbLine
 62
7
  6
CONTINUOUS
 10
189.868890635
 20
378.0400456788
 11
189.311708371
 21
378.2038003789
  0
LINE
  5
352
100
AcDbEntity
  8
0
100
AcDbLine
 62
7
  6
CONTINUOUS
 10
234.0323378458
 20
370.6237841141
 11
234.5306546601
 21
370.3178366821
  0
LINE
  5
353
100
AcDbEntity
  8
0
100
AcDbLine
 62
7
  6
CONTINUOUS
 10
211.3116249579
 20
385.0179016977
 11
210.8407632719
 21
385.3519754944
  0
LINE
  5
354
100
AcDbEntity
  8
0
100
AcDbLine
 62
7
  6
CONTINUOUS
 10
231.1612307195
 20
375.584228305
 11
232.4508688047
 21
374.6301895673
  0
LINE
  5
355
100
AcDbEntity
  8
0
100
AcDbLine
 62
7
  6
CONTINUOUS
 10
232.7988461365
 20
375.1005738423
 11
231.5092080513
 21
376.05461258
  0
LINE
  5
356
100
AcDbEntity
  8
0
100
AcDbLine
 62
7
  6
CONTINUOUS
 10
230.9331230463
 20
379.7861575333
 11
230.2957394953
 21
380.2869279935
  0
LINE
  5
357
100
AcDbEntity
  8
0
100
AcDbLine
 62
7
  6
CONTINUOUS
 10
228.9387745697
 20
377.6926049618
 11
229.4767826834
 21
377.2488736292
  0
LINE
  5
358
100
AcDbEntity
  8
0
100
AcDbLine
 62
7
  6
CONTINUOUS
 10
227.4515813761
 20
376.2524501362
 11
227.0129486996
 21
376.6391423411
  0
LINE
  5
359
100
AcDbEntity
  8
0
100
AcDbLine
 62
7
  6
CONTINUOUS
 10
230.1038468926
 20
379.7224321419
 11
230.5424795691
 21
379.335739937
  0
LINE
  5
35A
100
AcDbEntity
  8
0
100
AcDbLine
 62
7
  6
CONTINUOUS
 10
234.2050718572
 20
373.827393672
 11
235.7948875153
 21
372.3400569917
  0
LINE
  5
35B
100
AcDbEntity
  8
0
100
AcDbLine
 62
7
  6
CONTINUOUS
 10
236.2745664144
 20
372.8527862444
 11
234.6847507563
 21
374.3401229247
  0
LINE
  5
35C
100
AcDbEntity
  8
0
100
AcDbLine
 62
7
  6
CONTINUOUS
 10
235.8040017448
 20
375.5364914204
 11
237.3938174029
 21
374.0491547401
  0
LINE
  5
35D
100
AcDbEntity
  8
0
100
AcDbLine
 62
7
  6
CONTINUOUS
 10
237.7898230033
 20
374.6401637391
 11
235.7816331908
 21
376.5189063178
  0
LINE
  5
35E
100
AcDbEntity
  8
0
100
AcDbLine
 62
7
  6
CONTINUOUS
 10
228.8290797907
 20
380.7239730621
 11
228.1985545115
 21
380.5461694155
  0
LINE
  5
35F
100
AcDbEntity
  8
0
100
AcDbLine
 62
7
  6
CONTINUOUS
 10
202.5405595377
 20
378.839686412
 11
203.4294580821
 21
379.0635961099
  0
LINE
  5
360
100
AcDbEntity
  8
0
100
AcDbLine
 62
7
  6
CONTINUOUS
 10
184.7134695473
 20
374.4394321129
 11
184.1429879426
 21
374.3507423947
  0
LINE
  5
361
100
AcDbEntity
  8
0
100
AcDbLine
 62
7
  6
CONTINUOUS
 10
229.850298931
 20
377.4392667973
 11
230.4225660531
 21
377.5155817103
  0
LINE
  5
362
100
AcDbEntity
  8
0
100
AcDbLine
 62
7
  6
CONTINUOUS
 10
228.825728444
 20
375.1938674417
 11
229.2403665413
 21
375.2257301729
  0
LINE
  5
363
100
AcDbEntity
  8
0
100
AcDbLine
 62
7
  6
CONTINUOUS
 10
235.2539037596
 20
370.9231924682
 11
234.9266603094
 21
370.9088457335
  0
LINE
  5
364
100
AcDbEntity
  8
0
100
AcDbLine
 62
7
  6
CONTINUOUS
 10
236.9327800183
 20
372.7177449724
 11
236.6055366242
 21
372.7033982975
  0
LINE
  5
365
100
AcDbEntity
  8
0
100
AcDbLine
 62
7
  6
CONTINUOUS
 10
184.4867289362
 20
373.8635864469
 11
184.8142621618
 21
373.8674980906
  0
LINE
  5
366
100
AcDbEntity
  8
0
100
AcDbLine
 62
7
  6
CONTINUOUS
 10
228.3117103655
 20
375.219046458
 11
228.825728444
 21
375.1938674417
  0
LINE
  5
367
100
AcDbEntity
  8
0
100
AcDbLine
 62
7
  6
CONTINUOUS
 10
228.8599874728
 20
375.7139137227
 11
228.6029784412
 21
375.7265032441
  0
LINE
  5
368
100
AcDbEntity
  8
0
100
AcDbLine
 62
7
  6
CONTINUOUS
 10
234.5306546601
 20
370.3178366821
 11
235.1051949862
 21
370.2610751788
  0
LINE
  5
369
100
AcDbEntity
  8
0
100
AcDbLine
 62
7
  6
CONTINUOUS
 10
185.2893538924
 20
374.364432792
 11
184.7134695473
 21
374.4394321129
  0
LINE
  5
36A
100
AcDbEntity
  8
0
100
AcDbLine
 62
7
  6
CONTINUOUS
 10
188.9980694475
 20
377.6702839445
 11
189.3222165771
 21
377.6231479401
  0
LINE
  5
36B
100
AcDbEntity
  8
0
100
AcDbLine
 62
7
  6
CONTINUOUS
 10
227.8559504543
 20
375.3457142258
 11
228.3117103655
 21
375.219046458
  0
LINE
  5
36C
100
AcDbEntity
  8
0
100
AcDbLine
 62
7
  6
CONTINUOUS
 10
236.536774418
 20
372.1267359734
 11
236.784071329
 21
372.0556277728
  0
LINE
  5
36D
100
AcDbEntity
  8
0
100
AcDbLine
 62
7
  6
CONTINUOUS
 10
228.6029784412
 20
375.7265032441
 11
228.0478430978
 21
375.9102101484
  0
LINE
  5
36E
100
AcDbEntity
  8
0
100
AcDbLine
 62
7
  6
CONTINUOUS
 10
224.1835658686
 20
377.2188008933
 11
224.8141176825
 21
376.9448288874
  0
LINE
  5
36F
100
AcDbEntity
  8
0
100
AcDbLine
 62
7
  6
CONTINUOUS
 10
234.9266603094
 20
370.9088457335
 11
234.5956900996
 21
371.0582336804
  0
LINE
  5
370
100
AcDbEntity
  8
0
100
AcDbLine
 62
7
  6
CONTINUOUS
 10
236.6055366242
 20
372.7033982975
 11
236.2745664144
 21
372.8527862444
  0
LINE
  5
371
100
AcDbEntity
  8
0
100
AcDbLine
 62
7
  6
CONTINUOUS
 10
223.0008796799
 20
382.5894339895
 11
222.1508796799
 21
383.0520995158
  0
LINE
  5
372
100
AcDbEntity
  8
0
100
AcDbLine
 62
7
  6
CONTINUOUS
 10
227.060933309
 20
375.8020350798
 11
227.8559504543
 21
375.3457142258
  0
LINE
  5
373
100
AcDbEntity
  8
0
100
AcDbLine
 62
7
  6
CONTINUOUS
 10
228.0478430978
 20
375.9102101484
 11
227.4515813761
 21
376.2524501362
  0
LINE
  5
374
100
AcDbEntity
  8
0
100
AcDbLine
 62
7
  6
CONTINUOUS
 10
226.8073304959
 20
377.4317999963
 11
226.3104464859
 21
377.7169995509
  0
LINE
  5
375
100
AcDbEntity
  8
0
100
AcDbLine
 62
7
  6
CONTINUOUS
 10
228.5412682715
 20
377.9207640832
 11
228.9387745697
 21
377.6926049618
  0
LINE
  5
376
100
AcDbEntity
  8
0
100
AcDbLine
 62
7
  6
CONTINUOUS
 10
229.1717890016
 20
378.0985703409
 11
228.7742827035
 21
378.3267294624
  0
LINE
  5
377
100
AcDbEntity
  8
0
100
AcDbLine
 62
7
  6
CONTINUOUS
 10
227.8661646423
 20
380.197243164
 11
228.3630509268
 21
379.9120423038
  0
LINE
  5
378
100
AcDbEntity
  8
0
100
AcDbLine
 62
7
  6
CONTINUOUS
 10
229.7063405945
 20
379.9505912634
 11
230.1038468926
 21
379.7224321419
  0
LINE
  5
379
100
AcDbEntity
  8
0
100
AcDbLine
 62
7
  6
CONTINUOUS
 10
230.2957394953
 20
380.2869279935
 11
230.0969840717
 21
380.4010088597
  0
LINE
  5
37A
100
AcDbEntity
  8
0
100
AcDbLine
 62
7
  6
CONTINUOUS
 10
203.8637969737
 20
384.8448121789
 11
203.1971224296
 21
384.6768797453
  0
LINE
  5
37B
100
AcDbEntity
  8
0
100
AcDbLine
 62
7
  6
CONTINUOUS
 10
200.085974981
 20
383.8931951619
 11
199.4193004369
 21
383.7252627283
  0
LINE
  5
37C
100
AcDbEntity
  8
0
100
AcDbLine
 62
7
  6
CONTINUOUS
 10
210.3751791399
 20
382.4074550268
 11
210.94343403
 21
382.5453421586
  0
LINE
  5
37D
100
AcDbEntity
  8
0
100
AcDbLine
 62
7
  6
CONTINUOUS
 10
206.1290871151
 20
379.5846550351
 11
206.8099506993
 21
379.679949472
  0
LINE
  5
37E
100
AcDbEntity
  8
0
100
AcDbLine
 62
7
  6
CONTINUOUS
 10
206.0475952035
 20
385.1268581456
 11
205.3667316193
 21
385.0315637086
  0
LINE
  5
37F
100
AcDbEntity
  8
0
100
AcDbLine
 62
7
  6
CONTINUOUS
 10
228.7365626252
 20
380.102438083
 11
229.1512007021
 21
380.1343007787
  0
LINE
  5
380
100
AcDbEntity
  8
0
100
AcDbLine
 62
7
  6
CONTINUOUS
 10
207.71685424
 20
379.8511190328
 11
208.4038946937
 21
379.8762519788
  0
LINE
  5
381
100
AcDbEntity
  8
0
100
AcDbLine
 62
7
  6
CONTINUOUS
 10
208.3140577788
 20
382.3320561886
 11
210.3751791399
 21
382.4074550268
  0
LINE
  5
382
100
AcDbEntity
  8
0
100
AcDbLine
 62
7
  6
CONTINUOUS
 10
210.4640190693
 20
383.1133021351
 11
208.2883900923
 21
383.0337144406
  0
LINE
  5
383
100
AcDbEntity
  8
0
100
AcDbLine
 62
7
  6
CONTINUOUS
 10
208.224220864
 20
384.7878603984
 11
210.399849841
 21
384.8674480929
  0
LINE
  5
384
100
AcDbEntity
  8
0
100
AcDbLine
 62
7
  6
CONTINUOUS
 10
210.2639524863
 20
385.4479744466
 11
207.5157906715
 21
385.3474426624
  0
LINE
  5
385
100
AcDbEntity
  8
0
100
AcDbLine
 62
7
  6
CONTINUOUS
 10
189.311708371
 20
378.2038003789
 11
188.7343748991
 21
378.2050210977
  0
LINE
  5
386
100
AcDbEntity
  8
0
100
AcDbLine
 62
7
  6
CONTINUOUS
 10
229.3430933048
 20
380.6987966303
 11
228.8290797907
 21
380.7239730621
  0
LINE
  5
387
100
AcDbEntity
  8
0
100
AcDbLine
 62
7
  6
CONTINUOUS
 10
210.8407632719
 20
385.3519754944
 11
210.2639524863
 21
385.4479744466
  0
LINE
  5
388
100
AcDbEntity
  8
0
100
AcDbLine
 62
7
  6
CONTINUOUS
 10
214.9708796799
 20
380.1968911071
 11
216.3508796799
 21
379.9619948402
  0
LINE
  5
389
100
AcDbEntity
  8
0
100
AcDbLine
 62
7
  6
CONTINUOUS
 10
229.8845579393
 20
377.9593130428
 11
229.1717890016
 21
378.0985703409
  0
LINE
  5
38A
100
AcDbEntity
  8
0
100
AcDbLine
 62
7
  6
CONTINUOUS
 10
210.399849841
 20
384.8674480929
 11
210.7476480156
 21
384.7630715239
  0
LINE
  5
38B
100
AcDbEntity
  8
0
100
AcDbLine
 62
7
  6
CONTINUOUS
 10
229.1512007021
 20
380.1343007787
 11
229.7063405945
 21
379.9505912634
  0
LINE
  5
38C
100
AcDbEntity
  8
0
100
AcDbLine
 62
7
  6
CONTINUOUS
 10
230.0969840717
 20
380.4010088597
 11
229.3430933048
 21
380.6987966303
  0
LINE
  5
38D
100
AcDbEntity
  8
0
100
AcDbLine
 62
7
  6
CONTINUOUS
 10
227.0058937297
 20
381.9892433984
 11
226.3753419158
 21
382.2632154043
  0
LINE
  5
38E
100
AcDbEntity
  8
FASEN
100
AcDbLine
 62
7
  6
CONTINUOUS
 10
255.5408796798
 20
148.9706571528
 11
258.5408796798
 21
151.9706571528
  0
LINE
  5
38F
100
AcDbEntity
  8
FASEN
100
AcDbLine
 62
7
  6
CONTINUOUS
 10
418.1406705211
 20
148.9706571528
 11
329.141052433
 21
148.9706571528
  0
LINE
  5
390
100
AcDbEntity
  8
FASEN
100
AcDbLine
 62
7
  6
CONTINUOUS
 10
421.1408614771
 20
151.9706571528
 11
326.1408614771
 21
151.9706571528
  0
LINE
  5
391
100
AcDbEntity
  8
FASEN
100
AcDbLine
 62
7
  6
CONTINUOUS
 10
329.1408614771
 20
148.9706571528
 11
326.1408614771
 21
151.9706571528
  0
LINE
  5
392
100
AcDbEntity
  8
FASEN
100
AcDbLine
 62
7
  6
CONTINUOUS
 10
326.1408614771
 20
165.4706571528
 11
421.1408614771
 21
165.4706571528
  0
LINE
  5
393
100
AcDbEntity
  8
FASEN
100
AcDbLine
 62
7
  6
CONTINUOUS
 10
326.6410631571
 20
165.9706571528
 11
420.640659797
 21
165.9706571528
  0
LINE
  5
394
100
AcDbEntity
  8
RUNDUNGEN
100
AcDbLine
 62
7
  6
CONTINUOUS
 10
403.8205317867
 20
208.3456571528
 11
343.4611911674
 21
208.3456571528
  0
LINE
  5
395
100
AcDbEntity
  8
0
100
AcDbLine
 62
7
  6
CONTINUOUS
 10
326.1408614771
 20
165.4706571528
 11
326.1408614771
 21
151.9706571528
  0
LINE
  5
396
100
AcDbEntity
  8
0
100
AcDbLine
 62
7
  6
CONTINUOUS
 10
353.3476796683
 20
227.0156571528
 11
352.698744419
 21
227.4500814378
  0
LINE
  5
397
100
AcDbEntity
  8
0
100
AcDbLine
 62
7
  6
CONTINUOUS
 10
352.2430205398
 20
226.9156571528
 11
352.9521471329
 21
226.4248177055
  0
LINE
  5
398
100
AcDbEntity
  8
0
100
AcDbLine
 62
7
  6
CONTINUOUS
 10
347.5708614771
 20
236.1156571528
 11
348.4644783918
 21
235.3656571528
  0
LINE
  5
399
100
AcDbEntity
  8
0
100
AcDbLine
 62
7
  6
CONTINUOUS
 10
349.4857552234
 20
235.3656571528
 11
348.5921379511
 21
236.1156571528
  0
LINE
  5
39A
100
AcDbEntity
  8
0
100
AcDbLine
 62
7
  6
CONTINUOUS
 10
347.0556652331
 20
231.635455775
 11
347.779616075
 21
230.9836075091
  0
LINE
  5
39B
100
AcDbEntity
  8
0
100
AcDbLine
 62
7
  6
CONTINUOUS
 10
348.2681670425
 20
231.4856571528
 11
347.5240566576
 21
232.1556571528
  0
LINE
  5
39C
100
AcDbEntity
  8
0
100
AcDbLine
 62
7
  6
CONTINUOUS
 10
332.3908614771
 20
224.5418095755
 11
332.3908614771
 21
165.9706571528
  0
LINE
  5
39D
100
AcDbEntity
  8
0
100
AcDbLine
 62
7
  6
CONTINUOUS
 10
402.4194796818
 20
232.4656571528
 11
401.2108112255
 21
232.4656571528
  0
LINE
  5
39E
100
AcDbEntity
  8
0
100
AcDbLine
 62
7
  6
CONTINUOUS
 10
395.6682486413
 20
232.4656571528
 11
394.459580185
 21
232.4656571528
  0
LINE
  5
39F
100
AcDbEntity
  8
0
100
AcDbLine
 62
7
  6
CONTINUOUS
 10
348.4644783918
 20
235.3656571528
 11
349.4857552234
 21
235.3656571528
  0
LINE
  5
3A0
100
AcDbEntity
  8
0
100
AcDbLine
 62
7
  6
CONTINUOUS
 10
348.5921379511
 20
236.1156571528
 11
353.5708614771
 21
236.1156571528
  0
LINE
  5
3A1
100
AcDbEntity
  8
0
100
AcDbLine
 62
7
  6
CONTINUOUS
 10
353.5708614771
 20
236.8656571528
 11
347.5708614771
 21
236.8656571528
  0
LINE
  5
3A2
100
AcDbEntity
  8
0
100
AcDbLine
 62
7
  6
CONTINUOUS
 10
348.4644783918
 20
238.1156572124
 11
348.9751166288
 21
237.9906571528
  0
LINE
  5
3A3
100
AcDbEntity
  8
0
100
AcDbLine
 62
7
  6
CONTINUOUS
 10
352.5495849137
 20
242.2406573912
 11
352.1666061465
 21
242.3656569144
  0
LINE
  5
3A4
100
AcDbEntity
  8
0
100
AcDbLine
 62
7
  6
CONTINUOUS
 10
349.2304361049
 20
241.6156569144
 11
349.7410743419
 21
241.3656571528
  0
LINE
  5
3A5
100
AcDbEntity
  8
0
100
AcDbLine
 62
7
  6
CONTINUOUS
 10
352.1666061465
 20
241.7406571528
 11
352.421925265
 21
241.6156569144
  0
LINE
  5
3A6
100
AcDbEntity
  8
0
100
AcDbLine
 62
7
  6
CONTINUOUS
 10
348.9751166288
 20
238.615657272
 11
348.5921379511
 21
238.8656570336
  0
LINE
  5
3A7
100
AcDbEntity
  8
0
100
AcDbLine
 62
7
  6
CONTINUOUS
 10
350.1240530197
 20
241.8656573912
 11
349.7410743419
 21
242.1156571528
  0
LINE
  5
3A8
100
AcDbEntity
  8
0
100
AcDbLine
 62
7
  6
CONTINUOUS
 10
352.9325635914
 20
241.9906569144
 11
352.5495849137
 21
242.2406573912
  0
LINE
  5
3A9
100
AcDbEntity
  8
0
100
AcDbLine
 62
7
  6
CONTINUOUS
 10
347.9538401548
 20
238.615657272
 11
348.4644783918
 21
238.1156572124
  0
LINE
  5
3AA
100
AcDbEntity
  8
0
100
AcDbLine
 62
7
  6
CONTINUOUS
 10
349.7410743419
 20
241.3656571528
 11
349.9963934604
 21
241.1156570336
  0
LINE
  5
3AB
100
AcDbEntity
  8
0
100
AcDbLine
 62
7
  6
CONTINUOUS
 10
352.421925265
 20
241.6156569144
 11
352.6772444729
 21
241.3656571528
  0
LINE
  5
3AC
100
AcDbEntity
  8
FASEN
100
AcDbLine
 62
7
  6
CONTINUOUS
 10
420.6408614771
 20
165.9706571528
 11
421.1408614771
 21
165.4706571528
  0
LINE
  5
3AD
100
AcDbEntity
  8
0
100
AcDbLine
 62
7
  6
CONTINUOUS
 10
350.5070316974
 20
241.3656571528
 11
350.1240530197
 21
241.8656573912
  0
LINE
  5
3AE
100
AcDbEntity
  8
0
100
AcDbLine
 62
7
  6
CONTINUOUS
 10
348.5921379511
 20
238.8656570336
 11
348.3368188326
 21
239.2406570336
  0
LINE
  5
3AF
100
AcDbEntity
  8
0
100
AcDbLine
 62
7
  6
CONTINUOUS
 10
347.6985210363
 20
239.1156571528
 11
347.9538401548
 21
238.615657272
  0
LINE
  5
3B0
100
AcDbEntity
  8
RUNDUNGEN
100
AcDbLine
 62
7
  6
CONTINUOUS
 10
341.3908614771
 20
241.8719365944
 11
341.3908614771
 21
258.3422037181
  0
LINE
  5
3B1
100
AcDbEntity
  8
0
100
AcDbLine
 62
7
  6
CONTINUOUS
 10
347.5708614771
 20
240.2406571528
 11
347.5708614771
 21
239.9906570336
  0
LINE
  5
3B2
100
AcDbEntity
  8
0
100
AcDbLine
 62
7
  6
CONTINUOUS
 10
347.5708614771
 20
236.8656571528
 11
347.5708614771
 21
236.1156571528
  0
LINE
  5
3B3
100
AcDbEntity
  8
0
100
AcDbLine
 62
7
  6
CONTINUOUS
 10
348.2091592733
 20
239.8656571528
 11
348.2091592733
 21
240.3656570336
  0
LINE
  5
3B4
100
AcDbEntity
  8
0
100
AcDbLine
 62
7
  6
CONTINUOUS
 10
399.0395299334
 20
238.4656571528
 11
397.8308614771
 21
238.4656571528
  0
LINE
  5
3B5
100
AcDbEntity
  8
0
100
AcDbLine
 62
7
  6
CONTINUOUS
 10
402.4194796818
 20
239.2656571528
 11
401.2108112255
 21
239.2656571528
  0
LINE
  5
3B6
100
AcDbEntity
  8
0
100
AcDbLine
 62
7
  6
CONTINUOUS
 10
395.6682486413
 20
239.2656571528
 11
394.459580185
 21
239.2656571528
  0
LINE
  5
3B7
100
AcDbEntity
  8
0
100
AcDbLine
 62
7
  6
CONTINUOUS
 10
350.2517125789
 20
239.8656571528
 11
350.7623508159
 21
239.8656571528
  0
LINE
  5
3B8
100
AcDbEntity
  8
0
100
AcDbLine
 62
7
  6
CONTINUOUS
 10
348.9751166288
 20
241.6156569144
 11
349.2304361049
 21
241.6156569144
  0
LINE
  5
3B9
100
AcDbEntity
  8
0
100
AcDbLine
 62
7
  6
CONTINUOUS
 10
351.6559679095
 20
241.7406571528
 11
352.1666061465
 21
241.7406571528
  0
LINE
  5
3BA
100
AcDbEntity
  8
0
100
AcDbLine
 62
7
  6
CONTINUOUS
 10
349.2304361049
 20
242.2406573912
 11
348.9751166288
 21
242.2406573912
  0
LINE
  5
3BB
100
AcDbEntity
  8
0
100
AcDbLine
 62
7
  6
CONTINUOUS
 10
352.1666061465
 20
242.3656569144
 11
351.6559679095
 21
242.3656569144
  0
LINE
  5
3BC
100
AcDbEntity
  8
0
100
AcDbLine
 62
7
  6
CONTINUOUS
 10
349.7410743419
 20
242.1156571528
 11
349.2304361049
 21
242.2406573912
  0
LINE
  5
3BD
100
AcDbEntity
  8
0
100
AcDbLine
 62
7
  6
CONTINUOUS
 10
353.1878827546
 20
241.6156569144
 11
352.9325635914
 21
241.9906569144
  0
LINE
  5
3BE
100
AcDbEntity
  8
0
100
AcDbLine
 62
7
  6
CONTINUOUS
 10
352.6772444729
 20
241.3656571528
 11
352.8049040322
 21
241.1156570336
  0
LINE
  5
3BF
100
AcDbEntity
  8
0
100
AcDbLine
 62
7
  6
CONTINUOUS
 10
353.4432019066
 20
241.1156570336
 11
353.1878827546
 21
241.6156569144
  0
LINE
  5
3C0
100
AcDbEntity
  8
0
100
AcDbLine
 62
7
  6
CONTINUOUS
 10
349.9963934604
 20
241.1156570336
 11
350.2517125789
 21
240.3656570336
  0
LINE
  5
3C1
100
AcDbEntity
  8
0
100
AcDbLine
 62
7
  6
CONTINUOUS
 10
353.5708614771
 20
240.6156571528
 11
353.4432019066
 21
241.1156570336
  0
LINE
  5
3C2
100
AcDbEntity
  8
0
100
AcDbLine
 62
7
  6
CONTINUOUS
 10
348.3368188326
 20
239.2406570336
 11
348.2091592733
 21
239.8656571528
  0
LINE
  5
3C3
100
AcDbEntity
  8
0
100
AcDbLine
 62
7
  6
CONTINUOUS
 10
352.8049040322
 20
241.1156570336
 11
352.9325635914
 21
240.490657272
  0
LINE
  5
3C4
100
AcDbEntity
  8
0
100
AcDbLine
 62
7
  6
CONTINUOUS
 10
347.5708614771
 20
239.9906570336
 11
347.6985210363
 21
239.1156571528
  0
LINE
  5
3C5
100
AcDbEntity
  8
0
100
AcDbLine
 62
7
  6
CONTINUOUS
 10
348.9751166288
 20
237.9906571528
 11
348.9751166288
 21
238.615657272
  0
LINE
  5
3C6
100
AcDbEntity
  8
0
100
AcDbLine
 62
7
  6
CONTINUOUS
 10
350.2517125789
 20
240.3656570336
 11
350.2517125789
 21
239.8656571528
  0
LINE
  5
3C7
100
AcDbEntity
  8
0
100
AcDbLine
 62
7
  6
CONTINUOUS
 10
350.7623508159
 20
239.8656571528
 11
350.7623508159
 21
240.3656570336
  0
LINE
  5
3C8
100
AcDbEntity
  8
0
100
AcDbLine
 62
7
  6
CONTINUOUS
 10
352.1666061465
 20
238.4906570336
 11
352.1666061465
 21
237.8656570932
  0
LINE
  5
3C9
100
AcDbEntity
  8
0
100
AcDbLine
 62
7
  6
CONTINUOUS
 10
352.9325635914
 20
240.490657272
 11
352.9325635914
 21
239.740657272
  0
LINE
  5
3CA
100
AcDbEntity
  8
0
100
AcDbLine
 62
7
  6
CONTINUOUS
 10
353.5708614771
 20
236.1156571528
 11
353.5708614771
 21
236.8656571528
  0
LINE
  5
3CB
100
AcDbEntity
  8
0
100
AcDbLine
 62
7
  6
CONTINUOUS
 10
353.5708614771
 20
239.6156570336
 11
353.5708614771
 21
240.6156571528
  0
LINE
  5
3CC
100
AcDbEntity
  8
0
100
AcDbLine
 62
7
  6
CONTINUOUS
 10
347.6985210363
 20
241.1156570336
 11
347.5708614771
 21
240.2406571528
  0
LINE
  5
3CD
100
AcDbEntity
  8
0
100
AcDbLine
 62
7
  6
CONTINUOUS
 10
350.7623508159
 20
240.3656570336
 11
350.8900103752
 21
241.1156570336
  0
LINE
  5
3CE
100
AcDbEntity
  8
0
100
AcDbLine
 62
7
  6
CONTINUOUS
 10
348.2091592733
 20
240.3656570336
 11
348.3368188326
 21
240.9906571528
  0
LINE
  5
3CF
100
AcDbEntity
  8
RUNDUNGEN
100
AcDbLine
 62
7
  6
CONTINUOUS
 10
347.969324561
 20
267.274021435
 11
342.0927281477
 21
260.2705665472
  0
LINE
  5
3D0
100
AcDbEntity
  8
0
100
AcDbLine
 62
7
  6
CONTINUOUS
 10
351.6559679095
 20
242.3656569144
 11
351.1453294937
 21
242.2406573912
  0
LINE
  5
3D1
100
AcDbEntity
  8
0
100
AcDbLine
 62
7
  6
CONTINUOUS
 10
348.9751166288
 20
242.2406573912
 11
348.4644783918
 21
242.1156571528
  0
LINE
  5
3D2
100
AcDbEntity
  8
KONSTRUKTIONSELEMENTE
100
AcDbLine
 62
7
  6
CONTINUOUS
 10
363.1408614771
 20
382.4706571528
 11
363.1408614771
 21
341.8837397763
  0
LINE
  5
3D3
100
AcDbEntity
  8
KONSTRUKTIONSELEMENTE
100
AcDbLine
 62
7
  6
CONTINUOUS
 10
363.1408614771
 20
272.0575622506
 11
363.1408614771
 21
231.4706571528
  0
LINE
  5
3D4
100
AcDbEntity
  8
0
100
AcDbLine
 62
7
  6
CONTINUOUS
 10
352.9325635914
 20
239.740657272
 11
352.8049040322
 21
239.1156571528
  0
LINE
  5
3D5
100
AcDbEntity
  8
0
100
AcDbLine
 62
7
  6
CONTINUOUS
 10
353.4432019066
 20
239.1156571528
 11
353.5708614771
 21
239.6156570336
  0
LINE
  5
3D6
100
AcDbEntity
  8
KONSTRUKTIONSELEMENTE
100
AcDbLine
 62
7
  6
CONTINUOUS
 10
363.1407830601
 20
272.0421612663
 11
367.1408614771
 21
286.9706571528
  0
LINE
  5
3D7
100
AcDbEntity
  8
KONSTRUKTIONSELEMENTE
100
AcDbLine
 62
7
  6
CONTINUOUS
 10
384.1409402741
 20
341.8991544575
 11
380.1408614771
 21
326.9706571528
  0
LINE
  5
3D8
100
AcDbEntity
  8
0
100
AcDbLine
 62
7
  6
CONTINUOUS
 10
350.7623508159
 20
241.9906569144
 11
350.5070316974
 21
241.3656571528
  0
LINE
  5
3D9
100
AcDbEntity
  8
0
100
AcDbLine
 62
7
  6
CONTINUOUS
 10
347.9538401548
 20
241.6156569144
 11
347.6985210363
 21
241.1156570336
  0
LINE
  5
3DA
100
AcDbEntity
  8
RUNDUNGEN
100
AcDbLine
 62
7
  6
CONTINUOUS
 10
332.7927852657
 20
226.0418095755
 11
340.9219503903
 21
240.1219365944
  0
LINE
  5
3DB
100
AcDbEntity
  8
KONSTRUKTIONSELEMENTE
100
AcDbLine
 62
7
  6
CONTINUOUS
 10
367.1408614771
 20
326.9706571528
 11
367.1408614771
 21
286.9706571528
  0
LINE
  5
3DC
100
AcDbEntity
  8
0
100
AcDbLine
 62
7
  6
CONTINUOUS
 10
352.8049040322
 20
239.1156571528
 11
352.6772444729
 21
238.8656570336
  0
LINE
  5
3DD
100
AcDbEntity
  8
0
100
AcDbLine
 62
7
  6
CONTINUOUS
 10
353.1878827546
 20
238.615657272
 11
353.4432019066
 21
239.1156571528
  0
LINE
  5
3DE
100
AcDbEntity
  8
0
100
AcDbLine
 62
7
  6
CONTINUOUS
 10
348.3368188326
 20
240.9906571528
 11
348.5921379511
 21
241.3656571528
  0
LINE
  5
3DF
100
AcDbEntity
  8
0
100
AcDbLine
 62
7
  6
CONTINUOUS
 10
350.8900103752
 20
241.1156570336
 11
351.1453294937
 21
241.4906573912
  0
LINE
  5
3E0
100
AcDbEntity
  8
0
100
AcDbLine
 62
7
  6
CONTINUOUS
 10
350.265512071
 20
268.3456571528
 11
357.9963736299
 21
268.3456571528
  0
LINE
  5
3E1
100
AcDbEntity
  8
0
100
AcDbLine
 62
7
  6
CONTINUOUS
 10
389.1085697753
 20
268.3456571528
 11
397.0154242191
 21
268.3456571528
  0
LINE
  5
3E2
100
AcDbEntity
  8
KONSTRUKTIONSELEMENTE
100
AcDbLine
 62
7
  6
CONTINUOUS
 10
380.1408614771
 20
326.9706571528
 11
380.1408614771
 21
286.9706571528
  0
LINE
  5
3E3
100
AcDbEntity
  8
0
100
AcDbLine
 62
7
  6
CONTINUOUS
 10
380.6408614771
 20
323.9706571528
 11
380.6408614771
 21
314.9706571528
  0
LINE
  5
3E4
100
AcDbEntity
  8
0
100
AcDbLine
 62
7
  6
CONTINUOUS
 10
380.6408614771
 20
311.9706571528
 11
380.6408614771
 21
302.9706571528
  0
LINE
  5
3E5
100
AcDbEntity
  8
0
100
AcDbLine
 62
7
  6
CONTINUOUS
 10
380.6408614771
 20
299.9706571528
 11
380.6408614771
 21
290.9706571528
  0
LINE
  5
3E6
100
AcDbEntity
  8
0
100
AcDbLine
 62
7
  6
CONTINUOUS
 10
352.9521471329
 20
226.4248177055
 11
353.3476796683
 21
227.0156571528
  0
LINE
  5
3E7
100
AcDbEntity
  8
0
100
AcDbLine
 62
7
  6
CONTINUOUS
 10
352.9325635914
 20
238.2406570932
 11
353.1878827546
 21
238.615657272
  0
LINE
  5
3E8
100
AcDbEntity
  8
0
100
AcDbLine
 62
7
  6
CONTINUOUS
 10
347.5240566576
 20
232.1556571528
 11
347.0556652331
 21
231.635455775
  0
LINE
  5
3E9
100
AcDbEntity
  8
0
100
AcDbLine
 62
7
  6
CONTINUOUS
 10
348.4644783918
 20
242.1156571528
 11
347.9538401548
 21
241.6156569144
  0
LINE
  5
3EA
100
AcDbEntity
  8
0
100
AcDbLine
 62
7
  6
CONTINUOUS
 10
352.6772444729
 20
238.8656570336
 11
352.421925265
 21
238.615657272
  0
LINE
  5
3EB
100
AcDbEntity
  8
KONSTRUKTIONSELEMENTE
100
AcDbLine
 62
7
  6
CONTINUOUS
 10
367.1408614771
 20
326.9706571528
 11
363.1407819484
 21
341.899157188
  0
LINE
  5
3EC
100
AcDbEntity
  8
0
100
AcDbLine
 62
7
  6
CONTINUOUS
 10
384.1406515965
 20
379.8574489921
 11
384.1408613028
 21
379.7953967158
  0
LINE
  5
3ED
100
AcDbEntity
  8
KONSTRUKTIONSELEMENTE
100
AcDbLine
 62
7
  6
CONTINUOUS
 10
384.1408614771
 20
381.057604465
 11
384.1408614771
 21
380.4297032691
  0
LINE
  5
3EE
100
AcDbEntity
  8
KONSTRUKTIONSELEMENTE
100
AcDbLine
 62
7
  6
CONTINUOUS
 10
384.1408614771
 20
379.7954032511
 11
384.1408614771
 21
378.2050210977
  0
LINE
  5
3EF
100
AcDbEntity
  8
KONSTRUKTIONSELEMENTE
100
AcDbLine
 62
7
  6
CONTINUOUS
 10
384.1408614771
 20
369.9265242932
 11
384.1408614771
 21
341.8837460296
  0
LINE
  5
3F0
100
AcDbEntity
  8
KONSTRUKTIONSELEMENTE
100
AcDbLine
 62
7
  6
CONTINUOUS
 10
384.1408614771
 20
272.0575750164
 11
384.1408614771
 21
231.4706571528
  0
LINE
  5
3F1
100
AcDbEntity
  8
0
100
AcDbLine
 62
7
  6
CONTINUOUS
 10
384.6408614771
 20
385.4479744466
 11
384.6408614771
 21
368.2290240817
  0
LINE
  5
3F2
100
AcDbEntity
  8
0
100
AcDbLine
 62
7
  6
CONTINUOUS
 10
348.5921379511
 20
241.3656571528
 11
348.9751166288
 21
241.6156569144
  0
LINE
  5
3F3
100
AcDbEntity
  8
0
100
AcDbLine
 62
7
  6
CONTINUOUS
 10
351.1453294937
 20
242.2406573912
 11
350.7623508159
 21
241.9906569144
  0
LINE
  5
3F4
100
AcDbEntity
  8
0
100
AcDbLine
 62
7
  6
CONTINUOUS
 10
352.5495849137
 20
237.9906571528
 11
352.9325635914
 21
238.2406570932
  0
LINE
  5
3F5
100
AcDbEntity
  8
0
100
AcDbLine
 62
7
  6
CONTINUOUS
 10
351.1453294937
 20
241.4906573912
 11
351.6559679095
 21
241.7406571528
  0
LINE
  5
3F6
100
AcDbEntity
  8
RUNDUNGEN
100
AcDbLine
 62
7
  6
CONTINUOUS
 10
405.1889948064
 20
260.2705665472
 11
399.3123988408
 21
267.2740209015
  0
LINE
  5
3F7
100
AcDbEntity
  8
RUNDUNGEN
100
AcDbLine
 62
7
  6
CONTINUOUS
 10
406.3597725638
 20
240.1219365944
 11
414.4889376884
 21
226.0418095755
  0
LINE
  5
3F8
100
AcDbEntity
  8
KONSTRUKTIONSELEMENTE
100
AcDbLine
 62
7
  6
CONTINUOUS
 10
380.1408614771
 20
286.9706571528
 11
384.1409410046
 21
272.0421571217
  0
LINE
  5
3F9
100
AcDbEntity
  8
0
100
AcDbLine
 62
7
  6
CONTINUOUS
 10
402.4390168245
 20
232.0179925548
 11
402.4194796818
 21
232.4656571528
  0
LINE
  5
3FA
100
AcDbEntity
  8
0
100
AcDbLine
 62
7
  6
CONTINUOUS
 10
397.8308614771
 20
238.4656571528
 11
397.8308614771
 21
236.132614396
  0
LINE
  5
3FB
100
AcDbEntity
  8
0
100
AcDbLine
 62
7
  6
CONTINUOUS
 10
399.0395299334
 20
236.1306982866
 11
399.0395299334
 21
238.4656571528
  0
LINE
  5
3FC
100
AcDbEntity
  8
0
100
AcDbLine
 62
7
  6
CONTINUOUS
 10
352.421925265
 20
238.615657272
 11
352.1666061465
 21
238.4906570336
  0
LINE
  5
3FD
100
AcDbEntity
  8
0
100
AcDbLine
 62
7
  6
CONTINUOUS
 10
352.1666061465
 20
237.8656570932
 11
352.5495849137
 21
237.9906571528
  0
LINE
  5
3FE
100
AcDbEntity
  8
0
100
AcDbLine
 62
7
  6
CONTINUOUS
 10
380.1408614771
 20
290.9706571528
 11
380.6408614771
 21
290.9706571528
  0
LINE
  5
3FF
100
AcDbEntity
  8
0
100
AcDbLine
 62
7
  6
CONTINUOUS
 10
402.4390168245
 20
238.8179925548
 11
402.4194796818
 21
239.2656571528
  0
LINE
  5
400
100
AcDbEntity
  8
RUNDUNGEN
100
AcDbLine
 62
7
  6
CONTINUOUS
 10
405.8908614771
 20
258.3422037181
 11
405.8908614771
 21
241.8719365944
  0
LINE
  5
401
100
AcDbEntity
  8
0
100
AcDbLine
 62
7
  6
CONTINUOUS
 10
380.1408614771
 20
299.9706571528
 11
380.6408614771
 21
299.9706571528
  0
LINE
  5
402
100
AcDbEntity
  8
0
100
AcDbLine
 62
7
  6
CONTINUOUS
 10
380.1408614771
 20
302.9706571528
 11
380.6408614771
 21
302.9706571528
  0
LINE
  5
403
100
AcDbEntity
  8
0
100
AcDbLine
 62
7
  6
CONTINUOUS
 10
380.1408614771
 20
303.1621465084
 11
380.6408614771
 21
303.1621465084
  0
LINE
  5
404
100
AcDbEntity
  8
0
100
AcDbLine
 62
7
  6
CONTINUOUS
 10
380.1408614771
 20
303.5451252365
 11
380.6408614771
 21
303.5451252365
  0
LINE
  5
405
100
AcDbEntity
  8
0
100
AcDbLine
 62
7
  6
CONTINUOUS
 10
380.1408614771
 20
304.311082659
 11
380.6408614771
 21
304.311082659
  0
LINE
  5
406
100
AcDbEntity
  8
0
100
AcDbLine
 62
7
  6
CONTINUOUS
 10
380.1408614771
 20
305.0770401487
 11
380.6408614771
 21
305.0770401487
  0
LINE
  5
407
100
AcDbEntity
  8
0
100
AcDbLine
 62
7
  6
CONTINUOUS
 10
380.1408614771
 20
306.034486843
 11
380.6408614771
 21
306.034486843
  0
LINE
  5
408
100
AcDbEntity
  8
0
100
AcDbLine
 62
7
  6
CONTINUOUS
 10
414.8908614771
 20
224.5418095755
 11
414.8908614771
 21
165.9706571528
  0
LINE
  5
409
100
AcDbEntity
  8
FASEN
100
AcDbLine
 62
7
  6
CONTINUOUS
 10
326.6408614771
 20
165.9706571528
 11
326.1408614771
 21
165.4706571528
  0
LINE
  5
40A
100
AcDbEntity
  8
0
100
AcDbLine
 62
7
  6
CONTINUOUS
 10
380.1408614771
 20
311.9706571528
 11
380.6408614771
 21
311.9706571528
  0
LINE
  5
40B
100
AcDbEntity
  8
0
100
AcDbLine
 62
7
  6
CONTINUOUS
 10
380.1408614771
 20
314.9706571528
 11
380.6408614771
 21
314.9706571528
  0
LINE
  5
40C
100
AcDbEntity
  8
0
100
AcDbLine
 62
7
  6
CONTINUOUS
 10
421.1408614771
 20
165.4706571528
 11
421.1408614771
 21
151.9706571528
  0
LINE
  5
40D
100
AcDbEntity
  8
0
100
AcDbLine
 62
7
  6
CONTINUOUS
 10
380.1408614771
 20
323.9706571528
 11
380.6408614771
 21
323.9706571528
  0
LINE
  5
40E
100
AcDbEntity
  8
0
100
AcDbLine
 62
7
  6
CONTINUOUS
 10
384.1408614771
 20
368.2290240817
 11
384.6408614771
 21
368.2290240817
  0
LINE
  5
40F
100
AcDbEntity
  8
0
100
AcDbLine
 62
7
  6
CONTINUOUS
 10
383.6916559249
 20
372.0297579266
 11
384.6408614771
 21
372.0297579266
  0
LINE
  5
410
100
AcDbEntity
  8
0
100
AcDbLine
 62
7
  6
CONTINUOUS
 10
383.7075798121
 20
374.0174967324
 11
384.6408614771
 21
374.0174967324
  0
LINE
  5
411
100
AcDbEntity
  8
0
100
AcDbLine
 62
7
  6
CONTINUOUS
 10
383.7376430319
 20
374.3507423947
 11
384.6408614771
 21
374.3507423947
  0
LINE
  5
412
100
AcDbEntity
  8
0
100
AcDbLine
 62
7
  6
CONTINUOUS
 10
383.8269616461
 20
374.4394321129
 11
384.6408614771
 21
374.4394321129
  0
LINE
  5
413
100
AcDbEntity
  8
0
100
AcDbLine
 62
7
  6
CONTINUOUS
 10
383.6916559221
 20
376.2830663858
 11
384.6408614771
 21
376.2830663858
  0
LINE
  5
414
100
AcDbEntity
  8
0
100
AcDbLine
 62
7
  6
CONTINUOUS
 10
383.7075798129
 20
377.9506573404
 11
384.6408614771
 21
377.9506573404
  0
LINE
  5
415
100
AcDbEntity
  8
0
100
AcDbLine
 62
7
  6
CONTINUOUS
 10
383.7376430363
 20
378.2050210977
 11
384.6408614771
 21
378.2050210977
  0
LINE
  5
416
100
AcDbEntity
  8
0
100
AcDbLine
 62
7
  6
CONTINUOUS
 10
384.1408614771
 20
378.839686412
 11
384.6408614771
 21
378.839686412
  0
LINE
  5
417
100
AcDbEntity
  8
0
100
AcDbLine
 62
7
  6
CONTINUOUS
 10
384.1408614771
 20
379.3108380805
 11
384.6408614771
 21
379.3108380805
  0
LINE
  5
418
100
AcDbEntity
  8
0
100
AcDbLine
 62
7
  6
CONTINUOUS
 10
384.1406515965
 20
379.8574489921
 11
384.6408614771
 21
379.8574489921
  0
LINE
  5
419
100
AcDbEntity
  8
0
100
AcDbLine
 62
7
  6
CONTINUOUS
 10
384.1406840785
 20
380.4297032691
 11
384.6408614771
 21
380.4297032691
  0
LINE
  5
41A
100
AcDbEntity
  8
0
100
AcDbLine
 62
7
  6
CONTINUOUS
 10
383.6886772766
 20
383.7252627283
 11
384.6408614771
 21
383.7252627283
  0
LINE
  5
41B
100
AcDbEntity
  8
0
100
AcDbLine
 62
7
  6
CONTINUOUS
 10
383.6991556622
 20
383.8931951619
 11
384.6408614771
 21
383.8931951619
  0
LINE
  5
41C
100
AcDbEntity
  8
0
100
AcDbLine
 62
7
  6
CONTINUOUS
 10
383.6991556622
 20
384.6768797453
 11
384.6408614771
 21
384.6768797453
  0
LINE
  5
41D
100
AcDbEntity
  8
0
100
AcDbLine
 62
7
  6
CONTINUOUS
 10
383.6886772766
 20
384.8448121789
 11
384.6408614771
 21
384.8448121789
  0
LINE
  5
41E
100
AcDbEntity
  8
0
100
AcDbLine
 62
7
  6
CONTINUOUS
 10
383.7086540289
 20
385.0315637086
 11
384.6408614771
 21
385.0315637086
  0
LINE
  5
41F
100
AcDbEntity
  8
0
100
AcDbLine
 62
7
  6
CONTINUOUS
 10
383.7086540289
 20
385.1268581456
 11
384.6408614771
 21
385.1268581456
  0
LINE
  5
420
100
AcDbEntity
  8
0
100
AcDbLine
 62
7
  6
CONTINUOUS
 10
383.6916559167
 20
385.3474426624
 11
384.6408614771
 21
385.3474426624
  0
LINE
  5
421
100
AcDbEntity
  8
0
100
AcDbLine
 62
7
  6
CONTINUOUS
 10
383.7075798145
 20
385.4479744466
 11
384.6408614771
 21
385.4479744466
  0
LINE
  5
422
100
AcDbEntity
  8
FASEN
100
AcDbLine
 62
7
  6
CONTINUOUS
 10
418.1408614771
 20
148.9706571528
 11
421.1408614771
 21
151.9706571528
  0
LINE
  5
423
100
AcDbEntity
  8
RUNDUNGEN
100
AcDbLine
 62
7
  6
CONTINUOUS
 10
195.5408796799
 20
19.3473829917
 11
226.5408796799
 21
19.3473829917
  0
LINE
  5
424
100
AcDbEntity
  8
0
100
AcDbLine
 62
7
  6
CONTINUOUS
 10
181.7621265492
 20
41.5465885439
 11
181.7621265492
 21
40.5973829917
  0
LINE
  5
425
100
AcDbEntity
  8
0
100
AcDbLine
 62
7
  6
CONTINUOUS
 10
183.6624934716
 20
41.5306646566
 11
183.6624934716
 21
40.5973829917
  0
LINE
  5
426
100
AcDbEntity
  8
0
100
AcDbLine
 62
7
  6
CONTINUOUS
 10
192.5408796799
 20
22.7987145354
 11
192.0408796799
 21
22.7987145354
  0
LINE
  5
427
100
AcDbEntity
  8
0
100
AcDbLine
 62
7
  6
CONTINUOUS
 10
192.5408796799
 20
22.8187647869
 11
192.0408796799
 21
22.8187647869
  0
LINE
  5
428
100
AcDbEntity
  8
0
100
AcDbLine
 62
7
  6
CONTINUOUS
 10
192.5408796799
 20
24.0274332433
 11
192.0408796799
 21
24.0274332433
  0
LINE
  5
429
100
AcDbEntity
  8
0
100
AcDbLine
 62
7
  6
CONTINUOUS
 10
184.1429879426
 20
41.5006014369
 11
184.1429879426
 21
40.5973829917
  0
LINE
  5
42A
100
AcDbEntity
  8
0
100
AcDbLine
 62
7
  6
CONTINUOUS
 10
184.7134695473
 20
41.4112828227
 11
184.7134695473
 21
40.5973829917
  0
LINE
  5
42B
100
AcDbEntity
  8
0
100
AcDbLine
 62
7
  6
CONTINUOUS
 10
185.2893538924
 20
41.308983593
 11
185.2893538924
 21
40.5973829917
  0
LINE
  5
42C
100
AcDbEntity
  8
0
100
AcDbLine
 62
7
  6
CONTINUOUS
 10
185.6222896319
 20
41.2447721805
 11
185.6222896319
 21
40.5973829917
  0
LINE
  5
42D
100
AcDbEntity
  8
0
100
AcDbLine
 62
7
  6
CONTINUOUS
 10
185.9606283486
 20
41.1764090906
 11
185.9606283486
 21
40.5973829917
  0
LINE
  5
42E
100
AcDbEntity
  8
0
100
AcDbLine
 62
7
  6
CONTINUOUS
 10
186.0211558179
 20
41.5465885466
 11
186.0211558179
 21
40.5973829917
  0
LINE
  5
42F
100
AcDbEntity
  8
0
100
AcDbLine
 62
7
  6
CONTINUOUS
 10
188.2078520492
 20
41.5306646558
 11
188.2078520492
 21
40.5973829917
  0
LINE
  5
430
100
AcDbEntity
  8
0
100
AcDbLine
 62
7
  6
CONTINUOUS
 10
192.5408796799
 20
26.1987145354
 11
192.0408796799
 21
26.1987145354
  0
LINE
  5
431
100
AcDbEntity
  8
0
100
AcDbLine
 62
7
  6
CONTINUOUS
 10
192.5408796799
 20
27.4073829917
 11
192.0408796799
 21
27.4073829917
  0
LWPOLYLINE
  5
432
100
AcDbEntity
  8
RUNDUNGEN
100
AcDbPolyline
 62
7
  6
CONTINUOUS
 90
14
 70
0
 10
192.5408763963
 20
66.9344151119
 10
192.5410133517
 20
66.9046942435
 10
192.5478102483
 20
66.7283228547
 10
192.5642579309
 20
66.5569962666
 10
192.5894724725
 20
66.3915334909
 10
192.6225392517
 20
66.2324435552
 10
192.6625050944
 20
66.0801637624
 10
192.7085126473
 20
65.934700668
 10
192.759493563
 20
65.7966713581
 10
192.8145966644
 20
65.6659090075
 10
192.8726857249
 20
65.542888566
 10
192.933011252
 20
65.4271633249
 10
192.9945463924
 20
65.3188700007
 10
193.0602960155
 20
65.2117350173
  0
LINE
  5
433
100
AcDbEntity
  8
0
100
AcDbLine
 62
7
  6
CONTINUOUS
 10
188.7343748991
 20
41.5006014325
 11
188.7343748991
 21
40.5973829917
  0
LINE
  5
434
100
AcDbEntity
  8
0
100
AcDbLine
 62
7
  6
CONTINUOUS
 10
189.311708371
 20
41.4112828209
 11
189.311708371
 21
40.5973829917
  0
LINE
  5
435
100
AcDbEntity
  8
0
100
AcDbLine
 62
7
  6
CONTINUOUS
 10
189.868890635
 20
41.3089835912
 11
189.868890635
 21
40.5973829917
  0
LINE
  5
436
100
AcDbEntity
  8
0
100
AcDbLine
 62
7
  6
CONTINUOUS
 10
190.172887078
 20
41.2447721821
 11
190.172887078
 21
40.5973829917
  0
LINE
  5
437
100
AcDbEntity
  8
0
100
AcDbLine
 62
7
  6
CONTINUOUS
 10
190.4567325118
 20
41.1764090918
 11
190.4567325118
 21
40.5973829917
  0
LINE
  5
438
100
AcDbEntity
  8
0
100
AcDbLine
 62
7
  6
CONTINUOUS
 10
190.5785039213
 20
41.1385473077
 11
190.5785039213
 21
40.5973829917
  0
LINE
  5
439
100
AcDbEntity
  8
0
100
AcDbLine
 62
7
  6
CONTINUOUS
 10
190.5890121274
 20
41.1067725764
 11
190.5890121274
 21
40.5973829917
  0
LINE
  5
43A
100
AcDbEntity
  8
0
100
AcDbLine
 62
7
  6
CONTINUOUS
 10
192.0408796799
 20
22.7989735365
 11
192.0408796799
 21
24.0274332433
  0
LINE
  5
43B
100
AcDbEntity
  8
0
100
AcDbLine
 62
7
  6
CONTINUOUS
 10
192.0408796799
 20
24.0734625266
 11
192.0408796799
 21
30.7984555342
  0
LINE
  5
43C
100
AcDbEntity
  8
0
100
AcDbLine
 62
7
  6
CONTINUOUS
 10
192.0408796799
 20
71.6673829917
 11
192.0408796799
 21
78.1825792356
  0
LINE
  5
43D
100
AcDbEntity
  8
0
100
AcDbLine
 62
7
  6
CONTINUOUS
 10
192.5408796799
 20
80.8473829917
 11
192.5408796799
 21
67.2418708388
  0
LINE
  5
43E
100
AcDbEntity
  8
0
100
AcDbLine
 62
7
  6
CONTINUOUS
 10
192.5408796799
 20
36.1296746934
 11
192.5408796799
 21
22.3473829917
  0
LINE
  5
43F
100
AcDbEntity
  8
RUNDUNGEN
100
AcDbLine
 62
7
  6
CONTINUOUS
 10
192.5408796799
 20
16.6286440226
 11
192.5408796799
 21
38.4349363066
  0
LINE
  5
440
100
AcDbEntity
  8
RUNDUNGEN
100
AcDbLine
 62
7
  6
CONTINUOUS
 10
192.5408796799
 20
64.7598296331
 11
192.5408796799
 21
86.5661191765
  0
LINE
  5
441
100
AcDbEntity
  8
0
100
AcDbLine
 62
7
  6
CONTINUOUS
 10
192.5408796799
 20
29.5699958275
 11
192.0408796799
 21
29.5699958275
  0
LINE
  5
442
100
AcDbEntity
  8
0
100
AcDbLine
 62
7
  6
CONTINUOUS
 10
192.5408796799
 20
30.7786642838
 11
192.0408796799
 21
30.7786642838
  0
LINE
  5
443
100
AcDbEntity
  8
0
100
AcDbLine
 62
7
  6
CONTINUOUS
 10
192.5408796799
 20
30.7987145354
 11
192.0408796799
 21
30.7987145354
  0
LINE
  5
444
100
AcDbEntity
  8
0
100
AcDbLine
 62
7
  6
CONTINUOUS
 10
197.4973601453
 20
41.0975928722
 11
197.4973601453
 21
40.5973829917
  0
LINE
  5
445
100
AcDbEntity
  8
0
100
AcDbLine
 62
7
  6
CONTINUOUS
 10
249.0614333318
 20
35.5973829917
 11
249.332523677
 21
35.5973829917
  0
LINE
  5
446
100
AcDbEntity
  8
0
100
AcDbLine
 62
7
  6
CONTINUOUS
 10
198.9959852282
 20
41.0975603902
 11
198.9959852282
 21
40.5973829917
  0
LINE
  5
447
100
AcDbEntity
  8
0
100
AcDbLine
 62
7
  6
CONTINUOUS
 10
199.2047101692
 20
41.0973829917
 11
199.2047101692
 21
40.5973829917
  0
LINE
  5
448
100
AcDbEntity
  8
0
100
AcDbLine
 62
7
  6
CONTINUOUS
 10
199.4193004369
 20
41.5495671922
 11
199.4193004369
 21
40.5973829917
  0
LINE
  5
449
100
AcDbEntity
  8
0
100
AcDbLine
 62
7
  6
CONTINUOUS
 10
200.085974981
 20
41.5390888065
 11
200.085974981
 21
40.5973829917
  0
LWPOLYLINE
  5
44A
100
AcDbEntity
  8
RUNDUNGEN
100
AcDbPolyline
 62
7
  6
CONTINUOUS
 90
11
 70
0
 10
192.9507380787
 20
37.8292556916
 10
192.8833438303
 20
37.7089368053
 10
192.8189659459
 20
37.5823063192
 10
192.758069989
 20
37.4477149019
 10
192.7016617876
 20
37.3040752533
 10
192.6511797845
 20
37.1510142881
 10
192.608021161
 20
36.9876198113
 10
192.5740363306
 20
36.8141084236
 10
192.5510449381
 20
36.630284759
 10
192.5411116832
 20
36.4368045097
 10
192.5408738537
 20
36.404946441
  0
LINE
  5
44B
100
AcDbEntity
  8
0
100
AcDbLine
 62
7
  6
CONTINUOUS
 10
231.5092080513
 20
41.0975806924
 11
231.4708703764
 21
41.0973831667
  0
LINE
  5
44C
100
AcDbEntity
  8
0
100
AcDbLine
 62
7
  6
CONTINUOUS
 10
250.6554287749
 20
40.0973829917
 11
250.9156837546
 21
40.0973829917
  0
LINE
  5
44D
100
AcDbEntity
  8
0
100
AcDbLine
 62
7
  6
CONTINUOUS
 10
238.2231082502
 20
40.5973829917
 11
227.0129486996
 21
40.5973829917
  0
LINE
  5
44E
100
AcDbEntity
  8
0
100
AcDbLine
 62
7
  6
CONTINUOUS
 10
227.0058937297
 20
40.5973829917
 11
224.1835658686
 21
40.5973829917
  0
LINE
  5
44F
100
AcDbEntity
  8
0
100
AcDbLine
 62
7
  6
CONTINUOUS
 10
223.0008796799
 20
40.5973829917
 11
214.9708796799
 21
40.5973829917
  0
LINE
  5
450
100
AcDbEntity
  8
0
100
AcDbLine
 62
7
  6
CONTINUOUS
 10
211.8167102379
 20
40.5973829917
 11
207.5157906715
 21
40.5973829917
  0
LINE
  5
451
100
AcDbEntity
  8
0
100
AcDbLine
 62
7
  6
CONTINUOUS
 10
206.8099506993
 20
40.5973829917
 11
205.3667316193
 21
40.5973829917
  0
LINE
  5
452
100
AcDbEntity
  8
0
100
AcDbLine
 62
7
  6
CONTINUOUS
 10
203.8637969737
 20
40.5973829917
 11
199.4193004369
 21
40.5973829917
  0
LINE
  5
453
100
AcDbEntity
  8
0
100
AcDbLine
 62
7
  6
CONTINUOUS
 10
199.2047101692
 20
40.5973829917
 11
197.4973601453
 21
40.5973829917
  0
LINE
  5
454
100
AcDbEntity
  8
0
100
AcDbLine
 62
7
  6
CONTINUOUS
 10
190.5890121274
 20
40.5973829917
 11
181.7621265492
 21
40.5973829917
  0
LINE
  5
455
100
AcDbEntity
  8
0
100
AcDbLine
 62
7
  6
CONTINUOUS
 10
250.9156348205
 20
41.0348831705
 11
251.1742024619
 21
41.0348831705
  0
LINE
  5
456
100
AcDbEntity
  8
KONSTRUKTIONSELEMENTE
100
AcDbLine
 62
7
  6
CONTINUOUS
 10
248.4384154971
 20
41.0973829917
 11
238.2231082502
 21
41.0973829917
  0
LINE
  5
457
100
AcDbEntity
  8
KONSTRUKTIONSELEMENTE
100
AcDbLine
 62
7
  6
CONTINUOUS
 10
233.7023292365
 20
41.0973829917
 11
232.7988461365
 21
41.0973829917
  0
LINE
  5
458
100
AcDbEntity
  8
KONSTRUKTIONSELEMENTE
100
AcDbLine
 62
7
  6
CONTINUOUS
 10
231.4708690947
 20
41.0973829917
 11
231.3786185437
 21
41.0973829917
  0
LINE
  5
459
100
AcDbEntity
  8
KONSTRUKTIONSELEMENTE
100
AcDbLine
 62
7
  6
CONTINUOUS
 10
227.8661646423
 20
41.0973829917
 11
227.0058937297
 21
41.0973829917
  0
LINE
  5
45A
100
AcDbEntity
  8
KONSTRUKTIONSELEMENTE
100
AcDbLine
 62
7
  6
CONTINUOUS
 10
225.0452870609
 20
41.0973829917
 11
223.0008796799
 21
41.0973829917
  0
LINE
  5
45B
100
AcDbEntity
  8
KONSTRUKTIONSELEMENTE
100
AcDbLine
 62
7
  6
CONTINUOUS
 10
216.8364071429
 20
41.0973829917
 11
211.8167102379
 21
41.0973829917
  0
LINE
  5
45C
100
AcDbEntity
  8
KONSTRUKTIONSELEMENTE
100
AcDbLine
 62
7
  6
CONTINUOUS
 10
207.5157906715
 20
41.0973829917
 11
206.4609136044
 21
41.0973829917
  0
LINE
  5
45D
100
AcDbEntity
  8
KONSTRUKTIONSELEMENTE
100
AcDbLine
 62
7
  6
CONTINUOUS
 10
205.3667316193
 20
41.0973829917
 11
203.8637969737
 21
41.0973829917
  0
LINE
  5
45E
100
AcDbEntity
  8
KONSTRUKTIONSELEMENTE
100
AcDbLine
 62
7
  6
CONTINUOUS
 10
202.9584299202
 20
41.0973829917
 11
201.7830181391
 21
41.0973829917
  0
LINE
  5
45F
100
AcDbEntity
  8
KONSTRUKTIONSELEMENTE
100
AcDbLine
 62
7
  6
CONTINUOUS
 10
199.4193004369
 20
41.0973829917
 11
199.0177696414
 21
41.0973829917
  0
LINE
  5
460
100
AcDbEntity
  8
KONSTRUKTIONSELEMENTE
100
AcDbLine
 62
7
  6
CONTINUOUS
 10
197.4973601453
 20
41.0973829917
 11
190.5890121274
 21
41.0973829917
  0
LINE
  5
461
100
AcDbEntity
  8
KONSTRUKTIONSELEMENTE
100
AcDbLine
 62
7
  6
CONTINUOUS
 10
181.7621265492
 20
41.0973829917
 11
173.6432752177
 21
41.0973829917
  0
LINE
  5
462
100
AcDbEntity
  8
0
100
AcDbLine
 62
7
  6
CONTINUOUS
 10
199.0177666462
 20
41.0973832038
 11
198.9959852282
 21
41.0975603902
  0
LINE
  5
463
100
AcDbEntity
  8
0
100
AcDbLine
 62
7
  6
CONTINUOUS
 10
202.8135033463
 20
41.0973829917
 11
202.8135033463
 21
40.5973829917
  0
LINE
  5
464
100
AcDbEntity
  8
0
100
AcDbLine
 62
7
  6
CONTINUOUS
 10
203.1971224296
 20
41.5390888065
 11
203.1971224296
 21
40.5973829917
  0
LINE
  5
465
100
AcDbEntity
  8
0
100
AcDbLine
 62
7
  6
CONTINUOUS
 10
203.8637969737
 20
41.5495671922
 11
203.8637969737
 21
40.5973829917
  0
LINE
  5
466
100
AcDbEntity
  8
0
100
AcDbLine
 62
7
  6
CONTINUOUS
 10
205.3667316193
 20
41.5295904399
 11
205.3667316193
 21
40.5973829917
  0
LINE
  5
467
100
AcDbEntity
  8
0
100
AcDbLine
 62
7
  6
CONTINUOUS
 10
206.0475952035
 20
41.5295904399
 11
206.0475952035
 21
40.5973829917
  0
LINE
  5
468
100
AcDbEntity
  8
0
100
AcDbLine
 62
7
  6
CONTINUOUS
 10
206.8099506993
 20
41.0973829917
 11
206.8099506993
 21
40.5973829917
  0
LINE
  5
469
100
AcDbEntity
  8
RUNDUNGEN
100
AcDbLine
 62
7
  6
CONTINUOUS
 10
193.0205261596
 20
37.9441637203
 11
192.9507380787
 21
37.8292556916
  0
LINE
  5
46A
100
AcDbEntity
  8
RUNDUNGEN
100
AcDbLine
 62
7
  6
CONTINUOUS
 10
193.0335316582
 20
37.9646977052
 11
193.0205261596
 21
37.9441637203
  0
LINE
  5
46B
100
AcDbEntity
  8
RUNDUNGEN
100
AcDbLine
 62
7
  6
CONTINUOUS
 10
194.852900291
 20
40.2033433799
 11
194.8521275865
 21
40.2021333631
  0
LINE
  5
46C
100
AcDbEntity
  8
RUNDUNGEN
100
AcDbLine
 62
7
  6
CONTINUOUS
 10
194.8534896028
 20
40.2041328908
 11
194.7025314766
 21
39.9741558686
  0
LINE
  5
46D
100
AcDbEntity
  8
RUNDUNGEN
100
AcDbLine
 62
7
  6
CONTINUOUS
 10
193.1590909417
 20
38.147238906
 11
193.033397442
 21
37.9644823512
  0
LWPOLYLINE
  5
46E
100
AcDbEntity
  8
RUNDUNGEN
100
AcDbPolyline
 62
7
  6
CONTINUOUS
 90
6
 70
0
 10
194.7025314766
 20
39.9741558686
 10
194.4760243266
 20
39.6524348701
 10
194.2369177575
 20
39.3407990206
 10
193.985357953
 20
39.0412716937
 10
193.7214903852
 20
38.7556276249
 10
193.4216808856
 20
38.4577824565
  0
LINE
  5
46F
100
AcDbEntity
  8
RUNDUNGEN
100
AcDbLine
 62
7
  6
CONTINUOUS
 10
193.2851740026
 20
38.3064647904
 11
193.1590909417
 21
38.147238906
  0
LINE
  5
470
100
AcDbEntity
  8
RUNDUNGEN
100
AcDbLine
 62
7
  6
CONTINUOUS
 10
193.4216808856
 20
38.4577824565
 11
193.2851740026
 21
38.3064647904
  0
LINE
  5
471
100
AcDbEntity
  8
KONSTRUKTIONSELEMENTE
100
AcDbLine
 62
7
  6
CONTINUOUS
 10
259.7870909311
 20
45.0973829917
 11
258.8150856959
 21
45.0973829917
  0
LINE
  5
472
100
AcDbEntity
  8
KONSTRUKTIONSELEMENTE
100
AcDbLine
 62
7
  6
CONTINUOUS
 10
163.2666736639
 20
45.0973829917
 11
162.2946684286
 21
45.0973829917
  0
LWPOLYLINE
  5
473
100
AcDbEntity
  8
RUNDUNGEN
100
AcDbPolyline
 62
7
  6
CONTINUOUS
 90
4
 70
0
 10
193.0606155089
 20
65.2112281622
 10
193.1275197001
 20
65.110234132
 10
193.318614813
 20
64.8591987059
 10
193.5546085516
 20
64.6058328609
  0
LINE
  5
474
100
AcDbEntity
  8
RUNDUNGEN
100
AcDbLine
 62
7
  6
CONTINUOUS
 10
194.7125293392
 20
63.2057912057
 11
194.8529736348
 21
62.9914492239
  0
LINE
  5
475
100
AcDbEntity
  8
RUNDUNGEN
100
AcDbLine
 62
7
  6
CONTINUOUS
 10
194.8530476109
 20
62.9913302587
 11
194.8531354857
 21
62.991192564
  0
LINE
  5
476
100
AcDbEntity
  8
RUNDUNGEN
100
AcDbLine
 62
7
  6
CONTINUOUS
 10
193.0606155089
 20
65.2112281622
 11
193.0602936925
 21
65.2117335862
  0
LINE
  5
477
100
AcDbEntity
  8
0
100
AcDbLine
 62
7
  6
CONTINUOUS
 10
207.5157906715
 20
41.5465885521
 11
207.5157906715
 21
40.5973829917
  0
LINE
  5
478
100
AcDbEntity
  8
0
100
AcDbLine
 62
7
  6
CONTINUOUS
 10
210.2639524863
 20
41.5306646542
 11
210.2639524863
 21
40.5973829917
  0
LINE
  5
479
100
AcDbEntity
  8
0
100
AcDbLine
 62
7
  6
CONTINUOUS
 10
210.8407632719
 20
41.5006014237
 11
210.8407632719
 21
40.5973829917
  0
LINE
  5
47A
100
AcDbEntity
  8
0
100
AcDbLine
 62
7
  6
CONTINUOUS
 10
211.3116249579
 20
41.4112828173
 11
211.3116249579
 21
40.5973829917
  0
LWPOLYLINE
  5
47B
100
AcDbEntity
  8
RUNDUNGEN
100
AcDbPolyline
 62
7
  6
CONTINUOUS
 90
5
 70
0
 10
195.457459249
 20
40.8562145858
 10
195.286297136
 20
40.7151493457
 10
195.1283098868
 20
40.5594750416
 10
194.98473982
 20
40.3904164829
 10
194.8518871024
 20
40.2017560895
  0
LINE
  5
47C
100
AcDbEntity
  8
RUNDUNGEN
100
AcDbLine
 62
7
  6
CONTINUOUS
 10
226.4413083828
 20
62.2132049498
 11
226.6242984977
 21
62.3385504344
  0
LINE
  5
47D
100
AcDbEntity
  8
RUNDUNGEN
100
AcDbLine
 62
7
  6
CONTINUOUS
 10
195.6404493959
 20
40.9815600506
 11
195.457459249
 21
40.8562145858
  0
LINE
  5
47E
100
AcDbEntity
  8
RUNDUNGEN
100
AcDbLine
 62
7
  6
CONTINUOUS
 10
226.4405394828
 20
62.2127260989
 11
226.4412412069
 21
62.2131623802
  0
LINE
  5
47F
100
AcDbEntity
  8
RUNDUNGEN
100
AcDbLine
 62
7
  6
CONTINUOUS
 10
193.5548430607
 20
64.6056058946
 11
193.5547150772
 21
64.6057297539
  0
LWPOLYLINE
  5
480
100
AcDbEntity
  8
RUNDUNGEN
100
AcDbPolyline
 62
7
  6
CONTINUOUS
 90
6
 70
0
 10
193.5548323764
 20
64.6055924022
 10
193.7591503212
 20
64.4000706197
 10
194.0149681898
 20
64.1196709917
 10
194.2592725046
 20
63.8259720777
 10
194.4918486008
 20
63.5207236918
 10
194.7125293392
 20
63.2057912057
  0
LINE
  5
481
100
AcDbEntity
  8
0
100
AcDbLine
 62
7
  6
CONTINUOUS
 10
211.6722569757
 20
41.3089835877
 11
211.6722569757
 21
40.5973829917
  0
LINE
  5
482
100
AcDbEntity
  8
0
100
AcDbLine
 62
7
  6
CONTINUOUS
 10
211.7995984349
 20
41.2447721853
 11
211.7995984349
 21
40.5973829917
  0
LINE
  5
483
100
AcDbEntity
  8
0
100
AcDbLine
 62
7
  6
CONTINUOUS
 10
211.8167102379
 20
41.1764090941
 11
211.8167102379
 21
40.5973829917
  0
LINE
  5
484
100
AcDbEntity
  8
0
100
AcDbLine
 62
7
  6
CONTINUOUS
 10
214.9708796799
 20
41.0973829917
 11
214.9708796799
 21
40.5973829917
  0
LWPOLYLINE
  5
485
100
AcDbEntity
  8
RUNDUNGEN
100
AcDbPolyline
 62
7
  6
CONTINUOUS
 90
3
 70
0
 10
228.5269583157
 20
64.6056578059
 10
228.6445267109
 20
64.7252843867
 10
228.7783089772
 20
64.8774146398
  0
LWPOLYLINE
  5
486
100
AcDbEntity
  8
RUNDUNGEN
100
AcDbPolyline
 62
7
  6
CONTINUOUS
 90
5
 70
0
 10
226.6242984977
 20
62.3385504344
 10
226.7954605776
 20
62.4796156908
 10
226.9534477929
 20
62.635290008
 10
227.0970178255
 20
62.8043485767
 10
227.2298695639
 20
62.9930074961
  0
LINE
  5
487
100
AcDbEntity
  8
RUNDUNGEN
100
AcDbLine
 62
7
  6
CONTINUOUS
 10
195.6412179755
 20
40.9820387023
 11
195.6405163951
 21
40.9816025104
  0
LWPOLYLINE
  5
488
100
AcDbEntity
  8
RUNDUNGEN
100
AcDbPolyline
 62
7
  6
CONTINUOUS
 90
6
 70
0
 10
228.6488308198
 20
38.4694261802
 10
228.3551186169
 20
38.7609303155
 10
228.0913713978
 20
39.0469911624
 10
227.8398604341
 20
39.347023479
 10
227.6007891129
 20
39.6591694339
 10
227.3743203481
 20
39.9814202056
  0
LINE
  5
489
100
AcDbEntity
  8
0
100
AcDbLine
 62
7
  6
CONTINUOUS
 10
216.8058796799
 20
41.102833777
 11
216.8058796799
 21
40.5973829917
  0
LWPOLYLINE
  5
48A
100
AcDbEntity
  8
RUNDUNGEN
100
AcDbPolyline
 62
7
  6
CONTINUOUS
 90
13
 70
0
 10
229.0215003993
 20
65.2117925942
 10
229.0881386043
 20
65.3204367211
 10
229.1500473642
 20
65.4295471933
 10
229.2106844901
 20
65.5461318268
 10
229.2690121715
 20
65.6700522472
 10
229.3242809633
 20
65.8017736504
 10
229.375329616
 20
65.9407927701
 10
229.4213086264
 20
66.0872837623
 10
229.4611375423
 20
66.2406309818
 10
229.4939446269
 20
66.4008155616
 10
229.5187744043
 20
66.5673747036
 10
229.5347062194
 20
66.739791717
 10
229.5408856128
 20
66.9342381428
  0
LINE
  5
48B
100
AcDbEntity
  8
RUNDUNGEN
100
AcDbLine
 62
7
  6
CONTINUOUS
 10
229.0214980275
 20
65.2117940914
 11
229.0214223106
 21
65.2116751054
  0
LINE
  5
48C
100
AcDbEntity
  8
RUNDUNGEN
100
AcDbLine
 62
7
  6
CONTINUOUS
 10
227.2288540787
 20
62.9914166203
 11
227.2296295235
 21
62.9926309189
  0
LINE
  5
48D
100
AcDbEntity
  8
RUNDUNGEN
100
AcDbLine
 62
7
  6
CONTINUOUS
 10
227.2282642467
 20
62.9906262741
 11
227.3741026229
 21
63.2130138196
  0
LINE
  5
48E
100
AcDbEntity
  8
RUNDUNGEN
100
AcDbLine
 62
7
  6
CONTINUOUS
 10
228.902396717
 20
65.0371175859
 11
229.0214223106
 21
65.2116751054
  0
LWPOLYLINE
  5
48F
100
AcDbEntity
  8
RUNDUNGEN
100
AcDbPolyline
 62
7
  6
CONTINUOUS
 90
6
 70
0
 10
227.3741026229
 20
63.2130138196
 10
227.5948118031
 20
63.5274267935
 10
227.8274157211
 20
63.8321723356
 10
228.0717656426
 20
64.1253766452
 10
228.3277134386
 20
64.4053959573
 10
228.526927018
 20
64.6056022754
  0
LINE
  5
490
100
AcDbEntity
  8
RUNDUNGEN
100
AcDbLine
 62
7
  6
CONTINUOUS
 10
228.7783089772
 20
64.8774146398
 11
228.902396717
 21
65.0371175859
  0
LINE
  5
491
100
AcDbEntity
  8
KONSTRUKTIONSELEMENTE
100
AcDbLine
 62
7
  6
CONTINUOUS
 10
259.7870909311
 20
58.0973829917
 11
258.8150856959
 21
58.0973829917
  0
LINE
  5
492
100
AcDbEntity
  8
KONSTRUKTIONSELEMENTE
100
AcDbLine
 62
7
  6
CONTINUOUS
 10
163.2666736639
 20
58.0973829917
 11
162.2946684286
 21
58.0973829917
  0
LWPOLYLINE
  5
493
100
AcDbEntity
  8
RUNDUNGEN
100
AcDbPolyline
 62
7
  6
CONTINUOUS
 90
3
 70
0
 10
228.9179457507
 20
38.1535994913
 10
228.7888141737
 20
38.3156272655
 10
228.6488308198
 20
38.4694261802
  0
LINE
  5
494
100
AcDbEntity
  8
RUNDUNGEN
100
AcDbLine
 62
7
  6
CONTINUOUS
 10
227.3743203481
 20
39.9814202056
 11
227.2287880768
 21
40.20331712
  0
LWPOLYLINE
  5
495
100
AcDbEntity
  8
RUNDUNGEN
100
AcDbPolyline
 62
7
  6
CONTINUOUS
 90
3
 70
0
 10
229.0483554091
 20
37.9644995871
 10
229.0357858204
 20
37.9840672385
 10
228.9179457507
 20
38.1535994913
  0
LINE
  5
496
100
AcDbEntity
  8
RUNDUNGEN
100
AcDbLine
 62
7
  6
CONTINUOUS
 10
227.2287141092
 20
40.2034360707
 11
227.2286213559
 21
40.2035814098
  0
LWPOLYLINE
  5
497
100
AcDbEntity
  8
RUNDUNGEN
100
AcDbPolyline
 62
7
  6
CONTINUOUS
 90
3
 70
0
 10
229.1290887033
 20
37.8325575496
 10
229.0601014458
 20
37.9459609589
 10
229.048208859
 20
37.9647277788
  0
LINE
  5
498
100
AcDbEntity
  8
RUNDUNGEN
100
AcDbLine
 62
7
  6
CONTINUOUS
 10
229.1959429235
 20
37.7135488984
 11
229.1290887033
 21
37.8325575496
  0
LINE
  5
499
100
AcDbEntity
  8
0
100
AcDbLine
 62
7
  6
CONTINUOUS
 10
221.1608796799
 20
41.2186120703
 11
221.1608796799
 21
40.5973829917
  0
LINE
  5
49A
100
AcDbEntity
  8
0
100
AcDbLine
 62
7
  6
CONTINUOUS
 10
222.1508796799
 20
41.3419853441
 11
222.1508796799
 21
40.5973829917
  0
LINE
  5
49B
100
AcDbEntity
  8
0
100
AcDbLine
 62
7
  6
CONTINUOUS
 10
223.0008796799
 20
41.3040744796
 11
223.0008796799
 21
40.5973829917
  0
LINE
  5
49C
100
AcDbEntity
  8
0
100
AcDbLine
 62
7
  6
CONTINUOUS
 10
224.1835658686
 20
41.0973829917
 11
224.1835658686
 21
40.5973829917
  0
LINE
  5
49D
100
AcDbEntity
  8
0
100
AcDbLine
 62
7
  6
CONTINUOUS
 10
225.0452870609
 20
41.169806326
 11
225.0452870609
 21
40.5973829917
  0
LINE
  5
49E
100
AcDbEntity
  8
0
100
AcDbLine
 62
7
  6
CONTINUOUS
 10
225.4183554104
 20
41.3234564909
 11
225.4183554104
 21
40.5973829917
  0
LINE
  5
49F
100
AcDbEntity
  8
KONSTRUKTIONSELEMENTE
100
AcDbLine
 62
7
  6
CONTINUOUS
 10
248.4384878555
 20
62.0973829917
 11
173.6432740976
 21
62.0973829917
  0
LINE
  5
4A0
100
AcDbEntity
  8
0
100
AcDbLine
 62
7
  6
CONTINUOUS
 10
250.6915023106
 20
62.9723829917
 11
250.9515220576
 21
62.9723829917
  0
LINE
  5
4A1
100
AcDbEntity
  8
0
100
AcDbLine
 62
7
  6
CONTINUOUS
 10
250.4104723389
 20
63.9098837069
 11
250.6723359506
 21
63.9098837069
  0
LINE
  5
4A2
100
AcDbEntity
  8
0
100
AcDbLine
 62
7
  6
CONTINUOUS
 10
250.1680261865
 20
64.6598829917
 11
250.4315015809
 21
64.6598829917
  0
LINE
  5
4A3
100
AcDbEntity
  8
0
100
AcDbLine
 62
7
  6
CONTINUOUS
 10
249.909599282
 20
65.4098822764
 11
250.174814615
 21
65.4098822764
  0
LINE
  5
4A4
100
AcDbEntity
  8
0
100
AcDbLine
 62
7
  6
CONTINUOUS
 10
249.7742934689
 20
65.7848829917
 11
250.0404289561
 21
65.7848829917
  0
LINE
  5
4A5
100
AcDbEntity
  8
0
100
AcDbLine
 62
7
  6
CONTINUOUS
 10
249.7050995164
 20
65.9723822764
 11
249.9717080241
 21
65.9723822764
  0
LWPOLYLINE
  5
4A6
100
AcDbEntity
  8
RUNDUNGEN
100
AcDbPolyline
 62
7
  6
CONTINUOUS
 90
10
 70
0
 10
229.5408857753
 20
36.4047388939
 10
229.5404431286
 20
36.4495052225
 10
229.5296534211
 20
36.6419226808
 10
229.5059763724
 20
36.8247985778
 10
229.4714619695
 20
36.9973969383
 10
229.427932786
 20
37.1598511233
 10
229.3772328517
 20
37.3119500436
 10
229.3207711808
 20
37.4545823898
 10
229.2599901602
 20
37.5881142063
 10
229.1959429235
 20
37.7135488984
  0
LINE
  5
4A7
100
AcDbEntity
  8
0
100
AcDbLine
 62
7
  6
CONTINUOUS
 10
226.3753419158
 20
41.5291358751
 11
226.3753419158
 21
40.5973829917
  0
LINE
  5
4A8
100
AcDbEntity
  8
0
100
AcDbLine
 62
7
  6
CONTINUOUS
 10
227.0058937297
 20
41.5309555534
 11
227.0058937297
 21
40.5973829917
  0
LINE
  5
4A9
100
AcDbEntity
  8
0
100
AcDbLine
 62
7
  6
CONTINUOUS
 10
227.4515813761
 20
41.0973829917
 11
227.4515813761
 21
40.5973829917
  0
LINE
  5
4AA
100
AcDbEntity
  8
0
100
AcDbLine
 62
7
  6
CONTINUOUS
 10
227.8661646423
 20
41.2431873266
 11
227.8661646423
 21
40.5973829917
  0
LINE
  5
4AB
100
AcDbEntity
  8
0
100
AcDbLine
 62
7
  6
CONTINUOUS
 10
228.1985545115
 20
41.3316147339
 11
228.1985545115
 21
40.5973829917
  0
LINE
  5
4AC
100
AcDbEntity
  8
0
100
AcDbLine
 62
7
  6
CONTINUOUS
 10
228.8290797907
 20
41.4382606473
 11
228.8290797907
 21
40.5973829917
  0
LINE
  5
4AD
100
AcDbEntity
  8
0
100
AcDbLine
 62
7
  6
CONTINUOUS
 10
229.3430933048
 20
41.4983467552
 11
229.3430933048
 21
40.5973829917
  0
LINE
  5
4AE
100
AcDbEntity
  8
RUNDUNGEN
100
AcDbLine
 62
7
  6
CONTINUOUS
 10
229.5408796799
 20
16.6286469445
 11
229.5408796799
 21
38.4349129751
  0
LINE
  5
4AF
100
AcDbEntity
  8
RUNDUNGEN
100
AcDbLine
 62
7
  6
CONTINUOUS
 10
229.5408796799
 20
64.7598526804
 11
229.5408796799
 21
86.56612245
  0
LINE
  5
4B0
100
AcDbEntity
  8
0
100
AcDbLine
 62
7
  6
CONTINUOUS
 10
230.0969840717
 20
41.5291863726
 11
230.0969840717
 21
40.5973829917
  0
LINE
  5
4B1
100
AcDbEntity
  8
0
100
AcDbLine
 62
7
  6
CONTINUOUS
 10
249.5635999745
 20
66.3473837069
 11
249.8311810309
 21
66.3473837069
  0
LINE
  5
4B2
100
AcDbEntity
  8
0
100
AcDbLine
 62
7
  6
CONTINUOUS
 10
249.1914349339
 20
67.2848822764
 11
249.4616080201
 21
67.2848822764
  0
LINE
  5
4B3
100
AcDbEntity
  8
0
100
AcDbLine
 62
7
  6
CONTINUOUS
 10
248.2766152037
 20
69.3473829917
 11
248.5533775972
 21
69.3473829917
  0
LINE
  5
4B4
100
AcDbEntity
  8
0
100
AcDbLine
 62
7
  6
CONTINUOUS
 10
230.2957394953
 20
41.5291863703
 11
230.2957394953
 21
40.5973829917
  0
LINE
  5
4B5
100
AcDbEntity
  8
0
100
AcDbLine
 62
7
  6
CONTINUOUS
 10
230.9331230463
 20
41.4983467374
 11
230.9331230463
 21
40.5973829917
  0
LINE
  5
4B6
100
AcDbEntity
  8
0
100
AcDbLine
 62
7
  6
CONTINUOUS
 10
231.2141266776
 20
41.438260672
 11
231.2141266776
 21
40.5973829917
  0
LINE
  5
4B7
100
AcDbEntity
  8
0
100
AcDbLine
 62
7
  6
CONTINUOUS
 10
231.3786185437
 20
41.3316147065
 11
231.3786185437
 21
40.5973829917
  0
LINE
  5
4B8
100
AcDbEntity
  8
0
100
AcDbLine
 62
7
  6
CONTINUOUS
 10
231.5092080513
 20
41.0975806924
 11
231.5092080513
 21
40.5973829917
  0
LINE
  5
4B9
100
AcDbEntity
  8
0
100
AcDbLine
 62
7
  6
CONTINUOUS
 10
232.7988461365
 20
41.0975698356
 11
232.7988461365
 21
40.5973829917
  0
LINE
  5
4BA
100
AcDbEntity
  8
0
100
AcDbLine
 62
7
  6
CONTINUOUS
 10
192.5408796799
 20
71.6673829917
 11
192.0408796799
 21
71.6673829917
  0
LINE
  5
4BB
100
AcDbEntity
  8
0
100
AcDbLine
 62
7
  6
CONTINUOUS
 10
192.5408796799
 20
71.7950425621
 11
192.0408796799
 21
71.7950425621
  0
LINE
  5
4BC
100
AcDbEntity
  8
0
100
AcDbLine
 62
7
  6
CONTINUOUS
 10
192.5408796799
 20
72.0503617141
 11
192.0408796799
 21
72.0503617141
  0
LINE
  5
4BD
100
AcDbEntity
  8
0
100
AcDbLine
 62
7
  6
CONTINUOUS
 10
192.5408796799
 20
72.3056808773
 11
192.0408796799
 21
72.3056808773
  0
LINE
  5
4BE
100
AcDbEntity
  8
0
100
AcDbLine
 62
7
  6
CONTINUOUS
 10
192.5408796799
 20
72.6886595551
 11
192.0408796799
 21
72.6886595551
  0
LINE
  5
4BF
100
AcDbEntity
  8
0
100
AcDbLine
 62
7
  6
CONTINUOUS
 10
192.5408796799
 20
73.0716383222
 11
192.0408796799
 21
73.0716383222
  0
LINE
  5
4C0
100
AcDbEntity
  8
0
100
AcDbLine
 62
7
  6
CONTINUOUS
 10
192.5408796799
 20
73.5822765592
 11
192.0408796799
 21
73.5822765592
  0
LINE
  5
4C1
100
AcDbEntity
  8
0
100
AcDbLine
 62
7
  6
CONTINUOUS
 10
192.5408796799
 20
74.0929149751
 11
192.0408796799
 21
74.0929149751
  0
LINE
  5
4C2
100
AcDbEntity
  8
0
100
AcDbLine
 62
7
  6
CONTINUOUS
 10
192.5408796799
 20
74.4758936528
 11
192.0408796799
 21
74.4758936528
  0
LINE
  5
4C3
100
AcDbEntity
  8
0
100
AcDbLine
 62
7
  6
CONTINUOUS
 10
192.5408796799
 20
74.7312127713
 11
192.0408796799
 21
74.7312127713
  0
LINE
  5
4C4
100
AcDbEntity
  8
0
100
AcDbLine
 62
7
  6
CONTINUOUS
 10
192.5408796799
 20
75.1141914491
 11
192.0408796799
 21
75.1141914491
  0
LINE
  5
4C5
100
AcDbEntity
  8
0
100
AcDbLine
 62
7
  6
CONTINUOUS
 10
235.7816331908
 20
41.5465885303
 11
235.7816331908
 21
40.5973829917
  0
LINE
  5
4C6
100
AcDbEntity
  8
0
100
AcDbLine
 62
7
  6
CONTINUOUS
 10
237.7898230033
 20
41.5306646606
 11
237.7898230033
 21
40.5973829917
  0
LINE
  5
4C7
100
AcDbEntity
  8
0
100
AcDbLine
 62
7
  6
CONTINUOUS
 10
238.1282468441
 20
41.5006014119
 11
238.1282468441
 21
40.5973829917
  0
LINE
  5
4C8
100
AcDbEntity
  8
0
100
AcDbLine
 62
7
  6
CONTINUOUS
 10
238.2231082502
 20
41.4112828316
 11
238.2231082502
 21
40.5973829917
  0
LINE
  5
4C9
100
AcDbEntity
  8
0
100
AcDbLine
 62
7
  6
CONTINUOUS
 10
192.5408796799
 20
75.4971701268
 11
192.0408796799
 21
75.4971701268
  0
LINE
  5
4CA
100
AcDbEntity
  8
0
100
AcDbLine
 62
7
  6
CONTINUOUS
 10
192.5408796799
 20
76.0078083638
 11
192.0408796799
 21
76.0078083638
  0
LINE
  5
4CB
100
AcDbEntity
  8
0
100
AcDbLine
 62
7
  6
CONTINUOUS
 10
192.5408796799
 20
76.2631278399
 11
192.0408796799
 21
76.2631278399
  0
LINE
  5
4CC
100
AcDbEntity
  8
0
100
AcDbLine
 62
7
  6
CONTINUOUS
 10
192.5408796799
 20
76.7737660769
 11
192.0408796799
 21
76.7737660769
  0
LINE
  5
4CD
100
AcDbEntity
  8
0
100
AcDbLine
 62
7
  6
CONTINUOUS
 10
192.5408796799
 20
77.2844043139
 11
192.0408796799
 21
77.2844043139
  0
LINE
  5
4CE
100
AcDbEntity
  8
0
100
AcDbLine
 62
7
  6
CONTINUOUS
 10
192.5408796799
 20
77.5397234324
 11
192.0408796799
 21
77.5397234324
  0
LINE
  5
4CF
100
AcDbEntity
  8
0
100
AcDbLine
 62
7
  6
CONTINUOUS
 10
192.5408796799
 20
77.6673829917
 11
192.0408796799
 21
77.6673829917
  0
LINE
  5
4D0
100
AcDbEntity
  8
0
100
AcDbLine
 62
7
  6
CONTINUOUS
 10
192.5408796799
 20
77.7141878112
 11
192.0408796799
 21
77.7141878112
  0
LINE
  5
4D1
100
AcDbEntity
  8
0
100
AcDbLine
 62
7
  6
CONTINUOUS
 10
192.5408796799
 20
78.1825792356
 11
192.0408796799
 21
78.1825792356
  0
LINE
  5
4D2
100
AcDbEntity
  8
RUNDUNGEN
100
AcDbLine
 62
7
  6
CONTINUOUS
 10
195.5408796799
 20
83.8473829917
 11
226.5408796799
 21
83.8473829917
  0
ARC
  5
4D3
100
AcDbEntity
  8
RUNDUNGEN
100
AcDbCircle
 62
7
  6
CONTINUOUS
 10
187.5408796799
 20
213.3456571528
 40
5.0
100
AcDbArc
 50
270.0000182634
 51
0.0004155909
  0
ARC
  5
4D4
100
AcDbEntity
  8
RUNDUNGEN
100
AcDbCircle
 62
7
  6
CONTINUOUS
 10
172.7908796799
 20
205.3456571528
 40
3.0
100
AcDbArc
 50
90.0
 51
180.0
  0
ARC
  5
4D5
100
AcDbEntity
  8
KONSTRUKTIONSELEMENTE
100
AcDbCircle
 62
7
  6
CONTINUOUS
 10
53.5408796799
 20
306.9706571528
 40
208.5
100
AcDbArc
 50
345.7499673022
 51
14.2500326978
  0
ARC
  5
4D6
100
AcDbEntity
  8
KONSTRUKTIONSELEMENTE
100
AcDbCircle
 62
7
  6
CONTINUOUS
 10
53.5408796799
 20
306.9706571528
 40
206.2462112512
100
AcDbArc
 50
354.4351988057
 51
5.5648011943
  0
ARC
  5
4D7
100
AcDbEntity
  8
KONSTRUKTIONSELEMENTE
100
AcDbCircle
 62
7
  6
CONTINUOUS
 10
53.5408796799
 20
306.9706571528
 40
189.7537887488
100
AcDbArc
 50
353.9498022263
 51
6.0501977737
  0
ARC
  5
4D8
100
AcDbEntity
  8
KONSTRUKTIONSELEMENTE
100
AcDbCircle
 62
7
  6
CONTINUOUS
 10
53.5408796799
 20
306.9706571528
 40
187.5
100
AcDbArc
 50
345.7499673022
 51
14.2500326978
  0
ARC
  5
4D9
100
AcDbEntity
  8
KONSTRUKTIONSELEMENTE
100
AcDbCircle
 62
7
  6
CONTINUOUS
 10
211.0408796799
 20
266.9706571528
 40
46.0
100
AcDbArc
 50
194.2500326978
 51
246.2809701756
  0
ARC
  5
4DA
100
AcDbEntity
  8
KONSTRUKTIONSELEMENTE
100
AcDbCircle
 62
7
  6
CONTINUOUS
 10
211.0408796799
 20
266.9706571528
 40
46.0
100
AcDbArc
 50
293.7190298244
 51
345.7499673022
  0
ARC
  5
4DB
100
AcDbEntity
  8
KONSTRUKTIONSELEMENTE
100
AcDbCircle
 62
7
  6
CONTINUOUS
 10
211.0408796799
 20
266.9706571528
 40
25.0
100
AcDbArc
 50
194.2500326978
 51
222.2868523433
  0
ARC
  5
4DC
100
AcDbEntity
  8
KONSTRUKTIONSELEMENTE
100
AcDbCircle
 62
7
  6
CONTINUOUS
 10
211.0408796799
 20
266.9706571528
 40
25.0
100
AcDbArc
 50
317.6999233358
 51
345.7499673022
  0
ARC
  5
4DD
100
AcDbEntity
  8
RUNDUNGEN
100
AcDbCircle
 62
7
  6
CONTINUOUS
 10
211.0408796799
 20
249.8456571528
 40
18.5
100
AcDbArc
 50
0.0
 51
180.0
  0
ARC
  5
4DE
100
AcDbEntity
  8
RUNDUNGEN
100
AcDbCircle
 62
7
  6
CONTINUOUS
 10
234.5408796799
 20
213.3456571528
 40
5.0
100
AcDbArc
 50
179.9992111928
 51
269.9999906522
  0
ARC
  5
4DF
100
AcDbEntity
  8
RUNDUNGEN
100
AcDbCircle
 62
7
  6
CONTINUOUS
 10
249.2908796799
 20
205.3456571528
 40
3.0
100
AcDbArc
 50
0.0
 51
90.0
  0
ARC
  5
4E0
100
AcDbEntity
  8
KONSTRUKTIONSELEMENTE
100
AcDbCircle
 62
7
  6
CONTINUOUS
 10
368.5408796799
 20
306.9706571528
 40
208.5
100
AcDbArc
 50
165.7499673022
 51
194.2500326978
  0
ARC
  5
4E1
100
AcDbEntity
  8
KONSTRUKTIONSELEMENTE
100
AcDbCircle
 62
7
  6
CONTINUOUS
 10
368.5408796799
 20
306.9706571528
 40
206.2462112512
100
AcDbArc
 50
174.4351988057
 51
185.5648011943
  0
ARC
  5
4E2
100
AcDbEntity
  8
KONSTRUKTIONSELEMENTE
100
AcDbCircle
 62
7
  6
CONTINUOUS
 10
368.5408796799
 20
306.9706571528
 40
189.7537887488
100
AcDbArc
 50
173.9498022263
 51
186.0501977737
  0
ARC
  5
4E3
100
AcDbEntity
  8
KONSTRUKTIONSELEMENTE
100
AcDbCircle
 62
7
  6
CONTINUOUS
 10
368.5408796799
 20
306.9706571528
 40
187.5
100
AcDbArc
 50
165.7499673022
 51
194.2500326978
  0
ARC
  5
4E4
100
AcDbEntity
  8
KONSTRUKTIONSELEMENTE
100
AcDbCircle
 62
7
  6
CONTINUOUS
 10
211.0408796799
 20
346.9706571528
 40
46.0
100
AcDbArc
 50
14.2500326978
 51
165.7499673022
  0
ARC
  5
4E5
100
AcDbEntity
  8
KONSTRUKTIONSELEMENTE
100
AcDbCircle
 62
7
  6
CONTINUOUS
 10
211.0408796799
 20
346.9706571528
 40
25.0
100
AcDbArc
 50
14.2500326978
 51
165.7499673022
  0
ARC
  5
4E6
100
AcDbEntity
  8
0
100
AcDbCircle
 62
7
  6
CONTINUOUS
 10
219.0908796799
 20
381.6866838849
 40
2.285
100
AcDbArc
 50
218.1089220474
 51
6.1440493103
  0
ARC
  5
4E7
100
AcDbEntity
  8
0
100
AcDbCircle
 62
7
  6
CONTINUOUS
 10
219.0908796799
 20
381.6866838849
 40
2.285
100
AcDbArc
 50
25.0541325892
 51
199.88
  0
CIRCLE
  5
4E8
100
AcDbEntity
  8
0
100
AcDbCircle
 62
7
  6
CONTINUOUS
 10
219.0908796799
 20
381.6866838849
 40
1.56
  0
ARC
  5
4E9
100
AcDbEntity
  8
RUNDUNGEN
100
AcDbCircle
 62
7
  6
CONTINUOUS
 10
337.8908614771
 20
241.8719365944
 40
3.5
100
AcDbArc
 50
330.0
 51
360.0
  0
ARC
  5
4EA
100
AcDbEntity
  8
0
100
AcDbCircle
 62
7
  6
CONTINUOUS
 10
350.1808614771
 20
229.1356571528
 40
3.03
100
AcDbArc
 50
142.4188403032
 51
312.889025844
  0
ARC
  5
4EB
100
AcDbEntity
  8
0
100
AcDbCircle
 62
7
  6
CONTINUOUS
 10
350.1808614771
 20
229.1356571528
 40
3.03
100
AcDbArc
 50
326.2
 51
129.142574669
  0
ARC
  5
4EC
100
AcDbEntity
  8
RUNDUNGEN
100
AcDbCircle
 62
7
  6
CONTINUOUS
 10
350.2674565059
 20
265.345656956
 40
3.0
100
AcDbArc
 50
90.0000035158
 51
139.9999999996
  0
ARC
  5
4ED
100
AcDbEntity
  8
RUNDUNGEN
100
AcDbCircle
 62
7
  6
CONTINUOUS
 10
357.9963736299
 20
265.3456571528
 40
3.0
100
AcDbArc
 50
51.2605754021
 51
90.0
  0
ARC
  5
4EE
100
AcDbEntity
  8
RUNDUNGEN
100
AcDbCircle
 62
7
  6
CONTINUOUS
 10
344.3908614771
 20
258.3422037181
 40
3.0
100
AcDbArc
 50
140.0
 51
180.0
  0
ARC
  5
4EF
100
AcDbEntity
  8
RUNDUNGEN
100
AcDbCircle
 62
7
  6
CONTINUOUS
 10
335.3908638957
 20
224.5418137647
 40
3.0
100
AcDbArc
 50
150.0000923838
 51
180.0000800066
  0
CIRCLE
  5
4F0
100
AcDbEntity
  8
0
100
AcDbCircle
 62
7
  6
CONTINUOUS
 10
350.1808614771
 20
229.1356571528
 40
2.12
  0
ARC
  5
4F1
100
AcDbEntity
  8
0
100
AcDbCircle
 62
7
  6
CONTINUOUS
 10
316.8147258644
 20
373.5594459584
 40
66.8944221874
100
AcDbArc
 50
358.6896918235
 51
0.3923283943
  0
ARC
  5
4F2
100
AcDbEntity
  8
0
100
AcDbCircle
 62
7
  6
CONTINUOUS
 10
336.6224142767
 20
377.5664039091
 40
47.0867334212
100
AcDbArc
 50
358.4382240021
 51
0.4675700063
  0
ARC
  5
4F3
100
AcDbEntity
  8
0
100
AcDbCircle
 62
7
  6
CONTINUOUS
 10
353.1022725399
 20
376.9464840296
 40
30.7451427028
100
AcDbArc
 50
354.5333316337
 51
355.1568838945
  0
ARC
  5
4F4
100
AcDbEntity
  8
0
100
AcDbCircle
 62
7
  6
CONTINUOUS
 10
373.6408614771
 20
284.8456571528
 40
22.0
100
AcDbArc
 50
298.5219171727
 51
309.1486876423
  0
ARC
  5
4F5
100
AcDbEntity
  8
0
100
AcDbCircle
 62
7
  6
CONTINUOUS
 10
373.6408614771
 20
284.8456571528
 40
22.0
100
AcDbArc
 50
231.2605754021
 51
241.4755038334
  0
ARC
  5
4F6
100
AcDbEntity
  8
RUNDUNGEN
100
AcDbCircle
 62
7
  6
CONTINUOUS
 10
373.6408614771
 20
226.3456571528
 40
15.0
100
AcDbArc
 50
134.4271483936
 51
45.5699787499
  0
ARC
  5
4F7
100
AcDbEntity
  8
KONSTRUKTIONSELEMENTE
100
AcDbCircle
 62
7
  6
CONTINUOUS
 10
373.6408614771
 20
231.4706571528
 40
10.5
100
AcDbArc
 50
180.0
 51
360.0
  0
ARC
  5
4F8
100
AcDbEntity
  8
0
100
AcDbCircle
 62
7
  6
CONTINUOUS
 10
398.4395299334
 20
238.8656571528
 40
4.0
100
AcDbArc
 50
174.2608295227
 51
359.3171996582
  0
ARC
  5
4F9
100
AcDbEntity
  8
0
100
AcDbCircle
 62
7
  6
CONTINUOUS
 10
398.4395299334
 20
232.0656571528
 40
4.0
100
AcDbArc
 50
174.2608295227
 51
359.3171996582
  0
ARC
  5
4FA
100
AcDbEntity
  8
RUNDUNGEN
100
AcDbCircle
 62
7
  6
CONTINUOUS
 10
409.3908614771
 20
241.8719365944
 40
3.5
100
AcDbArc
 50
180.0
 51
210.0
  0
ARC
  5
4FB
100
AcDbEntity
  8
RUNDUNGEN
100
AcDbCircle
 62
7
  6
CONTINUOUS
 10
397.0142663448
 20
265.3456570792
 40
3.0
100
AcDbArc
 50
40.0000000001
 51
89.9999986847
  0
ARC
  5
4FC
100
AcDbEntity
  8
RUNDUNGEN
100
AcDbCircle
 62
7
  6
CONTINUOUS
 10
402.8908614771
 20
258.3422037181
 40
3.0
100
AcDbArc
 50
0.0
 51
40.0
  0
ARC
  5
4FD
100
AcDbEntity
  8
RUNDUNGEN
100
AcDbCircle
 62
7
  6
CONTINUOUS
 10
411.8908590816
 20
224.5418137246
 40
3.0
100
AcDbArc
 50
359.9999207584
 51
29.9999084996
  0
ARC
  5
4FE
100
AcDbEntity
  8
0
100
AcDbCircle
 62
7
  6
CONTINUOUS
 10
398.4395299334
 20
238.8656571528
 40
2.8
100
AcDbArc
 50
282.3736251162
 51
8.2132107017
  0
ARC
  5
4FF
100
AcDbEntity
  8
0
100
AcDbCircle
 62
7
  6
CONTINUOUS
 10
398.4395299334
 20
238.8656571528
 40
2.8
100
AcDbArc
 50
171.7867892983
 51
257.4447123387
  0
ARC
  5
500
100
AcDbEntity
  8
0
100
AcDbCircle
 62
7
  6
CONTINUOUS
 10
398.4395299334
 20
232.0656571528
 40
2.8
100
AcDbArc
 50
171.7867892983
 51
8.2132107017
  0
ARC
  5
501
100
AcDbEntity
  8
RUNDUNGEN
100
AcDbCircle
 62
7
  6
CONTINUOUS
 10
389.1085697753
 20
265.8456571528
 40
2.5
100
AcDbArc
 50
90.0
 51
129.1486876423
  0
ARC
  5
502
100
AcDbEntity
  8
0
100
AcDbCircle
 62
7
  6
CONTINUOUS
 10
365.7793230571
 20
380.1985544153
 40
18.0686311481
100
AcDbArc
 50
352.8533828429
 51
353.6655932583
  0
ARC
  5
503
100
AcDbEntity
  8
0
100
AcDbCircle
 62
7
  6
CONTINUOUS
 10
372.9090090846
 20
381.5651791193
 40
11.2299387344
100
AcDbArc
 50
11.9656386057
 51
12.172659013
  0
ARC
  5
504
100
AcDbEntity
  8
0
100
AcDbCircle
 62
7
  6
CONTINUOUS
 10
372.9489836381
 20
381.574183775
 40
11.188964243
100
AcDbArc
 50
12.1707477895
 51
16.0991058272
  0
ARC
  5
505
100
AcDbEntity
  8
0
100
AcDbCircle
 62
7
  6
CONTINUOUS
 10
373.6290139324
 20
382.308112559
 40
10.5116264765
100
AcDbArc
 50
15.6244952972
 51
16.8064671127
  0
ARC
  5
506
100
AcDbEntity
  8
KONSTRUKTIONSELEMENTE
100
AcDbCircle
 62
7
  6
CONTINUOUS
 10
373.6408614771
 20
382.4706571528
 40
10.5
100
AcDbArc
 50
16.4759724714
 51
180.0
  0
ARC
  5
507
100
AcDbEntity
  8
0
100
AcDbCircle
 62
7
  6
CONTINUOUS
 10
373.8220459774
 20
382.0752748581
 40
10.3191405907
100
AcDbArc
 50
15.6793278892
 51
16.647691769
  0
ARC
  5
508
100
AcDbEntity
  8
0
100
AcDbCircle
 62
7
  6
CONTINUOUS
 10
376.0305203944
 20
381.0550070923
 40
8.1103410529
100
AcDbArc
 50
0.0156494652
 51
19.2227050672
  0
ARC
  5
509
100
AcDbEntity
  8
0
100
AcDbCircle
 62
7
  6
CONTINUOUS
 10
376.2821269229
 20
384.298376696
 40
7.4266802731
100
AcDbArc
 50
2.921362684
 51
4.2194848227
  0
ARC
  5
50A
100
AcDbEntity
  8
0
100
AcDbCircle
 62
7
  6
CONTINUOUS
 10
376.2821269234
 20
384.2716982112
 40
7.4266802726
100
AcDbArc
 50
355.7805151772
 51
357.078637316
  0
ARC
  5
50B
100
AcDbEntity
  8
0
100
AcDbCircle
 62
7
  6
CONTINUOUS
 10
381.2118990592
 20
385.0792109271
 40
2.4972095699
100
AcDbArc
 50
358.9067196329
 51
1.0932803671
  0
ARC
  5
50C
100
AcDbEntity
  8
KONSTRUKTIONSELEMENTE
100
AcDbCircle
 62
7
  6
CONTINUOUS
 10
173.646523428
 20
51.1498353732
 40
10.9475337691
100
AcDbArc
 50
89.9885290635
 51
90.2378678426
  0
ARC
  5
50D
100
AcDbEntity
  8
0
100
AcDbCircle
 62
7
  6
CONTINUOUS
 10
176.0408796799
 20
51.5973829917
 40
22.0
100
AcDbArc
 50
320.8513123577
 51
328.6930277725
  0
ARC
  5
50E
100
AcDbEntity
  8
0
100
AcDbCircle
 62
7
  6
CONTINUOUS
 10
176.0408796799
 20
51.5973829917
 40
22.0
100
AcDbArc
 50
31.3069722275
 51
38.7394245979
  0
ARC
  5
50F
100
AcDbEntity
  8
RUNDUNGEN
100
AcDbCircle
 62
7
  6
CONTINUOUS
 10
176.0408796799
 20
51.5973829917
 40
22.0
100
AcDbArc
 50
320.8513123577
 51
328.6930277725
  0
ARC
  5
510
100
AcDbEntity
  8
RUNDUNGEN
100
AcDbCircle
 62
7
  6
CONTINUOUS
 10
176.0408796799
 20
51.5973829917
 40
22.0
100
AcDbArc
 50
31.3069722275
 51
38.7394245979
  0
ARC
  5
511
100
AcDbEntity
  8
KONSTRUKTIONSELEMENTE
100
AcDbCircle
 62
7
  6
CONTINUOUS
 10
173.6464904461
 20
52.0462468146
 40
10.9488497739
100
AcDbArc
 50
269.7626309712
 51
270.0119243001
  0
ARC
  5
512
100
AcDbEntity
  8
KONSTRUKTIONSELEMENTE
100
AcDbCircle
 62
7
  6
CONTINUOUS
 10
170.5408796799
 20
51.5973829917
 40
10.5
100
AcDbArc
 50
141.7533801217
 51
218.2466198783
  0
ARC
  5
513
100
AcDbEntity
  8
0
100
AcDbCircle
 62
7
  6
CONTINUOUS
 10
187.308525635
 20
50.8831349352
 40
9.7847548998
100
AcDbArc
 50
258.0909377637
 51
260.0765085735
  0
ARC
  5
514
100
AcDbEntity
  8
0
100
AcDbCircle
 62
7
  6
CONTINUOUS
 10
191.7246767705
 20
49.3431307929
 40
8.2456936299
100
AcDbArc
 50
256.9935199489
 51
259.1525958196
  0
ARC
  5
515
100
AcDbEntity
  8
0
100
AcDbCircle
 62
7
  6
CONTINUOUS
 10
186.9125825113
 20
46.7591914069
 40
5.6633625276
100
AcDbArc
 50
256.8305581808
 51
260.3232184121
  0
ARC
  5
516
100
AcDbEntity
  8
0
100
AcDbCircle
 62
7
  6
CONTINUOUS
 10
191.2747863092
 20
45.1953743549
 40
4.1013948168
100
AcDbArc
 50
254.4151870999
 51
257.4787183811
  0
ARC
  5
517
100
AcDbEntity
  8
0
100
AcDbCircle
 62
7
  6
CONTINUOUS
 10
191.2605497908
 20
45.1332089895
 40
4.0376215336
100
AcDbArc
 50
257.4846829343
 51
258.5167250801
  0
ARC
  5
518
100
AcDbEntity
  8
0
100
AcDbCircle
 62
7
  6
CONTINUOUS
 10
201.7835078818
 20
44.4712852646
 40
3.3739023095
100
AcDbArc
 50
258.2315000225
 51
269.9914972595
  0
ARC
  5
519
100
AcDbEntity
  8
RUNDUNGEN
100
AcDbCircle
 62
7
  6
CONTINUOUS
 10
195.5408796799
 20
22.3473829917
 40
3.0
100
AcDbArc
 50
180.0
 51
270.0
  0
ARC
  5
51A
100
AcDbEntity
  8
RUNDUNGEN
100
AcDbCircle
 62
7
  6
CONTINUOUS
 10
195.5408796799
 20
16.628646955
 40
3.0
100
AcDbArc
 50
180.0000449366
 51
246.0943170742
  0
ARC
  5
51B
100
AcDbEntity
  8
0
100
AcDbCircle
 62
7
  6
CONTINUOUS
 10
186.6148307516
 20
43.7683632143
 40
2.6732390397
100
AcDbArc
 50
255.8345504261
 51
256.7953750913
  0
ARC
  5
51C
100
AcDbEntity
  8
0
100
AcDbCircle
 62
7
  6
CONTINUOUS
 10
186.6111935971
 20
43.7529839436
 40
2.6574355567
100
AcDbArc
 50
256.7959768745
 51
257.171442464
  0
ARC
  5
51D
100
AcDbEntity
  8
RUNDUNGEN
100
AcDbCircle
 62
7
  6
CONTINUOUS
 10
195.0408796799
 20
36.1296746934
 40
2.5
100
AcDbArc
 50
140.8513123577
 51
180.0
  0
ARC
  5
51E
100
AcDbEntity
  8
RUNDUNGEN
100
AcDbCircle
 62
7
  6
CONTINUOUS
 10
196.9735715886
 20
38.8666168863
 40
2.4999999924
100
AcDbArc
 50
121.9275133047
 51
148.6930131171
  0
ARC
  5
51F
100
AcDbEntity
  8
0
100
AcDbCircle
 62
7
  6
CONTINUOUS
 10
190.9265735794
 20
42.4727641052
 40
1.3788716219
100
AcDbArc
 50
250.0778424181
 51
255.3785992112
  0
ARC
  5
520
100
AcDbEntity
  8
0
100
AcDbCircle
 62
7
  6
CONTINUOUS
 10
192.9879392799
 20
67.0840624366
 40
25.9346541696
100
AcDbArc
 50
260.5602230953
 51
261.8508902264
  0
ARC
  5
521
100
AcDbEntity
  8
0
100
AcDbCircle
 62
7
  6
CONTINUOUS
 10
188.3482900225
 20
66.4935322097
 40
25.3442528831
100
AcDbArc
 50
260.4488957061
 51
261.7543238301
  0
ARC
  5
522
100
AcDbEntity
  8
0
100
AcDbCircle
 62
7
  6
CONTINUOUS
 10
187.8044282532
 20
57.1394635663
 40
16.0290266462
100
AcDbArc
 50
258.8817170818
 51
260.9725587086
  0
ARC
  5
523
100
AcDbEntity
  8
0
100
AcDbCircle
 62
7
  6
CONTINUOUS
 10
192.3079698413
 20
56.1621773321
 40
15.0521251549
100
AcDbArc
 50
258.5180607851
 51
260.6745483026
  0
ARC
  5
524
100
AcDbEntity
  8
RUNDUNGEN
100
AcDbCircle
 62
7
  6
CONTINUOUS
 10
189.0408796799
 20
51.5973829917
 40
12.5
100
AcDbArc
 50
57.1479530229
 51
58.1251784539
  0
ARC
  5
525
100
AcDbEntity
  8
RUNDUNGEN
100
AcDbCircle
 62
7
  6
CONTINUOUS
 10
189.0408796799
 20
51.5973829917
 40
12.5
100
AcDbArc
 50
301.8722481371
 51
302.8556722675
  0
ARC
  5
526
100
AcDbEntity
  8
RUNDUNGEN
100
AcDbCircle
 62
7
  6
CONTINUOUS
 10
195.5408796799
 20
80.8473829917
 40
3.0
100
AcDbArc
 50
90.0
 51
180.0
  0
ARC
  5
527
100
AcDbEntity
  8
RUNDUNGEN
100
AcDbCircle
 62
7
  6
CONTINUOUS
 10
195.5408796799
 20
86.5661190283
 40
3.0
100
AcDbArc
 50
113.9053769945
 51
179.9999971712
  0
ARC
  5
528
100
AcDbEntity
  8
RUNDUNGEN
100
AcDbCircle
 62
7
  6
CONTINUOUS
 10
195.5408796799
 20
67.2418708388
 40
3.0
100
AcDbArc
 50
180.0
 51
218.7394245979
  0
ARC
  5
529
100
AcDbEntity
  8
RUNDUNGEN
100
AcDbCircle
 62
7
  6
CONTINUOUS
 10
196.9735719876
 20
64.3281485913
 40
2.5
100
AcDbArc
 50
211.3069722275
 51
238.0724728042
  0
ARC
  5
52A
100
AcDbEntity
  8
RUNDUNGEN
100
AcDbCircle
 62
7
  6
CONTINUOUS
 10
196.9604017939
 20
64.3363454767
 40
2.4999998446
100
AcDbArc
 50
212.5502064668
 51
238.1317268081
  0
ARC
  5
52B
100
AcDbEntity
  8
0
100
AcDbCircle
 62
7
  6
CONTINUOUS
 10
209.6306288398
 20
169.3792368317
 40
127.8501408159
100
AcDbArc
 50
269.052196367
 51
270.2838238596
  0
ARC
  5
52C
100
AcDbEntity
  8
0
100
AcDbCircle
 62
7
  6
CONTINUOUS
 10
205.7071634114
 20
168.974433785
 40
127.4452980265
100
AcDbArc
 50
269.8469513713
 51
270.1530486287
  0
ARC
  5
52D
100
AcDbEntity
  8
0
100
AcDbCircle
 62
7
  6
CONTINUOUS
 10
201.7012402298
 20
157.9261922189
 40
116.3967160373
100
AcDbArc
 50
270.7363618072
 51
271.064570446
  0
ARC
  5
52E
100
AcDbEntity
  8
0
100
AcDbCircle
 62
7
  6
CONTINUOUS
 10
201.5818571809
 20
157.9261922187
 40
116.3967160372
100
AcDbArc
 50
268.935429554
 51
269.2636381928
  0
ARC
  5
52F
100
AcDbEntity
  8
0
100
AcDbCircle
 62
7
  6
CONTINUOUS
 10
187.7039415926
 20
122.4812255572
 40
80.9521292864
100
AcDbArc
 50
268.8088828697
 51
270.3566568184
  0
ARC
  5
530
100
AcDbEntity
  8
0
100
AcDbCircle
 62
7
  6
CONTINUOUS
 10
192.8144390375
 20
117.5839949819
 40
76.1927142013
100
AcDbArc
 50
266.5338017046
 51
266.9303846716
  0
ARC
  5
531
100
AcDbEntity
  8
0
100
AcDbCircle
 62
7
  6
CONTINUOUS
 10
187.8689636224
 20
104.9069862911
 40
63.5157660353
100
AcDbArc
 50
266.2026827028
 51
266.6369717982
  0
ARC
  5
532
100
AcDbEntity
  8
0
100
AcDbCircle
 62
7
  6
CONTINUOUS
 10
183.224582363
 20
102.6735377356
 40
61.1444412395
100
AcDbArc
 50
268.629465975
 51
270.41035084
  0
ARC
  5
533
100
AcDbEntity
  8
0
100
AcDbCircle
 62
7
  6
CONTINUOUS
 10
213.3307332884
 20
47.8423656454
 40
6.7405952847
100
AcDbArc
 50
252.5697524311
 51
255.7565196065
  0
ARC
  5
534
100
AcDbEntity
  8
0
100
AcDbCircle
 62
7
  6
CONTINUOUS
 10
226.5703846312
 20
46.7828201097
 40
5.6891631378
100
AcDbArc
 50
283.1653970729
 51
286.629870571
  0
ARC
  5
535
100
AcDbEntity
  8
RUNDUNGEN
100
AcDbCircle
 62
7
  6
CONTINUOUS
 10
226.5408796799
 20
22.3473829917
 40
3.0
100
AcDbArc
 50
270.0
 51
360.0
  0
ARC
  5
536
100
AcDbEntity
  8
RUNDUNGEN
100
AcDbCircle
 62
7
  6
CONTINUOUS
 10
226.5408796799
 20
16.628646955
 40
3.0
100
AcDbArc
 50
293.9054283119
 51
359.9999997994
  0
ARC
  5
537
100
AcDbEntity
  8
RUNDUNGEN
100
AcDbCircle
 62
7
  6
CONTINUOUS
 10
227.0408796799
 20
36.1296746934
 40
2.5
100
AcDbArc
 50
0.0
 51
39.1486876423
  0
ARC
  5
538
100
AcDbEntity
  8
RUNDUNGEN
100
AcDbCircle
 62
7
  6
CONTINUOUS
 10
225.1081873722
 20
38.8666173921
 40
2.5
100
AcDbArc
 50
31.3069722275
 51
43.8382572042
  0
ARC
  5
539
100
AcDbEntity
  8
RUNDUNGEN
100
AcDbCircle
 62
7
  6
CONTINUOUS
 10
225.1213618728
 20
38.8584178721
 40
2.4999998081
100
AcDbArc
 50
32.5504964493
 51
44.1107364201
  0
ARC
  5
53A
100
AcDbEntity
  8
0
100
AcDbCircle
 62
7
  6
CONTINUOUS
 10
212.592893901
 20
42.9763786248
 40
1.9046728218
100
AcDbArc
 50
241.0951170537
 51
245.386211085
  0
ARC
  5
53B
100
AcDbEntity
  8
0
100
AcDbCircle
 62
7
  6
CONTINUOUS
 10
224.5115822967
 20
42.9710198199
 40
1.8786193936
100
AcDbArc
 50
286.5047086961
 51
288.5047686586
  0
ARC
  5
53C
100
AcDbEntity
  8
FASEN
100
AcDbCircle
 62
7
  6
CONTINUOUS
 10
211.0408796799
 20
51.5973829917
 40
47.5
100
AcDbArc
 50
188.6835812087
 51
351.3163894399
  0
ARC
  5
53D
100
AcDbEntity
  8
FASEN
100
AcDbCircle
 62
7
  6
CONTINUOUS
 10
211.0408796799
 20
51.5973829917
 40
47.5
100
AcDbArc
 50
8.6836475146
 51
171.3164188655
  0
ARC
  5
53E
100
AcDbEntity
  8
FASEN
100
AcDbCircle
 62
7
  6
CONTINUOUS
 10
211.0408796799
 20
51.5973829917
 40
47.0
100
AcDbArc
 50
9.2645550501
 51
170.7354102901
  0
ARC
  5
53F
100
AcDbEntity
  8
FASEN
100
AcDbCircle
 62
7
  6
CONTINUOUS
 10
211.0408796799
 20
51.5973829917
 40
47.0
100
AcDbArc
 50
189.2645896825
 51
350.7354250469
  0
ARC
  5
540
100
AcDbEntity
  8
0
100
AcDbCircle
 62
7
  6
CONTINUOUS
 10
211.0408796799
 20
51.5973829917
 40
41.5
100
AcDbArc
 50
337.3225971215
 51
345.8060713446
  0
ARC
  5
541
100
AcDbEntity
  8
0
100
AcDbCircle
 62
7
  6
CONTINUOUS
 10
211.0408796799
 20
51.5973829917
 40
41.5
100
AcDbArc
 50
14.1948857184
 51
25.3223719953
  0
ARC
  5
542
100
AcDbEntity
  8
RUNDUNGEN
100
AcDbCircle
 62
7
  6
CONTINUOUS
 10
211.0408796799
 20
51.5973829917
 40
41.25
100
AcDbArc
 50
14.3724048479
 51
165.6274877125
  0
ARC
  5
543
100
AcDbEntity
  8
RUNDUNGEN
100
AcDbCircle
 62
7
  6
CONTINUOUS
 10
211.0408796799
 20
51.5973829917
 40
41.25
100
AcDbArc
 50
194.3725109607
 51
345.6274152488
  0
ARC
  5
544
100
AcDbEntity
  8
0
100
AcDbCircle
 62
7
  6
CONTINUOUS
 10
214.3480320075
 20
58.7041188376
 40
17.5573900508
100
AcDbArc
 50
258.4770601749
 51
260.0410928555
  0
ARC
  5
545
100
AcDbEntity
  8
0
100
AcDbCircle
 62
7
  6
CONTINUOUS
 10
219.0421206841
 20
62.2542205767
 40
21.1420425909
100
AcDbArc
 50
275.7515763149
 51
278.4555195331
  0
ARC
  5
546
100
AcDbEntity
  8
0
100
AcDbCircle
 62
7
  6
CONTINUOUS
 10
225.4009602499
 20
59.7891587552
 40
18.6683546397
100
AcDbArc
 50
278.618672623
 51
280.5814236841
  0
ARC
  5
547
100
AcDbEntity
  8
0
100
AcDbCircle
 62
7
  6
CONTINUOUS
 10
223.0487567312
 20
54.6779186333
 40
13.5630622284
100
AcDbArc
 50
280.0617655172
 51
284.1976724088
  0
ARC
  5
548
100
AcDbEntity
  8
RUNDUNGEN
100
AcDbCircle
 62
7
  6
CONTINUOUS
 10
226.5408796799
 20
67.2418708388
 40
3.0
100
AcDbArc
 50
321.2605754021
 51
360.0
  0
ARC
  5
549
100
AcDbEntity
  8
RUNDUNGEN
100
AcDbCircle
 62
7
  6
CONTINUOUS
 10
225.1081878177
 20
64.328149158
 40
2.4999999916
100
AcDbArc
 50
301.9275116606
 51
328.6930113691
  0
ARC
  5
54A
100
AcDbEntity
  8
0
100
AcDbCircle
 62
7
  6
CONTINUOUS
 10
224.4039506169
 20
81.5221735116
 40
40.3274328307
100
AcDbArc
 50
276.299751448
 51
277.0350212469
  0
ARC
  5
54B
100
AcDbEntity
  8
RUNDUNGEN
100
AcDbCircle
 62
7
  6
CONTINUOUS
 10
226.5408796799
 20
86.5661190283
 40
3.0
100
AcDbArc
 50
0.0000517236
 51
66.0943149491
  0
ARC
  5
54C
100
AcDbEntity
  8
RUNDUNGEN
100
AcDbCircle
 62
7
  6
CONTINUOUS
 10
226.5408796799
 20
80.8473829917
 40
3.0
100
AcDbArc
 50
0.0
 51
90.0
  0
ARC
  5
54D
100
AcDbEntity
  8
KONSTRUKTIONSELEMENTE
100
AcDbCircle
 62
7
  6
CONTINUOUS
 10
248.4346994998
 20
50.9868391102
 40
11.110529761
100
AcDbArc
 50
88.9184943536
 51
90.0088164206
  0
ARC
  5
54E
100
AcDbEntity
  8
0
100
AcDbCircle
 62
7
  6
CONTINUOUS
 10
239.361089999
 20
42.7149174839
 40
1.7304524747
100
AcDbArc
 50
224.5662303591
 51
228.8813179478
  0
ARC
  5
54F
100
AcDbEntity
  8
0
100
AcDbCircle
 62
7
  6
CONTINUOUS
 10
240.7636585448
 20
73.0874538157
 40
31.6966029664
100
AcDbArc
 50
264.6164831542
 51
265.2306407045
  0
ARC
  5
550
100
AcDbEntity
  8
RUNDUNGEN
100
AcDbCircle
 62
7
  6
CONTINUOUS
 10
246.0408796799
 20
51.5973829917
 40
22.0
100
AcDbArc
 50
211.3069722275
 51
219.1486876423
  0
ARC
  5
551
100
AcDbEntity
  8
RUNDUNGEN
100
AcDbCircle
 62
7
  6
CONTINUOUS
 10
246.0408796799
 20
51.5973829917
 40
22.0
100
AcDbArc
 50
141.2605754021
 51
148.6930277725
  0
ARC
  5
552
100
AcDbEntity
  8
0
100
AcDbCircle
 62
7
  6
CONTINUOUS
 10
233.7143624741
 20
53.8182030275
 40
12.6298912016
100
AcDbArc
 50
257.2785808415
 51
258.5822050336
  0
ARC
  5
553
100
AcDbEntity
  8
RUNDUNGEN
100
AcDbCircle
 62
7
  6
CONTINUOUS
 10
233.0408796799
 20
51.5973829917
 40
12.5
100
AcDbArc
 50
121.8722583998
 51
122.8410273286
  0
ARC
  5
554
100
AcDbEntity
  8
KONSTRUKTIONSELEMENTE
100
AcDbCircle
 62
7
  6
CONTINUOUS
 10
248.4352533424
 20
52.0505975687
 40
10.95320062
100
AcDbArc
 50
269.9887648585
 51
270.259506113
  0
ARC
  5
555
100
AcDbEntity
  8
KONSTRUKTIONSELEMENTE
100
AcDbCircle
 62
7
  6
CONTINUOUS
 10
251.5408796799
 20
51.5973829917
 40
10.5
100
AcDbArc
 50
321.7533801217
 51
38.2466198783
  0
ARC
  5
556
100
AcDbEntity
  8
0
100
AcDbCircle
 62
7
  6
CONTINUOUS
 10
226.3756661541
 20
150.6665641229
 40
109.1374282482
100
AcDbArc
 50
269.999829779
 51
270.330863403
  0
ARC
  5
557
100
AcDbEntity
  8
0
100
AcDbCircle
 62
7
  6
CONTINUOUS
 10
230.1963629208
 20
139.3150593927
 40
97.785923519
100
AcDbArc
 50
269.9417708664
 51
270.0582278009
  0
ARC
  5
558
100
AcDbEntity
  8
0
100
AcDbCircle
 62
7
  6
CONTINUOUS
 10
225.8969637593
 20
134.9708564302
 40
93.5360137797
100
AcDbArc
 50
272.1114153487
 51
272.5736009891
  0
ARC
  5
559
100
AcDbEntity
  8
0
100
AcDbCircle
 62
7
  6
CONTINUOUS
 10
215.3079354391
 20
132.7589352075
 40
91.3676042816
100
AcDbArc
 50
266.8353561101
 51
267.1975603787
  0
ARC
  5
55A
100
AcDbEntity
  8
0
100
AcDbCircle
 62
7
  6
CONTINUOUS
 10
226.442922726
 20
128.0260535772
 40
86.7902605075
100
AcDbArc
 50
267.1653927921
 51
267.7270920325
  0
ARC
  5
55B
100
AcDbEntity
  8
0
100
AcDbCircle
 62
7
  6
CONTINUOUS
 10
237.3270576153
 20
109.8067326277
 40
68.2776362278
100
AcDbArc
 50
268.7030327302
 51
270.3883366224
  0
ARC
  5
55C
100
AcDbEntity
  8
0
100
AcDbCircle
 62
7
  6
CONTINUOUS
 10
233.8488504872
 20
108.3616961084
 40
66.9268926189
100
AcDbArc
 50
266.9567686771
 51
267.5030699758
  0
SPLINE
  5
55D
100
AcDbEntity
  8
KONSTRUKTIONSELEMENTE
100
AcDbSpline
 62
7
  6
CONTINUOUS
 70
0
 71
3
 72
30
 73
26
 74
0
 42
0.0000001
 43
0.0000001
 44
0.0000000001
 40
0.0
 40
0.0
 40
0.0
 40
0.0
 40
0.1243163296
 40
0.1865845323
 40
0.248942644
 40
0.3114226029
 40
0.3427342089
 40
0.3741040915
 40
0.4055496246
 40
0.4370959374
 40
0.4687756287
 40
0.5006119535
 40
0.5166281566
 40
0.5326606872
 40
0.5486676991
 40
0.5646118717
 40
0.5961711299
 40
0.6275276195
 40
0.6587478159
 40
0.6898863842
 40
0.7520082639
 40
0.8140518994
 40
0.8760546625
 40
0.938034262
 40
1.0
 40
1.0
 40
1.0
 40
1.0
 10
163.2666736639
 20
286.9706571528
 30
0.0
 10
163.709865648
 20
285.539339903
 30
0.0
 10
164.4557829445
 20
283.4140242411
 30
0.0
 10
165.6475519426
 20
280.6591990432
 30
0.0
 10
166.6579751275
 20
278.6415796595
 30
0.0
 10
167.6161008983
 20
277.0190231299
 30
0.0
 10
168.4720423006
 20
275.7760812661
 30
0.0
 10
169.167756804
 20
274.8789874072
 30
0.0
 10
169.9271800259
 20
274.0308107865
 30
0.0
 10
170.7656470565
 20
273.2534083662
 30
0.0
 10
171.7021886306
 20
272.586808447
 30
0.0
 10
172.5865024989
 20
272.1882177502
 30
0.0
 10
173.3457152687
 20
272.0394204219
 30
0.0
 10
173.9288772294
 20
272.0360018441
 30
0.0
 10
174.499526436
 20
272.1541382211
 30
0.0
 10
175.2055493136
 20
272.4623350877
 30
0.0
 10
175.9549824408
 20
273.0728267621
 30
0.0
 10
176.6477992187
 20
273.9778045691
 30
0.0
 10
177.1993085661
 20
274.96665004
 30
0.0
 10
177.7984402049
 20
276.3438520207
 30
0.0
 10
178.3666425383
 20
278.1316487683
 30
0.0
 10
178.8774440976
 20
280.3176325016
 30
0.0
 10
179.2746310732
 20
282.5250845543
 30
0.0
 10
179.5922298161
 20
284.7439698849
 30
0.0
 10
179.7650108704
 20
286.2279876627
 30
0.0
 10
179.8440319465
 20
286.9706571528
 30
0.0
  0
SPLINE
  5
55E
100
AcDbEntity
  8
KONSTRUKTIONSELEMENTE
100
AcDbSpline
 62
7
  6
CONTINUOUS
 70
0
 71
3
 72
30
 73
26
 74
0
 42
0.0000001
 43
0.0000001
 44
0.0000000001
 40
0.0
 40
0.0
 40
0.0
 40
0.0
 40
0.0619657097
 40
0.1239452818
 40
0.1859480192
 40
0.2479916262
 40
0.3101134842
 40
0.3412520385
 40
0.3724722022
 40
0.4038286368
 40
0.435387805
 40
0.4513321468
 40
0.4673393581
 40
0.4833719828
 40
0.4993882158
 40
0.5312247625
 40
0.5629044194
 40
0.5944507107
 40
0.625896234
 40
0.6572661078
 40
0.6885776977
 40
0.7510575968
 40
0.8134156576
 40
0.8756838062
 40
1.0
 40
1.0
 40
1.0
 40
1.0
 10
179.8440319465
 20
326.9706571528
 30
0.0
 10
179.7650109085
 20
327.7133262842
 30
0.0
 10
179.5922299528
 20
329.1973433595
 30
0.0
 10
179.2746312457
 20
331.4162276349
 30
0.0
 10
178.8774450139
 20
333.6236787732
 30
0.0
 10
178.3666431359
 20
335.809661417
 30
0.0
 10
177.7984421492
 20
337.5974576935
 30
0.0
 10
177.1993115256
 20
338.9746591823
 30
0.0
 10
176.6478028172
 20
339.9635036163
 30
0.0
 10
175.9549879158
 20
340.8684798682
 30
0.0
 10
175.2055572043
 20
341.478974615
 30
0.0
 10
174.4995319309
 20
341.787174743
 30
0.0
 10
173.9288769736
 20
341.9053120659
 30
0.0
 10
173.3457112584
 20
341.901891186
 30
0.0
 10
172.5864939765
 20
341.7530950719
 30
0.0
 10
171.7021799501
 20
341.3544974006
 30
0.0
 10
170.7656362594
 20
340.687897901
 30
0.0
 10
169.927170507
 20
339.9104949852
 30
0.0
 10
169.1677486411
 20
339.0623179133
 30
0.0
 10
168.4720356844
 20
338.1652233918
 30
0.0
 10
167.6160965416
 20
336.9222813179
 30
0.0
 10
166.6579696638
 20
335.2997273166
 30
0.0
 10
165.6475490492
 20
333.282108848
 30
0.0
 10
164.4557818903
 20
330.5272861695
 30
0.0
 10
163.709865152
 20
328.4019728006
 30
0.0
 10
163.2666736639
 20
326.9706571528
 30
0.0
  0
SPLINE
  5
55F
100
AcDbEntity
  8
KONSTRUKTIONSELEMENTE
100
AcDbSpline
 62
7
  6
CONTINUOUS
 70
0
 71
3
 72
30
 73
26
 74
0
 42
0.0000001
 43
0.0000001
 44
0.0000000001
 40
0.0
 40
0.0
 40
0.0
 40
0.0
 40
0.1243163521
 40
0.1865845692
 40
0.2489426897
 40
0.3114226358
 40
0.3427342372
 40
0.3741041147
 40
0.4055496297
 40
0.4370958745
 40
0.4687754025
 40
0.500611783
 40
0.5166277539
 40
0.5326600068
 40
0.548666721
 40
0.5646108526
 40
0.5961705311
 40
0.6275272031
 40
0.6587474344
 40
0.6898860852
 40
0.7520080809
 40
0.8140517668
 40
0.8760545824
 40
0.938034224
 40
1.0
 40
1.0
 40
1.0
 40
1.0
 10
258.8150856959
 20
326.9706571528
 30
0.0
 10
258.3718936674
 20
328.4019745458
 30
0.0
 10
257.625976116
 20
330.5272904111
 30
0.0
 10
256.4342070662
 20
333.2821158804
 30
0.0
 10
255.4237847451
 20
335.2997356975
 30
0.0
 10
254.4656571523
 20
336.9222908485
 30
0.0
 10
253.6097165588
 20
338.1652327317
 30
0.0
 10
252.9140030321
 20
339.0623268702
 30
0.0
 10
252.1545809452
 20
339.9105027053
 30
0.0
 10
251.3161161714
 20
340.6879038424
 30
0.0
 10
250.3795733511
 20
341.3544960016
 30
0.0
 10
249.4952675925
 20
341.7530972906
 30
0.0
 10
248.7360586885
 20
341.9018846858
 30
0.0
 10
248.1529070309
 20
341.9053108833
 30
0.0
 10
247.5822646489
 20
341.7871811937
 30
0.0
 10
246.8762313412
 20
341.4790049037
 30
0.0
 10
246.126797309
 20
340.8684993892
 30
0.0
 10
245.4339696982
 20
339.9635227815
 30
0.0
 10
244.8824530507
 20
338.9746764563
 30
0.0
 10
244.2833209607
 20
337.5974717512
 30
0.0
 10
243.7151204138
 20
335.8096714951
 30
0.0
 10
243.2043148156
 20
333.6236862363
 30
0.0
 10
242.80712922
 20
331.4162322777
 30
0.0
 10
242.4895296331
 20
329.1973456717
 30
0.0
 10
242.3167485314
 20
327.713327038
 30
0.0
 10
242.2377274133
 20
326.9706571528
 30
0.0
  0
SPLINE
  5
560
100
AcDbEntity
  8
KONSTRUKTIONSELEMENTE
100
AcDbSpline
 62
7
  6
CONTINUOUS
 70
0
 71
3
 72
30
 73
26
 74
0
 42
0.0000001
 43
0.0000001
 44
0.0000000001
 40
0.0
 40
0.0
 40
0.0
 40
0.0
 40
0.0619657252
 40
0.1239453123
 40
0.1859480633
 40
0.2479916846
 40
0.3101135485
 40
0.3412521034
 40
0.3724722751
 40
0.4038286917
 40
0.4353878207
 40
0.451332128
 40
0.4673393475
 40
0.4833719334
 40
0.4993881326
 40
0.531224485
 40
0.562904173
 40
0.594450488
 40
0.6258960285
 40
0.6572659178
 40
0.6885775268
 40
0.7510574708
 40
0.8134155645
 40
0.8756837427
 40
1.0
 40
1.0
 40
1.0
 40
1.0
 10
242.2377274133
 20
286.9706571528
 30
0.0
 10
242.3167484726
 20
286.2279878209
 30
0.0
 10
242.4895294855
 20
284.7439703546
 30
0.0
 10
242.8071282078
 20
282.5250854954
 30
0.0
 10
243.2043148719
 20
280.3176338734
 30
0.0
 10
243.7151164956
 20
278.1316506973
 30
0.0
 10
244.283318225
 20
276.3438543351
 30
0.0
 10
244.8824494139
 20
274.9666528638
 30
0.0
 10
245.4339577323
 20
273.9778084295
 30
0.0
 10
246.1267721966
 20
273.0728321645
 30
0.0
 10
246.8762036713
 20
272.4623405779
 30
0.0
 10
247.5822274171
 20
272.154139042
 30
0.0
 10
248.152881624
 20
272.0360019615
 30
0.0
 10
248.7360466369
 20
272.0394212036
 30
0.0
 10
249.4952603767
 20
272.1882186618
 30
0.0
 10
250.3795738056
 20
272.5868110332
 30
0.0
 10
251.3161156897
 20
273.2534108648
 30
0.0
 10
252.1545825677
 20
274.0308136228
 30
0.0
 10
252.9140056198
 20
274.8789906342
 30
0.0
 10
253.609719807
 20
275.7760850025
 30
0.0
 10
254.4656603281
 20
277.0190273612
 30
0.0
 10
255.4237868348
 20
278.6415829984
 30
0.0
 10
256.4342088589
 20
280.6592022159
 30
0.0
 10
257.6259769218
 20
283.4140262532
 30
0.0
 10
258.3718939728
 20
285.539340746
 30
0.0
 10
258.8150856959
 20
286.9706571528
 30
0.0
  0
SPLINE
  5
561
100
AcDbEntity
  8
0
100
AcDbSpline
 62
7
  6
CONTINUOUS
 70
0
 71
3
 72
9
 73
5
 74
0
 42
0.0000001
 43
0.0000001
 44
0.0000000001
 40
0.0
 40
0.0
 40
0.0
 40
0.0
 40
0.2433830278
 40
1.0
 40
1.0
 40
1.0
 40
1.0
 10
383.8269616461
 20
374.4394321129
 30
0.0
 10
383.8199950853
 20
374.431963995
 30
0.0
 10
383.791070646
 20
374.4015605961
 30
0.0
 10
383.760969572
 20
374.3722811353
 30
0.0
 10
383.7376430319
 20
374.3507423947
 30
0.0
  0
LINE
  5
562
100
AcDbEntity
  8
0
100
AcDbLine
 62
7
  6
CONTINUOUS
 10
384.1406840785
 20
380.4297032691
 11
384.1407073406
 21
380.3343232724
  0
LINE
  5
563
100
AcDbEntity
  8
0
100
AcDbLine
 62
7
  6
CONTINUOUS
 10
384.1407073406
 20
380.3343232724
 11
384.1406515965
 21
379.8574489921
  0
LINE
  5
564
100
AcDbEntity
  8
0
100
AcDbLine
 62
7
  6
CONTINUOUS
 10
383.7572042826
 20
384.8640545163
 11
383.7624814362
 21
384.8451856413
  0
SPLINE
  5
565
100
AcDbEntity
  8
0
100
AcDbSpline
 62
7
  6
CONTINUOUS
 70
0
 71
3
 72
9
 73
5
 74
0
 42
0.0000001
 43
0.0000001
 44
0.0000000001
 40
0.0
 40
0.0
 40
0.0
 40
0.0
 40
0.2526158912
 40
1.0
 40
1.0
 40
1.0
 40
1.0
 10
383.6916559221
 20
376.2830663858
 30
0.0
 10
383.748289553
 20
376.1338722778
 30
0.0
 10
383.9527302631
 20
375.5359924289
 30
0.0
 10
384.0751089373
 20
374.9098530633
 30
0.0
 10
384.1158996133
 20
374.4394839946
 30
0.0
  0
SPLINE
  5
566
100
AcDbEntity
  8
0
100
AcDbSpline
 62
7
  6
CONTINUOUS
 70
0
 71
3
 72
9
 73
5
 74
0
 42
0.0000001
 43
0.0000001
 44
0.0000000001
 40
0.0
 40
0.0
 40
0.0
 40
0.0
 40
0.737911552
 40
1.0
 40
1.0
 40
1.0
 40
1.0
 10
383.7075798145
 20
385.4479744466
 30
0.0
 10
383.7109011387
 20
385.4229703205
 30
0.0
 10
383.707647186
 20
385.3875229712
 30
0.0
 10
383.6953651659
 20
385.355597588
 30
0.0
 10
383.6916559167
 20
385.3474426624
 30
0.0
  0
LINE
  5
567
100
AcDbEntity
  8
0
100
AcDbLine
 62
7
  6
CONTINUOUS
 10
383.7522096283
 20
385.139225429
 11
383.7555639989
 21
385.1272037885
  0
SPLINE
  5
568
100
AcDbEntity
  8
0
100
AcDbSpline
 62
7
  6
CONTINUOUS
 70
0
 71
3
 72
9
 73
5
 74
0
 42
0.0000001
 43
0.0000001
 44
0.0000000001
 40
0.0
 40
0.0
 40
0.0
 40
0.0
 40
0.505608273
 40
1.0
 40
1.0
 40
1.0
 40
1.0
 10
383.6916559249
 20
372.0297579266
 30
0.0
 10
383.8375098618
 20
371.69583639
 30
0.0
 10
384.0633684139
 20
371.0056768747
 30
0.0
 10
384.1408601376
 20
370.2829953058
 30
0.0
 10
384.1408610257
 20
369.9266931997
 30
0.0
  0
SPLINE
  5
569
100
AcDbEntity
  8
KONSTRUKTIONSELEMENTE
100
AcDbSpline
 62
7
  6
CONTINUOUS
 70
0
 71
3
 72
12
 73
8
 74
0
 42
0.0000001
 43
0.0000001
 44
0.0000000001
 40
0.0
 40
0.0
 40
0.0
 40
0.0
 40
0.1747599324
 40
0.3809461722
 40
0.6375970899
 40
0.7999986465
 40
1.0
 40
1.0
 40
1.0
 40
1.0
 10
258.8150856959
 20
45.0973829917
 30
0.0
 10
258.3161359416
 20
44.665612186
 30
0.0
 10
257.1578067753
 20
43.8042334058
 30
0.0
 10
255.0482106783
 20
42.6319682394
 30
0.0
 10
252.8340484958
 20
41.7816721238
 30
0.0
 10
250.5580748515
 20
41.2372089652
 30
0.0
 10
249.1881475297
 20
41.0972441983
 30
0.0
 10
248.4330140213
 20
41.0973960743
 30
0.0
  0
SPLINE
  5
56A
100
AcDbEntity
  8
KONSTRUKTIONSELEMENTE
100
AcDbSpline
 62
7
  6
CONTINUOUS
 70
0
 71
3
 72
12
 73
8
 74
0
 42
0.0000001
 43
0.0000001
 44
0.0000000001
 40
0.0
 40
0.0
 40
0.0
 40
0.0
 40
0.2000027799
 40
0.3624039401
 40
0.6190542732
 40
0.8252402172
 40
1.0
 40
1.0
 40
1.0
 40
1.0
 10
173.648704444
 20
41.0973970673
 30
0.0
 10
172.8935682758
 20
41.0972438589
 30
0.0
 10
171.5236424491
 20
41.2372178911
 30
0.0
 10
169.247676755
 20
41.7816829622
 30
0.0
 10
167.0335285556
 20
42.6319784639
 30
0.0
 10
164.9239444894
 20
43.8042390389
 30
0.0
 10
163.7656211901
 20
44.6656141141
 30
0.0
 10
163.2666736639
 20
45.0973829917
 30
0.0
  0
SPLINE
  5
56B
100
AcDbEntity
  8
KONSTRUKTIONSELEMENTE
100
AcDbSpline
 62
7
  6
CONTINUOUS
 70
0
 71
3
 72
12
 73
8
 74
0
 42
0.0000001
 43
0.0000001
 44
0.0000000001
 40
0.0
 40
0.0
 40
0.0
 40
0.0
 40
0.2000018243
 40
0.3624029096
 40
0.6190535121
 40
0.8252398234
 40
1.0
 40
1.0
 40
1.0
 40
1.0
 10
248.4331069453
 20
62.0973688236
 30
0.0
 10
249.1882360471
 20
62.0975199789
 30
0.0
 10
250.5581509075
 20
61.9575400978
 30
0.0
 10
252.8341028321
 20
61.4130769043
 30
0.0
 10
255.048241984
 20
60.5627819293
 30
0.0
 10
257.1578191599
 20
59.3905238814
 30
0.0
 10
258.3161393309
 20
58.5291508644
 30
0.0
 10
258.8150856959
 20
58.0973829917
 30
0.0
  0
SPLINE
  5
56C
100
AcDbEntity
  8
KONSTRUKTIONSELEMENTE
100
AcDbSpline
 62
7
  6
CONTINUOUS
 70
0
 71
3
 72
12
 73
8
 74
0
 42
0.0000001
 43
0.0000001
 44
0.0000000001
 40
0.0
 40
0.0
 40
0.0
 40
0.0
 40
0.1747596007
 40
0.3809454499
 40
0.6375960072
 40
0.7999976373
 40
1.0
 40
1.0
 40
1.0
 40
1.0
 10
163.2666736639
 20
58.0973829917
 30
0.0
 10
163.7656234786
 20
58.5291538497
 30
0.0
 10
164.9239528308
 20
59.3905327422
 30
0.0
 10
167.0335495202
 20
60.5627980385
 30
0.0
 10
169.2477137088
 20
61.4130966537
 30
0.0
 10
171.5236952061
 20
61.957555803
 30
0.0
 10
172.8936296376
 20
62.0975285127
 30
0.0
 10
173.6487684794
 20
62.0973687078
 30
0.0
  0
SPLINE
  5
56D
100
AcDbEntity
  8
0
100
AcDbSpline
 62
7
  6
CONTINUOUS
 70
0
 71
3
 72
9
 73
5
 74
0
 42
0.0000001
 43
0.0000001
 44
0.0000000001
 40
0.0
 40
0.0
 40
0.0
 40
0.0
 40
0.1906464647
 40
1.0
 40
1.0
 40
1.0
 40
1.0
 10
190.5890121274
 20
41.1067725764
 30
0.0
 10
190.5880392174
 20
41.1086668918
 30
0.0
 10
190.5835440413
 20
41.1189117348
 30
0.0
 10
190.5806412657
 20
41.1297629879
 30
0.0
 10
190.5785039213
 20
41.1385473077
 30
0.0
  0
SPLINE
  5
56E
100
AcDbEntity
  8
0
100
AcDbSpline
 62
7
  6
CONTINUOUS
 70
0
 71
3
 72
9
 73
5
 74
0
 42
0.0000001
 43
0.0000001
 44
0.0000000001
 40
0.0
 40
0.0
 40
0.0
 40
0.0
 40
0.2448445858
 40
1.0
 40
1.0
 40
1.0
 40
1.0
 10
231.3786185437
 20
41.3316147065
 30
0.0
 10
231.3647845271
 20
41.3396593993
 30
0.0
 10
231.3086898183
 20
41.373211387
 30
0.0
 10
231.2542458559
 20
41.4095107441
 30
0.0
 10
231.2141266776
 20
41.438260672
 30
0.0
  0
SPLINE
  5
56F
100
AcDbEntity
  8
0
100
AcDbSpline
 62
7
  6
CONTINUOUS
 70
0
 71
3
 72
12
 73
8
 74
0
 42
0.0000001
 43
0.0000001
 44
0.0000000001
 40
0.0
 40
0.0
 40
0.0
 40
0.0
 40
0.0795734965
 40
0.1858702619
 40
0.4548668411
 40
0.7480876645
 40
1.0
 40
1.0
 40
1.0
 40
1.0
 10
221.1608796799
 20
41.2186120703
 30
0.0
 10
221.0660566354
 20
41.2445607642
 30
0.0
 10
220.8409021409
 20
41.2915594383
 30
0.0
 10
220.2838017298
 20
41.3675253288
 30
0.0
 10
219.4561316069
 20
41.3968981916
 30
0.0
 10
218.4512259586
 20
41.3314541071
 30
0.0
 10
217.7838133798
 20
41.238763765
 30
0.0
 10
217.4762858001
 20
41.1909249841
 30
0.0
  0
SPLINE
  5
570
100
AcDbEntity
  8
0
100
AcDbSpline
 62
7
  6
CONTINUOUS
 70
0
 71
3
 72
11
 73
7
 74
0
 42
0.0000001
 43
0.0000001
 44
0.0000000001
 40
0.0
 40
0.0
 40
0.0
 40
0.0
 40
0.3701449044
 40
0.6655709294
 40
0.8775821907
 40
1.0
 40
1.0
 40
1.0
 40
1.0
 10
217.4762858001
 20
41.1909249841
 30
0.0
 10
217.3962622715
 20
41.1784765785
 30
0.0
 10
217.2524627924
 20
41.1556360975
 30
0.0
 10
217.0627970152
 20
41.1252353356
 30
0.0
 10
216.9264772282
 20
41.1060694345
 30
0.0
 10
216.8535750431
 20
41.0973671571
 30
0.0
 10
216.8267906085
 20
41.0973896873
 30
0.0
  0
LINE
  5
571
100
AcDbEntity
  8
0
100
AcDbLine
 62
7
  6
CONTINUOUS
 10
232.7988461365
 20
41.0975698356
 11
232.7615912296
 21
41.0975641289
  0
LINE
  5
572
100
AcDbEntity
  8
0
100
AcDbLine
 62
7
  6
CONTINUOUS
 10
232.7615912296
 20
41.0975641289
 11
231.5092080513
 21
41.0975806924
  0
LINE
  5
573
100
AcDbEntity
  8
0
100
AcDbLine
 62
7
  6
CONTINUOUS
 10
198.9959852282
 20
41.0975603902
 11
197.5210408197
 21
41.0975887985
  0
LINE
  5
574
100
AcDbEntity
  8
0
100
AcDbLine
 62
7
  6
CONTINUOUS
 10
197.5210408197
 20
41.0975887985
 11
197.4973601453
 21
41.0975928722
  0
SPLINE
  5
575
100
AcDbEntity
  8
0
100
AcDbSpline
 62
7
  6
CONTINUOUS
 70
0
 71
3
 72
9
 73
5
 74
0
 42
0.0000001
 43
0.0000001
 44
0.0000000001
 40
0.0
 40
0.0
 40
0.0
 40
0.0
 40
0.5058495975
 40
1.0
 40
1.0
 40
1.0
 40
1.0
 10
235.7816331908
 20
41.5465885303
 30
0.0
 10
235.4517610982
 20
41.4008449347
 30
0.0
 10
234.7697343707
 20
41.174967771
 30
0.0
 10
234.0547925506
 20
41.0973843313
 30
0.0
 10
233.7024993468
 20
41.097383443
 30
0.0
  0
SPLINE
  5
576
100
AcDbEntity
  8
0
100
AcDbSpline
 62
7
  6
CONTINUOUS
 70
0
 71
3
 72
12
 73
8
 74
0
 42
0.0000001
 43
0.0000001
 44
0.0000000001
 40
0.0
 40
0.0
 40
0.0
 40
0.0
 40
0.387184483
 40
0.6756708754
 40
0.7847948889
 40
0.8726394286
 40
1.0
 40
1.0
 40
1.0
 40
1.0
 10
203.1971224296
 20
41.5390888065
 30
0.0
 10
203.1799810209
 20
41.4740211298
 30
0.0
 10
203.1468019054
 20
41.361301984
 30
0.0
 10
203.0959830226
 20
41.234247487
 30
0.0
 10
203.0519977623
 20
41.1616752847
 30
0.0
 10
203.0166340028
 20
41.1184041253
 30
0.0
 10
202.9805730759
 20
41.0973828665
 30
0.0
 10
202.9584394513
 20
41.0973829912
 30
0.0
  0
SPLINE
  5
577
100
AcDbEntity
  8
0
100
AcDbSpline
 62
7
  6
CONTINUOUS
 70
0
 71
3
 72
9
 73
5
 74
0
 42
0.0000001
 43
0.0000001
 44
0.0000000001
 40
0.0
 40
0.0
 40
0.0
 40
0.0
 40
0.2440449254
 40
1.0
 40
1.0
 40
1.0
 40
1.0
 10
201.0953739865
 20
41.1683035002
 30
0.0
 10
201.0095499683
 20
41.1860952989
 30
0.0
 10
200.6606814397
 20
41.2722637172
 30
0.0
 10
200.3254799386
 20
41.4112201123
 30
0.0
 10
200.085974981
 20
41.5390888065
 30
0.0
  0
SPLINE
  5
578
100
AcDbEntity
  8
0
100
AcDbSpline
 62
7
  6
CONTINUOUS
 70
0
 71
3
 72
11
 73
7
 74
0
 42
0.0000001
 43
0.0000001
 44
0.0000000001
 40
0.0
 40
0.0
 40
0.0
 40
0.0
 40
0.1732314329
 40
0.3849727613
 40
0.6573227463
 40
1.0
 40
1.0
 40
1.0
 40
1.0
 10
206.4608689684
 20
41.097383391
 30
0.0
 10
206.4248209126
 20
41.097385698
 30
0.0
 10
206.3443753954
 20
41.1209960769
 30
0.0
 10
206.2388693923
 20
41.211425407
 30
0.0
 10
206.1371839422
 20
41.3512051804
 30
0.0
 10
206.0778246277
 20
41.4650066678
 30
0.0
 10
206.0475952035
 20
41.5295904399
 30
0.0
  0
SPLINE
  5
579
100
AcDbEntity
  8
0
100
AcDbSpline
 62
7
  6
CONTINUOUS
 70
0
 71
3
 72
9
 73
5
 74
0
 42
0.0000001
 43
0.0000001
 44
0.0000000001
 40
0.0
 40
0.0
 40
0.0
 40
0.0
 40
0.2229612963
 40
1.0
 40
1.0
 40
1.0
 40
1.0
 10
211.8167102379
 20
41.1764090941
 30
0.0
 10
211.8152199098
 20
41.1814308643
 30
0.0
 10
211.8088329598
 20
41.204042205
 30
0.0
 10
211.80345667
 20
41.2269288145
 30
0.0
 10
211.7995984349
 20
41.2447721853
 30
0.0
  0
SPLINE
  5
57A
100
AcDbEntity
  8
0
100
AcDbSpline
 62
7
  6
CONTINUOUS
 70
0
 71
3
 72
9
 73
5
 74
0
 42
0.0000001
 43
0.0000001
 44
0.0000000001
 40
0.0
 40
0.0
 40
0.0
 40
0.0
 40
0.255676017
 40
1.0
 40
1.0
 40
1.0
 40
1.0
 10
225.4183554104
 20
41.3234564909
 30
0.0
 10
225.3928655901
 20
41.3099665948
 30
0.0
 10
225.2921776652
 20
41.259114212
 30
0.0
 10
225.1874436581
 20
41.2161705539
 30
0.0
 10
225.1078252512
 20
41.1895302282
 30
0.0
  0
ELLIPSE
  5
57B
100
AcDbEntity
  8
0
100
AcDbEllipse
 62
7
  6
CONTINUOUS
 10
211.0408796799
 20
175.8882051739
 30
0.0
 11
-0.0
 21
127.148678496
 31
0.0
 40
0.3263895503
 41
-1.590375891
 42
-1.5858571285
  0
ELLIPSE
  5
57C
100
AcDbEntity
  8
0
100
AcDbEllipse
 62
7
  6
CONTINUOUS
 10
211.0408796799
 20
174.5052313635
 30
0.0
 11
-0.0
 21
56.5106315613
 31
0.0
 40
0.7343750875
 41
-1.6039349219
 42
-1.590375891
  0
ELLIPSE
  5
57D
100
AcDbEntity
  8
0
100
AcDbEllipse
 62
7
  6
CONTINUOUS
 10
211.0408796799
 20
173.6860820227
 30
0.0
 11
41.5
 21
0.0
 31
0.0
 40
0.7659569903
 41
-0.0512272303
 42
-0.0331385951
  0
ELLIPSE
  5
57E
100
AcDbEntity
  8
0
100
AcDbEllipse
 62
7
  6
CONTINUOUS
 10
211.0408796799
 20
172.4924658846
 30
0.0
 11
41.5
 21
0.0
 31
0.0
 40
0.2042553727
 41
-0.0738623235
 42
-0.0512272303
  0
ELLIPSE
  5
57F
100
AcDbEntity
  8
0
100
AcDbEllipse
 62
7
  6
CONTINUOUS
 10
211.0408796799
 20
176.2201250739
 30
0.0
 11
41.5
 21
0.0
 31
0.0
 40
0.2042553727
 41
0.0512272303
 42
0.0738623235
  0
ELLIPSE
  5
580
100
AcDbEntity
  8
0
100
AcDbEllipse
 62
7
  6
CONTINUOUS
 10
211.0408796799
 20
175.0265089357
 30
0.0
 11
41.5
 21
-0.0
 31
0.0
 40
0.7659569903
 41
0.0331385951
 42
0.0512272303
  0
ELLIPSE
  5
581
100
AcDbEntity
  8
0
100
AcDbEllipse
 62
7
  6
CONTINUOUS
 10
211.0408796799
 20
174.207359595
 30
0.0
 11
0.0
 21
56.5106315613
 31
0.0
 40
0.7343750875
 41
4.7319685446
 42
4.7455275755
  0
ELLIPSE
  5
582
100
AcDbEntity
  8
0
100
AcDbEllipse
 62
7
  6
CONTINUOUS
 10
211.0408796799
 20
172.8243857845
 30
0.0
 11
-0.0
 21
127.148678496
 31
0.0
 40
0.3263895503
 41
-1.5557355251
 42
-1.5512167626
  0
ELLIPSE
  5
583
100
AcDbEntity
  8
0
100
AcDbEllipse
 62
7
  6
CONTINUOUS
 10
211.0408796799
 20
201.7392976977
 30
0.0
 11
-0.0
 21
127.1490422717
 31
0.0
 40
0.3263886165
 41
-1.7955759824
 42
-1.7909437578
  0
ELLIPSE
  5
584
100
AcDbEntity
  8
0
100
AcDbEllipse
 62
7
  6
CONTINUOUS
 10
211.0408796799
 20
185.9945916959
 30
0.0
 11
0.0
 21
56.5106315613
 31
0.0
 40
0.7343750875
 41
-1.8095026013
 42
-1.7955759824
  0
ELLIPSE
  5
585
100
AcDbEntity
  8
0
100
AcDbEllipse
 62
7
  6
CONTINUOUS
 10
211.0408796799
 20
180.1488495039
 30
0.0
 11
41.5
 21
0.0
 31
0.0
 40
0.7659575381
 41
-0.257349327
 42
-0.2387062745
  0
ELLIPSE
  5
586
100
AcDbEntity
  8
0
100
AcDbEllipse
 62
7
  6
CONTINUOUS
 10
211.0408796799
 20
174.2158692478
 30
0.0
 11
41.5
 21
0.0
 31
0.0
 40
0.2042552558
 41
-0.2807833784
 42
-0.257349327
  0
ELLIPSE
  5
587
100
AcDbEntity
  8
0
100
AcDbEllipse
 62
7
  6
CONTINUOUS
 10
211.0408796799
 20
174.4967217106
 30
0.0
 11
41.5
 21
-0.0
 31
0.0
 40
0.2042552558
 41
0.257349327
 42
0.2807833784
  0
ELLIPSE
  5
588
100
AcDbEntity
  8
0
100
AcDbEllipse
 62
7
  6
CONTINUOUS
 10
211.0408796799
 20
168.5637414545
 30
0.0
 11
41.5
 21
-0.0
 31
0.0
 40
0.7659575381
 41
0.2387062745
 42
0.257349327
  0
ELLIPSE
  5
589
100
AcDbEntity
  8
0
100
AcDbEllipse
 62
7
  6
CONTINUOUS
 10
211.0408796799
 20
162.7179992625
 30
0.0
 11
-0.0
 21
56.5106315613
 31
0.0
 40
0.7343750875
 41
-1.3460166712
 42
-1.3320900523
  0
ELLIPSE
  5
58A
100
AcDbEntity
  8
0
100
AcDbEllipse
 62
7
  6
CONTINUOUS
 10
211.0408796799
 20
146.9732932608
 30
0.0
 11
-0.0
 21
127.1490422717
 31
0.0
 40
0.3263886165
 41
-1.3506488958
 42
-1.3460166712
  0
ELLIPSE
  5
58B
100
AcDbEntity
  8
0
100
AcDbEllipse
 62
7
  6
CONTINUOUS
 10
211.0408796799
 20
182.1775720895
 30
0.0
 11
41.5
 21
0.0
 31
0.0
 40
0.2042553906
 41
6.2440186763
 42
6.2666182843
  0
ELLIPSE
  5
58C
100
AcDbEntity
  8
0
100
AcDbEllipse
 62
7
  6
CONTINUOUS
 10
211.0408796799
 20
182.3882101751
 30
0.0
 11
41.5
 21
0.0
 31
0.0
 40
0.5106380606
 41
-0.0165670229
 42
-0.0000000423
  0
ELLIPSE
  5
58D
100
AcDbEntity
  8
0
100
AcDbEllipse
 62
7
  6
CONTINUOUS
 10
211.0408796799
 20
183.8882079341
 30
0.0
 11
-0.0
 21
169.5325413992
 31
0.0
 40
0.244790762
 41
-1.5692902935
 42
-1.5647722026
  0
ELLIPSE
  5
58E
100
AcDbEntity
  8
0
100
AcDbEllipse
 62
7
  6
CONTINUOUS
 10
211.0408796799
 20
189.7222532457
 30
0.0
 11
41.5
 21
0.0
 31
0.0
 40
0.2042552558
 41
0.1101624371
 42
0.1329211844
  0
ELLIPSE
  5
58F
100
AcDbEntity
  8
0
100
AcDbEllipse
 62
7
  6
CONTINUOUS
 10
211.0408796799
 20
187.1594866832
 30
0.0
 11
41.5
 21
0.0
 31
0.0
 40
0.7659575381
 41
0.0919971844
 42
0.1101624371
  0
ELLIPSE
  5
590
100
AcDbEntity
  8
0
100
AcDbEllipse
 62
7
  6
CONTINUOUS
 10
211.0408796799
 20
184.8882110545
 30
0.0
 11
-0.0
 21
56.5106315613
 31
0.0
 40
0.7343750875
 41
-1.4924028033
 42
-1.4787991424
  0
ELLIPSE
  5
591
100
AcDbEntity
  8
0
100
AcDbEllipse
 62
7
  6
CONTINUOUS
 10
211.0408796799
 20
179.3562873242
 30
0.0
 11
-0.0
 21
127.1490422717
 31
0.0
 40
0.3263886165
 41
-1.496933999
 42
-1.4924028033
  0
ELLIPSE
  5
592
100
AcDbEntity
  8
0
100
AcDbEllipse
 62
7
  6
CONTINUOUS
 10
211.0408796799
 20
197.3563036343
 30
0.0
 11
-0.0
 21
127.1490422717
 31
0.0
 40
0.3263886165
 41
-1.6491898503
 42
-1.6446586546
  0
ELLIPSE
  5
593
100
AcDbEntity
  8
0
100
AcDbEllipse
 62
7
  6
CONTINUOUS
 10
211.0408796799
 20
191.824379904
 30
0.0
 11
-0.0
 21
56.5106315613
 31
0.0
 40
0.7343750875
 41
-1.6627935112
 42
-1.6491898503
  0
ELLIPSE
  5
594
100
AcDbEntity
  8
0
100
AcDbEllipse
 62
7
  6
CONTINUOUS
 10
211.0408796799
 20
188.5796999038
 30
0.0
 11
41.5
 21
-0.0
 31
0.0
 40
0.5106383587
 41
-0.1101624371
 42
-0.0919971844
  0
ELLIPSE
  5
595
100
AcDbEntity
  8
0
100
AcDbEllipse
 62
7
  6
CONTINUOUS
 10
211.0408796799
 20
174.3421115008
 30
0.0
 11
-0.0
 21
108.3120570183
 31
0.0
 40
0.3831521729
 41
-1.5014636889
 42
-1.4606338897
  0
ELLIPSE
  5
596
100
AcDbEntity
  8
0
100
AcDbEllipse
 62
7
  6
CONTINUOUS
 10
211.0408796799
 20
176.8669332704
 30
0.0
 11
41.5
 21
0.0
 31
0.0
 40
0.3404254913
 41
-0.2760843322
 42
-0.2620241569
  0
ELLIPSE
  5
597
100
AcDbEntity
  8
0
100
AcDbEllipse
 62
7
  6
CONTINUOUS
 10
211.0408796799
 20
184.1860762208
 30
0.0
 11
0.0
 21
42.3829534612
 31
0.0
 40
0.9791672503
 41
-1.8328204837
 42
-1.8234765819
  0
ELLIPSE
  5
598
100
AcDbEntity
  8
0
100
AcDbEllipse
 62
7
  6
CONTINUOUS
 10
211.0408796799
 20
170.6195920152
 30
0.0
 11
-0.0
 21
110.5851145437
 31
0.0
 40
0.3730158455
 41
-1.4691059996
 42
-1.4324768978
  0
ELLIPSE
  5
599
100
AcDbEntity
  8
0
100
AcDbEllipse
 62
7
  6
CONTINUOUS
 10
211.0408796799
 20
205.3775984234
 30
0.0
 11
-0.0
 21
127.1490422717
 31
0.0
 40
0.3263886165
 41
-1.8234765819
 42
-1.8188131321
  0
ELLIPSE
  5
59A
100
AcDbEntity
  8
0
100
AcDbEllipse
 62
7
  6
CONTINUOUS
 10
211.0408796799
 20
174.9094872926
 30
0.0
 11
41.25
 21
0.0
 31
0.0
 40
0.3404254913
 41
0.0560900035
 42
0.0697535122
  0
ELLIPSE
  5
59B
100
AcDbEntity
  8
0
100
AcDbEllipse
 62
7
  6
CONTINUOUS
 10
211.0408796799
 20
173.3350173864
 30
0.0
 11
-0.0
 21
42.1276947286
 31
0.0
 40
0.9791658496
 41
-1.5238093423
 42
-1.5147063233
  0
ELLIPSE
  5
59C
100
AcDbEntity
  8
0
100
AcDbEllipse
 62
7
  6
CONTINUOUS
 10
211.0408796799
 20
169.377584259
 30
0.0
 11
-0.0
 21
126.3827226015
 31
0.0
 40
0.3263895503
 41
-1.5283593568
 42
-1.5238093423
  0
ELLIPSE
  5
59D
100
AcDbEntity
  8
0
100
AcDbEllipse
 62
7
  6
CONTINUOUS
 10
211.0408796799
 20
179.5264960383
 30
0.0
 11
-0.0
 21
126.3827226015
 31
0.0
 40
0.3263895503
 41
-1.6177833113
 42
-1.6132332968
  0
ELLIPSE
  5
59E
100
AcDbEntity
  8
0
100
AcDbEllipse
 62
7
  6
CONTINUOUS
 10
211.0408796799
 20
175.5690629109
 30
0.0
 11
0.0
 21
42.1276947286
 31
0.0
 40
0.9791658496
 41
-1.6268863302
 42
-1.6177833113
  0
ELLIPSE
  5
59F
100
AcDbEntity
  8
0
100
AcDbEllipse
 62
7
  6
CONTINUOUS
 10
211.0408796799
 20
173.9945930047
 30
0.0
 11
41.25
 21
0.0
 31
0.0
 40
0.3404254913
 41
-0.0697535122
 42
-0.0560900035
  0
ELLIPSE
  5
5A0
100
AcDbEntity
  8
0
100
AcDbEllipse
 62
7
  6
CONTINUOUS
 10
211.0408796799
 20
172.0371470269
 30
0.0
 11
41.25
 21
0.0
 31
0.0
 40
0.3404254913
 41
0.2636499067
 42
0.2778018396
  0
ELLIPSE
  5
5A1
100
AcDbEntity
  8
0
100
AcDbEllipse
 62
7
  6
CONTINUOUS
 10
211.0408796799
 20
164.7180040765
 30
0.0
 11
-0.0
 21
42.1276344644
 31
0.0
 40
0.9791672503
 41
-1.316550913
 42
-1.3071464201
  0
ELLIPSE
  5
5A2
100
AcDbEntity
  8
0
100
AcDbEllipse
 62
7
  6
CONTINUOUS
 10
211.0408796799
 20
143.5264818739
 30
0.0
 11
-0.0
 21
126.3830841857
 31
0.0
 40
0.3263886165
 41
-1.3212444923
 42
-1.316550913
  0
ELLIPSE
  5
5A3
100
AcDbEntity
  8
0
100
AcDbEllipse
 62
7
  6
CONTINUOUS
 10
211.0408796799
 20
205.3775984234
 30
0.0
 11
-0.0
 21
126.3830841857
 31
0.0
 40
0.3263886165
 41
-1.8250417406
 42
-1.8203481613
  0
ELLIPSE
  5
5A4
100
AcDbEntity
  8
0
100
AcDbEllipse
 62
7
  6
CONTINUOUS
 10
211.0408796799
 20
143.5264818739
 30
0.0
 11
-0.0
 21
127.1490422717
 31
0.0
 40
0.3263886165
 41
-1.3227795215
 42
-1.3181160717
  0
ELLIPSE
  5
5A5
100
AcDbEntity
  8
0
100
AcDbEllipse
 62
7
  6
CONTINUOUS
 10
211.0408796799
 20
164.7180040765
 30
0.0
 11
-0.0
 21
42.3829534612
 31
0.0
 40
0.9791672503
 41
-1.3181160717
 42
-1.3087721698
  0
ELLIPSE
  5
5A6
100
AcDbEntity
  8
0
100
AcDbEllipse
 62
7
  6
CONTINUOUS
 10
211.0408796799
 20
172.0371470269
 30
0.0
 11
41.5
 21
-0.0
 31
0.0
 40
0.3404254913
 41
0.2620241569
 42
0.2760843322
  0
ELLIPSE
  5
5A7
100
AcDbEntity
  8
0
100
AcDbEllipse
 62
7
  6
CONTINUOUS
 10
211.0408796799
 20
184.1860762208
 30
0.0
 11
-0.0
 21
42.1276344644
 31
0.0
 40
0.9791672503
 41
-1.8344462335
 42
-1.8250417406
  0
ELLIPSE
  5
5A8
100
AcDbEntity
  8
0
100
AcDbEllipse
 62
7
  6
CONTINUOUS
 10
211.0408796799
 20
176.8669332704
 30
0.0
 11
41.25
 21
0.0
 31
0.0
 40
0.3404254913
 41
-0.2778018396
 42
-0.2636499067
  0
ELLIPSE
  5
5A9
100
AcDbEntity
  8
0
100
AcDbEllipse
 62
7
  6
CONTINUOUS
 10
211.0408796799
 20
188.0796999749
 30
0.0
 11
41.25
 21
0.0
 31
0.0
 40
0.3404254913
 41
0.1154075325
 42
0.1291465864
  0
ELLIPSE
  5
5AA
100
AcDbEntity
  8
0
100
AcDbEllipse
 62
7
  6
CONTINUOUS
 10
211.0408796799
 20
184.8456599986
 30
0.0
 11
0.0
 21
42.1276344644
 31
0.0
 40
0.9791672503
 41
-1.4645358641
 42
-1.4553887943
  0
ELLIPSE
  5
5AB
100
AcDbEntity
  8
0
100
AcDbEllipse
 62
7
  6
CONTINUOUS
 10
211.0408796799
 20
175.9094759373
 30
0.0
 11
-0.0
 21
126.3830841857
 31
0.0
 40
0.3263886165
 41
-1.4691059996
 42
-1.4645358641
  0
ELLIPSE
  5
5AC
100
AcDbEntity
  8
0
100
AcDbEllipse
 62
7
  6
CONTINUOUS
 10
211.0408796799
 20
200.99460436
 30
0.0
 11
-0.0
 21
126.3830841857
 31
0.0
 40
0.3263886165
 41
-1.6770567895
 42
-1.672486654
  0
ELLIPSE
  5
5AD
100
AcDbEntity
  8
0
100
AcDbEllipse
 62
7
  6
CONTINUOUS
 10
211.0408796799
 20
192.0584202987
 30
0.0
 11
-0.0
 21
42.1276344644
 31
0.0
 40
0.9791672503
 41
-1.6862038593
 42
-1.6770567895
  0
ELLIPSE
  5
5AE
100
AcDbEntity
  8
0
100
AcDbEllipse
 62
7
  6
CONTINUOUS
 10
211.0408796799
 20
188.8243803225
 30
0.0
 11
41.25
 21
0.0
 31
0.0
 40
0.3404254913
 41
-0.1291465864
 42
-0.1154075325
  0
ELLIPSE
  5
5AF
100
AcDbEntity
  8
0
100
AcDbEllipse
 62
7
  6
CONTINUOUS
 10
211.0408796799
 20
182.3562950252
 30
0.0
 11
0.0
 21
42.3830178009
 31
0.0
 40
0.9791657639
 41
-1.5692902935
 42
-1.5512167712
  0
ELLIPSE
  5
5B0
100
AcDbEntity
  8
0
100
AcDbEllipse
 62
7
  6
CONTINUOUS
 10
211.0408796799
 20
181.52650962
 30
0.0
 11
-0.0
 21
84.7659217639
 31
0.0
 40
0.4895835394
 41
-1.5512167712
 42
-1.542177967
  0
ELLIPSE
  5
5B1
100
AcDbEntity
  8
0
100
AcDbEllipse
 62
7
  6
CONTINUOUS
 10
211.0408796799
 20
177.8882235632
 30
0.0
 11
-0.0
 21
211.91446416
 31
0.0
 40
0.1958337302
 41
-1.542177967
 42
-1.5376577274
  0
ELLIPSE
  5
5B2
100
AcDbEntity
  8
0
100
AcDbEllipse
 62
7
  6
CONTINUOUS
 10
211.0408796799
 20
173.9945930047
 30
0.0
 11
41.5
 21
0.0
 31
0.0
 40
0.3404254913
 41
-0.0693326336
 42
-0.0557517603
  0
ELLIPSE
  5
5B3
100
AcDbEntity
  8
0
100
AcDbEllipse
 62
7
  6
CONTINUOUS
 10
211.0408796799
 20
175.5690629109
 30
0.0
 11
-0.0
 21
42.3830140906
 31
0.0
 40
0.9791658496
 41
-1.6265480871
 42
-1.6175000506
  0
ELLIPSE
  5
5B4
100
AcDbEntity
  8
0
100
AcDbEllipse
 62
7
  6
CONTINUOUS
 10
211.0408796799
 20
179.5264960383
 30
0.0
 11
-0.0
 21
127.148678496
 31
0.0
 40
0.3263895503
 41
-1.6175000506
 42
-1.6129775002
  0
ELLIPSE
  5
5B5
100
AcDbEntity
  8
0
100
AcDbEllipse
 62
7
  6
CONTINUOUS
 10
211.0408796799
 20
188.8243803225
 30
0.0
 11
41.5
 21
-0.0
 31
0.0
 40
0.3404254913
 41
-0.1283642802
 42
-0.1147092315
  0
ELLIPSE
  5
5B6
100
AcDbEntity
  8
0
100
AcDbEllipse
 62
7
  6
CONTINUOUS
 10
211.0408796799
 20
192.0584202987
 30
0.0
 11
0.0
 21
42.3829534612
 31
0.0
 40
0.9791672503
 41
-1.6855055583
 42
-1.676414268
  0
ELLIPSE
  5
5B7
100
AcDbEntity
  8
0
100
AcDbEllipse
 62
7
  6
CONTINUOUS
 10
211.0408796799
 20
200.99460436
 30
0.0
 11
-0.0
 21
127.1490422717
 31
0.0
 40
0.3263886165
 41
-1.676414268
 42
-1.6718719606
  0
ELLIPSE
  5
5B8
100
AcDbEntity
  8
0
100
AcDbEllipse
 62
7
  6
CONTINUOUS
 10
211.0408796799
 20
175.9094759373
 30
0.0
 11
-0.0
 21
127.1490422717
 31
0.0
 40
0.3263886165
 41
-1.469720693
 42
-1.4651783856
  0
ELLIPSE
  5
5B9
100
AcDbEntity
  8
0
100
AcDbEllipse
 62
7
  6
CONTINUOUS
 10
211.0408796799
 20
184.8456599986
 30
0.0
 11
0.0
 21
42.3829534612
 31
0.0
 40
0.9791672503
 41
-1.4651783856
 42
-1.4560870953
  0
ELLIPSE
  5
5BA
100
AcDbEntity
  8
0
100
AcDbEllipse
 62
7
  6
CONTINUOUS
 10
211.0408796799
 20
188.0796999749
 30
0.0
 11
41.5
 21
0.0
 31
0.0
 40
0.3404254913
 41
0.1147092315
 42
0.1283642802
  0
ELLIPSE
  5
5BB
100
AcDbEntity
  8
0
100
AcDbEllipse
 62
7
  6
CONTINUOUS
 10
211.0408796799
 20
169.377584259
 30
0.0
 11
-0.0
 21
127.148678496
 31
0.0
 40
0.3263895503
 41
-1.5286151533
 42
-1.524092603
  0
ELLIPSE
  5
5BC
100
AcDbEntity
  8
0
100
AcDbEllipse
 62
7
  6
CONTINUOUS
 10
211.0408796799
 20
173.3350173864
 30
0.0
 11
0.0
 21
42.3830140906
 31
0.0
 40
0.9791658496
 41
-1.524092603
 42
-1.5150445665
  0
ELLIPSE
  5
5BD
100
AcDbEntity
  8
0
100
AcDbEllipse
 62
7
  6
CONTINUOUS
 10
211.0408796799
 20
174.9094872926
 30
0.0
 11
41.5
 21
0.0
 31
0.0
 40
0.3404254913
 41
0.0557517603
 42
0.0693326336
  0
ELLIPSE
  5
5BE
100
AcDbEntity
  8
0
100
AcDbEllipse
 62
7
  6
CONTINUOUS
 10
211.0408796799
 20
170.6195920152
 30
0.0
 11
-0.0
 21
111.2553273592
 31
0.0
 40
0.3730158455
 41
-1.469720693
 42
-1.4333154535
  0
ENDSEC
  0
SECTION
  2
OBJECTS
  0
DICTIONARY
  5
C
100
AcDbDictionary
280
0
281
1
  3
ACAD_GROUP
350
D
  3
ACAD_MLINESTYLE
350
17
  3
ACAD_LAYOUT
350
1A
  3
ACAD_PLOTSETTINGS
350
19
  3
ACAD_PLOTSTYLENAME
350
E
  0
DICTIONARY
  5
D
102
{ACAD_REACTORS
330
C
102
}
100
AcDbDictionary
280
0
281
1
  0
ACDBDICTIONARYWDFLT
  5
E
102
{ACAD_REACTORS
330
C
102
}
100
AcDbDictionary
281
1
  3
Normal
350
F
100
AcDbDictionaryWithDefault
340
F
  0
DICTIONARY
  5
17
102
{ACAD_REACTORS
330
C
102
}
100
AcDbDictionary
280
0
281
1
  3
Standard
350
18
  0
DICTIONARY
  5
19
102
{ACAD_REACTORS
330
C
102
}
100
AcDbDictionary
281
1
  0
DICTIONARY
  5
1A
102
{ACAD_REACTORS
330
C
102
}
100
AcDbDictionary
281
1
  3
Model
350
5BF
  3
Layout1
350
5C0
  0
ACDBPLACEHOLDER
  5
F
102
{ACAD_REACTORS
330
E
102
}
  0
MLINESTYLE
  5
18
102
{ACAD_REACTORS
330
17
102
}
100
AcDbMlineStyle
  2
STANDARD
 70
0
  3

 62
256
 51
90.0
 52
90.0
 71
2
 49
0.5
 62
256
  6
BYLAYER
 49
-0.5
 62
256
  6
BYLAYER
  0
LAYOUT
  5
5BF
102
{ACAD_REACTORS
330
1A
102
}
100
AcDbPlotSettings
  1

  2
none_device
  4
ISO_A2_(594.00_x_420.00_MM)
  6

 40
0.0
 41
0.0
 42
0.0
 43
0.0
 44
594.0
 45
420.0
 46
0.0
 47
0.0
 48
0.0
 49
0.0
140
0.0
141
0.0
142
1.0
143
1.0
 70
1024
 72
1
 73
0
 74
0
  7

 75
0
147
1.0
148
0.0
149
0.0
100
AcDbLayout
  1
Model
 70
0
 71
0
 10
0.0
 20
0.0
 11
594.0
 21
420.0
 12
0.0
 22
0.0
 32
0.0
 14
0.0
 24
0.0
 34
0.0
 15
0.0
 25
0.0
 35
0.0
146
0.0
 13
0.0
 23
0.0
 33
0.0
 16
1.0
 26
0.0
 36
0.0
 17
0.0
 27
1.0
 37
0.0
 76
0
330
20D
345
0
346
0
  0
LAYOUT
  5
5C0
102
{ACAD_REACTORS
330
1A
102
}
100
AcDbPlotSettings
  1

  2
none_device
  4
ISO_A2_(594.00_x_420.00_MM)
  6

 40
0.0
 41
0.0
 42
0.0
 43
0.0
 44
594.0
 45
420.0
 46
0.0
 47
0.0
 48
0.0
 49
0.0
140
0.0
141
0.0
142
1.0
143
1.0
 70
0
 72
1
 73
0
 74
0
  7

 75
0
147
1.0
148
0.0
149
0.0
100
AcDbLayout
  1
Layout1
 70
0
 71
1
 10
0.0
 20
0.0
 11
594.0
 21
420.0
 12
0.0
 22
0.0
 32
0.0
 14
0.0
 24
0.0
 34
0.0
 15
0.0
 25
0.0
 35
0.0
146
0.0
 13
0.0
 23
0.0
 33
0.0
 16
1.0
 26
0.0
 36
0.0
 17
0.0
 27
1.0
 37
0.0
 76
0
330
20E
345
0
346
0
  0
ENDSEC
  0
EOF
