999
DXF file: 001-m31341-p-40.dxf
999
Pro/ENGINEER 2011490 by Parametric Technology Corporation
  0
SECTION
  2
HEADER
  9
$ACADVER
  1
AC1015
  9
$DWGCODEPAGE
  3
ANSI_1252
  9
$EXTMAX
 10
594.0
 20
420.0
 30
0.0
  9
$EXTMIN
 10
0.0
 20
0.0
 30
0.0
  9
$LIMMIN
 10
0.0
 20
0.0
  9
$LIMMAX
 10
594.0
 20
420.0
  9
$VIEWCTR
 10
297.0
 20
210.0
  9
$VIEWSIZE
 40
420.0
  9
$CLAYER
  8
0
  9
$LTSCALE
 40
32.67
  9
$CELTYPE
  6
BYLAYER
  9
$DIMSCALE
 40
1.0
  9
$DIMASZ
 40
3.5
  9
$DIMEXO
 40
3.7125
  9
$DIMDLI
 40
22.572
  9
$DIMEXE
 40
10.692
  9
$DIMCEN
 40
5.346
  9
$DIMLFAC
 40
1.0
  9
$DIMBLK
  1
_FILLED
  9
$DIMTXT
 40
3.5
  9
$DIMTOL
 70
1
  9
$DIMLIM
 70
0
  9
$DIMTFAC
 40
1.0
  9
$DIMTP
 40
0.005
  9
$DIMTM
 40
0.005
  9
$PDMODE
 70
3
  9
$PDSIZE
 40
0.3125
  9
$HANDSEED
  5
526
  9
$TILEMODE
 70
1
  9
$MEASUREMENT
 70
1
  9
$INSUNITS
 70
4
  0
ENDSEC
  0
SECTION
  2
CLASSES
  0
CLASS
  1
ACDBDICTIONARYWDFLT
  2
AcDbDictionaryWithDefault
  3
AutoCAD 2000
 90
0
280
0
281
0
  0
CLASS
  1
ACDBPLACEHOLDER
  2
AcDbPlaceHolder
  3
AutoCAD 2000
 90
0
280
0
281
0
  0
CLASS
  1
LAYOUT
  2
AcDbLayout
  3
AutoCAD 2000
 90
0
280
0
281
0
  0
ENDSEC
  0
SECTION
  2
TABLES
  0
TABLE
  2
VPORT
  5
8
100
AcDbSymbolTable
 70
2
  0
VPORT
  5
1F4
100
AcDbSymbolTableRecord
100
AcDbViewportTableRecord
  2
*ACTIVE
 70
0
 10
0.0
 20
0.0
 11
1.0
 21
1.0
 12
297.0
 22
210.0
 13
0.0
 23
0.0
 14
1.0
 24
1.0
 15
0.0
 25
0.0
 16
0.0
 26
0.0
 36
1.0
 17
0.0
 27
0.0
 37
0.0
 40
420.0
 41
1.4142857143
 42
50.0
 43
0.0
 44
0.0
 50
0.0
 51
0.0
 71
0
 72
100
 73
1
 74
1
 75
0
 76
0
 77
0
 78
0
  0
ENDTAB
  0
TABLE
  2
LTYPE
  5
5
100
AcDbSymbolTable
 70
6
  0
LTYPE
  5
14
100
AcDbSymbolTableRecord
100
AcDbLinetypeTableRecord
  2
BYBLOCK
 70
0
  3

 72
65
 73
0
 40
0.0
  0
LTYPE
  5
15
100
AcDbSymbolTableRecord
100
AcDbLinetypeTableRecord
  2
BYLAYER
 70
0
  3

 72
65
 73
0
 40
0.0
  0
LTYPE
  5
16
100
AcDbSymbolTableRecord
100
AcDbLinetypeTableRecord
  2
CONTINUOUS
 70
64
  3
Solid line
 72
65
 73
0
 40
0.0
  0
LTYPE
  5
1F5
100
AcDbSymbolTableRecord
100
AcDbLinetypeTableRecord
  2
CENTER
 70
64
  3
____ _ ____ _ ____ _ ____ _ ____ _ ____ _ ____
 72
65
 73
4
 40
0.6
 49
0.375
 74
0
 49
-0.075
 74
0
 49
0.075
 74
0
 49
-0.075
 74
0
  0
LTYPE
  5
1F6
100
AcDbSymbolTableRecord
100
AcDbLinetypeTableRecord
  2
HIDDEN
 70
64
  3
- - - - - - - - - - - - - - - - - - - -
 72
65
 73
2
 40
0.2
 49
0.1
 74
0
 49
-0.1
 74
0
  0
LTYPE
  5
1F7
100
AcDbSymbolTableRecord
100
AcDbLinetypeTableRecord
  2
PHANTOM
 70
64
  3
_____ _ _ _____ _ _ _____ _ _ _____
 72
65
 73
6
 40
0.8
 49
0.45
 74
0
 49
-0.05
 74
0
 49
0.1
 74
0
 49
-0.05
 74
0
 49
0.1
 74
0
 49
-0.05
 74
0
  0
LTYPE
  5
1F8
100
AcDbSymbolTableRecord
100
AcDbLinetypeTableRecord
  2
DOT
 70
64
  3
. . . . . . . . . . . . . . . . . . . .
 72
65
 73
2
 40
0.2
 49
0.1
 74
0
 49
-0.1
 74
0
  0
LTYPE
  5
1F9
100
AcDbSymbolTableRecord
100
AcDbLinetypeTableRecord
  2
DASHED
 70
64
  3
- - - - - - - - - - - - - - - - - - - -
 72
65
 73
2
 40
0.2
 49
0.1
 74
0
 49
-0.1
 74
0
  0
ENDTAB
  0
TABLE
  2
LAYER
  5
2
100
AcDbSymbolTable
 70
36
  0
LAYER
  5
10
100
AcDbSymbolTableRecord
100
AcDbLayerTableRecord
  2
0
 70
0
 62
7
  6
CONTINUOUS
370
-3
390
F
  0
LAYER
  5
1FA
100
AcDbSymbolTableRecord
100
AcDbLayerTableRecord
  2
DEFAULT_1
 70
0
 62
7
  6
CENTER
370
-3
390
F
  0
LAYER
  5
1FB
100
AcDbSymbolTableRecord
100
AcDbLayerTableRecord
  2
DEFAULT_2
 70
0
 62
8
  6
HIDDEN
370
-3
390
F
  0
LAYER
  5
1FC
100
AcDbSymbolTableRecord
100
AcDbLayerTableRecord
  2
DEFAULT_3
 70
0
 62
7
  6
PHANTOM
370
-3
390
F
  0
LAYER
  5
1FD
100
AcDbSymbolTableRecord
100
AcDbLayerTableRecord
  2
AUSFORMSCHRAEGEN
 70
0
 62
7
  6
CONTINUOUS
370
-3
390
F
  0
LAYER
  5
1FE
100
AcDbSymbolTableRecord
100
AcDbLayerTableRecord
  2
BEZUGSACHSEN
 70
0
 62
7
  6
CONTINUOUS
370
-3
390
F
  0
LAYER
  5
1FF
100
AcDbSymbolTableRecord
100
AcDbLayerTableRecord
  2
BEZUGSEBENEN
 70
0
 62
7
  6
CONTINUOUS
370
-3
390
F
  0
LAYER
  5
200
100
AcDbSymbolTableRecord
100
AcDbLayerTableRecord
  2
BG_STARTBEZUEGE
 70
0
 62
7
  6
CONTINUOUS
370
-3
390
F
  0
LAYER
  5
201
100
AcDbSymbolTableRecord
100
AcDbLayerTableRecord
  2
FASEN
 70
0
 62
7
  6
CONTINUOUS
370
-3
390
F
  0
LAYER
  5
202
100
AcDbSymbolTableRecord
100
AcDbLayerTableRecord
  2
HILFEN
 70
0
 62
7
  6
CONTINUOUS
370
-3
390
F
  0
LAYER
  5
203
100
AcDbSymbolTableRecord
100
AcDbLayerTableRecord
  2
KONSTRUKTIONSELEMENTE
 70
0
 62
7
  6
CONTINUOUS
370
-3
390
F
  0
LAYER
  5
204
100
AcDbSymbolTableRecord
100
AcDbLayerTableRecord
  2
NORM
 70
0
 62
7
  6
CONTINUOUS
370
-3
390
F
  0
LAYER
  5
205
100
AcDbSymbolTableRecord
100
AcDbLayerTableRecord
  2
PLATZIERUNG
 70
0
 62
7
  6
CONTINUOUS
370
-3
390
F
  0
LAYER
  5
206
100
AcDbSymbolTableRecord
100
AcDbLayerTableRecord
  2
PLAZIERUNG
 70
0
 62
7
  6
CONTINUOUS
370
-3
390
F
  0
LAYER
  5
207
100
AcDbSymbolTableRecord
100
AcDbLayerTableRecord
  2
RUNDUNGEN
 70
0
 62
7
  6
CONTINUOUS
370
-3
390
F
  0
LAYER
  5
208
100
AcDbSymbolTableRecord
100
AcDbLayerTableRecord
  2
TEIL_STARTBEZUEGE
 70
0
 62
7
  6
CONTINUOUS
370
-3
390
F
  0
LAYER
  5
209
100
AcDbSymbolTableRecord
100
AcDbLayerTableRecord
  2
T_STARTBEZUEGE
 70
0
 62
7
  6
CONTINUOUS
370
-3
390
F
  0
LAYER
  5
20A
100
AcDbSymbolTableRecord
100
AcDbLayerTableRecord
  2
ZEICHNUNGSBEMASSUNGEN
 70
0
 62
7
  6
CONTINUOUS
370
-3
390
F
  0
ENDTAB
  0
TABLE
  2
STYLE
  5
3
100
AcDbSymbolTable
 70
1
  0
STYLE
  5
11
100
AcDbSymbolTableRecord
100
AcDbTextStyleTableRecord
  2
STANDARD
 70
0
 40
0.0
 41
0.7
 50
0.0
 71
0
 42
0.2
  3
txt
  4

  0
STYLE
  5
20B
100
AcDbSymbolTableRecord
100
AcDbTextStyleTableRecord
  2
TEXTSTYLE_1
 70
0
 40
0.0
 41
0.8
 50
0.0
 71
0
 42
0.2
  3
gdt
  4

  0
ENDTAB
  0
TABLE
  2
VIEW
  5
6
100
AcDbSymbolTable
 70
0
  0
ENDTAB
  0
TABLE
  2
UCS
  5
7
100
AcDbSymbolTable
 70
0
  0
ENDTAB
  0
TABLE
  2
APPID
  5
9
100
AcDbSymbolTable
 70
1
  0
APPID
  5
20C
100
AcDbSymbolTableRecord
100
AcDbRegAppTableRecord
  2
ACAD
 70
0
  0
ENDTAB
  0
TABLE
  2
BLOCK_RECORD
  5
1
100
AcDbSymbolTable
 70
0
  0
BLOCK_RECORD
  5
20D
100
AcDbSymbolTableRecord
100
AcDbBlockTableRecord
  2
*Model_Space
  0
BLOCK_RECORD
  5
20E
100
AcDbSymbolTableRecord
100
AcDbBlockTableRecord
  2
*Paper_Space
  0
ENDTAB
  0
TABLE
  2
DIMSTYLE
  5
A
100
AcDbSymbolTable
 70
1
100
AcDbDimStyleTable
 71
0
  0
DIMSTYLE
105
20F
100
AcDbSymbolTableRecord
100
AcDbDimStyleTableRecord
  2
STANDARD
 70
0
  3

  4

 40
1.0
 41
3.5
 42
0.0625
 43
0.38
 44
0.18
 45
0.0
 46
0.0
 47
0.005
 48
0.005
140
3.5
141
0.09
142
0.0
143
25.4
144
1.0
145
0.0
146
1.0
147
0.09
 71
1.0
 72
0.0
 73
0
 74
0
 75
0
 76
0
 77
1
 78
8
170
0
171
2
172
0
173
0
174
0
175
0
176
0
177
0
178
5
270
2
271
3
272
3
273
2
274
2
275
0
280
0
281
0
282
0
283
1
284
8
285
0
286
0
287
3
288
0
340
11
  0
ENDTAB
  0
ENDSEC
  0
SECTION
  2
BLOCKS
  0
BLOCK
  5
20
100
AcDbEntity
  8
0
100
AcDbBlockBegin
  2
*Model_Space
 70
0
 10
0.0
 20
0.0
 30
0.0
  3
*Model_Space
  1

  0
ENDBLK
  5
21
100
AcDbEntity
  8
0
100
AcDbBlockEnd
  0
BLOCK
  5
1C
100
AcDbEntity
  8
0
100
AcDbBlockBegin
  2
*Paper_Space
 70
0
 10
0.0
 20
0.0
 30
0.0
  3
*Paper_Space
  1

  0
ENDBLK
  5
1D
100
AcDbEntity
  8
0
100
AcDbBlockEnd
  0
ENDSEC
  0
SECTION
  2
ENTITIES
  0
MTEXT
  5
210
100
AcDbEntity
  8
0
100
AcDbMText
 62
5
  6
CONTINUOUS
  7
STANDARD
 71
2
 72
1
 10
198.53592998
 20
67.9732479786
 30
0.0
 11
0.0
 21
1.0
 31
0.0
 44
0.9
  1
RUD WPP-B\P4t
 40
9.0
 41
70.9285714286
  0
MTEXT
  5
211
100
AcDbEntity
  8
0
100
AcDbMText
 62
5
  6
CONTINUOUS
  7
STANDARD
 71
2
 72
1
 10
359.4473239851
 20
220.2006519506
 30
0.0
 11
1.0
 21
0.0
 31
0.0
 44
0.9
  1
RUD\PWPP-B 4t
 40
8.0
 41
52.5714285714
  0
LINE
  5
212
100
AcDbEntity
  8
0
100
AcDbLine
 62
7
  6
CONTINUOUS
 10
0.0
 20
0.0
 11
0.0
 21
420.0
  0
LINE
  5
213
100
AcDbEntity
  8
0
100
AcDbLine
 62
7
  6
CONTINUOUS
 10
0.0
 20
0.0
 11
594.0
 21
0.0
  0
LINE
  5
214
100
AcDbEntity
  8
0
100
AcDbLine
 62
7
  6
CONTINUOUS
 10
0.0
 20
420.0
 11
594.0
 21
420.0
  0
LINE
  5
215
100
AcDbEntity
  8
0
100
AcDbLine
 62
7
  6
CONTINUOUS
 10
594.0
 20
0.0
 11
594.0
 21
420.0
  0
LINE
  5
216
100
AcDbEntity
  8
FASEN
100
AcDbLine
 62
7
  6
CONTINUOUS
 10
248.2093315774
 20
180.2525685129
 11
174.2093315774
 21
180.2525685129
  0
LINE
  5
217
100
AcDbEntity
  8
FASEN
100
AcDbLine
 62
7
  6
CONTINUOUS
 10
251.2093315774
 20
183.2525685129
 11
171.2093315774
 21
183.2525685129
  0
LINE
  5
218
100
AcDbEntity
  8
FASEN
100
AcDbLine
 62
7
  6
CONTINUOUS
 10
174.2093315774
 20
180.2525685129
 11
171.2093315774
 21
183.2525685129
  0
LINE
  5
219
100
AcDbEntity
  8
0
100
AcDbLine
 62
7
  6
CONTINUOUS
 10
194.397510127
 20
357.749396461
 11
193.8162068635
 21
357.4867015279
  0
LINE
  5
21A
100
AcDbEntity
  8
0
100
AcDbLine
 62
7
  6
CONTINUOUS
 10
199.9781915635
 20
360.7682440279
 11
197.2122533652
 21
359.6065272451
  0
LINE
  5
21B
100
AcDbEntity
  8
0
100
AcDbLine
 62
7
  6
CONTINUOUS
 10
198.1509116689
 20
359.308459022
 11
200.3406129623
 21
360.2281515673
  0
LINE
  5
21C
100
AcDbEntity
  8
0
100
AcDbLine
 62
7
  6
CONTINUOUS
 10
201.0821343631
 20
358.4626589811
 11
198.8924330696
 21
357.5429664357
  0
LINE
  5
21D
100
AcDbEntity
  8
0
100
AcDbLine
 62
7
  6
CONTINUOUS
 10
194.291453227
 20
357.0426407879
 11
194.6701506128
 21
357.1588744023
  0
LINE
  5
21E
100
AcDbEntity
  8
FASEN
100
AcDbLine
 62
7
  6
CONTINUOUS
 10
171.2093315774
 20
192.7525685129
 11
251.2093315774
 21
192.7525685129
  0
LINE
  5
21F
100
AcDbEntity
  8
FASEN
100
AcDbLine
 62
7
  6
CONTINUOUS
 10
171.7093315774
 20
193.2525685129
 11
250.7093315774
 21
193.2525685129
  0
LINE
  5
220
100
AcDbEntity
  8
0
100
AcDbLine
 62
7
  6
CONTINUOUS
 10
193.8162068635
 20
357.4867015279
 11
191.3849374889
 21
355.7291665416
  0
LINE
  5
221
100
AcDbEntity
  8
0
100
AcDbLine
 62
7
  6
CONTINUOUS
 10
192.3666984021
 20
355.6512589936
 11
194.291453227
 21
357.0426407879
  0
LINE
  5
222
100
AcDbEntity
  8
0
100
AcDbLine
 62
7
  6
CONTINUOUS
 10
195.4132841452
 20
355.4907666142
 11
193.4885293202
 21
354.0993848198
  0
LINE
  5
223
100
AcDbEntity
  8
0
100
AcDbLine
 62
7
  6
CONTINUOUS
 10
193.9372616037
 20
353.4786352663
 11
195.7607136346
 21
354.7967865061
  0
LINE
  5
224
100
AcDbEntity
  8
0
100
AcDbLine
 62
7
  6
CONTINUOUS
 10
201.2634952233
 20
357.7080571202
 11
201.7902973773
 21
358.0677808414
  0
LINE
  5
225
100
AcDbEntity
  8
0
100
AcDbLine
 62
7
  6
CONTINUOUS
 10
199.1890415746
 20
356.8367695331
 11
201.2634952233
 21
357.7080571202
  0
LINE
  5
226
100
AcDbEntity
  8
0
100
AcDbLine
 62
7
  6
CONTINUOUS
 10
199.5356869307
 20
354.0746508486
 11
200.2271714803
 21
354.3650800443
  0
LINE
  5
227
100
AcDbEntity
  8
0
100
AcDbLine
 62
7
  6
CONTINUOUS
 10
241.7216241822
 20
195.2525685129
 11
242.4392626332
 21
195.2525685129
  0
LINE
  5
228
100
AcDbEntity
  8
0
100
AcDbLine
 62
7
  6
CONTINUOUS
 10
244.2623045668
 20
195.2525685129
 11
244.7298331165
 21
195.2525685129
  0
LINE
  5
229
100
AcDbEntity
  8
0
100
AcDbLine
 62
7
  6
CONTINUOUS
 10
245.2093315774
 20
197.4866110233
 11
245.3679688889
 21
197.4866110233
  0
LINE
  5
22A
100
AcDbEntity
  8
0
100
AcDbLine
 62
7
  6
CONTINUOUS
 10
245.1964040278
 20
197.9653343705
 11
245.4593314888
 21
197.9653343705
  0
LINE
  5
22B
100
AcDbEntity
  8
0
100
AcDbLine
 62
7
  6
CONTINUOUS
 10
245.1985158635
 20
198.6036323903
 11
244.7298331165
 21
198.6036323903
  0
LINE
  5
22C
100
AcDbEntity
  8
0
100
AcDbLine
 62
7
  6
CONTINUOUS
 10
243.5589838166
 20
198.6036323903
 11
242.4392626332
 21
198.6036323903
  0
LINE
  5
22D
100
AcDbEntity
  8
0
100
AcDbLine
 62
7
  6
CONTINUOUS
 10
245.2863926552
 20
198.7632068393
 11
245.4593314888
 21
198.7632068393
  0
LINE
  5
22E
100
AcDbEntity
  8
0
100
AcDbLine
 62
7
  6
CONTINUOUS
 10
245.2175452348
 20
199.5610790847
 11
244.7298331165
 21
199.5610790847
  0
LINE
  5
22F
100
AcDbEntity
  8
0
100
AcDbLine
 62
7
  6
CONTINUOUS
 10
243.6128993999
 20
199.5610790847
 11
242.4392626332
 21
199.5610790847
  0
LINE
  5
230
100
AcDbEntity
  8
0
100
AcDbLine
 62
7
  6
CONTINUOUS
 10
243.5065353547
 20
199.7206535337
 11
243.7696121633
 21
199.7206535337
  0
LINE
  5
231
100
AcDbEntity
  8
0
100
AcDbLine
 62
7
  6
CONTINUOUS
 10
245.0188711051
 20
199.7206535337
 11
245.270269073
 21
199.7206535337
  0
LINE
  5
232
100
AcDbEntity
  8
0
100
AcDbLine
 62
7
  6
CONTINUOUS
 10
243.6076701729
 20
200.0398024318
 11
243.8699323641
 21
200.0398024318
  0
LINE
  5
233
100
AcDbEntity
  8
0
100
AcDbLine
 62
7
  6
CONTINUOUS
 10
245.0506288108
 20
200.0398024318
 11
245.3017925979
 21
200.0398024318
  0
LINE
  5
234
100
AcDbEntity
  8
0
100
AcDbLine
 62
7
  6
CONTINUOUS
 10
201.3784418871
 20
358.7255730627
 11
201.0821343631
 21
358.4626589811
  0
LINE
  5
235
100
AcDbEntity
  8
0
100
AcDbLine
 62
7
  6
CONTINUOUS
 10
194.9000074616
 20
350.8666277924
 11
195.5078248052
 21
351.306011539
  0
LINE
  5
236
100
AcDbEntity
  8
0
100
AcDbLine
 62
7
  6
CONTINUOUS
 10
228.2353584749
 20
354.3430950215
 11
228.8314069408
 21
354.5578102641
  0
LINE
  5
237
100
AcDbEntity
  8
0
100
AcDbLine
 62
7
  6
CONTINUOUS
 10
226.7402525258
 20
352.1178713043
 11
227.3363010167
 21
352.3325865839
  0
LINE
  5
238
100
AcDbEntity
  8
0
100
AcDbLine
 62
7
  6
CONTINUOUS
 10
243.6569907057
 20
200.518525779
 11
243.9188574515
 21
200.518525779
  0
LINE
  5
239
100
AcDbEntity
  8
0
100
AcDbLine
 62
7
  6
CONTINUOUS
 10
245.065414884
 20
200.518525779
 11
245.3164697872
 21
200.518525779
  0
LINE
  5
23A
100
AcDbEntity
  8
0
100
AcDbLine
 62
7
  6
CONTINUOUS
 10
243.6569907057
 20
200.9972495733
 11
243.9188574515
 21
200.9972495733
  0
LINE
  5
23B
100
AcDbEntity
  8
0
100
AcDbLine
 62
7
  6
CONTINUOUS
 10
245.065414884
 20
200.9972495733
 11
245.3164697872
 21
200.9972495733
  0
LINE
  5
23C
100
AcDbEntity
  8
0
100
AcDbLine
 62
7
  6
CONTINUOUS
 10
243.6076701729
 20
201.4759729204
 11
243.8699323641
 21
201.4759729204
  0
LINE
  5
23D
100
AcDbEntity
  8
0
100
AcDbLine
 62
7
  6
CONTINUOUS
 10
245.0506288108
 20
201.4759729204
 11
245.3017925979
 21
201.4759729204
  0
LINE
  5
23E
100
AcDbEntity
  8
0
100
AcDbLine
 62
7
  6
CONTINUOUS
 10
243.5065353547
 20
201.7951218186
 11
243.7696121633
 21
201.7951218186
  0
LINE
  5
23F
100
AcDbEntity
  8
0
100
AcDbLine
 62
7
  6
CONTINUOUS
 10
245.0188711051
 20
201.7951218186
 11
245.270269073
 21
201.7951218186
  0
LINE
  5
240
100
AcDbEntity
  8
0
100
AcDbLine
 62
7
  6
CONTINUOUS
 10
245.2175452348
 20
201.9546962676
 11
244.7298331165
 21
201.9546962676
  0
LINE
  5
241
100
AcDbEntity
  8
0
100
AcDbLine
 62
7
  6
CONTINUOUS
 10
243.6128993999
 20
201.9546962676
 11
242.4392626332
 21
201.9546962676
  0
LINE
  5
242
100
AcDbEntity
  8
0
100
AcDbLine
 62
7
  6
CONTINUOUS
 10
241.7216241822
 20
202.7525685129
 11
243.5589838166
 21
202.7525685129
  0
LINE
  5
243
100
AcDbEntity
  8
0
100
AcDbLine
 62
7
  6
CONTINUOUS
 10
244.2623045668
 20
202.7525685129
 11
245.1985158635
 21
202.7525685129
  0
LINE
  5
244
100
AcDbEntity
  8
0
100
AcDbLine
 62
7
  6
CONTINUOUS
 10
243.7054851959
 20
206.2525685129
 11
244.2386154593
 21
206.2525685129
  0
LINE
  5
245
100
AcDbEntity
  8
0
100
AcDbLine
 62
7
  6
CONTINUOUS
 10
244.8160732284
 20
206.2525685129
 11
245.4579059063
 21
206.2525685129
  0
LINE
  5
246
100
AcDbEntity
  8
0
100
AcDbLine
 62
7
  6
CONTINUOUS
 10
245.2099189094
 20
206.412142976
 11
245.4418630487
 21
206.412142976
  0
LINE
  5
247
100
AcDbEntity
  8
0
100
AcDbLine
 62
7
  6
CONTINUOUS
 10
245.1946662934
 20
206.731291916
 11
245.4161788073
 21
206.731291916
  0
LINE
  5
248
100
AcDbEntity
  8
0
100
AcDbLine
 62
7
  6
CONTINUOUS
 10
195.7607136346
 20
354.7967865061
 11
196.1924394703
 21
355.266397957
  0
LINE
  5
249
100
AcDbEntity
  8
0
100
AcDbLine
 62
7
  6
CONTINUOUS
 10
214.2102545201
 20
362.749356241
 11
210.9387519432
 21
359.5590961527
  0
LINE
  5
24A
100
AcDbEntity
  8
0
100
AcDbLine
 62
7
  6
CONTINUOUS
 10
211.8108279402
 20
359.4876285308
 11
214.1268393879
 21
361.73149203
  0
LINE
  5
24B
100
AcDbEntity
  8
0
100
AcDbLine
 62
7
  6
CONTINUOUS
 10
245.4593315774
 20
207.2100153191
 11
245.4579059063
 21
207.2100153191
  0
LINE
  5
24C
100
AcDbEntity
  8
0
100
AcDbLine
 62
7
  6
CONTINUOUS
 10
245.1633681011
 20
207.3695897681
 11
245.3790453212
 21
207.3695897681
  0
LINE
  5
24D
100
AcDbEntity
  8
0
100
AcDbLine
 62
7
  6
CONTINUOUS
 10
245.1302882574
 20
208.0078876761
 11
245.3561738432
 21
208.0078876761
  0
LINE
  5
24E
100
AcDbEntity
  8
0
100
AcDbLine
 62
7
  6
CONTINUOUS
 10
245.0928060585
 20
208.8057599215
 11
245.3436595027
 21
208.8057599215
  0
LINE
  5
24F
100
AcDbEntity
  8
0
100
AcDbLine
 62
7
  6
CONTINUOUS
 10
244.8548730351
 20
209.6036323903
 11
244.2386154593
 21
209.6036323903
  0
LINE
  5
250
100
AcDbEntity
  8
0
100
AcDbLine
 62
7
  6
CONTINUOUS
 10
244.9128730697
 20
210.5610790847
 11
244.2386154593
 21
210.5610790847
  0
LINE
  5
251
100
AcDbEntity
  8
0
100
AcDbLine
 62
7
  6
CONTINUOUS
 10
244.7407999813
 20
210.7206535337
 11
244.9942671748
 21
210.7206535337
  0
LINE
  5
252
100
AcDbEntity
  8
0
100
AcDbLine
 62
7
  6
CONTINUOUS
 10
244.7917279146
 20
211.0398024318
 11
245.0448136007
 21
211.0398024318
  0
LINE
  5
253
100
AcDbEntity
  8
0
100
AcDbLine
 62
7
  6
CONTINUOUS
 10
244.8160732284
 20
211.518525779
 11
245.0689769447
 21
211.518525779
  0
LINE
  5
254
100
AcDbEntity
  8
0
100
AcDbLine
 62
7
  6
CONTINUOUS
 10
244.8160732284
 20
211.9972495733
 11
245.0689769447
 21
211.9972495733
  0
LINE
  5
255
100
AcDbEntity
  8
0
100
AcDbLine
 62
7
  6
CONTINUOUS
 10
244.7917279146
 20
212.4759729204
 11
245.0448136007
 21
212.4759729204
  0
LINE
  5
256
100
AcDbEntity
  8
0
100
AcDbLine
 62
7
  6
CONTINUOUS
 10
244.7407999813
 20
212.7951218186
 11
244.9942671748
 21
212.7951218186
  0
LINE
  5
257
100
AcDbEntity
  8
0
100
AcDbLine
 62
7
  6
CONTINUOUS
 10
244.9128730697
 20
212.9546962676
 11
244.2386154593
 21
212.9546962676
  0
LINE
  5
258
100
AcDbEntity
  8
0
100
AcDbLine
 62
7
  6
CONTINUOUS
 10
243.7054851959
 20
213.7525685129
 11
244.8842480583
 21
213.7525685129
  0
LINE
  5
259
100
AcDbEntity
  8
0
100
AcDbLine
 62
7
  6
CONTINUOUS
 10
245.0928060585
 20
213.7525685129
 11
245.40797009
 21
213.7525685129
  0
LINE
  5
25A
100
AcDbEntity
  8
0
100
AcDbLine
 62
7
  6
CONTINUOUS
 10
195.6424041031
 20
355.8139167464
 11
195.4132841452
 21
355.4907666142
  0
LINE
  5
25B
100
AcDbEntity
  8
0
100
AcDbLine
 62
7
  6
CONTINUOUS
 10
201.7902973773
 20
358.0677808414
 11
202.1029830443
 21
358.6144988488
  0
LINE
  5
25C
100
AcDbEntity
  8
0
100
AcDbLine
 62
7
  6
CONTINUOUS
 10
182.2843315774
 20
313.2806535039
 11
181.9926647716
 21
312.982781199
  0
LINE
  5
25D
100
AcDbEntity
  8
0
100
AcDbLine
 62
7
  6
CONTINUOUS
 10
228.5974124287
 20
355.330223227
 11
228.2800696266
 21
355.082046975
  0
LINE
  5
25E
100
AcDbEntity
  8
0
100
AcDbLine
 62
7
  6
CONTINUOUS
 10
228.8314069408
 20
354.5578102641
 11
229.1487497428
 21
354.8059865161
  0
LINE
  5
25F
100
AcDbEntity
  8
0
100
AcDbLine
 62
7
  6
CONTINUOUS
 10
227.1023065544
 20
353.1049996211
 11
226.7849637524
 21
352.8568233691
  0
LINE
  5
260
100
AcDbEntity
  8
0
100
AcDbLine
 62
7
  6
CONTINUOUS
 10
227.3363010167
 20
352.3325865839
 11
227.6536438685
 21
352.5807629101
  0
LINE
  5
261
100
AcDbEntity
  8
0
100
AcDbLine
 62
7
  6
CONTINUOUS
 10
182.1384983831
 20
312.2381004367
 11
182.7218315774
 21
312.5359727416
  0
LINE
  5
262
100
AcDbEntity
  8
FASEN
100
AcDbLine
 62
7
  6
CONTINUOUS
 10
171.2093315774
 20
183.2525685129
 11
171.2093315774
 21
192.7525685129
  0
LINE
  5
263
100
AcDbEntity
  8
KONSTRUKTIONSELEMENTE
100
AcDbLine
 62
7
  6
CONTINUOUS
 10
171.2093315774
 20
183.2525685129
 11
171.2093315774
 21
192.7525685129
  0
LINE
  5
264
100
AcDbEntity
  8
0
100
AcDbLine
 62
7
  6
CONTINUOUS
 10
201.5100670155
 20
359.0577816698
 11
201.3784418871
 21
358.7255730627
  0
LINE
  5
265
100
AcDbEntity
  8
0
100
AcDbLine
 62
7
  6
CONTINUOUS
 10
182.7218315774
 20
312.5359727416
 11
183.1593315774
 21
313.1317173515
  0
LINE
  5
266
100
AcDbEntity
  8
0
100
AcDbLine
 62
7
  6
CONTINUOUS
 10
181.9926647716
 20
312.982781199
 11
181.5551647716
 21
312.8338450465
  0
LINE
  5
267
100
AcDbEntity
  8
RUNDUNGEN
100
AcDbLine
 62
7
  6
CONTINUOUS
 10
242.2093315774
 20
229.2525685129
 11
231.2093311221
 21
229.2525685129
  0
LINE
  5
268
100
AcDbEntity
  8
RUNDUNGEN
100
AcDbLine
 62
7
  6
CONTINUOUS
 10
191.2093315774
 20
229.2525685129
 11
180.2093315774
 21
229.2525685129
  0
LINE
  5
269
100
AcDbEntity
  8
0
100
AcDbLine
 62
7
  6
CONTINUOUS
 10
177.2093315774
 20
226.2525685129
 11
177.2093315774
 21
193.2525685129
  0
LINE
  5
26A
100
AcDbEntity
  8
0
100
AcDbLine
 62
7
  6
CONTINUOUS
 10
177.9093315774
 20
315.8125685129
 11
177.9093315774
 21
308.8125685129
  0
LINE
  5
26B
100
AcDbEntity
  8
0
100
AcDbLine
 62
7
  6
CONTINUOUS
 10
177.9093315774
 20
307.8125685129
 11
177.9093315774
 21
303.1955471609
  0
LINE
  5
26C
100
AcDbEntity
  8
0
100
AcDbLine
 62
7
  6
CONTINUOUS
 10
177.9093315774
 20
299.8125685129
 11
177.9093315774
 21
292.8125685129
  0
LINE
  5
26D
100
AcDbEntity
  8
0
100
AcDbLine
 62
7
  6
CONTINUOUS
 10
182.2843315774
 20
303.1955471609
 11
182.1384983831
 21
302.5998025511
  0
LINE
  5
26E
100
AcDbEntity
  8
0
100
AcDbLine
 62
7
  6
CONTINUOUS
 10
196.1924394703
 20
355.266397957
 11
196.3732847944
 21
355.8696951616
  0
LINE
  5
26F
100
AcDbEntity
  8
0
100
AcDbLine
 62
7
  6
CONTINUOUS
 10
182.4301647716
 20
313.7274619613
 11
182.2843315774
 21
313.2806535039
  0
LINE
  5
270
100
AcDbEntity
  8
0
100
AcDbLine
 62
7
  6
CONTINUOUS
 10
183.1593315774
 20
313.1317173515
 11
183.3051647716
 21
313.5785258088
  0
LINE
  5
271
100
AcDbEntity
  8
0
100
AcDbLine
 62
7
  6
CONTINUOUS
 10
182.7218315774
 20
301.8551216845
 11
183.0134983831
 21
302.4508663986
  0
LINE
  5
272
100
AcDbEntity
  8
0
100
AcDbLine
 62
7
  6
CONTINUOUS
 10
183.3051647716
 20
293.8551216845
 11
183.5968315774
 21
294.4508663986
  0
LINE
  5
273
100
AcDbEntity
  8
0
100
AcDbLine
 62
7
  6
CONTINUOUS
 10
182.1384983831
 20
302.5998025511
 11
181.8468315774
 21
302.1529940937
  0
LINE
  5
274
100
AcDbEntity
  8
0
100
AcDbLine
 62
7
  6
CONTINUOUS
 10
182.7218315774
 20
294.5998025511
 11
182.4301647716
 21
294.1529940937
  0
LINE
  5
275
100
AcDbEntity
  8
0
100
AcDbLine
 62
7
  6
CONTINUOUS
 10
226.3777294123
 20
358.9747870881
 11
223.031539899
 21
353.9945244704
  0
LINE
  5
276
100
AcDbEntity
  8
0
100
AcDbLine
 62
7
  6
CONTINUOUS
 10
224.0812458545
 20
354.2120289862
 11
225.1491787002
 21
355.8014745356
  0
LINE
  5
277
100
AcDbEntity
  8
0
100
AcDbLine
 62
7
  6
CONTINUOUS
 10
225.5763517786
 20
356.4372526663
 11
226.573089161
 21
357.9207352682
  0
LINE
  5
278
100
AcDbEntity
  8
0
100
AcDbLine
 62
7
  6
CONTINUOUS
 10
182.1384983831
 20
301.2593770225
 11
182.7218315774
 21
301.8551216845
  0
LINE
  5
279
100
AcDbEntity
  8
0
100
AcDbLine
 62
7
  6
CONTINUOUS
 10
182.7218315774
 20
293.2593770225
 11
183.3051647716
 21
293.8551216845
  0
LINE
  5
27A
100
AcDbEntity
  8
0
100
AcDbLine
 62
7
  6
CONTINUOUS
 10
181.8468315774
 20
302.1529940937
 11
181.4093315774
 21
301.8551216845
  0
LINE
  5
27B
100
AcDbEntity
  8
0
100
AcDbLine
 62
7
  6
CONTINUOUS
 10
181.5551647716
 20
300.9615046784
 11
182.1384983831
 21
301.2593770225
  0
LINE
  5
27C
100
AcDbEntity
  8
0
100
AcDbLine
 62
7
  6
CONTINUOUS
 10
196.2093315774
 20
239.1025685129
 11
195.7093315774
 21
239.1025685129
  0
LINE
  5
27D
100
AcDbEntity
  8
0
100
AcDbLine
 62
7
  6
CONTINUOUS
 10
196.2093315774
 20
240.7692352293
 11
195.7093315774
 21
240.7692352293
  0
LINE
  5
27E
100
AcDbEntity
  8
0
100
AcDbLine
 62
7
  6
CONTINUOUS
 10
178.7843315774
 20
293.706185532
 11
178.7843315774
 21
298.9189515982
  0
LINE
  5
27F
100
AcDbEntity
  8
0
100
AcDbLine
 62
7
  6
CONTINUOUS
 10
178.7843315774
 20
303.1955471609
 11
178.7843315774
 21
307.8125685129
  0
LINE
  5
280
100
AcDbEntity
  8
0
100
AcDbLine
 62
7
  6
CONTINUOUS
 10
178.7843315774
 20
308.8125685129
 11
178.7843315774
 21
311.9402281318
  0
LINE
  5
281
100
AcDbEntity
  8
0
100
AcDbLine
 62
7
  6
CONTINUOUS
 10
178.7843315774
 20
312.8338450465
 11
178.7843315774
 21
315.0678877506
  0
LINE
  5
282
100
AcDbEntity
  8
0
100
AcDbLine
 62
7
  6
CONTINUOUS
 10
182.2843315774
 20
307.8125685129
 11
182.2843315774
 21
303.1955471609
  0
LINE
  5
283
100
AcDbEntity
  8
0
100
AcDbLine
 62
7
  6
CONTINUOUS
 10
182.4301647716
 20
314.1742708359
 11
182.4301647716
 21
313.7274619613
  0
LINE
  5
284
100
AcDbEntity
  8
0
100
AcDbLine
 62
7
  6
CONTINUOUS
 10
182.8676647716
 20
297.4295896564
 11
182.8676647716
 21
295.1955471609
  0
LINE
  5
285
100
AcDbEntity
  8
0
100
AcDbLine
 62
7
  6
CONTINUOUS
 10
183.1593315774
 20
303.1955471609
 11
183.1593315774
 21
307.8125685129
  0
LINE
  5
286
100
AcDbEntity
  8
0
100
AcDbLine
 62
7
  6
CONTINUOUS
 10
183.3051647716
 20
313.5785258088
 11
183.3051647716
 21
314.1742708359
  0
LINE
  5
287
100
AcDbEntity
  8
0
100
AcDbLine
 62
7
  6
CONTINUOUS
 10
183.7426647716
 20
295.1955471609
 11
183.7426647716
 21
297.4295896564
  0
LINE
  5
288
100
AcDbEntity
  8
0
100
AcDbLine
 62
7
  6
CONTINUOUS
 10
195.6954325531
 20
356.167294583
 11
195.6424041031
 21
355.8139167464
  0
LINE
  5
289
100
AcDbEntity
  8
0
100
AcDbLine
 62
7
  6
CONTINUOUS
 10
183.0134983831
 20
302.4508663986
 11
183.1593315774
 21
303.1955471609
  0
LINE
  5
28A
100
AcDbEntity
  8
0
100
AcDbLine
 62
7
  6
CONTINUOUS
 10
183.5968315774
 20
294.4508663986
 11
183.7426647716
 21
295.1955471609
  0
LINE
  5
28B
100
AcDbEntity
  8
0
100
AcDbLine
 62
7
  6
CONTINUOUS
 10
202.1029830443
 20
358.6144988488
 11
202.2509863159
 21
359.2305113817
  0
LINE
  5
28C
100
AcDbEntity
  8
0
100
AcDbLine
 62
7
  6
CONTINUOUS
 10
182.8676647716
 20
295.1955471609
 11
182.7218315774
 21
294.5998025511
  0
LINE
  5
28D
100
AcDbEntity
  8
0
100
AcDbLine
 62
7
  6
CONTINUOUS
 10
228.7398034548
 20
355.5421492706
 11
228.5974124287
 21
355.330223227
  0
LINE
  5
28E
100
AcDbEntity
  8
0
100
AcDbLine
 62
7
  6
CONTINUOUS
 10
227.3158930936
 20
353.4228886864
 11
227.1023065544
 21
353.1049996211
  0
LINE
  5
28F
100
AcDbEntity
  8
0
100
AcDbLine
 62
7
  6
CONTINUOUS
 10
227.6536438685
 20
352.5807629101
 11
228.0096214339
 21
353.1105780191
  0
LINE
  5
290
100
AcDbEntity
  8
0
100
AcDbLine
 62
7
  6
CONTINUOUS
 10
229.1487497428
 20
354.8059865161
 11
229.4335319945
 21
355.2298389001
  0
LINE
  5
291
100
AcDbEntity
  8
0
100
AcDbLine
 62
7
  6
CONTINUOUS
 10
182.4301647716
 20
294.1529940937
 11
181.9926647716
 21
293.8551216845
  0
LINE
  5
292
100
AcDbEntity
  8
0
100
AcDbLine
 62
7
  6
CONTINUOUS
 10
182.1384983831
 20
292.9615046784
 11
182.7218315774
 21
293.2593770225
  0
LINE
  5
293
100
AcDbEntity
  8
0
100
AcDbLine
 62
7
  6
CONTINUOUS
 10
196.2093315774
 20
241.6025685129
 11
195.7093315774
 21
241.6025685129
  0
LINE
  5
294
100
AcDbEntity
  8
0
100
AcDbLine
 62
7
  6
CONTINUOUS
 10
196.2093315774
 20
243.2692350803
 11
195.7093315774
 21
243.2692350803
  0
LINE
  5
295
100
AcDbEntity
  8
0
100
AcDbLine
 62
7
  6
CONTINUOUS
 10
196.2093315774
 20
244.1025685129
 11
195.7093315774
 21
244.1025685129
  0
LINE
  5
296
100
AcDbEntity
  8
0
100
AcDbLine
 62
7
  6
CONTINUOUS
 10
195.8113762171
 20
244.7275685129
 11
195.7093315774
 21
244.7275685129
  0
LINE
  5
297
100
AcDbEntity
  8
0
100
AcDbLine
 62
7
  6
CONTINUOUS
 10
196.2093315774
 20
245.7955199733
 11
195.7093315774
 21
245.7955199733
  0
LINE
  5
298
100
AcDbEntity
  8
FASEN
100
AcDbLine
 62
7
  6
CONTINUOUS
 10
250.7093315773
 20
193.252568513
 11
251.2093315773
 21
192.752568513
  0
LINE
  5
299
100
AcDbEntity
  8
0
100
AcDbLine
 62
7
  6
CONTINUOUS
 10
177.9093315774
 20
303.1955471609
 11
178.0551649151
 21
302.4508663986
  0
LINE
  5
29A
100
AcDbEntity
  8
0
100
AcDbLine
 62
7
  6
CONTINUOUS
 10
221.6550175059
 20
357.6538934812
 11
221.3918014201
 21
357.0723940425
  0
LINE
  5
29B
100
AcDbEntity
  8
0
100
AcDbLine
 62
7
  6
CONTINUOUS
 10
222.9860805288
 20
356.3507426036
 11
223.2492966145
 21
356.9322420422
  0
LINE
  5
29C
100
AcDbEntity
  8
0
100
AcDbLine
 62
7
  6
CONTINUOUS
 10
196.2093315774
 20
249.0955199733
 11
195.7093315774
 21
249.0955199733
  0
LINE
  5
29D
100
AcDbEntity
  8
0
100
AcDbLine
 62
7
  6
CONTINUOUS
 10
196.2093315774
 20
250.8955199733
 11
195.7093315774
 21
250.8955199733
  0
LINE
  5
29E
100
AcDbEntity
  8
0
100
AcDbLine
 62
7
  6
CONTINUOUS
 10
196.2093315774
 20
254.1955199733
 11
195.7093315774
 21
254.1955199733
  0
LINE
  5
29F
100
AcDbEntity
  8
0
100
AcDbLine
 62
7
  6
CONTINUOUS
 10
178.9301648759
 20
302.5998025511
 11
178.7843315774
 21
303.1955471609
  0
LINE
  5
2A0
100
AcDbEntity
  8
0
100
AcDbLine
 62
7
  6
CONTINUOUS
 10
182.7218315774
 20
298.0253342662
 11
182.8676647716
 21
297.4295896564
  0
LINE
  5
2A1
100
AcDbEntity
  8
0
100
AcDbLine
 62
7
  6
CONTINUOUS
 10
183.7426647716
 20
297.4295896564
 11
183.5968315774
 21
298.1742708359
  0
LINE
  5
2A2
100
AcDbEntity
  8
0
100
AcDbLine
 62
7
  6
CONTINUOUS
 10
195.7093315774
 20
239.1025685129
 11
195.7093315774
 21
243.2692350803
  0
LINE
  5
2A3
100
AcDbEntity
  8
0
100
AcDbLine
 62
7
  6
CONTINUOUS
 10
195.7093315774
 20
244.1025685129
 11
195.7093315774
 21
244.7275685129
  0
LINE
  5
2A4
100
AcDbEntity
  8
0
100
AcDbLine
 62
7
  6
CONTINUOUS
 10
195.7093315774
 20
245.7958253637
 11
195.7093315774
 21
249.0955199733
  0
LINE
  5
2A5
100
AcDbEntity
  8
0
100
AcDbLine
 62
7
  6
CONTINUOUS
 10
195.7093315774
 20
250.8958253637
 11
195.7093315774
 21
254.1955199733
  0
LINE
  5
2A6
100
AcDbEntity
  8
RUNDUNGEN
100
AcDbLine
 62
7
  6
CONTINUOUS
 10
196.2093315774
 20
263.2525685129
 11
196.2093315774
 21
234.2526131915
  0
LINE
  5
2A7
100
AcDbEntity
  8
0
100
AcDbLine
 62
7
  6
CONTINUOUS
 10
196.3732847944
 20
355.8696951616
 11
196.3780386106
 21
356.5032200706
  0
LINE
  5
2A8
100
AcDbEntity
  8
0
100
AcDbLine
 62
7
  6
CONTINUOUS
 10
217.8374541816
 20
360.24274036
 11
217.6940361095
 21
359.7526560145
  0
LINE
  5
2A9
100
AcDbEntity
  8
0
100
AcDbLine
 62
7
  6
CONTINUOUS
 10
219.0840381352
 20
360.9420492373
 11
218.7972018906
 21
359.9618802031
  0
LINE
  5
2AA
100
AcDbEntity
  8
0
100
AcDbLine
 62
7
  6
CONTINUOUS
 10
218.6537838185
 20
359.4717958577
 11
217.9366933828
 21
357.0213738728
  0
LINE
  5
2AB
100
AcDbEntity
  8
0
100
AcDbLine
 62
7
  6
CONTINUOUS
 10
218.6082471647
 20
357.0908778303
 11
219.2536285393
 21
359.2962575566
  0
LINE
  5
2AC
100
AcDbEntity
  8
0
100
AcDbLine
 62
7
  6
CONTINUOUS
 10
219.3970466114
 20
359.786341902
 11
219.683882856
 21
360.7665109362
  0
LINE
  5
2AD
100
AcDbEntity
  8
0
100
AcDbLine
 62
7
  6
CONTINUOUS
 10
219.3294191366
 20
355.5496988172
 11
219.4728372212
 21
356.0397832056
  0
LINE
  5
2AE
100
AcDbEntity
  8
0
100
AcDbLine
 62
7
  6
CONTINUOUS
 10
220.5732819824
 20
358.9100747405
 11
220.7167000545
 21
359.400159086
  0
LINE
  5
2AF
100
AcDbEntity
  8
0
100
AcDbLine
 62
7
  6
CONTINUOUS
 10
178.0551649151
 20
302.4508663986
 11
178.3468315774
 21
301.8551216845
  0
LINE
  5
2B0
100
AcDbEntity
  8
0
100
AcDbLine
 62
7
  6
CONTINUOUS
 10
183.5968315774
 20
298.1742708359
 11
183.3051647716
 21
298.7700154457
  0
LINE
  5
2B1
100
AcDbEntity
  8
0
100
AcDbLine
 62
7
  6
CONTINUOUS
 10
183.4509983831
 20
308.8125685129
 11
182.1384983831
 21
312.2381004367
  0
LINE
  5
2B2
100
AcDbEntity
  8
0
100
AcDbLine
 62
7
  6
CONTINUOUS
 10
181.2634981745
 20
311.9402281318
 11
182.4301647716
 21
308.8125685129
  0
LINE
  5
2B3
100
AcDbEntity
  8
0
100
AcDbLine
 62
7
  6
CONTINUOUS
 10
182.2843315774
 20
314.6210792933
 11
182.4301647716
 21
314.1742708359
  0
LINE
  5
2B4
100
AcDbEntity
  8
0
100
AcDbLine
 62
7
  6
CONTINUOUS
 10
183.3051647716
 20
314.1742708359
 11
183.1593315774
 21
314.6210792933
  0
LINE
  5
2B5
100
AcDbEntity
  8
0
100
AcDbLine
 62
7
  6
CONTINUOUS
 10
210.9387519432
 20
359.5590961527
 11
210.8761905793
 21
358.7956978163
  0
LINE
  5
2B6
100
AcDbEntity
  8
0
100
AcDbLine
 62
7
  6
CONTINUOUS
 10
227.4257234698
 20
353.8104907136
 11
227.3158930936
 21
353.4228886864
  0
LINE
  5
2B7
100
AcDbEntity
  8
0
100
AcDbLine
 62
7
  6
CONTINUOUS
 10
179.2218315774
 20
302.1529940937
 11
178.9301648759
 21
302.5998025511
  0
LINE
  5
2B8
100
AcDbEntity
  8
0
100
AcDbLine
 62
7
  6
CONTINUOUS
 10
182.4301647716
 20
298.4721431408
 11
182.7218315774
 21
298.0253342662
  0
LINE
  5
2B9
100
AcDbEntity
  8
0
100
AcDbLine
 62
7
  6
CONTINUOUS
 10
201.4770104077
 20
359.4592850794
 11
201.5100670155
 21
359.0577816698
  0
LINE
  5
2BA
100
AcDbEntity
  8
0
100
AcDbLine
 62
7
  6
CONTINUOUS
 10
202.2509863159
 20
359.2305113817
 11
202.2179297081
 21
359.6320147913
  0
LINE
  5
2BB
100
AcDbEntity
  8
0
100
AcDbLine
 62
7
  6
CONTINUOUS
 10
214.1268393879
 20
361.73149203
 11
213.9287284194
 21
359.3140641724
  0
LINE
  5
2BC
100
AcDbEntity
  8
0
100
AcDbLine
 62
7
  6
CONTINUOUS
 10
213.8661670556
 20
358.5506658359
 11
213.7201905595
 21
356.7694032885
  0
LINE
  5
2BD
100
AcDbEntity
  8
0
100
AcDbLine
 62
7
  6
CONTINUOUS
 10
214.4676846786
 20
356.7081452934
 11
214.6136611747
 21
358.4894078409
  0
LINE
  5
2BE
100
AcDbEntity
  8
0
100
AcDbLine
 62
7
  6
CONTINUOUS
 10
214.6762225385
 20
359.2528061773
 11
214.9577486392
 21
362.6880982459
  0
LINE
  5
2BF
100
AcDbEntity
  8
0
100
AcDbLine
 62
7
  6
CONTINUOUS
 10
215.8594842312
 20
358.3873112213
 11
215.922045595
 21
359.1507095578
  0
LINE
  5
2C0
100
AcDbEntity
  8
0
100
AcDbLine
 62
7
  6
CONTINUOUS
 10
228.0096214339
 20
353.1105780191
 11
228.1194518101
 21
353.4981800462
  0
LINE
  5
2C1
100
AcDbEntity
  8
0
100
AcDbLine
 62
7
  6
CONTINUOUS
 10
228.8496339307
 20
355.9297514462
 11
228.7398034548
 21
355.5421492706
  0
LINE
  5
2C2
100
AcDbEntity
  8
0
100
AcDbLine
 62
7
  6
CONTINUOUS
 10
229.4335319945
 20
355.2298389001
 11
229.543362271
 21
355.6174407788
  0
LINE
  5
2C3
100
AcDbEntity
  8
0
100
AcDbLine
 62
7
  6
CONTINUOUS
 10
178.3468315774
 20
301.8551216845
 11
178.9301648759
 21
301.2593770225
  0
LINE
  5
2C4
100
AcDbEntity
  8
0
100
AcDbLine
 62
7
  6
CONTINUOUS
 10
183.3051647716
 20
298.7700154457
 11
182.7218315774
 21
299.3657600556
  0
LINE
  5
2C5
100
AcDbEntity
  8
0
100
AcDbLine
 62
7
  6
CONTINUOUS
 10
181.9926647716
 20
298.7700154457
 11
182.4301647716
 21
298.4721431408
  0
LINE
  5
2C6
100
AcDbEntity
  8
0
100
AcDbLine
 62
7
  6
CONTINUOUS
 10
179.6593315774
 20
301.8551216845
 11
179.2218315774
 21
302.1529940937
  0
LINE
  5
2C7
100
AcDbEntity
  8
0
100
AcDbLine
 62
7
  6
CONTINUOUS
 10
181.9926647716
 20
314.9189515982
 11
182.2843315774
 21
314.6210792933
  0
LINE
  5
2C8
100
AcDbEntity
  8
0
100
AcDbLine
 62
7
  6
CONTINUOUS
 10
183.1593315774
 20
314.6210792933
 11
182.7218315774
 21
315.2168239031
  0
LINE
  5
2C9
100
AcDbEntity
  8
0
100
AcDbLine
 62
7
  6
CONTINUOUS
 10
218.620650333
 20
356.688207468
 11
218.6082471647
 21
357.0908778303
  0
LINE
  5
2CA
100
AcDbEntity
  8
KONSTRUKTIONSELEMENTE
100
AcDbLine
 62
7
  6
CONTINUOUS
 10
175.2861101191
 20
287.2525685129
 11
187.8352974126
 21
287.2525685129
  0
LINE
  5
2CB
100
AcDbEntity
  8
KONSTRUKTIONSELEMENTE
100
AcDbLine
 62
7
  6
CONTINUOUS
 10
234.5833657422
 20
287.2525685129
 11
247.1325530357
 21
287.2525685129
  0
LINE
  5
2CC
100
AcDbEntity
  8
0
100
AcDbLine
 62
7
  6
CONTINUOUS
 10
178.9301648759
 20
301.2593770225
 11
179.5134982788
 21
300.9615046784
  0
LINE
  5
2CD
100
AcDbEntity
  8
0
100
AcDbLine
 62
7
  6
CONTINUOUS
 10
182.7218315774
 20
299.3657600556
 11
182.1384983831
 21
299.6636323605
  0
LINE
  5
2CE
100
AcDbEntity
  8
0
100
AcDbLine
 62
7
  6
CONTINUOUS
 10
195.5723692054
 20
356.5508999143
 11
195.6954325531
 21
356.167294583
  0
LINE
  5
2CF
100
AcDbEntity
  8
0
100
AcDbLine
 62
7
  6
CONTINUOUS
 10
196.3780386106
 20
356.5032200706
 11
196.2549752629
 21
356.886825402
  0
LINE
  5
2D0
100
AcDbEntity
  8
0
100
AcDbLine
 62
7
  6
CONTINUOUS
 10
228.1194518101
 20
353.4981800462
 11
228.0929674487
 21
354.131168978
  0
LINE
  5
2D1
100
AcDbEntity
  8
RUNDUNGEN
100
AcDbLine
 62
7
  6
CONTINUOUS
 10
226.2093315774
 20
234.2526483597
 11
226.2093315774
 21
263.2525685129
  0
LINE
  5
2D2
100
AcDbEntity
  8
0
100
AcDbLine
 62
7
  6
CONTINUOUS
 10
177.9093315774
 20
292.8125685129
 11
181.4093315774
 21
292.8125685129
  0
LINE
  5
2D3
100
AcDbEntity
  8
0
100
AcDbLine
 62
7
  6
CONTINUOUS
 10
181.4093315774
 20
293.706185532
 11
178.7843315774
 21
293.706185532
  0
LINE
  5
2D4
100
AcDbEntity
  8
0
100
AcDbLine
 62
7
  6
CONTINUOUS
 10
182.1384983831
 20
299.6636323605
 11
181.4093315774
 21
299.8125685129
  0
LINE
  5
2D5
100
AcDbEntity
  8
0
100
AcDbLine
 62
7
  6
CONTINUOUS
 10
179.5134982788
 20
300.9615046784
 11
180.2426649803
 21
300.8125685129
  0
LINE
  5
2D6
100
AcDbEntity
  8
0
100
AcDbLine
 62
7
  6
CONTINUOUS
 10
181.4093315774
 20
298.9189515982
 11
181.9926647716
 21
298.7700154457
  0
LINE
  5
2D7
100
AcDbEntity
  8
0
100
AcDbLine
 62
7
  6
CONTINUOUS
 10
180.2426649803
 20
301.706185532
 11
179.6593315774
 21
301.8551216845
  0
LINE
  5
2D8
100
AcDbEntity
  8
0
100
AcDbLine
 62
7
  6
CONTINUOUS
 10
182.7218315774
 20
315.2168239031
 11
182.1384983831
 21
315.6636323605
  0
LINE
  5
2D9
100
AcDbEntity
  8
0
100
AcDbLine
 62
7
  6
CONTINUOUS
 10
197.2122533652
 20
359.6065272451
 11
199.5356869307
 21
354.0746508486
  0
LINE
  5
2DA
100
AcDbEntity
  8
0
100
AcDbLine
 62
7
  6
CONTINUOUS
 10
200.2271714803
 20
354.3650800443
 11
199.1890415746
 21
356.8367695331
  0
LINE
  5
2DB
100
AcDbEntity
  8
0
100
AcDbLine
 62
7
  6
CONTINUOUS
 10
198.8924330696
 20
357.5429664357
 11
198.1509116689
 21
359.308459022
  0
LINE
  5
2DC
100
AcDbEntity
  8
0
100
AcDbLine
 62
7
  6
CONTINUOUS
 10
217.9366933828
 20
357.0213738728
 11
218.0332142848
 21
356.4610738426
  0
LINE
  5
2DD
100
AcDbEntity
  8
0
100
AcDbLine
 62
7
  6
CONTINUOUS
 10
229.543362271
 20
355.6174407788
 11
229.5168779096
 21
356.2504297105
  0
LINE
  5
2DE
100
AcDbEntity
  8
0
100
AcDbLine
 62
7
  6
CONTINUOUS
 10
181.9926647716
 20
293.8551216845
 11
181.4093315774
 21
293.706185532
  0
LINE
  5
2DF
100
AcDbEntity
  8
0
100
AcDbLine
 62
7
  6
CONTINUOUS
 10
181.4093315774
 20
292.8125685129
 11
182.1384983831
 21
292.9615046784
  0
LINE
  5
2E0
100
AcDbEntity
  8
0
100
AcDbLine
 62
7
  6
CONTINUOUS
 10
178.7843315774
 20
298.9189515982
 11
181.4093315774
 21
298.9189515982
  0
LINE
  5
2E1
100
AcDbEntity
  8
0
100
AcDbLine
 62
7
  6
CONTINUOUS
 10
181.4093315774
 20
299.8125685129
 11
177.9093315774
 21
299.8125685129
  0
LINE
  5
2E2
100
AcDbEntity
  8
0
100
AcDbLine
 62
7
  6
CONTINUOUS
 10
180.2426649803
 20
300.8125685129
 11
180.8259981745
 21
300.8125685129
  0
LINE
  5
2E3
100
AcDbEntity
  8
0
100
AcDbLine
 62
7
  6
CONTINUOUS
 10
180.8259981745
 20
301.706185532
 11
180.2426649803
 21
301.706185532
  0
LINE
  5
2E4
100
AcDbEntity
  8
0
100
AcDbLine
 62
7
  6
CONTINUOUS
 10
201.3287060168
 20
359.8123838604
 11
201.4770104077
 21
359.4592850794
  0
LINE
  5
2E5
100
AcDbEntity
  8
0
100
AcDbLine
 62
7
  6
CONTINUOUS
 10
202.2179297081
 20
359.6320147913
 11
202.0201905664
 21
360.1028130561
  0
LINE
  5
2E6
100
AcDbEntity
  8
0
100
AcDbLine
 62
7
  6
CONTINUOUS
 10
241.7216241822
 20
202.7525685129
 11
241.7216241822
 21
195.2525685129
  0
LINE
  5
2E7
100
AcDbEntity
  8
0
100
AcDbLine
 62
7
  6
CONTINUOUS
 10
241.9999551501
 20
202.7525685129
 11
241.9999551501
 21
195.2525685129
  0
LINE
  5
2E8
100
AcDbEntity
  8
0
100
AcDbLine
 62
7
  6
CONTINUOUS
 10
242.4392626332
 20
201.9546962676
 11
242.4392626332
 21
199.5610790847
  0
LINE
  5
2E9
100
AcDbEntity
  8
0
100
AcDbLine
 62
7
  6
CONTINUOUS
 10
242.4392626332
 20
198.6036323903
 11
242.4392626332
 21
195.2525685129
  0
LINE
  5
2EA
100
AcDbEntity
  8
0
100
AcDbLine
 62
7
  6
CONTINUOUS
 10
243.6569907057
 20
200.9972495733
 11
243.6569907057
 21
200.518525779
  0
LINE
  5
2EB
100
AcDbEntity
  8
0
100
AcDbLine
 62
7
  6
CONTINUOUS
 10
243.7054851959
 20
213.7525685129
 11
243.7054851959
 21
206.2525685129
  0
LINE
  5
2EC
100
AcDbEntity
  8
0
100
AcDbLine
 62
7
  6
CONTINUOUS
 10
243.9188574515
 20
200.9972495733
 11
243.9188574515
 21
200.518525779
  0
LINE
  5
2ED
100
AcDbEntity
  8
0
100
AcDbLine
 62
7
  6
CONTINUOUS
 10
243.9669642757
 20
213.7525685129
 11
243.9669642757
 21
206.2525685129
  0
LINE
  5
2EE
100
AcDbEntity
  8
0
100
AcDbLine
 62
7
  6
CONTINUOUS
 10
244.1953459727
 20
200.9972495733
 11
244.1953459727
 21
200.35895133
  0
LINE
  5
2EF
100
AcDbEntity
  8
0
100
AcDbLine
 62
7
  6
CONTINUOUS
 10
244.2386154593
 20
212.9546962676
 11
244.2386154593
 21
210.5610790847
  0
LINE
  5
2F0
100
AcDbEntity
  8
0
100
AcDbLine
 62
7
  6
CONTINUOUS
 10
244.2386154593
 20
209.6036323903
 11
244.2386154593
 21
206.2525685129
  0
LINE
  5
2F1
100
AcDbEntity
  8
0
100
AcDbLine
 62
7
  6
CONTINUOUS
 10
244.2623045668
 20
202.7525685129
 11
244.2623045668
 21
195.2525685129
  0
LINE
  5
2F2
100
AcDbEntity
  8
0
100
AcDbLine
 62
7
  6
CONTINUOUS
 10
244.5194129858
 20
202.7525685129
 11
244.5194129858
 21
195.2525685129
  0
LINE
  5
2F3
100
AcDbEntity
  8
0
100
AcDbLine
 62
7
  6
CONTINUOUS
 10
244.7298331165
 20
201.9546962676
 11
244.7298331165
 21
199.5610790847
  0
LINE
  5
2F4
100
AcDbEntity
  8
0
100
AcDbLine
 62
7
  6
CONTINUOUS
 10
244.7298331165
 20
198.6036323903
 11
244.7298331165
 21
195.2525685129
  0
LINE
  5
2F5
100
AcDbEntity
  8
0
100
AcDbLine
 62
7
  6
CONTINUOUS
 10
244.8160732284
 20
211.9972495733
 11
244.8160732284
 21
211.518525779
  0
LINE
  5
2F6
100
AcDbEntity
  8
0
100
AcDbLine
 62
7
  6
CONTINUOUS
 10
245.065414884
 20
200.9972495733
 11
245.065414884
 21
200.518525779
  0
LINE
  5
2F7
100
AcDbEntity
  8
0
100
AcDbLine
 62
7
  6
CONTINUOUS
 10
245.0689769447
 20
211.9972495733
 11
245.0689769447
 21
211.518525779
  0
LINE
  5
2F8
100
AcDbEntity
  8
0
100
AcDbLine
 62
7
  6
CONTINUOUS
 10
245.0928060585
 20
213.7525685129
 11
245.0928060585
 21
213.2318185236
  0
LINE
  5
2F9
100
AcDbEntity
  8
0
100
AcDbLine
 62
7
  6
CONTINUOUS
 10
245.0928060585
 20
210.1635641735
 11
245.0928060585
 21
208.8057599215
  0
LINE
  5
2FA
100
AcDbEntity
  8
0
100
AcDbLine
 62
7
  6
CONTINUOUS
 10
245.1964040278
 20
198.6036323903
 11
245.1964040278
 21
197.9653343705
  0
LINE
  5
2FB
100
AcDbEntity
  8
0
100
AcDbLine
 62
7
  6
CONTINUOUS
 10
245.198515845
 20
211.9972495733
 11
245.198515845
 21
211.35895133
  0
LINE
  5
2FC
100
AcDbEntity
  8
0
100
AcDbLine
 62
7
  6
CONTINUOUS
 10
245.2093315774
 20
226.2525685129
 11
245.2093315774
 21
213.7525685129
  0
LINE
  5
2FD
100
AcDbEntity
  8
0
100
AcDbLine
 62
7
  6
CONTINUOUS
 10
245.2093315774
 20
206.2525685129
 11
245.2093315774
 21
202.7343422825
  0
LINE
  5
2FE
100
AcDbEntity
  8
0
100
AcDbLine
 62
7
  6
CONTINUOUS
 10
245.2093315774
 20
197.9653343705
 11
245.2093315774
 21
193.2525685129
  0
LINE
  5
2FF
100
AcDbEntity
  8
0
100
AcDbLine
 62
7
  6
CONTINUOUS
 10
245.3164697872
 20
200.9972495733
 11
245.3164697872
 21
200.518525779
  0
LINE
  5
300
100
AcDbEntity
  8
0
100
AcDbLine
 62
7
  6
CONTINUOUS
 10
245.3436595027
 20
213.7525685129
 11
245.3436595027
 21
208.8057599215
  0
LINE
  5
301
100
AcDbEntity
  8
0
100
AcDbLine
 62
7
  6
CONTINUOUS
 10
245.3679688889
 20
197.9653343705
 11
245.3679688889
 21
197.4866110233
  0
LINE
  5
302
100
AcDbEntity
  8
0
100
AcDbLine
 62
7
  6
CONTINUOUS
 10
245.3894039157
 20
200.9972495733
 11
245.3894039157
 21
200.35895133
  0
LINE
  5
303
100
AcDbEntity
  8
0
100
AcDbLine
 62
7
  6
CONTINUOUS
 10
245.40797009
 20
213.7525685129
 11
245.40797009
 21
208.8057599215
  0
LINE
  5
304
100
AcDbEntity
  8
0
100
AcDbLine
 62
7
  6
CONTINUOUS
 10
245.446498425
 20
198.7632068393
 11
245.446498425
 21
197.9653343705
  0
LINE
  5
305
100
AcDbEntity
  8
0
100
AcDbLine
 62
7
  6
CONTINUOUS
 10
245.4593315774
 20
207.2100153191
 11
245.4593315774
 21
206.412142976
  0
LINE
  5
306
100
AcDbEntity
  8
0
100
AcDbLine
 62
7
  6
CONTINUOUS
 10
245.4593315774
 20
198.7632068393
 11
245.4593315774
 21
197.9653343705
  0
LINE
  5
307
100
AcDbEntity
  8
FASEN
100
AcDbLine
 62
7
  6
CONTINUOUS
 10
171.7093315775
 20
193.2525685131
 11
171.2093315775
 21
192.7525685131
  0
LINE
  5
308
100
AcDbEntity
  8
0
100
AcDbLine
 62
7
  6
CONTINUOUS
 10
181.4093315774
 20
301.8551216845
 11
180.8259981745
 21
301.706185532
  0
LINE
  5
309
100
AcDbEntity
  8
0
100
AcDbLine
 62
7
  6
CONTINUOUS
 10
180.8259981745
 20
300.8125685129
 11
181.5551647716
 21
300.9615046784
  0
LINE
  5
30A
100
AcDbEntity
  8
0
100
AcDbLine
 62
7
  6
CONTINUOUS
 10
183.1593315774
 20
307.8125685129
 11
182.2843315774
 21
307.8125685129
  0
LINE
  5
30B
100
AcDbEntity
  8
0
100
AcDbLine
 62
7
  6
CONTINUOUS
 10
178.7843315774
 20
307.8125685129
 11
177.9093315774
 21
307.8125685129
  0
LINE
  5
30C
100
AcDbEntity
  8
0
100
AcDbLine
 62
7
  6
CONTINUOUS
 10
177.9093315774
 20
308.8125685129
 11
178.7843315774
 21
308.8125685129
  0
LINE
  5
30D
100
AcDbEntity
  8
0
100
AcDbLine
 62
7
  6
CONTINUOUS
 10
182.4301647716
 20
308.8125685129
 11
183.4509983831
 21
308.8125685129
  0
LINE
  5
30E
100
AcDbEntity
  8
0
100
AcDbLine
 62
7
  6
CONTINUOUS
 10
182.1384983831
 20
315.6636323605
 11
181.4093315774
 21
315.8125685129
  0
LINE
  5
30F
100
AcDbEntity
  8
0
100
AcDbLine
 62
7
  6
CONTINUOUS
 10
181.5551647716
 20
315.0678877506
 11
181.9926647716
 21
314.9189515982
  0
LINE
  5
310
100
AcDbEntity
  8
0
100
AcDbLine
 62
7
  6
CONTINUOUS
 10
191.3849374889
 20
355.7291665416
 11
194.9000074616
 21
350.8666277924
  0
LINE
  5
311
100
AcDbEntity
  8
0
100
AcDbLine
 62
7
  6
CONTINUOUS
 10
195.5078248052
 20
351.306011539
 11
193.9372616037
 21
353.4786352663
  0
LINE
  5
312
100
AcDbEntity
  8
0
100
AcDbLine
 62
7
  6
CONTINUOUS
 10
193.4885293202
 20
354.0993848198
 11
192.3666984021
 21
355.6512589936
  0
LINE
  5
313
100
AcDbEntity
  8
0
100
AcDbLine
 62
7
  6
CONTINUOUS
 10
227.3606043451
 20
354.1618407884
 11
227.4257234698
 21
353.8104907136
  0
LINE
  5
314
100
AcDbEntity
  8
0
100
AcDbLine
 62
7
  6
CONTINUOUS
 10
228.784514806
 20
356.281101521
 11
228.8496339307
 21
355.9297514462
  0
LINE
  5
315
100
AcDbEntity
  8
FASEN
100
AcDbLine
 62
7
  6
CONTINUOUS
 10
251.2093315774
 20
183.2525685129
 11
251.2093315774
 21
192.7525685129
  0
LINE
  5
316
100
AcDbEntity
  8
KONSTRUKTIONSELEMENTE
100
AcDbLine
 62
7
  6
CONTINUOUS
 10
251.2093315774
 20
183.2525685129
 11
251.2093315774
 21
192.7525685129
  0
LINE
  5
317
100
AcDbEntity
  8
0
100
AcDbLine
 62
7
  6
CONTINUOUS
 10
178.7843315774
 20
311.9402281318
 11
181.2634981745
 21
311.9402281318
  0
LINE
  5
318
100
AcDbEntity
  8
0
100
AcDbLine
 62
7
  6
CONTINUOUS
 10
181.5551647716
 20
312.8338450465
 11
178.7843315774
 21
312.8338450465
  0
LINE
  5
319
100
AcDbEntity
  8
0
100
AcDbLine
 62
7
  6
CONTINUOUS
 10
178.7843315774
 20
315.0678877506
 11
181.5551647716
 21
315.0678877506
  0
LINE
  5
31A
100
AcDbEntity
  8
0
100
AcDbLine
 62
7
  6
CONTINUOUS
 10
181.4093315774
 20
315.8125685129
 11
177.9093315774
 21
315.8125685129
  0
LINE
  5
31B
100
AcDbEntity
  8
0
100
AcDbLine
 62
7
  6
CONTINUOUS
 10
195.3480028541
 20
356.8612749809
 11
195.5723692054
 21
356.5508999143
  0
LINE
  5
31C
100
AcDbEntity
  8
0
100
AcDbLine
 62
7
  6
CONTINUOUS
 10
196.2549752629
 20
356.886825402
 11
195.9558201978
 21
357.3006587275
  0
LINE
  5
31D
100
AcDbEntity
  8
KONSTRUKTIONSELEMENTE
100
AcDbLine
 62
7
  6
CONTINUOUS
 10
175.2861101191
 20
322.2525685129
 11
187.8352974126
 21
322.2525685129
  0
LINE
  5
31E
100
AcDbEntity
  8
KONSTRUKTIONSELEMENTE
100
AcDbLine
 62
7
  6
CONTINUOUS
 10
234.5833657422
 20
322.2525685129
 11
247.1325530357
 21
322.2525685129
  0
LINE
  5
31F
100
AcDbEntity
  8
0
100
AcDbLine
 62
7
  6
CONTINUOUS
 10
201.0651541196
 20
360.1170773534
 11
201.3287060168
 21
359.8123838604
  0
LINE
  5
320
100
AcDbEntity
  8
0
100
AcDbLine
 62
7
  6
CONTINUOUS
 10
229.5168779096
 20
356.2504297105
 11
229.3154417725
 21
356.8471684339
  0
LINE
  5
321
100
AcDbEntity
  8
0
100
AcDbLine
 62
7
  6
CONTINUOUS
 10
202.0201905664
 20
360.1028130561
 11
201.7566386692
 21
360.4075065491
  0
LINE
  5
322
100
AcDbEntity
  8
0
100
AcDbLine
 62
7
  6
CONTINUOUS
 10
228.0929674487
 20
354.131168978
 11
227.956652811
 21
354.3765560309
  0
LINE
  5
323
100
AcDbEntity
  8
0
100
AcDbLine
 62
7
  6
CONTINUOUS
 10
195.0223339184
 20
357.0984192031
 11
195.3480028541
 21
356.8612749809
  0
LINE
  5
324
100
AcDbEntity
  8
0
100
AcDbLine
 62
7
  6
CONTINUOUS
 10
195.9558201978
 20
357.3006587275
 11
195.630151262
 21
357.5378029497
  0
LINE
  5
325
100
AcDbEntity
  8
0
100
AcDbLine
 62
7
  6
CONTINUOUS
 10
218.0332142848
 20
356.4610738426
 11
218.3214109766
 21
356.1107089892
  0
LINE
  5
326
100
AcDbEntity
  8
0
100
AcDbLine
 62
7
  6
CONTINUOUS
 10
218.908847031
 20
356.337842636
 11
218.620650333
 21
356.688207468
  0
LINE
  5
327
100
AcDbEntity
  8
0
100
AcDbLine
 62
7
  6
CONTINUOUS
 10
227.1205334446
 20
354.4769406547
 11
227.3606043451
 21
354.1618407884
  0
LINE
  5
328
100
AcDbEntity
  8
0
100
AcDbLine
 62
7
  6
CONTINUOUS
 10
228.5444439055
 20
356.5962013873
 11
228.784514806
 21
356.281101521
  0
LINE
  5
329
100
AcDbEntity
  8
0
100
AcDbLine
 62
7
  6
CONTINUOUS
 10
226.7849637524
 20
352.8568233691
 11
226.4350625256
 21
352.7843212825
  0
LINE
  5
32A
100
AcDbEntity
  8
0
100
AcDbLine
 62
7
  6
CONTINUOUS
 10
228.2800696266
 20
355.082046975
 11
227.9301684497
 21
355.0095449627
  0
LINE
  5
32B
100
AcDbEntity
  8
0
100
AcDbLine
 62
7
  6
CONTINUOUS
 10
195.630151262
 20
357.5378029497
 11
195.0270877346
 21
357.7319441121
  0
LINE
  5
32C
100
AcDbEntity
  8
0
100
AcDbLine
 62
7
  6
CONTINUOUS
 10
200.7357899879
 20
360.2556666814
 11
201.0651541196
 21
360.1170773534
  0
LINE
  5
32D
100
AcDbEntity
  8
0
100
AcDbLine
 62
7
  6
CONTINUOUS
 10
201.7566386692
 20
360.4075065491
 11
201.2131573911
 21
360.7330898864
  0
LINE
  5
32E
100
AcDbEntity
  8
0
100
AcDbLine
 62
7
  6
CONTINUOUS
 10
223.031539899
 20
353.9945244704
 11
225.5216712078
 21
352.3214297138
  0
LINE
  5
32F
100
AcDbEntity
  8
0
100
AcDbLine
 62
7
  6
CONTINUOUS
 10
226.0526005989
 20
352.8874951053
 11
224.0812458545
 21
354.2120289862
  0
LINE
  5
330
100
AcDbEntity
  8
0
100
AcDbLine
 62
7
  6
CONTINUOUS
 10
225.1491787002
 20
355.8014745356
 11
227.1205334446
 21
354.4769406547
  0
LINE
  5
331
100
AcDbEntity
  8
0
100
AcDbLine
 62
7
  6
CONTINUOUS
 10
218.3214109766
 20
356.1107089892
 11
218.6454621895
 21
355.8828652328
  0
LINE
  5
332
100
AcDbEntity
  8
0
100
AcDbLine
 62
7
  6
CONTINUOUS
 10
229.3154417725
 20
356.8471684339
 11
228.8678607211
 21
357.3016923314
  0
LINE
  5
333
100
AcDbEntity
  8
0
100
AcDbLine
 62
7
  6
CONTINUOUS
 10
226.1116432915
 20
352.078831869
 11
226.7402525258
 21
352.1178713043
  0
LINE
  5
334
100
AcDbEntity
  8
0
100
AcDbLine
 62
7
  6
CONTINUOUS
 10
213.7201905595
 20
356.7694032885
 11
214.4676846786
 21
356.7081452934
  0
LINE
  5
335
100
AcDbEntity
  8
0
100
AcDbLine
 62
7
  6
CONTINUOUS
 10
227.956652811
 20
354.3765560309
 11
228.2353584749
 21
354.3430950215
  0
LINE
  5
336
100
AcDbEntity
  8
0
100
AcDbLine
 62
7
  6
CONTINUOUS
 10
194.6701506128
 20
357.1588744023
 11
195.0223339184
 21
357.0984192031
  0
LINE
  5
337
100
AcDbEntity
  8
0
100
AcDbLine
 62
7
  6
CONTINUOUS
 10
201.2131573911
 20
360.7330898864
 11
200.6038632191
 21
360.8925687815
  0
LINE
  5
338
100
AcDbEntity
  8
0
100
AcDbLine
 62
7
  6
CONTINUOUS
 10
226.4350625256
 20
352.7843212825
 11
226.0526005989
 21
352.8874951053
  0
LINE
  5
339
100
AcDbEntity
  8
0
100
AcDbLine
 62
7
  6
CONTINUOUS
 10
227.9301684497
 20
355.0095449627
 11
227.547706523
 21
355.1127187855
  0
LINE
  5
33A
100
AcDbEntity
  8
0
100
AcDbLine
 62
7
  6
CONTINUOUS
 10
225.5216712078
 20
352.3214297138
 11
226.1116432915
 21
352.078831869
  0
LINE
  5
33B
100
AcDbEntity
  8
0
100
AcDbLine
 62
7
  6
CONTINUOUS
 10
221.3918014201
 20
357.0723940425
 11
222.9860805288
 21
356.3507426036
  0
LINE
  5
33C
100
AcDbEntity
  8
0
100
AcDbLine
 62
7
  6
CONTINUOUS
 10
223.2492966145
 20
356.9322420422
 11
221.6550175059
 21
357.6538934812
  0
LINE
  5
33D
100
AcDbEntity
  8
0
100
AcDbLine
 62
7
  6
CONTINUOUS
 10
218.6454621895
 20
355.8828652328
 11
219.3294191366
 21
355.5496988172
  0
LINE
  5
33E
100
AcDbEntity
  8
0
100
AcDbLine
 62
7
  6
CONTINUOUS
 10
219.4728372212
 20
356.0397832056
 11
218.908847031
 21
356.337842636
  0
LINE
  5
33F
100
AcDbEntity
  8
0
100
AcDbLine
 62
7
  6
CONTINUOUS
 10
227.547706523
 20
355.1127187855
 11
225.5763517786
 21
356.4372526663
  0
LINE
  5
340
100
AcDbEntity
  8
0
100
AcDbLine
 62
7
  6
CONTINUOUS
 10
226.573089161
 20
357.9207352682
 11
228.5444439055
 21
356.5962013873
  0
LINE
  5
341
100
AcDbEntity
  8
0
100
AcDbLine
 62
7
  6
CONTINUOUS
 10
228.8678607211
 20
357.3016923314
 11
226.3777294123
 21
358.9747870881
  0
LINE
  5
342
100
AcDbEntity
  8
0
100
AcDbLine
 62
7
  6
CONTINUOUS
 10
200.6038632191
 20
360.8925687815
 11
199.9781915635
 21
360.7682440279
  0
LINE
  5
343
100
AcDbEntity
  8
0
100
AcDbLine
 62
7
  6
CONTINUOUS
 10
200.3406129623
 20
360.2281515673
 11
200.7357899879
 21
360.2556666814
  0
LINE
  5
344
100
AcDbEntity
  8
0
100
AcDbLine
 62
7
  6
CONTINUOUS
 10
195.0270877346
 20
357.7319441121
 11
194.397510127
 21
357.749396461
  0
LINE
  5
345
100
AcDbEntity
  8
0
100
AcDbLine
 62
7
  6
CONTINUOUS
 10
210.8761905793
 20
358.7956978163
 11
213.8661670556
 21
358.5506658359
  0
LINE
  5
346
100
AcDbEntity
  8
0
100
AcDbLine
 62
7
  6
CONTINUOUS
 10
214.6136611747
 20
358.4894078409
 11
215.8594842312
 21
358.3873112213
  0
LINE
  5
347
100
AcDbEntity
  8
0
100
AcDbLine
 62
7
  6
CONTINUOUS
 10
215.922045595
 20
359.1507095578
 11
214.6762225385
 21
359.2528061773
  0
LINE
  5
348
100
AcDbEntity
  8
0
100
AcDbLine
 62
7
  6
CONTINUOUS
 10
213.9287284194
 20
359.3140641724
 11
211.8108279402
 21
359.4876285308
  0
LINE
  5
349
100
AcDbEntity
  8
0
100
AcDbLine
 62
7
  6
CONTINUOUS
 10
214.9577486392
 20
362.6880982459
 11
214.2102545201
 21
362.749356241
  0
LINE
  5
34A
100
AcDbEntity
  8
0
100
AcDbLine
 62
7
  6
CONTINUOUS
 10
217.6940361095
 20
359.7526560145
 11
218.6537838185
 21
359.4717958577
  0
LINE
  5
34B
100
AcDbEntity
  8
0
100
AcDbLine
 62
7
  6
CONTINUOUS
 10
219.2536285393
 20
359.2962575566
 11
220.5732819824
 21
358.9100747405
  0
LINE
  5
34C
100
AcDbEntity
  8
0
100
AcDbLine
 62
7
  6
CONTINUOUS
 10
220.7167000545
 20
359.400159086
 11
219.3970466114
 21
359.786341902
  0
LINE
  5
34D
100
AcDbEntity
  8
0
100
AcDbLine
 62
7
  6
CONTINUOUS
 10
218.7972018906
 20
359.9618802031
 11
217.8374541816
 21
360.24274036
  0
LINE
  5
34E
100
AcDbEntity
  8
0
100
AcDbLine
 62
7
  6
CONTINUOUS
 10
219.683882856
 20
360.7665109362
 11
219.0840381352
 21
360.9420492373
  0
LINE
  5
34F
100
AcDbEntity
  8
FASEN
100
AcDbLine
 62
7
  6
CONTINUOUS
 10
248.2093315773
 20
180.2525685129
 11
251.2093315773
 21
183.2525685129
  0
LINE
  5
350
100
AcDbEntity
  8
FASEN
100
AcDbLine
 62
7
  6
CONTINUOUS
 10
395.5298570611
 20
180.2525685129
 11
321.5298570611
 21
180.2525685129
  0
LINE
  5
351
100
AcDbEntity
  8
FASEN
100
AcDbLine
 62
7
  6
CONTINUOUS
 10
398.5298570611
 20
183.2525685129
 11
318.5298570611
 21
183.2525685129
  0
LINE
  5
352
100
AcDbEntity
  8
FASEN
100
AcDbLine
 62
7
  6
CONTINUOUS
 10
321.5298570611
 20
180.2525685129
 11
318.5298570611
 21
183.2525685129
  0
LINE
  5
353
100
AcDbEntity
  8
FASEN
100
AcDbLine
 62
7
  6
CONTINUOUS
 10
318.5298570611
 20
192.7525685129
 11
398.5298570611
 21
192.7525685129
  0
LINE
  5
354
100
AcDbEntity
  8
FASEN
100
AcDbLine
 62
7
  6
CONTINUOUS
 10
319.0300876308
 20
193.2525685129
 11
398.0296264914
 21
193.2525685129
  0
LINE
  5
355
100
AcDbEntity
  8
KONSTRUKTIONSELEMENTE
100
AcDbLine
 62
7
  6
CONTINUOUS
 10
318.5298570611
 20
183.2525685129
 11
318.5298570611
 21
192.7525685129
  0
LINE
  5
356
100
AcDbEntity
  8
RUNDUNGEN
100
AcDbLine
 62
7
  6
CONTINUOUS
 10
382.2152956257
 20
229.2525685129
 11
334.8444184964
 21
229.2525685129
  0
LINE
  5
357
100
AcDbEntity
  8
0
100
AcDbLine
 62
7
  6
CONTINUOUS
 10
324.5298570611
 20
241.9487209356
 11
324.5298570611
 21
193.2525685129
  0
LINE
  5
358
100
AcDbEntity
  8
0
100
AcDbLine
 62
7
  6
CONTINUOUS
 10
340.7598570611
 20
241.6025685129
 11
335.7598570611
 21
243.2692350803
  0
LINE
  5
359
100
AcDbEntity
  8
0
100
AcDbLine
 62
7
  6
CONTINUOUS
 10
335.7598570611
 20
242.6442350803
 11
340.1215591903
 21
241.1859017966
  0
LINE
  5
35A
100
AcDbEntity
  8
RUNDUNGEN
100
AcDbLine
 62
7
  6
CONTINUOUS
 10
330.5298570611
 20
254.0826955319
 11
330.5298570611
 21
270.1889924213
  0
LINE
  5
35B
100
AcDbEntity
  8
0
100
AcDbLine
 62
7
  6
CONTINUOUS
 10
335.7598570611
 20
244.1025685129
 11
340.7598570611
 21
244.1025685129
  0
LINE
  5
35C
100
AcDbEntity
  8
0
100
AcDbLine
 62
7
  6
CONTINUOUS
 10
340.7598570611
 20
244.7275685129
 11
335.7598570611
 21
244.7275685129
  0
LINE
  5
35D
100
AcDbEntity
  8
0
100
AcDbLine
 62
7
  6
CONTINUOUS
 10
335.7598570611
 20
245.5609016476
 11
340.7598570611
 21
245.5609016476
  0
LINE
  5
35E
100
AcDbEntity
  8
0
100
AcDbLine
 62
7
  6
CONTINUOUS
 10
340.7598570611
 20
246.1859016476
 11
338.5258144762
 21
246.1859016476
  0
LINE
  5
35F
100
AcDbEntity
  8
0
100
AcDbLine
 62
7
  6
CONTINUOUS
 10
337.8875166799
 20
246.1859016476
 11
336.2917718913
 21
246.1859016476
  0
LINE
  5
360
100
AcDbEntity
  8
0
100
AcDbLine
 62
7
  6
CONTINUOUS
 10
337.2492188837
 20
248.7900685129
 11
337.5683677818
 21
248.6859016476
  0
LINE
  5
361
100
AcDbEntity
  8
0
100
AcDbLine
 62
7
  6
CONTINUOUS
 10
337.6747507478
 20
249.3109022436
 11
337.3556018497
 21
249.4150685129
  0
LINE
  5
362
100
AcDbEntity
  8
0
100
AcDbLine
 62
7
  6
CONTINUOUS
 10
338.100282612
 20
248.9984016476
 11
337.6747507478
 21
249.3109022436
  0
LINE
  5
363
100
AcDbEntity
  8
0
100
AcDbLine
 62
7
  6
CONTINUOUS
 10
335.7598570611
 20
255.8734022436
 11
336.5045378234
 21
255.2484022436
  0
LINE
  5
364
100
AcDbEntity
  8
0
100
AcDbLine
 62
7
  6
CONTINUOUS
 10
337.3556018497
 20
255.2484022436
 11
336.6109207894
 21
255.8734022436
  0
LINE
  5
365
100
AcDbEntity
  8
0
100
AcDbLine
 62
7
  6
CONTINUOUS
 10
337.5683677818
 20
248.6859016476
 11
337.7811337139
 21
248.4775685129
  0
LINE
  5
366
100
AcDbEntity
  8
0
100
AcDbLine
 62
7
  6
CONTINUOUS
 10
336.1853889252
 20
258.0609022436
 11
336.5045378234
 21
257.7484022436
  0
LINE
  5
367
100
AcDbEntity
  8
FASEN
100
AcDbLine
 62
7
  6
CONTINUOUS
 10
398.0298570611
 20
193.2525685129
 11
398.5298570611
 21
192.7525685129
  0
LINE
  5
368
100
AcDbEntity
  8
0
100
AcDbLine
 62
7
  6
CONTINUOUS
 10
338.4194315101
 20
248.5817353783
 11
338.100282612
 21
248.9984016476
  0
LINE
  5
369
100
AcDbEntity
  8
0
100
AcDbLine
 62
7
  6
CONTINUOUS
 10
336.6109207894
 20
258.3734022436
 11
336.3981548573
 21
258.6859022436
  0
LINE
  5
36A
100
AcDbEntity
  8
0
100
AcDbLine
 62
7
  6
CONTINUOUS
 10
335.8662400271
 20
258.5817347822
 11
336.1853889252
 21
258.0609022436
  0
LINE
  5
36B
100
AcDbEntity
  8
0
100
AcDbLine
 62
7
  6
CONTINUOUS
 10
337.7811337139
 20
248.4775685129
 11
337.8875166799
 21
248.1650685129
  0
LINE
  5
36C
100
AcDbEntity
  8
0
100
AcDbLine
 62
7
  6
CONTINUOUS
 10
335.7598570611
 20
256.4984022436
 11
335.7598570611
 21
255.8734022436
  0
LINE
  5
36D
100
AcDbEntity
  8
0
100
AcDbLine
 62
7
  6
CONTINUOUS
 10
335.7598570611
 20
248.0609016476
 11
335.7598570611
 21
245.5609016476
  0
LINE
  5
36E
100
AcDbEntity
  8
0
100
AcDbLine
 62
7
  6
CONTINUOUS
 10
335.7598570611
 20
244.7275685129
 11
335.7598570611
 21
244.1025685129
  0
LINE
  5
36F
100
AcDbEntity
  8
0
100
AcDbLine
 62
7
  6
CONTINUOUS
 10
335.7598570611
 20
243.2692350803
 11
335.7598570611
 21
242.6442350803
  0
LINE
  5
370
100
AcDbEntity
  8
0
100
AcDbLine
 62
7
  6
CONTINUOUS
 10
335.7598570611
 20
239.7275685129
 11
335.7598570611
 21
239.1025685129
  0
LINE
  5
371
100
AcDbEntity
  8
0
100
AcDbLine
 62
7
  6
CONTINUOUS
 10
336.2917718913
 20
246.1859016476
 11
336.2917718913
 21
248.1650685129
  0
LINE
  5
372
100
AcDbEntity
  8
0
100
AcDbLine
 62
7
  6
CONTINUOUS
 10
337.8875166799
 20
248.1650685129
 11
337.8875166799
 21
246.1859016476
  0
LINE
  5
373
100
AcDbEntity
  8
0
100
AcDbLine
 62
7
  6
CONTINUOUS
 10
338.5258144762
 20
246.1859016476
 11
338.5258144762
 21
248.0609016476
  0
LINE
  5
374
100
AcDbEntity
  8
0
100
AcDbLine
 62
7
  6
CONTINUOUS
 10
335.8662400271
 20
259.8317359743
 11
335.7598570611
 21
259.2067359743
  0
LINE
  5
375
100
AcDbEntity
  8
RUNDUNGEN
100
AcDbLine
 62
7
  6
CONTINUOUS
 10
335.1752974649
 20
277.1810936488
 11
331.4656792886
 21
272.76014286
  0
LINE
  5
376
100
AcDbEntity
  8
0
100
AcDbLine
 62
7
  6
CONTINUOUS
 10
336.9300696875
 20
248.7900685129
 11
337.2492188837
 21
248.7900685129
  0
LINE
  5
377
100
AcDbEntity
  8
0
100
AcDbLine
 62
7
  6
CONTINUOUS
 10
382.2975254856
 20
249.0955199733
 11
381.3910241434
 21
249.0955199733
  0
LINE
  5
378
100
AcDbEntity
  8
0
100
AcDbLine
 62
7
  6
CONTINUOUS
 10
377.2341022052
 20
249.0955199733
 11
376.327600863
 21
249.0955199733
  0
LINE
  5
379
100
AcDbEntity
  8
0
100
AcDbLine
 62
7
  6
CONTINUOUS
 10
337.3556018497
 20
249.4150685129
 11
336.9300696875
 21
249.4150685129
  0
LINE
  5
37A
100
AcDbEntity
  8
0
100
AcDbLine
 62
7
  6
CONTINUOUS
 10
379.7625631743
 20
253.5955199733
 11
378.8560618321
 21
253.5955199733
  0
LINE
  5
37B
100
AcDbEntity
  8
0
100
AcDbLine
 62
7
  6
CONTINUOUS
 10
382.2975254856
 20
254.1955199733
 11
381.3910241434
 21
254.1955199733
  0
LINE
  5
37C
100
AcDbEntity
  8
0
100
AcDbLine
 62
7
  6
CONTINUOUS
 10
377.2341022052
 20
254.1955199733
 11
376.327600863
 21
254.1955199733
  0
LINE
  5
37D
100
AcDbEntity
  8
0
100
AcDbLine
 62
7
  6
CONTINUOUS
 10
337.2492188837
 20
257.4359022436
 11
337.7811337139
 21
257.3317347822
  0
LINE
  5
37E
100
AcDbEntity
  8
0
100
AcDbLine
 62
7
  6
CONTINUOUS
 10
336.9300696875
 20
257.5400685129
 11
337.2492188837
 21
257.4359022436
  0
LINE
  5
37F
100
AcDbEntity
  8
0
100
AcDbLine
 62
7
  6
CONTINUOUS
 10
336.5045378234
 20
257.7484022436
 11
336.9300696875
 21
257.5400685129
  0
LINE
  5
380
100
AcDbEntity
  8
0
100
AcDbLine
 62
7
  6
CONTINUOUS
 10
340.0151762243
 20
260.6650685129
 11
339.5896442856
 21
260.8734010515
  0
LINE
  5
381
100
AcDbEntity
  8
0
100
AcDbLine
 62
7
  6
CONTINUOUS
 10
337.2492188837
 20
257.9567347822
 11
336.6109207894
 21
258.3734022436
  0
LINE
  5
382
100
AcDbEntity
  8
0
100
AcDbLine
 62
7
  6
CONTINUOUS
 10
339.2704953875
 20
260.4567359743
 11
339.9087932582
 21
260.0400685129
  0
LINE
  5
383
100
AcDbEntity
  8
0
100
AcDbLine
 62
7
  6
CONTINUOUS
 10
340.3343251597
 20
260.3525685129
 11
340.0151762243
 21
260.6650685129
  0
LINE
  5
384
100
AcDbEntity
  8
0
100
AcDbLine
 62
7
  6
CONTINUOUS
 10
339.9087932582
 20
260.0400685129
 11
340.1215591903
 21
259.7275685129
  0
LINE
  5
385
100
AcDbEntity
  8
0
100
AcDbLine
 62
7
  6
CONTINUOUS
 10
340.6534740857
 20
259.8317359743
 11
340.3343251597
 21
260.3525685129
  0
LINE
  5
386
100
AcDbEntity
  8
0
100
AcDbLine
 62
7
  6
CONTINUOUS
 10
338.5258144762
 20
248.0609016476
 11
338.4194315101
 21
248.5817353783
  0
LINE
  5
387
100
AcDbEntity
  8
0
100
AcDbLine
 62
7
  6
CONTINUOUS
 10
336.3981548573
 20
258.6859022436
 11
336.2917718913
 21
259.2067359743
  0
LINE
  5
388
100
AcDbEntity
  8
0
100
AcDbLine
 62
7
  6
CONTINUOUS
 10
340.1215591903
 20
259.7275685129
 11
340.2279421564
 21
259.2067359743
  0
LINE
  5
389
100
AcDbEntity
  8
0
100
AcDbLine
 62
7
  6
CONTINUOUS
 10
335.7598570611
 20
259.2067359743
 11
335.8662400271
 21
258.5817347822
  0
LINE
  5
38A
100
AcDbEntity
  8
0
100
AcDbLine
 62
7
  6
CONTINUOUS
 10
340.7598570611
 20
259.2067359743
 11
340.6534740857
 21
259.8317359743
  0
LINE
  5
38B
100
AcDbEntity
  8
0
100
AcDbLine
 62
7
  6
CONTINUOUS
 10
340.7598570611
 20
240.7692352293
 11
340.7598570611
 21
241.6025685129
  0
LINE
  5
38C
100
AcDbEntity
  8
0
100
AcDbLine
 62
7
  6
CONTINUOUS
 10
340.7598570611
 20
244.1025685129
 11
340.7598570611
 21
244.7275685129
  0
LINE
  5
38D
100
AcDbEntity
  8
0
100
AcDbLine
 62
7
  6
CONTINUOUS
 10
340.7598570611
 20
245.5609016476
 11
340.7598570611
 21
246.1859016476
  0
LINE
  5
38E
100
AcDbEntity
  8
0
100
AcDbLine
 62
7
  6
CONTINUOUS
 10
340.7598570611
 20
255.8734022436
 11
340.7598570611
 21
256.4984022436
  0
LINE
  5
38F
100
AcDbEntity
  8
0
100
AcDbLine
 62
7
  6
CONTINUOUS
 10
340.6534740857
 20
258.5817347822
 11
340.7598570611
 21
259.2067359743
  0
LINE
  5
390
100
AcDbEntity
  8
0
100
AcDbLine
 62
7
  6
CONTINUOUS
 10
336.2917718913
 20
259.2067359743
 11
336.3981548573
 21
259.7275685129
  0
LINE
  5
391
100
AcDbEntity
  8
0
100
AcDbLine
 62
7
  6
CONTINUOUS
 10
335.8662400271
 20
248.5817353783
 11
335.7598570611
 21
248.0609016476
  0
LINE
  5
392
100
AcDbEntity
  8
0
100
AcDbLine
 62
7
  6
CONTINUOUS
 10
340.2279421564
 20
259.2067359743
 11
340.1215591903
 21
258.6859022436
  0
LINE
  5
393
100
AcDbEntity
  8
RUNDUNGEN
100
AcDbLine
 62
7
  6
CONTINUOUS
 10
324.9317808497
 20
243.4487209356
 11
330.0609459743
 21
252.3326955319
  0
LINE
  5
394
100
AcDbEntity
  8
0
100
AcDbLine
 62
7
  6
CONTINUOUS
 10
338.7385804083
 20
257.3317347822
 11
339.2704953875
 21
257.4359022436
  0
LINE
  5
395
100
AcDbEntity
  8
0
100
AcDbLine
 62
7
  6
CONTINUOUS
 10
339.2704953875
 20
257.9567347822
 11
338.6321974422
 21
257.8525685129
  0
LINE
  5
396
100
AcDbEntity
  8
0
100
AcDbLine
 62
7
  6
CONTINUOUS
 10
336.5045378234
 20
255.2484022436
 11
337.3556018497
 21
255.2484022436
  0
LINE
  5
397
100
AcDbEntity
  8
0
100
AcDbLine
 62
7
  6
CONTINUOUS
 10
336.6109207894
 20
255.8734022436
 11
340.7598570611
 21
255.8734022436
  0
LINE
  5
398
100
AcDbEntity
  8
0
100
AcDbLine
 62
7
  6
CONTINUOUS
 10
340.7598570611
 20
256.4984022436
 11
335.7598570611
 21
256.4984022436
  0
LINE
  5
399
100
AcDbEntity
  8
0
100
AcDbLine
 62
7
  6
CONTINUOUS
 10
337.7811337139
 20
257.3317347822
 11
338.7385804083
 21
257.3317347822
  0
LINE
  5
39A
100
AcDbEntity
  8
0
100
AcDbLine
 62
7
  6
CONTINUOUS
 10
338.6321974422
 20
257.8525685129
 11
337.8875166799
 21
257.8525685129
  0
LINE
  5
39B
100
AcDbEntity
  8
0
100
AcDbLine
 62
7
  6
CONTINUOUS
 10
337.8875166799
 20
260.5609010515
 11
338.6321974422
 21
260.5609010515
  0
LINE
  5
39C
100
AcDbEntity
  8
0
100
AcDbLine
 62
7
  6
CONTINUOUS
 10
338.7385804083
 20
261.0817359743
 11
337.7811337139
 21
261.0817359743
  0
LINE
  5
39D
100
AcDbEntity
  8
0
100
AcDbLine
 62
7
  6
CONTINUOUS
 10
337.8875166799
 20
257.8525685129
 11
337.2492188837
 21
257.9567347822
  0
LINE
  5
39E
100
AcDbEntity
  8
0
100
AcDbLine
 62
7
  6
CONTINUOUS
 10
338.6321974422
 20
260.5609010515
 11
339.2704953875
 21
260.4567359743
  0
LINE
  5
39F
100
AcDbEntity
  8
0
100
AcDbLine
 62
7
  6
CONTINUOUS
 10
339.2704953875
 20
260.9775685129
 11
338.7385804083
 21
261.0817359743
  0
LINE
  5
3A0
100
AcDbEntity
  8
0
100
AcDbLine
 62
7
  6
CONTINUOUS
 10
339.5896442856
 20
260.8734010515
 11
339.2704953875
 21
260.9775685129
  0
LINE
  5
3A1
100
AcDbEntity
  8
KONSTRUKTIONSELEMENTE
100
AcDbLine
 62
7
  6
CONTINUOUS
 10
350.5298570611
 20
360.2014894736
 11
350.5298570611
 21
333.4363222697
  0
LINE
  5
3A2
100
AcDbEntity
  8
KONSTRUKTIONSELEMENTE
100
AcDbLine
 62
7
  6
CONTINUOUS
 10
350.5298570611
 20
276.0694357589
 11
350.5298570611
 21
249.2525685129
  0
LINE
  5
3A3
100
AcDbEntity
  8
KONSTRUKTIONSELEMENTE
100
AcDbLine
 62
7
  6
CONTINUOUS
 10
350.5296946055
 20
276.0558097979
 11
353.5298570611
 21
287.2525685129
  0
LINE
  5
3A4
100
AcDbEntity
  8
KONSTRUKTIONSELEMENTE
100
AcDbLine
 62
7
  6
CONTINUOUS
 10
366.5300282342
 20
333.4493597625
 11
363.5298570611
 21
322.2525685129
  0
LINE
  5
3A5
100
AcDbEntity
  8
0
100
AcDbLine
 62
7
  6
CONTINUOUS
 10
336.2917718913
 20
248.1650685129
 11
336.3981548573
 21
248.4775685129
  0
LINE
  5
3A6
100
AcDbEntity
  8
0
100
AcDbLine
 62
7
  6
CONTINUOUS
 10
336.1853889252
 20
260.3525685129
 11
335.8662400271
 21
259.8317359743
  0
LINE
  5
3A7
100
AcDbEntity
  8
0
100
AcDbLine
 62
7
  6
CONTINUOUS
 10
340.3343251597
 20
258.0609022436
 11
340.6534740857
 21
258.5817347822
  0
LINE
  5
3A8
100
AcDbEntity
  8
0
100
AcDbLine
 62
7
  6
CONTINUOUS
 10
336.3981548573
 20
259.7275685129
 11
336.6109207894
 21
260.0400685129
  0
LINE
  5
3A9
100
AcDbEntity
  8
0
100
AcDbLine
 62
7
  6
CONTINUOUS
 10
340.1215591903
 20
258.6859022436
 11
339.9087932582
 21
258.3734022436
  0
LINE
  5
3AA
100
AcDbEntity
  8
0
100
AcDbLine
 62
7
  6
CONTINUOUS
 10
337.7811337139
 20
261.0817359743
 11
337.2492188837
 21
260.9775685129
  0
LINE
  5
3AB
100
AcDbEntity
  8
0
100
AcDbLine
 62
7
  6
CONTINUOUS
 10
337.2492188837
 20
260.4567359743
 11
337.8875166799
 21
260.5609010515
  0
LINE
  5
3AC
100
AcDbEntity
  8
RUNDUNGEN
100
AcDbLine
 62
7
  6
CONTINUOUS
 10
367.0586229282
 20
254.0637943683
 11
366.5298570611
 21
254.5234435239
  0
LINE
  5
3AD
100
AcDbEntity
  8
KONSTRUKTIONSELEMENTE
100
AcDbLine
 62
7
  6
CONTINUOUS
 10
353.5298570611
 20
322.2525685129
 11
353.5298570611
 21
287.2525685129
  0
LINE
  5
3AE
100
AcDbEntity
  8
0
100
AcDbLine
 62
7
  6
CONTINUOUS
 10
336.1853889252
 20
248.9984016476
 11
335.8662400271
 21
248.5817353783
  0
LINE
  5
3AF
100
AcDbEntity
  8
0
100
AcDbLine
 62
7
  6
CONTINUOUS
 10
336.5045378234
 20
260.6650685129
 11
336.1853889252
 21
260.3525685129
  0
LINE
  5
3B0
100
AcDbEntity
  8
0
100
AcDbLine
 62
7
  6
CONTINUOUS
 10
340.0151762243
 20
257.7484022436
 11
340.3343251597
 21
258.0609022436
  0
LINE
  5
3B1
100
AcDbEntity
  8
0
100
AcDbLine
 62
7
  6
CONTINUOUS
 10
336.6109207894
 20
260.0400685129
 11
337.2492188837
 21
260.4567359743
  0
LINE
  5
3B2
100
AcDbEntity
  8
KONSTRUKTIONSELEMENTE
100
AcDbLine
 62
7
  6
CONTINUOUS
 10
363.5298570611
 20
322.2525685129
 11
363.5298570611
 21
287.2525685129
  0
LINE
  5
3B3
100
AcDbEntity
  8
0
100
AcDbLine
 62
7
  6
CONTINUOUS
 10
364.0298570611
 20
315.8125685129
 11
364.0298570611
 21
308.8125685129
  0
LINE
  5
3B4
100
AcDbEntity
  8
0
100
AcDbLine
 62
7
  6
CONTINUOUS
 10
364.0298570611
 20
307.8125685129
 11
364.0298570611
 21
300.8125685129
  0
LINE
  5
3B5
100
AcDbEntity
  8
0
100
AcDbLine
 62
7
  6
CONTINUOUS
 10
364.0298570611
 20
299.8125685129
 11
364.0298570611
 21
292.8125685129
  0
LINE
  5
3B6
100
AcDbEntity
  8
0
100
AcDbLine
 62
7
  6
CONTINUOUS
 10
336.3981548573
 20
248.4775685129
 11
336.6109207894
 21
248.6859016476
  0
LINE
  5
3B7
100
AcDbEntity
  8
0
100
AcDbLine
 62
7
  6
CONTINUOUS
 10
336.6109207894
 20
249.3109022436
 11
336.1853889252
 21
248.9984016476
  0
LINE
  5
3B8
100
AcDbEntity
  8
0
100
AcDbLine
 62
7
  6
CONTINUOUS
 10
339.9087932582
 20
258.3734022436
 11
339.2704953875
 21
257.9567347822
  0
LINE
  5
3B9
100
AcDbEntity
  8
0
100
AcDbLine
 62
7
  6
CONTINUOUS
 10
336.9300696875
 20
260.8734010515
 11
336.5045378234
 21
260.6650685129
  0
LINE
  5
3BA
100
AcDbEntity
  8
0
100
AcDbLine
 62
7
  6
CONTINUOUS
 10
339.5896442856
 20
257.5400685129
 11
340.0151762243
 21
257.7484022436
  0
LINE
  5
3BB
100
AcDbEntity
  8
0
100
AcDbLine
 62
7
  6
CONTINUOUS
 10
337.2492188837
 20
260.9775685129
 11
336.9300696875
 21
260.8734010515
  0
LINE
  5
3BC
100
AcDbEntity
  8
0
100
AcDbLine
 62
7
  6
CONTINUOUS
 10
337.452567814
 20
278.2525685129
 11
344.9618800564
 21
278.2525685129
  0
LINE
  5
3BD
100
AcDbEntity
  8
0
100
AcDbLine
 62
7
  6
CONTINUOUS
 10
372.0978340658
 20
278.2525685129
 11
379.6071464639
 21
278.2525685129
  0
LINE
  5
3BE
100
AcDbEntity
  8
KONSTRUKTIONSELEMENTE
100
AcDbLine
 62
7
  6
CONTINUOUS
 10
353.5298570611
 20
322.2525685129
 11
350.5296941155
 21
333.449329057
  0
LINE
  5
3BF
100
AcDbEntity
  8
KONSTRUKTIONSELEMENTE
100
AcDbLine
 62
7
  6
CONTINUOUS
 10
366.5298570611
 20
353.5115518795
 11
366.5298570611
 21
333.435738351
  0
LINE
  5
3C0
100
AcDbEntity
  8
KONSTRUKTIONSELEMENTE
100
AcDbLine
 62
7
  6
CONTINUOUS
 10
366.5298570611
 20
276.0688118213
 11
366.5298570611
 21
249.2525685129
  0
LINE
  5
3C1
100
AcDbEntity
  8
0
100
AcDbLine
 62
7
  6
CONTINUOUS
 10
367.0298570611
 20
362.749356241
 11
367.0298570611
 21
350.8666277924
  0
LINE
  5
3C2
100
AcDbEntity
  8
RUNDUNGEN
100
AcDbLine
 62
7
  6
CONTINUOUS
 10
350.5298570611
 20
254.5234435239
 11
350.0010895294
 21
254.0637929213
  0
LINE
  5
3C3
100
AcDbEntity
  8
0
100
AcDbLine
 62
7
  6
CONTINUOUS
 10
339.2704953875
 20
257.4359022436
 11
339.5896442856
 21
257.5400685129
  0
LINE
  5
3C4
100
AcDbEntity
  8
RUNDUNGEN
100
AcDbLine
 62
7
  6
CONTINUOUS
 10
392.1279332724
 20
243.4487209356
 11
386.9987681478
 21
252.3326955319
  0
LINE
  5
3C5
100
AcDbEntity
  8
KONSTRUKTIONSELEMENTE
100
AcDbLine
 62
7
  6
CONTINUOUS
 10
363.5298570611
 20
287.2525685129
 11
366.5300199581
 21
276.0558081502
  0
LINE
  5
3C6
100
AcDbEntity
  8
0
100
AcDbLine
 62
7
  6
CONTINUOUS
 10
378.8560618321
 20
253.5955199733
 11
378.8560618321
 21
251.8457379057
  0
LINE
  5
3C7
100
AcDbEntity
  8
0
100
AcDbLine
 62
7
  6
CONTINUOUS
 10
379.7625631743
 20
251.8443008236
 11
379.7625631743
 21
253.5955199733
  0
LINE
  5
3C8
100
AcDbEntity
  8
0
100
AcDbLine
 62
7
  6
CONTINUOUS
 10
336.9300696875
 20
249.4150685129
 11
336.6109207894
 21
249.3109022436
  0
LINE
  5
3C9
100
AcDbEntity
  8
0
100
AcDbLine
 62
7
  6
CONTINUOUS
 10
336.6109207894
 20
248.6859016476
 11
336.9300696875
 21
248.7900685129
  0
LINE
  5
3CA
100
AcDbEntity
  8
0
100
AcDbLine
 62
7
  6
CONTINUOUS
 10
363.5298570611
 20
292.8125685129
 11
364.0298570611
 21
292.8125685129
  0
LINE
  5
3CB
100
AcDbEntity
  8
RUNDUNGEN
100
AcDbLine
 62
7
  6
CONTINUOUS
 10
381.8844166237
 20
277.1810936888
 11
385.5940348336
 21
272.76014286
  0
LINE
  5
3CC
100
AcDbEntity
  8
0
100
AcDbLine
 62
7
  6
CONTINUOUS
 10
382.3109612432
 20
248.7072773976
 11
382.2975254856
 21
249.0955199733
  0
LINE
  5
3CD
100
AcDbEntity
  8
0
100
AcDbLine
 62
7
  6
CONTINUOUS
 10
382.3109612432
 20
253.8072773976
 11
382.2975254856
 21
254.1955199733
  0
LINE
  5
3CE
100
AcDbEntity
  8
RUNDUNGEN
100
AcDbLine
 62
7
  6
CONTINUOUS
 10
386.5298570611
 20
270.1890407061
 11
386.5298570611
 21
254.0826955319
  0
LINE
  5
3CF
100
AcDbEntity
  8
0
100
AcDbLine
 62
7
  6
CONTINUOUS
 10
340.1215591903
 20
241.1859017966
 11
335.7598570611
 21
239.7275685129
  0
LINE
  5
3D0
100
AcDbEntity
  8
0
100
AcDbLine
 62
7
  6
CONTINUOUS
 10
335.7598570611
 20
239.1025685129
 11
340.7598570611
 21
240.7692352293
  0
LINE
  5
3D1
100
AcDbEntity
  8
0
100
AcDbLine
 62
7
  6
CONTINUOUS
 10
363.5298570611
 20
299.8125685129
 11
364.0298570611
 21
299.8125685129
  0
LINE
  5
3D2
100
AcDbEntity
  8
0
100
AcDbLine
 62
7
  6
CONTINUOUS
 10
363.5298570611
 20
300.8125685129
 11
364.0298570611
 21
300.8125685129
  0
LINE
  5
3D3
100
AcDbEntity
  8
0
100
AcDbLine
 62
7
  6
CONTINUOUS
 10
363.5298570611
 20
300.9615046784
 11
364.0298570611
 21
300.9615046784
  0
LINE
  5
3D4
100
AcDbEntity
  8
0
100
AcDbLine
 62
7
  6
CONTINUOUS
 10
363.5298570611
 20
301.2593770225
 11
364.0298570611
 21
301.2593770225
  0
LINE
  5
3D5
100
AcDbEntity
  8
0
100
AcDbLine
 62
7
  6
CONTINUOUS
 10
363.5298570611
 20
301.8551216845
 11
364.0298570611
 21
301.8551216845
  0
LINE
  5
3D6
100
AcDbEntity
  8
0
100
AcDbLine
 62
7
  6
CONTINUOUS
 10
392.5298570611
 20
241.9487209356
 11
392.5298570611
 21
193.2525685129
  0
LINE
  5
3D7
100
AcDbEntity
  8
FASEN
100
AcDbLine
 62
7
  6
CONTINUOUS
 10
319.0298570611
 20
193.2525685129
 11
318.5298570611
 21
192.7525685129
  0
LINE
  5
3D8
100
AcDbEntity
  8
0
100
AcDbLine
 62
7
  6
CONTINUOUS
 10
363.5298570611
 20
302.4508663986
 11
364.0298570611
 21
302.4508663986
  0
LINE
  5
3D9
100
AcDbEntity
  8
0
100
AcDbLine
 62
7
  6
CONTINUOUS
 10
363.5298570611
 20
303.1955471609
 11
364.0298570611
 21
303.1955471609
  0
LINE
  5
3DA
100
AcDbEntity
  8
0
100
AcDbLine
 62
7
  6
CONTINUOUS
 10
363.5298570611
 20
307.8125685129
 11
364.0298570611
 21
307.8125685129
  0
LINE
  5
3DB
100
AcDbEntity
  8
0
100
AcDbLine
 62
7
  6
CONTINUOUS
 10
363.5298570611
 20
308.8125685129
 11
364.0298570611
 21
308.8125685129
  0
LINE
  5
3DC
100
AcDbEntity
  8
KONSTRUKTIONSELEMENTE
100
AcDbLine
 62
7
  6
CONTINUOUS
 10
398.5298570611
 20
183.2525685129
 11
398.5298570611
 21
192.7525685129
  0
LINE
  5
3DD
100
AcDbEntity
  8
0
100
AcDbLine
 62
7
  6
CONTINUOUS
 10
363.5298570611
 20
315.8125685129
 11
364.0298570611
 21
315.8125685129
  0
LINE
  5
3DE
100
AcDbEntity
  8
0
100
AcDbLine
 62
7
  6
CONTINUOUS
 10
366.5298570611
 20
350.8666277924
 11
367.0298570611
 21
350.8666277924
  0
LINE
  5
3DF
100
AcDbEntity
  8
0
100
AcDbLine
 62
7
  6
CONTINUOUS
 10
366.050674601
 20
355.7291665416
 11
367.0298570611
 21
355.7291665416
  0
LINE
  5
3E0
100
AcDbEntity
  8
0
100
AcDbLine
 62
7
  6
CONTINUOUS
 10
366.0790040785
 20
357.4867015279
 11
367.0298570611
 21
357.4867015279
  0
LINE
  5
3E1
100
AcDbEntity
  8
0
100
AcDbLine
 62
7
  6
CONTINUOUS
 10
366.1157369675
 20
357.749396461
 11
367.0298570611
 21
357.749396461
  0
LINE
  5
3E2
100
AcDbEntity
  8
0
100
AcDbLine
 62
7
  6
CONTINUOUS
 10
366.0506745961
 20
359.6065272451
 11
367.0298570611
 21
359.6065272451
  0
LINE
  5
3E3
100
AcDbEntity
  8
0
100
AcDbLine
 62
7
  6
CONTINUOUS
 10
366.0790040799
 20
360.7682440279
 11
367.0298570611
 21
360.7682440279
  0
LINE
  5
3E4
100
AcDbEntity
  8
0
100
AcDbLine
 62
7
  6
CONTINUOUS
 10
366.1157369752
 20
360.8925687815
 11
367.0298570611
 21
360.8925687815
  0
LINE
  5
3E5
100
AcDbEntity
  8
0
100
AcDbLine
 62
7
  6
CONTINUOUS
 10
366.1228721763
 20
362.749356241
 11
367.0298570611
 21
362.749356241
  0
LINE
  5
3E6
100
AcDbEntity
  8
FASEN
100
AcDbLine
 62
7
  6
CONTINUOUS
 10
395.5298570611
 20
180.2525685129
 11
398.5298570611
 21
183.2525685129
  0
LINE
  5
3E7
100
AcDbEntity
  8
RUNDUNGEN
100
AcDbLine
 62
7
  6
CONTINUOUS
 10
199.2093315774
 20
39.6634682373
 11
223.2093315774
 21
39.6634682373
  0
LINE
  5
3E8
100
AcDbEntity
  8
0
100
AcDbLine
 62
7
  6
CONTINUOUS
 10
196.2093315774
 20
43.880762124
 11
195.7093315774
 21
43.880762124
  0
LINE
  5
3E9
100
AcDbEntity
  8
0
100
AcDbLine
 62
7
  6
CONTINUOUS
 10
196.2093315774
 20
43.8957998127
 11
195.7093315774
 21
43.8957998127
  0
LINE
  5
3EA
100
AcDbEntity
  8
0
100
AcDbLine
 62
7
  6
CONTINUOUS
 10
196.2093315774
 20
44.802301155
 11
195.7093315774
 21
44.802301155
  0
LINE
  5
3EB
100
AcDbEntity
  8
0
100
AcDbLine
 62
7
  6
CONTINUOUS
 10
191.3849374889
 20
60.1426506974
 11
191.3849374889
 21
59.1634682373
  0
LINE
  5
3EC
100
AcDbEntity
  8
0
100
AcDbLine
 62
7
  6
CONTINUOUS
 10
196.2093315774
 20
46.430762124
 11
195.7093315774
 21
46.430762124
  0
LINE
  5
3ED
100
AcDbEntity
  8
0
100
AcDbLine
 62
7
  6
CONTINUOUS
 10
196.2093315774
 20
47.3372634663
 11
195.7093315774
 21
47.3372634663
  0
LINE
  5
3EE
100
AcDbEntity
  8
0
100
AcDbLine
 62
7
  6
CONTINUOUS
 10
196.2093315774
 20
48.9592230931
 11
195.7093315774
 21
48.9592230931
  0
LWPOLYLINE
  5
3EF
100
AcDbEntity
  8
RUNDUNGEN
100
AcDbPolyline
 62
7
  6
CONTINUOUS
 90
7
 70
0
 10
196.2093318053
 20
80.9156400151
 10
196.2119049595
 20
80.7850826832
 10
196.2421161439
 20
80.4472455273
 10
196.3068622561
 20
80.1089325169
 10
196.4060477517
 20
79.7747684452
 10
196.5391366743
 20
79.448269802
 10
196.7050998038
 20
79.1329168147
  0
LINE
  5
3F0
100
AcDbEntity
  8
0
100
AcDbLine
 62
7
  6
CONTINUOUS
 10
193.8162068635
 20
60.1143212199
 11
193.8162068635
 21
59.1634682373
  0
LINE
  5
3F1
100
AcDbEntity
  8
0
100
AcDbLine
 62
7
  6
CONTINUOUS
 10
194.397510127
 20
60.0775883309
 11
194.397510127
 21
59.1634682373
  0
LINE
  5
3F2
100
AcDbEntity
  8
0
100
AcDbLine
 62
7
  6
CONTINUOUS
 10
195.0270877346
 20
59.9673077467
 11
195.0270877346
 21
59.1634682373
  0
LINE
  5
3F3
100
AcDbEntity
  8
0
100
AcDbLine
 62
7
  6
CONTINUOUS
 10
195.630151262
 20
59.8460477098
 11
195.630151262
 21
59.1634682373
  0
LINE
  5
3F4
100
AcDbEntity
  8
0
100
AcDbLine
 62
7
  6
CONTINUOUS
 10
195.7093315774
 20
43.8811425035
 11
195.7093315774
 21
44.802301155
  0
LINE
  5
3F5
100
AcDbEntity
  8
0
100
AcDbLine
 62
7
  6
CONTINUOUS
 10
195.7093315774
 20
44.8787586082
 11
195.7093315774
 21
49.8803817446
  0
LINE
  5
3F6
100
AcDbEntity
  8
0
100
AcDbLine
 62
7
  6
CONTINUOUS
 10
195.7093315774
 20
85.4334682373
 11
195.7093315774
 21
90.4334682373
  0
LINE
  5
3F7
100
AcDbEntity
  8
0
100
AcDbLine
 62
7
  6
CONTINUOUS
 10
195.9558201978
 20
59.7743039942
 11
195.9558201978
 21
59.1634682373
  0
LINE
  5
3F8
100
AcDbEntity
  8
RUNDUNGEN
100
AcDbLine
 62
7
  6
CONTINUOUS
 10
196.2093315774
 20
39.0802447247
 11
196.2093315774
 21
55.8206500708
  0
LINE
  5
3F9
100
AcDbEntity
  8
RUNDUNGEN
100
AcDbLine
 62
7
  6
CONTINUOUS
 10
196.2093315774
 20
79.5062871045
 11
196.2093315774
 21
96.2466800498
  0
LINE
  5
3FA
100
AcDbEntity
  8
0
100
AcDbLine
 62
7
  6
CONTINUOUS
 10
196.2549752629
 20
59.7054024036
 11
196.2549752629
 21
59.1634682373
  0
LINE
  5
3FB
100
AcDbEntity
  8
0
100
AcDbLine
 62
7
  6
CONTINUOUS
 10
196.3780386106
 20
59.6748409451
 11
196.3780386106
 21
59.1634682373
  0
LINE
  5
3FC
100
AcDbEntity
  8
0
100
AcDbLine
 62
7
  6
CONTINUOUS
 10
196.2093315774
 20
49.8657244354
 11
195.7093315774
 21
49.8657244354
  0
LINE
  5
3FD
100
AcDbEntity
  8
0
100
AcDbLine
 62
7
  6
CONTINUOUS
 10
196.2093315774
 20
49.880762124
 11
195.7093315774
 21
49.880762124
  0
LINE
  5
3FE
100
AcDbEntity
  8
0
100
AcDbLine
 62
7
  6
CONTINUOUS
 10
241.7216241822
 20
52.6634682373
 11
241.9999551501
 21
52.6634682373
  0
LINE
  5
3FF
100
AcDbEntity
  8
0
100
AcDbLine
 62
7
  6
CONTINUOUS
 10
197.2122533652
 20
60.1426507022
 11
197.2122533652
 21
59.1634682373
  0
LINE
  5
400
100
AcDbEntity
  8
0
100
AcDbLine
 62
7
  6
CONTINUOUS
 10
199.9781915635
 20
60.1143212185
 11
199.9781915635
 21
59.1634682373
  0
LINE
  5
401
100
AcDbEntity
  8
0
100
AcDbLine
 62
7
  6
CONTINUOUS
 10
243.2941800265
 20
56.4134682373
 11
243.5589838166
 21
56.4134682373
  0
LINE
  5
402
100
AcDbEntity
  8
0
100
AcDbLine
 62
7
  6
CONTINUOUS
 10
200.6038632191
 20
60.0775883231
 11
200.6038632191
 21
59.1634682373
  0
LINE
  5
403
100
AcDbEntity
  8
0
100
AcDbLine
 62
7
  6
CONTINUOUS
 10
201.2131573911
 20
59.9673077437
 11
201.2131573911
 21
59.1634682373
  0
LINE
  5
404
100
AcDbEntity
  8
0
100
AcDbLine
 62
7
  6
CONTINUOUS
 10
201.7566386692
 20
59.846047707
 11
201.7566386692
 21
59.1634682373
  0
LINE
  5
405
100
AcDbEntity
  8
0
100
AcDbLine
 62
7
  6
CONTINUOUS
 10
202.0201905664
 20
59.7743039965
 11
202.0201905664
 21
59.1634682373
  0
LINE
  5
406
100
AcDbEntity
  8
0
100
AcDbLine
 62
7
  6
CONTINUOUS
 10
202.2179297081
 20
59.7054024051
 11
202.2179297081
 21
59.1634682373
  0
LINE
  5
407
100
AcDbEntity
  8
0
100
AcDbLine
 62
7
  6
CONTINUOUS
 10
202.2509863159
 20
59.6748409444
 11
202.2509863159
 21
59.1634682373
  0
LWPOLYLINE
  5
408
100
AcDbEntity
  8
RUNDUNGEN
100
AcDbPolyline
 62
7
  6
CONTINUOUS
 90
7
 70
0
 10
196.6966131643
 20
56.1795493878
 10
196.531978981
 20
55.8632060591
 10
196.4003404444
 20
55.535798241
 10
196.3027285302
 20
55.2008374222
 10
196.2396721503
 20
54.8618844536
 10
196.2112408209
 20
54.5236178101
 10
196.2093317805
 20
54.4113391499
  0
LINE
  5
409
100
AcDbEntity
  8
0
100
AcDbLine
 62
7
  6
CONTINUOUS
 10
243.5575197269
 20
57.1947183863
 11
243.8201852393
 21
57.1947183863
  0
LINE
  5
40A
100
AcDbEntity
  8
0
100
AcDbLine
 62
7
  6
CONTINUOUS
 10
243.7054851959
 20
57.6634682373
 11
243.9669642757
 21
57.6634682373
  0
LINE
  5
40B
100
AcDbEntity
  8
0
100
AcDbLine
 62
7
  6
CONTINUOUS
 10
229.543362271
 20
59.1634682373
 11
221.3918014201
 21
59.1634682373
  0
LINE
  5
40C
100
AcDbEntity
  8
0
100
AcDbLine
 62
7
  6
CONTINUOUS
 10
220.7167000545
 20
59.1634682373
 11
217.6940361095
 21
59.1634682373
  0
LINE
  5
40D
100
AcDbEntity
  8
0
100
AcDbLine
 62
7
  6
CONTINUOUS
 10
215.922045595
 20
59.1634682373
 11
210.8761905793
 21
59.1634682373
  0
LINE
  5
40E
100
AcDbEntity
  8
0
100
AcDbLine
 62
7
  6
CONTINUOUS
 10
202.2509863159
 20
59.1634682373
 11
197.2122533652
 21
59.1634682373
  0
LINE
  5
40F
100
AcDbEntity
  8
0
100
AcDbLine
 62
7
  6
CONTINUOUS
 10
196.3780386106
 20
59.1634682373
 11
191.3849374889
 21
59.1634682373
  0
LINE
  5
410
100
AcDbEntity
  8
KONSTRUKTIONSELEMENTE
100
AcDbLine
 62
7
  6
CONTINUOUS
 10
239.4156023691
 20
59.6634682373
 11
229.543362271
 21
59.6634682373
  0
LINE
  5
411
100
AcDbEntity
  8
KONSTRUKTIONSELEMENTE
100
AcDbLine
 62
7
  6
CONTINUOUS
 10
224.8512868603
 20
59.6634682373
 11
220.7167000545
 21
59.6634682373
  0
LINE
  5
412
100
AcDbEntity
  8
KONSTRUKTIONSELEMENTE
100
AcDbLine
 62
7
  6
CONTINUOUS
 10
217.6940361095
 20
59.6634682373
 11
214.9577486392
 21
59.6634682373
  0
LINE
  5
413
100
AcDbEntity
  8
KONSTRUKTIONSELEMENTE
100
AcDbLine
 62
7
  6
CONTINUOUS
 10
211.6283015114
 20
59.6634682373
 11
202.2509863159
 21
59.6634682373
  0
LINE
  5
414
100
AcDbEntity
  8
KONSTRUKTIONSELEMENTE
100
AcDbLine
 62
7
  6
CONTINUOUS
 10
197.2122533652
 20
59.6634682373
 11
196.3738559341
 21
59.6634682373
  0
LINE
  5
415
100
AcDbEntity
  8
KONSTRUKTIONSELEMENTE
100
AcDbLine
 62
7
  6
CONTINUOUS
 10
191.3849374889
 20
59.6634682373
 11
183.0029182022
 21
59.6634682373
  0
LINE
  5
416
100
AcDbEntity
  8
RUNDUNGEN
100
AcDbLine
 62
7
  6
CONTINUOUS
 10
197.8510365289
 20
57.9296678343
 11
197.7541194833
 21
57.7540428788
  0
LWPOLYLINE
  5
417
100
AcDbEntity
  8
RUNDUNGEN
100
AcDbPolyline
 62
7
  6
CONTINUOUS
 90
6
 70
0
 10
197.7541194833
 20
57.7540428788
 10
197.6015941378
 20
57.493094073
 10
197.4439889638
 20
57.2418837027
 10
197.2816060186
 20
57.0011525592
 10
197.1147826383
 20
56.7715732947
 10
197.002578491
 20
56.6266475117
  0
LINE
  5
418
100
AcDbEntity
  8
RUNDUNGEN
100
AcDbLine
 62
7
  6
CONTINUOUS
 10
196.8924588515
 20
56.4810398663
 11
196.6966131643
 21
56.1795493878
  0
LINE
  5
419
100
AcDbEntity
  8
RUNDUNGEN
100
AcDbLine
 62
7
  6
CONTINUOUS
 10
197.0025289202
 20
56.6265875274
 11
196.8924588515
 21
56.4810398663
  0
LINE
  5
41A
100
AcDbEntity
  8
RUNDUNGEN
100
AcDbLine
 62
7
  6
CONTINUOUS
 10
197.002578491
 20
56.6266475117
 11
197.0025304011
 21
56.6265869715
  0
LINE
  5
41B
100
AcDbEntity
  8
KONSTRUKTIONSELEMENTE
100
AcDbLine
 62
7
  6
CONTINUOUS
 10
247.9543295758
 20
62.6634682373
 11
247.1325530357
 21
62.6634682373
  0
LINE
  5
41C
100
AcDbEntity
  8
KONSTRUKTIONSELEMENTE
100
AcDbLine
 62
7
  6
CONTINUOUS
 10
175.2861101191
 20
62.6634682373
 11
174.464333579
 21
62.6634682373
  0
LINE
  5
41D
100
AcDbEntity
  8
RUNDUNGEN
100
AcDbLine
 62
7
  6
CONTINUOUS
 10
197.0025707731
 20
78.7002968877
 11
197.0025263777
 21
78.7003527775
  0
LWPOLYLINE
  5
41E
100
AcDbEntity
  8
RUNDUNGEN
100
AcDbPolyline
 62
7
  6
CONTINUOUS
 90
5
 70
0
 10
197.0025707239
 20
78.7002965311
 10
197.1195045754
 20
78.5490969868
 10
197.2862278986
 20
78.319173989
 10
197.4485310692
 20
78.0780622837
 10
197.6060843869
 20
77.8264184817
  0
LINE
  5
41F
100
AcDbEntity
  8
RUNDUNGEN
100
AcDbLine
 62
7
  6
CONTINUOUS
 10
196.9021706612
 20
78.8324588909
 11
197.0025263777
 21
78.7003527775
  0
LINE
  5
420
100
AcDbEntity
  8
RUNDUNGEN
100
AcDbLine
 62
7
  6
CONTINUOUS
 10
196.7050998038
 20
79.1329168147
 11
196.9021706612
 21
78.8324588909
  0
LWPOLYLINE
  5
421
100
AcDbEntity
  8
RUNDUNGEN
100
AcDbPolyline
 62
7
  6
CONTINUOUS
 90
3
 70
0
 10
197.6060843869
 20
77.8264184817
 10
197.7585997501
 20
77.5649467766
 10
197.8509064441
 20
77.397509382
  0
LINE
  5
422
100
AcDbEntity
  8
0
100
AcDbLine
 62
7
  6
CONTINUOUS
 10
210.8761905793
 20
59.6634682373
 11
210.8761905793
 21
59.1634682373
  0
LINE
  5
423
100
AcDbEntity
  8
0
100
AcDbLine
 62
7
  6
CONTINUOUS
 10
210.9387519432
 20
59.6634682373
 11
210.9387519432
 21
59.1634682373
  0
LINE
  5
424
100
AcDbEntity
  8
0
100
AcDbLine
 62
7
  6
CONTINUOUS
 10
214.2102545201
 20
60.1130480965
 11
214.2102545201
 21
59.1634682373
  0
LINE
  5
425
100
AcDbEntity
  8
0
100
AcDbLine
 62
7
  6
CONTINUOUS
 10
214.9577486392
 20
60.1205789773
 11
214.9577486392
 21
59.1634682373
  0
LINE
  5
426
100
AcDbEntity
  8
RUNDUNGEN
100
AcDbLine
 62
7
  6
CONTINUOUS
 10
225.416089715
 20
78.700293491
 11
225.4161323658
 21
78.7003471844
  0
LINE
  5
427
100
AcDbEntity
  8
RUNDUNGEN
100
AcDbLine
 62
7
  6
CONTINUOUS
 10
225.4160867994
 20
56.6266466604
 11
225.4161359539
 21
56.6265847798
  0
LINE
  5
428
100
AcDbEntity
  8
0
100
AcDbLine
 62
7
  6
CONTINUOUS
 10
215.922045595
 20
59.6634682373
 11
215.922045595
 21
59.1634682373
  0
LINE
  5
429
100
AcDbEntity
  8
0
100
AcDbLine
 62
7
  6
CONTINUOUS
 10
217.6940361095
 20
59.6675114542
 11
217.6940361095
 21
59.1634682373
  0
LINE
  5
42A
100
AcDbEntity
  8
0
100
AcDbLine
 62
7
  6
CONTINUOUS
 10
217.8374541816
 20
59.7000562045
 11
217.8374541816
 21
59.1634682373
  0
LINE
  5
42B
100
AcDbEntity
  8
0
100
AcDbLine
 62
7
  6
CONTINUOUS
 10
218.7972018906
 20
59.6967944204
 11
218.7972018906
 21
59.1634682373
  0
LINE
  5
42C
100
AcDbEntity
  8
0
100
AcDbLine
 62
7
  6
CONTINUOUS
 10
219.0840381352
 20
59.8573519064
 11
219.0840381352
 21
59.1634682373
  0
LWPOLYLINE
  5
42D
100
AcDbEntity
  8
RUNDUNGEN
100
AcDbPolyline
 62
7
  6
CONTINUOUS
 90
7
 70
0
 10
225.7220505563
 20
79.1473873828
 10
225.8866844181
 20
79.4637301966
 10
226.0183223098
 20
79.7911364552
 10
226.1159338774
 20
80.1260955355
 10
226.1789903755
 20
80.4650473567
 10
226.2074221511
 20
80.8033146943
 10
226.2093313198
 20
80.9155963482
  0
LINE
  5
42E
100
AcDbEntity
  8
RUNDUNGEN
100
AcDbLine
 62
7
  6
CONTINUOUS
 10
224.5677434276
 20
77.3974851748
 11
224.664623287
 21
77.5730335323
  0
LWPOLYLINE
  5
42F
100
AcDbEntity
  8
RUNDUNGEN
100
AcDbPolyline
 62
7
  6
CONTINUOUS
 90
6
 70
0
 10
224.664623287
 20
77.5730335323
 10
224.8172017069
 20
77.8340618921
 10
224.9748184031
 20
78.0852750107
 10
225.1371832665
 20
78.3259646528
 10
225.3039675487
 20
78.5554754055
 10
225.416089715
 20
78.700293491
  0
LINE
  5
430
100
AcDbEntity
  8
RUNDUNGEN
100
AcDbLine
 62
7
  6
CONTINUOUS
 10
225.5262039992
 20
78.8458957296
 11
225.7220505563
 21
79.1473873828
  0
LINE
  5
431
100
AcDbEntity
  8
RUNDUNGEN
100
AcDbLine
 62
7
  6
CONTINUOUS
 10
225.4161333864
 20
78.7003475922
 11
225.5262039992
 21
78.8458957296
  0
LINE
  5
432
100
AcDbEntity
  8
KONSTRUKTIONSELEMENTE
100
AcDbLine
 62
7
  6
CONTINUOUS
 10
247.9543295758
 20
72.6634682373
 11
247.1325530357
 21
72.6634682373
  0
LINE
  5
433
100
AcDbEntity
  8
KONSTRUKTIONSELEMENTE
100
AcDbLine
 62
7
  6
CONTINUOUS
 10
175.2861101191
 20
72.6634682373
 11
174.464333579
 21
72.6634682373
  0
LINE
  5
434
100
AcDbEntity
  8
0
100
AcDbLine
 62
7
  6
CONTINUOUS
 10
244.2995845796
 20
75.4759682373
 11
244.5564055682
 21
75.4759682373
  0
LINE
  5
435
100
AcDbEntity
  8
KONSTRUKTIONSELEMENTE
100
AcDbLine
 62
7
  6
CONTINUOUS
 10
239.4157669563
 20
75.6634682373
 11
183.0030121877
 21
75.6634682373
  0
LWPOLYLINE
  5
436
100
AcDbEntity
  8
RUNDUNGEN
100
AcDbPolyline
 62
7
  6
CONTINUOUS
 90
5
 70
0
 10
225.4160855612
 20
56.6266461389
 10
225.2990907396
 20
56.7779258123
 10
225.1323427685
 20
57.0078954113
 10
224.9700264447
 20
57.2490376639
 10
224.8124791356
 20
57.5006832651
  0
LINE
  5
437
100
AcDbEntity
  8
RUNDUNGEN
100
AcDbLine
 62
7
  6
CONTINUOUS
 10
225.516491675
 20
56.4944788115
 11
225.4161359539
 21
56.6265847798
  0
LINE
  5
438
100
AcDbEntity
  8
RUNDUNGEN
100
AcDbLine
 62
7
  6
CONTINUOUS
 10
225.7135625549
 20
56.1940213206
 11
225.516491675
 21
56.4944788115
  0
LWPOLYLINE
  5
439
100
AcDbEntity
  8
RUNDUNGEN
100
AcDbPolyline
 62
7
  6
CONTINUOUS
 90
3
 70
0
 10
224.8124791356
 20
57.5006832651
 10
224.6600025929
 20
57.7620966106
 10
224.5676696451
 20
57.9295879462
  0
LINE
  5
43A
100
AcDbEntity
  8
0
100
AcDbLine
 62
7
  6
CONTINUOUS
 10
219.683882856
 20
59.8564695367
 11
219.683882856
 21
59.1634682373
  0
LINE
  5
43B
100
AcDbEntity
  8
0
100
AcDbLine
 62
7
  6
CONTINUOUS
 10
220.7167000545
 20
59.7000562045
 11
220.7167000545
 21
59.1634682373
  0
LINE
  5
43C
100
AcDbEntity
  8
0
100
AcDbLine
 62
7
  6
CONTINUOUS
 10
221.3918014201
 20
59.6634682373
 11
221.3918014201
 21
59.1634682373
  0
LINE
  5
43D
100
AcDbEntity
  8
0
100
AcDbLine
 62
7
  6
CONTINUOUS
 10
221.6550175059
 20
59.6634682373
 11
221.6550175059
 21
59.1634682373
  0
LINE
  5
43E
100
AcDbEntity
  8
0
100
AcDbLine
 62
7
  6
CONTINUOUS
 10
244.1053412243
 20
76.2572188333
 11
244.3636669001
 21
76.2572188333
  0
LINE
  5
43F
100
AcDbEntity
  8
0
100
AcDbLine
 62
7
  6
CONTINUOUS
 10
243.9356917239
 20
76.8822182373
 11
244.1953460144
 21
76.8822182373
  0
LINE
  5
440
100
AcDbEntity
  8
0
100
AcDbLine
 62
7
  6
CONTINUOUS
 10
243.7531573769
 20
77.5072176412
 11
244.014256477
 21
77.5072176412
  0
LINE
  5
441
100
AcDbEntity
  8
0
100
AcDbLine
 62
7
  6
CONTINUOUS
 10
243.6569907524
 20
77.8197182373
 11
243.9188574978
 21
77.8197182373
  0
LINE
  5
442
100
AcDbEntity
  8
0
100
AcDbLine
 62
7
  6
CONTINUOUS
 10
243.6076703626
 20
77.9759676412
 11
243.8699325523
 21
77.9759676412
  0
LINE
  5
443
100
AcDbEntity
  8
0
100
AcDbLine
 62
7
  6
CONTINUOUS
 10
243.2941800265
 20
78.9134682373
 11
243.5589838166
 21
78.9134682373
  0
LWPOLYLINE
  5
444
100
AcDbEntity
  8
RUNDUNGEN
100
AcDbPolyline
 62
7
  6
CONTINUOUS
 90
7
 70
0
 10
226.2093312635
 20
54.4112975438
 10
226.2067580959
 20
54.5418545505
 10
226.1765470043
 20
54.8796909658
 10
226.1118009858
 20
55.218003998
 10
226.012615407
 20
55.5521685639
 10
225.8795260774
 20
55.8786680118
 10
225.7135625549
 20
56.1940213206
  0
LINE
  5
445
100
AcDbEntity
  8
0
100
AcDbLine
 62
7
  6
CONTINUOUS
 10
223.2492966145
 20
59.6634682373
 11
223.2492966145
 21
59.1634682373
  0
LINE
  5
446
100
AcDbEntity
  8
RUNDUNGEN
100
AcDbLine
 62
7
  6
CONTINUOUS
 10
226.2093315774
 20
39.0802568354
 11
226.2093315774
 21
55.8206361883
  0
LINE
  5
447
100
AcDbEntity
  8
RUNDUNGEN
100
AcDbLine
 62
7
  6
CONTINUOUS
 10
226.2093315774
 20
79.5061737996
 11
226.2093315774
 21
96.2466927381
  0
LINE
  5
448
100
AcDbEntity
  8
0
100
AcDbLine
 62
7
  6
CONTINUOUS
 10
226.3777294123
 20
60.142650712
 11
226.3777294123
 21
59.1634682373
  0
LINE
  5
449
100
AcDbEntity
  8
0
100
AcDbLine
 62
7
  6
CONTINUOUS
 10
243.0094732295
 20
79.6947188333
 11
243.2766281441
 21
79.6947188333
  0
LINE
  5
44A
100
AcDbEntity
  8
0
100
AcDbLine
 62
7
  6
CONTINUOUS
 10
242.3049505034
 20
81.4134676412
 11
242.5781061214
 21
81.4134676412
  0
LINE
  5
44B
100
AcDbEntity
  8
0
100
AcDbLine
 62
7
  6
CONTINUOUS
 10
228.8678607211
 20
60.1143212157
 11
228.8678607211
 21
59.1634682373
  0
LINE
  5
44C
100
AcDbEntity
  8
0
100
AcDbLine
 62
7
  6
CONTINUOUS
 10
229.3154417725
 20
60.0775883077
 11
229.3154417725
 21
59.1634682373
  0
LINE
  5
44D
100
AcDbEntity
  8
0
100
AcDbLine
 62
7
  6
CONTINUOUS
 10
229.5168779096
 20
59.9673077376
 11
229.5168779096
 21
59.1634682373
  0
LINE
  5
44E
100
AcDbEntity
  8
0
100
AcDbLine
 62
7
  6
CONTINUOUS
 10
229.543362271
 20
59.8460477012
 11
229.543362271
 21
59.1634682373
  0
LINE
  5
44F
100
AcDbEntity
  8
0
100
AcDbLine
 62
7
  6
CONTINUOUS
 10
196.2093315774
 20
85.4334682373
 11
195.7093315774
 21
85.4334682373
  0
LINE
  5
450
100
AcDbEntity
  8
0
100
AcDbLine
 62
7
  6
CONTINUOUS
 10
196.2093315774
 20
85.5398512126
 11
195.7093315774
 21
85.5398512126
  0
LINE
  5
451
100
AcDbEntity
  8
0
100
AcDbLine
 62
7
  6
CONTINUOUS
 10
196.2093315774
 20
85.8590001387
 11
195.7093315774
 21
85.8590001387
  0
LINE
  5
452
100
AcDbEntity
  8
0
100
AcDbLine
 62
7
  6
CONTINUOUS
 10
196.2093315774
 20
86.1781490741
 11
195.7093315774
 21
86.1781490741
  0
LINE
  5
453
100
AcDbEntity
  8
0
100
AcDbLine
 62
7
  6
CONTINUOUS
 10
196.2093315774
 20
86.6036810128
 11
195.7093315774
 21
86.6036810128
  0
LINE
  5
454
100
AcDbEntity
  8
0
100
AcDbLine
 62
7
  6
CONTINUOUS
 10
196.2093315774
 20
86.9228299109
 11
195.7093315774
 21
86.9228299109
  0
LINE
  5
455
100
AcDbEntity
  8
0
100
AcDbLine
 62
7
  6
CONTINUOUS
 10
196.2093315774
 20
87.4547448901
 11
195.7093315774
 21
87.4547448901
  0
LINE
  5
456
100
AcDbEntity
  8
0
100
AcDbLine
 62
7
  6
CONTINUOUS
 10
196.2093315774
 20
88.4121915845
 11
195.7093315774
 21
88.4121915845
  0
LINE
  5
457
100
AcDbEntity
  8
0
100
AcDbLine
 62
7
  6
CONTINUOUS
 10
196.2093315774
 20
88.9441064147
 11
195.7093315774
 21
88.9441064147
  0
LINE
  5
458
100
AcDbEntity
  8
0
100
AcDbLine
 62
7
  6
CONTINUOUS
 10
196.2093315774
 20
89.2632556108
 11
195.7093315774
 21
89.2632556108
  0
LINE
  5
459
100
AcDbEntity
  8
0
100
AcDbLine
 62
7
  6
CONTINUOUS
 10
196.2093315774
 20
89.688787475
 11
195.7093315774
 21
89.688787475
  0
LINE
  5
45A
100
AcDbEntity
  8
0
100
AcDbLine
 62
7
  6
CONTINUOUS
 10
196.2093315774
 20
90.0079363731
 11
195.7093315774
 21
90.0079363731
  0
LINE
  5
45B
100
AcDbEntity
  8
0
100
AcDbLine
 62
7
  6
CONTINUOUS
 10
196.2093315774
 20
90.3270852712
 11
195.7093315774
 21
90.3270852712
  0
LINE
  5
45C
100
AcDbEntity
  8
0
100
AcDbLine
 62
7
  6
CONTINUOUS
 10
196.2093315774
 20
90.4334682373
 11
195.7093315774
 21
90.4334682373
  0
LINE
  5
45D
100
AcDbEntity
  8
RUNDUNGEN
100
AcDbLine
 62
7
  6
CONTINUOUS
 10
199.2093315774
 20
95.6634682373
 11
223.2093315774
 21
95.6634682373
  0
ARC
  5
45E
100
AcDbEntity
  8
RUNDUNGEN
100
AcDbCircle
 62
7
  6
CONTINUOUS
 10
191.2093315774
 20
234.2525685129
 40
5.0
100
AcDbArc
 50
270.0000503357
 51
0.0005119783
  0
ARC
  5
45F
100
AcDbEntity
  8
RUNDUNGEN
100
AcDbCircle
 62
7
  6
CONTINUOUS
 10
180.2093315774
 20
226.2525685129
 40
3.0
100
AcDbArc
 50
90.0
 51
180.0
  0
ARC
  5
460
100
AcDbEntity
  8
KONSTRUKTIONSELEMENTE
100
AcDbCircle
 62
7
  6
CONTINUOUS
 10
61.2093315774
 20
304.7525685129
 40
188.5
100
AcDbArc
 50
349.6111421845
 51
10.3888578155
  0
ARC
  5
461
100
AcDbEntity
  8
KONSTRUKTIONSELEMENTE
100
AcDbCircle
 62
7
  6
CONTINUOUS
 10
61.2093315774
 20
304.7525685129
 40
186.7449979984
100
AcDbArc
 50
354.6228840716
 51
5.3771159284
  0
ARC
  5
462
100
AcDbEntity
  8
KONSTRUKTIONSELEMENTE
100
AcDbCircle
 62
7
  6
CONTINUOUS
 10
61.2093315774
 20
304.7525685129
 40
174.2550020016
100
AcDbArc
 50
354.2362097364
 51
5.7637902636
  0
ARC
  5
463
100
AcDbEntity
  8
KONSTRUKTIONSELEMENTE
100
AcDbCircle
 62
7
  6
CONTINUOUS
 10
61.2093315774
 20
304.7525685129
 40
172.5
100
AcDbArc
 50
349.6111421845
 51
10.3888578155
  0
ARC
  5
464
100
AcDbEntity
  8
KONSTRUKTIONSELEMENTE
100
AcDbCircle
 62
7
  6
CONTINUOUS
 10
211.2093315774
 20
277.2525685129
 40
36.0
100
AcDbArc
 50
190.3888578155
 51
245.3706192843
  0
ARC
  5
465
100
AcDbEntity
  8
KONSTRUKTIONSELEMENTE
100
AcDbCircle
 62
7
  6
CONTINUOUS
 10
211.2093315774
 20
277.2525685129
 40
36.0
100
AcDbArc
 50
294.6293807157
 51
349.6111421845
  0
ARC
  5
466
100
AcDbEntity
  8
KONSTRUKTIONSELEMENTE
100
AcDbCircle
 62
7
  6
CONTINUOUS
 10
211.2093315774
 20
277.2525685129
 40
20.0
100
AcDbArc
 50
190.3888578155
 51
221.5261181029
  0
ARC
  5
467
100
AcDbEntity
  8
KONSTRUKTIONSELEMENTE
100
AcDbCircle
 62
7
  6
CONTINUOUS
 10
211.2093315774
 20
277.2525685129
 40
20.0
100
AcDbArc
 50
318.4738818971
 51
349.6111421845
  0
ARC
  5
468
100
AcDbEntity
  8
RUNDUNGEN
100
AcDbCircle
 62
7
  6
CONTINUOUS
 10
211.2093315774
 20
263.2525685129
 40
15.0
100
AcDbArc
 50
0.0
 51
180.0
  0
ARC
  5
469
100
AcDbEntity
  8
RUNDUNGEN
100
AcDbCircle
 62
7
  6
CONTINUOUS
 10
231.2093315774
 20
234.2525685129
 40
5.0
100
AcDbArc
 50
179.9990850232
 51
269.9999947825
  0
ARC
  5
46A
100
AcDbEntity
  8
RUNDUNGEN
100
AcDbCircle
 62
7
  6
CONTINUOUS
 10
242.2093315774
 20
226.2525685129
 40
3.0
100
AcDbArc
 50
0.0
 51
90.0
  0
ARC
  5
46B
100
AcDbEntity
  8
KONSTRUKTIONSELEMENTE
100
AcDbCircle
 62
7
  6
CONTINUOUS
 10
361.2093315774
 20
304.7525685129
 40
188.5
100
AcDbArc
 50
169.6111421845
 51
190.3888578155
  0
ARC
  5
46C
100
AcDbEntity
  8
KONSTRUKTIONSELEMENTE
100
AcDbCircle
 62
7
  6
CONTINUOUS
 10
361.2093315774
 20
304.7525685129
 40
186.7449979984
100
AcDbArc
 50
174.6228840716
 51
185.3771159284
  0
ARC
  5
46D
100
AcDbEntity
  8
KONSTRUKTIONSELEMENTE
100
AcDbCircle
 62
7
  6
CONTINUOUS
 10
361.2093315774
 20
304.7525685129
 40
174.2550020016
100
AcDbArc
 50
174.2362097364
 51
185.7637902636
  0
ARC
  5
46E
100
AcDbEntity
  8
KONSTRUKTIONSELEMENTE
100
AcDbCircle
 62
7
  6
CONTINUOUS
 10
361.2093315774
 20
304.7525685129
 40
172.5
100
AcDbArc
 50
169.6111421845
 51
190.3888578155
  0
ARC
  5
46F
100
AcDbEntity
  8
KONSTRUKTIONSELEMENTE
100
AcDbCircle
 62
7
  6
CONTINUOUS
 10
211.2093315774
 20
332.2525685129
 40
36.0
100
AcDbArc
 50
10.3888578155
 51
169.6111421845
  0
ARC
  5
470
100
AcDbEntity
  8
KONSTRUKTIONSELEMENTE
100
AcDbCircle
 62
7
  6
CONTINUOUS
 10
211.2093315774
 20
332.2525685129
 40
20.0
100
AcDbArc
 50
10.3888578155
 51
169.6111421845
  0
ARC
  5
471
100
AcDbEntity
  8
RUNDUNGEN
100
AcDbCircle
 62
7
  6
CONTINUOUS
 10
344.9618800564
 20
274.2525685129
 40
4.0
100
AcDbArc
 50
56.372243968
 51
90.0
  0
ARC
  5
472
100
AcDbEntity
  8
RUNDUNGEN
100
AcDbCircle
 62
7
  6
CONTINUOUS
 10
334.5298570611
 20
270.1889924213
 40
4.0
100
AcDbArc
 50
140.0
 51
179.9993231358
  0
ARC
  5
473
100
AcDbEntity
  8
RUNDUNGEN
100
AcDbCircle
 62
7
  6
CONTINUOUS
 10
327.0298570611
 20
254.0826955319
 40
3.5
100
AcDbArc
 50
330.0
 51
360.0
  0
ARC
  5
474
100
AcDbEntity
  8
RUNDUNGEN
100
AcDbCircle
 62
7
  6
CONTINUOUS
 10
337.4732678005
 20
275.2525365713
 40
3.0
100
AcDbArc
 50
90.0007820659
 51
140.0
  0
ARC
  5
475
100
AcDbEntity
  8
RUNDUNGEN
100
AcDbCircle
 62
7
  6
CONTINUOUS
 10
327.5298608579
 20
241.948727512
 40
3.0
100
AcDbArc
 50
150.0001450288
 51
180.0001255984
  0
ARC
  5
476
100
AcDbEntity
  8
0
100
AcDbCircle
 62
7
  6
CONTINUOUS
 10
336.7637188323
 20
357.0802349789
 40
29.3181030102
100
AcDbArc
 50
357.3586986753
 51
0.7943748574
  0
ARC
  5
477
100
AcDbEntity
  8
0
100
AcDbCircle
 62
7
  6
CONTINUOUS
 10
353.2546418309
 20
360.4997735504
 40
12.8271720769
100
AcDbArc
 50
356.006859685
 51
1.1992782559
  0
ARC
  5
478
100
AcDbEntity
  8
0
100
AcDbCircle
 62
7
  6
CONTINUOUS
 10
354.6122575551
 20
359.2240235565
 40
11.5976102565
100
AcDbArc
 50
351.3846634912
 51
352.6951124936
  0
ARC
  5
479
100
AcDbEntity
  8
RUNDUNGEN
100
AcDbCircle
 62
7
  6
CONTINUOUS
 10
358.5298570611
 20
244.2525685129
 40
13.0
100
AcDbArc
 50
131.0000009041
 51
49.0000088168
  0
ARC
  5
47A
100
AcDbEntity
  8
KONSTRUKTIONSELEMENTE
100
AcDbCircle
 62
7
  6
CONTINUOUS
 10
358.5298570611
 20
249.2525685129
 40
8.0
100
AcDbArc
 50
180.0
 51
360.0
  0
ARC
  5
47B
100
AcDbEntity
  8
0
100
AcDbCircle
 62
7
  6
CONTINUOUS
 10
358.5298570611
 20
294.6525685129
 40
20.5
100
AcDbArc
 50
292.9860192347
 51
303.627756032
  0
ARC
  5
47C
100
AcDbEntity
  8
0
100
AcDbCircle
 62
7
  6
CONTINUOUS
 10
358.5298570611
 20
294.6525685129
 40
20.5
100
AcDbArc
 50
236.372243968
 51
247.0139807653
  0
ARC
  5
47D
100
AcDbEntity
  8
RUNDUNGEN
100
AcDbCircle
 62
7
  6
CONTINUOUS
 10
372.0978340658
 20
274.2525685129
 40
4.0
100
AcDbArc
 50
90.0
 51
123.627756032
  0
ARC
  5
47E
100
AcDbEntity
  8
RUNDUNGEN
100
AcDbCircle
 62
7
  6
CONTINUOUS
 10
390.0298570611
 20
254.0826955319
 40
3.5
100
AcDbArc
 50
180.0
 51
210.0
  0
ARC
  5
47F
100
AcDbEntity
  8
0
100
AcDbCircle
 62
7
  6
CONTINUOUS
 10
379.3125631743
 20
253.8955199733
 40
3.0
100
AcDbArc
 50
174.2608295227
 51
358.3142771166
  0
ARC
  5
480
100
AcDbEntity
  8
0
100
AcDbCircle
 62
7
  6
CONTINUOUS
 10
379.3125631743
 20
248.7955199733
 40
3.0
100
AcDbArc
 50
174.2608295227
 51
358.3142771166
  0
ARC
  5
481
100
AcDbEntity
  8
RUNDUNGEN
100
AcDbCircle
 62
7
  6
CONTINUOUS
 10
389.5298533047
 20
241.9487274418
 40
3.0
100
AcDbArc
 50
359.999875741
 51
29.9998565178
  0
ARC
  5
482
100
AcDbEntity
  8
0
100
AcDbCircle
 62
7
  6
CONTINUOUS
 10
379.3125631743
 20
253.8955199733
 40
2.1
100
AcDbArc
 50
282.3736251162
 51
8.2132107017
  0
ARC
  5
483
100
AcDbEntity
  8
0
100
AcDbCircle
 62
7
  6
CONTINUOUS
 10
379.3125631743
 20
253.8955199733
 40
2.1
100
AcDbArc
 50
171.7867892983
 51
257.4447123387
  0
ARC
  5
484
100
AcDbEntity
  8
0
100
AcDbCircle
 62
7
  6
CONTINUOUS
 10
379.3125631743
 20
248.7955199733
 40
2.1
100
AcDbArc
 50
171.7867892983
 51
8.2132107017
  0
ARC
  5
485
100
AcDbEntity
  8
RUNDUNGEN
100
AcDbCircle
 62
7
  6
CONTINUOUS
 10
382.5298570611
 20
270.1889924213
 40
4.0
100
AcDbArc
 50
0.0006916283
 51
40.0
  0
ARC
  5
486
100
AcDbEntity
  8
RUNDUNGEN
100
AcDbCircle
 62
7
  6
CONTINUOUS
 10
379.5864464438
 20
275.2525364258
 40
3.0
100
AcDbArc
 50
40.0
 51
89.999214261
  0
ARC
  5
487
100
AcDbEntity
  8
KONSTRUKTIONSELEMENTE
100
AcDbCircle
 62
7
  6
CONTINUOUS
 10
358.5298570611
 20
360.2525685129
 40
8.0
100
AcDbArc
 50
4.5894872244
 51
180.0
  0
ARC
  5
488
100
AcDbEntity
  8
0
100
AcDbCircle
 62
7
  6
CONTINUOUS
 10
359.5857755603
 20
357.0688117593
 40
6.9451363867
100
AcDbArc
 50
5.628042016
 51
21.431870439
  0
ARC
  5
489
100
AcDbEntity
  8
0
100
AcDbCircle
 62
7
  6
CONTINUOUS
 10
363.353396347
 20
361.6411388891
 40
2.8619718644
100
AcDbArc
 50
342.2419739397
 51
344.8375032701
  0
ARC
  5
48A
100
AcDbEntity
  8
0
100
AcDbCircle
 62
7
  6
CONTINUOUS
 10
179.8093315774
 20
67.6634682373
 40
20.5
100
AcDbArc
 50
326.372243968
 51
333.4852368273
  0
ARC
  5
48B
100
AcDbEntity
  8
0
100
AcDbCircle
 62
7
  6
CONTINUOUS
 10
179.8093315774
 20
67.6634682373
 40
20.5
100
AcDbArc
 50
26.5147631727
 51
33.627756032
  0
ARC
  5
48C
100
AcDbEntity
  8
RUNDUNGEN
100
AcDbCircle
 62
7
  6
CONTINUOUS
 10
179.8093315774
 20
67.6634682373
 40
20.5
100
AcDbArc
 50
326.372243968
 51
333.4852368273
  0
ARC
  5
48D
100
AcDbEntity
  8
RUNDUNGEN
100
AcDbCircle
 62
7
  6
CONTINUOUS
 10
179.8093315774
 20
67.6634682373
 40
20.5
100
AcDbArc
 50
26.5147631727
 51
33.627756032
  0
ARC
  5
48E
100
AcDbEntity
  8
KONSTRUKTIONSELEMENTE
100
AcDbCircle
 62
7
  6
CONTINUOUS
 10
183.0039032851
 20
67.4129948941
 40
8.2504522337
100
AcDbArc
 50
89.8204304402
 51
89.979861647
  0
ARC
  5
48F
100
AcDbEntity
  8
KONSTRUKTIONSELEMENTE
100
AcDbCircle
 62
7
  6
CONTINUOUS
 10
183.0038144087
 20
67.9074911173
 40
8.2440032144
100
AcDbArc
 50
270.0205304947
 51
270.1604612985
  0
ARC
  5
490
100
AcDbEntity
  8
KONSTRUKTIONSELEMENTE
100
AcDbCircle
 62
7
  6
CONTINUOUS
 10
180.7093315774
 20
67.6634682373
 40
8.0
100
AcDbArc
 50
141.3178125465
 51
218.6821874535
  0
ARC
  5
491
100
AcDbEntity
  8
0
100
AcDbCircle
 62
7
  6
CONTINUOUS
 10
198.1220431503
 20
79.4882372769
 40
19.7647524332
100
AcDbArc
 50
259.1380554528
 51
260.9909983459
  0
ARC
  5
492
100
AcDbEntity
  8
0
100
AcDbCircle
 62
7
  6
CONTINUOUS
 10
197.5973263361
 20
71.1896558905
 40
11.5129155443
100
AcDbArc
 50
257.1001078763
 51
260.1617793635
  0
ARC
  5
493
100
AcDbEntity
  8
RUNDUNGEN
100
AcDbCircle
 62
7
  6
CONTINUOUS
 10
193.7093315774
 20
67.6634682373
 40
9.75
100
AcDbArc
 50
55.1450110874
 51
56.9496976744
  0
ARC
  5
494
100
AcDbEntity
  8
0
100
AcDbCircle
 62
7
  6
CONTINUOUS
 10
197.1201711826
 20
65.8347184886
 40
6.1712508505
100
AcDbArc
 50
256.028137259
 51
259.1246235518
  0
ARC
  5
495
100
AcDbEntity
  8
0
100
AcDbCircle
 62
7
  6
CONTINUOUS
 10
196.7575039711
 20
62.5711504658
 40
2.9094753923
100
AcDbArc
 50
254.0056609476
 51
260.0539142406
  0
ARC
  5
496
100
AcDbEntity
  8
0
100
AcDbCircle
 62
7
  6
CONTINUOUS
 10
196.5319780059
 20
60.5516240968
 40
0.8904053423
100
AcDbArc
 50
251.8746256225
 51
253.9414854585
  0
ARC
  5
497
100
AcDbEntity
  8
0
100
AcDbCircle
 62
7
  6
CONTINUOUS
 10
196.520404981
 20
60.5099084481
 40
0.8471162364
100
AcDbArc
 50
253.9132205459
 51
260.3249564519
  0
ARC
  5
498
100
AcDbEntity
  8
RUNDUNGEN
100
AcDbCircle
 62
7
  6
CONTINUOUS
 10
200.2093315774
 20
54.0954912326
 40
4.0
100
AcDbArc
 50
146.372243968
 51
180.0
  0
ARC
  5
499
100
AcDbEntity
  8
RUNDUNGEN
100
AcDbCircle
 62
7
  6
CONTINUOUS
 10
199.2093315774
 20
42.6634682373
 40
3.0
100
AcDbArc
 50
180.0
 51
270.0
  0
ARC
  5
49A
100
AcDbEntity
  8
RUNDUNGEN
100
AcDbCircle
 62
7
  6
CONTINUOUS
 10
199.2093315774
 20
39.0802563814
 40
3.0
100
AcDbArc
 50
180.0002567035
 51
247.2255747682
  0
ARC
  5
49B
100
AcDbEntity
  8
RUNDUNGEN
100
AcDbCircle
 62
7
  6
CONTINUOUS
 10
200.3901769011
 20
57.3956152114
 40
2.5
100
AcDbArc
 50
134.9465739052
 51
153.4852483237
  0
ARC
  5
49C
100
AcDbEntity
  8
0
100
AcDbCircle
 62
7
  6
CONTINUOUS
 10
204.2150800951
 20
78.2910653363
 40
18.5680271497
100
AcDbArc
 50
258.7853152917
 51
260.6960646648
  0
ARC
  5
49D
100
AcDbEntity
  8
0
100
AcDbCircle
 62
7
  6
CONTINUOUS
 10
203.5479433819
 20
69.1531413981
 40
9.4779093449
100
AcDbArc
 50
255.738976311
 51
259.1056929668
  0
ARC
  5
49E
100
AcDbEntity
  8
0
100
AcDbCircle
 62
7
  6
CONTINUOUS
 10
202.9887311063
 20
63.8522095906
 40
4.1913464199
100
AcDbArc
 50
252.9047544077
 51
256.6392766674
  0
ARC
  5
49F
100
AcDbEntity
  8
RUNDUNGEN
100
AcDbCircle
 62
7
  6
CONTINUOUS
 10
200.2093315774
 20
81.231445242
 40
4.0
100
AcDbArc
 50
180.0
 51
213.6277560321
  0
ARC
  5
4A0
100
AcDbEntity
  8
RUNDUNGEN
100
AcDbCircle
 62
7
  6
CONTINUOUS
 10
200.3901769011
 20
77.9313212631
 40
2.5
100
AcDbArc
 50
206.5147531771
 51
236.9497024185
  0
ARC
  5
4A1
100
AcDbEntity
  8
0
100
AcDbCircle
 62
7
  6
CONTINUOUS
 10
202.6044869734
 20
61.1231937426
 40
1.4700019858
100
AcDbArc
 50
246.5792639052
 51
248.6562177943
  0
ARC
  5
4A2
100
AcDbEntity
  8
0
100
AcDbCircle
 62
7
  6
CONTINUOUS
 10
202.5709839994
 20
61.0347247735
 40
1.3754073185
100
AcDbArc
 50
248.6147971133
 51
255.1262087771
  0
ARC
  5
4A3
100
AcDbEntity
  8
0
100
AcDbCircle
 62
7
  6
CONTINUOUS
 10
199.3382896755
 20
132.6775659459
 40
72.5660661728
100
AcDbArc
 50
268.3211114013
 51
270.5052520358
  0
ARC
  5
4A4
100
AcDbEntity
  8
0
100
AcDbCircle
 62
7
  6
CONTINUOUS
 10
204.0553739961
 20
124.2140960413
 40
64.2293122252
100
AcDbArc
 50
266.3605010057
 51
266.9195948918
  0
ARC
  5
4A5
100
AcDbEntity
  8
0
100
AcDbCircle
 62
7
  6
CONTINUOUS
 10
193.2537694856
 20
116.1866541773
 40
56.0751536698
100
AcDbArc
 50
268.0901342101
 51
270.5746899693
  0
ARC
  5
4A6
100
AcDbEntity
  8
0
100
AcDbCircle
 62
7
  6
CONTINUOUS
 10
197.6061721309
 20
115.4730974556
 40
55.4883586264
100
AcDbArc
 50
266.0835350991
 51
266.6849730963
  0
ARC
  5
4A7
100
AcDbEntity
  8
RUNDUNGEN
100
AcDbCircle
 62
7
  6
CONTINUOUS
 10
199.2093315774
 20
92.6634682373
 40
3.0
100
AcDbArc
 50
90.0
 51
180.0
  0
ARC
  5
4A8
100
AcDbEntity
  8
RUNDUNGEN
100
AcDbCircle
 62
7
  6
CONTINUOUS
 10
199.2093315774
 20
96.2466800932
 40
3.0
100
AcDbArc
 50
112.7737374794
 51
180.0000008318
  0
ARC
  5
4A9
100
AcDbEntity
  8
0
100
AcDbCircle
 62
7
  6
CONTINUOUS
 10
211.6528318859
 20
67.4609723419
 40
7.7974962841
100
AcDbArc
 50
270.0070863109
 51
276.6717868841
  0
ARC
  5
4AA
100
AcDbEntity
  8
0
100
AcDbCircle
 62
7
  6
CONTINUOUS
 10
211.6886822521
 20
67.0989665632
 40
7.4337796595
100
AcDbArc
 50
276.7215067548
 51
277.7799971426
  0
CIRCLE
  5
4AB
100
AcDbEntity
  8
FASEN
100
AcDbCircle
 62
7
  6
CONTINUOUS
 10
211.2093315774
 20
67.6634682373
 40
40.0
  0
CIRCLE
  5
4AC
100
AcDbEntity
  8
FASEN
100
AcDbCircle
 62
7
  6
CONTINUOUS
 10
211.2093315774
 20
67.6634682373
 40
39.5
  0
ARC
  5
4AD
100
AcDbEntity
  8
0
100
AcDbCircle
 62
7
  6
CONTINUOUS
 10
211.2093315774
 20
67.6634682373
 40
34.25
100
AcDbArc
 50
11.0317461469
 51
23.6694716835
  0
ARC
  5
4AE
100
AcDbEntity
  8
0
100
AcDbCircle
 62
7
  6
CONTINUOUS
 10
211.2093315774
 20
67.6634682373
 40
34.25
100
AcDbArc
 50
334.0264485215
 51
348.9679989828
  0
ARC
  5
4AF
100
AcDbEntity
  8
RUNDUNGEN
100
AcDbCircle
 62
7
  6
CONTINUOUS
 10
211.2093315774
 20
67.6634682373
 40
34.0
100
AcDbArc
 50
11.3711945998
 51
168.6289535966
  0
ARC
  5
4B0
100
AcDbEntity
  8
RUNDUNGEN
100
AcDbCircle
 62
7
  6
CONTINUOUS
 10
211.2093315774
 20
67.6634682373
 40
34.0
100
AcDbArc
 50
191.3710499024
 51
348.6288056485
  0
ARC
  5
4B1
100
AcDbEntity
  8
RUNDUNGEN
100
AcDbCircle
 62
7
  6
CONTINUOUS
 10
222.2093315774
 20
54.0954912326
 40
4.0
100
AcDbArc
 50
0.0
 51
33.6277560321
  0
ARC
  5
4B2
100
AcDbEntity
  8
RUNDUNGEN
100
AcDbCircle
 62
7
  6
CONTINUOUS
 10
223.2093315774
 20
39.0802563814
 40
3.0
100
AcDbArc
 50
292.7738285743
 51
0.0000086729
  0
ARC
  5
4B3
100
AcDbEntity
  8
RUNDUNGEN
100
AcDbCircle
 62
7
  6
CONTINUOUS
 10
223.2093315774
 20
42.6634682373
 40
3.0
100
AcDbArc
 50
270.0
 51
360.0
  0
ARC
  5
4B4
100
AcDbEntity
  8
RUNDUNGEN
100
AcDbCircle
 62
7
  6
CONTINUOUS
 10
222.0284862536
 20
57.3956152114
 40
2.5
100
AcDbArc
 50
26.5147518671
 51
45.0534259619
  0
ARC
  5
4B5
100
AcDbEntity
  8
RUNDUNGEN
100
AcDbCircle
 62
7
  6
CONTINUOUS
 10
222.2093315774
 20
81.231445242
 40
4.0
100
AcDbArc
 50
326.372243968
 51
360.0
  0
ARC
  5
4B6
100
AcDbEntity
  8
RUNDUNGEN
100
AcDbCircle
 62
7
  6
CONTINUOUS
 10
223.2093315774
 20
92.6634682373
 40
3.0
100
AcDbArc
 50
0.0
 51
90.0
  0
ARC
  5
4B7
100
AcDbEntity
  8
RUNDUNGEN
100
AcDbCircle
 62
7
  6
CONTINUOUS
 10
223.2093315774
 20
96.2466800932
 40
3.0
100
AcDbArc
 50
0.0002727126
 51
67.2255845963
  0
ARC
  5
4B8
100
AcDbEntity
  8
RUNDUNGEN
100
AcDbCircle
 62
7
  6
CONTINUOUS
 10
222.0284862536
 20
77.9313212631
 40
2.5
100
AcDbArc
 50
303.0502999378
 51
333.4852459565
  0
ARC
  5
4B9
100
AcDbEntity
  8
0
100
AcDbCircle
 62
7
  6
CONTINUOUS
 10
219.5637935339
 20
182.1094079541
 40
122.2529973994
100
AcDbArc
 50
269.775154551
 51
270.0562817483
  0
ARC
  5
4BA
100
AcDbEntity
  8
0
100
AcDbCircle
 62
7
  6
CONTINUOUS
 10
213.7202603737
 20
145.8493444656
 40
85.737696548
100
AcDbArc
 50
270.327449308
 51
270.8270028201
  0
ARC
  5
4BB
100
AcDbEntity
  8
0
100
AcDbCircle
 62
7
  6
CONTINUOUS
 10
231.7933862018
 20
93.0159014399
 40
33.0313893227
100
AcDbArc
 50
264.9187670449
 51
265.6977509982
  0
ARC
  5
4BC
100
AcDbEntity
  8
0
100
AcDbCircle
 62
7
  6
CONTINUOUS
 10
242.6093315774
 20
67.6634682373
 40
20.5
100
AcDbArc
 50
206.5147631727
 51
213.627756032
  0
ARC
  5
4BD
100
AcDbEntity
  8
0
100
AcDbCircle
 62
7
  6
CONTINUOUS
 10
242.6093315774
 20
67.6634682373
 40
20.5
100
AcDbArc
 50
146.372243968
 51
153.4852368273
  0
ARC
  5
4BE
100
AcDbEntity
  8
RUNDUNGEN
100
AcDbCircle
 62
7
  6
CONTINUOUS
 10
242.6093315774
 20
67.6634682373
 40
20.5
100
AcDbArc
 50
146.372243968
 51
153.4852368273
  0
ARC
  5
4BF
100
AcDbEntity
  8
RUNDUNGEN
100
AcDbCircle
 62
7
  6
CONTINUOUS
 10
242.6093315774
 20
67.6634682373
 40
20.5
100
AcDbArc
 50
206.5147631727
 51
213.627756032
  0
ARC
  5
4C0
100
AcDbEntity
  8
RUNDUNGEN
100
AcDbCircle
 62
7
  6
CONTINUOUS
 10
228.7093315774
 20
67.6634682373
 40
9.75
100
AcDbArc
 50
123.0503029378
 51
124.8515990907
  0
ARC
  5
4C1
100
AcDbEntity
  8
KONSTRUKTIONSELEMENTE
100
AcDbCircle
 62
7
  6
CONTINUOUS
 10
239.4147529744
 20
67.9148814011
 40
8.2513918519
100
AcDbArc
 50
269.8212452552
 51
269.9800028474
  0
ARC
  5
4C2
100
AcDbEntity
  8
KONSTRUKTIONSELEMENTE
100
AcDbCircle
 62
7
  6
CONTINUOUS
 10
239.4148789456
 20
67.4231868174
 40
8.2402625118
100
AcDbArc
 50
90.0208030785
 51
90.1559426916
  0
ARC
  5
4C3
100
AcDbEntity
  8
KONSTRUKTIONSELEMENTE
100
AcDbCircle
 62
7
  6
CONTINUOUS
 10
241.7093315774
 20
67.6634682373
 40
8.0
100
AcDbArc
 50
321.3178125465
 51
38.6821874535
  0
ARC
  5
4C4
100
AcDbEntity
  8
0
100
AcDbCircle
 62
7
  6
CONTINUOUS
 10
230.7876523523
 20
62.5275869906
 40
2.858303262
100
AcDbArc
 50
238.9982327277
 51
243.6028587035
  0
ARC
  5
4C5
100
AcDbEntity
  8
0
100
AcDbCircle
 62
7
  6
CONTINUOUS
 10
228.2917988017
 20
118.9331723069
 40
58.8216719503
100
AcDbArc
 50
268.1352542821
 51
270.5611272725
  0
ARC
  5
4C6
100
AcDbEntity
  8
0
100
AcDbCircle
 62
7
  6
CONTINUOUS
 10
219.3145340923
 20
330.8524863527
 40
271.1560555191
100
AcDbArc
 50
270.0780441104
 51
270.2962815996
  0
ARC
  5
4C7
100
AcDbEntity
  8
0
100
AcDbCircle
 62
7
  6
CONTINUOUS
 10
219.2117411849
 20
324.2717067089
 40
264.5752197682
100
AcDbArc
 50
269.7023863411
 51
269.8409114675
  0
SPLINE
  5
4C8
100
AcDbEntity
  8
KONSTRUKTIONSELEMENTE
100
AcDbSpline
 62
7
  6
CONTINUOUS
 70
0
 71
3
 72
29
 73
25
 74
0
 42
0.0000001
 43
0.0000001
 44
0.0000000001
 40
0.0
 40
0.0
 40
0.0
 40
0.0
 40
0.1242957269
 40
0.1865493679
 40
0.2488908544
 40
0.3113533813
 40
0.3739918454
 40
0.4054320599
 40
0.436977266
 40
0.4686633976
 40
0.5005169272
 40
0.5165457988
 40
0.532589265
 40
0.5485998986
 40
0.5645467213
 40
0.5961252003
 40
0.6274951423
 40
0.6587268513
 40
0.6898746192
 40
0.7520090499
 40
0.8140582095
 40
0.8760618649
 40
0.9380390316
 40
1.0
 40
1.0
 40
1.0
 40
1.0
 10
175.2861101191
 20
287.2525685129
 30
0.0
 10
175.6188002762
 20
286.1780022892
 30
0.0
 10
176.1760118097
 20
284.5816689139
 30
0.0
 10
177.0630200741
 20
282.5103775705
 30
0.0
 10
177.8144071304
 20
280.9921026059
 30
0.0
 10
178.6702969036
 20
279.5258267306
 30
0.0
 10
179.4965719329
 20
278.3705307356
 30
0.0
 10
180.2534145119
 20
277.5205885452
 30
0.0
 10
180.8832397543
 20
276.936949283
 30
0.0
 10
181.589303083
 20
276.4396070672
 30
0.0
 10
182.2582413103
 20
276.1490000243
 30
0.0
 10
182.8310574082
 20
276.049241401
 30
0.0
 10
183.2691535697
 20
276.0573771187
 30
0.0
 10
183.6955344976
 20
276.1556741044
 30
0.0
 10
184.2220558823
 20
276.3949907877
 30
0.0
 10
184.7829764514
 20
276.8543564208
 30
0.0
 10
185.3090309242
 20
277.5294784608
 30
0.0
 10
185.7328736652
 20
278.2667167881
 30
0.0
 10
186.198361292
 20
279.2941724115
 30
0.0
 10
186.6462666403
 20
280.6298948483
 30
0.0
 10
187.0541170903
 20
282.2656544084
 30
0.0
 10
187.37416992
 20
283.9191701693
 30
0.0
 10
187.6313983716
 20
285.5824503606
 30
0.0
 10
187.7714071701
 20
286.6954670267
 30
0.0
 10
187.8352974126
 20
287.2525685129
 30
0.0
  0
SPLINE
  5
4C9
100
AcDbEntity
  8
KONSTRUKTIONSELEMENTE
100
AcDbSpline
 62
7
  6
CONTINUOUS
 70
0
 71
3
 72
29
 73
25
 74
0
 42
0.0000001
 43
0.0000001
 44
0.0000000001
 40
0.0
 40
0.0
 40
0.0
 40
0.0
 40
0.0619609614
 40
0.1239381236
 40
0.1859417785
 40
0.2479909529
 40
0.3101253964
 40
0.341273176
 40
0.3725049086
 40
0.4038749865
 40
0.4354539379
 40
0.4514005652
 40
0.4674114169
 40
0.4834549544
 40
0.4994833793
 40
0.531337011
 40
0.5630230922
 40
0.5945682275
 40
0.6260083906
 40
0.6886468156
 40
0.7511093082
 40
0.8134507656
 40
0.8757043684
 40
1.0
 40
1.0
 40
1.0
 40
1.0
 10
187.8352974126
 20
322.2525685129
 30
0.0
 10
187.7714071832
 20
322.8096698849
 30
0.0
 10
187.6313984028
 20
323.9226863398
 30
0.0
 10
187.3741700252
 20
325.5859662874
 30
0.0
 10
187.0541168375
 20
327.2394818747
 30
0.0
 10
186.6462678376
 20
328.8752419321
 30
0.0
 10
186.1983608506
 20
330.2109640734
 30
0.0
 10
185.7328723933
 20
331.2384197378
 30
0.0
 10
185.3090279356
 20
331.9756586203
 30
0.0
 10
184.782970575
 20
332.6507859467
 30
0.0
 10
184.2220420466
 20
333.1101486264
 30
0.0
 10
183.6955179059
 20
333.3494667012
 30
0.0
 10
183.2691373626
 20
333.4477744225
 30
0.0
 10
182.831041759
 20
333.4558898386
 30
0.0
 10
182.2582293338
 20
333.3561327725
 30
0.0
 10
181.5892958253
 20
333.0655214349
 30
0.0
 10
180.8832336343
 20
332.5681791737
 30
0.0
 10
180.2534098927
 20
331.9845405278
 30
0.0
 10
179.4965673255
 20
331.1346005171
 30
0.0
 10
178.6702932844
 20
329.9793052398
 30
0.0
 10
177.8144042159
 20
328.51303023
 30
0.0
 10
177.0630189631
 20
326.9947555648
 30
0.0
 10
176.1760111792
 20
324.9234658788
 30
0.0
 10
175.6187999901
 20
323.3271338128
 30
0.0
 10
175.2861101191
 20
322.2525685129
 30
0.0
  0
SPLINE
  5
4CA
100
AcDbEntity
  8
KONSTRUKTIONSELEMENTE
100
AcDbSpline
 62
7
  6
CONTINUOUS
 70
0
 71
3
 72
29
 73
25
 74
0
 42
0.0000001
 43
0.0000001
 44
0.0000000001
 40
0.0
 40
0.0
 40
0.0
 40
0.0
 40
0.1242957445
 40
0.1865493943
 40
0.2488908904
 40
0.3113534332
 40
0.3739919232
 40
0.4054321679
 40
0.4369774174
 40
0.4686635945
 40
0.5005171128
 40
0.5165462186
 40
0.5325895929
 40
0.5486001323
 40
0.5645470549
 40
0.5961253133
 40
0.6274951879
 40
0.6587268803
 40
0.6898746404
 40
0.7520090613
 40
0.8140582123
 40
0.8760618654
 40
0.9380390314
 40
1.0
 40
1.0
 40
1.0
 40
1.0
 10
247.1325530357
 20
322.2525685129
 30
0.0
 10
246.7998628184
 20
323.3271349313
 30
0.0
 10
246.2426511949
 20
324.9234685958
 30
0.0
 10
245.3556428235
 20
326.994760355
 30
0.0
 10
244.6042552958
 20
328.5130355055
 30
0.0
 10
243.7483652132
 20
329.9793118307
 30
0.0
 10
242.9220896622
 20
331.1346082762
 30
0.0
 10
242.1652468679
 20
331.9845515702
 30
0.0
 10
241.5354207574
 20
332.5681914756
 30
0.0
 10
240.8293564542
 20
333.0655339874
 30
0.0
 10
240.1604152623
 20
333.3561397007
 30
0.0
 10
239.5875972701
 20
333.4558976617
 30
0.0
 10
239.1495010635
 20
333.4477538449
 30
0.0
 10
238.7231204843
 20
333.3494608684
 30
0.0
 10
238.1966003581
 20
333.110144761
 30
0.0
 10
237.6356835985
 20
332.6507775011
 30
0.0
 10
237.1096305662
 20
331.9756580055
 30
0.0
 10
236.6857887482
 20
331.2384199882
 30
0.0
 10
236.2203015755
 20
330.2109644803
 30
0.0
 10
235.7723969169
 20
328.8752420071
 30
0.0
 10
235.3645459251
 20
327.2394827231
 30
0.0
 10
235.0444932544
 20
325.585966957
 30
0.0
 10
234.7872647875
 20
323.9226867312
 30
0.0
 10
234.6472559874
 20
322.8096700235
 30
0.0
 10
234.5833657422
 20
322.2525685129
 30
0.0
  0
SPLINE
  5
4CB
100
AcDbEntity
  8
KONSTRUKTIONSELEMENTE
100
AcDbSpline
 62
7
  6
CONTINUOUS
 70
0
 71
3
 72
29
 73
25
 74
0
 42
0.0000001
 43
0.0000001
 44
0.0000000001
 40
0.0
 40
0.0
 40
0.0
 40
0.0
 40
0.0619609622
 40
0.1239381254
 40
0.185941782
 40
0.2479909602
 40
0.310125408
 40
0.3412731917
 40
0.3725049311
 40
0.4038750432
 40
0.4354540775
 40
0.4514006495
 40
0.4674115315
 40
0.4834551163
 40
0.4994834482
 40
0.5313370719
 40
0.5630231374
 40
0.5945682587
 40
0.6260084122
 40
0.6886468301
 40
0.7511093181
 40
0.813450773
 40
0.8757043734
 40
1.0
 40
1.0
 40
1.0
 40
1.0
 10
234.5833657422
 20
287.2525685129
 30
0.0
 10
234.6472559714
 20
286.6954671421
 30
0.0
 10
234.7872647535
 20
285.5824506868
 30
0.0
 10
235.0444931293
 20
283.9191707285
 30
0.0
 10
235.364546383
 20
282.2656551223
 30
0.0
 10
235.7723951957
 20
280.6298949406
 30
0.0
 10
236.2203024571
 20
279.2941728018
 30
0.0
 10
236.6857910898
 20
278.2667170528
 30
0.0
 10
237.1096359853
 20
277.529478045
 30
0.0
 10
237.6356938721
 20
276.8543494654
 30
0.0
 10
238.1966242622
 20
276.3949883849
 30
0.0
 10
238.7231481207
 20
276.1556688275
 30
0.0
 10
239.1495290189
 20
276.0573607005
 30
0.0
 10
239.5876245235
 20
276.0492481793
 30
0.0
 10
240.160436355
 20
276.1490048214
 30
0.0
 10
240.8293684991
 20
276.4396170241
 30
0.0
 10
241.5354302934
 20
276.936959001
 30
0.0
 10
242.1652537692
 20
277.5205974381
 30
0.0
 10
242.9220963107
 20
278.3705370631
 30
0.0
 10
243.7483701552
 20
279.5258322426
 30
0.0
 10
244.6042591743
 20
280.992107099
 30
0.0
 10
245.3556442556
 20
282.5103817298
 30
0.0
 10
246.2426520192
 20
284.5816712894
 30
0.0
 10
246.7998631825
 20
286.1780032709
 30
0.0
 10
247.1325530357
 20
287.2525685129
 30
0.0
  0
SPLINE
  5
4CC
100
AcDbEntity
  8
0
100
AcDbSpline
 62
7
  6
CONTINUOUS
 70
0
 71
3
 72
9
 73
5
 74
0
 42
0.0000001
 43
0.0000001
 44
0.0000000001
 40
0.0
 40
0.0
 40
0.0
 40
0.0
 40
0.5037548259
 40
1.0
 40
1.0
 40
1.0
 40
1.0
 10
366.050674601
 20
355.7291665416
 30
0.0
 10
366.2067370455
 20
355.3793817392
 30
0.0
 10
366.4477154277
 20
354.6518023068
 30
0.0
 10
366.5298724232
 20
353.8892992907
 30
0.0
 10
366.529842763
 20
353.5119883685
 30
0.0
  0
SPLINE
  5
4CD
100
AcDbEntity
  8
KONSTRUKTIONSELEMENTE
100
AcDbSpline
 62
7
  6
CONTINUOUS
 70
0
 71
3
 72
12
 73
8
 74
0
 42
0.0000001
 43
0.0000001
 44
0.0000000001
 40
0.0
 40
0.0
 40
0.0
 40
0.0
 40
0.1750266493
 40
0.3806317371
 40
0.636479198
 40
0.7990263459
 40
1.0
 40
1.0
 40
1.0
 40
1.0
 10
247.1325530357
 20
62.6634682373
 30
0.0
 10
246.7604403911
 20
62.3414206026
 30
0.0
 10
245.901081712
 20
61.6975375338
 30
0.0
 10
244.3381971568
 20
60.8165960998
 30
0.0
 10
242.6955533266
 20
60.1763026644
 30
0.0
 10
241.0004351561
 20
59.7672014444
 30
0.0
 10
239.9769628946
 20
59.6632823292
 30
0.0
 10
239.4118876264
 20
59.6634877004
 30
0.0
  0
LINE
  5
4CE
100
AcDbEntity
  8
KONSTRUKTIONSELEMENTE
100
AcDbLine
 62
7
  6
CONTINUOUS
 10
183.0068031586
 20
75.6634466181
 11
182.9942357067
 21
75.663441493
  0
SPLINE
  5
4CF
100
AcDbEntity
  8
KONSTRUKTIONSELEMENTE
100
AcDbSpline
 62
7
  6
CONTINUOUS
 70
0
 71
3
 72
12
 73
8
 74
0
 42
0.0000001
 43
0.0000001
 44
0.0000000001
 40
0.0
 40
0.0
 40
0.0
 40
0.0
 40
0.2009735767
 40
0.3635207843
 40
0.6193684503
 40
0.8249734592
 40
1.0
 40
1.0
 40
1.0
 40
1.0
 10
183.0068035636
 20
59.6634897651
 30
0.0
 10
182.441726645
 20
59.6632903461
 30
0.0
 10
181.4182504231
 20
59.7671934992
 30
0.0
 10
179.723125523
 20
60.1762983965
 30
0.0
 10
178.0804749129
 20
60.8165905179
 30
0.0
 10
176.5175851824
 20
61.6975353758
 30
0.0
 10
175.6582237617
 20
62.3414197389
 30
0.0
 10
175.2861101191
 20
62.6634682373
 30
0.0
  0
SPLINE
  5
4D0
100
AcDbEntity
  8
KONSTRUKTIONSELEMENTE
100
AcDbSpline
 62
7
  6
CONTINUOUS
 70
0
 71
3
 72
12
 73
8
 74
0
 42
0.0000001
 43
0.0000001
 44
0.0000000001
 40
0.0
 40
0.0
 40
0.0
 40
0.0
 40
0.2009733446
 40
0.3635204368
 40
0.6193681702
 40
0.8249733115
 40
1.0
 40
1.0
 40
1.0
 40
1.0
 10
239.4118736369
 20
75.6634463479
 30
0.0
 10
239.9769489641
 20
75.6636436403
 30
0.0
 10
241.0004223682
 20
75.5597416915
 30
0.0
 10
242.6955434121
 20
75.1506358687
 30
0.0
 10
244.3381913008
 20
74.5103445077
 30
0.0
 10
245.9010790989
 20
73.6294002494
 30
0.0
 10
246.7604396975
 20
72.9855164722
 30
0.0
 10
247.1325530357
 20
72.6634682373
 30
0.0
  0
LINE
  5
4D1
100
AcDbEntity
  8
KONSTRUKTIONSELEMENTE
100
AcDbLine
 62
7
  6
CONTINUOUS
 10
182.9934154541
 20
59.6634944356
 11
183.0067684388
 21
59.6634884322
  0
SPLINE
  5
4D2
100
AcDbEntity
  8
KONSTRUKTIONSELEMENTE
100
AcDbSpline
 62
7
  6
CONTINUOUS
 70
0
 71
3
 72
12
 73
8
 74
0
 42
0.0000001
 43
0.0000001
 44
0.0000000001
 40
0.0
 40
0.0
 40
0.0
 40
0.0
 40
0.1750267767
 40
0.380631989
 40
0.6364795502
 40
0.7990266002
 40
1.0
 40
1.0
 40
1.0
 40
1.0
 10
175.2861101191
 20
72.6634682373
 30
0.0
 10
175.6582227308
 20
72.9855158434
 30
0.0
 10
176.5175813065
 20
73.6293987443
 30
0.0
 10
178.0804653407
 20
74.5103402602
 30
0.0
 10
179.7231081442
 20
75.1506328459
 30
0.0
 10
181.4182241246
 20
75.5597353733
 30
0.0
 10
182.4416945669
 20
75.6636507926
 30
0.0
 10
183.0067686598
 20
75.6634480362
 30
0.0
  0
SPLINE
  5
4D3
100
AcDbEntity
  8
0
100
AcDbSpline
 62
7
  6
CONTINUOUS
 70
0
 71
3
 72
9
 73
5
 74
0
 42
0.0000001
 43
0.0000001
 44
0.0000000001
 40
0.0
 40
0.0
 40
0.0
 40
0.0
 40
0.2262850768
 40
1.0
 40
1.0
 40
1.0
 40
1.0
 10
229.543362271
 20
59.8460477012
 30
0.0
 10
229.5410662057
 20
59.8551246366
 30
0.0
 10
229.5313036182
 20
59.8953346721
 30
0.0
 10
229.5229013484
 20
59.935866064
 30
0.0
 10
229.5168779096
 20
59.9673077376
 30
0.0
  0
SPLINE
  5
4D4
100
AcDbEntity
  8
0
100
AcDbSpline
 62
7
  6
CONTINUOUS
 70
0
 71
3
 72
9
 73
5
 74
0
 42
0.0000001
 43
0.0000001
 44
0.0000000001
 40
0.0
 40
0.0
 40
0.0
 40
0.0
 40
0.5150286689
 40
1.0
 40
1.0
 40
1.0
 40
1.0
 10
226.3777294123
 20
60.142650712
 30
0.0
 10
226.1449057122
 20
59.9916992916
 30
0.0
 10
225.6549065025
 20
59.7504288171
 30
0.0
 10
225.1132457896
 20
59.6634526885
 30
0.0
 10
224.8519629649
 20
59.6634825354
 30
0.0
  0
SPLINE
  5
4D5
100
AcDbEntity
  8
0
100
AcDbSpline
 62
7
  6
CONTINUOUS
 70
0
 71
3
 72
9
 73
5
 74
0
 42
0.0000001
 43
0.0000001
 44
0.0000000001
 40
0.0
 40
0.0
 40
0.0
 40
0.0
 40
0.2243322996
 40
1.0
 40
1.0
 40
1.0
 40
1.0
 10
202.2509863159
 20
59.6748409444
 30
0.0
 10
202.2481335472
 20
59.6766442255
 30
0.0
 10
202.2358508821
 20
59.6853730584
 30
0.0
 10
202.2253335272
 20
59.6963825402
 30
0.0
 10
202.2179297081
 20
59.7054024051
 30
0.0
  0
SPLINE
  5
4D6
100
AcDbEntity
  8
0
100
AcDbSpline
 62
7
  6
CONTINUOUS
 70
0
 71
3
 72
9
 73
5
 74
0
 42
0.0000001
 43
0.0000001
 44
0.0000000001
 40
0.0
 40
0.0
 40
0.0
 40
0.0
 40
0.2528048098
 40
1.0
 40
1.0
 40
1.0
 40
1.0
 10
214.2102545201
 20
60.1130480965
 30
0.0
 10
214.0868237602
 20
60.0668670464
 30
0.0
 10
213.5933436603
 20
59.8983864362
 30
0.0
 10
213.0809170308
 20
59.7863485907
 30
0.0
 10
212.6949906148
 20
59.7336136521
 30
0.0
  0
SPLINE
  5
4D7
100
AcDbEntity
  8
0
100
AcDbSpline
 62
7
  6
CONTINUOUS
 70
0
 71
3
 72
9
 73
5
 74
0
 42
0.0000001
 43
0.0000001
 44
0.0000000001
 40
0.0
 40
0.0
 40
0.0
 40
0.0
 40
0.2681556626
 40
1.0
 40
1.0
 40
1.0
 40
1.0
 10
219.0840381352
 20
59.8573519064
 30
0.0
 10
219.0610096454
 20
59.8389669861
 30
0.0
 10
218.9727941206
 20
59.7735311991
 30
0.0
 10
218.8736635916
 20
59.7217180106
 30
0.0
 10
218.7972018906
 20
59.6967944204
 30
0.0
  0
LINE
  5
4D8
100
AcDbEntity
  8
0
100
AcDbLine
 62
7
  6
CONTINUOUS
 10
218.7972018906
 20
59.6967944204
 11
218.6371387422
 21
59.6971052034
  0
LINE
  5
4D9
100
AcDbEntity
  8
0
100
AcDbLine
 62
7
  6
CONTINUOUS
 10
218.6371387422
 20
59.6971052034
 11
218.4771176278
 21
59.6975068261
  0
SPLINE
  5
4DA
100
AcDbEntity
  8
0
100
AcDbSpline
 62
7
  6
CONTINUOUS
 70
0
 71
3
 72
9
 73
5
 74
0
 42
0.0000001
 43
0.0000001
 44
0.0000000001
 40
0.0
 40
0.0
 40
0.0
 40
0.0
 40
0.2547323113
 40
1.0
 40
1.0
 40
1.0
 40
1.0
 10
217.8374541816
 20
59.7000562045
 30
0.0
 10
217.8256230808
 20
59.6960190432
 30
0.0
 10
217.77878635
 20
59.6813516733
 30
0.0
 10
217.7303783669
 20
59.6716211215
 30
0.0
 10
217.6940361095
 20
59.6675114542
 30
0.0
  0
ELLIPSE
  5
4DB
100
AcDbEntity
  8
0
100
AcDbEllipse
 62
7
  6
CONTINUOUS
 10
211.2093315774
 20
195.5717182449
 30
0.0
 11
0.0
 21
39.3510632217
 31
0.0
 40
0.8703703838
 41
-1.4893320042
 42
-1.4819540146
  0
ELLIPSE
  5
4DC
100
AcDbEntity
  8
0
100
AcDbEllipse
 62
7
  6
CONTINUOUS
 10
211.2093315774
 20
207.0610644942
 30
0.0
 11
-0.0
 21
104.9359575539
 31
0.0
 40
0.3263895503
 41
-1.6392805039
 42
-1.6347084333
  0
ELLIPSE
  5
4DD
100
AcDbEntity
  8
0
100
AcDbEllipse
 62
7
  6
CONTINUOUS
 10
211.2093315774
 20
203.071716964
 30
0.0
 11
-0.0
 21
46.6382923126
 31
0.0
 40
0.7343750875
 41
-1.6530056842
 42
-1.6392805039
  0
ELLIPSE
  5
4DE
100
AcDbEntity
  8
0
100
AcDbEllipse
 62
7
  6
CONTINUOUS
 10
211.2093315774
 20
201.3961842216
 30
0.0
 11
34.25
 21
0.0
 31
0.0
 40
0.7659569903
 41
-0.1005342388
 42
-0.0822093574
  0
ELLIPSE
  5
4DF
100
AcDbEntity
  8
0
100
AcDbEllipse
 62
7
  6
CONTINUOUS
 10
211.2093315774
 20
199.4653347439
 30
0.0
 11
34.25
 21
0.0
 31
0.0
 40
0.2042553727
 41
-0.1234888
 42
-0.1005342388
  0
ELLIPSE
  5
4E0
100
AcDbEntity
  8
0
100
AcDbEllipse
 62
7
  6
CONTINUOUS
 10
211.2093315774
 20
201.8908661593
 30
0.0
 11
34.25
 21
0.0
 31
0.0
 40
0.2042553727
 41
0.1005342388
 42
0.1234888
  0
ELLIPSE
  5
4E1
100
AcDbEntity
  8
0
100
AcDbEllipse
 62
7
  6
CONTINUOUS
 10
211.2093315774
 20
199.9600166816
 30
0.0
 11
34.25
 21
0.0
 31
0.0
 40
0.7659569903
 41
0.0822093574
 42
0.1005342388
  0
ELLIPSE
  5
4E2
100
AcDbEntity
  8
0
100
AcDbEllipse
 62
7
  6
CONTINUOUS
 10
211.2093315774
 20
198.2844839392
 30
0.0
 11
-0.0
 21
46.6382923126
 31
0.0
 40
0.7343750875
 41
-1.5023121497
 42
-1.4885869694
  0
ELLIPSE
  5
4E3
100
AcDbEntity
  8
0
100
AcDbEllipse
 62
7
  6
CONTINUOUS
 10
211.2093315774
 20
194.295136409
 30
0.0
 11
-0.0
 21
104.9359575539
 31
0.0
 40
0.3263895503
 41
-1.5068842203
 42
-1.5023121497
  0
ELLIPSE
  5
4E4
100
AcDbEntity
  8
0
100
AcDbEllipse
 62
7
  6
CONTINUOUS
 10
211.2093315774
 20
228.6036562068
 30
0.0
 11
-0.0
 21
104.9362577784
 31
0.0
 40
0.3263886165
 41
-1.8480576838
 42
-1.843317675
  0
ELLIPSE
  5
4E5
100
AcDbEntity
  8
0
100
AcDbEllipse
 62
7
  6
CONTINUOUS
 10
211.2093315774
 20
212.6461839078
 30
0.0
 11
-0.0
 21
46.6382923126
 31
0.0
 40
0.7343750875
 41
-1.8623166757
 42
-1.8480576838
  0
ELLIPSE
  5
4E6
100
AcDbEntity
  8
0
100
AcDbEllipse
 62
7
  6
CONTINUOUS
 10
211.2093315774
 20
206.7818247024
 30
0.0
 11
34.25
 21
0.0
 31
0.0
 40
0.7659575381
 41
-0.3106283027
 42
-0.2915203489
  0
ELLIPSE
  5
4E7
100
AcDbEntity
  8
0
100
AcDbEllipse
 62
7
  6
CONTINUOUS
 10
211.2093315774
 20
200.9015040185
 30
0.0
 11
34.25
 21
-0.0
 31
0.0
 40
0.2042552558
 41
-0.334680224
 42
-0.3106283027
  0
ELLIPSE
  5
4E8
100
AcDbEntity
  8
0
100
AcDbEllipse
 62
7
  6
CONTINUOUS
 10
211.2093315774
 20
200.4546968847
 30
0.0
 11
34.25
 21
0.0
 31
0.0
 40
0.2042552558
 41
0.3106283027
 42
0.334680224
  0
ELLIPSE
  5
4E9
100
AcDbEntity
  8
0
100
AcDbEllipse
 62
7
  6
CONTINUOUS
 10
211.2093315774
 20
194.5743762008
 30
0.0
 11
34.25
 21
0.0
 31
0.0
 40
0.7659575381
 41
0.2915203489
 42
0.3106283027
  0
ELLIPSE
  5
4EA
100
AcDbEntity
  8
0
100
AcDbEllipse
 62
7
  6
CONTINUOUS
 10
211.2093315774
 20
188.7100169955
 30
0.0
 11
0.0
 21
46.6382923126
 31
0.0
 40
0.7343750875
 41
-1.2935349698
 42
-1.2792759779
  0
ELLIPSE
  5
4EB
100
AcDbEntity
  8
0
100
AcDbEllipse
 62
7
  6
CONTINUOUS
 10
211.2093315774
 20
172.7525446964
 30
0.0
 11
-0.0
 21
104.9362577784
 31
0.0
 40
0.3263886165
 41
-1.2982749786
 42
-1.2935349698
  0
ELLIPSE
  5
4EC
100
AcDbEntity
  8
0
100
AcDbEllipse
 62
7
  6
CONTINUOUS
 10
211.2093315774
 20
201.1461583649
 30
0.0
 11
-0.0
 21
139.9154106728
 31
0.0
 40
0.244790762
 41
-1.5205927502
 42
-1.5160244285
  0
ELLIPSE
  5
4ED
100
AcDbEntity
  8
0
100
AcDbEllipse
 62
7
  6
CONTINUOUS
 10
211.2093315774
 20
205.5344882811
 30
0.0
 11
0.0
 21
52.467978777
 31
0.0
 40
0.6527791007
 41
-1.5297263966
 42
-1.5205927502
  0
ELLIPSE
  5
4EE
100
AcDbEntity
  8
0
100
AcDbEllipse
 62
7
  6
CONTINUOUS
 10
211.2093315774
 20
206.7312919513
 30
0.0
 11
34.25
 21
0.0
 31
0.0
 40
0.6808512211
 41
0.0273756733
 42
0.0410699302
  0
ELLIPSE
  5
4EF
100
AcDbEntity
  8
0
100
AcDbEllipse
 62
7
  6
CONTINUOUS
 10
211.2093315774
 20
207.1302279424
 30
0.0
 11
34.25
 21
0.0
 31
0.0
 40
0.255319362
 41
0.0091242229
 42
0.0273756733
  0
ELLIPSE
  5
4F0
100
AcDbEntity
  8
0
100
AcDbEllipse
 62
7
  6
CONTINUOUS
 10
211.2093315774
 20
212.4759731639
 30
0.0
 11
34.25
 21
-0.0
 31
0.0
 40
0.2042552558
 41
0.1603579035
 42
0.1835099969
  0
ELLIPSE
  5
4F1
100
AcDbEntity
  8
0
100
AcDbEllipse
 62
7
  6
CONTINUOUS
 10
211.2093315774
 20
209.4041638914
 30
0.0
 11
34.25
 21
-0.0
 31
0.0
 40
0.7659575381
 41
0.1418990764
 42
0.1603579035
  0
ELLIPSE
  5
4F2
100
AcDbEntity
  8
0
100
AcDbEllipse
 62
7
  6
CONTINUOUS
 10
211.2093315774
 20
206.5185268221
 30
0.0
 11
0.0
 21
46.6382923126
 31
0.0
 40
0.7343750875
 41
-1.4427091477
 42
-1.4288972504
  0
ELLIPSE
  5
4F3
100
AcDbEntity
  8
0
100
AcDbEllipse
 62
7
  6
CONTINUOUS
 10
211.2093315774
 20
199.0717064159
 30
0.0
 11
-0.0
 21
104.9362577784
 31
0.0
 40
0.3263886165
 41
-1.4473075224
 42
-1.4427091477
  0
ELLIPSE
  5
4F4
100
AcDbEntity
  8
0
100
AcDbEllipse
 62
7
  6
CONTINUOUS
 10
211.2093315774
 20
224.2844944873
 30
0.0
 11
-0.0
 21
104.9362577784
 31
0.0
 40
0.3263886165
 41
-1.6988835059
 42
-1.6942851312
  0
ELLIPSE
  5
4F5
100
AcDbEntity
  8
0
100
AcDbEllipse
 62
7
  6
CONTINUOUS
 10
211.2093315774
 20
216.8376740811
 30
0.0
 11
0.0
 21
46.6382923126
 31
0.0
 40
0.7343750875
 41
-1.7126954031
 42
-1.6988835059
  0
ELLIPSE
  5
4F6
100
AcDbEntity
  8
0
100
AcDbEllipse
 62
7
  6
CONTINUOUS
 10
211.2093315774
 20
212.7153347367
 30
0.0
 11
34.25
 21
0.0
 31
0.0
 40
0.5106383587
 41
-0.1603579035
 42
-0.1418990764
  0
ELLIPSE
  5
4F7
100
AcDbEntity
  8
0
100
AcDbEllipse
 62
7
  6
CONTINUOUS
 10
211.2093315774
 20
195.6497319949
 30
0.0
 11
0.0
 21
89.3900711536
 31
0.0
 40
0.3831521729
 41
-1.4519032872
 42
-1.4104384233
  0
ELLIPSE
  5
4F8
100
AcDbEntity
  8
0
100
AcDbEllipse
 62
7
  6
CONTINUOUS
 10
211.2093315774
 20
200.5717178105
 30
0.0
 11
34.0
 21
0.0
 31
0.0
 40
0.3404254913
 41
0.1058963305
 42
0.1197714375
  0
ELLIPSE
  5
4F9
100
AcDbEntity
  8
0
100
AcDbEllipse
 62
7
  6
CONTINUOUS
 10
211.2093315774
 20
198.1249062943
 30
0.0
 11
-0.0
 21
34.7234332308
 31
0.0
 40
0.9791658496
 41
-1.4741385362
 42
-1.4648999963
  0
ELLIPSE
  5
4FA
100
AcDbEntity
  8
0
100
AcDbEllipse
 62
7
  6
CONTINUOUS
 10
211.2093315774
 20
191.4228018044
 30
0.0
 11
-0.0
 21
104.1700016594
 31
0.0
 40
0.3263895503
 41
-1.4787546682
 42
-1.4741385362
  0
ELLIPSE
  5
4FB
100
AcDbEntity
  8
0
100
AcDbEllipse
 62
7
  6
CONTINUOUS
 10
211.2093315774
 20
210.0929735479
 30
0.0
 11
-0.0
 21
104.1700016594
 31
0.0
 40
0.3263895503
 41
-1.6674541174
 42
-1.6628379854
  0
ELLIPSE
  5
4FC
100
AcDbEntity
  8
0
100
AcDbEllipse
 62
7
  6
CONTINUOUS
 10
211.2093315774
 20
203.390869058
 30
0.0
 11
0.0
 21
34.7234332308
 31
0.0
 40
0.9791658496
 41
-1.6766926573
 42
-1.6674541174
  0
ELLIPSE
  5
4FD
100
AcDbEntity
  8
0
100
AcDbEllipse
 62
7
  6
CONTINUOUS
 10
211.2093315774
 20
200.9440575417
 30
0.0
 11
34.0
 21
-0.0
 31
0.0
 40
0.3404254913
 41
-0.1197714375
 42
-0.1058963305
  0
ELLIPSE
  5
4FE
100
AcDbEntity
  8
0
100
AcDbEllipse
 62
7
  6
CONTINUOUS
 10
211.2093315774
 20
198.1781009224
 30
0.0
 11
34.0
 21
-0.0
 31
0.0
 40
0.3404254913
 41
0.3178237085
 42
0.3323726791
  0
ELLIPSE
  5
4FF
100
AcDbEntity
  8
0
100
AcDbEllipse
 62
7
  6
CONTINUOUS
 10
211.2093315774
 20
190.9440643043
 30
0.0
 11
-0.0
 21
34.7233835586
 31
0.0
 40
0.9791672503
 41
-1.2626331824
 42
-1.2529726183
  0
ELLIPSE
  5
500
100
AcDbEntity
  8
0
100
AcDbEllipse
 62
7
  6
CONTINUOUS
 10
211.2093315774
 20
169.880201874
 30
0.0
 11
-0.0
 21
104.1702996924
 31
0.0
 40
0.3263886165
 41
-1.2674522785
 42
-1.2626331824
  0
ELLIPSE
  5
501
100
AcDbEntity
  8
0
100
AcDbEllipse
 62
7
  6
CONTINUOUS
 10
211.2093315774
 20
231.6355734783
 30
0.0
 11
-0.0
 21
104.1702996924
 31
0.0
 40
0.3263886165
 41
-1.8789594712
 42
-1.874140375
  0
ELLIPSE
  5
502
100
AcDbEntity
  8
0
100
AcDbEllipse
 62
7
  6
CONTINUOUS
 10
211.2093315774
 20
210.571711048
 30
0.0
 11
-0.0
 21
34.7233835586
 31
0.0
 40
0.9791672503
 41
-1.8886200353
 42
-1.8789594712
  0
ELLIPSE
  5
503
100
AcDbEntity
  8
0
100
AcDbEllipse
 62
7
  6
CONTINUOUS
 10
211.2093315774
 20
203.3376744299
 30
0.0
 11
34.0
 21
0.0
 31
0.0
 40
0.3404254913
 41
-0.3323726791
 42
-0.3178237085
  0
ELLIPSE
  5
504
100
AcDbEntity
  8
0
100
AcDbEllipse
 62
7
  6
CONTINUOUS
 10
211.2093315774
 20
192.4294287955
 30
0.0
 11
-0.0
 21
91.1489428967
 31
0.0
 40
0.3730158455
 41
-1.4185544924
 42
-1.3812441418
  0
ELLIPSE
  5
505
100
AcDbEntity
  8
0
100
AcDbEllipse
 62
7
  6
CONTINUOUS
 10
211.2093315774
 20
210.8802283791
 30
0.0
 11
34.0
 21
0.0
 31
0.0
 40
0.3404254913
 41
0.16620534
 42
0.1802016334
  0
ELLIPSE
  5
506
100
AcDbEntity
  8
0
100
AcDbEllipse
 62
7
  6
CONTINUOUS
 10
211.2093315774
 20
207.0504442394
 30
0.0
 11
-0.0
 21
34.7233835586
 31
0.0
 40
0.9791672503
 41
-1.4139034558
 42
-1.4045909868
  0
ELLIPSE
  5
507
100
AcDbEntity
  8
0
100
AcDbEllipse
 62
7
  6
CONTINUOUS
 10
211.2093315774
 20
196.1993635935
 30
0.0
 11
-0.0
 21
104.1702996924
 31
0.0
 40
0.3263886165
 41
-1.4185544924
 42
-1.4139034558
  0
ELLIPSE
  5
508
100
AcDbEntity
  8
0
100
AcDbEllipse
 62
7
  6
CONTINUOUS
 10
211.2093315774
 20
227.3164117588
 30
0.0
 11
-0.0
 21
104.1702996924
 31
0.0
 40
0.3263886165
 41
-1.7276891978
 42
-1.7230381612
  0
ELLIPSE
  5
509
100
AcDbEntity
  8
0
100
AcDbEllipse
 62
7
  6
CONTINUOUS
 10
211.2093315774
 20
216.4653311129
 30
0.0
 11
0.0
 21
34.7233835586
 31
0.0
 40
0.9791672503
 41
-1.7370016668
 42
-1.7276891978
  0
ELLIPSE
  5
50A
100
AcDbEntity
  8
0
100
AcDbEllipse
 62
7
  6
CONTINUOUS
 10
211.2093315774
 20
212.6355469732
 30
0.0
 11
34.0
 21
-0.0
 31
0.0
 40
0.3404254913
 41
-0.1802016334
 42
-0.16620534
  0
ELLIPSE
  5
50B
100
AcDbEntity
  8
0
100
AcDbEllipse
 62
7
  6
CONTINUOUS
 10
211.2093315774
 20
203.3376744299
 30
0.0
 11
34.25
 21
-0.0
 31
0.0
 40
0.3404254913
 41
-0.3298542231
 42
-0.3154233704
  0
ELLIPSE
  5
50C
100
AcDbEntity
  8
0
100
AcDbEllipse
 62
7
  6
CONTINUOUS
 10
211.2093315774
 20
210.571711048
 30
0.0
 11
0.0
 21
34.9787025553
 31
0.0
 40
0.9791672503
 41
-1.8862196972
 42
-1.8766369454
  0
ELLIPSE
  5
50D
100
AcDbEntity
  8
0
100
AcDbEllipse
 62
7
  6
CONTINUOUS
 10
211.2093315774
 20
231.6355734783
 30
0.0
 11
-0.0
 21
104.9362577784
 31
0.0
 40
0.3263886165
 41
-1.8766369454
 42
-1.871856488
  0
ELLIPSE
  5
50E
100
AcDbEntity
  8
0
100
AcDbEllipse
 62
7
  6
CONTINUOUS
 10
211.2093315774
 20
169.880201874
 30
0.0
 11
-0.0
 21
104.9362577784
 31
0.0
 40
0.3263886165
 41
-1.2697361656
 42
-1.2649557082
  0
ELLIPSE
  5
50F
100
AcDbEntity
  8
0
100
AcDbEllipse
 62
7
  6
CONTINUOUS
 10
211.2093315774
 20
190.9440643043
 30
0.0
 11
-0.0
 21
34.9787025553
 31
0.0
 40
0.9791672503
 41
-1.2649557082
 42
-1.2553729564
  0
ELLIPSE
  5
510
100
AcDbEntity
  8
0
100
AcDbEllipse
 62
7
  6
CONTINUOUS
 10
211.2093315774
 20
198.1781009224
 30
0.0
 11
34.25
 21
-0.0
 31
0.0
 40
0.3404254913
 41
0.3154233704
 42
0.3298542231
  0
ELLIPSE
  5
511
100
AcDbEntity
  8
0
100
AcDbEllipse
 62
7
  6
CONTINUOUS
 10
211.2093315774
 20
206.1887386425
 30
0.0
 11
34.25
 21
0.0
 31
0.0
 40
0.2042553906
 41
0.0091242229
 42
0.0319397368
  0
ELLIPSE
  5
512
100
AcDbEntity
  8
0
100
AcDbEllipse
 62
7
  6
CONTINUOUS
 10
211.2093315774
 20
205.8536325972
 30
0.0
 11
34.25
 21
-0.0
 31
0.0
 40
0.5106380606
 41
0.0319397368
 42
0.0502035766
  0
ELLIPSE
  5
513
100
AcDbEntity
  8
0
100
AcDbEllipse
 62
7
  6
CONTINUOUS
 10
211.2093315774
 20
204.9759708443
 30
0.0
 11
-0.0
 21
34.978755655
 31
0.0
 40
0.9791657639
 41
-1.5205927502
 42
-1.5023121584
  0
ELLIPSE
  5
514
100
AcDbEntity
  8
0
100
AcDbEllipse
 62
7
  6
CONTINUOUS
 10
211.2093315774
 20
202.5823583495
 30
0.0
 11
-0.0
 21
69.9574173594
 31
0.0
 40
0.4895835394
 41
-1.5023121584
 42
-1.4931636302
  0
ELLIPSE
  5
515
100
AcDbEntity
  8
0
100
AcDbEllipse
 62
7
  6
CONTINUOUS
 10
211.2093315774
 20
194.4440861377
 30
0.0
 11
-0.0
 21
174.8932625899
 31
0.0
 40
0.1958337302
 41
-1.4931636302
 42
-1.4885869651
  0
ELLIPSE
  5
516
100
AcDbEntity
  8
0
100
AcDbEllipse
 62
7
  6
CONTINUOUS
 10
211.2093315774
 20
212.6355469732
 30
0.0
 11
34.25
 21
0.0
 31
0.0
 40
0.3404254913
 41
-0.1788720288
 42
-0.1649809919
  0
ELLIPSE
  5
517
100
AcDbEntity
  8
0
100
AcDbEllipse
 62
7
  6
CONTINUOUS
 10
211.2093315774
 20
216.4653311129
 30
0.0
 11
0.0
 21
34.9787025553
 31
0.0
 40
0.9791672503
 41
-1.7357773187
 42
-1.7265346096
  0
ELLIPSE
  5
518
100
AcDbEntity
  8
0
100
AcDbEllipse
 62
7
  6
CONTINUOUS
 10
211.2093315774
 20
227.3164117588
 30
0.0
 11
-0.0
 21
104.9362577784
 31
0.0
 40
0.3263886165
 41
-1.7265346096
 42
-1.7219183372
  0
ELLIPSE
  5
519
100
AcDbEntity
  8
0
100
AcDbEllipse
 62
7
  6
CONTINUOUS
 10
211.2093315774
 20
196.1993635935
 30
0.0
 11
-0.0
 21
104.9362577784
 31
0.0
 40
0.3263886165
 41
-1.4196743164
 42
-1.415058044
  0
ELLIPSE
  5
51A
100
AcDbEntity
  8
0
100
AcDbEllipse
 62
7
  6
CONTINUOUS
 10
211.2093315774
 20
207.0504442394
 30
0.0
 11
-0.0
 21
34.9787025553
 31
0.0
 40
0.9791672503
 41
-1.415058044
 42
-1.4058153349
  0
ELLIPSE
  5
51B
100
AcDbEntity
  8
0
100
AcDbEllipse
 62
7
  6
CONTINUOUS
 10
211.2093315774
 20
210.8802283791
 30
0.0
 11
34.25
 21
-0.0
 31
0.0
 40
0.3404254913
 41
0.1649809919
 42
0.1788720288
  0
ELLIPSE
  5
51C
100
AcDbEntity
  8
0
100
AcDbEllipse
 62
7
  6
CONTINUOUS
 10
211.2093315774
 20
200.9440575417
 30
0.0
 11
34.25
 21
0.0
 31
0.0
 40
0.3404254913
 41
-0.1188930352
 42
-0.1051204941
  0
ELLIPSE
  5
51D
100
AcDbEntity
  8
0
100
AcDbEllipse
 62
7
  6
CONTINUOUS
 10
211.2093315774
 20
203.390869058
 30
0.0
 11
0.0
 21
34.9787525928
 31
0.0
 40
0.9791658496
 41
-1.6759168209
 42
-1.6667464048
  0
ELLIPSE
  5
51E
100
AcDbEntity
  8
0
100
AcDbEllipse
 62
7
  6
CONTINUOUS
 10
211.2093315774
 20
210.0929735479
 30
0.0
 11
-0.0
 21
104.9359575539
 31
0.0
 40
0.3263895503
 41
-1.6667464048
 42
-1.6621642657
  0
ELLIPSE
  5
51F
100
AcDbEntity
  8
0
100
AcDbEllipse
 62
7
  6
CONTINUOUS
 10
211.2093315774
 20
191.4228018044
 30
0.0
 11
-0.0
 21
104.9359575539
 31
0.0
 40
0.3263895503
 41
-1.4794283878
 42
-1.4748462488
  0
ELLIPSE
  5
520
100
AcDbEntity
  8
0
100
AcDbEllipse
 62
7
  6
CONTINUOUS
 10
211.2093315774
 20
198.1249062943
 30
0.0
 11
-0.0
 21
34.9787525928
 31
0.0
 40
0.9791658496
 41
-1.4748462488
 42
-1.4656758327
  0
ELLIPSE
  5
521
100
AcDbEntity
  8
0
100
AcDbEllipse
 62
7
  6
CONTINUOUS
 10
211.2093315774
 20
200.5717178105
 30
0.0
 11
34.25
 21
0.0
 31
0.0
 40
0.3404254913
 41
0.1051204941
 42
0.1188930352
  0
ELLIPSE
  5
522
100
AcDbEntity
  8
0
100
AcDbEllipse
 62
7
  6
CONTINUOUS
 10
211.2093315774
 20
194.4440861377
 30
0.0
 11
-0.0
 21
173.6166694323
 31
0.0
 40
0.1958337302
 41
-1.4889644505
 42
-1.4879811038
  0
ELLIPSE
  5
523
100
AcDbEntity
  8
0
100
AcDbEllipse
 62
7
  6
CONTINUOUS
 10
211.2093315774
 20
192.4294287955
 30
0.0
 11
-0.0
 21
91.8191557121
 31
0.0
 40
0.3730158455
 41
-1.4196743164
 42
-1.3826443593
  0
ENDSEC
  0
SECTION
  2
OBJECTS
  0
DICTIONARY
  5
C
100
AcDbDictionary
280
0
281
1
  3
ACAD_GROUP
350
D
  3
ACAD_MLINESTYLE
350
17
  3
ACAD_LAYOUT
350
1A
  3
ACAD_PLOTSETTINGS
350
19
  3
ACAD_PLOTSTYLENAME
350
E
  0
DICTIONARY
  5
D
102
{ACAD_REACTORS
330
C
102
}
100
AcDbDictionary
280
0
281
1
  0
ACDBDICTIONARYWDFLT
  5
E
102
{ACAD_REACTORS
330
C
102
}
100
AcDbDictionary
281
1
  3
Normal
350
F
100
AcDbDictionaryWithDefault
340
F
  0
DICTIONARY
  5
17
102
{ACAD_REACTORS
330
C
102
}
100
AcDbDictionary
280
0
281
1
  3
Standard
350
18
  0
DICTIONARY
  5
19
102
{ACAD_REACTORS
330
C
102
}
100
AcDbDictionary
281
1
  0
DICTIONARY
  5
1A
102
{ACAD_REACTORS
330
C
102
}
100
AcDbDictionary
281
1
  3
Model
350
524
  3
Layout1
350
525
  0
ACDBPLACEHOLDER
  5
F
102
{ACAD_REACTORS
330
E
102
}
  0
MLINESTYLE
  5
18
102
{ACAD_REACTORS
330
17
102
}
100
AcDbMlineStyle
  2
STANDARD
 70
0
  3

 62
256
 51
90.0
 52
90.0
 71
2
 49
0.5
 62
256
  6
BYLAYER
 49
-0.5
 62
256
  6
BYLAYER
  0
LAYOUT
  5
524
102
{ACAD_REACTORS
330
1A
102
}
100
AcDbPlotSettings
  1

  2
none_device
  4
ISO_A2_(594.00_x_420.00_MM)
  6

 40
0.0
 41
0.0
 42
0.0
 43
0.0
 44
594.0
 45
420.0
 46
0.0
 47
0.0
 48
0.0
 49
0.0
140
0.0
141
0.0
142
1.0
143
1.0
 70
1024
 72
1
 73
0
 74
0
  7

 75
0
147
1.0
148
0.0
149
0.0
100
AcDbLayout
  1
Model
 70
0
 71
0
 10
0.0
 20
0.0
 11
594.0
 21
420.0
 12
0.0
 22
0.0
 32
0.0
 14
0.0
 24
0.0
 34
0.0
 15
0.0
 25
0.0
 35
0.0
146
0.0
 13
0.0
 23
0.0
 33
0.0
 16
1.0
 26
0.0
 36
0.0
 17
0.0
 27
1.0
 37
0.0
 76
0
330
20D
345
0
346
0
  0
LAYOUT
  5
525
102
{ACAD_REACTORS
330
1A
102
}
100
AcDbPlotSettings
  1

  2
none_device
  4
ISO_A2_(594.00_x_420.00_MM)
  6

 40
0.0
 41
0.0
 42
0.0
 43
0.0
 44
594.0
 45
420.0
 46
0.0
 47
0.0
 48
0.0
 49
0.0
140
0.0
141
0.0
142
1.0
143
1.0
 70
0
 72
1
 73
0
 74
0
  7

 75
0
147
1.0
148
0.0
149
0.0
100
AcDbLayout
  1
Layout1
 70
0
 71
1
 10
0.0
 20
0.0
 11
594.0
 21
420.0
 12
0.0
 22
0.0
 32
0.0
 14
0.0
 24
0.0
 34
0.0
 15
0.0
 25
0.0
 35
0.0
146
0.0
 13
0.0
 23
0.0
 33
0.0
 16
1.0
 26
0.0
 36
0.0
 17
0.0
 27
1.0
 37
0.0
 76
0
330
20E
345
0
346
0
  0
ENDSEC
  0
EOF
