999
DXF file: 001-m31347-p-40.dxf
999
Pro/ENGINEER 2011490 by Parametric Technology Corporation
  0
SECTION
  2
HEADER
  9
$ACADVER
  1
AC1015
  9
$DWGCODEPAGE
  3
ANSI_1252
  9
$EXTMAX
 10
420.0
 20
297.0
 30
0.0
  9
$EXTMIN
 10
0.0
 20
0.0
 30
0.0
  9
$LIMMIN
 10
0.0
 20
0.0
  9
$LIMMAX
 10
420.0
 20
297.0
  9
$VIEWCTR
 10
210.0
 20
148.5
  9
$VIEWSIZE
 40
297.0
  9
$CLAYER
  8
0
  9
$LTSCALE
 40
23.1
  9
$CELTYPE
  6
BYLAYER
  9
$DIMSCALE
 40
1.0
  9
$DIMASZ
 40
3.5
  9
$DIMEXO
 40
2.625
  9
$DIMDLI
 40
15.96
  9
$DIMEXE
 40
7.56
  9
$DIMCEN
 40
3.78
  9
$DIMLFAC
 40
1.0
  9
$DIMBLK
  1
_FILLED
  9
$DIMTXT
 40
3.5
  9
$DIMTOL
 70
1
  9
$DIMLIM
 70
0
  9
$DIMTFAC
 40
1.0
  9
$DIMTP
 40
0.005
  9
$DIMTM
 40
0.005
  9
$PDMODE
 70
3
  9
$PDSIZE
 40
0.3125
  9
$HANDSEED
  5
5DC
  9
$TILEMODE
 70
1
  9
$MEASUREMENT
 70
1
  9
$INSUNITS
 70
4
  0
ENDSEC
  0
SECTION
  2
CLASSES
  0
CLASS
  1
ACDBDICTIONARYWDFLT
  2
AcDbDictionaryWithDefault
  3
AutoCAD 2000
 90
0
280
0
281
0
  0
CLASS
  1
ACDBPLACEHOLDER
  2
AcDbPlaceHolder
  3
AutoCAD 2000
 90
0
280
0
281
0
  0
CLASS
  1
LAYOUT
  2
AcDbLayout
  3
AutoCAD 2000
 90
0
280
0
281
0
  0
ENDSEC
  0
SECTION
  2
TABLES
  0
TABLE
  2
VPORT
  5
8
100
AcDbSymbolTable
 70
2
  0
VPORT
  5
1F4
100
AcDbSymbolTableRecord
100
AcDbViewportTableRecord
  2
*ACTIVE
 70
0
 10
0.0
 20
0.0
 11
1.0
 21
1.0
 12
210.0
 22
148.5
 13
0.0
 23
0.0
 14
1.0
 24
1.0
 15
0.0
 25
0.0
 16
0.0
 26
0.0
 36
1.0
 17
0.0
 27
0.0
 37
0.0
 40
297.0
 41
1.4141414141
 42
50.0
 43
0.0
 44
0.0
 50
0.0
 51
0.0
 71
0
 72
100
 73
1
 74
1
 75
0
 76
0
 77
0
 78
0
  0
ENDTAB
  0
TABLE
  2
LTYPE
  5
5
100
AcDbSymbolTable
 70
6
  0
LTYPE
  5
14
100
AcDbSymbolTableRecord
100
AcDbLinetypeTableRecord
  2
BYBLOCK
 70
0
  3

 72
65
 73
0
 40
0.0
  0
LTYPE
  5
15
100
AcDbSymbolTableRecord
100
AcDbLinetypeTableRecord
  2
BYLAYER
 70
0
  3

 72
65
 73
0
 40
0.0
  0
LTYPE
  5
16
100
AcDbSymbolTableRecord
100
AcDbLinetypeTableRecord
  2
CONTINUOUS
 70
64
  3
Solid line
 72
65
 73
0
 40
0.0
  0
LTYPE
  5
1F5
100
AcDbSymbolTableRecord
100
AcDbLinetypeTableRecord
  2
CENTER
 70
64
  3
____ _ ____ _ ____ _ ____ _ ____ _ ____ _ ____
 72
65
 73
4
 40
0.6
 49
0.375
 74
0
 49
-0.075
 74
0
 49
0.075
 74
0
 49
-0.075
 74
0
  0
LTYPE
  5
1F6
100
AcDbSymbolTableRecord
100
AcDbLinetypeTableRecord
  2
HIDDEN
 70
64
  3
- - - - - - - - - - - - - - - - - - - -
 72
65
 73
2
 40
0.2
 49
0.1
 74
0
 49
-0.1
 74
0
  0
LTYPE
  5
1F7
100
AcDbSymbolTableRecord
100
AcDbLinetypeTableRecord
  2
PHANTOM
 70
64
  3
_____ _ _ _____ _ _ _____ _ _ _____
 72
65
 73
6
 40
0.8
 49
0.45
 74
0
 49
-0.05
 74
0
 49
0.1
 74
0
 49
-0.05
 74
0
 49
0.1
 74
0
 49
-0.05
 74
0
  0
LTYPE
  5
1F8
100
AcDbSymbolTableRecord
100
AcDbLinetypeTableRecord
  2
DOT
 70
64
  3
. . . . . . . . . . . . . . . . . . . .
 72
65
 73
2
 40
0.2
 49
0.1
 74
0
 49
-0.1
 74
0
  0
LTYPE
  5
1F9
100
AcDbSymbolTableRecord
100
AcDbLinetypeTableRecord
  2
DASHED
 70
64
  3
- - - - - - - - - - - - - - - - - - - -
 72
65
 73
2
 40
0.2
 49
0.1
 74
0
 49
-0.1
 74
0
  0
ENDTAB
  0
TABLE
  2
LAYER
  5
2
100
AcDbSymbolTable
 70
36
  0
LAYER
  5
10
100
AcDbSymbolTableRecord
100
AcDbLayerTableRecord
  2
0
 70
0
 62
7
  6
CONTINUOUS
370
-3
390
F
  0
LAYER
  5
1FA
100
AcDbSymbolTableRecord
100
AcDbLayerTableRecord
  2
DEFAULT_1
 70
0
 62
7
  6
CENTER
370
-3
390
F
  0
LAYER
  5
1FB
100
AcDbSymbolTableRecord
100
AcDbLayerTableRecord
  2
DEFAULT_2
 70
0
 62
8
  6
HIDDEN
370
-3
390
F
  0
LAYER
  5
1FC
100
AcDbSymbolTableRecord
100
AcDbLayerTableRecord
  2
DEFAULT_3
 70
0
 62
7
  6
PHANTOM
370
-3
390
F
  0
LAYER
  5
1FD
100
AcDbSymbolTableRecord
100
AcDbLayerTableRecord
  2
AUSFORMSCHRAEGEN
 70
0
 62
7
  6
CONTINUOUS
370
-3
390
F
  0
LAYER
  5
1FE
100
AcDbSymbolTableRecord
100
AcDbLayerTableRecord
  2
BEZUGSACHSEN
 70
0
 62
7
  6
CONTINUOUS
370
-3
390
F
  0
LAYER
  5
1FF
100
AcDbSymbolTableRecord
100
AcDbLayerTableRecord
  2
BEZUGSEBENEN
 70
0
 62
7
  6
CONTINUOUS
370
-3
390
F
  0
LAYER
  5
200
100
AcDbSymbolTableRecord
100
AcDbLayerTableRecord
  2
BG_STARTBEZUEGE
 70
0
 62
7
  6
CONTINUOUS
370
-3
390
F
  0
LAYER
  5
201
100
AcDbSymbolTableRecord
100
AcDbLayerTableRecord
  2
FASEN
 70
0
 62
7
  6
CONTINUOUS
370
-3
390
F
  0
LAYER
  5
202
100
AcDbSymbolTableRecord
100
AcDbLayerTableRecord
  2
HILFEN
 70
0
 62
7
  6
CONTINUOUS
370
-3
390
F
  0
LAYER
  5
203
100
AcDbSymbolTableRecord
100
AcDbLayerTableRecord
  2
KONSTRUKTIONSELEMENTE
 70
0
 62
7
  6
CONTINUOUS
370
-3
390
F
  0
LAYER
  5
204
100
AcDbSymbolTableRecord
100
AcDbLayerTableRecord
  2
NORM
 70
0
 62
7
  6
CONTINUOUS
370
-3
390
F
  0
LAYER
  5
205
100
AcDbSymbolTableRecord
100
AcDbLayerTableRecord
  2
PLATZIERUNG
 70
0
 62
7
  6
CONTINUOUS
370
-3
390
F
  0
LAYER
  5
206
100
AcDbSymbolTableRecord
100
AcDbLayerTableRecord
  2
PLAZIERUNG
 70
0
 62
7
  6
CONTINUOUS
370
-3
390
F
  0
LAYER
  5
207
100
AcDbSymbolTableRecord
100
AcDbLayerTableRecord
  2
RUNDUNGEN
 70
0
 62
7
  6
CONTINUOUS
370
-3
390
F
  0
LAYER
  5
208
100
AcDbSymbolTableRecord
100
AcDbLayerTableRecord
  2
TEIL_STARTBEZUEGE
 70
0
 62
7
  6
CONTINUOUS
370
-3
390
F
  0
LAYER
  5
209
100
AcDbSymbolTableRecord
100
AcDbLayerTableRecord
  2
T_STARTBEZUEGE
 70
0
 62
7
  6
CONTINUOUS
370
-3
390
F
  0
LAYER
  5
20A
100
AcDbSymbolTableRecord
100
AcDbLayerTableRecord
  2
ZEICHNUNGSBEMASSUNGEN
 70
0
 62
7
  6
CONTINUOUS
370
-3
390
F
  0
ENDTAB
  0
TABLE
  2
STYLE
  5
3
100
AcDbSymbolTable
 70
1
  0
STYLE
  5
11
100
AcDbSymbolTableRecord
100
AcDbTextStyleTableRecord
  2
STANDARD
 70
0
 40
0.0
 41
0.7
 50
0.0
 71
0
 42
0.2
  3
txt
  4

  0
STYLE
  5
20B
100
AcDbSymbolTableRecord
100
AcDbTextStyleTableRecord
  2
TEXTSTYLE_1
 70
0
 40
0.0
 41
0.8
 50
0.0
 71
0
 42
0.2
  3
gdt
  4

  0
ENDTAB
  0
TABLE
  2
VIEW
  5
6
100
AcDbSymbolTable
 70
0
  0
ENDTAB
  0
TABLE
  2
UCS
  5
7
100
AcDbSymbolTable
 70
0
  0
ENDTAB
  0
TABLE
  2
APPID
  5
9
100
AcDbSymbolTable
 70
1
  0
APPID
  5
20C
100
AcDbSymbolTableRecord
100
AcDbRegAppTableRecord
  2
ACAD
 70
0
  0
ENDTAB
  0
TABLE
  2
BLOCK_RECORD
  5
1
100
AcDbSymbolTable
 70
0
  0
BLOCK_RECORD
  5
20D
100
AcDbSymbolTableRecord
100
AcDbBlockTableRecord
  2
*Model_Space
  0
BLOCK_RECORD
  5
20E
100
AcDbSymbolTableRecord
100
AcDbBlockTableRecord
  2
*Paper_Space
  0
ENDTAB
  0
TABLE
  2
DIMSTYLE
  5
A
100
AcDbSymbolTable
 70
1
100
AcDbDimStyleTable
 71
0
  0
DIMSTYLE
105
20F
100
AcDbSymbolTableRecord
100
AcDbDimStyleTableRecord
  2
STANDARD
 70
0
  3

  4

 40
1.0
 41
3.5
 42
0.0625
 43
0.38
 44
0.18
 45
0.0
 46
0.0
 47
0.005
 48
0.005
140
3.5
141
0.09
142
0.0
143
25.4
144
1.0
145
0.0
146
1.0
147
0.09
 71
1.0
 72
0.0
 73
0
 74
0
 75
0
 76
0
 77
1
 78
8
170
0
171
2
172
0
173
0
174
0
175
0
176
0
177
0
178
5
270
2
271
3
272
3
273
2
274
2
275
0
280
0
281
0
282
0
283
1
284
8
285
0
286
0
287
3
288
0
340
11
  0
ENDTAB
  0
ENDSEC
  0
SECTION
  2
BLOCKS
  0
BLOCK
  5
20
100
AcDbEntity
  8
0
100
AcDbBlockBegin
  2
*Model_Space
 70
0
 10
0.0
 20
0.0
 30
0.0
  3
*Model_Space
  1

  0
ENDBLK
  5
21
100
AcDbEntity
  8
0
100
AcDbBlockEnd
  0
BLOCK
  5
1C
100
AcDbEntity
  8
0
100
AcDbBlockBegin
  2
*Paper_Space
 70
0
 10
0.0
 20
0.0
 30
0.0
  3
*Paper_Space
  1

  0
ENDBLK
  5
1D
100
AcDbEntity
  8
0
100
AcDbBlockEnd
  0
ENDSEC
  0
SECTION
  2
ENTITIES
  0
MTEXT
  5
210
100
AcDbEntity
  8
0
100
AcDbMText
 62
5
  6
CONTINUOUS
  7
STANDARD
 71
2
 72
1
 10
168.199291595
 20
35.3827149095
 30
0.0
 11
0.0
 21
1.0
 31
0.0
 44
0.9
  1
RUD WPP-B\P2,5t 
 40
6.0
 41
47.2857142857
  0
MTEXT
  5
211
100
AcDbEntity
  8
0
100
AcDbMText
 62
5
  6
CONTINUOUS
  7
STANDARD
 71
2
 72
1
 10
286.9913049052
 20
145.0149262601
 30
0.0
 11
1.0
 21
0.0
 31
0.0
 44
0.9
  1
RUD\PWPP-B 2,5t
 40
7.0
 41
55.0
  0
LINE
  5
212
100
AcDbEntity
  8
0
100
AcDbLine
 62
7
  6
CONTINUOUS
 10
0.0
 20
0.0
 11
0.0
 21
297.0
  0
LINE
  5
213
100
AcDbEntity
  8
0
100
AcDbLine
 62
7
  6
CONTINUOUS
 10
0.0
 20
0.0
 11
420.0
 21
0.0
  0
LINE
  5
214
100
AcDbEntity
  8
0
100
AcDbLine
 62
7
  6
CONTINUOUS
 10
0.0
 20
297.0
 11
420.0
 21
297.0
  0
LINE
  5
215
100
AcDbEntity
  8
0
100
AcDbLine
 62
7
  6
CONTINUOUS
 10
420.0
 20
0.0
 11
420.0
 21
297.0
  0
LINE
  5
216
100
AcDbEntity
  8
FASEN
100
AcDbLine
 62
7
  6
CONTINUOUS
 10
202.7657519872
 20
113.4120356897
 11
148.7657519872
 21
113.4120356897
  0
LINE
  5
217
100
AcDbEntity
  8
FASEN
100
AcDbLine
 62
7
  6
CONTINUOUS
 10
205.7657519872
 20
116.4120356897
 11
145.7657519872
 21
116.4120356897
  0
LINE
  5
218
100
AcDbEntity
  8
FASEN
100
AcDbLine
 62
7
  6
CONTINUOUS
 10
148.7657519873
 20
113.4120356896
 11
145.7657519873
 21
116.4120356896
  0
LINE
  5
219
100
AcDbEntity
  8
0
100
AcDbLine
 62
7
  6
CONTINUOUS
 10
164.6269071131
 20
256.2490364071
 11
162.5994335223
 21
255.2734079746
  0
LINE
  5
21A
100
AcDbEntity
  8
0
100
AcDbLine
 62
7
  6
CONTINUOUS
 10
163.3138824128
 20
255.0859377744
 11
164.9189658333
 21
255.858310361
  0
LINE
  5
21B
100
AcDbEntity
  8
0
100
AcDbLine
 62
7
  6
CONTINUOUS
 10
165.5417074281
 20
254.5641781943
 11
163.9366240076
 21
253.7918056077
  0
LINE
  5
21C
100
AcDbEntity
  8
0
100
AcDbLine
 62
7
  6
CONTINUOUS
 10
160.6750917178
 20
253.9171141802
 11
160.2415295408
 21
253.7148333685
  0
LINE
  5
21D
100
AcDbEntity
  8
0
100
AcDbLine
 62
7
  6
CONTINUOUS
 10
160.6019670916
 20
253.3861239818
 11
160.8849147881
 21
253.4767286464
  0
LINE
  5
21E
100
AcDbEntity
  8
0
100
AcDbLine
 62
7
  6
CONTINUOUS
 10
160.2415295408
 20
253.7148333685
 11
158.4341566377
 21
252.374720243
  0
LINE
  5
21F
100
AcDbEntity
  8
0
100
AcDbLine
 62
7
  6
CONTINUOUS
 10
159.1711302818
 20
252.3252011441
 11
160.6019670916
 21
253.3861239818
  0
LINE
  5
220
100
AcDbEntity
  8
0
100
AcDbLine
 62
7
  6
CONTINUOUS
 10
161.457358506
 20
252.2324816253
 11
160.0265216962
 21
251.1715587876
  0
LINE
  5
221
100
AcDbEntity
  8
0
100
AcDbLine
 62
7
  6
CONTINUOUS
 10
160.3686781981
 20
250.7101019311
 11
161.7242078755
 21
251.7151867753
  0
LINE
  5
222
100
AcDbEntity
  8
0
100
AcDbLine
 62
7
  6
CONTINUOUS
 10
173.4467452913
 20
258.4858427338
 11
173.0836736774
 21
258.272601317
  0
LINE
  5
223
100
AcDbEntity
  8
0
100
AcDbLine
 62
7
  6
CONTINUOUS
 10
164.1857205989
 20
253.2741528377
 11
165.7063257921
 21
254.0058741621
  0
LINE
  5
224
100
AcDbEntity
  8
0
100
AcDbLine
 62
7
  6
CONTINUOUS
 10
164.5506903874
 20
251.2184607929
 11
165.0575587851
 21
251.462367901
  0
LINE
  5
225
100
AcDbEntity
  8
0
100
AcDbLine
 62
7
  6
CONTINUOUS
 10
179.7304594444
 20
255.8788555588
 11
180.1563646035
 21
256.0831399149
  0
LINE
  5
226
100
AcDbEntity
  8
0
100
AcDbLine
 62
7
  6
CONTINUOUS
 10
181.4023339764
 20
254.2571149309
 11
181.0878095776
 21
254.127329986
  0
LINE
  5
227
100
AcDbEntity
  8
0
100
AcDbLine
 62
7
  6
CONTINUOUS
 10
180.1627163364
 20
256.5709149582
 11
179.6450482988
 21
256.3858444796
  0
LINE
  5
228
100
AcDbEntity
  8
0
100
AcDbLine
 62
7
  6
CONTINUOUS
 10
181.0814578327
 20
253.6395548852
 11
181.5991258754
 21
253.8246253885
  0
LINE
  5
229
100
AcDbEntity
  8
FASEN
100
AcDbLine
 62
7
  6
CONTINUOUS
 10
145.7657519872
 20
123.9120356897
 11
205.7657519872
 21
123.9120356897
  0
LINE
  5
22A
100
AcDbEntity
  8
FASEN
100
AcDbLine
 62
7
  6
CONTINUOUS
 10
146.2657519873
 20
124.4120356897
 11
205.2657519871
 21
124.4120356897
  0
LINE
  5
22B
100
AcDbEntity
  8
0
100
AcDbLine
 62
7
  6
CONTINUOUS
 10
202.2657519872
 20
126.4822484577
 11
202.3325898683
 21
126.4822484577
  0
LINE
  5
22C
100
AcDbEntity
  8
0
100
AcDbLine
 62
7
  6
CONTINUOUS
 10
195.214402326
 20
127.3120356897
 11
196.263369989
 21
127.3120356897
  0
LINE
  5
22D
100
AcDbEntity
  8
0
100
AcDbLine
 62
7
  6
CONTINUOUS
 10
199.44044757
 20
127.3120356897
 11
200.1068943379
 21
127.3120356897
  0
LINE
  5
22E
100
AcDbEntity
  8
0
100
AcDbLine
 62
7
  6
CONTINUOUS
 10
202.1138490588
 20
127.3120356897
 11
202.5157294871
 21
127.3120356897
  0
LINE
  5
22F
100
AcDbEntity
  8
0
100
AcDbLine
 62
7
  6
CONTINUOUS
 10
202.515751491
 20
128.0035250658
 11
202.4584476173
 21
128.0035250658
  0
LINE
  5
230
100
AcDbEntity
  8
0
100
AcDbLine
 62
7
  6
CONTINUOUS
 10
202.1138490588
 20
128.0035250658
 11
202.3652767817
 21
128.0035250658
  0
LINE
  5
231
100
AcDbEntity
  8
0
100
AcDbLine
 62
7
  6
CONTINUOUS
 10
165.7536255284
 20
254.7724072101
 11
165.5417074281
 21
254.5641781943
  0
LINE
  5
232
100
AcDbEntity
  8
0
100
AcDbLine
 62
7
  6
CONTINUOUS
 10
173.2990415201
 20
257.8057511059
 11
173.5685262066
 21
258.0134714302
  0
LINE
  5
233
100
AcDbEntity
  8
0
100
AcDbLine
 62
7
  6
CONTINUOUS
 10
165.7063257921
 20
254.0058741621
 11
166.0871998638
 21
254.2954054697
  0
LINE
  5
234
100
AcDbEntity
  8
0
100
AcDbLine
 62
7
  6
CONTINUOUS
 10
161.1143828887
 20
248.7599744368
 11
161.5662261145
 21
249.0950027182
  0
LINE
  5
235
100
AcDbEntity
  8
0
100
AcDbLine
 62
7
  6
CONTINUOUS
 10
191.2207379499
 20
251.1679994334
 11
191.6723497291
 21
251.3157188667
  0
LINE
  5
236
100
AcDbEntity
  8
0
100
AcDbLine
 62
7
  6
CONTINUOUS
 10
190.0504485958
 20
249.5330409714
 11
190.5020603946
 21
249.6807604319
  0
LINE
  5
237
100
AcDbEntity
  8
0
100
AcDbLine
 62
7
  6
CONTINUOUS
 10
201.6204390623
 20
129.663099433
 11
202.2274644463
 21
129.663099433
  0
LINE
  5
238
100
AcDbEntity
  8
0
100
AcDbLine
 62
7
  6
CONTINUOUS
 10
201.0764579421
 20
130.2162910501
 11
200.1068943379
 21
130.2162910501
  0
LINE
  5
239
100
AcDbEntity
  8
0
100
AcDbLine
 62
7
  6
CONTINUOUS
 10
198.0816655916
 20
130.2162910501
 11
196.263369989
 21
130.2162910501
  0
LINE
  5
23A
100
AcDbEntity
  8
0
100
AcDbLine
 62
7
  6
CONTINUOUS
 10
201.6204390623
 20
130.3545889059
 11
202.2274644463
 21
130.3545889059
  0
LINE
  5
23B
100
AcDbEntity
  8
0
100
AcDbLine
 62
7
  6
CONTINUOUS
 10
201.1223665819
 20
131.0460781852
 11
200.1068943379
 21
131.0460781852
  0
LINE
  5
23C
100
AcDbEntity
  8
0
100
AcDbLine
 62
7
  6
CONTINUOUS
 10
198.1705829443
 20
131.0460781852
 11
196.263369989
 21
131.0460781852
  0
LINE
  5
23D
100
AcDbEntity
  8
0
100
AcDbLine
 62
7
  6
CONTINUOUS
 10
198.1347765573
 20
131.1843760411
 11
198.4303887639
 21
131.1843760411
  0
LINE
  5
23E
100
AcDbEntity
  8
0
100
AcDbLine
 62
7
  6
CONTINUOUS
 10
200.9927918753
 20
131.1843760411
 11
201.2552800628
 21
131.1843760411
  0
LINE
  5
23F
100
AcDbEntity
  8
0
100
AcDbLine
 62
7
  6
CONTINUOUS
 10
198.3045206703
 20
131.4609717528
 11
198.5979352763
 21
131.4609717528
  0
LINE
  5
240
100
AcDbEntity
  8
0
100
AcDbLine
 62
7
  6
CONTINUOUS
 10
201.0783098575
 20
131.4609717528
 11
201.3399203204
 21
131.4609717528
  0
LINE
  5
241
100
AcDbEntity
  8
0
100
AcDbLine
 62
7
  6
CONTINUOUS
 10
202.2657519872
 20
131.4609717528
 11
202.4985800499
 21
131.4609717528
  0
LINE
  5
242
100
AcDbEntity
  8
0
100
AcDbLine
 62
7
  6
CONTINUOUS
 10
198.3876991203
 20
131.8758653203
 11
198.6800486619
 21
131.8758653203
  0
LINE
  5
243
100
AcDbEntity
  8
0
100
AcDbLine
 62
7
  6
CONTINUOUS
 10
201.1198759358
 20
131.8758653203
 11
201.3810618858
 21
131.8758653203
  0
LINE
  5
244
100
AcDbEntity
  8
0
100
AcDbLine
 62
7
  6
CONTINUOUS
 10
202.2657519872
 20
132.0141631762
 11
202.4874968886
 21
132.0141631762
  0
LINE
  5
245
100
AcDbEntity
  8
0
100
AcDbLine
 62
7
  6
CONTINUOUS
 10
198.3876991203
 20
132.2907592753
 11
198.6800486619
 21
132.2907592753
  0
LINE
  5
246
100
AcDbEntity
  8
0
100
AcDbLine
 62
7
  6
CONTINUOUS
 10
201.1198759358
 20
132.2907592753
 11
201.3810618858
 21
132.2907592753
  0
LINE
  5
247
100
AcDbEntity
  8
0
100
AcDbLine
 62
7
  6
CONTINUOUS
 10
202.1280593302
 20
132.2907592753
 11
202.4874968886
 21
132.2907592753
  0
LINE
  5
248
100
AcDbEntity
  8
0
100
AcDbLine
 62
7
  6
CONTINUOUS
 10
198.3045206703
 20
132.7056528429
 11
198.5979352763
 21
132.7056528429
  0
LINE
  5
249
100
AcDbEntity
  8
0
100
AcDbLine
 62
7
  6
CONTINUOUS
 10
201.0783098575
 20
132.7056528429
 11
201.3399203204
 21
132.7056528429
  0
LINE
  5
24A
100
AcDbEntity
  8
0
100
AcDbLine
 62
7
  6
CONTINUOUS
 10
202.4584476173
 20
132.7056528429
 11
202.4985800499
 21
132.7056528429
  0
LINE
  5
24B
100
AcDbEntity
  8
0
100
AcDbLine
 62
7
  6
CONTINUOUS
 10
202.1415665481
 20
132.8439506987
 11
202.3927325473
 21
132.8439506987
  0
LINE
  5
24C
100
AcDbEntity
  8
0
100
AcDbLine
 62
7
  6
CONTINUOUS
 10
198.1347765573
 20
132.9822485546
 11
198.4303887639
 21
132.9822485546
  0
LINE
  5
24D
100
AcDbEntity
  8
0
100
AcDbLine
 62
7
  6
CONTINUOUS
 10
200.9927918753
 20
132.9822485546
 11
201.2552800628
 21
132.9822485546
  0
LINE
  5
24E
100
AcDbEntity
  8
0
100
AcDbLine
 62
7
  6
CONTINUOUS
 10
202.4819799383
 20
132.9822485546
 11
202.5100542481
 21
132.9822485546
  0
LINE
  5
24F
100
AcDbEntity
  8
0
100
AcDbLine
 62
7
  6
CONTINUOUS
 10
202.5154599295
 20
133.1205464104
 11
202.5104759035
 21
133.1205464104
  0
LINE
  5
250
100
AcDbEntity
  8
0
100
AcDbLine
 62
7
  6
CONTINUOUS
 10
201.1223665819
 20
133.1205464104
 11
200.1068943379
 21
133.1205464104
  0
LINE
  5
251
100
AcDbEntity
  8
0
100
AcDbLine
 62
7
  6
CONTINUOUS
 10
198.1705829443
 20
133.1205464104
 11
196.263369989
 21
133.1205464104
  0
LINE
  5
252
100
AcDbEntity
  8
0
100
AcDbLine
 62
7
  6
CONTINUOUS
 10
202.1885873867
 20
133.3971421222
 11
202.4393106277
 21
133.3971421222
  0
LINE
  5
253
100
AcDbEntity
  8
0
100
AcDbLine
 62
7
  6
CONTINUOUS
 10
202.2244380373
 20
133.6737378339
 11
202.4748247435
 21
133.6737378339
  0
LINE
  5
254
100
AcDbEntity
  8
0
100
AcDbLine
 62
7
  6
CONTINUOUS
 10
195.214402326
 20
133.8120356897
 11
198.0816655916
 21
133.8120356897
  0
LINE
  5
255
100
AcDbEntity
  8
0
100
AcDbLine
 62
7
  6
CONTINUOUS
 10
199.44044757
 20
133.8120356897
 11
201.0764579421
 21
133.8120356897
  0
LINE
  5
256
100
AcDbEntity
  8
0
100
AcDbLine
 62
7
  6
CONTINUOUS
 10
202.2604264226
 20
133.8120356897
 11
202.5104762041
 21
133.8120356897
  0
LINE
  5
257
100
AcDbEntity
  8
0
100
AcDbLine
 62
7
  6
CONTINUOUS
 10
161.6262540353
 20
252.4769052421
 11
161.457358506
 21
252.2324816253
  0
LINE
  5
258
100
AcDbEntity
  8
0
100
AcDbLine
 62
7
  6
CONTINUOUS
 10
173.0836736774
 20
258.272601317
 11
172.7318792302
 21
257.8682029166
  0
LINE
  5
259
100
AcDbEntity
  8
0
100
AcDbLine
 62
7
  6
CONTINUOUS
 10
161.7242078755
 20
251.7151867753
 11
162.0437178851
 21
252.0712865391
  0
LINE
  5
25A
100
AcDbEntity
  8
0
100
AcDbLine
 62
7
  6
CONTINUOUS
 10
175.2215337605
 20
257.0559666401
 11
172.7420547496
 21
254.5119129853
  0
LINE
  5
25B
100
AcDbEntity
  8
0
100
AcDbLine
 62
7
  6
CONTINUOUS
 10
173.490753382
 20
254.5560819146
 11
175.7063862897
 21
256.7968367533
  0
LINE
  5
25C
100
AcDbEntity
  8
0
100
AcDbLine
 62
7
  6
CONTINUOUS
 10
200.3065343708
 20
136.8120356897
 11
200.8884975328
 21
136.8120356897
  0
LINE
  5
25D
100
AcDbEntity
  8
0
100
AcDbLine
 62
7
  6
CONTINUOUS
 10
201.6227786433
 20
136.8120356897
 11
202.0716366373
 21
136.8120356897
  0
LINE
  5
25E
100
AcDbEntity
  8
0
100
AcDbLine
 62
7
  6
CONTINUOUS
 10
202.2171536226
 20
136.8120356897
 11
202.4946426067
 21
136.8120356897
  0
LINE
  5
25F
100
AcDbEntity
  8
0
100
AcDbLine
 62
7
  6
CONTINUOUS
 10
202.1673788014
 20
136.9503335577
 11
202.4183015545
 21
136.9503335577
  0
LINE
  5
260
100
AcDbEntity
  8
0
100
AcDbLine
 62
7
  6
CONTINUOUS
 10
202.1149671564
 20
137.2269293057
 11
202.3663843112
 21
137.2269293057
  0
LINE
  5
261
100
AcDbEntity
  8
0
100
AcDbLine
 62
7
  6
CONTINUOUS
 10
202.4946426067
 20
137.6418229217
 11
202.4676086357
 21
137.6418229217
  0
LINE
  5
262
100
AcDbEntity
  8
0
100
AcDbLine
 62
7
  6
CONTINUOUS
 10
202.4295457985
 20
137.7801207776
 11
202.5106810936
 21
137.7801207776
  0
LINE
  5
263
100
AcDbEntity
  8
0
100
AcDbLine
 62
7
  6
CONTINUOUS
 10
202.0512913716
 20
137.7801207776
 11
202.3033117983
 21
137.7801207776
  0
LINE
  5
264
100
AcDbEntity
  8
0
100
AcDbLine
 62
7
  6
CONTINUOUS
 10
202.3937329842
 20
138.0567165861
 11
202.5155065789
 21
138.0567165861
  0
LINE
  5
265
100
AcDbEntity
  8
0
100
AcDbLine
 62
7
  6
CONTINUOUS
 10
202.0152042976
 20
138.3333122978
 11
202.2675678985
 21
138.3333122978
  0
LINE
  5
266
100
AcDbEntity
  8
0
100
AcDbLine
 62
7
  6
CONTINUOUS
 10
202.3663843112
 20
138.4716101537
 11
202.5152956457
 21
138.4716101537
  0
LINE
  5
267
100
AcDbEntity
  8
0
100
AcDbLine
 62
7
  6
CONTINUOUS
 10
201.9960934832
 20
139.0248015771
 11
202.2486391976
 21
139.0248015771
  0
LINE
  5
268
100
AcDbEntity
  8
0
100
AcDbLine
 62
7
  6
CONTINUOUS
 10
202.3516649002
 20
139.0248015771
 11
202.514161854
 21
139.0248015771
  0
LINE
  5
269
100
AcDbEntity
  8
0
100
AcDbLine
 62
7
  6
CONTINUOUS
 10
201.6144180347
 20
139.7162910501
 11
200.8884975328
 21
139.7162910501
  0
LINE
  5
26A
100
AcDbEntity
  8
0
100
AcDbLine
 62
7
  6
CONTINUOUS
 10
181.644719693
 20
254.4998257882
 11
181.4023339764
 21
254.2571149309
  0
LINE
  5
26B
100
AcDbEntity
  8
0
100
AcDbLine
 62
7
  6
CONTINUOUS
 10
181.5991258754
 20
253.8246253885
 11
181.9528944454
 21
254.1418351844
  0
LINE
  5
26C
100
AcDbEntity
  8
0
100
AcDbLine
 62
7
  6
CONTINUOUS
 10
201.6850456816
 20
140.5460781852
 11
200.8884975328
 21
140.5460781852
  0
LINE
  5
26D
100
AcDbEntity
  8
0
100
AcDbLine
 62
7
  6
CONTINUOUS
 10
201.5282556625
 20
140.6843760411
 11
201.7853425992
 21
140.6843760411
  0
LINE
  5
26E
100
AcDbEntity
  8
0
100
AcDbLine
 62
7
  6
CONTINUOUS
 10
201.5920195021
 20
140.9609717528
 11
201.8484779519
 21
140.9609717528
  0
LINE
  5
26F
100
AcDbEntity
  8
0
100
AcDbLine
 62
7
  6
CONTINUOUS
 10
201.6227786433
 20
141.3758653203
 11
201.8789350083
 21
141.3758653203
  0
LINE
  5
270
100
AcDbEntity
  8
0
100
AcDbLine
 62
7
  6
CONTINUOUS
 10
201.6227786433
 20
141.7907592753
 11
201.8789350083
 21
141.7907592753
  0
LINE
  5
271
100
AcDbEntity
  8
0
100
AcDbLine
 62
7
  6
CONTINUOUS
 10
201.5920195021
 20
142.2056528429
 11
201.8484779519
 21
142.2056528429
  0
LINE
  5
272
100
AcDbEntity
  8
0
100
AcDbLine
 62
7
  6
CONTINUOUS
 10
201.5282556625
 20
142.4822485546
 11
201.7853425992
 21
142.4822485546
  0
LINE
  5
273
100
AcDbEntity
  8
0
100
AcDbLine
 62
7
  6
CONTINUOUS
 10
201.6850456816
 20
142.6205464104
 11
200.8884975328
 21
142.6205464104
  0
LINE
  5
274
100
AcDbEntity
  8
0
100
AcDbLine
 62
7
  6
CONTINUOUS
 10
200.3065343708
 20
143.3120356897
 11
201.6501101983
 21
143.3120356897
  0
LINE
  5
275
100
AcDbEntity
  8
0
100
AcDbLine
 62
7
  6
CONTINUOUS
 10
201.9960934832
 20
143.3120356897
 11
202.514161854
 21
143.3120356897
  0
LINE
  5
276
100
AcDbEntity
  8
0
100
AcDbLine
 62
7
  6
CONTINUOUS
 10
166.0871998638
 20
254.2954054697
 11
166.3005639944
 21
254.716836671
  0
LINE
  5
277
100
AcDbEntity
  8
0
100
AcDbLine
 62
7
  6
CONTINUOUS
 10
150.7948522962
 20
219.9016101388
 11
151.1073522962
 21
220.3271420029
  0
LINE
  5
278
100
AcDbEntity
  8
0
100
AcDbLine
 62
7
  6
CONTINUOUS
 10
150.4823522962
 20
220.433524969
 11
150.2740188635
 21
220.2207590369
  0
LINE
  5
279
100
AcDbEntity
  8
0
100
AcDbLine
 62
7
  6
CONTINUOUS
 10
191.5140966303
 20
251.8999743898
 11
191.2706786924
 21
251.7209764021
  0
LINE
  5
27A
100
AcDbEntity
  8
0
100
AcDbLine
 62
7
  6
CONTINUOUS
 10
191.6723497291
 20
251.3157188667
 11
191.9157676671
 21
251.4947168545
  0
LINE
  5
27B
100
AcDbEntity
  8
0
100
AcDbLine
 62
7
  6
CONTINUOUS
 10
190.3438073349
 20
250.2650160096
 11
190.1003893969
 21
250.0860180218
  0
LINE
  5
27C
100
AcDbEntity
  8
0
100
AcDbLine
 62
7
  6
CONTINUOUS
 10
190.5020603946
 20
249.6807604319
 11
190.7454783716
 21
249.8597584742
  0
LINE
  5
27D
100
AcDbEntity
  8
0
100
AcDbLine
 62
7
  6
CONTINUOUS
 10
150.3781857288
 20
219.6888442067
 11
150.7948522962
 21
219.9016101388
  0
LINE
  5
27E
100
AcDbEntity
  8
0
100
AcDbLine
 62
7
  6
CONTINUOUS
 10
150.2740188635
 20
220.2207590369
 11
149.9615188635
 21
220.1143760709
  0
LINE
  5
27F
100
AcDbEntity
  8
0
100
AcDbLine
 62
7
  6
CONTINUOUS
 10
150.5865188635
 20
220.7526738671
 11
150.4823522962
 21
220.433524969
  0
LINE
  5
280
100
AcDbEntity
  8
0
100
AcDbLine
 62
7
  6
CONTINUOUS
 10
151.1073522962
 20
220.3271420029
 11
151.2115188635
 21
220.6462909011
  0
LINE
  5
281
100
AcDbEntity
  8
0
100
AcDbLine
 62
7
  6
CONTINUOUS
 10
150.7948522962
 20
210.9867165265
 11
151.0031857288
 21
211.4122484652
  0
LINE
  5
282
100
AcDbEntity
  8
0
100
AcDbLine
 62
7
  6
CONTINUOUS
 10
173.1287823443
 20
257.5079733823
 11
173.2990415201
 21
257.8057511059
  0
LINE
  5
283
100
AcDbEntity
  8
0
100
AcDbLine
 62
7
  6
CONTINUOUS
 10
175.7063862897
 20
256.7968367533
 11
175.8766454655
 21
257.0946144769
  0
LINE
  5
284
100
AcDbEntity
  8
0
100
AcDbLine
 62
7
  6
CONTINUOUS
 10
177.4879143032
 20
254.5854806196
 11
176.8489265378
 21
253.5768611587
  0
LINE
  5
285
100
AcDbEntity
  8
0
100
AcDbLine
 62
7
  6
CONTINUOUS
 10
177.3163873962
 20
253.5421302239
 11
177.9553762315
 21
254.5507496054
  0
LINE
  5
286
100
AcDbEntity
  8
0
100
AcDbLine
 62
7
  6
CONTINUOUS
 10
150.3781857288
 20
211.5186314312
 11
150.1698522962
 21
211.1994825331
  0
LINE
  5
287
100
AcDbEntity
  8
0
100
AcDbLine
 62
7
  6
CONTINUOUS
 10
150.3781857288
 20
210.5611846251
 11
150.7948522962
 21
210.9867165265
  0
LINE
  5
288
100
AcDbEntity
  8
0
100
AcDbLine
 62
7
  6
CONTINUOUS
 10
150.1698522962
 20
211.1994825331
 11
149.8573522962
 21
210.9867165265
  0
LINE
  5
289
100
AcDbEntity
  8
RUNDUNGEN
100
AcDbLine
 62
7
  6
CONTINUOUS
 10
199.7657519872
 20
151.3120356897
 11
193.2655909597
 21
151.3120356897
  0
LINE
  5
28A
100
AcDbEntity
  8
RUNDUNGEN
100
AcDbLine
 62
7
  6
CONTINUOUS
 10
158.2658916216
 20
151.3120356897
 11
151.7657519872
 21
151.3120356897
  0
LINE
  5
28B
100
AcDbEntity
  8
FASEN
100
AcDbLine
 62
7
  6
CONTINUOUS
 10
145.7657519872
 20
123.9120356897
 11
145.7657519872
 21
116.4120356897
  0
LINE
  5
28C
100
AcDbEntity
  8
KONSTRUKTIONSELEMENTE
100
AcDbLine
 62
7
  6
CONTINUOUS
 10
145.7657519872
 20
123.9120356897
 11
145.7657519872
 21
116.4120356897
  0
LINE
  5
28D
100
AcDbEntity
  8
0
100
AcDbLine
 62
7
  6
CONTINUOUS
 10
147.3573522962
 20
222.2420356897
 11
147.3573522962
 21
217.2420356897
  0
LINE
  5
28E
100
AcDbEntity
  8
0
100
AcDbLine
 62
7
  6
CONTINUOUS
 10
147.3573522962
 20
215.2420356897
 11
147.3573522962
 21
211.9441632954
  0
LINE
  5
28F
100
AcDbEntity
  8
0
100
AcDbLine
 62
7
  6
CONTINUOUS
 10
147.3573522962
 20
208.2420356897
 11
147.3573522962
 21
203.2420356897
  0
LINE
  5
290
100
AcDbEntity
  8
0
100
AcDbLine
 62
7
  6
CONTINUOUS
 10
147.9823522962
 20
203.8803335605
 11
147.9823522962
 21
207.6037378935
  0
LINE
  5
291
100
AcDbEntity
  8
0
100
AcDbLine
 62
7
  6
CONTINUOUS
 10
147.9823522962
 20
211.9441632954
 11
147.9823522962
 21
215.2420356897
  0
LINE
  5
292
100
AcDbEntity
  8
0
100
AcDbLine
 62
7
  6
CONTINUOUS
 10
147.9823522962
 20
217.2420356897
 11
147.9823522962
 21
219.4760782746
  0
LINE
  5
293
100
AcDbEntity
  8
0
100
AcDbLine
 62
7
  6
CONTINUOUS
 10
147.9823522962
 20
220.1143760709
 11
147.9823522962
 21
221.7101208595
  0
LINE
  5
294
100
AcDbEntity
  8
0
100
AcDbLine
 62
7
  6
CONTINUOUS
 10
149.2657519872
 20
148.8120356897
 11
149.2657519872
 21
124.4120356897
  0
LINE
  5
295
100
AcDbEntity
  8
0
100
AcDbLine
 62
7
  6
CONTINUOUS
 10
151.0031857288
 20
211.4122484652
 11
151.1073522962
 21
211.9441632954
  0
LINE
  5
296
100
AcDbEntity
  8
0
100
AcDbLine
 62
7
  6
CONTINUOUS
 10
151.4198522962
 20
204.4122484652
 11
151.5240188635
 21
204.9441632954
  0
LINE
  5
297
100
AcDbEntity
  8
0
100
AcDbLine
 62
7
  6
CONTINUOUS
 10
150.4823522962
 20
211.9441632954
 11
150.3781857288
 21
211.5186314312
  0
LINE
  5
298
100
AcDbEntity
  8
0
100
AcDbLine
 62
7
  6
CONTINUOUS
 10
150.8990188635
 20
204.9441632954
 11
150.7948522962
 21
204.5186314312
  0
LINE
  5
299
100
AcDbEntity
  8
0
100
AcDbLine
 62
7
  6
CONTINUOUS
 10
162.0437178851
 20
252.0712865391
 11
162.1738683795
 21
252.5253671016
  0
LINE
  5
29A
100
AcDbEntity
  8
0
100
AcDbLine
 62
7
  6
CONTINUOUS
 10
165.8395493027
 20
255.0262604253
 11
165.7536255284
 21
254.7724072101
  0
LINE
  5
29B
100
AcDbEntity
  8
0
100
AcDbLine
 62
7
  6
CONTINUOUS
 10
175.3861543529
 20
257.4493228556
 11
175.2215337605
 21
257.0559666401
  0
LINE
  5
29C
100
AcDbEntity
  8
0
100
AcDbLine
 62
7
  6
CONTINUOUS
 10
151.2115188635
 20
203.9867165265
 11
151.4198522962
 21
204.4122484652
  0
LINE
  5
29D
100
AcDbEntity
  8
0
100
AcDbLine
 62
7
  6
CONTINUOUS
 10
181.7953467178
 20
254.7617495778
 11
181.644719693
 21
254.4998257882
  0
LINE
  5
29E
100
AcDbEntity
  8
0
100
AcDbLine
 62
7
  6
CONTINUOUS
 10
150.7948522962
 20
204.5186314312
 11
150.5865188635
 21
204.1994825331
  0
LINE
  5
29F
100
AcDbEntity
  8
0
100
AcDbLine
 62
7
  6
CONTINUOUS
 10
181.9528944454
 20
254.1418351844
 11
182.2345243263
 21
254.5719708598
  0
LINE
  5
2A0
100
AcDbEntity
  8
0
100
AcDbLine
 62
7
  6
CONTINUOUS
 10
189.9310603606
 20
254.6815261664
 11
187.3118413237
 21
251.0223334089
  0
LINE
  5
2A1
100
AcDbEntity
  8
0
100
AcDbLine
 62
7
  6
CONTINUOUS
 10
188.1036088052
 20
251.1620620184
 11
188.9395297919
 21
252.3298895186
  0
LINE
  5
2A2
100
AcDbEntity
  8
0
100
AcDbLine
 62
7
  6
CONTINUOUS
 10
189.2738981397
 20
252.7970204532
 11
190.0540911074
 21
253.8869928522
  0
LINE
  5
2A3
100
AcDbEntity
  8
0
100
AcDbLine
 62
7
  6
CONTINUOUS
 10
150.7948522962
 20
203.5611846251
 11
151.2115188635
 21
203.9867165265
  0
LINE
  5
2A4
100
AcDbEntity
  8
0
100
AcDbLine
 62
7
  6
CONTINUOUS
 10
150.5865188635
 20
204.1994825331
 11
150.2740188635
 21
203.9867165265
  0
LINE
  5
2A5
100
AcDbEntity
  8
0
100
AcDbLine
 62
7
  6
CONTINUOUS
 10
149.9615188635
 20
210.3484186651
 11
150.3781857288
 21
210.5611846251
  0
LINE
  5
2A6
100
AcDbEntity
  8
0
100
AcDbLine
 62
7
  6
CONTINUOUS
 10
163.2657519872
 20
160.1120356897
 11
162.7657519872
 21
160.1120356897
  0
LINE
  5
2A7
100
AcDbEntity
  8
0
100
AcDbLine
 62
7
  6
CONTINUOUS
 10
163.2657519872
 20
161.4453690628
 11
162.7657519872
 21
161.4453690628
  0
LINE
  5
2A8
100
AcDbEntity
  8
0
100
AcDbLine
 62
7
  6
CONTINUOUS
 10
150.4823522962
 20
215.2420356897
 11
150.4823522962
 21
211.9441632954
  0
LINE
  5
2A9
100
AcDbEntity
  8
0
100
AcDbLine
 62
7
  6
CONTINUOUS
 10
150.5865188635
 20
221.0718230633
 11
150.5865188635
 21
220.7526738671
  0
LINE
  5
2AA
100
AcDbEntity
  8
0
100
AcDbLine
 62
7
  6
CONTINUOUS
 10
150.8990188635
 20
206.539907935
 11
150.8990188635
 21
204.9441632954
  0
LINE
  5
2AB
100
AcDbEntity
  8
0
100
AcDbLine
 62
7
  6
CONTINUOUS
 10
151.1073522962
 20
211.9441632954
 11
151.1073522962
 21
215.2420356897
  0
LINE
  5
2AC
100
AcDbEntity
  8
0
100
AcDbLine
 62
7
  6
CONTINUOUS
 10
151.2115188635
 20
220.6462909011
 11
151.2115188635
 21
221.0718230633
  0
LINE
  5
2AD
100
AcDbEntity
  8
0
100
AcDbLine
 62
7
  6
CONTINUOUS
 10
151.5240188635
 20
204.9441632954
 11
151.5240188635
 21
206.539907935
  0
LINE
  5
2AE
100
AcDbEntity
  8
0
100
AcDbLine
 62
7
  6
CONTINUOUS
 10
161.6628163484
 20
252.7424003413
 11
161.6262540353
 21
252.4769052421
  0
LINE
  5
2AF
100
AcDbEntity
  8
0
100
AcDbLine
 62
7
  6
CONTINUOUS
 10
166.3005639944
 20
254.716836671
 11
166.387933799
 21
255.1838920717
  0
LINE
  5
2B0
100
AcDbEntity
  8
0
100
AcDbLine
 62
7
  6
CONTINUOUS
 10
186.443877158
 20
253.8254251002
 11
186.2217981717
 21
253.4013294796
  0
LINE
  5
2B1
100
AcDbEntity
  8
0
100
AcDbLine
 62
7
  6
CONTINUOUS
 10
191.6255527463
 20
252.0556847014
 11
191.5140966303
 21
251.8999743898
  0
LINE
  5
2B2
100
AcDbEntity
  8
0
100
AcDbLine
 62
7
  6
CONTINUOUS
 10
190.5109915088
 20
250.4985814769
 11
190.3438073349
 21
250.2650160096
  0
LINE
  5
2B3
100
AcDbEntity
  8
0
100
AcDbLine
 62
7
  6
CONTINUOUS
 10
190.7454783716
 20
249.8597584742
 11
191.0241186615
 21
250.249034253
  0
LINE
  5
2B4
100
AcDbEntity
  8
0
100
AcDbLine
 62
7
  6
CONTINUOUS
 10
191.9157676671
 20
251.4947168545
 11
192.1386800551
 21
251.8061376957
  0
LINE
  5
2B5
100
AcDbEntity
  8
0
100
AcDbLine
 62
7
  6
CONTINUOUS
 10
150.3781857288
 20
203.3484186651
 11
150.7948522962
 21
203.5611846251
  0
LINE
  5
2B6
100
AcDbEntity
  8
0
100
AcDbLine
 62
7
  6
CONTINUOUS
 10
163.2657519872
 20
162.1120356897
 11
162.7657519872
 21
162.1120356897
  0
LINE
  5
2B7
100
AcDbEntity
  8
0
100
AcDbLine
 62
7
  6
CONTINUOUS
 10
163.2657519872
 20
163.4453689436
 11
162.7657519872
 21
163.4453689436
  0
LINE
  5
2B8
100
AcDbEntity
  8
0
100
AcDbLine
 62
7
  6
CONTINUOUS
 10
163.2541353369
 20
164.1120356897
 11
162.7657519872
 21
164.1120356897
  0
LINE
  5
2B9
100
AcDbEntity
  8
0
100
AcDbLine
 62
7
  6
CONTINUOUS
 10
163.2657519872
 20
165.4719446435
 11
162.7657519872
 21
165.4719446435
  0
LINE
  5
2BA
100
AcDbEntity
  8
FASEN
100
AcDbLine
 62
7
  6
CONTINUOUS
 10
205.265751987
 20
124.4120356899
 11
205.765751987
 21
123.9120356899
  0
LINE
  5
2BB
100
AcDbEntity
  8
0
100
AcDbLine
 62
7
  6
CONTINUOUS
 10
148.086518938
 20
211.5186314312
 11
147.9823522962
 21
211.9441632954
  0
LINE
  5
2BC
100
AcDbEntity
  8
0
100
AcDbLine
 62
7
  6
CONTINUOUS
 10
147.3573522962
 20
211.9441632954
 11
147.4615189659
 21
211.4122484652
  0
LINE
  5
2BD
100
AcDbEntity
  8
0
100
AcDbLine
 62
7
  6
CONTINUOUS
 10
172.7318792302
 20
257.8682029166
 11
172.6608455652
 21
257.4803677935
  0
LINE
  5
2BE
100
AcDbEntity
  8
0
100
AcDbLine
 62
7
  6
CONTINUOUS
 10
183.7889308799
 20
255.9576293741
 11
183.6517102437
 21
255.600077749
  0
LINE
  5
2BF
100
AcDbEntity
  8
0
100
AcDbLine
 62
7
  6
CONTINUOUS
 10
184.7635789333
 20
256.4040085842
 11
184.4891375647
 21
255.6889050836
  0
LINE
  5
2C0
100
AcDbEntity
  8
0
100
AcDbLine
 62
7
  6
CONTINUOUS
 10
184.3519169285
 20
255.3313534585
 11
183.6658136752
 21
253.5435951452
  0
LINE
  5
2C1
100
AcDbEntity
  8
0
100
AcDbLine
 62
7
  6
CONTINUOUS
 10
184.1720516929
 20
253.5544189154
 11
184.789544604
 21
255.1634013535
  0
LINE
  5
2C2
100
AcDbEntity
  8
0
100
AcDbLine
 62
7
  6
CONTINUOUS
 10
184.9267652402
 20
255.5209529786
 11
185.2012066088
 21
256.2360564792
  0
LINE
  5
2C3
100
AcDbEntity
  8
0
100
AcDbLine
 62
7
  6
CONTINUOUS
 10
187.3845261773
 20
252.7924633553
 11
187.6066051636
 21
253.2165589758
  0
LINE
  5
2C4
100
AcDbEntity
  8
0
100
AcDbLine
 62
7
  6
CONTINUOUS
 10
163.2657519872
 20
168.2219446435
 11
162.7657519872
 21
168.2219446435
  0
LINE
  5
2C5
100
AcDbEntity
  8
0
100
AcDbLine
 62
7
  6
CONTINUOUS
 10
163.2657519872
 20
169.7219446435
 11
162.7657519872
 21
169.7219446435
  0
LINE
  5
2C6
100
AcDbEntity
  8
0
100
AcDbLine
 62
7
  6
CONTINUOUS
 10
150.7948522962
 20
206.9654397992
 11
150.8990188635
 21
206.539907935
  0
LINE
  5
2C7
100
AcDbEntity
  8
0
100
AcDbLine
 62
7
  6
CONTINUOUS
 10
151.5240188635
 20
206.539907935
 11
151.4198522962
 21
207.0718230633
  0
LINE
  5
2C8
100
AcDbEntity
  8
0
100
AcDbLine
 62
7
  6
CONTINUOUS
 10
162.1738683795
 20
252.5253671016
 11
162.1716856578
 21
253.0005191466
  0
LINE
  5
2C9
100
AcDbEntity
  8
0
100
AcDbLine
 62
7
  6
CONTINUOUS
 10
162.7657519872
 20
160.1120356897
 11
162.7657519872
 21
163.4453689436
  0
LINE
  5
2CA
100
AcDbEntity
  8
0
100
AcDbLine
 62
7
  6
CONTINUOUS
 10
162.7657519872
 20
164.1120356897
 11
162.7657519872
 21
164.3224524632
  0
LINE
  5
2CB
100
AcDbEntity
  8
0
100
AcDbLine
 62
7
  6
CONTINUOUS
 10
162.7657519872
 20
165.4719446435
 11
162.7657519872
 21
168.2219446435
  0
LINE
  5
2CC
100
AcDbEntity
  8
0
100
AcDbLine
 62
7
  6
CONTINUOUS
 10
162.7657519872
 20
169.7219446435
 11
162.7657519872
 21
172.4719446435
  0
LINE
  5
2CD
100
AcDbEntity
  8
RUNDUNGEN
100
AcDbLine
 62
7
  6
CONTINUOUS
 10
163.2657519872
 20
179.3120356897
 11
163.2657519872
 21
156.3120356897
  0
LINE
  5
2CE
100
AcDbEntity
  8
0
100
AcDbLine
 62
7
  6
CONTINUOUS
 10
175.8766454655
 20
257.0946144769
 11
175.9476780594
 21
257.4824495368
  0
LINE
  5
2CF
100
AcDbEntity
  8
0
100
AcDbLine
 62
7
  6
CONTINUOUS
 10
179.5983123888
 20
258.4498716418
 11
179.0881381972
 21
256.013348743
  0
LINE
  5
2D0
100
AcDbEntity
  8
0
100
AcDbLine
 62
7
  6
CONTINUOUS
 10
179.6450482988
 20
256.3858444796
 11
179.9590016687
 21
257.8852432875
  0
LINE
  5
2D1
100
AcDbEntity
  8
0
100
AcDbLine
 62
7
  6
CONTINUOUS
 10
184.6167310722
 20
252.3582254772
 11
184.7539517205
 21
252.7157771336
  0
LINE
  5
2D2
100
AcDbEntity
  8
0
100
AcDbLine
 62
7
  6
CONTINUOUS
 10
185.7523262915
 20
254.7939064151
 11
185.8895469277
 21
255.1514580401
  0
LINE
  5
2D3
100
AcDbEntity
  8
0
100
AcDbLine
 62
7
  6
CONTINUOUS
 10
163.2657519872
 20
172.4719446435
 11
162.7657519872
 21
172.4719446435
  0
LINE
  5
2D4
100
AcDbEntity
  8
0
100
AcDbLine
 62
7
  6
CONTINUOUS
 10
150.5865188635
 20
207.2845889953
 11
150.7948522962
 21
206.9654397992
  0
LINE
  5
2D5
100
AcDbEntity
  8
0
100
AcDbLine
 62
7
  6
CONTINUOUS
 10
148.2948522962
 20
211.1994825331
 11
148.086518938
 21
211.5186314312
  0
LINE
  5
2D6
100
AcDbEntity
  8
0
100
AcDbLine
 62
7
  6
CONTINUOUS
 10
147.4615189659
 20
211.4122484652
 11
147.6698522962
 21
210.9867165265
  0
LINE
  5
2D7
100
AcDbEntity
  8
0
100
AcDbLine
 62
7
  6
CONTINUOUS
 10
151.4198522962
 20
207.0718230633
 11
151.2115188635
 21
207.4973549274
  0
LINE
  5
2D8
100
AcDbEntity
  8
0
100
AcDbLine
 62
7
  6
CONTINUOUS
 10
151.3156857288
 20
217.2420356897
 11
150.3781857288
 21
219.6888442067
  0
LINE
  5
2D9
100
AcDbEntity
  8
0
100
AcDbLine
 62
7
  6
CONTINUOUS
 10
149.7531855798
 20
219.4760782746
 11
150.5865188635
 21
217.2420356897
  0
LINE
  5
2DA
100
AcDbEntity
  8
0
100
AcDbLine
 62
7
  6
CONTINUOUS
 10
150.4823522962
 20
221.3909719614
 11
150.5865188635
 21
221.0718230633
  0
LINE
  5
2DB
100
AcDbEntity
  8
0
100
AcDbLine
 62
7
  6
CONTINUOUS
 10
151.2115188635
 20
221.0718230633
 11
151.1073522962
 21
221.3909719614
  0
LINE
  5
2DC
100
AcDbEntity
  8
0
100
AcDbLine
 62
7
  6
CONTINUOUS
 10
181.8345908821
 20
254.949174396
 11
181.7953467178
 21
254.7617495778
  0
LINE
  5
2DD
100
AcDbEntity
  8
0
100
AcDbLine
 62
7
  6
CONTINUOUS
 10
182.6200453357
 20
257.3280575527
 11
182.7181557466
 21
257.7966195981
  0
LINE
  5
2DE
100
AcDbEntity
  8
0
100
AcDbLine
 62
7
  6
CONTINUOUS
 10
182.2345243263
 20
254.5719708598
 11
182.3130126551
 21
254.9468204962
  0
LINE
  5
2DF
100
AcDbEntity
  8
0
100
AcDbLine
 62
7
  6
CONTINUOUS
 10
190.6019419967
 20
250.7867145328
 11
190.5109915088
 21
250.4985814769
  0
LINE
  5
2E0
100
AcDbEntity
  8
0
100
AcDbLine
 62
7
  6
CONTINUOUS
 10
191.0241186615
 20
250.249034253
 11
191.1150691494
 21
250.537167309
  0
LINE
  5
2E1
100
AcDbEntity
  8
0
100
AcDbLine
 62
7
  6
CONTINUOUS
 10
191.7165033123
 20
252.3438178664
 11
191.6255527463
 21
252.0556847014
  0
LINE
  5
2E2
100
AcDbEntity
  8
0
100
AcDbLine
 62
7
  6
CONTINUOUS
 10
192.1386800551
 20
251.8061376957
 11
192.2296304649
 21
252.0942706426
  0
LINE
  5
2E3
100
AcDbEntity
  8
0
100
AcDbLine
 62
7
  6
CONTINUOUS
 10
147.6698522962
 20
210.9867165265
 11
148.086518938
 21
210.5611846251
  0
LINE
  5
2E4
100
AcDbEntity
  8
0
100
AcDbLine
 62
7
  6
CONTINUOUS
 10
151.2115188635
 20
207.4973549274
 11
150.7948522962
 21
207.9228867916
  0
LINE
  5
2E5
100
AcDbEntity
  8
0
100
AcDbLine
 62
7
  6
CONTINUOUS
 10
151.1073522962
 20
221.3909719614
 11
150.7948522962
 21
221.8165038256
  0
LINE
  5
2E6
100
AcDbEntity
  8
0
100
AcDbLine
 62
7
  6
CONTINUOUS
 10
165.7994792344
 20
255.3257380725
 11
165.8395493027
 21
255.0262604253
  0
LINE
  5
2E7
100
AcDbEntity
  8
0
100
AcDbLine
 62
7
  6
CONTINUOUS
 10
166.387933799
 20
255.1838920717
 11
166.3478637307
 21
255.483369719
  0
LINE
  5
2E8
100
AcDbEntity
  8
0
100
AcDbLine
 62
7
  6
CONTINUOUS
 10
172.7420547496
 20
254.5119129853
 11
172.7702476704
 21
254.0340204591
  0
LINE
  5
2E9
100
AcDbEntity
  8
0
100
AcDbLine
 62
7
  6
CONTINUOUS
 10
175.3748771704
 20
257.640480107
 11
175.3861543529
 21
257.4493228556
  0
LINE
  5
2EA
100
AcDbEntity
  8
0
100
AcDbLine
 62
7
  6
CONTINUOUS
 10
176.1393899095
 20
254.2327805463
 11
176.1111969888
 21
254.7106730725
  0
LINE
  5
2EB
100
AcDbEntity
  8
0
100
AcDbLine
 62
7
  6
CONTINUOUS
 10
175.9476780594
 20
257.4824495368
 11
175.9364008769
 21
257.6736067882
  0
LINE
  5
2EC
100
AcDbEntity
  8
0
100
AcDbLine
 62
7
  6
CONTINUOUS
 10
184.1566625281
 20
253.2526644055
 11
184.1720516929
 21
253.5544189154
  0
LINE
  5
2ED
100
AcDbEntity
  8
0
100
AcDbLine
 62
7
  6
CONTINUOUS
 10
150.2740188635
 20
207.4973549274
 11
150.5865188635
 21
207.2845889953
  0
LINE
  5
2EE
100
AcDbEntity
  8
0
100
AcDbLine
 62
7
  6
CONTINUOUS
 10
148.6073522962
 20
210.9867165265
 11
148.2948522962
 21
211.1994825331
  0
LINE
  5
2EF
100
AcDbEntity
  8
0
100
AcDbLine
 62
7
  6
CONTINUOUS
 10
150.2740188635
 20
221.6037378935
 11
150.4823522962
 21
221.3909719614
  0
LINE
  5
2F0
100
AcDbEntity
  8
KONSTRUKTIONSELEMENTE
100
AcDbLine
 62
7
  6
CONTINUOUS
 10
145.1378022309
 20
196.9120356897
 11
155.4932997266
 21
196.9120356897
  0
LINE
  5
2F1
100
AcDbEntity
  8
KONSTRUKTIONSELEMENTE
100
AcDbLine
 62
7
  6
CONTINUOUS
 10
196.0382042478
 20
196.9120356897
 11
206.3937017435
 21
196.9120356897
  0
LINE
  5
2F2
100
AcDbEntity
  8
0
100
AcDbLine
 62
7
  6
CONTINUOUS
 10
150.7948522962
 20
207.9228867916
 11
150.3781857288
 21
208.1356527237
  0
LINE
  5
2F3
100
AcDbEntity
  8
0
100
AcDbLine
 62
7
  6
CONTINUOUS
 10
148.086518938
 20
210.5611846251
 11
148.5031856543
 21
210.3484186651
  0
LINE
  5
2F4
100
AcDbEntity
  8
0
100
AcDbLine
 62
7
  6
CONTINUOUS
 10
161.5670452299
 20
253.0289667631
 11
161.6628163484
 21
252.7424003413
  0
LINE
  5
2F5
100
AcDbEntity
  8
0
100
AcDbLine
 62
7
  6
CONTINUOUS
 10
162.1716856578
 20
253.0005191466
 11
162.0759145394
 21
253.2870855684
  0
LINE
  5
2F6
100
AcDbEntity
  8
0
100
AcDbLine
 62
7
  6
CONTINUOUS
 10
181.8016963779
 20
255.2495251922
 11
181.8345908821
 21
254.949174396
  0
LINE
  5
2F7
100
AcDbEntity
  8
0
100
AcDbLine
 62
7
  6
CONTINUOUS
 10
183.6658136752
 20
253.5435951452
 11
183.7036436966
 21
253.1188628006
  0
LINE
  5
2F8
100
AcDbEntity
  8
0
100
AcDbLine
 62
7
  6
CONTINUOUS
 10
191.1150691494
 20
250.537167309
 11
191.1092818339
 21
251.0122891219
  0
LINE
  5
2F9
100
AcDbEntity
  8
RUNDUNGEN
100
AcDbLine
 62
7
  6
CONTINUOUS
 10
188.2657519872
 20
156.3120356897
 11
188.2657519872
 21
179.3120356897
  0
LINE
  5
2FA
100
AcDbEntity
  8
0
100
AcDbLine
 62
7
  6
CONTINUOUS
 10
147.3573522962
 20
203.2420356897
 11
149.8573522962
 21
203.2420356897
  0
LINE
  5
2FB
100
AcDbEntity
  8
0
100
AcDbLine
 62
7
  6
CONTINUOUS
 10
149.8573522962
 20
203.8803335605
 11
147.9823522962
 21
203.8803335605
  0
LINE
  5
2FC
100
AcDbEntity
  8
0
100
AcDbLine
 62
7
  6
CONTINUOUS
 10
150.3781857288
 20
208.1356527237
 11
149.8573522962
 21
208.2420356897
  0
LINE
  5
2FD
100
AcDbEntity
  8
0
100
AcDbLine
 62
7
  6
CONTINUOUS
 10
148.5031856543
 20
210.3484186651
 11
149.0240190125
 21
210.2420356897
  0
LINE
  5
2FE
100
AcDbEntity
  8
0
100
AcDbLine
 62
7
  6
CONTINUOUS
 10
149.8573522962
 20
207.6037378935
 11
150.2740188635
 21
207.4973549274
  0
LINE
  5
2FF
100
AcDbEntity
  8
0
100
AcDbLine
 62
7
  6
CONTINUOUS
 10
149.0240190125
 20
210.8803335605
 11
148.6073522962
 21
210.9867165265
  0
LINE
  5
300
100
AcDbEntity
  8
0
100
AcDbLine
 62
7
  6
CONTINUOUS
 10
150.7948522962
 20
221.8165038256
 11
150.3781857288
 21
222.1356527237
  0
LINE
  5
301
100
AcDbEntity
  8
0
100
AcDbLine
 62
7
  6
CONTINUOUS
 10
192.2296304649
 20
252.0942706426
 11
192.2238431495
 21
252.5693924555
  0
LINE
  5
302
100
AcDbEntity
  8
0
100
AcDbLine
 62
7
  6
CONTINUOUS
 10
195.214402326
 20
133.8120356897
 11
195.214402326
 21
127.3120356897
  0
LINE
  5
303
100
AcDbEntity
  8
0
100
AcDbLine
 62
7
  6
CONTINUOUS
 10
195.5536902325
 20
133.8120356897
 11
195.5536902325
 21
127.3120356897
  0
LINE
  5
304
100
AcDbEntity
  8
0
100
AcDbLine
 62
7
  6
CONTINUOUS
 10
196.263369989
 20
133.1205464104
 11
196.263369989
 21
131.0460781852
  0
LINE
  5
305
100
AcDbEntity
  8
0
100
AcDbLine
 62
7
  6
CONTINUOUS
 10
196.263369989
 20
130.2162910501
 11
196.263369989
 21
127.3120356897
  0
LINE
  5
306
100
AcDbEntity
  8
0
100
AcDbLine
 62
7
  6
CONTINUOUS
 10
150.2740188635
 20
203.9867165265
 11
149.8573522962
 21
203.8803335605
  0
LINE
  5
307
100
AcDbEntity
  8
0
100
AcDbLine
 62
7
  6
CONTINUOUS
 10
149.8573522962
 20
203.2420356897
 11
150.3781857288
 21
203.3484186651
  0
LINE
  5
308
100
AcDbEntity
  8
0
100
AcDbLine
 62
7
  6
CONTINUOUS
 10
147.9823522962
 20
207.6037378935
 11
149.8573522962
 21
207.6037378935
  0
LINE
  5
309
100
AcDbEntity
  8
0
100
AcDbLine
 62
7
  6
CONTINUOUS
 10
149.8573522962
 20
208.2420356897
 11
147.3573522962
 21
208.2420356897
  0
LINE
  5
30A
100
AcDbEntity
  8
0
100
AcDbLine
 62
7
  6
CONTINUOUS
 10
149.0240190125
 20
210.2420356897
 11
149.4406855798
 21
210.2420356897
  0
LINE
  5
30B
100
AcDbEntity
  8
0
100
AcDbLine
 62
7
  6
CONTINUOUS
 10
162.5994335223
 20
255.2734079746
 11
164.5506903874
 21
251.2184607929
  0
LINE
  5
30C
100
AcDbEntity
  8
0
100
AcDbLine
 62
7
  6
CONTINUOUS
 10
165.0575587851
 20
251.462367901
 11
164.1857205989
 21
253.2741528377
  0
LINE
  5
30D
100
AcDbEntity
  8
0
100
AcDbLine
 62
7
  6
CONTINUOUS
 10
163.9366240076
 20
253.7918056077
 11
163.3138824128
 21
255.0859377744
  0
LINE
  5
30E
100
AcDbEntity
  8
0
100
AcDbLine
 62
7
  6
CONTINUOUS
 10
165.6749308224
 20
255.5845646992
 11
165.7994792344
 21
255.3257380725
  0
LINE
  5
30F
100
AcDbEntity
  8
0
100
AcDbLine
 62
7
  6
CONTINUOUS
 10
166.3478637307
 20
255.483369719
 11
166.1817992201
 21
255.8284718073
  0
LINE
  5
310
100
AcDbEntity
  8
0
100
AcDbLine
 62
7
  6
CONTINUOUS
 10
175.9364008769
 20
257.6736067882
 11
175.8202596161
 21
258.0503996631
  0
LINE
  5
311
100
AcDbEntity
  8
0
100
AcDbLine
 62
7
  6
CONTINUOUS
 10
178.9115394301
 20
255.16993693
 11
179.0165705439
 21
254.7566607924
  0
LINE
  5
312
100
AcDbEntity
  8
0
100
AcDbLine
 62
7
  6
CONTINUOUS
 10
179.5671310129
 20
254.6413810459
 11
179.4620998991
 21
255.0546571834
  0
LINE
  5
313
100
AcDbEntity
  8
0
100
AcDbLine
 62
7
  6
CONTINUOUS
 10
182.3130126551
 20
254.9468204962
 11
182.2276036372
 21
255.4538091085
  0
LINE
  5
314
100
AcDbEntity
  8
0
100
AcDbLine
 62
7
  6
CONTINUOUS
 10
202.5157519628
 20
133.0950137791
 11
202.5154599295
 21
133.1205464104
  0
LINE
  5
315
100
AcDbEntity
  8
0
100
AcDbLine
 62
7
  6
CONTINUOUS
 10
198.3876991203
 20
132.2907592753
 11
198.3876991203
 21
131.8758653203
  0
LINE
  5
316
100
AcDbEntity
  8
0
100
AcDbLine
 62
7
  6
CONTINUOUS
 10
198.6800486619
 20
132.2907592753
 11
198.6800486619
 21
131.8758653203
  0
LINE
  5
317
100
AcDbEntity
  8
0
100
AcDbLine
 62
7
  6
CONTINUOUS
 10
199.1502173749
 20
132.2907592753
 11
199.1502173749
 21
131.7375674645
  0
LINE
  5
318
100
AcDbEntity
  8
0
100
AcDbLine
 62
7
  6
CONTINUOUS
 10
199.44044757
 20
133.8120356897
 11
199.44044757
 21
127.3120356897
  0
LINE
  5
319
100
AcDbEntity
  8
0
100
AcDbLine
 62
7
  6
CONTINUOUS
 10
199.7199522647
 20
133.8120356897
 11
199.7199522647
 21
127.3120356897
  0
LINE
  5
31A
100
AcDbEntity
  8
0
100
AcDbLine
 62
7
  6
CONTINUOUS
 10
200.1068943379
 20
133.1205464104
 11
200.1068943379
 21
131.0460781852
  0
LINE
  5
31B
100
AcDbEntity
  8
0
100
AcDbLine
 62
7
  6
CONTINUOUS
 10
200.1068943379
 20
130.2162910501
 11
200.1068943379
 21
127.3120356897
  0
LINE
  5
31C
100
AcDbEntity
  8
0
100
AcDbLine
 62
7
  6
CONTINUOUS
 10
200.3065343708
 20
143.3120356897
 11
200.3065343708
 21
136.8120356897
  0
LINE
  5
31D
100
AcDbEntity
  8
0
100
AcDbLine
 62
7
  6
CONTINUOUS
 10
200.576284025
 20
143.3120356897
 11
200.576284025
 21
136.8120356897
  0
LINE
  5
31E
100
AcDbEntity
  8
0
100
AcDbLine
 62
7
  6
CONTINUOUS
 10
200.8884975328
 20
142.6205464104
 11
200.8884975328
 21
140.5460781852
  0
LINE
  5
31F
100
AcDbEntity
  8
0
100
AcDbLine
 62
7
  6
CONTINUOUS
 10
200.8884975328
 20
139.7162910501
 11
200.8884975328
 21
136.8120356897
  0
LINE
  5
320
100
AcDbEntity
  8
0
100
AcDbLine
 62
7
  6
CONTINUOUS
 10
201.1198759358
 20
132.2907592753
 11
201.1198759358
 21
131.8758653203
  0
LINE
  5
321
100
AcDbEntity
  8
0
100
AcDbLine
 62
7
  6
CONTINUOUS
 10
201.3810618858
 20
132.2907592753
 11
201.3810618858
 21
131.8758653203
  0
LINE
  5
322
100
AcDbEntity
  8
0
100
AcDbLine
 62
7
  6
CONTINUOUS
 10
201.611641142
 20
132.2907592753
 11
201.611641142
 21
131.7375674645
  0
LINE
  5
323
100
AcDbEntity
  8
0
100
AcDbLine
 62
7
  6
CONTINUOUS
 10
201.6204390623
 20
130.3545889059
 11
201.6204390623
 21
129.663099433
  0
LINE
  5
324
100
AcDbEntity
  8
0
100
AcDbLine
 62
7
  6
CONTINUOUS
 10
201.6227786433
 20
141.7907592753
 11
201.6227786433
 21
141.3758653203
  0
LINE
  5
325
100
AcDbEntity
  8
0
100
AcDbLine
 62
7
  6
CONTINUOUS
 10
201.8766183794
 20
130.3545889059
 11
201.8766183794
 21
129.663099433
  0
LINE
  5
326
100
AcDbEntity
  8
0
100
AcDbLine
 62
7
  6
CONTINUOUS
 10
201.8789350083
 20
141.7907592753
 11
201.8789350083
 21
141.3758653203
  0
LINE
  5
327
100
AcDbEntity
  8
0
100
AcDbLine
 62
7
  6
CONTINUOUS
 10
201.9960934832
 20
143.3120356897
 11
201.9960934832
 21
142.3716454671
  0
LINE
  5
328
100
AcDbEntity
  8
0
100
AcDbLine
 62
7
  6
CONTINUOUS
 10
201.9960934832
 20
140.6566812727
 11
201.9960934832
 21
139.0248015771
  0
LINE
  5
329
100
AcDbEntity
  8
0
100
AcDbLine
 62
7
  6
CONTINUOUS
 10
202.0462876908
 20
141.7907592753
 11
202.0462876908
 21
141.2375674645
  0
LINE
  5
32A
100
AcDbEntity
  8
0
100
AcDbLine
 62
7
  6
CONTINUOUS
 10
202.1138490588
 20
128.0035250658
 11
202.1138490588
 21
127.3120356897
  0
LINE
  5
32B
100
AcDbEntity
  8
0
100
AcDbLine
 62
7
  6
CONTINUOUS
 10
202.2274644463
 20
130.3545889059
 11
202.2274644463
 21
129.663099433
  0
LINE
  5
32C
100
AcDbEntity
  8
0
100
AcDbLine
 62
7
  6
CONTINUOUS
 10
202.2486391976
 20
143.3120356897
 11
202.2486391976
 21
139.0248015771
  0
LINE
  5
32D
100
AcDbEntity
  8
0
100
AcDbLine
 62
7
  6
CONTINUOUS
 10
202.2657519872
 20
148.8120356897
 11
202.2657519872
 21
143.3120356897
  0
LINE
  5
32E
100
AcDbEntity
  8
0
100
AcDbLine
 62
7
  6
CONTINUOUS
 10
202.2657519872
 20
136.8120356897
 11
202.2657519872
 21
133.8120356897
  0
LINE
  5
32F
100
AcDbEntity
  8
0
100
AcDbLine
 62
7
  6
CONTINUOUS
 10
202.2657519872
 20
132.2907592753
 11
202.2657519872
 21
130.5870698323
  0
LINE
  5
330
100
AcDbEntity
  8
0
100
AcDbLine
 62
7
  6
CONTINUOUS
 10
202.2657519872
 20
127.3120356897
 11
202.2657519872
 21
124.4120356897
  0
LINE
  5
331
100
AcDbEntity
  8
0
100
AcDbLine
 62
7
  6
CONTINUOUS
 10
202.3516649002
 20
143.3120356897
 11
202.3516649002
 21
139.0248015771
  0
LINE
  5
332
100
AcDbEntity
  8
0
100
AcDbLine
 62
7
  6
CONTINUOUS
 10
202.3652767817
 20
128.0035250658
 11
202.3652767817
 21
127.3120356897
  0
LINE
  5
333
100
AcDbEntity
  8
0
100
AcDbLine
 62
7
  6
CONTINUOUS
 10
202.4874968886
 20
132.0141631762
 11
202.4874968886
 21
132.2907592753
  0
LINE
  5
334
100
AcDbEntity
  8
0
100
AcDbLine
 62
7
  6
CONTINUOUS
 10
202.514161854
 20
143.3120356897
 11
202.514161854
 21
139.0248015771
  0
LINE
  5
335
100
AcDbEntity
  8
0
100
AcDbLine
 62
7
  6
CONTINUOUS
 10
202.5157519872
 20
137.7801207776
 11
202.5157519872
 21
137.14714202
  0
LINE
  5
336
100
AcDbEntity
  8
0
100
AcDbLine
 62
7
  6
CONTINUOUS
 10
202.5157519872
 20
133.8120356897
 11
202.5157519872
 21
133.1205464104
  0
LINE
  5
337
100
AcDbEntity
  8
0
100
AcDbLine
 62
7
  6
CONTINUOUS
 10
202.5157519872
 20
128.0035250658
 11
202.5157519872
 21
127.3120356897
  0
LINE
  5
338
100
AcDbEntity
  8
FASEN
100
AcDbLine
 62
7
  6
CONTINUOUS
 10
146.2657519875
 20
124.4120356901
 11
145.7657519875
 21
123.9120356901
  0
LINE
  5
339
100
AcDbEntity
  8
0
100
AcDbLine
 62
7
  6
CONTINUOUS
 10
149.4406855798
 20
210.2420356897
 11
149.9615188635
 21
210.3484186651
  0
LINE
  5
33A
100
AcDbEntity
  8
0
100
AcDbLine
 62
7
  6
CONTINUOUS
 10
149.4406855798
 20
210.8803335605
 11
149.0240190125
 21
210.8803335605
  0
LINE
  5
33B
100
AcDbEntity
  8
0
100
AcDbLine
 62
7
  6
CONTINUOUS
 10
151.1073522962
 20
215.2420356897
 11
150.4823522962
 21
215.2420356897
  0
LINE
  5
33C
100
AcDbEntity
  8
0
100
AcDbLine
 62
7
  6
CONTINUOUS
 10
147.9823522962
 20
215.2420356897
 11
147.3573522962
 21
215.2420356897
  0
LINE
  5
33D
100
AcDbEntity
  8
0
100
AcDbLine
 62
7
  6
CONTINUOUS
 10
149.9615188635
 20
221.7101208595
 11
150.2740188635
 21
221.6037378935
  0
LINE
  5
33E
100
AcDbEntity
  8
0
100
AcDbLine
 62
7
  6
CONTINUOUS
 10
158.4341566377
 20
252.374720243
 11
161.1143828887
 21
248.7599744368
  0
LINE
  5
33F
100
AcDbEntity
  8
0
100
AcDbLine
 62
7
  6
CONTINUOUS
 10
161.5662261145
 20
249.0950027182
 11
160.3686781981
 21
250.7101019311
  0
LINE
  5
340
100
AcDbEntity
  8
0
100
AcDbLine
 62
7
  6
CONTINUOUS
 10
160.0265216962
 20
251.1715587876
 11
159.1711302818
 21
252.3252011441
  0
LINE
  5
341
100
AcDbEntity
  8
0
100
AcDbLine
 62
7
  6
CONTINUOUS
 10
161.3959668192
 20
253.2596954068
 11
161.5670452299
 21
253.0289667631
  0
LINE
  5
342
100
AcDbEntity
  8
0
100
AcDbLine
 62
7
  6
CONTINUOUS
 10
190.5609323294
 20
251.0515585546
 11
190.6019419967
 21
250.7867145328
  0
LINE
  5
343
100
AcDbEntity
  8
0
100
AcDbLine
 62
7
  6
CONTINUOUS
 10
191.6754936449
 20
252.6086618882
 11
191.7165033123
 21
252.3438178664
  0
LINE
  5
344
100
AcDbEntity
  8
FASEN
100
AcDbLine
 62
7
  6
CONTINUOUS
 10
205.7657519872
 20
123.9120356897
 11
205.7657519872
 21
116.4120356897
  0
LINE
  5
345
100
AcDbEntity
  8
KONSTRUKTIONSELEMENTE
100
AcDbLine
 62
7
  6
CONTINUOUS
 10
205.7657519872
 20
123.9120356897
 11
205.7657519872
 21
116.4120356897
  0
LINE
  5
346
100
AcDbEntity
  8
0
100
AcDbLine
 62
7
  6
CONTINUOUS
 10
149.8573522962
 20
210.9867165265
 11
149.4406855798
 21
210.8803335605
  0
LINE
  5
347
100
AcDbEntity
  8
0
100
AcDbLine
 62
7
  6
CONTINUOUS
 10
147.3573522962
 20
217.2420356897
 11
147.9823522962
 21
217.2420356897
  0
LINE
  5
348
100
AcDbEntity
  8
0
100
AcDbLine
 62
7
  6
CONTINUOUS
 10
150.5865188635
 20
217.2420356897
 11
151.3156857288
 21
217.2420356897
  0
LINE
  5
349
100
AcDbEntity
  8
0
100
AcDbLine
 62
7
  6
CONTINUOUS
 10
147.9823522962
 20
219.4760782746
 11
149.7531855798
 21
219.4760782746
  0
LINE
  5
34A
100
AcDbEntity
  8
0
100
AcDbLine
 62
7
  6
CONTINUOUS
 10
149.9615188635
 20
220.1143760709
 11
147.9823522962
 21
220.1143760709
  0
LINE
  5
34B
100
AcDbEntity
  8
0
100
AcDbLine
 62
7
  6
CONTINUOUS
 10
150.3781857288
 20
222.1356527237
 11
149.8573522962
 21
222.2420356897
  0
LINE
  5
34C
100
AcDbEntity
  8
0
100
AcDbLine
 62
7
  6
CONTINUOUS
 10
162.0759145394
 20
253.2870855684
 11
161.847810045
 21
253.5947236882
  0
LINE
  5
34D
100
AcDbEntity
  8
0
100
AcDbLine
 62
7
  6
CONTINUOUS
 10
179.0165705439
 20
254.7566607924
 11
179.2133624428
 21
254.32417125
  0
LINE
  5
34E
100
AcDbEntity
  8
0
100
AcDbLine
 62
7
  6
CONTINUOUS
 10
181.6770431682
 20
255.569088855
 11
181.8016963779
 21
255.2495251922
  0
LINE
  5
34F
100
AcDbEntity
  8
0
100
AcDbLine
 62
7
  6
CONTINUOUS
 10
147.9823522962
 20
221.7101208595
 11
149.9615188635
 21
221.7101208595
  0
LINE
  5
350
100
AcDbEntity
  8
0
100
AcDbLine
 62
7
  6
CONTINUOUS
 10
149.8573522962
 20
222.2420356897
 11
147.3573522962
 21
222.2420356897
  0
LINE
  5
351
100
AcDbEntity
  8
0
100
AcDbLine
 62
7
  6
CONTINUOUS
 10
182.2276036372
 20
255.4538091085
 11
182.0308117314
 21
255.8862986181
  0
LINE
  5
352
100
AcDbEntity
  8
0
100
AcDbLine
 62
7
  6
CONTINUOUS
 10
192.2238431495
 20
252.5693924555
 11
192.0860957568
 21
253.0212253432
  0
LINE
  5
353
100
AcDbEntity
  8
KONSTRUKTIONSELEMENTE
100
AcDbLine
 62
7
  6
CONTINUOUS
 10
145.1378022309
 20
226.9120356897
 11
155.4932997266
 21
226.9120356897
  0
LINE
  5
354
100
AcDbEntity
  8
KONSTRUKTIONSELEMENTE
100
AcDbLine
 62
7
  6
CONTINUOUS
 10
196.0382042478
 20
226.9120356897
 11
206.3937017435
 21
226.9120356897
  0
LINE
  5
355
100
AcDbEntity
  8
0
100
AcDbLine
 62
7
  6
CONTINUOUS
 10
165.4659042993
 20
255.8027398219
 11
165.6749308224
 21
255.5845646992
  0
LINE
  5
356
100
AcDbEntity
  8
0
100
AcDbLine
 62
7
  6
CONTINUOUS
 10
166.1817992201
 20
255.8284718073
 11
165.972772697
 21
256.0466469301
  0
LINE
  5
357
100
AcDbEntity
  8
0
100
AcDbLine
 62
7
  6
CONTINUOUS
 10
175.1707864945
 20
257.9161733344
 11
175.3748771704
 21
257.640480107
  0
LINE
  5
358
100
AcDbEntity
  8
0
100
AcDbLine
 62
7
  6
CONTINUOUS
 10
183.7036436966
 20
253.1188628006
 11
183.8976103784
 21
252.8393155557
  0
LINE
  5
359
100
AcDbEntity
  8
0
100
AcDbLine
 62
7
  6
CONTINUOUS
 10
184.350629216
 20
252.9731171762
 11
184.1566625281
 21
253.2526644055
  0
LINE
  5
35A
100
AcDbEntity
  8
0
100
AcDbLine
 62
7
  6
CONTINUOUS
 10
191.1092818339
 20
251.0122891219
 11
191.0125441086
 21
251.1992779879
  0
LINE
  5
35B
100
AcDbEntity
  8
0
100
AcDbLine
 62
7
  6
CONTINUOUS
 10
161.1495814358
 20
253.4345858413
 11
161.3959668192
 21
253.2596954068
  0
LINE
  5
35C
100
AcDbEntity
  8
0
100
AcDbLine
 62
7
  6
CONTINUOUS
 10
161.847810045
 20
253.5947236882
 11
161.6014246616
 21
253.7696141227
  0
LINE
  5
35D
100
AcDbEntity
  8
0
100
AcDbLine
 62
7
  6
CONTINUOUS
 10
179.8031670831
 20
254.3963163544
 11
179.5671310129
 21
254.6413810459
  0
LINE
  5
35E
100
AcDbEntity
  8
0
100
AcDbLine
 62
7
  6
CONTINUOUS
 10
190.38796084
 20
251.2931149002
 11
190.5609323294
 21
251.0515585546
  0
LINE
  5
35F
100
AcDbEntity
  8
0
100
AcDbLine
 62
7
  6
CONTINUOUS
 10
175.8202596161
 20
258.0503996631
 11
175.4233554309
 21
258.4106291343
  0
LINE
  5
360
100
AcDbEntity
  8
0
100
AcDbLine
 62
7
  6
CONTINUOUS
 10
179.2133624428
 20
254.32417125
 11
179.6132979821
 21
253.9469672495
  0
LINE
  5
361
100
AcDbEntity
  8
0
100
AcDbLine
 62
7
  6
CONTINUOUS
 10
182.0308117314
 20
255.8862986181
 11
181.6308761869
 21
256.263502594
  0
LINE
  5
362
100
AcDbEntity
  8
0
100
AcDbLine
 62
7
  6
CONTINUOUS
 10
181.441007098
 20
255.8141535464
 11
181.6770431682
 21
255.569088855
  0
LINE
  5
363
100
AcDbEntity
  8
0
100
AcDbLine
 62
7
  6
CONTINUOUS
 10
191.5025221556
 20
252.8502182337
 11
191.6754936449
 21
252.6086618882
  0
LINE
  5
364
100
AcDbEntity
  8
0
100
AcDbLine
 62
7
  6
CONTINUOUS
 10
190.1003893969
 20
250.0860180218
 11
189.8364674587
 21
250.039441366
  0
LINE
  5
365
100
AcDbEntity
  8
0
100
AcDbLine
 62
7
  6
CONTINUOUS
 10
191.2706786924
 20
251.7209764021
 11
191.0067567931
 21
251.6743998008
  0
LINE
  5
366
100
AcDbEntity
  8
0
100
AcDbLine
 62
7
  6
CONTINUOUS
 10
161.6014246616
 20
253.7696141227
 11
161.1473987141
 21
253.9097378863
  0
LINE
  5
367
100
AcDbEntity
  8
0
100
AcDbLine
 62
7
  6
CONTINUOUS
 10
165.2139161307
 20
255.8939884534
 11
165.4659042993
 21
255.8027398219
  0
LINE
  5
368
100
AcDbEntity
  8
0
100
AcDbLine
 62
7
  6
CONTINUOUS
 10
165.972772697
 20
256.0466469301
 11
165.5532741039
 21
256.2697952227
  0
LINE
  5
369
100
AcDbEntity
  8
0
100
AcDbLine
 62
7
  6
CONTINUOUS
 10
184.1258822223
 20
252.6491562248
 11
184.6167310722
 21
252.3582254772
  0
LINE
  5
36A
100
AcDbEntity
  8
0
100
AcDbLine
 62
7
  6
CONTINUOUS
 10
174.8787474745
 20
258.0907669775
 11
175.1707864945
 21
257.9161733344
  0
LINE
  5
36B
100
AcDbEntity
  8
0
100
AcDbLine
 62
7
  6
CONTINUOUS
 10
184.7539517205
 20
252.7157771336
 11
184.350629216
 21
252.9731171762
  0
LINE
  5
36C
100
AcDbEntity
  8
0
100
AcDbLine
 62
7
  6
CONTINUOUS
 10
187.3118413237
 20
251.0223334089
 11
189.1414377024
 21
249.7127238904
  0
LINE
  5
36D
100
AcDbEntity
  8
0
100
AcDbLine
 62
7
  6
CONTINUOUS
 10
189.5520398533
 20
250.1252874
 11
188.1036088052
 21
251.1620620184
  0
LINE
  5
36E
100
AcDbEntity
  8
0
100
AcDbLine
 62
7
  6
CONTINUOUS
 10
188.9395297919
 20
252.3298895186
 11
190.38796084
 21
251.2931149002
  0
LINE
  5
36F
100
AcDbEntity
  8
0
100
AcDbLine
 62
7
  6
CONTINUOUS
 10
183.8976103784
 20
252.8393155557
 11
184.1258822223
 21
252.6491562248
  0
LINE
  5
370
100
AcDbEntity
  8
0
100
AcDbLine
 62
7
  6
CONTINUOUS
 10
192.0860957568
 20
253.0212253432
 11
191.7606567393
 21
253.371916648
  0
LINE
  5
371
100
AcDbEntity
  8
0
100
AcDbLine
 62
7
  6
CONTINUOUS
 10
181.0878095776
 20
254.127329986
 11
180.7011464826
 21
254.1104708879
  0
LINE
  5
372
100
AcDbEntity
  8
0
100
AcDbLine
 62
7
  6
CONTINUOUS
 10
189.5783328407
 20
249.5177429041
 11
190.0504485958
 21
249.5330409714
  0
LINE
  5
373
100
AcDbEntity
  8
0
100
AcDbLine
 62
7
  6
CONTINUOUS
 10
180.603036058
 20
253.6419087768
 11
181.0814578327
 21
253.6395548852
  0
LINE
  5
374
100
AcDbEntity
  8
0
100
AcDbLine
 62
7
  6
CONTINUOUS
 10
161.1473987141
 20
253.9097378863
 11
160.6750917178
 21
253.9171141802
  0
LINE
  5
375
100
AcDbEntity
  8
0
100
AcDbLine
 62
7
  6
CONTINUOUS
 10
176.8489265378
 20
253.5768611587
 11
177.3163873962
 21
253.5421302239
  0
LINE
  5
376
100
AcDbEntity
  8
0
100
AcDbLine
 62
7
  6
CONTINUOUS
 10
191.0125441086
 20
251.1992779879
 11
191.2207379499
 21
251.1679994334
  0
LINE
  5
377
100
AcDbEntity
  8
0
100
AcDbLine
 62
7
  6
CONTINUOUS
 10
160.8849147881
 20
253.4767286464
 11
161.1495814358
 21
253.4345858413
  0
LINE
  5
378
100
AcDbEntity
  8
0
100
AcDbLine
 62
7
  6
CONTINUOUS
 10
165.5532741039
 20
256.2697952227
 11
165.090813382
 21
256.3660167914
  0
LINE
  5
379
100
AcDbEntity
  8
0
100
AcDbLine
 62
7
  6
CONTINUOUS
 10
180.052475589
 20
253.7571885233
 11
180.603036058
 21
253.6419087768
  0
LINE
  5
37A
100
AcDbEntity
  8
0
100
AcDbLine
 62
7
  6
CONTINUOUS
 10
180.7011464826
 20
254.1104708879
 11
180.1505860136
 21
254.2257506344
  0
LINE
  5
37B
100
AcDbEntity
  8
0
100
AcDbLine
 62
7
  6
CONTINUOUS
 10
189.8364674587
 20
250.039441366
 11
189.5520398533
 21
250.1252874
  0
LINE
  5
37C
100
AcDbEntity
  8
0
100
AcDbLine
 62
7
  6
CONTINUOUS
 10
191.0067567931
 20
251.6743998008
 11
190.7223291878
 21
251.7602458348
  0
LINE
  5
37D
100
AcDbEntity
  8
0
100
AcDbLine
 62
7
  6
CONTINUOUS
 10
179.6132979821
 20
253.9469672495
 11
180.052475589
 21
253.7571885233
  0
LINE
  5
37E
100
AcDbEntity
  8
0
100
AcDbLine
 62
7
  6
CONTINUOUS
 10
181.6308761869
 20
256.263502594
 11
181.1916985783
 21
256.4532813119
  0
LINE
  5
37F
100
AcDbEntity
  8
0
100
AcDbLine
 62
7
  6
CONTINUOUS
 10
175.4233554309
 20
258.4106291343
 11
175.0377294835
 21
258.5797016849
  0
LINE
  5
380
100
AcDbEntity
  8
0
100
AcDbLine
 62
7
  6
CONTINUOUS
 10
189.1414377024
 20
249.7127238904
 11
189.5783328407
 21
249.5177429041
  0
LINE
  5
381
100
AcDbEntity
  8
0
100
AcDbLine
 62
7
  6
CONTINUOUS
 10
180.1505860136
 20
254.2257506344
 11
179.8031670831
 21
254.3963163544
  0
LINE
  5
382
100
AcDbEntity
  8
0
100
AcDbLine
 62
7
  6
CONTINUOUS
 10
181.0935881674
 20
255.9847192665
 11
181.441007098
 21
255.8141535464
  0
LINE
  5
383
100
AcDbEntity
  8
0
100
AcDbLine
 62
7
  6
CONTINUOUS
 10
186.2217981717
 20
253.4013294796
 11
187.3845261773
 21
252.7924633553
  0
LINE
  5
384
100
AcDbEntity
  8
0
100
AcDbLine
 62
7
  6
CONTINUOUS
 10
187.6066051636
 20
253.2165589758
 11
186.443877158
 21
253.8254251002
  0
LINE
  5
385
100
AcDbEntity
  8
0
100
AcDbLine
 62
7
  6
CONTINUOUS
 10
190.7223291878
 20
251.7602458348
 11
189.2738981397
 21
252.7970204532
  0
LINE
  5
386
100
AcDbEntity
  8
0
100
AcDbLine
 62
7
  6
CONTINUOUS
 10
190.0540911074
 20
253.8869928522
 11
191.5025221556
 21
252.8502182337
  0
LINE
  5
387
100
AcDbEntity
  8
0
100
AcDbLine
 62
7
  6
CONTINUOUS
 10
191.7606567393
 20
253.371916648
 11
189.9310603606
 21
254.6815261664
  0
LINE
  5
388
100
AcDbEntity
  8
0
100
AcDbLine
 62
7
  6
CONTINUOUS
 10
173.5685262066
 20
258.0134714302
 11
174.0308233313
 21
258.1366554476
  0
LINE
  5
389
100
AcDbEntity
  8
0
100
AcDbLine
 62
7
  6
CONTINUOUS
 10
165.090813382
 20
256.3660167914
 11
164.6269071131
 21
256.2490364071
  0
LINE
  5
38A
100
AcDbEntity
  8
0
100
AcDbLine
 62
7
  6
CONTINUOUS
 10
174.096218413
 20
258.6200690625
 11
173.4467452913
 21
258.4858427338
  0
LINE
  5
38B
100
AcDbEntity
  8
0
100
AcDbLine
 62
7
  6
CONTINUOUS
 10
164.9189658333
 20
255.858310361
 11
165.2139161307
 21
255.8939884534
  0
LINE
  5
38C
100
AcDbEntity
  8
0
100
AcDbLine
 62
7
  6
CONTINUOUS
 10
172.7702476704
 20
254.0340204591
 11
176.1393899095
 21
254.2327805463
  0
LINE
  5
38D
100
AcDbEntity
  8
0
100
AcDbLine
 62
7
  6
CONTINUOUS
 10
176.1111969888
 20
254.7106730725
 11
173.490753382
 21
254.5560819146
  0
LINE
  5
38E
100
AcDbEntity
  8
0
100
AcDbLine
 62
7
  6
CONTINUOUS
 10
172.6608455652
 20
257.4803677935
 11
173.1287823443
 21
257.5079733823
  0
LINE
  5
38F
100
AcDbEntity
  8
0
100
AcDbLine
 62
7
  6
CONTINUOUS
 10
174.0308233313
 20
258.1366554476
 11
174.405173183
 21
258.1587399438
  0
LINE
  5
390
100
AcDbEntity
  8
0
100
AcDbLine
 62
7
  6
CONTINUOUS
 10
174.4705671936
 20
258.6421534955
 11
174.096218413
 21
258.6200690625
  0
LINE
  5
391
100
AcDbEntity
  8
0
100
AcDbLine
 62
7
  6
CONTINUOUS
 10
180.1563646035
 20
256.0831399149
 11
180.5430276984
 21
256.099999013
  0
LINE
  5
392
100
AcDbEntity
  8
0
100
AcDbLine
 62
7
  6
CONTINUOUS
 10
180.6411381093
 20
256.5685610584
 11
180.1627163364
 21
256.5709149582
  0
LINE
  5
393
100
AcDbEntity
  8
0
100
AcDbLine
 62
7
  6
CONTINUOUS
 10
177.9553762315
 20
254.5507496054
 11
177.4879143032
 21
254.5854806196
  0
LINE
  5
394
100
AcDbEntity
  8
0
100
AcDbLine
 62
7
  6
CONTINUOUS
 10
175.0377294835
 20
258.5797016849
 11
174.4705671936
 21
258.6421534955
  0
LINE
  5
395
100
AcDbEntity
  8
0
100
AcDbLine
 62
7
  6
CONTINUOUS
 10
174.405173183
 20
258.1587399438
 11
174.8787474745
 21
258.0907669775
  0
LINE
  5
396
100
AcDbEntity
  8
0
100
AcDbLine
 62
7
  6
CONTINUOUS
 10
179.4620998991
 20
255.0546571834
 11
178.9115394301
 21
255.16993693
  0
LINE
  5
397
100
AcDbEntity
  8
0
100
AcDbLine
 62
7
  6
CONTINUOUS
 10
179.0881381972
 20
256.013348743
 11
179.7304594444
 21
255.8788555588
  0
LINE
  5
398
100
AcDbEntity
  8
0
100
AcDbLine
 62
7
  6
CONTINUOUS
 10
180.5430276984
 20
256.099999013
 11
181.0935881674
 21
255.9847192665
  0
LINE
  5
399
100
AcDbEntity
  8
0
100
AcDbLine
 62
7
  6
CONTINUOUS
 10
181.1916985783
 20
256.4532813119
 11
180.6411381093
 21
256.5685610584
  0
LINE
  5
39A
100
AcDbEntity
  8
0
100
AcDbLine
 62
7
  6
CONTINUOUS
 10
179.9590016687
 20
257.8852432875
 11
182.6200453357
 21
257.3280575527
  0
LINE
  5
39B
100
AcDbEntity
  8
0
100
AcDbLine
 62
7
  6
CONTINUOUS
 10
182.7181557466
 20
257.7966195981
 11
179.5983123888
 21
258.4498716418
  0
LINE
  5
39C
100
AcDbEntity
  8
0
100
AcDbLine
 62
7
  6
CONTINUOUS
 10
183.6517102437
 20
255.600077749
 11
184.3519169285
 21
255.3313534585
  0
LINE
  5
39D
100
AcDbEntity
  8
0
100
AcDbLine
 62
7
  6
CONTINUOUS
 10
184.789544604
 20
255.1634013535
 11
185.7523262915
 21
254.7939064151
  0
LINE
  5
39E
100
AcDbEntity
  8
0
100
AcDbLine
 62
7
  6
CONTINUOUS
 10
185.8895469277
 20
255.1514580401
 11
184.9267652402
 21
255.5209529786
  0
LINE
  5
39F
100
AcDbEntity
  8
0
100
AcDbLine
 62
7
  6
CONTINUOUS
 10
184.4891375647
 20
255.6889050836
 11
183.7889308799
 21
255.9576293741
  0
LINE
  5
3A0
100
AcDbEntity
  8
0
100
AcDbLine
 62
7
  6
CONTINUOUS
 10
185.2012066088
 20
256.2360564792
 11
184.7635789333
 21
256.4040085842
  0
LINE
  5
3A1
100
AcDbEntity
  8
FASEN
100
AcDbLine
 62
7
  6
CONTINUOUS
 10
202.7657519871
 20
113.4120356896
 11
205.7657519871
 21
116.4120356896
  0
LINE
  5
3A2
100
AcDbEntity
  8
FASEN
100
AcDbLine
 62
7
  6
CONTINUOUS
 10
313.3325537237
 20
113.4120356897
 11
259.333186616
 21
113.4120356897
  0
LINE
  5
3A3
100
AcDbEntity
  8
FASEN
100
AcDbLine
 62
7
  6
CONTINUOUS
 10
316.3328701698
 20
116.4120356897
 11
256.3328701698
 21
116.4120356897
  0
LINE
  5
3A4
100
AcDbEntity
  8
FASEN
100
AcDbLine
 62
7
  6
CONTINUOUS
 10
259.3328701698
 20
113.4120356897
 11
256.3328701698
 21
116.4120356897
  0
LINE
  5
3A5
100
AcDbEntity
  8
FASEN
100
AcDbLine
 62
7
  6
CONTINUOUS
 10
256.3328701698
 20
123.9120356897
 11
316.3328701698
 21
123.9120356897
  0
LINE
  5
3A6
100
AcDbEntity
  8
FASEN
100
AcDbLine
 62
7
  6
CONTINUOUS
 10
256.8332159292
 20
124.4120356897
 11
315.8325244105
 21
124.4120356897
  0
LINE
  5
3A7
100
AcDbEntity
  8
RUNDUNGEN
100
AcDbLine
 62
7
  6
CONTINUOUS
 10
302.7571111318
 20
151.3120356897
 11
269.9086243609
 21
151.3120356897
  0
LINE
  5
3A8
100
AcDbEntity
  8
KONSTRUKTIONSELEMENTE
100
AcDbLine
 62
7
  6
CONTINUOUS
 10
256.3328701698
 20
123.9120356897
 11
256.3328701698
 21
116.4120356897
  0
LINE
  5
3A9
100
AcDbEntity
  8
0
100
AcDbLine
 62
7
  6
CONTINUOUS
 10
259.8328701698
 20
166.0081881124
 11
259.8328701698
 21
124.4120356897
  0
LINE
  5
3AA
100
AcDbEntity
  8
0
100
AcDbLine
 62
7
  6
CONTINUOUS
 10
271.9728701698
 20
162.1120356897
 11
267.9728701698
 21
163.4453689436
  0
LINE
  5
3AB
100
AcDbEntity
  8
0
100
AcDbLine
 62
7
  6
CONTINUOUS
 10
267.9728701698
 20
162.9453689436
 11
271.4622318732
 21
161.7787023166
  0
LINE
  5
3AC
100
AcDbEntity
  8
0
100
AcDbLine
 62
7
  6
CONTINUOUS
 10
269.4196787464
 20
167.7787021974
 11
269.5898914921
 21
167.6120356897
  0
LINE
  5
3AD
100
AcDbEntity
  8
RUNDUNGEN
100
AcDbLine
 62
7
  6
CONTINUOUS
 10
263.3328701698
 20
173.8120356897
 11
263.3328701698
 21
184.9932757786
  0
LINE
  5
3AE
100
AcDbEntity
  8
0
100
AcDbLine
 62
7
  6
CONTINUOUS
 10
267.9728701698
 20
164.1120356897
 11
271.9728701698
 21
164.1120356897
  0
LINE
  5
3AF
100
AcDbEntity
  8
0
100
AcDbLine
 62
7
  6
CONTINUOUS
 10
271.9728701698
 20
164.6120356897
 11
267.9728701698
 21
164.6120356897
  0
LINE
  5
3B0
100
AcDbEntity
  8
0
100
AcDbLine
 62
7
  6
CONTINUOUS
 10
267.9728701698
 20
165.2787021974
 11
271.9728701698
 21
165.2787021974
  0
LINE
  5
3B1
100
AcDbEntity
  8
0
100
AcDbLine
 62
7
  6
CONTINUOUS
 10
271.9728701698
 20
165.7787021974
 11
270.1856361019
 21
165.7787021974
  0
LINE
  5
3B2
100
AcDbEntity
  8
0
100
AcDbLine
 62
7
  6
CONTINUOUS
 10
269.6749978649
 20
165.7787021974
 11
268.398402034
 21
165.7787021974
  0
LINE
  5
3B3
100
AcDbEntity
  8
0
100
AcDbLine
 62
7
  6
CONTINUOUS
 10
269.1643596279
 20
167.8620356897
 11
269.4196787464
 21
167.7787021974
  0
LINE
  5
3B4
100
AcDbEntity
  8
0
100
AcDbLine
 62
7
  6
CONTINUOUS
 10
269.5047851192
 20
168.2787026743
 11
269.2494660007
 21
168.3620356897
  0
LINE
  5
3B5
100
AcDbEntity
  8
0
100
AcDbLine
 62
7
  6
CONTINUOUS
 10
268.9941468822
 20
173.5287026743
 11
268.7388275253
 21
173.6953687052
  0
LINE
  5
3B6
100
AcDbEntity
  8
0
100
AcDbLine
 62
7
  6
CONTINUOUS
 10
270.6962744581
 20
173.4453687052
 11
270.3558488476
 21
173.6953687052
  0
LINE
  5
3B7
100
AcDbEntity
  8
0
100
AcDbLine
 62
7
  6
CONTINUOUS
 10
269.8452106106
 20
168.0287021974
 11
269.5047851192
 21
168.2787026743
  0
LINE
  5
3B8
100
AcDbEntity
  8
0
100
AcDbLine
 62
7
  6
CONTINUOUS
 10
268.3132956611
 20
173.5287026743
 11
268.5686147796
 21
173.2787026743
  0
LINE
  5
3B9
100
AcDbEntity
  8
FASEN
100
AcDbLine
 62
7
  6
CONTINUOUS
 10
315.8328701698
 20
124.4120356897
 11
316.3328701698
 21
123.9120356897
  0
LINE
  5
3BA
100
AcDbEntity
  8
0
100
AcDbLine
 62
7
  6
CONTINUOUS
 10
270.1005297291
 20
167.695369182
 11
269.8452106106
 21
168.0287021974
  0
LINE
  5
3BB
100
AcDbEntity
  8
0
100
AcDbLine
 62
7
  6
CONTINUOUS
 10
268.7388275253
 20
173.6953687052
 11
268.4835084068
 21
174.0287026743
  0
LINE
  5
3BC
100
AcDbEntity
  8
0
100
AcDbLine
 62
7
  6
CONTINUOUS
 10
270.0154233562
 20
173.5287026743
 11
270.2707424747
 21
173.1953687052
  0
LINE
  5
3BD
100
AcDbEntity
  8
0
100
AcDbLine
 62
7
  6
CONTINUOUS
 10
269.4196787464
 20
175.3620356897
 11
269.6749978649
 21
175.0287026743
  0
LINE
  5
3BE
100
AcDbEntity
  8
0
100
AcDbLine
 62
7
  6
CONTINUOUS
 10
268.0579765426
 20
173.9453687052
 11
268.3132956611
 21
173.5287026743
  0
LINE
  5
3BF
100
AcDbEntity
  8
0
100
AcDbLine
 62
7
  6
CONTINUOUS
 10
269.9303169834
 20
173.6953687052
 11
270.0154233562
 21
173.5287026743
  0
LINE
  5
3C0
100
AcDbEntity
  8
0
100
AcDbLine
 62
7
  6
CONTINUOUS
 10
269.5898914921
 20
167.6120356897
 11
269.6749978649
 21
167.3620356897
  0
LINE
  5
3C1
100
AcDbEntity
  8
0
100
AcDbLine
 62
7
  6
CONTINUOUS
 10
268.4835084068
 20
174.0287026743
 11
268.398402034
 21
174.3620356897
  0
LINE
  5
3C2
100
AcDbEntity
  8
0
100
AcDbLine
 62
7
  6
CONTINUOUS
 10
267.9728701698
 20
174.3620356897
 11
268.0579765426
 21
173.9453687052
  0
LINE
  5
3C3
100
AcDbEntity
  8
0
100
AcDbLine
 62
7
  6
CONTINUOUS
 10
267.9728701698
 20
174.6953687052
 11
267.9728701698
 21
174.3620356897
  0
LINE
  5
3C4
100
AcDbEntity
  8
0
100
AcDbLine
 62
7
  6
CONTINUOUS
 10
267.9728701698
 20
167.2787021974
 11
267.9728701698
 21
165.2787021974
  0
LINE
  5
3C5
100
AcDbEntity
  8
0
100
AcDbLine
 62
7
  6
CONTINUOUS
 10
267.9728701698
 20
164.6120356897
 11
267.9728701698
 21
164.1120356897
  0
LINE
  5
3C6
100
AcDbEntity
  8
0
100
AcDbLine
 62
7
  6
CONTINUOUS
 10
267.9728701698
 20
163.4453689436
 11
267.9728701698
 21
162.9453689436
  0
LINE
  5
3C7
100
AcDbEntity
  8
0
100
AcDbLine
 62
7
  6
CONTINUOUS
 10
267.9728701698
 20
160.6120356897
 11
267.9728701698
 21
160.1120356897
  0
LINE
  5
3C8
100
AcDbEntity
  8
0
100
AcDbLine
 62
7
  6
CONTINUOUS
 10
268.398402034
 20
165.7787021974
 11
268.398402034
 21
167.3620356897
  0
LINE
  5
3C9
100
AcDbEntity
  8
0
100
AcDbLine
 62
7
  6
CONTINUOUS
 10
268.398402034
 20
174.3620356897
 11
268.398402034
 21
174.6953687052
  0
LINE
  5
3CA
100
AcDbEntity
  8
0
100
AcDbLine
 62
7
  6
CONTINUOUS
 10
269.6749978649
 20
167.3620356897
 11
269.6749978649
 21
165.7787021974
  0
LINE
  5
3CB
100
AcDbEntity
  8
0
100
AcDbLine
 62
7
  6
CONTINUOUS
 10
269.7601042377
 20
174.6953687052
 11
269.7601042377
 21
174.3620356897
  0
LINE
  5
3CC
100
AcDbEntity
  8
0
100
AcDbLine
 62
7
  6
CONTINUOUS
 10
270.1005297291
 20
174.3620356897
 11
270.1005297291
 21
174.6953687052
  0
LINE
  5
3CD
100
AcDbEntity
  8
0
100
AcDbLine
 62
7
  6
CONTINUOUS
 10
270.1856361019
 20
165.7787021974
 11
270.1856361019
 21
167.2787021974
  0
LINE
  5
3CE
100
AcDbEntity
  8
RUNDUNGEN
100
AcDbLine
 62
7
  6
CONTINUOUS
 10
267.0837061347
 20
190.9192167595
 11
264.2686923973
 21
187.5644140247
  0
LINE
  5
3CF
100
AcDbEntity
  8
0
100
AcDbLine
 62
7
  6
CONTINUOUS
 10
268.909040271
 20
167.8620356897
 11
269.1643596279
 21
167.8620356897
  0
LINE
  5
3D0
100
AcDbEntity
  8
0
100
AcDbLine
 62
7
  6
CONTINUOUS
 10
306.148926652
 20
168.2219446435
 11
305.3935088668
 21
168.2219446435
  0
LINE
  5
3D1
100
AcDbEntity
  8
0
100
AcDbLine
 62
7
  6
CONTINUOUS
 10
301.9294072517
 20
168.2219446435
 11
301.1739894665
 21
168.2219446435
  0
LINE
  5
3D2
100
AcDbEntity
  8
0
100
AcDbLine
 62
7
  6
CONTINUOUS
 10
269.2494660007
 20
168.3620356897
 11
268.909040271
 21
168.3620356897
  0
LINE
  5
3D3
100
AcDbEntity
  8
0
100
AcDbLine
 62
7
  6
CONTINUOUS
 10
304.0414580593
 20
171.9719446435
 11
303.2860402741
 21
171.9719446435
  0
LINE
  5
3D4
100
AcDbEntity
  8
0
100
AcDbLine
 62
7
  6
CONTINUOUS
 10
306.148926652
 20
172.4719446435
 11
305.3935088668
 21
172.4719446435
  0
LINE
  5
3D5
100
AcDbEntity
  8
0
100
AcDbLine
 62
7
  6
CONTINUOUS
 10
301.9294072517
 20
172.4719446435
 11
301.1739894665
 21
172.4719446435
  0
LINE
  5
3D6
100
AcDbEntity
  8
0
100
AcDbLine
 62
7
  6
CONTINUOUS
 10
268.5686147796
 20
173.2787026743
 11
268.9941468822
 21
173.1120356897
  0
LINE
  5
3D7
100
AcDbEntity
  8
0
100
AcDbLine
 62
7
  6
CONTINUOUS
 10
270.2707424747
 20
173.1953687052
 11
270.6962744581
 21
173.0287026743
  0
LINE
  5
3D8
100
AcDbEntity
  8
0
100
AcDbLine
 62
7
  6
CONTINUOUS
 10
271.3771255004
 20
175.8620356897
 11
270.9515935766
 21
176.0287026743
  0
LINE
  5
3D9
100
AcDbEntity
  8
0
100
AcDbLine
 62
7
  6
CONTINUOUS
 10
269.5898914921
 20
175.7787026743
 11
269.2494660007
 21
175.9453687052
  0
LINE
  5
3DA
100
AcDbEntity
  8
0
100
AcDbLine
 62
7
  6
CONTINUOUS
 10
269.1643596279
 20
175.5287026743
 11
269.4196787464
 21
175.3620356897
  0
LINE
  5
3DB
100
AcDbEntity
  8
0
100
AcDbLine
 62
7
  6
CONTINUOUS
 10
270.9515935766
 20
175.6120356897
 11
271.2920191275
 21
175.3620356897
  0
LINE
  5
3DC
100
AcDbEntity
  8
0
100
AcDbLine
 62
7
  6
CONTINUOUS
 10
269.8452106106
 20
175.5287026743
 11
269.5898914921
 21
175.7787026743
  0
LINE
  5
3DD
100
AcDbEntity
  8
0
100
AcDbLine
 62
7
  6
CONTINUOUS
 10
271.6324446487
 20
175.6120356897
 11
271.3771255004
 21
175.8620356897
  0
LINE
  5
3DE
100
AcDbEntity
  8
0
100
AcDbLine
 62
7
  6
CONTINUOUS
 10
271.8877637895
 20
175.1953687052
 11
271.6324446487
 21
175.6120356897
  0
LINE
  5
3DF
100
AcDbEntity
  8
0
100
AcDbLine
 62
7
  6
CONTINUOUS
 10
270.3558488476
 20
173.6953687052
 11
270.1856361019
 21
174.0287026743
  0
LINE
  5
3E0
100
AcDbEntity
  8
0
100
AcDbLine
 62
7
  6
CONTINUOUS
 10
269.9303169834
 20
175.3620356897
 11
269.8452106106
 21
175.5287026743
  0
LINE
  5
3E1
100
AcDbEntity
  8
0
100
AcDbLine
 62
7
  6
CONTINUOUS
 10
271.2920191275
 20
175.3620356897
 11
271.4622318732
 21
175.0287026743
  0
LINE
  5
3E2
100
AcDbEntity
  8
0
100
AcDbLine
 62
7
  6
CONTINUOUS
 10
269.6749978649
 20
175.0287026743
 11
269.7601042377
 21
174.6953687052
  0
LINE
  5
3E3
100
AcDbEntity
  8
0
100
AcDbLine
 62
7
  6
CONTINUOUS
 10
270.1856361019
 20
174.0287026743
 11
270.1005297291
 21
174.3620356897
  0
LINE
  5
3E4
100
AcDbEntity
  8
0
100
AcDbLine
 62
7
  6
CONTINUOUS
 10
271.4622318732
 20
175.0287026743
 11
271.547338246
 21
174.6953687052
  0
LINE
  5
3E5
100
AcDbEntity
  8
0
100
AcDbLine
 62
7
  6
CONTINUOUS
 10
270.1856361019
 20
167.2787021974
 11
270.1005297291
 21
167.695369182
  0
LINE
  5
3E6
100
AcDbEntity
  8
0
100
AcDbLine
 62
7
  6
CONTINUOUS
 10
271.9728701698
 20
174.7787026743
 11
271.8877637895
 21
175.1953687052
  0
LINE
  5
3E7
100
AcDbEntity
  8
0
100
AcDbLine
 62
7
  6
CONTINUOUS
 10
271.547338246
 20
174.6953687052
 11
271.547338246
 21
174.3620356897
  0
LINE
  5
3E8
100
AcDbEntity
  8
0
100
AcDbLine
 62
7
  6
CONTINUOUS
 10
271.9728701698
 20
161.4453690628
 11
271.9728701698
 21
162.1120356897
  0
LINE
  5
3E9
100
AcDbEntity
  8
0
100
AcDbLine
 62
7
  6
CONTINUOUS
 10
271.9728701698
 20
164.1120356897
 11
271.9728701698
 21
164.6120356897
  0
LINE
  5
3EA
100
AcDbEntity
  8
0
100
AcDbLine
 62
7
  6
CONTINUOUS
 10
271.9728701698
 20
165.2787021974
 11
271.9728701698
 21
165.7787021974
  0
LINE
  5
3EB
100
AcDbEntity
  8
0
100
AcDbLine
 62
7
  6
CONTINUOUS
 10
271.9728701698
 20
174.2787026743
 11
271.9728701698
 21
174.7787026743
  0
LINE
  5
3EC
100
AcDbEntity
  8
0
100
AcDbLine
 62
7
  6
CONTINUOUS
 10
268.0579765426
 20
175.1120356897
 11
267.9728701698
 21
174.6953687052
  0
LINE
  5
3ED
100
AcDbEntity
  8
0
100
AcDbLine
 62
7
  6
CONTINUOUS
 10
268.0579765426
 20
167.695369182
 11
267.9728701698
 21
167.2787021974
  0
LINE
  5
3EE
100
AcDbEntity
  8
0
100
AcDbLine
 62
7
  6
CONTINUOUS
 10
271.8877637895
 20
173.8620356897
 11
271.9728701698
 21
174.2787026743
  0
LINE
  5
3EF
100
AcDbEntity
  8
0
100
AcDbLine
 62
7
  6
CONTINUOUS
 10
268.398402034
 20
174.6953687052
 11
268.4835084068
 21
175.0287026743
  0
LINE
  5
3F0
100
AcDbEntity
  8
0
100
AcDbLine
 62
7
  6
CONTINUOUS
 10
269.7601042377
 20
174.3620356897
 11
269.6749978649
 21
174.0287026743
  0
LINE
  5
3F1
100
AcDbEntity
  8
0
100
AcDbLine
 62
7
  6
CONTINUOUS
 10
270.1005297291
 20
174.6953687052
 11
270.1856361019
 21
175.0287026743
  0
LINE
  5
3F2
100
AcDbEntity
  8
0
100
AcDbLine
 62
7
  6
CONTINUOUS
 10
271.547338246
 20
174.3620356897
 11
271.4622318732
 21
174.0287026743
  0
LINE
  5
3F3
100
AcDbEntity
  8
0
100
AcDbLine
 62
7
  6
CONTINUOUS
 10
268.398402034
 20
167.3620356897
 11
268.4835084068
 21
167.6120356897
  0
LINE
  5
3F4
100
AcDbEntity
  8
RUNDUNGEN
100
AcDbLine
 62
7
  6
CONTINUOUS
 10
260.2347939585
 20
167.5081881124
 11
262.8639590831
 21
172.0620356897
  0
LINE
  5
3F5
100
AcDbEntity
  8
0
100
AcDbLine
 62
7
  6
CONTINUOUS
 10
270.6962744581
 20
173.0287026743
 11
270.9515935766
 21
173.0287026743
  0
LINE
  5
3F6
100
AcDbEntity
  8
0
100
AcDbLine
 62
7
  6
CONTINUOUS
 10
268.9941468822
 20
173.1120356897
 11
269.2494660007
 21
173.1120356897
  0
LINE
  5
3F7
100
AcDbEntity
  8
0
100
AcDbLine
 62
7
  6
CONTINUOUS
 10
270.9515935766
 20
173.4453687052
 11
270.6962744581
 21
173.4453687052
  0
LINE
  5
3F8
100
AcDbEntity
  8
0
100
AcDbLine
 62
7
  6
CONTINUOUS
 10
269.1643596279
 20
173.5287026743
 11
268.9941468822
 21
173.5287026743
  0
LINE
  5
3F9
100
AcDbEntity
  8
0
100
AcDbLine
 62
7
  6
CONTINUOUS
 10
268.9941468822
 20
175.5287026743
 11
269.1643596279
 21
175.5287026743
  0
LINE
  5
3FA
100
AcDbEntity
  8
0
100
AcDbLine
 62
7
  6
CONTINUOUS
 10
270.6962744581
 20
175.6120356897
 11
270.9515935766
 21
175.6120356897
  0
LINE
  5
3FB
100
AcDbEntity
  8
0
100
AcDbLine
 62
7
  6
CONTINUOUS
 10
269.2494660007
 20
175.9453687052
 11
268.9941468822
 21
175.9453687052
  0
LINE
  5
3FC
100
AcDbEntity
  8
0
100
AcDbLine
 62
7
  6
CONTINUOUS
 10
270.9515935766
 20
176.0287026743
 11
270.6962744581
 21
176.0287026743
  0
LINE
  5
3FD
100
AcDbEntity
  8
KONSTRUKTIONSELEMENTE
100
AcDbLine
 62
7
  6
CONTINUOUS
 10
279.8328701698
 20
255.8543049442
 11
279.8328701698
 21
236.2290252159
  0
LINE
  5
3FE
100
AcDbEntity
  8
KONSTRUKTIONSELEMENTE
100
AcDbLine
 62
7
  6
CONTINUOUS
 10
279.8328701698
 20
187.5955572337
 11
279.8328701698
 21
167.9120356897
  0
LINE
  5
3FF
100
AcDbEntity
  8
KONSTRUKTIONSELEMENTE
100
AcDbLine
 62
7
  6
CONTINUOUS
 10
292.8329648103
 20
236.2425159119
 11
290.3328701698
 21
226.9120356897
  0
LINE
  5
400
100
AcDbEntity
  8
KONSTRUKTIONSELEMENTE
100
AcDbLine
 62
7
  6
CONTINUOUS
 10
279.8327758414
 20
187.5815566323
 11
282.3328701698
 21
196.9120356897
  0
LINE
  5
401
100
AcDbEntity
  8
0
100
AcDbLine
 62
7
  6
CONTINUOUS
 10
270.0154233562
 20
175.5287026743
 11
269.9303169834
 21
175.3620356897
  0
LINE
  5
402
100
AcDbEntity
  8
0
100
AcDbLine
 62
7
  6
CONTINUOUS
 10
270.1856361019
 20
175.0287026743
 11
270.3558488476
 21
175.3620356897
  0
LINE
  5
403
100
AcDbEntity
  8
0
100
AcDbLine
 62
7
  6
CONTINUOUS
 10
269.8452106106
 20
173.5287026743
 11
269.9303169834
 21
173.6953687052
  0
LINE
  5
404
100
AcDbEntity
  8
0
100
AcDbLine
 62
7
  6
CONTINUOUS
 10
271.4622318732
 20
174.0287026743
 11
271.2920191275
 21
173.6953687052
  0
LINE
  5
405
100
AcDbEntity
  8
0
100
AcDbLine
 62
7
  6
CONTINUOUS
 10
268.3132956611
 20
175.5287026743
 11
268.0579765426
 21
175.1120356897
  0
LINE
  5
406
100
AcDbEntity
  8
0
100
AcDbLine
 62
7
  6
CONTINUOUS
 10
271.6324446487
 20
173.4453687052
 11
271.8877637895
 21
173.8620356897
  0
LINE
  5
407
100
AcDbEntity
  8
0
100
AcDbLine
 62
7
  6
CONTINUOUS
 10
268.4835084068
 20
175.0287026743
 11
268.7388275253
 21
175.3620356897
  0
LINE
  5
408
100
AcDbEntity
  8
0
100
AcDbLine
 62
7
  6
CONTINUOUS
 10
270.2707424747
 20
175.8620356897
 11
270.0154233562
 21
175.5287026743
  0
LINE
  5
409
100
AcDbEntity
  8
0
100
AcDbLine
 62
7
  6
CONTINUOUS
 10
269.6749978649
 20
174.0287026743
 11
269.4196787464
 21
173.6953687052
  0
LINE
  5
40A
100
AcDbEntity
  8
RUNDUNGEN
100
AcDbLine
 62
7
  6
CONTINUOUS
 10
293.7643184246
 20
170.0033417533
 11
292.8328701698
 21
171.037819842
  0
LINE
  5
40B
100
AcDbEntity
  8
KONSTRUKTIONSELEMENTE
100
AcDbLine
 62
7
  6
CONTINUOUS
 10
282.3328701698
 20
226.9120356897
 11
282.3328701698
 21
196.9120356897
  0
LINE
  5
40C
100
AcDbEntity
  8
0
100
AcDbLine
 62
7
  6
CONTINUOUS
 10
268.3132956611
 20
168.0287021974
 11
268.0579765426
 21
167.695369182
  0
LINE
  5
40D
100
AcDbEntity
  8
0
100
AcDbLine
 62
7
  6
CONTINUOUS
 10
268.5686147796
 20
175.7787026743
 11
268.3132956611
 21
175.5287026743
  0
LINE
  5
40E
100
AcDbEntity
  8
0
100
AcDbLine
 62
7
  6
CONTINUOUS
 10
269.5898914921
 20
173.2787026743
 11
269.8452106106
 21
173.5287026743
  0
LINE
  5
40F
100
AcDbEntity
  8
0
100
AcDbLine
 62
7
  6
CONTINUOUS
 10
271.3771255004
 20
173.1953687052
 11
271.6324446487
 21
173.4453687052
  0
LINE
  5
410
100
AcDbEntity
  8
0
100
AcDbLine
 62
7
  6
CONTINUOUS
 10
270.3558488476
 20
175.3620356897
 11
270.6962744581
 21
175.6120356897
  0
LINE
  5
411
100
AcDbEntity
  8
KONSTRUKTIONSELEMENTE
100
AcDbLine
 62
7
  6
CONTINUOUS
 10
290.3328701698
 20
226.9120356897
 11
290.3328701698
 21
196.9120356897
  0
LINE
  5
412
100
AcDbEntity
  8
0
100
AcDbLine
 62
7
  6
CONTINUOUS
 10
290.8328701698
 20
222.2420356897
 11
290.8328701698
 21
217.2420356897
  0
LINE
  5
413
100
AcDbEntity
  8
0
100
AcDbLine
 62
7
  6
CONTINUOUS
 10
290.8328701698
 20
215.2420356897
 11
290.8328701698
 21
210.2420356897
  0
LINE
  5
414
100
AcDbEntity
  8
0
100
AcDbLine
 62
7
  6
CONTINUOUS
 10
290.8328701698
 20
208.2420356897
 11
290.8328701698
 21
203.2420356897
  0
LINE
  5
415
100
AcDbEntity
  8
0
100
AcDbLine
 62
7
  6
CONTINUOUS
 10
268.4835084068
 20
167.6120356897
 11
268.6537211525
 21
167.7787021974
  0
LINE
  5
416
100
AcDbEntity
  8
0
100
AcDbLine
 62
7
  6
CONTINUOUS
 10
271.2920191275
 20
173.6953687052
 11
270.9515935766
 21
173.4453687052
  0
LINE
  5
417
100
AcDbEntity
  8
0
100
AcDbLine
 62
7
  6
CONTINUOUS
 10
268.6537211525
 20
168.2787026743
 11
268.3132956611
 21
168.0287021974
  0
LINE
  5
418
100
AcDbEntity
  8
0
100
AcDbLine
 62
7
  6
CONTINUOUS
 10
268.7388275253
 20
175.3620356897
 11
268.9941468822
 21
175.5287026743
  0
LINE
  5
419
100
AcDbEntity
  8
0
100
AcDbLine
 62
7
  6
CONTINUOUS
 10
269.4196787464
 20
173.6953687052
 11
269.1643596279
 21
173.5287026743
  0
LINE
  5
41A
100
AcDbEntity
  8
0
100
AcDbLine
 62
7
  6
CONTINUOUS
 10
269.2494660007
 20
173.1120356897
 11
269.5898914921
 21
173.2787026743
  0
LINE
  5
41B
100
AcDbEntity
  8
0
100
AcDbLine
 62
7
  6
CONTINUOUS
 10
268.9941468822
 20
175.9453687052
 11
268.5686147796
 21
175.7787026743
  0
LINE
  5
41C
100
AcDbEntity
  8
0
100
AcDbLine
 62
7
  6
CONTINUOUS
 10
270.6962744581
 20
176.0287026743
 11
270.2707424747
 21
175.8620356897
  0
LINE
  5
41D
100
AcDbEntity
  8
0
100
AcDbLine
 62
7
  6
CONTINUOUS
 10
268.9766351551
 20
191.8120356897
 11
274.5748941535
 21
191.8120356897
  0
LINE
  5
41E
100
AcDbEntity
  8
0
100
AcDbLine
 62
7
  6
CONTINUOUS
 10
298.0908461861
 20
191.8120356897
 11
303.6891051664
 21
191.8120356897
  0
LINE
  5
41F
100
AcDbEntity
  8
KONSTRUKTIONSELEMENTE
100
AcDbLine
 62
7
  6
CONTINUOUS
 10
292.8328701698
 20
250.1071736388
 11
292.8328701698
 21
236.2285398068
  0
LINE
  5
420
100
AcDbEntity
  8
KONSTRUKTIONSELEMENTE
100
AcDbLine
 62
7
  6
CONTINUOUS
 10
292.8328701698
 20
187.5950365171
 11
292.8328701698
 21
167.9120356897
  0
LINE
  5
421
100
AcDbEntity
  8
0
100
AcDbLine
 62
7
  6
CONTINUOUS
 10
293.3328701698
 20
258.6421534955
 11
293.3328701698
 21
248.7599744368
  0
LINE
  5
422
100
AcDbEntity
  8
RUNDUNGEN
100
AcDbLine
 62
7
  6
CONTINUOUS
 10
279.8328701698
 20
171.037819842
 11
278.901421915
 21
170.0033417533
  0
LINE
  5
423
100
AcDbEntity
  8
0
100
AcDbLine
 62
7
  6
CONTINUOUS
 10
270.9515935766
 20
173.0287026743
 11
271.3771255004
 21
173.1953687052
  0
LINE
  5
424
100
AcDbEntity
  8
KONSTRUKTIONSELEMENTE
100
AcDbLine
 62
7
  6
CONTINUOUS
 10
290.3328701698
 20
196.9120356897
 11
292.8329699226
 21
187.5815363883
  0
LINE
  5
425
100
AcDbEntity
  8
KONSTRUKTIONSELEMENTE
100
AcDbLine
 62
7
  6
CONTINUOUS
 10
282.3328701698
 20
226.9120356897
 11
279.8327704367
 21
236.2425349177
  0
LINE
  5
426
100
AcDbEntity
  8
0
100
AcDbLine
 62
7
  6
CONTINUOUS
 10
268.909040271
 20
168.3620356897
 11
268.6537211525
 21
168.2787026743
  0
LINE
  5
427
100
AcDbEntity
  8
0
100
AcDbLine
 62
7
  6
CONTINUOUS
 10
268.6537211525
 20
167.7787021974
 11
268.909040271
 21
167.8620356897
  0
LINE
  5
428
100
AcDbEntity
  8
0
100
AcDbLine
 62
7
  6
CONTINUOUS
 10
290.3328701698
 20
203.2420356897
 11
290.8328701698
 21
203.2420356897
  0
LINE
  5
429
100
AcDbEntity
  8
RUNDUNGEN
100
AcDbLine
 62
7
  6
CONTINUOUS
 10
305.5820341389
 20
190.9192168381
 11
308.3972152054
 21
187.5642146883
  0
LINE
  5
42A
100
AcDbEntity
  8
RUNDUNGEN
100
AcDbLine
 62
7
  6
CONTINUOUS
 10
312.4309463812
 20
167.5081881124
 11
309.8017812566
 21
172.0620356897
  0
LINE
  5
42B
100
AcDbEntity
  8
0
100
AcDbLine
 62
7
  6
CONTINUOUS
 10
306.159068777
 20
167.8709444811
 11
306.148926652
 21
168.2219446435
  0
LINE
  5
42C
100
AcDbEntity
  8
0
100
AcDbLine
 62
7
  6
CONTINUOUS
 10
306.159068777
 20
172.1209444811
 11
306.148926652
 21
172.4719446435
  0
LINE
  5
42D
100
AcDbEntity
  8
0
100
AcDbLine
 62
7
  6
CONTINUOUS
 10
303.2860402741
 20
171.9719446435
 11
303.2860402741
 21
170.5126870601
  0
LINE
  5
42E
100
AcDbEntity
  8
0
100
AcDbLine
 62
7
  6
CONTINUOUS
 10
304.0414580593
 20
170.5136999304
 11
304.0414580593
 21
171.9719446435
  0
LINE
  5
42F
100
AcDbEntity
  8
0
100
AcDbLine
 62
7
  6
CONTINUOUS
 10
301.9120190835
 20
167.9468326876
 11
301.9294072517
 21
168.2219446435
  0
LINE
  5
430
100
AcDbEntity
  8
0
100
AcDbLine
 62
7
  6
CONTINUOUS
 10
271.4622318732
 20
161.7787023166
 11
267.9728701698
 21
160.6120356897
  0
LINE
  5
431
100
AcDbEntity
  8
0
100
AcDbLine
 62
7
  6
CONTINUOUS
 10
267.9728701698
 20
160.1120356897
 11
271.9728701698
 21
161.4453690628
  0
LINE
  5
432
100
AcDbEntity
  8
0
100
AcDbLine
 62
7
  6
CONTINUOUS
 10
290.3328701698
 20
208.2420356897
 11
290.8328701698
 21
208.2420356897
  0
LINE
  5
433
100
AcDbEntity
  8
RUNDUNGEN
100
AcDbLine
 62
7
  6
CONTINUOUS
 10
309.3328701698
 20
184.9932780998
 11
309.3328701698
 21
173.8120356897
  0
LINE
  5
434
100
AcDbEntity
  8
0
100
AcDbLine
 62
7
  6
CONTINUOUS
 10
312.8328701698
 20
166.0081881124
 11
312.8328701698
 21
124.4120356897
  0
LINE
  5
435
100
AcDbEntity
  8
FASEN
100
AcDbLine
 62
7
  6
CONTINUOUS
 10
256.8328701698
 20
124.4120356897
 11
256.3328701698
 21
123.9120356897
  0
LINE
  5
436
100
AcDbEntity
  8
0
100
AcDbLine
 62
7
  6
CONTINUOUS
 10
290.3328701698
 20
210.2420356897
 11
290.8328701698
 21
210.2420356897
  0
LINE
  5
437
100
AcDbEntity
  8
0
100
AcDbLine
 62
7
  6
CONTINUOUS
 10
290.3328701698
 20
210.3484186651
 11
290.8328701698
 21
210.3484186651
  0
LINE
  5
438
100
AcDbEntity
  8
0
100
AcDbLine
 62
7
  6
CONTINUOUS
 10
290.3328701698
 20
210.5611846251
 11
290.8328701698
 21
210.5611846251
  0
LINE
  5
439
100
AcDbEntity
  8
0
100
AcDbLine
 62
7
  6
CONTINUOUS
 10
290.3328701698
 20
210.9867165265
 11
290.8328701698
 21
210.9867165265
  0
LINE
  5
43A
100
AcDbEntity
  8
0
100
AcDbLine
 62
7
  6
CONTINUOUS
 10
290.3328701698
 20
211.4122484652
 11
290.8328701698
 21
211.4122484652
  0
LINE
  5
43B
100
AcDbEntity
  8
0
100
AcDbLine
 62
7
  6
CONTINUOUS
 10
290.3328701698
 20
211.9441632954
 11
290.8328701698
 21
211.9441632954
  0
LINE
  5
43C
100
AcDbEntity
  8
0
100
AcDbLine
 62
7
  6
CONTINUOUS
 10
290.3328701698
 20
215.2420356897
 11
290.8328701698
 21
215.2420356897
  0
LINE
  5
43D
100
AcDbEntity
  8
KONSTRUKTIONSELEMENTE
100
AcDbLine
 62
7
  6
CONTINUOUS
 10
316.3328701698
 20
123.9120356897
 11
316.3328701698
 21
116.4120356897
  0
LINE
  5
43E
100
AcDbEntity
  8
0
100
AcDbLine
 62
7
  6
CONTINUOUS
 10
290.3328701698
 20
217.2420356897
 11
290.8328701698
 21
217.2420356897
  0
LINE
  5
43F
100
AcDbEntity
  8
0
100
AcDbLine
 62
7
  6
CONTINUOUS
 10
290.3328701698
 20
222.2420356897
 11
290.8328701698
 21
222.2420356897
  0
LINE
  5
440
100
AcDbEntity
  8
0
100
AcDbLine
 62
7
  6
CONTINUOUS
 10
292.8328701698
 20
248.7599744368
 11
293.3328701698
 21
248.7599744368
  0
LINE
  5
441
100
AcDbEntity
  8
0
100
AcDbLine
 62
7
  6
CONTINUOUS
 10
292.1911399517
 20
252.374720243
 11
293.3328701698
 21
252.374720243
  0
LINE
  5
442
100
AcDbEntity
  8
0
100
AcDbLine
 62
7
  6
CONTINUOUS
 10
292.2154679281
 20
253.7148333685
 11
293.3328701698
 21
253.7148333685
  0
LINE
  5
443
100
AcDbEntity
  8
0
100
AcDbLine
 62
7
  6
CONTINUOUS
 10
292.2535648918
 20
253.9171141802
 11
293.3328701698
 21
253.9171141802
  0
LINE
  5
444
100
AcDbEntity
  8
0
100
AcDbLine
 62
7
  6
CONTINUOUS
 10
292.1911399475
 20
255.2734079746
 11
293.3328701698
 21
255.2734079746
  0
LINE
  5
445
100
AcDbEntity
  8
0
100
AcDbLine
 62
7
  6
CONTINUOUS
 10
292.2154679293
 20
256.2490364071
 11
293.3328701698
 21
256.2490364071
  0
LINE
  5
446
100
AcDbEntity
  8
0
100
AcDbLine
 62
7
  6
CONTINUOUS
 10
292.2535648986
 20
256.3660167914
 11
293.3328701698
 21
256.3660167914
  0
LINE
  5
447
100
AcDbEntity
  8
0
100
AcDbLine
 62
7
  6
CONTINUOUS
 10
292.7303629893
 20
257.0559666401
 11
293.3328701698
 21
257.0559666401
  0
LINE
  5
448
100
AcDbEntity
  8
0
100
AcDbLine
 62
7
  6
CONTINUOUS
 10
292.6477784458
 20
257.4493228556
 11
293.3328701698
 21
257.4493228556
  0
LINE
  5
449
100
AcDbEntity
  8
0
100
AcDbLine
 62
7
  6
CONTINUOUS
 10
292.5911353826
 20
257.4803677935
 11
293.3328701698
 21
257.4803677935
  0
LINE
  5
44A
100
AcDbEntity
  8
0
100
AcDbLine
 62
7
  6
CONTINUOUS
 10
292.4729725195
 20
257.8682029166
 11
293.3328701698
 21
257.8682029166
  0
LINE
  5
44B
100
AcDbEntity
  8
FASEN
100
AcDbLine
 62
7
  6
CONTINUOUS
 10
313.3328701698
 20
113.4120356897
 11
316.3328701698
 21
116.4120356897
  0
LINE
  5
44C
100
AcDbEntity
  8
0
100
AcDbLine
 62
7
  6
CONTINUOUS
 10
292.3342609569
 20
258.272601317
 11
293.3328701698
 21
258.272601317
  0
LINE
  5
44D
100
AcDbEntity
  8
0
100
AcDbLine
 62
7
  6
CONTINUOUS
 10
292.257010543
 20
258.4858427338
 11
293.3328701698
 21
258.4858427338
  0
LINE
  5
44E
100
AcDbEntity
  8
0
100
AcDbLine
 62
7
  6
CONTINUOUS
 10
292.2177230556
 20
258.6200690625
 11
293.3328701698
 21
258.6200690625
  0
LINE
  5
44F
100
AcDbEntity
  8
0
100
AcDbLine
 62
7
  6
CONTINUOUS
 10
292.2171067035
 20
258.6421534955
 11
293.3328701698
 21
258.6421534955
  0
LINE
  5
450
100
AcDbEntity
  8
RUNDUNGEN
100
AcDbLine
 62
7
  6
CONTINUOUS
 10
165.7657519872
 20
11.8944643126
 11
185.7657519872
 21
11.8944643126
  0
LINE
  5
451
100
AcDbEntity
  8
0
100
AcDbLine
 62
7
  6
CONTINUOUS
 10
163.2657519872
 20
15.0658764231
 11
162.7657519872
 21
15.0658764231
  0
LINE
  5
452
100
AcDbEntity
  8
0
100
AcDbLine
 62
7
  6
CONTINUOUS
 10
163.2657519872
 20
15.0784078303
 11
162.7657519872
 21
15.0784078303
  0
LINE
  5
453
100
AcDbEntity
  8
0
100
AcDbLine
 62
7
  6
CONTINUOUS
 10
163.2657519872
 20
15.8338256155
 11
162.7657519872
 21
15.8338256155
  0
LINE
  5
454
100
AcDbEntity
  8
0
100
AcDbLine
 62
7
  6
CONTINUOUS
 10
195.214402326
 20
16.8944643126
 11
195.5536902325
 21
16.8944643126
  0
LINE
  5
455
100
AcDbEntity
  8
0
100
AcDbLine
 62
7
  6
CONTINUOUS
 10
163.2657519872
 20
17.1858764231
 11
162.7657519872
 21
17.1858764231
  0
LINE
  5
456
100
AcDbEntity
  8
0
100
AcDbLine
 62
7
  6
CONTINUOUS
 10
158.4341566377
 20
29.0361945307
 11
158.4341566377
 21
27.8944643126
  0
LINE
  5
457
100
AcDbEntity
  8
0
100
AcDbLine
 62
7
  6
CONTINUOUS
 10
160.2415295408
 20
29.0118665543
 11
160.2415295408
 21
27.8944643126
  0
LINE
  5
458
100
AcDbEntity
  8
0
100
AcDbLine
 62
7
  6
CONTINUOUS
 10
160.6750917178
 20
28.9737695905
 11
160.6750917178
 21
27.8944643126
  0
LINE
  5
459
100
AcDbEntity
  8
0
100
AcDbLine
 62
7
  6
CONTINUOUS
 10
161.1473987141
 20
28.8585611321
 11
161.1473987141
 21
27.8944643126
  0
LINE
  5
45A
100
AcDbEntity
  8
0
100
AcDbLine
 62
7
  6
CONTINUOUS
 10
163.2657519872
 20
17.9412942083
 11
162.7657519872
 21
17.9412942083
  0
LINE
  5
45B
100
AcDbEntity
  8
0
100
AcDbLine
 62
7
  6
CONTINUOUS
 10
163.2657519872
 20
19.2979272307
 11
162.7657519872
 21
19.2979272307
  0
LINE
  5
45C
100
AcDbEntity
  8
0
100
AcDbLine
 62
7
  6
CONTINUOUS
 10
163.2657519872
 20
20.0533450159
 11
162.7657519872
 21
20.0533450159
  0
LINE
  5
45D
100
AcDbEntity
  8
0
100
AcDbLine
 62
7
  6
CONTINUOUS
 10
163.2657519872
 20
20.0658764231
 11
162.7657519872
 21
20.0658764231
  0
LINE
  5
45E
100
AcDbEntity
  8
0
100
AcDbLine
 62
7
  6
CONTINUOUS
 10
197.7813714425
 20
20.1444643126
 11
198.0816655916
 21
20.1444643126
  0
LWPOLYLINE
  5
45F
100
AcDbEntity
  8
RUNDUNGEN
100
AcDbPolyline
 62
7
  6
CONTINUOUS
 90
5
 70
0
 10
163.2657402922
 20
46.086002299
 10
163.2674779706
 20
46.0015209761
 10
163.2930204156
 20
45.7454292145
 10
163.3482666742
 20
45.4952789979
 10
163.4324858338
 20
45.2526817671
  0
LINE
  5
460
100
AcDbEntity
  8
0
100
AcDbLine
 62
7
  6
CONTINUOUS
 10
161.6014246616
 20
28.724793067
 11
161.6014246616
 21
27.8944643126
  0
LINE
  5
461
100
AcDbEntity
  8
0
100
AcDbLine
 62
7
  6
CONTINUOUS
 10
161.847810045
 20
28.6387553013
 11
161.847810045
 21
27.8944643126
  0
LINE
  5
462
100
AcDbEntity
  8
0
100
AcDbLine
 62
7
  6
CONTINUOUS
 10
162.0759145394
 20
28.5433313051
 11
162.0759145394
 21
27.8944643126
  0
LINE
  5
463
100
AcDbEntity
  8
0
100
AcDbLine
 62
7
  6
CONTINUOUS
 10
162.1716856578
 20
28.4865580686
 11
162.1716856578
 21
27.8944643126
  0
LINE
  5
464
100
AcDbEntity
  8
0
100
AcDbLine
 62
7
  6
CONTINUOUS
 10
162.5994335223
 20
29.0361945349
 11
162.5994335223
 21
27.8944643126
  0
LINE
  5
465
100
AcDbEntity
  8
0
100
AcDbLine
 62
7
  6
CONTINUOUS
 10
162.7657519872
 20
15.066327601
 11
162.7657519872
 21
15.8338256155
  0
LINE
  5
466
100
AcDbEntity
  8
0
100
AcDbLine
 62
7
  6
CONTINUOUS
 10
162.7657519872
 20
15.8970755376
 11
162.7657519872
 21
20.0654252453
  0
LINE
  5
467
100
AcDbEntity
  8
0
100
AcDbLine
 62
7
  6
CONTINUOUS
 10
162.7657519872
 20
49.2544643126
 11
162.7657519872
 21
53.2544643126
  0
LINE
  5
468
100
AcDbEntity
  8
RUNDUNGEN
100
AcDbLine
 62
7
  6
CONTINUOUS
 10
163.2657519872
 20
13.0770291356
 11
163.2657519872
 21
25.1476423644
  0
LINE
  5
469
100
AcDbEntity
  8
RUNDUNGEN
100
AcDbLine
 62
7
  6
CONTINUOUS
 10
163.2657519872
 20
44.64128659
 11
163.2657519872
 21
56.7118916592
  0
LINE
  5
46A
100
AcDbEntity
  8
0
100
AcDbLine
 62
7
  6
CONTINUOUS
 10
198.2202174702
 20
20.8215477751
 11
198.5147194391
 21
20.8215477751
  0
LINE
  5
46B
100
AcDbEntity
  8
0
100
AcDbLine
 62
7
  6
CONTINUOUS
 10
198.5507311058
 20
21.3632143126
 11
198.8410152238
 21
21.3632143126
  0
LINE
  5
46C
100
AcDbEntity
  8
0
100
AcDbLine
 62
7
  6
CONTINUOUS
 10
198.7871414978
 20
21.7694643126
 11
199.074481575
 21
21.7694643126
  0
LINE
  5
46D
100
AcDbEntity
  8
0
100
AcDbLine
 62
7
  6
CONTINUOUS
 10
198.8638194707
 20
21.9048808501
 11
199.1502173749
 21
21.9048808501
  0
LINE
  5
46E
100
AcDbEntity
  8
0
100
AcDbLine
 62
7
  6
CONTINUOUS
 10
199.44044757
 20
22.9882143126
 11
199.7199522647
 21
22.9882143126
  0
LINE
  5
46F
100
AcDbEntity
  8
0
100
AcDbLine
 62
7
  6
CONTINUOUS
 10
164.6269071131
 20
29.0118665531
 11
164.6269071131
 21
27.8944643126
  0
LINE
  5
470
100
AcDbEntity
  8
0
100
AcDbLine
 62
7
  6
CONTINUOUS
 10
165.090813382
 20
28.9737695838
 11
165.090813382
 21
27.8944643126
  0
LINE
  5
471
100
AcDbEntity
  8
0
100
AcDbLine
 62
7
  6
CONTINUOUS
 10
165.5532741039
 20
28.8585611294
 11
165.5532741039
 21
27.8944643126
  0
LINE
  5
472
100
AcDbEntity
  8
0
100
AcDbLine
 62
7
  6
CONTINUOUS
 10
165.972772697
 20
28.7247930642
 11
165.972772697
 21
27.8944643126
  0
LINE
  5
473
100
AcDbEntity
  8
0
100
AcDbLine
 62
7
  6
CONTINUOUS
 10
166.1817992201
 20
28.6387553038
 11
166.1817992201
 21
27.8944643126
  0
LINE
  5
474
100
AcDbEntity
  8
0
100
AcDbLine
 62
7
  6
CONTINUOUS
 10
166.3478637307
 20
28.5433313071
 11
166.3478637307
 21
27.8944643126
  0
LINE
  5
475
100
AcDbEntity
  8
0
100
AcDbLine
 62
7
  6
CONTINUOUS
 10
166.387933799
 20
28.4865580671
 11
166.387933799
 21
27.8944643126
  0
LINE
  5
476
100
AcDbEntity
  8
0
100
AcDbLine
 62
7
  6
CONTINUOUS
 10
200.3065343708
 20
24.8944643126
 11
200.576284025
 21
24.8944643126
  0
LWPOLYLINE
  5
477
100
AcDbEntity
  8
RUNDUNGEN
100
AcDbPolyline
 62
7
  6
CONTINUOUS
 90
6
 70
0
 10
163.5426859226
 20
24.7646699647
 10
163.4307124411
 20
24.5319484717
 10
163.3472848182
 20
24.2901702235
 10
163.292620873
 20
24.0409925411
 10
163.2674253558
 20
23.7860853926
 10
163.2657402381
 20
23.7029048672
  0
LINE
  5
478
100
AcDbEntity
  8
RUNDUNGEN
100
AcDbLine
 62
7
  6
CONTINUOUS
 10
164.9547391207
 20
26.7988674003
 11
164.8209227792
 21
26.5279342276
  0
LINE
  5
479
100
AcDbEntity
  8
0
100
AcDbLine
 62
7
  6
CONTINUOUS
 10
192.2296304649
 20
27.8944643126
 11
186.2217981717
 21
27.8944643126
  0
LINE
  5
47A
100
AcDbEntity
  8
0
100
AcDbLine
 62
7
  6
CONTINUOUS
 10
185.8895469277
 20
27.8944643126
 11
183.6517102437
 21
27.8944643126
  0
LINE
  5
47B
100
AcDbEntity
  8
0
100
AcDbLine
 62
7
  6
CONTINUOUS
 10
182.7181557466
 20
27.8944643126
 11
178.9115394301
 21
27.8944643126
  0
LINE
  5
47C
100
AcDbEntity
  8
0
100
AcDbLine
 62
7
  6
CONTINUOUS
 10
177.9553762315
 20
27.8944643126
 11
176.8489265378
 21
27.8944643126
  0
LINE
  5
47D
100
AcDbEntity
  8
0
100
AcDbLine
 62
7
  6
CONTINUOUS
 10
176.1393899095
 20
27.8944643126
 11
172.6608455652
 21
27.8944643126
  0
LINE
  5
47E
100
AcDbEntity
  8
0
100
AcDbLine
 62
7
  6
CONTINUOUS
 10
166.387933799
 20
27.8944643126
 11
162.5994335223
 21
27.8944643126
  0
LINE
  5
47F
100
AcDbEntity
  8
0
100
AcDbLine
 62
7
  6
CONTINUOUS
 10
162.1716856578
 20
27.8944643126
 11
158.4341566377
 21
27.8944643126
  0
LINE
  5
480
100
AcDbEntity
  8
0
100
AcDbLine
 62
7
  6
CONTINUOUS
 10
201.391666605
 20
28.1444643126
 11
201.6501101983
 21
28.1444643126
  0
LINE
  5
481
100
AcDbEntity
  8
KONSTRUKTIONSELEMENTE
100
AcDbLine
 62
7
  6
CONTINUOUS
 10
199.4232697744
 20
28.3944643126
 11
192.2296304649
 21
28.3944643126
  0
LINE
  5
482
100
AcDbEntity
  8
KONSTRUKTIONSELEMENTE
100
AcDbLine
 62
7
  6
CONTINUOUS
 10
188.2879556378
 20
28.3944643126
 11
187.6066051636
 21
28.3944643126
  0
LINE
  5
483
100
AcDbEntity
  8
KONSTRUKTIONSELEMENTE
100
AcDbLine
 62
7
  6
CONTINUOUS
 10
186.2690796624
 20
28.3944643126
 11
185.8895469277
 21
28.3944643126
  0
LINE
  5
484
100
AcDbEntity
  8
KONSTRUKTIONSELEMENTE
100
AcDbLine
 62
7
  6
CONTINUOUS
 10
183.6517102437
 20
28.3944643126
 11
182.7181557466
 21
28.3944643126
  0
LINE
  5
485
100
AcDbEntity
  8
KONSTRUKTIONSELEMENTE
100
AcDbLine
 62
7
  6
CONTINUOUS
 10
179.0881381972
 20
28.3944643126
 11
175.9476780594
 21
28.3944643126
  0
LINE
  5
486
100
AcDbEntity
  8
KONSTRUKTIONSELEMENTE
100
AcDbLine
 62
7
  6
CONTINUOUS
 10
172.6608455652
 20
28.3944643126
 11
166.387933799
 21
28.3944643126
  0
LINE
  5
487
100
AcDbEntity
  8
KONSTRUKTIONSELEMENTE
100
AcDbLine
 62
7
  6
CONTINUOUS
 10
162.5994335223
 20
28.3944643126
 11
162.1738683795
 21
28.3944643126
  0
LINE
  5
488
100
AcDbEntity
  8
KONSTRUKTIONSELEMENTE
100
AcDbLine
 62
7
  6
CONTINUOUS
 10
158.4341566377
 20
28.3944643126
 11
152.1081225297
 21
28.3944643126
  0
LINE
  5
489
100
AcDbEntity
  8
RUNDUNGEN
100
AcDbLine
 62
7
  6
CONTINUOUS
 10
164.643125521
 20
43.583398508
 11
164.8246934894
 21
43.2537056486
  0
LINE
  5
48A
100
AcDbEntity
  8
RUNDUNGEN
100
AcDbLine
 62
7
  6
CONTINUOUS
 10
164.8246934894
 20
43.2537056486
 11
164.954646131
 21
42.9902586667
  0
LINE
  5
48B
100
AcDbEntity
  8
RUNDUNGEN
100
AcDbLine
 62
7
  6
CONTINUOUS
 10
163.4324858338
 20
45.2526817671
 11
163.5454687558
 21
45.0192569422
  0
LINE
  5
48C
100
AcDbEntity
  8
0
100
AcDbLine
 62
7
  6
CONTINUOUS
 10
172.6608455652
 20
28.6361990998
 11
172.6608455652
 21
27.8944643126
  0
LINE
  5
48D
100
AcDbEntity
  8
0
100
AcDbLine
 62
7
  6
CONTINUOUS
 10
172.7318792302
 20
28.7543619629
 11
172.7318792302
 21
27.8944643126
  0
LINE
  5
48E
100
AcDbEntity
  8
0
100
AcDbLine
 62
7
  6
CONTINUOUS
 10
173.0836736774
 20
28.8930735255
 11
173.0836736774
 21
27.8944643126
  0
LWPOLYLINE
  5
48F
100
AcDbEntity
  8
RUNDUNGEN
100
AcDbPolyline
 62
7
  6
CONTINUOUS
 90
6
 70
0
 10
164.8209227792
 20
26.5279342276
 10
164.6393741001
 20
26.1991600592
 10
164.4550762069
 20
25.9068430134
 10
164.2715968786
 20
25.6539207272
 10
164.0932411689
 20
25.4423874306
 10
163.850038872
 20
25.1927156898
  0
LINE
  5
490
100
AcDbEntity
  8
RUNDUNGEN
100
AcDbLine
 62
7
  6
CONTINUOUS
 10
163.6825397764
 20
24.9855360601
 11
163.5426859226
 21
24.7646699647
  0
LINE
  5
491
100
AcDbEntity
  8
RUNDUNGEN
100
AcDbLine
 62
7
  6
CONTINUOUS
 10
163.850038872
 20
25.1927156898
 11
163.6825397764
 21
24.9855360601
  0
LINE
  5
492
100
AcDbEntity
  8
KONSTRUKTIONSELEMENTE
100
AcDbLine
 62
7
  6
CONTINUOUS
 10
207.429560446
 20
30.8944643126
 11
206.3937017435
 21
30.8944643126
  0
LINE
  5
493
100
AcDbEntity
  8
KONSTRUKTIONSELEMENTE
100
AcDbLine
 62
7
  6
CONTINUOUS
 10
145.1378022309
 20
30.8944643126
 11
144.1019435284
 21
30.8944643126
  0
LINE
  5
494
100
AcDbEntity
  8
RUNDUNGEN
100
AcDbLine
 62
7
  6
CONTINUOUS
 10
163.686565549
 20
44.7977954496
 11
163.8556092951
 21
44.5901038136
  0
LINE
  5
495
100
AcDbEntity
  8
RUNDUNGEN
100
AcDbLine
 62
7
  6
CONTINUOUS
 10
163.5454687558
 20
45.0192569422
 11
163.686565549
 21
44.7977954496
  0
LINE
  5
496
100
AcDbEntity
  8
0
100
AcDbLine
 62
7
  6
CONTINUOUS
 10
173.4467452913
 20
28.9703239394
 11
173.4467452913
 21
27.8944643126
  0
LINE
  5
497
100
AcDbEntity
  8
0
100
AcDbLine
 62
7
  6
CONTINUOUS
 10
174.096218413
 20
29.0096114268
 11
174.096218413
 21
27.8944643126
  0
LINE
  5
498
100
AcDbEntity
  8
0
100
AcDbLine
 62
7
  6
CONTINUOUS
 10
174.4705671936
 20
29.0102277789
 11
174.4705671936
 21
27.8944643126
  0
LINE
  5
499
100
AcDbEntity
  8
0
100
AcDbLine
 62
7
  6
CONTINUOUS
 10
175.0377294835
 20
28.9715891877
 11
175.0377294835
 21
27.8944643126
  0
LINE
  5
49A
100
AcDbEntity
  8
0
100
AcDbLine
 62
7
  6
CONTINUOUS
 10
175.4233554309
 20
28.8947999837
 11
175.4233554309
 21
27.8944643126
  0
LINE
  5
49B
100
AcDbEntity
  8
0
100
AcDbLine
 62
7
  6
CONTINUOUS
 10
175.8202596161
 20
28.7562922352
 11
175.8202596161
 21
27.8944643126
  0
LINE
  5
49C
100
AcDbEntity
  8
0
100
AcDbLine
 62
7
  6
CONTINUOUS
 10
175.9364008769
 20
28.6378777291
 11
175.9364008769
 21
27.8944643126
  0
LINE
  5
49D
100
AcDbEntity
  8
0
100
AcDbLine
 62
7
  6
CONTINUOUS
 10
175.9476780594
 20
28.5871853994
 11
175.9476780594
 21
27.8944643126
  0
LINE
  5
49E
100
AcDbEntity
  8
0
100
AcDbLine
 62
7
  6
CONTINUOUS
 10
176.1111969888
 20
28.3944643126
 11
176.1111969888
 21
27.8944643126
  0
LINE
  5
49F
100
AcDbEntity
  8
0
100
AcDbLine
 62
7
  6
CONTINUOUS
 10
176.1393899095
 20
28.3944643126
 11
176.1393899095
 21
27.8944643126
  0
LINE
  5
4A0
100
AcDbEntity
  8
RUNDUNGEN
100
AcDbLine
 62
7
  6
CONTINUOUS
 10
163.9625725168
 20
25.3082487753
 11
163.961576514
 21
25.3072928677
  0
LINE
  5
4A1
100
AcDbEntity
  8
RUNDUNGEN
100
AcDbLine
 62
7
  6
CONTINUOUS
 10
163.9625339895
 20
44.4806763727
 11
163.961447325
 21
44.4817193583
  0
LWPOLYLINE
  5
4A2
100
AcDbEntity
  8
RUNDUNGEN
100
AcDbPolyline
 62
7
  6
CONTINUOUS
 90
5
 70
0
 10
163.8556092951
 20
44.5901038136
 10
164.0967041065
 20
44.3427481333
 10
164.2752072648
 20
44.130381635
 10
164.458778376
 20
43.8766005512
 10
164.643125521
 20
43.583398508
  0
LINE
  5
4A3
100
AcDbEntity
  8
0
100
AcDbLine
 62
7
  6
CONTINUOUS
 10
176.8489265378
 20
28.3944643126
 11
176.8489265378
 21
27.8944643126
  0
LINE
  5
4A4
100
AcDbEntity
  8
0
100
AcDbLine
 62
7
  6
CONTINUOUS
 10
177.4879143032
 20
28.3944643126
 11
177.4879143032
 21
27.8944643126
  0
LINE
  5
4A5
100
AcDbEntity
  8
0
100
AcDbLine
 62
7
  6
CONTINUOUS
 10
177.9553762315
 20
28.3944643126
 11
177.9553762315
 21
27.8944643126
  0
LINE
  5
4A6
100
AcDbEntity
  8
0
100
AcDbLine
 62
7
  6
CONTINUOUS
 10
178.9115394301
 20
28.3944643126
 11
178.9115394301
 21
27.8944643126
  0
LINE
  5
4A7
100
AcDbEntity
  8
0
100
AcDbLine
 62
7
  6
CONTINUOUS
 10
179.0881381972
 20
28.4028076568
 11
179.0881381972
 21
27.8944643126
  0
LINE
  5
4A8
100
AcDbEntity
  8
RUNDUNGEN
100
AcDbLine
 62
7
  6
CONTINUOUS
 10
187.6814670641
 20
44.5962153633
 11
187.8489657135
 21
44.8033949733
  0
LINE
  5
4A9
100
AcDbEntity
  8
RUNDUNGEN
100
AcDbLine
 62
7
  6
CONTINUOUS
 10
187.5689317699
 20
44.4806801151
 11
187.5699283234
 21
44.4816365516
  0
LINE
  5
4AA
100
AcDbEntity
  8
RUNDUNGEN
100
AcDbLine
 62
7
  6
CONTINUOUS
 10
187.568972083
 20
25.3082502688
 11
187.5700589405
 21
25.3072070948
  0
LWPOLYLINE
  5
4AB
100
AcDbEntity
  8
RUNDUNGEN
100
AcDbPolyline
 62
7
  6
CONTINUOUS
 90
5
 70
0
 10
187.6758971053
 20
25.1988221277
 10
187.4347824327
 20
25.4461995851
 10
187.2562658753
 20
25.6585868672
 10
187.0726902194
 20
25.9123804222
 10
186.8883471822
 20
26.2055832974
  0
LINE
  5
4AC
100
AcDbEntity
  8
RUNDUNGEN
100
AcDbLine
 62
7
  6
CONTINUOUS
 10
187.8449402432
 20
24.9911305316
 11
187.6758971053
 21
25.1988221277
  0
LINE
  5
4AD
100
AcDbEntity
  8
0
100
AcDbLine
 62
7
  6
CONTINUOUS
 10
179.5983123888
 20
29.0347577032
 11
179.5983123888
 21
27.8944643126
  0
LINE
  5
4AE
100
AcDbEntity
  8
RUNDUNGEN
100
AcDbLine
 62
7
  6
CONTINUOUS
 10
186.576768674
 20
42.9900694882
 11
186.7105733331
 21
43.2609791215
  0
LWPOLYLINE
  5
4AF
100
AcDbEntity
  8
RUNDUNGEN
100
AcDbPolyline
 62
7
  6
CONTINUOUS
 90
6
 70
0
 10
186.7105733331
 20
43.2609791215
 10
186.8921178209
 20
43.5897481322
 10
187.0764140593
 20
43.8820654738
 10
187.2598949074
 20
44.1349922695
 10
187.4382556039
 20
44.3465333101
 10
187.6814670641
 20
44.5962153633
  0
LINE
  5
4B0
100
AcDbEntity
  8
RUNDUNGEN
100
AcDbLine
 62
7
  6
CONTINUOUS
 10
187.8489657135
 20
44.8033949733
 11
187.9888190565
 21
45.0242607137
  0
LINE
  5
4B1
100
AcDbEntity
  8
KONSTRUKTIONSELEMENTE
100
AcDbLine
 62
7
  6
CONTINUOUS
 10
207.429560446
 20
38.8944643126
 11
206.3937017435
 21
38.8944643126
  0
LINE
  5
4B2
100
AcDbEntity
  8
KONSTRUKTIONSELEMENTE
100
AcDbLine
 62
7
  6
CONTINUOUS
 10
145.1378022309
 20
38.8944643126
 11
144.1019435284
 21
38.8944643126
  0
LINE
  5
4B3
100
AcDbEntity
  8
RUNDUNGEN
100
AcDbLine
 62
7
  6
CONTINUOUS
 10
187.9860364541
 20
24.7696693024
 11
187.8449402432
 21
24.9911305316
  0
LWPOLYLINE
  5
4B4
100
AcDbEntity
  8
RUNDUNGEN
100
AcDbPolyline
 62
7
  6
CONTINUOUS
 90
3
 70
0
 10
186.8883471822
 20
26.2055832974
 10
186.7067910885
 20
26.5352605957
 10
186.5768617948
 20
26.7986615267
  0
LINE
  5
4B5
100
AcDbEntity
  8
0
100
AcDbLine
 62
7
  6
CONTINUOUS
 10
182.7181557466
 20
29.0294191827
 11
182.7181557466
 21
27.8944643126
  0
LINE
  5
4B6
100
AcDbEntity
  8
0
100
AcDbLine
 62
7
  6
CONTINUOUS
 10
183.6517102437
 20
28.4666779923
 11
183.6517102437
 21
27.8944643126
  0
LINE
  5
4B7
100
AcDbEntity
  8
0
100
AcDbLine
 62
7
  6
CONTINUOUS
 10
183.7889308799
 20
28.5359486158
 11
183.7889308799
 21
27.8944643126
  0
LINE
  5
4B8
100
AcDbEntity
  8
0
100
AcDbLine
 62
7
  6
CONTINUOUS
 10
184.4891375647
 20
28.5312798596
 11
184.4891375647
 21
27.8944643126
  0
LINE
  5
4B9
100
AcDbEntity
  8
0
100
AcDbLine
 62
7
  6
CONTINUOUS
 10
184.7635789333
 20
28.7404803712
 11
184.7635789333
 21
27.8944643126
  0
LWPOLYLINE
  5
4BA
100
AcDbEntity
  8
RUNDUNGEN
100
AcDbPolyline
 62
7
  6
CONTINUOUS
 90
6
 70
0
 10
187.9888190565
 20
45.0242607137
 10
188.1007920692
 20
45.2569816212
 10
188.1842193116
 20
45.4987590914
 10
188.2388830581
 20
45.7479360388
 10
188.2640785559
 20
46.002842694
 10
188.2657636906
 20
46.0860247938
  0
LINE
  5
4BB
100
AcDbEntity
  8
KONSTRUKTIONSELEMENTE
100
AcDbLine
 62
7
  6
CONTINUOUS
 10
199.4233878463
 20
41.3944643126
 11
152.1082392613
 21
41.3944643126
  0
LINE
  5
4BC
100
AcDbEntity
  8
0
100
AcDbLine
 62
7
  6
CONTINUOUS
 10
201.4161776355
 20
41.5507143126
 11
201.6743767276
 21
41.5507143126
  0
LINE
  5
4BD
100
AcDbEntity
  8
0
100
AcDbLine
 62
7
  6
CONTINUOUS
 10
201.269477266
 20
42.0923804627
 11
201.5291466217
 21
42.0923804627
  0
LINE
  5
4BE
100
AcDbEntity
  8
0
100
AcDbLine
 62
7
  6
CONTINUOUS
 10
201.1914825261
 20
42.3632143126
 11
201.4519403661
 21
42.3632143126
  0
LINE
  5
4BF
100
AcDbEntity
  8
0
100
AcDbLine
 62
7
  6
CONTINUOUS
 10
201.151312
 20
42.4986304627
 11
201.4121778037
 21
42.4986304627
  0
LINE
  5
4C0
100
AcDbEntity
  8
RUNDUNGEN
100
AcDbLine
 62
7
  6
CONTINUOUS
 10
188.0990188661
 20
24.5362449275
 11
187.9860364541
 21
24.7696693024
  0
LWPOLYLINE
  5
4C1
100
AcDbEntity
  8
RUNDUNGEN
100
AcDbPolyline
 62
7
  6
CONTINUOUS
 90
5
 70
0
 10
188.265763698
 20
23.7029253607
 10
188.2640260154
 20
23.7874076373
 10
188.2384836514
 20
24.0434987423
 10
188.1832376301
 20
24.2936482947
 10
188.0990188661
 20
24.5362449275
  0
LINE
  5
4C2
100
AcDbEntity
  8
0
100
AcDbLine
 62
7
  6
CONTINUOUS
 10
185.2012066088
 20
28.7396219147
 11
185.2012066088
 21
27.8944643126
  0
LINE
  5
4C3
100
AcDbEntity
  8
0
100
AcDbLine
 62
7
  6
CONTINUOUS
 10
185.8895469277
 20
28.5359486158
 11
185.8895469277
 21
27.8944643126
  0
LINE
  5
4C4
100
AcDbEntity
  8
0
100
AcDbLine
 62
7
  6
CONTINUOUS
 10
186.2217981717
 20
28.3952632761
 11
186.2217981717
 21
27.8944643126
  0
LINE
  5
4C5
100
AcDbEntity
  8
0
100
AcDbLine
 62
7
  6
CONTINUOUS
 10
186.443877158
 20
28.4053837305
 11
186.443877158
 21
27.8944643126
  0
LINE
  5
4C6
100
AcDbEntity
  8
0
100
AcDbLine
 62
7
  6
CONTINUOUS
 10
187.6066051636
 20
28.4052289535
 11
187.6066051636
 21
27.8944643126
  0
LINE
  5
4C7
100
AcDbEntity
  8
0
100
AcDbLine
 62
7
  6
CONTINUOUS
 10
200.181261408
 20
45.1965466128
 11
200.4523799521
 21
45.1965466128
  0
LINE
  5
4C8
100
AcDbEntity
  8
0
100
AcDbLine
 62
7
  6
CONTINUOUS
 10
200.0652048887
 20
45.4673820124
 11
200.3376039995
 21
45.4673820124
  0
LINE
  5
4C9
100
AcDbEntity
  8
0
100
AcDbLine
 62
7
  6
CONTINUOUS
 10
199.5645300217
 20
46.5507143126
 11
199.8425943038
 21
46.5507143126
  0
LINE
  5
4CA
100
AcDbEntity
  8
0
100
AcDbLine
 62
7
  6
CONTINUOUS
 10
188.2657519872
 20
23.1364882963
 11
188.2657519872
 21
14.3944643126
  0
LINE
  5
4CB
100
AcDbEntity
  8
RUNDUNGEN
100
AcDbLine
 62
7
  6
CONTINUOUS
 10
188.2657519872
 20
13.0770377355
 11
188.2657519872
 21
25.1476274135
  0
LINE
  5
4CC
100
AcDbEntity
  8
RUNDUNGEN
100
AcDbLine
 62
7
  6
CONTINUOUS
 10
188.2657519872
 20
44.64129948
 11
188.2657519872
 21
56.7118974169
  0
LINE
  5
4CD
100
AcDbEntity
  8
0
100
AcDbLine
 62
7
  6
CONTINUOUS
 10
189.9310603606
 20
29.0361945432
 11
189.9310603606
 21
27.8944643126
  0
LINE
  5
4CE
100
AcDbEntity
  8
0
100
AcDbLine
 62
7
  6
CONTINUOUS
 10
199.0026416848
 20
47.6340466128
 11
199.2873493568
 21
47.6340466128
  0
LINE
  5
4CF
100
AcDbEntity
  8
0
100
AcDbLine
 62
7
  6
CONTINUOUS
 10
198.6183892055
 20
48.3111320124
 11
198.9078246652
 21
48.3111320124
  0
LINE
  5
4D0
100
AcDbEntity
  8
0
100
AcDbLine
 62
7
  6
CONTINUOUS
 10
163.2657519872
 20
49.2544643126
 11
162.7657519872
 21
49.2544643126
  0
LINE
  5
4D1
100
AcDbEntity
  8
0
100
AcDbLine
 62
7
  6
CONTINUOUS
 10
163.2657519872
 20
49.3395706929
 11
162.7657519872
 21
49.3395706929
  0
LINE
  5
4D2
100
AcDbEntity
  8
0
100
AcDbLine
 62
7
  6
CONTINUOUS
 10
163.2657519872
 20
49.5948898337
 11
162.7657519872
 21
49.5948898337
  0
LINE
  5
4D3
100
AcDbEntity
  8
0
100
AcDbLine
 62
7
  6
CONTINUOUS
 10
197.6758800319
 20
49.8007143126
 11
197.977600423
 21
49.8007143126
  0
LINE
  5
4D4
100
AcDbEntity
  8
0
100
AcDbLine
 62
7
  6
CONTINUOUS
 10
163.2657519872
 20
49.850208982
 11
162.7657519872
 21
49.850208982
  0
LINE
  5
4D5
100
AcDbEntity
  8
0
100
AcDbLine
 62
7
  6
CONTINUOUS
 10
191.7606567393
 20
29.0118665506
 11
191.7606567393
 21
27.8944643126
  0
LINE
  5
4D6
100
AcDbEntity
  8
0
100
AcDbLine
 62
7
  6
CONTINUOUS
 10
192.0860957568
 20
28.9737696062
 11
192.0860957568
 21
27.8944643126
  0
LINE
  5
4D7
100
AcDbEntity
  8
0
100
AcDbLine
 62
7
  6
CONTINUOUS
 10
192.2238431495
 20
28.8585611239
 11
192.2238431495
 21
27.8944643126
  0
LINE
  5
4D8
100
AcDbEntity
  8
0
100
AcDbLine
 62
7
  6
CONTINUOUS
 10
192.2296304649
 20
28.7247930586
 11
192.2296304649
 21
27.8944643126
  0
LINE
  5
4D9
100
AcDbEntity
  8
0
100
AcDbLine
 62
7
  6
CONTINUOUS
 10
163.2657519872
 20
50.2757409058
 11
162.7657519872
 21
50.2757409058
  0
LINE
  5
4DA
100
AcDbEntity
  8
0
100
AcDbLine
 62
7
  6
CONTINUOUS
 10
163.2657519872
 20
50.5310600243
 11
162.7657519872
 21
50.5310600243
  0
LINE
  5
4DB
100
AcDbEntity
  8
0
100
AcDbLine
 62
7
  6
CONTINUOUS
 10
163.2657519872
 20
50.9565920077
 11
162.7657519872
 21
50.9565920077
  0
LINE
  5
4DC
100
AcDbEntity
  8
0
100
AcDbLine
 62
7
  6
CONTINUOUS
 10
163.2657519872
 20
51.2119111262
 11
162.7657519872
 21
51.2119111262
  0
LINE
  5
4DD
100
AcDbEntity
  8
0
100
AcDbLine
 62
7
  6
CONTINUOUS
 10
163.2657519872
 20
51.297017499
 11
162.7657519872
 21
51.297017499
  0
LINE
  5
4DE
100
AcDbEntity
  8
0
100
AcDbLine
 62
7
  6
CONTINUOUS
 10
163.2657519872
 20
51.3821238718
 11
162.7657519872
 21
51.3821238718
  0
LINE
  5
4DF
100
AcDbEntity
  8
0
100
AcDbLine
 62
7
  6
CONTINUOUS
 10
163.2657519872
 20
51.6374429903
 11
162.7657519872
 21
51.6374429903
  0
LINE
  5
4E0
100
AcDbEntity
  8
0
100
AcDbLine
 62
7
  6
CONTINUOUS
 10
163.2657519872
 20
51.9778684817
 11
162.7657519872
 21
51.9778684817
  0
LINE
  5
4E1
100
AcDbEntity
  8
0
100
AcDbLine
 62
7
  6
CONTINUOUS
 10
163.2657519872
 20
52.2331876002
 11
162.7657519872
 21
52.2331876002
  0
LINE
  5
4E2
100
AcDbEntity
  8
0
100
AcDbLine
 62
7
  6
CONTINUOUS
 10
163.2657519872
 20
52.6587197027
 11
162.7657519872
 21
52.6587197027
  0
LINE
  5
4E3
100
AcDbEntity
  8
0
100
AcDbLine
 62
7
  6
CONTINUOUS
 10
163.2657519872
 20
52.9140388212
 11
162.7657519872
 21
52.9140388212
  0
LINE
  5
4E4
100
AcDbEntity
  8
0
100
AcDbLine
 62
7
  6
CONTINUOUS
 10
163.2657519872
 20
53.1693579397
 11
162.7657519872
 21
53.1693579397
  0
LINE
  5
4E5
100
AcDbEntity
  8
0
100
AcDbLine
 62
7
  6
CONTINUOUS
 10
163.2657519872
 20
53.2544643126
 11
162.7657519872
 21
53.2544643126
  0
LINE
  5
4E6
100
AcDbEntity
  8
RUNDUNGEN
100
AcDbLine
 62
7
  6
CONTINUOUS
 10
165.7657519872
 20
57.8944643126
 11
185.7657519872
 21
57.8944643126
  0
ARC
  5
4E7
100
AcDbEntity
  8
RUNDUNGEN
100
AcDbCircle
 62
7
  6
CONTINUOUS
 10
158.2657519872
 20
156.3120356897
 40
5.0
100
AcDbArc
 50
270.0016448559
 51
360.0
  0
ARC
  5
4E8
100
AcDbEntity
  8
RUNDUNGEN
100
AcDbCircle
 62
7
  6
CONTINUOUS
 10
151.7657519872
 20
148.8120356897
 40
2.5
100
AcDbArc
 50
90.0
 51
180.0
  0
ARC
  5
4E9
100
AcDbEntity
  8
KONSTRUKTIONSELEMENTE
100
AcDbCircle
 62
7
  6
CONTINUOUS
 10
98.306085063
 20
211.9120356897
 40
110.5
100
AcDbArc
 50
345.5224878141
 51
14.4775121859
  0
ARC
  5
4EA
100
AcDbEntity
  8
KONSTRUKTIONSELEMENTE
100
AcDbCircle
 62
7
  6
CONTINUOUS
 10
98.306085063
 20
211.9120356897
 40
109.123475383
100
AcDbArc
 50
352.0991659289
 51
7.9008340711
  0
ARC
  5
4EB
100
AcDbEntity
  8
KONSTRUKTIONSELEMENTE
100
AcDbCircle
 62
7
  6
CONTINUOUS
 10
98.306085063
 20
211.9120356897
 40
98.876524617
100
AcDbArc
 50
351.2742902858
 51
8.7257097142
  0
ARC
  5
4EC
100
AcDbEntity
  8
KONSTRUKTIONSELEMENTE
100
AcDbCircle
 62
7
  6
CONTINUOUS
 10
98.306085063
 20
211.9120356897
 40
97.5
100
AcDbArc
 50
345.5224878141
 51
14.4775121859
  0
ARC
  5
4ED
100
AcDbEntity
  8
RUNDUNGEN
100
AcDbCircle
 62
7
  6
CONTINUOUS
 10
175.7657519872
 20
179.3120356897
 40
12.5
100
AcDbArc
 50
0.0
 51
180.0
  0
ARC
  5
4EE
100
AcDbEntity
  8
RUNDUNGEN
100
AcDbCircle
 62
7
  6
CONTINUOUS
 10
193.2657519872
 20
156.3120356897
 40
5.0
100
AcDbArc
 50
180.0
 51
269.9981547614
  0
ARC
  5
4EF
100
AcDbEntity
  8
RUNDUNGEN
100
AcDbCircle
 62
7
  6
CONTINUOUS
 10
199.7657519872
 20
148.8120356897
 40
2.5
100
AcDbArc
 50
0.0
 51
90.0
  0
ARC
  5
4F0
100
AcDbEntity
  8
KONSTRUKTIONSELEMENTE
100
AcDbCircle
 62
7
  6
CONTINUOUS
 10
253.2254189113
 20
211.9120356897
 40
110.5
100
AcDbArc
 50
165.5224878141
 51
194.4775121859
  0
ARC
  5
4F1
100
AcDbEntity
  8
KONSTRUKTIONSELEMENTE
100
AcDbCircle
 62
7
  6
CONTINUOUS
 10
253.2254189113
 20
211.9120356897
 40
109.123475383
100
AcDbArc
 50
172.0991659289
 51
187.9008340711
  0
ARC
  5
4F2
100
AcDbEntity
  8
KONSTRUKTIONSELEMENTE
100
AcDbCircle
 62
7
  6
CONTINUOUS
 10
253.2254189113
 20
211.9120356897
 40
98.876524617
100
AcDbArc
 50
171.2742902858
 51
188.7257097142
  0
ARC
  5
4F3
100
AcDbEntity
  8
KONSTRUKTIONSELEMENTE
100
AcDbCircle
 62
7
  6
CONTINUOUS
 10
253.2254189113
 20
211.9120356897
 40
97.5
100
AcDbArc
 50
165.5224878141
 51
194.4775121859
  0
ARC
  5
4F4
100
AcDbEntity
  8
KONSTRUKTIONSELEMENTE
100
AcDbCircle
 62
7
  6
CONTINUOUS
 10
175.7657519872
 20
191.9120356897
 40
30.5
100
AcDbArc
 50
194.4775121859
 51
245.7918054698
  0
ARC
  5
4F5
100
AcDbEntity
  8
KONSTRUKTIONSELEMENTE
100
AcDbCircle
 62
7
  6
CONTINUOUS
 10
175.7657519872
 20
191.9120356897
 40
30.5
100
AcDbArc
 50
294.2081945302
 51
345.5224878141
  0
ARC
  5
4F6
100
AcDbEntity
  8
KONSTRUKTIONSELEMENTE
100
AcDbCircle
 62
7
  6
CONTINUOUS
 10
175.7657519872
 20
231.9120356897
 40
30.5
100
AcDbArc
 50
14.4775121859
 51
165.5224878141
  0
ARC
  5
4F7
100
AcDbEntity
  8
KONSTRUKTIONSELEMENTE
100
AcDbCircle
 62
7
  6
CONTINUOUS
 10
175.7657519872
 20
231.9120356897
 40
17.5
100
AcDbArc
 50
14.4775121859
 51
165.5224878141
  0
ARC
  5
4F8
100
AcDbEntity
  8
KONSTRUKTIONSELEMENTE
100
AcDbCircle
 62
7
  6
CONTINUOUS
 10
175.7657519872
 20
191.9120356897
 40
17.5
100
AcDbArc
 50
194.4775121859
 51
224.4662970067
  0
ARC
  5
4F9
100
AcDbEntity
  8
KONSTRUKTIONSELEMENTE
100
AcDbCircle
 62
7
  6
CONTINUOUS
 10
175.7657519872
 20
191.9120356897
 40
17.5
100
AcDbArc
 50
315.5337029934
 51
345.5224878141
  0
ARC
  5
4FA
100
AcDbEntity
  8
RUNDUNGEN
100
AcDbCircle
 62
7
  6
CONTINUOUS
 10
267.3328701698
 20
184.993263586
 40
4.0
100
AcDbArc
 50
140.0
 51
179.9998253539
  0
ARC
  5
4FB
100
AcDbEntity
  8
RUNDUNGEN
100
AcDbCircle
 62
7
  6
CONTINUOUS
 10
259.8328701698
 20
173.8120356897
 40
3.5
100
AcDbArc
 50
330.0
 51
360.0
  0
ARC
  5
4FC
100
AcDbEntity
  8
RUNDUNGEN
100
AcDbCircle
 62
7
  6
CONTINUOUS
 10
262.8328749092
 20
166.0081963213
 40
3.0
100
AcDbArc
 50
150.0001810322
 51
180.0001567782
  0
ARC
  5
4FD
100
AcDbEntity
  8
RUNDUNGEN
100
AcDbCircle
 62
7
  6
CONTINUOUS
 10
274.5748941535
 20
189.3120356897
 40
2.5
100
AcDbArc
 50
56.8465915844
 51
90.0
  0
ARC
  5
4FE
100
AcDbEntity
  8
RUNDUNGEN
100
AcDbCircle
 62
7
  6
CONTINUOUS
 10
268.9986021949
 20
189.3119914515
 40
2.5
100
AcDbArc
 50
90.0013321064
 51
140.0
  0
ARC
  5
4FF
100
AcDbEntity
  8
0
100
AcDbCircle
 62
7
  6
CONTINUOUS
 10
272.3088661844
 20
253.405933938
 40
19.9089982631
100
AcDbArc
 50
357.030958424
 51
0.8890122754
  0
ARC
  5
500
100
AcDbEntity
  8
0
100
AcDbCircle
 62
7
  6
CONTINUOUS
 10
281.653168358
 20
256.0242972491
 40
10.5646902427
100
AcDbArc
 50
355.9242447233
 51
1.2189260937
  0
ARC
  5
501
100
AcDbEntity
  8
0
100
AcDbCircle
 62
7
  6
CONTINUOUS
 10
284.1418444234
 20
255.3401234384
 40
8.235591315
100
AcDbArc
 50
348.6179906498
 51
350.050055787
  0
ARC
  5
502
100
AcDbEntity
  8
0
100
AcDbCircle
 62
7
  6
CONTINUOUS
 10
285.6852480589
 20
255.7659532948
 40
7.105818519
100
AcDbArc
 50
17.2084567942
 51
20.6562177937
  0
ARC
  5
503
100
AcDbEntity
  8
0
100
AcDbCircle
 62
7
  6
CONTINUOUS
 10
286.0353160263
 20
255.6949051798
 40
6.7946040486
100
AcDbArc
 50
15.2348768256
 51
18.6542420928
  0
ARC
  5
504
100
AcDbEntity
  8
0
100
AcDbCircle
 62
7
  6
CONTINUOUS
 10
286.1421183505
 20
255.8994783501
 40
6.6889784411
100
AcDbArc
 50
4.000102034
 51
9.9561603919
  0
ARC
  5
505
100
AcDbEntity
  8
0
100
AcDbCircle
 62
7
  6
CONTINUOUS
 10
286.298077581
 20
255.9108653888
 40
6.5334181291
100
AcDbArc
 50
10.0942733314
 51
13.6196315585
  0
ARC
  5
506
100
AcDbEntity
  8
0
100
AcDbCircle
 62
7
  6
CONTINUOUS
 10
286.3328701698
 20
207.3120356897
 40
19.0
100
AcDbArc
 50
288.5391665278
 51
303.1534084156
  0
ARC
  5
507
100
AcDbEntity
  8
0
100
AcDbCircle
 62
7
  6
CONTINUOUS
 10
286.3328701698
 20
207.3120356897
 40
19.0
100
AcDbArc
 50
236.8465915844
 51
251.4608334722
  0
ARC
  5
508
100
AcDbEntity
  8
RUNDUNGEN
100
AcDbCircle
 62
7
  6
CONTINUOUS
 10
286.3328701698
 20
163.3120356897
 40
10.0
100
AcDbArc
 50
138.0
 51
42.0
  0
ARC
  5
509
100
AcDbEntity
  8
KONSTRUKTIONSELEMENTE
100
AcDbCircle
 62
7
  6
CONTINUOUS
 10
286.3328701698
 20
167.9120356897
 40
6.5
100
AcDbArc
 50
180.0
 51
360.0
  0
ARC
  5
50A
100
AcDbEntity
  8
RUNDUNGEN
100
AcDbCircle
 62
7
  6
CONTINUOUS
 10
305.3328701698
 20
184.993263586
 40
4.0
100
AcDbArc
 50
0.0002078953
 51
39.9962726921
  0
ARC
  5
50B
100
AcDbEntity
  8
RUNDUNGEN
100
AcDbCircle
 62
7
  6
CONTINUOUS
 10
312.8328701698
 20
173.8120356897
 40
3.5
100
AcDbArc
 50
180.0
 51
210.0
  0
ARC
  5
50C
100
AcDbEntity
  8
RUNDUNGEN
100
AcDbCircle
 62
7
  6
CONTINUOUS
 10
309.8328653939
 20
166.0081963846
 40
3.0
100
AcDbArc
 50
359.9998420128
 51
29.9998175717
  0
ARC
  5
50D
100
AcDbEntity
  8
RUNDUNGEN
100
AcDbCircle
 62
7
  6
CONTINUOUS
 10
298.0908461861
 20
189.3120356897
 40
2.5
100
AcDbArc
 50
90.0
 51
123.1534084156
  0
ARC
  5
50E
100
AcDbEntity
  8
RUNDUNGEN
100
AcDbCircle
 62
7
  6
CONTINUOUS
 10
303.667138367
 20
189.3119911865
 40
2.5
100
AcDbArc
 50
40.0
 51
89.9986596165
  0
ARC
  5
50F
100
AcDbEntity
  8
0
100
AcDbCircle
 62
7
  6
CONTINUOUS
 10
303.6614580593
 20
172.2219446435
 40
2.5
100
AcDbArc
 50
174.2608295227
 51
357.6842941627
  0
ARC
  5
510
100
AcDbEntity
  8
0
100
AcDbCircle
 62
7
  6
CONTINUOUS
 10
303.6614580593
 20
167.9719446435
 40
2.5
100
AcDbArc
 50
174.2608295227
 51
357.6842941627
  0
ARC
  5
511
100
AcDbEntity
  8
0
100
AcDbCircle
 62
7
  6
CONTINUOUS
 10
303.6614580593
 20
172.2219446435
 40
1.75
100
AcDbArc
 50
282.5412744583
 51
8.2132107017
  0
ARC
  5
512
100
AcDbEntity
  8
0
100
AcDbCircle
 62
7
  6
CONTINUOUS
 10
303.6614580593
 20
172.2219446435
 40
1.75
100
AcDbArc
 50
171.7867892983
 51
257.6123707416
  0
ARC
  5
513
100
AcDbEntity
  8
0
100
AcDbCircle
 62
7
  6
CONTINUOUS
 10
303.6614580593
 20
167.9719446435
 40
1.75
100
AcDbArc
 50
180.8223838046
 51
8.2132107017
  0
ARC
  5
514
100
AcDbEntity
  8
KONSTRUKTIONSELEMENTE
100
AcDbCircle
 62
7
  6
CONTINUOUS
 10
286.3328701698
 20
255.9120356897
 40
6.5
100
AcDbArc
 50
24.8906509874
 51
180.0
  0
ARC
  5
515
100
AcDbEntity
  8
0
100
AcDbCircle
 62
7
  6
CONTINUOUS
 10
286.3427287106
 20
255.9104403703
 40
6.4901318528
100
AcDbArc
 50
13.7160992949
 51
13.9984784714
  0
ARC
  5
516
100
AcDbEntity
  8
0
100
AcDbCircle
 62
7
  6
CONTINUOUS
 10
286.3801310869
 20
256.2362275231
 40
6.2927323745
100
AcDbArc
 50
18.8812167507
 51
20.9463846633
  0
ARC
  5
517
100
AcDbEntity
  8
0
100
AcDbCircle
 62
7
  6
CONTINUOUS
 10
289.3431064627
 20
257.2491712747
 40
3.0415012984
100
AcDbArc
 50
340.8022633423
 51
343.1200143354
  0
ARC
  5
518
100
AcDbEntity
  8
0
100
AcDbCircle
 62
7
  6
CONTINUOUS
 10
290.0501809768
 20
257.9127757171
 40
2.2800224867
100
AcDbArc
 50
14.556980709
 51
18.0720866128
  0
ARC
  5
519
100
AcDbEntity
  8
0
100
AcDbCircle
 62
7
  6
CONTINUOUS
 10
292.0193067515
 20
258.6255822998
 40
0.1984928853
100
AcDbArc
 50
358.4083769101
 51
4.788917086
  0
ARC
  5
51A
100
AcDbEntity
  8
0
100
AcDbCircle
 62
7
  6
CONTINUOUS
 10
147.7657519872
 20
34.8944643126
 40
19.0
100
AcDbArc
 50
326.8465915844
 51
337.4998012636
  0
ARC
  5
51B
100
AcDbEntity
  8
0
100
AcDbCircle
 62
7
  6
CONTINUOUS
 10
147.7657519872
 20
34.8944643126
 40
19.0
100
AcDbArc
 50
22.5001987364
 51
33.1534084156
  0
ARC
  5
51C
100
AcDbEntity
  8
RUNDUNGEN
100
AcDbCircle
 62
7
  6
CONTINUOUS
 10
147.7657519872
 20
34.8944643126
 40
19.0
100
AcDbArc
 50
22.5001987364
 51
33.1534084156
  0
ARC
  5
51D
100
AcDbEntity
  8
RUNDUNGEN
100
AcDbCircle
 62
7
  6
CONTINUOUS
 10
147.7657519872
 20
34.8944643126
 40
19.0
100
AcDbArc
 50
326.8465915844
 51
337.4998012636
  0
ARC
  5
51E
100
AcDbEntity
  8
KONSTRUKTIONSELEMENTE
100
AcDbCircle
 62
7
  6
CONTINUOUS
 10
152.1112134847
 20
34.2936187563
 40
7.1008195819
100
AcDbArc
 50
89.9885755638
 51
91.244726748
  0
ARC
  5
51F
100
AcDbEntity
  8
KONSTRUKTIONSELEMENTE
100
AcDbCircle
 62
7
  6
CONTINUOUS
 10
152.1110382641
 20
35.4822678829
 40
7.0877784622
100
AcDbArc
 50
268.757445212
 51
270.0128145716
  0
ARC
  5
520
100
AcDbEntity
  8
KONSTRUKTIONSELEMENTE
100
AcDbCircle
 62
7
  6
CONTINUOUS
 10
152.1107756209
 20
34.4620426859
 40
6.9323957589
100
AcDbArc
 50
89.8556648437
 51
89.9846790903
  0
ARC
  5
521
100
AcDbEntity
  8
KONSTRUKTIONSELEMENTE
100
AcDbCircle
 62
7
  6
CONTINUOUS
 10
152.1106334949
 20
35.3247135912
 40
6.9302242789
100
AcDbArc
 50
270.016452341
 51
270.1379775247
  0
ARC
  5
522
100
AcDbEntity
  8
KONSTRUKTIONSELEMENTE
100
AcDbCircle
 62
7
  6
CONTINUOUS
 10
149.2254189113
 20
34.8944643126
 40
6.5
100
AcDbArc
 50
142.0201275551
 51
217.9798724449
  0
ARC
  5
523
100
AcDbEntity
  8
0
100
AcDbCircle
 62
7
  6
CONTINUOUS
 10
159.8247884896
 20
65.2001557339
 40
36.1906886761
100
AcDbArc
 50
267.7978601938
 51
270.6597838278
  0
ARC
  5
524
100
AcDbEntity
  8
RUNDUNGEN
100
AcDbCircle
 62
7
  6
CONTINUOUS
 10
165.7657519872
 20
23.1364882963
 40
2.5
100
AcDbArc
 50
146.8465915844
 51
180.0
  0
ARC
  5
525
100
AcDbEntity
  8
RUNDUNGEN
100
AcDbCircle
 62
7
  6
CONTINUOUS
 10
165.7657519872
 20
14.3944643126
 40
2.5
100
AcDbArc
 50
180.0
 51
270.0
  0
ARC
  5
526
100
AcDbEntity
  8
RUNDUNGEN
100
AcDbCircle
 62
7
  6
CONTINUOUS
 10
165.7657088158
 20
13.0770476208
 40
2.4999856095
100
AcDbArc
 50
180.0001727517
 51
245.3749659526
  0
ARC
  5
527
100
AcDbEntity
  8
RUNDUNGEN
100
AcDbCircle
 62
7
  6
CONTINUOUS
 10
166.9824186539
 20
26.9345822643
 40
1.8
100
AcDbArc
 50
147.7531927139
 51
157.4998635246
  0
ARC
  5
528
100
AcDbEntity
  8
0
100
AcDbCircle
 62
7
  6
CONTINUOUS
 10
169.8942120675
 20
44.7751539401
 40
16.1991710794
100
AcDbArc
 50
281.3551779167
 51
282.6681213731
  0
ARC
  5
529
100
AcDbEntity
  8
0
100
AcDbCircle
 62
7
  6
CONTINUOUS
 10
164.33138942
 20
42.9373410502
 40
14.4343285537
100
AcDbArc
 50
255.326786898
 51
257.2566278546
  0
ARC
  5
52A
100
AcDbEntity
  8
0
100
AcDbCircle
 62
7
  6
CONTINUOUS
 10
168.6790032956
 20
42.3914085239
 40
13.8891375392
100
AcDbArc
 50
255.028114178
 51
256.9942714469
  0
ARC
  5
52B
100
AcDbEntity
  8
0
100
AcDbCircle
 62
7
  6
CONTINUOUS
 10
163.8952919741
 20
37.3478676903
 40
8.9229615715
100
AcDbArc
 50
252.0638148409
 51
255.1034466454
  0
ARC
  5
52C
100
AcDbEntity
  8
0
100
AcDbCircle
 62
7
  6
CONTINUOUS
 10
168.1241756647
 20
36.1962848519
 40
7.7750706919
100
AcDbArc
 50
250.6911861876
 51
253.9363375854
  0
ARC
  5
52D
100
AcDbEntity
  8
0
100
AcDbCircle
 62
7
  6
CONTINUOUS
 10
163.4229117775
 20
33.5451608537
 40
5.1530341462
100
AcDbArc
 50
249.2997720695
 51
252.2018288888
  0
ARC
  5
52E
100
AcDbEntity
  8
0
100
AcDbCircle
 62
7
  6
CONTINUOUS
 10
167.5790934221
 20
32.3303767409
 40
3.9472141976
100
AcDbArc
 50
245.9865876664
 51
249.2681354353
  0
ARC
  5
52F
100
AcDbEntity
  8
0
100
AcDbCircle
 62
7
  6
CONTINUOUS
 10
162.9947069525
 20
31.0599873673
 40
2.6791299397
100
AcDbArc
 50
244.6538722257
 51
249.94363977
  0
ARC
  5
530
100
AcDbEntity
  8
RUNDUNGEN
100
AcDbCircle
 62
7
  6
CONTINUOUS
 10
165.7657519872
 20
46.6524403289
 40
2.5
100
AcDbArc
 50
180.0
 51
213.1534084157
  0
ARC
  5
531
100
AcDbEntity
  8
RUNDUNGEN
100
AcDbCircle
 62
7
  6
CONTINUOUS
 10
166.9824186539
 20
42.8543463608
 40
1.8
100
AcDbArc
 50
202.5001224707
 51
234.3146652873
  0
ARC
  5
532
100
AcDbEntity
  8
0
100
AcDbCircle
 62
7
  6
CONTINUOUS
 10
176.8851876542
 20
29.6780598117
 40
1.4078974087
100
AcDbArc
 50
225.9960873156
 51
227.6309533312
  0
ARC
  5
533
100
AcDbEntity
  8
FASEN
100
AcDbCircle
 62
7
  6
CONTINUOUS
 10
175.7657519872
 20
34.8944643126
 40
30.0
100
AcDbArc
 50
188.9809423432
 51
351.0190743612
  0
ARC
  5
534
100
AcDbEntity
  8
FASEN
100
AcDbCircle
 62
7
  6
CONTINUOUS
 10
175.7657519872
 20
34.8944643126
 40
30.0
100
AcDbArc
 50
8.9809258303
 51
171.0190567867
  0
ARC
  5
535
100
AcDbEntity
  8
FASEN
100
AcDbCircle
 62
7
  6
CONTINUOUS
 10
175.7657519872
 20
34.8944643126
 40
29.5
100
AcDbArc
 50
9.7621413216
 51
170.2378585917
  0
ARC
  5
536
100
AcDbEntity
  8
FASEN
100
AcDbCircle
 62
7
  6
CONTINUOUS
 10
175.7657519872
 20
34.8944643126
 40
29.5
100
AcDbArc
 50
189.7621412891
 51
350.2378586119
  0
ARC
  5
537
100
AcDbEntity
  8
0
100
AcDbCircle
 62
7
  6
CONTINUOUS
 10
175.7657519872
 20
34.8944643126
 40
26.75
100
AcDbArc
 50
25.8328784155
 51
33.8653457931
  0
ARC
  5
538
100
AcDbEntity
  8
0
100
AcDbCircle
 62
7
  6
CONTINUOUS
 10
175.7657519872
 20
34.8944643126
 40
26.75
100
AcDbArc
 50
317.7089324571
 51
330.9487402983
  0
ARC
  5
539
100
AcDbEntity
  8
0
100
AcDbCircle
 62
7
  6
CONTINUOUS
 10
175.7657519872
 20
34.8944643126
 40
26.75
100
AcDbArc
 50
13.3408919551
 51
23.2815206619
  0
ARC
  5
53A
100
AcDbEntity
  8
0
100
AcDbCircle
 62
7
  6
CONTINUOUS
 10
175.7657519872
 20
34.8944643126
 40
26.75
100
AcDbArc
 50
333.5706816676
 51
346.6590627778
  0
ARC
  5
53B
100
AcDbEntity
  8
RUNDUNGEN
100
AcDbCircle
 62
7
  6
CONTINUOUS
 10
175.7657519872
 20
34.8944643126
 40
26.5
100
AcDbArc
 50
13.6327210246
 51
166.367025939
  0
ARC
  5
53C
100
AcDbEntity
  8
RUNDUNGEN
100
AcDbCircle
 62
7
  6
CONTINUOUS
 10
175.7657519872
 20
34.8944643126
 40
26.5
100
AcDbArc
 50
193.6329610027
 51
346.3672830937
  0
ARC
  5
53D
100
AcDbEntity
  8
0
100
AcDbCircle
 62
7
  6
CONTINUOUS
 10
170.8402098212
 20
34.0673935204
 40
5.639744452
100
AcDbArc
 50
289.5979324717
 51
293.4404244151
  0
ARC
  5
53E
100
AcDbEntity
  8
0
100
AcDbCircle
 62
7
  6
CONTINUOUS
 10
174.1898172672
 20
85.8441295862
 40
56.8345952317
100
AcDbArc
 50
269.9056415953
 51
270.2830292226
  0
ARC
  5
53F
100
AcDbEntity
  8
0
100
AcDbCircle
 62
7
  6
CONTINUOUS
 10
170.9090221702
 20
76.3101387866
 40
47.4077853143
100
AcDbArc
 50
273.0684908048
 51
273.8548676028
  0
ARC
  5
540
100
AcDbEntity
  8
0
100
AcDbCircle
 62
7
  6
CONTINUOUS
 10
164.159377157
 20
74.5444501679
 40
45.5349838575
100
AcDbArc
 50
268.0367692951
 51
270.5882941355
  0
ARC
  5
541
100
AcDbEntity
  8
0
100
AcDbCircle
 62
7
  6
CONTINUOUS
 10
168.2570827656
 20
70.3729267936
 40
41.5200611691
100
AcDbArc
 50
264.9841197471
 51
265.6264475159
  0
ARC
  5
542
100
AcDbEntity
  8
0
100
AcDbCircle
 62
7
  6
CONTINUOUS
 10
163.6373437948
 20
65.1717784137
 40
36.3190140303
100
AcDbArc
 50
264.6350296315
 51
265.3216437679
  0
ARC
  5
543
100
AcDbEntity
  8
RUNDUNGEN
100
AcDbCircle
 62
7
  6
CONTINUOUS
 10
165.7657519872
 20
55.3944643126
 40
2.5
100
AcDbArc
 50
90.0
 51
180.0
  0
ARC
  5
544
100
AcDbEntity
  8
RUNDUNGEN
100
AcDbCircle
 62
7
  6
CONTINUOUS
 10
165.7657519872
 20
56.7118894224
 40
2.5
100
AcDbArc
 50
114.6237019276
 51
179.9999487353
  0
ARC
  5
545
100
AcDbEntity
  8
0
100
AcDbCircle
 62
7
  6
CONTINUOUS
 10
177.901137826
 20
35.3571354697
 40
6.9210682363
100
AcDbArc
 50
249.0222257769
 51
252.5028396847
  0
ARC
  5
546
100
AcDbEntity
  8
0
100
AcDbCircle
 62
7
  6
CONTINUOUS
 10
177.8361634649
 20
29.0339046227
 40
1.94060176
100
AcDbArc
 50
191.775313249
 51
193.3086253294
  0
ARC
  5
547
100
AcDbEntity
  8
RUNDUNGEN
100
AcDbCircle
 62
7
  6
CONTINUOUS
 10
184.5490853205
 20
26.9345822643
 40
1.8
100
AcDbArc
 50
22.5001232247
 51
41.9947950035
  0
ARC
  5
548
100
AcDbEntity
  8
0
100
AcDbCircle
 62
7
  6
CONTINUOUS
 10
178.8029210351
 20
46.8732408663
 40
18.2933266587
100
AcDbArc
 50
258.1223057039
 51
259.3538459262
  0
ARC
  5
549
100
AcDbEntity
  8
RUNDUNGEN
100
AcDbCircle
 62
7
  6
CONTINUOUS
 10
184.5490853205
 20
42.8543463608
 40
1.8
100
AcDbArc
 50
305.6853347127
 51
337.4998630115
  0
ARC
  5
54A
100
AcDbEntity
  8
RUNDUNGEN
100
AcDbCircle
 62
7
  6
CONTINUOUS
 10
185.7657519872
 20
23.1364882963
 40
2.5
100
AcDbArc
 50
0.0
 51
33.1534084157
  0
ARC
  5
54B
100
AcDbEntity
  8
RUNDUNGEN
100
AcDbCircle
 62
7
  6
CONTINUOUS
 10
185.7657519872
 20
14.3944643126
 40
2.5
100
AcDbArc
 50
270.0
 51
360.0
  0
ARC
  5
54C
100
AcDbEntity
  8
RUNDUNGEN
100
AcDbCircle
 62
7
  6
CONTINUOUS
 10
185.7657519872
 20
13.0770407424
 40
2.5
100
AcDbArc
 50
294.6237416071
 51
359.9999310867
  0
ARC
  5
54D
100
AcDbEntity
  8
0
100
AcDbCircle
 62
7
  6
CONTINUOUS
 10
186.2687440824
 20
29.8043756833
 40
1.4099113724
100
AcDbArc
 50
270.0146859401
 51
277.1354635645
  0
ARC
  5
54E
100
AcDbEntity
  8
0
100
AcDbCircle
 62
7
  6
CONTINUOUS
 10
191.3387876651
 20
66.094961086
 40
37.0854941161
100
AcDbArc
 50
267.8245883663
 51
270.6517868881
  0
ARC
  5
54F
100
AcDbEntity
  8
RUNDUNGEN
100
AcDbCircle
 62
7
  6
CONTINUOUS
 10
185.7657519872
 20
55.3944643126
 40
2.5
100
AcDbArc
 50
0.0
 51
90.0
  0
ARC
  5
550
100
AcDbEntity
  8
RUNDUNGEN
100
AcDbCircle
 62
7
  6
CONTINUOUS
 10
185.7657519872
 20
46.6524403289
 40
2.5
100
AcDbArc
 50
326.8465915844
 51
360.0
  0
ARC
  5
551
100
AcDbEntity
  8
RUNDUNGEN
100
AcDbCircle
 62
7
  6
CONTINUOUS
 10
185.7657797805
 20
56.7118831197
 40
2.4999907355
100
AcDbArc
 50
0.0001242696
 51
65.3749792201
  0
ARC
  5
552
100
AcDbEntity
  8
0
100
AcDbCircle
 62
7
  6
CONTINUOUS
 10
184.8279377564
 20
131.853392247
 40
103.3226678603
100
AcDbArc
 50
269.4238271863
 51
269.8121239388
  0
ARC
  5
553
100
AcDbEntity
  8
0
100
AcDbCircle
 62
7
  6
CONTINUOUS
 10
184.8508006647
 20
131.8214272507
 40
103.2907018595
100
AcDbArc
 50
270.1943720406
 51
270.5762065608
  0
ARC
  5
554
100
AcDbEntity
  8
0
100
AcDbCircle
 62
7
  6
CONTINUOUS
 10
185.113631883
 20
95.6436887797
 40
66.9041241809
100
AcDbArc
 50
269.70021806
 51
270.0749978222
  0
ARC
  5
555
100
AcDbEntity
  8
0
100
AcDbCircle
 62
7
  6
CONTINUOUS
 10
181.2500013912
 20
82.6611180618
 40
53.6517902951
100
AcDbArc
 50
268.2358507903
 51
271.5680660345
  0
ARC
  5
556
100
AcDbEntity
  8
0
100
AcDbCircle
 62
7
  6
CONTINUOUS
 10
177.9281217433
 20
75.5805476396
 40
46.6984943589
100
AcDbArc
 50
265.7539374367
 51
266.4514230749
  0
ARC
  5
557
100
AcDbEntity
  8
0
100
AcDbCircle
 62
7
  6
CONTINUOUS
 10
194.3238082539
 20
49.4982482644
 40
20.6461032984
100
AcDbArc
 50
262.8685019728
 51
263.7778167565
  0
ARC
  5
558
100
AcDbEntity
  8
RUNDUNGEN
100
AcDbCircle
 62
7
  6
CONTINUOUS
 10
203.7657519872
 20
34.8944643126
 40
19.0
100
AcDbArc
 50
202.5001987364
 51
213.1534084156
  0
ARC
  5
559
100
AcDbEntity
  8
RUNDUNGEN
100
AcDbCircle
 62
7
  6
CONTINUOUS
 10
203.7657519872
 20
34.8944643126
 40
19.0
100
AcDbArc
 50
146.8465915844
 51
157.4998012636
  0
ARC
  5
55A
100
AcDbEntity
  8
0
100
AcDbCircle
 62
7
  6
CONTINUOUS
 10
207.3705051335
 20
29.4468541273
 40
15.1580822638
100
AcDbArc
 50
182.2242374192
 51
182.7303397033
  0
ARC
  5
55B
100
AcDbEntity
  8
KONSTRUKTIONSELEMENTE
100
AcDbCircle
 62
7
  6
CONTINUOUS
 10
199.4203002795
 20
35.4946974901
 40
7.1002072303
100
AcDbArc
 50
269.9884844466
 51
271.2451818296
  0
ARC
  5
55C
100
AcDbEntity
  8
KONSTRUKTIONSELEMENTE
100
AcDbCircle
 62
7
  6
CONTINUOUS
 10
199.4204476212
 20
34.3050389818
 40
7.0894001655
100
AcDbArc
 50
88.7510198228
 51
90.0126591572
  0
ARC
  5
55D
100
AcDbEntity
  8
KONSTRUKTIONSELEMENTE
100
AcDbCircle
 62
7
  6
CONTINUOUS
 10
199.420736583
 20
35.3268412447
 40
6.932351092
100
AcDbArc
 50
269.8561357233
 51
269.9845995732
  0
ARC
  5
55E
100
AcDbEntity
  8
KONSTRUKTIONSELEMENTE
100
AcDbCircle
 62
7
  6
CONTINUOUS
 10
199.420858572
 20
34.464088149
 40
6.9303511073
100
AcDbArc
 50
90.0163471629
 51
90.1389402976
  0
ARC
  5
55F
100
AcDbEntity
  8
KONSTRUKTIONSELEMENTE
100
AcDbCircle
 62
7
  6
CONTINUOUS
 10
202.306085063
 20
34.8944643126
 40
6.5
100
AcDbArc
 50
322.0201275551
 51
37.9798724449
  0
ARC
  5
560
100
AcDbEntity
  8
0
100
AcDbCircle
 62
7
  6
CONTINUOUS
 10
193.7436606873
 20
30.8156615719
 40
2.4779199971
100
AcDbArc
 50
228.0151565145
 51
232.1683041864
  0
ARC
  5
561
100
AcDbEntity
  8
0
100
AcDbCircle
 62
7
  6
CONTINUOUS
 10
187.0692627692
 20
359.1077494698
 40
330.7029570667
100
AcDbArc
 50
269.8916490564
 51
270.0930970354
  0
SPLINE
  5
562
100
AcDbEntity
  8
KONSTRUKTIONSELEMENTE
100
AcDbSpline
 62
7
  6
CONTINUOUS
 70
0
 71
3
 72
31
 73
27
 74
0
 42
0.0000001
 43
0.0000001
 44
0.0000000001
 40
0.0
 40
0.0
 40
0.0
 40
0.0
 40
0.1243718539
 40
0.1866770716
 40
0.2490768721
 40
0.311601064
 40
0.3429322611
 40
0.3743188235
 40
0.4057754984
 40
0.4373231264
 40
0.4689907048
 40
0.5008077468
 40
0.5327447042
 40
0.5487814721
 40
0.5647740584
 40
0.5806775185
 40
0.5964966113
 40
0.6278511186
 40
0.6590451308
 40
0.6901485127
 40
0.7211996681
 40
0.7522194377
 40
0.8141975162
 40
0.876144761
 40
0.9380764346
 40
1.0
 40
1.0
 40
1.0
 40
1.0
 10
145.1378022309
 20
196.9120356897
 30
0.0
 10
145.4490473584
 20
196.0226988982
 30
0.0
 10
145.9679945041
 20
194.7046334574
 30
0.0
 10
146.7825371825
 20
193.0017636412
 30
0.0
 10
147.4647800612
 20
191.7572584513
 30
0.0
 10
148.1025847609
 20
190.7584556398
 30
0.0
 10
148.6647963588
 20
189.9937297288
 30
0.0
 10
149.1170878009
 20
189.4414504523
 30
0.0
 10
149.6050701837
 20
188.9178992283
 30
0.0
 10
150.1361980137
 20
188.4343813795
 30
0.0
 10
150.7211375908
 20
188.0109714532
 30
0.0
 10
151.3708886877
 20
187.6847331199
 30
0.0
 10
151.9748033171
 20
187.5589230743
 30
0.0
 10
152.460967734
 20
187.6031045856
 30
0.0
 10
152.8096767066
 20
187.7144800753
 30
0.0
 10
153.1255695812
 20
187.8949645862
 30
0.0
 10
153.4932260944
 20
188.2033498027
 30
0.0
 10
153.860789617
 20
188.6770301978
 30
0.0
 10
154.1935106253
 20
189.3056017774
 30
0.0
 10
154.4531451562
 20
189.9645646091
 30
0.0
 10
154.6606485875
 20
190.639740456
 30
0.0
 10
154.8859298787
 20
191.5524894814
 30
0.0
 10
155.0952478457
 20
192.70855091
 30
0.0
 10
155.2738856442
 20
194.1055373101
 30
0.0
 10
155.4031357887
 20
195.5074258679
 30
0.0
 10
155.4660603777
 20
196.443700832
 30
0.0
 10
155.4932997266
 20
196.9120356897
 30
0.0
  0
SPLINE
  5
563
100
AcDbEntity
  8
KONSTRUKTIONSELEMENTE
100
AcDbSpline
 62
7
  6
CONTINUOUS
 70
0
 71
3
 72
32
 73
28
 74
0
 42
0.0000001
 43
0.0000001
 44
0.0000000001
 40
0.0
 40
0.0
 40
0.0
 40
0.0
 40
0.0619205208
 40
0.1238491554
 40
0.1857933753
 40
0.2477684405
 40
0.2787867297
 40
0.309836394
 40
0.3409382752
 40
0.3721308297
 40
0.3877994655
 40
0.4035338365
 40
0.4193515416
 40
0.4352543536
 40
0.4512463661
 40
0.4672818923
 40
0.4992175394
 40
0.5310329046
 40
0.5626987826
 40
0.5942447708
 40
0.6256998319
 40
0.6570847948
 40
0.6884144378
 40
0.7509355091
 40
0.813332208
 40
0.8756343302
 40
1.0
 40
1.0
 40
1.0
 40
1.0
 10
155.4932997266
 20
226.9120356897
 30
0.0
 10
155.4660603599
 20
227.3803708538
 30
0.0
 10
155.4031358366
 20
228.3166462706
 30
0.0
 10
155.273884642
 20
229.7185368341
 30
0.0
 10
155.0952488719
 20
231.1155212263
 30
0.0
 10
154.8859257127
 20
232.2715948965
 30
0.0
 10
154.6606549084
 20
233.184323597
 30
0.0
 10
154.4531219165
 20
233.8595682678
 30
0.0
 10
154.1935903301
 20
234.5182761124
 30
0.0
 10
153.916264636
 20
235.0423720481
 30
0.0
 10
153.6411917039
 20
235.4295796757
 30
0.0
 10
153.402257967
 20
235.6971351255
 30
0.0
 10
153.1255382744
 20
235.9290888285
 30
0.0
 10
152.8096875815
 20
236.1096144672
 30
0.0
 10
152.4609603356
 20
236.2209534995
 30
0.0
 10
151.974801942
 20
236.2651494318
 30
0.0
 10
151.3708862164
 20
236.1393307431
 30
0.0
 10
150.7211356902
 20
235.8130950582
 30
0.0
 10
150.136197161
 20
235.3896862424
 30
0.0
 10
149.605070546
 20
234.9061699819
 30
0.0
 10
149.1170885111
 20
234.3826199935
 30
0.0
 10
148.6647954576
 20
233.8303427546
 30
0.0
 10
148.1025855107
 20
233.06561591
 30
0.0
 10
147.464779844
 20
232.0668137222
 30
0.0
 10
146.7825377018
 20
230.8223079876
 30
0.0
 10
145.9679946181
 20
229.1194381692
 30
0.0
 10
145.449047389
 20
227.8013725688
 30
0.0
 10
145.1378022309
 20
226.9120356897
 30
0.0
  0
SPLINE
  5
564
100
AcDbEntity
  8
KONSTRUKTIONSELEMENTE
100
AcDbSpline
 62
7
  6
CONTINUOUS
 70
0
 71
3
 72
31
 73
27
 74
0
 42
0.0000001
 43
0.0000001
 44
0.0000000001
 40
0.0
 40
0.0
 40
0.0
 40
0.0
 40
0.1243718524
 40
0.1866770696
 40
0.2490768694
 40
0.3116010599
 40
0.3429322566
 40
0.3743188164
 40
0.405775488
 40
0.4373231111
 40
0.4689906807
 40
0.5008077109
 40
0.5327446701
 40
0.5487813989
 40
0.5647740023
 40
0.5806774735
 40
0.5964965422
 40
0.6278510903
 40
0.6590451136
 40
0.690148502
 40
0.7211996606
 40
0.7522194327
 40
0.8141975132
 40
0.8761447593
 40
0.9380764339
 40
1.0
 40
1.0
 40
1.0
 40
1.0
 10
206.3937017435
 20
226.9120356897
 30
0.0
 10
206.082456621
 20
227.8013724669
 30
0.0
 10
205.5635094831
 20
229.1194378881
 30
0.0
 10
204.7489668065
 20
230.8223076704
 30
0.0
 10
204.0667239838
 20
232.0668128625
 30
0.0
 10
203.4289192596
 20
233.0656156257
 30
0.0
 10
202.8667077657
 20
233.8303415696
 30
0.0
 10
202.4144162614
 20
234.3826207311
 30
0.0
 10
201.926433926
 20
234.9061718843
 30
0.0
 10
201.3953061995
 20
235.3896896338
 30
0.0
 10
200.8103667696
 20
235.8130994938
 30
0.0
 10
200.1606158663
 20
236.1393375932
 30
0.0
 10
199.5567015386
 20
236.2651483337
 30
0.0
 10
199.0705375541
 20
236.220966141
 30
0.0
 10
198.7218277762
 20
236.1095931045
 30
0.0
 10
198.4059358725
 20
235.9291066818
 30
0.0
 10
198.0382779832
 20
235.6207230395
 30
0.0
 10
197.6707147676
 20
235.1470417622
 30
0.0
 10
197.3379934347
 20
234.5184700131
 30
0.0
 10
197.0783588282
 20
233.8595069997
 30
0.0
 10
196.8708553611
 20
233.1843310816
 30
0.0
 10
196.6455741177
 20
232.271581985
 30
0.0
 10
196.4362561222
 20
231.1155205254
 30
0.0
 10
196.2576183428
 20
229.7185340952
 30
0.0
 10
196.1283681854
 20
228.3166455232
 30
0.0
 10
196.0654435968
 20
227.3803705509
 30
0.0
 10
196.0382042478
 20
226.9120356897
 30
0.0
  0
SPLINE
  5
565
100
AcDbEntity
  8
KONSTRUKTIONSELEMENTE
100
AcDbSpline
 62
7
  6
CONTINUOUS
 70
0
 71
3
 72
32
 73
28
 74
0
 42
0.0000001
 43
0.0000001
 44
0.0000000001
 40
0.0
 40
0.0
 40
0.0
 40
0.0
 40
0.0619205208
 40
0.1238491553
 40
0.1857933752
 40
0.2477684404
 40
0.2787867297
 40
0.3098363939
 40
0.3409382752
 40
0.3721308298
 40
0.3877994652
 40
0.4035338367
 40
0.4193515408
 40
0.4352543529
 40
0.4512463656
 40
0.4672818923
 40
0.4992175408
 40
0.5310329062
 40
0.562698784
 40
0.5942447718
 40
0.6256998326
 40
0.6570847952
 40
0.6884144382
 40
0.7509355093
 40
0.8133322082
 40
0.8756343302
 40
1.0
 40
1.0
 40
1.0
 40
1.0
 10
196.0382042478
 20
196.9120356897
 30
0.0
 10
196.0654436144
 20
196.4437005262
 30
0.0
 10
196.1283681377
 20
195.5074251103
 30
0.0
 10
196.2576193324
 20
194.1055345481
 30
0.0
 10
196.4362551016
 20
192.7085501566
 30
0.0
 10
196.6455782606
 20
191.5524764865
 30
0.0
 10
196.8708490628
 20
190.6397477854
 30
0.0
 10
197.0783820548
 20
189.9645031139
 30
0.0
 10
197.337913645
 20
189.3057952706
 30
0.0
 10
197.6152393295
 20
188.7816993313
 30
0.0
 10
197.8903122745
 20
188.3944917122
 30
0.0
 10
198.1292459951
 20
188.1269362561
 30
0.0
 10
198.4059656951
 20
187.8949825689
 30
0.0
 10
198.7218163662
 20
187.7144569015
 30
0.0
 10
199.0705436275
 20
187.6031178923
 30
0.0
 10
199.5567020346
 20
187.5589219607
 30
0.0
 10
200.1606177779
 20
187.6847406496
 30
0.0
 10
200.8103683115
 20
188.010976345
 30
0.0
 10
201.3953068343
 20
188.4343851638
 30
0.0
 10
201.926433444
 20
188.9179014193
 30
0.0
 10
202.4144154749
 20
189.441451401
 30
0.0
 10
202.8667085264
 20
189.9937286351
 30
0.0
 10
203.4289184682
 20
190.7584554787
 30
0.0
 10
204.0667241343
 20
191.7572576632
 30
0.0
 10
204.7489662746
 20
193.0017633959
 30
0.0
 10
205.5635093572
 20
194.7046332122
 30
0.0
 10
206.0824565856
 20
196.0226988114
 30
0.0
 10
206.3937017435
 20
196.9120356897
 30
0.0
  0
SPLINE
  5
566
100
AcDbEntity
  8
0
100
AcDbSpline
 62
7
  6
CONTINUOUS
 70
0
 71
3
 72
9
 73
5
 74
0
 42
0.0000001
 43
0.0000001
 44
0.0000000001
 40
0.0
 40
0.0
 40
0.0
 40
0.0
 40
0.2519100891
 40
1.0
 40
1.0
 40
1.0
 40
1.0
 10
292.1911399475
 20
255.2734079746
 30
0.0
 10
292.2483684024
 20
255.1659077832
 30
0.0
 10
292.461709554
 20
254.731957552
 30
0.0
 10
292.6179586812
 20
254.2698332293
 30
0.0
 10
292.698564603
 20
253.9172714268
 30
0.0
  0
SPLINE
  5
567
100
AcDbEntity
  8
0
100
AcDbSpline
 62
7
  6
CONTINUOUS
 70
0
 71
3
 72
9
 73
5
 74
0
 42
0.0000001
 43
0.0000001
 44
0.0000000001
 40
0.0
 40
0.0
 40
0.0
 40
0.0
 40
0.5064110229
 40
1.0
 40
1.0
 40
1.0
 40
1.0
 10
292.1911399517
 20
252.374720243
 30
0.0
 10
292.3970053495
 20
252.0299949615
 30
0.0
 10
292.7205809868
 20
251.2948861079
 30
0.0
 10
292.8329046463
 20
250.4982555066
 30
0.0
 10
292.8328698671
 20
250.1069044765
 30
0.0
  0
SPLINE
  5
568
100
AcDbEntity
  8
KONSTRUKTIONSELEMENTE
100
AcDbSpline
 62
7
  6
CONTINUOUS
 70
0
 71
3
 72
12
 73
8
 74
0
 42
0.0000001
 43
0.0000001
 44
0.0000000001
 40
0.0
 40
0.0
 40
0.0
 40
0.0
 40
0.1789379674
 40
0.3891661165
 40
0.6470934671
 40
0.8068229484
 40
1.0
 40
1.0
 40
1.0
 40
1.0
 10
206.3937017435
 20
30.8944643126
 30
0.0
 10
206.0376546736
 20
30.6218657469
 30
0.0
 10
205.2222545815
 20
30.081502069
 30
0.0
 10
203.7706520028
 20
29.3514664708
 30
0.0
 10
202.2822331714
 20
28.8228965628
 30
0.0
 10
200.7879559771
 20
28.4845872956
 30
0.0
 10
199.9029829003
 20
28.3943508595
 30
0.0
 10
199.418880866
 20
28.3944896381
 30
0.0
  0
SPLINE
  5
569
100
AcDbEntity
  8
KONSTRUKTIONSELEMENTE
100
AcDbSpline
 62
7
  6
CONTINUOUS
 70
0
 71
3
 72
12
 73
8
 74
0
 42
0.0000001
 43
0.0000001
 44
0.0000000001
 40
0.0
 40
0.0
 40
0.0
 40
0.0
 40
0.1931776518
 40
0.3529067932
 40
0.6108340341
 40
0.8210621011
 40
1.0
 40
1.0
 40
1.0
 40
1.0
 10
152.1126308119
 20
28.3944904
 30
0.0
 10
151.6285267888
 20
28.394359773
 30
0.0
 10
150.7435520959
 20
28.4845840507
 30
0.0
 10
149.2492728631
 20
28.8228974466
 30
0.0
 10
147.7608535966
 20
29.351465257
 30
0.0
 10
146.3092501612
 20
30.0815017285
 30
0.0
 10
145.4938495193
 20
30.6218655796
 30
0.0
 10
145.1378022309
 20
30.8944643126
 30
0.0
  0
SPLINE
  5
56A
100
AcDbEntity
  8
KONSTRUKTIONSELEMENTE
100
AcDbSpline
 62
7
  6
CONTINUOUS
 70
0
 71
3
 72
12
 73
8
 74
0
 42
0.0000001
 43
0.0000001
 44
0.0000000001
 40
0.0
 40
0.0
 40
0.0
 40
0.0
 40
0.1931776304
 40
0.3529067465
 40
0.6108339962
 40
0.8210620814
 40
1.0
 40
1.0
 40
1.0
 40
1.0
 10
199.4188747121
 20
41.3944381939
 30
0.0
 10
199.9029785815
 20
41.3945681233
 30
0.0
 10
200.7879529517
 20
41.3043445462
 30
0.0
 10
202.2822317676
 20
40.9660308691
 30
0.0
 10
203.770650716
 20
40.4374632422
 30
0.0
 10
205.2222539396
 20
39.707426809
 30
0.0
 10
206.0376544895
 20
39.1670630192
 30
0.0
 10
206.3937017435
 20
38.8944643126
 30
0.0
  0
SPLINE
  5
56B
100
AcDbEntity
  8
KONSTRUKTIONSELEMENTE
100
AcDbSpline
 62
7
  6
CONTINUOUS
 70
0
 71
3
 72
12
 73
8
 74
0
 42
0.0000001
 43
0.0000001
 44
0.0000000001
 40
0.0
 40
0.0
 40
0.0
 40
0.0
 40
0.1789379624
 40
0.3891661055
 40
0.647093449
 40
0.8068229391
 40
1.0
 40
1.0
 40
1.0
 40
1.0
 10
145.1378022309
 20
38.8944643126
 30
0.0
 10
145.4938492901
 20
39.1670628701
 30
0.0
 10
146.3092493552
 20
39.7074265387
 30
0.0
 10
147.7608518898
 20
40.4374620953
 30
0.0
 10
149.2492706994
 20
40.9660321025
 30
0.0
 10
150.7435479087
 20
41.3043411886
 30
0.0
 10
151.6285210298
 20
41.3945782212
 30
0.0
 10
152.1126230862
 20
41.3944390144
 30
0.0
  0
SPLINE
  5
56C
100
AcDbEntity
  8
0
100
AcDbSpline
 62
7
  6
CONTINUOUS
 70
0
 71
3
 72
9
 73
5
 74
0
 42
0.0000001
 43
0.0000001
 44
0.0000000001
 40
0.0
 40
0.0
 40
0.0
 40
0.0
 40
0.2449062835
 40
1.0
 40
1.0
 40
1.0
 40
1.0
 10
162.1716856578
 20
28.4865580686
 30
0.0
 10
162.1636200061
 20
28.4907530292
 30
0.0
 10
162.130932675
 20
28.508353076
 30
0.0
 10
162.0992422298
 20
28.5277903845
 30
0.0
 10
162.0759145394
 20
28.5433313051
 30
0.0
  0
SPLINE
  5
56D
100
AcDbEntity
  8
0
100
AcDbSpline
 62
7
  6
CONTINUOUS
 70
0
 71
3
 72
9
 73
5
 74
0
 42
0.0000001
 43
0.0000001
 44
0.0000000001
 40
0.0
 40
0.0
 40
0.0
 40
0.0
 40
0.235528573
 40
1.0
 40
1.0
 40
1.0
 40
1.0
 10
166.387933799
 20
28.4865580671
 30
0.0
 10
166.3845130766
 20
28.4908103363
 30
0.0
 10
166.3703030216
 20
28.5091164618
 30
0.0
 10
166.3572844978
 20
28.5283308058
 30
0.0
 10
166.3478637307
 20
28.5433313071
 30
0.0
  0
SPLINE
  5
56E
100
AcDbEntity
  8
0
100
AcDbSpline
 62
7
  6
CONTINUOUS
 70
0
 71
3
 72
9
 73
5
 74
0
 42
0.0000001
 43
0.0000001
 44
0.0000000001
 40
0.0
 40
0.0
 40
0.0
 40
0.0
 40
0.2455301026
 40
1.0
 40
1.0
 40
1.0
 40
1.0
 10
166.3478637307
 20
28.5433313071
 30
0.0
 10
166.3338451761
 20
28.55035562
 30
0.0
 10
166.2771717375
 20
28.5798011743
 30
0.0
 10
166.2222098664
 20
28.6125169145
 30
0.0
 10
166.1817992201
 20
28.6387553038
 30
0.0
  0
SPLINE
  5
56F
100
AcDbEntity
  8
0
100
AcDbSpline
 62
7
  6
CONTINUOUS
 70
0
 71
3
 72
10
 73
6
 74
0
 42
0.0000001
 43
0.0000001
 44
0.0000000001
 40
0.0
 40
0.0
 40
0.0
 40
0.0
 40
0.3347605873
 40
0.6093211417
 40
1.0
 40
1.0
 40
1.0
 40
1.0
 10
179.5983123888
 20
29.0347577032
 30
0.0
 10
179.5618521399
 20
28.9495173855
 30
0.0
 10
179.4884348081
 20
28.7961469522
 30
0.0
 10
179.3410246564
 20
28.5654108526
 30
0.0
 10
179.1931815793
 20
28.4287397641
 30
0.0
 10
179.0881381972
 20
28.4028076568
 30
0.0
  0
SPLINE
  5
570
100
AcDbEntity
  8
0
100
AcDbSpline
 62
7
  6
CONTINUOUS
 70
0
 71
3
 72
9
 73
5
 74
0
 42
0.0000001
 43
0.0000001
 44
0.0000000001
 40
0.0
 40
0.0
 40
0.0
 40
0.0
 40
0.2638969774
 40
1.0
 40
1.0
 40
1.0
 40
1.0
 10
184.7635789333
 20
28.7404803712
 30
0.0
 10
184.7415321967
 20
28.7195604507
 30
0.0
 10
184.6560827971
 20
28.6423684747
 30
0.0
 10
184.5624135984
 20
28.5739119836
 30
0.0
 10
184.4891375647
 20
28.5312798596
 30
0.0
  0
SPLINE
  5
571
100
AcDbEntity
  8
0
100
AcDbSpline
 62
7
  6
CONTINUOUS
 70
0
 71
3
 72
9
 73
5
 74
0
 42
0.0000001
 43
0.0000001
 44
0.0000000001
 40
0.0
 40
0.0
 40
0.0
 40
0.0
 40
0.2556660221
 40
1.0
 40
1.0
 40
1.0
 40
1.0
 10
183.7889308799
 20
28.5359486158
 30
0.0
 10
183.7776506999
 20
28.5292769102
 30
0.0
 10
183.7331169997
 20
28.503889973
 30
0.0
 10
183.6868994415
 20
28.4814260069
 30
0.0
 10
183.6517102437
 20
28.4666779923
 30
0.0
  0
SPLINE
  5
572
100
AcDbEntity
  8
0
100
AcDbSpline
 62
7
  6
CONTINUOUS
 70
0
 71
3
 72
10
 73
6
 74
0
 42
0.0000001
 43
0.0000001
 44
0.0000000001
 40
0.0
 40
0.0
 40
0.0
 40
0.0
 40
0.5199018907
 40
0.7627644798
 40
1.0
 40
1.0
 40
1.0
 40
1.0
 10
189.9310603606
 20
29.0361945432
 30
0.0
 10
189.6910002578
 20
28.8383444965
 30
0.0
 10
189.2945260836
 20
28.5917985313
 30
0.0
 10
188.717831208
 20
28.4224481495
 30
0.0
 10
188.4297675781
 20
28.3944472054
 30
0.0
 10
188.2878172094
 20
28.3944646153
 30
0.0
  0
SPLINE
  5
573
100
AcDbEntity
  8
0
100
AcDbSpline
 62
7
  6
CONTINUOUS
 70
0
 71
3
 72
9
 73
5
 74
0
 42
0.0000001
 43
0.0000001
 44
0.0000000001
 40
0.0
 40
0.0
 40
0.0
 40
0.0
 40
0.2436619182
 40
1.0
 40
1.0
 40
1.0
 40
1.0
 10
175.9071107764
 20
28.6653699605
 30
0.0
 10
175.8997628171
 20
28.6724645421
 30
0.0
 10
175.8699134475
 20
28.7018981608
 30
0.0
 10
175.8412759705
 20
28.7325540534
 30
0.0
 10
175.8202596161
 20
28.7562922352
 30
0.0
  0
SPLINE
  5
574
100
AcDbEntity
  8
0
100
AcDbSpline
 62
7
  6
CONTINUOUS
 70
0
 71
3
 72
9
 73
5
 74
0
 42
0.0000001
 43
0.0000001
 44
0.0000000001
 40
0.0
 40
0.0
 40
0.0
 40
0.0
 40
0.2631646926
 40
1.0
 40
1.0
 40
1.0
 40
1.0
 10
172.7318792302
 20
28.7543619629
 30
0.0
 10
172.7261112225
 20
28.7437290302
 30
0.0
 10
172.7037823568
 20
28.7035517007
 30
0.0
 10
172.6797451282
 20
28.6643050917
 30
0.0
 10
172.6608455652
 20
28.6361990998
 30
0.0
  0
ELLIPSE
  5
575
100
AcDbEntity
  8
0
100
AcDbEllipse
 62
7
  6
CONTINUOUS
 10
175.7657519872
 20
129.576291226
 30
0.0
 11
26.75
 21
-0.0
 31
0.0
 40
0.8987235201
 41
-0.0654673159
 42
-0.000001512
  0
ELLIPSE
  5
576
100
AcDbEntity
  8
0
100
AcDbEllipse
 62
7
  6
CONTINUOUS
 10
175.7657519872
 20
137.1471421087
 30
0.0
 11
26.75
 21
-0.0
 31
0.0
 40
0.5106380606
 41
-0.0144086079
 42
-0.0000000737
  0
ELLIPSE
  5
577
100
AcDbEntity
  8
0
100
AcDbEllipse
 62
7
  6
CONTINUOUS
 10
175.7657519872
 20
133.3581353863
 30
0.0
 11
26.75
 21
-0.0
 31
0.0
 40
0.6808509827
 41
6.2473520748
 42
6.2625451931
  0
ELLIPSE
  5
578
100
AcDbEntity
  8
0
100
AcDbEllipse
 62
7
  6
CONTINUOUS
 10
175.7657519872
 20
133.0950145181
 30
0.0
 11
26.75
 21
-0.0
 31
0.0
 40
0.204255139
 41
6.2625451931
 42
6.2831851719
  0
ELLIPSE
  5
579
100
AcDbEntity
  8
0
100
AcDbEllipse
 62
7
  6
CONTINUOUS
 10
175.7657519872
 20
133.2567163976
 30
0.0
 11
26.75
 21
-0.0
 31
0.0
 40
0.204255139
 41
-0.0502547956
 42
-0.0249246797
  0
ELLIPSE
  5
57A
100
AcDbEntity
  8
0
100
AcDbEllipse
 62
7
  6
CONTINUOUS
 10
175.7657519872
 20
133.8971420626
 30
0.0
 11
26.75
 21
0.0
 31
0.0
 40
0.6808509827
 41
-0.0654673159
 42
-0.0502547956
  0
ELLIPSE
  5
57B
100
AcDbEntity
  8
0
100
AcDbEllipse
 62
7
  6
CONTINUOUS
 10
175.7657519872
 20
135.3864984738
 30
0.0
 11
0.0
 21
40.9786403587
 31
0.0
 40
0.6527791007
 41
-1.6464135596
 42
-1.6362636427
  0
ELLIPSE
  5
57C
100
AcDbEntity
  8
0
100
AcDbEllipse
 62
7
  6
CONTINUOUS
 10
175.7657519872
 20
120.6311845804
 30
0.0
 11
0.0
 21
50.0851067901
 31
0.0
 40
0.5340909047
 41
-1.4537065296
 42
-1.4371375905
  0
ELLIPSE
  5
57D
100
AcDbEntity
  8
0
100
AcDbEllipse
 62
7
  6
CONTINUOUS
 10
175.7657519872
 20
129.5035166554
 30
0.0
 11
0.0
 21
54.6384997883
 31
0.0
 40
0.4895815241
 41
-1.5349630944
 42
-1.524830005
  0
ELLIPSE
  5
57E
100
AcDbEntity
  8
0
100
AcDbEllipse
 62
7
  6
CONTINUOUS
 10
175.7657519872
 20
134.1737441659
 30
0.0
 11
0.0
 21
40.9788748412
 31
0.0
 40
0.6527753654
 41
4.6664226586
 42
4.676555748
  0
ELLIPSE
  5
57F
100
AcDbEntity
  8
0
100
AcDbEllipse
 62
7
  6
CONTINUOUS
 10
175.7657519872
 20
152.8651834313
 30
0.0
 11
0.0
 21
81.9572807173
 31
0.0
 40
0.3263895503
 41
-1.8367716985
 42
-1.8315286082
  0
ELLIPSE
  5
580
100
AcDbEntity
  8
0
100
AcDbEllipse
 62
7
  6
CONTINUOUS
 10
175.7657519872
 20
140.8971408407
 30
0.0
 11
0.0
 21
36.4255275726
 31
0.0
 40
0.7343750875
 41
-1.8525466512
 42
-1.8367716985
  0
ELLIPSE
  5
581
100
AcDbEntity
  8
0
100
AcDbEllipse
 62
7
  6
CONTINUOUS
 10
175.7657519872
 20
136.4662875886
 30
0.0
 11
26.75
 21
0.0
 31
0.0
 40
0.7659569903
 41
-0.3028970435
 42
-0.2817503244
  0
ELLIPSE
  5
582
100
AcDbEntity
  8
0
100
AcDbEllipse
 62
7
  6
CONTINUOUS
 10
175.7657519872
 20
131.9843766202
 30
0.0
 11
26.75
 21
-0.0
 31
0.0
 40
0.2042553727
 41
-0.3295297655
 42
-0.3028970435
  0
ELLIPSE
  5
583
100
AcDbEntity
  8
0
100
AcDbEllipse
 62
7
  6
CONTINUOUS
 10
175.7657519872
 20
132.0439501196
 30
0.0
 11
26.75
 21
-0.0
 31
0.0
 40
0.2042553727
 41
0.3028970435
 42
0.3295297655
  0
ELLIPSE
  5
584
100
AcDbEntity
  8
0
100
AcDbEllipse
 62
7
  6
CONTINUOUS
 10
175.7657519872
 20
127.5620391512
 30
0.0
 11
26.75
 21
-0.0
 31
0.0
 40
0.7659569903
 41
0.2817503244
 42
0.3028970435
  0
ELLIPSE
  5
585
100
AcDbEntity
  8
0
100
AcDbEllipse
 62
7
  6
CONTINUOUS
 10
175.7657519872
 20
123.1311858991
 30
0.0
 11
-0.0
 21
36.4255275726
 31
0.0
 40
0.7343750875
 41
-1.3048209551
 42
-1.2890460024
  0
ELLIPSE
  5
586
100
AcDbEntity
  8
0
100
AcDbEllipse
 62
7
  6
CONTINUOUS
 10
175.7657519872
 20
111.1631433085
 30
0.0
 11
0.0
 21
81.9572807173
 31
0.0
 40
0.3263895503
 41
-1.3100640454
 42
-1.3048209551
  0
ELLIPSE
  5
587
100
AcDbEntity
  8
0
100
AcDbEllipse
 62
7
  6
CONTINUOUS
 10
175.7657519872
 20
171.5354734105
 30
0.0
 11
0.0
 21
81.9575151992
 31
0.0
 40
0.3263886165
 41
-2.0836367128
 42
-2.0778364604
  0
ELLIPSE
  5
588
100
AcDbEntity
  8
0
100
AcDbEllipse
 62
7
  6
CONTINUOUS
 10
175.7657519872
 20
149.1950121919
 30
0.0
 11
0.0
 21
36.4255275726
 31
0.0
 40
0.7343750875
 41
-2.1011530838
 42
-2.0836367128
  0
ELLIPSE
  5
589
100
AcDbEntity
  8
0
100
AcDbEllipse
 62
7
  6
CONTINUOUS
 10
175.7657519872
 20
141.1338454112
 30
0.0
 11
26.75
 21
-0.0
 31
0.0
 40
0.7659575381
 41
-0.5539967092
 42
-0.530356757
  0
ELLIPSE
  5
58A
100
AcDbEntity
  8
0
100
AcDbEllipse
 62
7
  6
CONTINUOUS
 10
175.7657519872
 20
133.2290560737
 30
0.0
 11
26.75
 21
-0.0
 31
0.0
 40
0.2042552558
 41
-0.5840437217
 42
-0.5539967092
  0
ELLIPSE
  5
58B
100
AcDbEntity
  8
0
100
AcDbEllipse
 62
7
  6
CONTINUOUS
 10
175.7657519872
 20
130.7992706661
 30
0.0
 11
26.75
 21
-0.0
 31
0.0
 40
0.2042552558
 41
0.5539967092
 42
0.5840437217
  0
ELLIPSE
  5
58C
100
AcDbEntity
  8
0
100
AcDbEllipse
 62
7
  6
CONTINUOUS
 10
175.7657519872
 20
122.8944813286
 30
0.0
 11
26.75
 21
-0.0
 31
0.0
 40
0.7659575381
 41
0.530356757
 42
0.5539967092
  0
ELLIPSE
  5
58D
100
AcDbEntity
  8
0
100
AcDbEllipse
 62
7
  6
CONTINUOUS
 10
175.7657519872
 20
114.8333145479
 30
0.0
 11
0.0
 21
36.4255275726
 31
0.0
 40
0.7343750875
 41
-1.0579559408
 42
-1.0404395698
  0
ELLIPSE
  5
58E
100
AcDbEntity
  8
0
100
AcDbEllipse
 62
7
  6
CONTINUOUS
 10
175.7657519872
 20
92.4928533293
 30
0.0
 11
0.0
 21
81.9575151992
 31
0.0
 40
0.3263886165
 41
-1.0637561931
 42
-1.0579559408
  0
ELLIPSE
  5
58F
100
AcDbEntity
  8
0
100
AcDbEllipse
 62
7
  6
CONTINUOUS
 10
175.7657519872
 20
124.1430052611
 30
0.0
 11
0.0
 21
69.8156030178
 31
0.0
 40
0.3831521729
 41
-1.3883211907
 42
-1.3417745852
  0
ELLIPSE
  5
590
100
AcDbEntity
  8
0
100
AcDbEllipse
 62
7
  6
CONTINUOUS
 10
175.7657519872
 20
143.0939508953
 30
0.0
 11
26.75
 21
0.0
 31
0.0
 40
0.5106383587
 41
-0.2290217416
 42
-0.2082782847
  0
ELLIPSE
  5
591
100
AcDbEntity
  8
0
100
AcDbEllipse
 62
7
  6
CONTINUOUS
 10
175.7657519872
 20
147.8013964692
 30
0.0
 11
0.0
 21
36.4255275726
 31
0.0
 40
0.7343750875
 41
-1.7790746115
 42
-1.7635769907
  0
ELLIPSE
  5
592
100
AcDbEntity
  8
0
100
AcDbEllipse
 62
7
  6
CONTINUOUS
 10
175.7657519872
 20
156.5248146594
 30
0.0
 11
0.0
 21
81.9575151992
 31
0.0
 40
0.3263886165
 41
-1.7635769907
 42
-1.7584217137
  0
ELLIPSE
  5
593
100
AcDbEntity
  8
0
100
AcDbEllipse
 62
7
  6
CONTINUOUS
 10
175.7657519872
 20
126.5035120804
 30
0.0
 11
0.0
 21
81.9575151992
 31
0.0
 40
0.3263886165
 41
-1.3831709399
 42
-1.3780156629
  0
ELLIPSE
  5
594
100
AcDbEntity
  8
0
100
AcDbEllipse
 62
7
  6
CONTINUOUS
 10
175.7657519872
 20
135.2269302706
 30
0.0
 11
0.0
 21
36.4255275726
 31
0.0
 40
0.7343750875
 41
-1.3780156629
 42
-1.3625180421
  0
ELLIPSE
  5
595
100
AcDbEntity
  8
0
100
AcDbEllipse
 62
7
  6
CONTINUOUS
 10
175.7657519872
 20
138.5221416336
 30
0.0
 11
26.75
 21
-0.0
 31
0.0
 40
0.7659575381
 41
0.2082782847
 42
0.2290217416
  0
ELLIPSE
  5
596
100
AcDbEntity
  8
0
100
AcDbEllipse
 62
7
  6
CONTINUOUS
 10
175.7657519872
 20
141.9333127128
 30
0.0
 11
26.75
 21
-0.0
 31
0.0
 40
0.2042552558
 41
0.2290217416
 42
0.2550940834
  0
ELLIPSE
  5
597
100
AcDbEntity
  8
0
100
AcDbEllipse
 62
7
  6
CONTINUOUS
 10
175.7657519872
 20
137.0290570422
 30
0.0
 11
26.75
 21
-0.0
 31
0.0
 40
0.2042553906
 41
-0.0397300775
 42
-0.0144086079
  0
ELLIPSE
  5
598
100
AcDbEntity
  8
0
100
AcDbEllipse
 62
7
  6
CONTINUOUS
 10
175.7657519872
 20
137.8333135749
 30
0.0
 11
0.0
 21
109.2763742898
 31
0.0
 40
0.2447921628
 41
-1.5649551721
 42
-1.5598926743
  0
ELLIPSE
  5
599
100
AcDbEntity
  8
0
100
AcDbEllipse
 62
7
  6
CONTINUOUS
 10
175.7657519872
 20
137.2322480459
 30
0.0
 11
26.75
 21
-0.0
 31
0.0
 40
0.255319362
 41
0.0600048593
 42
0.080304342
  0
ELLIPSE
  5
59A
100
AcDbEntity
  8
0
100
AcDbEllipse
 62
7
  6
CONTINUOUS
 10
175.7657519872
 20
136.3191277082
 30
0.0
 11
26.75
 21
0.0
 31
0.0
 40
0.6808512211
 41
0.080304342
 42
0.0955503019
  0
ELLIPSE
  5
59B
100
AcDbEntity
  8
0
100
AcDbEllipse
 62
7
  6
CONTINUOUS
 10
175.7657519872
 20
134.1471504367
 30
0.0
 11
0.0
 21
40.9786403587
 31
0.0
 40
0.6527791007
 41
-1.4752460249
 42
-1.4650698623
  0
ELLIPSE
  5
59C
100
AcDbEntity
  8
0
100
AcDbEllipse
 62
7
  6
CONTINUOUS
 10
175.7657519872
 20
126.9396515887
 30
0.0
 11
0.0
 21
109.2769995766
 31
0.0
 40
0.244790762
 41
-1.4650698623
 42
-1.4599777527
  0
ELLIPSE
  5
59D
100
AcDbEntity
  8
0
100
AcDbEllipse
 62
7
  6
CONTINUOUS
 10
175.7657519872
 20
119.7695207907
 30
0.0
 11
0.0
 21
135.3188747046
 31
0.0
 40
0.1958337302
 41
-1.4331768092
 42
-1.4280160944
  0
ELLIPSE
  5
59E
100
AcDbEntity
  8
0
100
AcDbEllipse
 62
7
  6
CONTINUOUS
 10
175.7657519872
 20
130.9077837726
 30
0.0
 11
0.0
 21
54.127636789
 31
0.0
 40
0.4895835394
 41
-1.443487311
 42
-1.4331768092
  0
ELLIPSE
  5
59F
100
AcDbEntity
  8
0
100
AcDbEllipse
 62
7
  6
CONTINUOUS
 10
175.7657519872
 20
143.31207449
 30
0.0
 11
0.0
 21
109.2769995766
 31
0.0
 40
0.244790762
 41
-1.6718247796
 42
-1.6667378382
  0
ELLIPSE
  5
5A0
100
AcDbEntity
  8
0
100
AcDbEllipse
 62
7
  6
CONTINUOUS
 10
175.7657519872
 20
135.4609741592
 30
0.0
 11
-0.0
 21
27.3191717331
 31
0.0
 40
0.9791658496
 41
-1.6667378382
 42
-1.6464135596
  0
ELLIPSE
  5
5A1
100
AcDbEntity
  8
0
100
AcDbEllipse
 62
7
  6
CONTINUOUS
 10
175.7657519872
 20
134.4290551883
 30
0.0
 11
26.75
 21
-0.0
 31
0.0
 40
0.510637263
 41
-0.0756172328
 42
-0.0553241489
  0
ELLIPSE
  5
5A2
100
AcDbEntity
  8
0
100
AcDbEllipse
 62
7
  6
CONTINUOUS
 10
175.7657519872
 20
134.3439476604
 30
0.0
 11
0.0
 21
27.0638547404
 31
0.0
 40
0.9791657639
 41
-1.4640686563
 42
-1.443487311
  0
ELLIPSE
  5
5A3
100
AcDbEntity
  8
0
100
AcDbEllipse
 62
7
  6
CONTINUOUS
 10
175.7657519872
 20
133.8895433215
 30
0.0
 11
26.75
 21
-0.0
 31
0.0
 40
0.1458967187
 41
-0.0553241489
 42
-0.0198611188
  0
ELLIPSE
  5
5A4
100
AcDbEntity
  8
0
100
AcDbEllipse
 62
7
  6
CONTINUOUS
 10
175.7657519872
 20
135.785440482
 30
0.0
 11
26.5
 21
-0.0
 31
0.0
 40
0.5106380606
 41
0.0861915854
 42
0.1067276705
  0
ELLIPSE
  5
5A5
100
AcDbEntity
  8
0
100
AcDbEllipse
 62
7
  6
CONTINUOUS
 10
175.7657519872
 20
136.4843759479
 30
0.0
 11
26.5
 21
-0.0
 31
0.0
 40
0.2042553906
 41
6.3437569401
 42
6.3693768926
  0
ELLIPSE
  5
5A6
100
AcDbEntity
  8
0
100
AcDbEllipse
 62
7
  6
CONTINUOUS
 10
175.7657519872
 20
130.5871113682
 30
0.0
 11
26.75
 21
0.0
 31
0.0
 40
0.9118538228
 41
6.1770672301
 42
6.3190185396
  0
ELLIPSE
  5
5A7
100
AcDbEntity
  8
0
100
AcDbEllipse
 62
7
  6
CONTINUOUS
 10
175.7657519872
 20
121.257512919
 30
0.0
 11
0.0
 21
71.0425584342
 31
0.0
 40
0.3730158455
 41
-1.3500616373
 42
-1.3079532331
  0
ELLIPSE
  5
5A8
100
AcDbEntity
  8
0
100
AcDbEllipse
 62
7
  6
CONTINUOUS
 10
175.7657519872
 20
138.2322482518
 30
0.0
 11
-0.0
 21
40.9787575996
 31
0.0
 40
0.6527772331
 41
-1.5750798193
 42
-1.5649551721
  0
ELLIPSE
  5
5A9
100
AcDbEntity
  8
0
100
AcDbEllipse
 62
7
  6
CONTINUOUS
 10
175.7657519872
 20
133.9467869713
 30
0.0
 11
26.75
 21
-0.0
 31
0.0
 40
0.3404254913
 41
-0.3241844423
 42
-0.3082052024
  0
ELLIPSE
  5
5AA
100
AcDbEntity
  8
0
100
AcDbEllipse
 62
7
  6
CONTINUOUS
 10
175.7657519872
 20
139.4716167352
 30
0.0
 11
0.0
 21
27.3191717331
 31
0.0
 40
0.9791658496
 41
-1.8790015292
 42
-1.8683939722
  0
ELLIPSE
  5
5AB
100
AcDbEntity
  8
0
100
AcDbEllipse
 62
7
  6
CONTINUOUS
 10
175.7657519872
 20
155.4928379444
 30
0.0
 11
0.0
 21
81.9572807173
 31
0.0
 40
0.3263895503
 41
-1.8683939722
 42
-1.8631031736
  0
ELLIPSE
  5
5AC
100
AcDbEntity
  8
0
100
AcDbEllipse
 62
7
  6
CONTINUOUS
 10
175.7657519872
 20
108.6737866512
 30
0.0
 11
0.0
 21
81.9572807173
 31
0.0
 40
0.3263895503
 41
-1.27848948
 42
-1.2731986814
  0
ELLIPSE
  5
5AD
100
AcDbEntity
  8
0
100
AcDbEllipse
 62
7
  6
CONTINUOUS
 10
175.7657519872
 20
124.6950078604
 30
0.0
 11
0.0
 21
27.3191717331
 31
0.0
 40
0.9791658496
 41
-1.2731986814
 42
-1.2625911244
  0
ELLIPSE
  5
5AE
100
AcDbEntity
  8
0
100
AcDbEllipse
 62
7
  6
CONTINUOUS
 10
175.7657519872
 20
130.2198376243
 30
0.0
 11
26.75
 21
-0.0
 31
0.0
 40
0.3404254913
 41
0.3082052024
 42
0.3241844423
  0
ELLIPSE
  5
5AF
100
AcDbEntity
  8
0
100
AcDbEllipse
 62
7
  6
CONTINUOUS
 10
175.7657519872
 20
130.2198376243
 30
0.0
 11
26.5
 21
-0.0
 31
0.0
 40
0.3404254913
 41
0.3112099429
 42
0.3273563253
  0
ELLIPSE
  5
5B0
100
AcDbEntity
  8
0
100
AcDbEllipse
 62
7
  6
CONTINUOUS
 10
175.7657519872
 20
124.6950078604
 30
0.0
 11
-0.0
 21
27.0638523711
 31
0.0
 40
0.9791658496
 41
-1.2703039398
 42
-1.2595863839
  0
ELLIPSE
  5
5B1
100
AcDbEntity
  8
0
100
AcDbEllipse
 62
7
  6
CONTINUOUS
 10
175.7657519872
 20
108.6737866512
 30
0.0
 11
0.0
 21
81.1913248228
 31
0.0
 40
0.3263895503
 41
-1.2756493305
 42
-1.2703039398
  0
ELLIPSE
  5
5B2
100
AcDbEntity
  8
0
100
AcDbEllipse
 62
7
  6
CONTINUOUS
 10
175.7657519872
 20
155.4928379444
 30
0.0
 11
0.0
 21
81.1913248228
 31
0.0
 40
0.3263895503
 41
-1.8712887137
 42
-1.8659433231
  0
ELLIPSE
  5
5B3
100
AcDbEntity
  8
0
100
AcDbEllipse
 62
7
  6
CONTINUOUS
 10
175.7657519872
 20
139.4716167352
 30
0.0
 11
-0.0
 21
27.0638523711
 31
0.0
 40
0.9791658496
 41
-1.8820062697
 42
-1.8712887137
  0
ELLIPSE
  5
5B4
100
AcDbEntity
  8
0
100
AcDbEllipse
 62
7
  6
CONTINUOUS
 10
175.7657519872
 20
133.9467869713
 30
0.0
 11
26.5
 21
-0.0
 31
0.0
 40
0.3404254913
 41
-0.3273563253
 42
-0.3112099429
  0
ELLIPSE
  5
5B5
100
AcDbEntity
  8
0
100
AcDbEllipse
 62
7
  6
CONTINUOUS
 10
175.7657519872
 20
128.1453696546
 30
0.0
 11
26.5
 21
-0.0
 31
0.0
 40
0.3404254913
 41
6.8490708518
 42
6.8673391288
  0
ELLIPSE
  5
5B6
100
AcDbEntity
  8
0
100
AcDbEllipse
 62
7
  6
CONTINUOUS
 10
175.7657519872
 20
118.4716187738
 30
0.0
 11
0.0
 21
27.0638136559
 31
0.0
 40
0.9791672503
 41
-1.0169723937
 42
-1.0049107822
  0
ELLIPSE
  5
5B7
100
AcDbEntity
  8
0
100
AcDbEllipse
 62
7
  6
CONTINUOUS
 10
175.7657519872
 20
90.0034895498
 30
0.0
 11
0.0
 21
81.1915571132
 31
0.0
 40
0.3263886165
 41
-1.0229694701
 42
-1.0169723937
  0
ELLIPSE
  5
5B8
100
AcDbEntity
  8
0
100
AcDbEllipse
 62
7
  6
CONTINUOUS
 10
175.7657519872
 20
136.021254941
 30
0.0
 11
26.75
 21
-0.0
 31
0.0
 40
0.3404254913
 41
-0.5779876452
 42
-0.5599604078
  0
ELLIPSE
  5
5B9
100
AcDbEntity
  8
0
100
AcDbEllipse
 62
7
  6
CONTINUOUS
 10
175.7657519872
 20
145.6950058218
 30
0.0
 11
0.0
 21
27.3191326527
 31
0.0
 40
0.9791672503
 41
-2.1307567346
 42
-2.1188512756
  0
ELLIPSE
  5
5BA
100
AcDbEntity
  8
0
100
AcDbEllipse
 62
7
  6
CONTINUOUS
 10
175.7657519872
 20
174.1631350458
 30
0.0
 11
0.0
 21
81.9575151992
 31
0.0
 40
0.3263886165
 41
-2.1188512756
 42
-2.1129309887
  0
ELLIPSE
  5
5BB
100
AcDbEntity
  8
0
100
AcDbEllipse
 62
7
  6
CONTINUOUS
 10
175.7657519872
 20
174.1631350458
 30
0.0
 11
0.0
 21
81.1915571132
 31
0.0
 40
0.3263886165
 41
-2.1246202599
 42
-2.1186231835
  0
ELLIPSE
  5
5BC
100
AcDbEntity
  8
0
100
AcDbEllipse
 62
7
  6
CONTINUOUS
 10
175.7657519872
 20
145.6950058218
 30
0.0
 11
-0.0
 21
27.0638136559
 31
0.0
 40
0.9791672503
 41
-2.1366818714
 42
-2.1246202599
  0
ELLIPSE
  5
5BD
100
AcDbEntity
  8
0
100
AcDbEllipse
 62
7
  6
CONTINUOUS
 10
175.7657519872
 20
136.021254941
 30
0.0
 11
26.5
 21
-0.0
 31
0.0
 40
0.3404254913
 41
-0.5841538216
 42
-0.5658855446
  0
ELLIPSE
  5
5BE
100
AcDbEntity
  8
0
100
AcDbEllipse
 62
7
  6
CONTINUOUS
 10
175.7657519872
 20
140.3687735853
 30
0.0
 11
26.5
 21
-0.0
 31
0.0
 40
0.3404254913
 41
0.236474531
 42
0.2522743083
  0
ELLIPSE
  5
5BF
100
AcDbEntity
  8
0
100
AcDbEllipse
 62
7
  6
CONTINUOUS
 10
175.7657519872
 20
136.14182667
 30
0.0
 11
-0.0
 21
27.0638136559
 31
0.0
 40
0.9791672503
 41
-1.3448214052
 42
-1.3343217958
  0
ELLIPSE
  5
5C0
100
AcDbEntity
  8
0
100
AcDbEllipse
 62
7
  6
CONTINUOUS
 10
175.7657519872
 20
124.014148301
 30
0.0
 11
0.0
 21
81.1915571132
 31
0.0
 40
0.3263886165
 41
-1.3500616373
 42
-1.3448214052
  0
ELLIPSE
  5
5C1
100
AcDbEntity
  8
0
100
AcDbEllipse
 62
7
  6
CONTINUOUS
 10
175.7657519872
 20
159.1524762946
 30
0.0
 11
0.0
 21
81.1915571132
 31
0.0
 40
0.3263886165
 41
-1.7967712484
 42
-1.7915310163
  0
ELLIPSE
  5
5C2
100
AcDbEntity
  8
0
100
AcDbEllipse
 62
7
  6
CONTINUOUS
 10
175.7657519872
 20
147.0247979257
 30
0.0
 11
-0.0
 21
27.0638136559
 31
0.0
 40
0.9791672503
 41
-1.8072708578
 42
-1.7967712484
  0
ELLIPSE
  5
5C3
100
AcDbEntity
  8
0
100
AcDbEllipse
 62
7
  6
CONTINUOUS
 10
175.7657519872
 20
142.7978510104
 30
0.0
 11
26.5
 21
-0.0
 31
0.0
 40
0.3404254913
 41
-0.2522743083
 42
-0.236474531
  0
ELLIPSE
  5
5C4
100
AcDbEntity
  8
0
100
AcDbEllipse
 62
7
  6
CONTINUOUS
 10
175.7657519872
 20
90.0034895498
 30
0.0
 11
0.0
 21
81.9575151992
 31
0.0
 40
0.3263886165
 41
-1.0286616649
 42
-1.022741378
  0
ELLIPSE
  5
5C5
100
AcDbEntity
  8
0
100
AcDbEllipse
 62
7
  6
CONTINUOUS
 10
175.7657519872
 20
118.4716187738
 30
0.0
 11
-0.0
 21
27.3191326527
 31
0.0
 40
0.9791672503
 41
-1.022741378
 42
-1.010835919
  0
ELLIPSE
  5
5C6
100
AcDbEntity
  8
0
100
AcDbEllipse
 62
7
  6
CONTINUOUS
 10
175.7657519872
 20
128.1453696546
 30
0.0
 11
26.75
 21
-0.0
 31
0.0
 40
0.3404254913
 41
0.5599604078
 42
0.5779876452
  0
ELLIPSE
  5
5C7
100
AcDbEntity
  8
0
100
AcDbEllipse
 62
7
  6
CONTINUOUS
 10
175.7657519872
 20
121.257512919
 30
0.0
 11
0.0
 21
71.7127712496
 31
0.0
 40
0.3730158455
 41
-1.3521582575
 42
-1.3104670411
  0
ELLIPSE
  5
5C8
100
AcDbEntity
  8
0
100
AcDbEllipse
 62
7
  6
CONTINUOUS
 10
175.7657519872
 20
130.5871113682
 30
0.0
 11
26.5
 21
0.0
 31
0.0
 40
0.9118538228
 41
6.1760622873
 42
6.2831851944
  0
ELLIPSE
  5
5C9
100
AcDbEntity
  8
0
100
AcDbEllipse
 62
7
  6
CONTINUOUS
 10
175.7657519872
 20
140.3687735853
 30
0.0
 11
26.75
 21
-0.0
 31
0.0
 40
0.3404254913
 41
0.2342229595
 42
0.2498660262
  0
ELLIPSE
  5
5CA
100
AcDbEntity
  8
0
100
AcDbEllipse
 62
7
  6
CONTINUOUS
 10
175.7657519872
 20
133.8895433215
 30
0.0
 11
26.5
 21
-0.0
 31
0.0
 40
0.1458967187
 41
-0.0558466155
 42
-0.0200485128
  0
ELLIPSE
  5
5CB
100
AcDbEntity
  8
0
100
AcDbEllipse
 62
7
  6
CONTINUOUS
 10
175.7657519872
 20
136.14182667
 30
0.0
 11
0.0
 21
27.3191326527
 31
0.0
 40
0.9791672503
 41
-1.3469694894
 42
-1.3365733673
  0
ELLIPSE
  5
5CC
100
AcDbEntity
  8
0
100
AcDbEllipse
 62
7
  6
CONTINUOUS
 10
175.7657519872
 20
124.014148301
 30
0.0
 11
0.0
 21
81.9575151992
 31
0.0
 40
0.3263886165
 41
-1.3521582575
 42
-1.3469694894
  0
ELLIPSE
  5
5CD
100
AcDbEntity
  8
0
100
AcDbEllipse
 62
7
  6
CONTINUOUS
 10
175.7657519872
 20
159.1524762946
 30
0.0
 11
0.0
 21
81.9575151992
 31
0.0
 40
0.3263886165
 41
-1.7946231641
 42
-1.789434396
  0
ELLIPSE
  5
5CE
100
AcDbEntity
  8
0
100
AcDbEllipse
 62
7
  6
CONTINUOUS
 10
175.7657519872
 20
147.0247979257
 30
0.0
 11
0.0
 21
27.3191326527
 31
0.0
 40
0.9791672503
 41
-1.8050192863
 42
-1.7946231641
  0
ELLIPSE
  5
5CF
100
AcDbEntity
  8
0
100
AcDbEllipse
 62
7
  6
CONTINUOUS
 10
175.7657519872
 20
142.7978510104
 30
0.0
 11
26.75
 21
-0.0
 31
0.0
 40
0.3404254913
 41
-0.2498660262
 42
-0.2342229595
  0
ELLIPSE
  5
5D0
100
AcDbEntity
  8
0
100
AcDbEllipse
 62
7
  6
CONTINUOUS
 10
175.7657519872
 20
134.4290551883
 30
0.0
 11
26.5
 21
0.0
 31
0.0
 40
0.510637263
 41
-0.0763319852
 42
-0.0558466155
  0
ELLIPSE
  5
5D1
100
AcDbEntity
  8
0
100
AcDbEllipse
 62
7
  6
CONTINUOUS
 10
175.7657519872
 20
135.4609741592
 30
0.0
 11
-0.0
 21
27.0638523711
 31
0.0
 40
0.9791658496
 41
-1.667645774
 42
-1.647128312
  0
ELLIPSE
  5
5D2
100
AcDbEntity
  8
0
100
AcDbEllipse
 62
7
  6
CONTINUOUS
 10
175.7657519872
 20
136.4843759479
 30
0.0
 11
26.75
 21
0.0
 31
0.0
 40
0.2042553906
 41
0.0600048593
 42
0.085384084
  0
ELLIPSE
  5
5D3
100
AcDbEntity
  8
0
100
AcDbEllipse
 62
7
  6
CONTINUOUS
 10
175.7657519872
 20
143.31207449
 30
0.0
 11
0.0
 21
108.2557192067
 31
0.0
 40
0.244790762
 41
-1.6727811807
 42
-1.667645774
  0
ELLIPSE
  5
5D4
100
AcDbEntity
  8
0
100
AcDbEllipse
 62
7
  6
CONTINUOUS
 10
175.7657519872
 20
138.1347306127
 30
0.0
 11
26.75
 21
-0.0
 31
0.0
 40
0.6808512211
 41
-0.0194716257
 42
-0.0042834925
  0
ELLIPSE
  5
5D5
100
AcDbEntity
  8
0
100
AcDbEllipse
 62
7
  6
CONTINUOUS
 10
175.7657519872
 20
137.9130993558
 30
0.0
 11
26.75
 21
-0.0
 31
0.0
 40
0.2553189968
 41
-0.0397300775
 42
-0.0194716257
  0
ELLIPSE
  5
5D6
100
AcDbEntity
  8
0
100
AcDbEllipse
 62
7
  6
CONTINUOUS
 10
175.7657519872
 20
135.785440482
 30
0.0
 11
26.75
 21
0.0
 31
0.0
 40
0.5106380606
 41
0.085384084
 42
0.1057264645
  0
ELLIPSE
  5
5D7
100
AcDbEntity
  8
0
100
AcDbEllipse
 62
7
  6
CONTINUOUS
 10
175.7657519872
 20
134.3439476604
 30
0.0
 11
-0.0
 21
27.3191741247
 31
0.0
 40
0.9791657639
 41
-1.4650698623
 42
-1.4446834935
  0
ELLIPSE
  5
5D8
100
AcDbEntity
  8
0
100
AcDbEllipse
 62
7
  6
CONTINUOUS
 10
175.7657519872
 20
130.9077837726
 30
0.0
 11
0.0
 21
54.6382748719
 31
0.0
 40
0.4895835394
 41
-1.4446834935
 42
-1.4344710389
  0
ELLIPSE
  5
5D9
100
AcDbEntity
  8
0
100
AcDbEllipse
 62
7
  6
CONTINUOUS
 10
175.7657519872
 20
119.7695207907
 30
0.0
 11
0.0
 21
136.5954678622
 31
0.0
 40
0.1958337302
 41
-1.4344710389
 42
-1.4293595021
  0
ENDSEC
  0
SECTION
  2
OBJECTS
  0
DICTIONARY
  5
C
100
AcDbDictionary
280
0
281
1
  3
ACAD_GROUP
350
D
  3
ACAD_MLINESTYLE
350
17
  3
ACAD_LAYOUT
350
1A
  3
ACAD_PLOTSETTINGS
350
19
  3
ACAD_PLOTSTYLENAME
350
E
  0
DICTIONARY
  5
D
102
{ACAD_REACTORS
330
C
102
}
100
AcDbDictionary
280
0
281
1
  0
ACDBDICTIONARYWDFLT
  5
E
102
{ACAD_REACTORS
330
C
102
}
100
AcDbDictionary
281
1
  3
Normal
350
F
100
AcDbDictionaryWithDefault
340
F
  0
DICTIONARY
  5
17
102
{ACAD_REACTORS
330
C
102
}
100
AcDbDictionary
280
0
281
1
  3
Standard
350
18
  0
DICTIONARY
  5
19
102
{ACAD_REACTORS
330
C
102
}
100
AcDbDictionary
281
1
  0
DICTIONARY
  5
1A
102
{ACAD_REACTORS
330
C
102
}
100
AcDbDictionary
281
1
  3
Model
350
5DA
  3
Layout1
350
5DB
  0
ACDBPLACEHOLDER
  5
F
102
{ACAD_REACTORS
330
E
102
}
  0
MLINESTYLE
  5
18
102
{ACAD_REACTORS
330
17
102
}
100
AcDbMlineStyle
  2
STANDARD
 70
0
  3

 62
256
 51
90.0
 52
90.0
 71
2
 49
0.5
 62
256
  6
BYLAYER
 49
-0.5
 62
256
  6
BYLAYER
  0
LAYOUT
  5
5DA
102
{ACAD_REACTORS
330
1A
102
}
100
AcDbPlotSettings
  1

  2
none_device
  4
ISO_A3_(420.00_x_297.00_MM)
  6

 40
0.0
 41
0.0
 42
0.0
 43
0.0
 44
420.0
 45
297.0
 46
0.0
 47
0.0
 48
0.0
 49
0.0
140
0.0
141
0.0
142
1.0
143
1.0
 70
1024
 72
1
 73
0
 74
0
  7

 75
0
147
1.0
148
0.0
149
0.0
100
AcDbLayout
  1
Model
 70
0
 71
0
 10
0.0
 20
0.0
 11
420.0
 21
297.0
 12
0.0
 22
0.0
 32
0.0
 14
0.0
 24
0.0
 34
0.0
 15
0.0
 25
0.0
 35
0.0
146
0.0
 13
0.0
 23
0.0
 33
0.0
 16
1.0
 26
0.0
 36
0.0
 17
0.0
 27
1.0
 37
0.0
 76
0
330
20D
345
0
346
0
  0
LAYOUT
  5
5DB
102
{ACAD_REACTORS
330
1A
102
}
100
AcDbPlotSettings
  1

  2
none_device
  4
ISO_A3_(420.00_x_297.00_MM)
  6

 40
0.0
 41
0.0
 42
0.0
 43
0.0
 44
420.0
 45
297.0
 46
0.0
 47
0.0
 48
0.0
 49
0.0
140
0.0
141
0.0
142
1.0
143
1.0
 70
0
 72
1
 73
0
 74
0
  7

 75
0
147
1.0
148
0.0
149
0.0
100
AcDbLayout
  1
Layout1
 70
0
 71
1
 10
0.0
 20
0.0
 11
420.0
 21
297.0
 12
0.0
 22
0.0
 32
0.0
 14
0.0
 24
0.0
 34
0.0
 15
0.0
 25
0.0
 35
0.0
146
0.0
 13
0.0
 23
0.0
 33
0.0
 16
1.0
 26
0.0
 36
0.0
 17
0.0
 27
1.0
 37
0.0
 76
0
330
20E
345
0
346
0
  0
ENDSEC
  0
EOF
