999
DXF file: 001-m31452-p-40.dxf
999
Pro/ENGINEER 2011490 by Parametric Technology Corporation
  0
SECTION
  2
HEADER
  9
$ACADVER
  1
AC1015
  9
$DWGCODEPAGE
  3
ANSI_1252
  9
$EXTMAX
 10
420.0
 20
297.0
 30
0.0
  9
$EXTMIN
 10
0.0
 20
0.0
 30
0.0
  9
$LIMMIN
 10
0.0
 20
0.0
  9
$LIMMAX
 10
420.0
 20
297.0
  9
$VIEWCTR
 10
210.0
 20
148.5
  9
$VIEWSIZE
 40
297.0
  9
$CLAYER
  8
0
  9
$LTSCALE
 40
23.1
  9
$CELTYPE
  6
BYLAYER
  9
$DIMSCALE
 40
1.0
  9
$DIMASZ
 40
3.5
  9
$DIMEXO
 40
2.625
  9
$DIMDLI
 40
15.96
  9
$DIMEXE
 40
7.56
  9
$DIMCEN
 40
3.78
  9
$DIMLFAC
 40
1.0
  9
$DIMBLK
  1
_FILLED
  9
$DIMTXT
 40
3.5
  9
$DIMTOL
 70
1
  9
$DIMLIM
 70
0
  9
$DIMTFAC
 40
1.0
  9
$DIMTP
 40
0.005
  9
$DIMTM
 40
0.005
  9
$PDMODE
 70
3
  9
$PDSIZE
 40
0.3125
  9
$HANDSEED
  5
585
  9
$TILEMODE
 70
1
  9
$MEASUREMENT
 70
1
  9
$INSUNITS
 70
4
  0
ENDSEC
  0
SECTION
  2
CLASSES
  0
CLASS
  1
ACDBDICTIONARYWDFLT
  2
AcDbDictionaryWithDefault
  3
AutoCAD 2000
 90
0
280
0
281
0
  0
CLASS
  1
ACDBPLACEHOLDER
  2
AcDbPlaceHolder
  3
AutoCAD 2000
 90
0
280
0
281
0
  0
CLASS
  1
LAYOUT
  2
AcDbLayout
  3
AutoCAD 2000
 90
0
280
0
281
0
  0
ENDSEC
  0
SECTION
  2
TABLES
  0
TABLE
  2
VPORT
  5
8
100
AcDbSymbolTable
 70
2
  0
VPORT
  5
1F4
100
AcDbSymbolTableRecord
100
AcDbViewportTableRecord
  2
*ACTIVE
 70
0
 10
0.0
 20
0.0
 11
1.0
 21
1.0
 12
210.0
 22
148.5
 13
0.0
 23
0.0
 14
1.0
 24
1.0
 15
0.0
 25
0.0
 16
0.0
 26
0.0
 36
1.0
 17
0.0
 27
0.0
 37
0.0
 40
297.0
 41
1.4141414141
 42
50.0
 43
0.0
 44
0.0
 50
0.0
 51
0.0
 71
0
 72
100
 73
1
 74
1
 75
0
 76
0
 77
0
 78
0
  0
ENDTAB
  0
TABLE
  2
LTYPE
  5
5
100
AcDbSymbolTable
 70
6
  0
LTYPE
  5
14
100
AcDbSymbolTableRecord
100
AcDbLinetypeTableRecord
  2
BYBLOCK
 70
0
  3

 72
65
 73
0
 40
0.0
  0
LTYPE
  5
15
100
AcDbSymbolTableRecord
100
AcDbLinetypeTableRecord
  2
BYLAYER
 70
0
  3

 72
65
 73
0
 40
0.0
  0
LTYPE
  5
16
100
AcDbSymbolTableRecord
100
AcDbLinetypeTableRecord
  2
CONTINUOUS
 70
64
  3
Solid line
 72
65
 73
0
 40
0.0
  0
LTYPE
  5
1F5
100
AcDbSymbolTableRecord
100
AcDbLinetypeTableRecord
  2
CENTER
 70
64
  3
____ _ ____ _ ____ _ ____ _ ____ _ ____ _ ____
 72
65
 73
4
 40
0.6
 49
0.375
 74
0
 49
-0.075
 74
0
 49
0.075
 74
0
 49
-0.075
 74
0
  0
LTYPE
  5
1F6
100
AcDbSymbolTableRecord
100
AcDbLinetypeTableRecord
  2
HIDDEN
 70
64
  3
- - - - - - - - - - - - - - - - - - - -
 72
65
 73
2
 40
0.2
 49
0.1
 74
0
 49
-0.1
 74
0
  0
LTYPE
  5
1F7
100
AcDbSymbolTableRecord
100
AcDbLinetypeTableRecord
  2
PHANTOM
 70
64
  3
_____ _ _ _____ _ _ _____ _ _ _____
 72
65
 73
6
 40
0.8
 49
0.45
 74
0
 49
-0.05
 74
0
 49
0.1
 74
0
 49
-0.05
 74
0
 49
0.1
 74
0
 49
-0.05
 74
0
  0
LTYPE
  5
1F8
100
AcDbSymbolTableRecord
100
AcDbLinetypeTableRecord
  2
DOT
 70
64
  3
. . . . . . . . . . . . . . . . . . . .
 72
65
 73
2
 40
0.2
 49
0.1
 74
0
 49
-0.1
 74
0
  0
LTYPE
  5
1F9
100
AcDbSymbolTableRecord
100
AcDbLinetypeTableRecord
  2
DASHED
 70
64
  3
- - - - - - - - - - - - - - - - - - - -
 72
65
 73
2
 40
0.2
 49
0.1
 74
0
 49
-0.1
 74
0
  0
ENDTAB
  0
TABLE
  2
LAYER
  5
2
100
AcDbSymbolTable
 70
36
  0
LAYER
  5
10
100
AcDbSymbolTableRecord
100
AcDbLayerTableRecord
  2
0
 70
0
 62
7
  6
CONTINUOUS
370
-3
390
F
  0
LAYER
  5
1FA
100
AcDbSymbolTableRecord
100
AcDbLayerTableRecord
  2
DEFAULT_1
 70
0
 62
7
  6
CENTER
370
-3
390
F
  0
LAYER
  5
1FB
100
AcDbSymbolTableRecord
100
AcDbLayerTableRecord
  2
DEFAULT_2
 70
0
 62
8
  6
HIDDEN
370
-3
390
F
  0
LAYER
  5
1FC
100
AcDbSymbolTableRecord
100
AcDbLayerTableRecord
  2
DEFAULT_3
 70
0
 62
7
  6
PHANTOM
370
-3
390
F
  0
LAYER
  5
1FD
100
AcDbSymbolTableRecord
100
AcDbLayerTableRecord
  2
AUSFORMSCHRAEGEN
 70
0
 62
7
  6
CONTINUOUS
370
-3
390
F
  0
LAYER
  5
1FE
100
AcDbSymbolTableRecord
100
AcDbLayerTableRecord
  2
BEZUGSACHSEN
 70
0
 62
7
  6
CONTINUOUS
370
-3
390
F
  0
LAYER
  5
1FF
100
AcDbSymbolTableRecord
100
AcDbLayerTableRecord
  2
BEZUGSEBENEN
 70
0
 62
7
  6
CONTINUOUS
370
-3
390
F
  0
LAYER
  5
200
100
AcDbSymbolTableRecord
100
AcDbLayerTableRecord
  2
BG_STARTBEZUEGE
 70
0
 62
7
  6
CONTINUOUS
370
-3
390
F
  0
LAYER
  5
201
100
AcDbSymbolTableRecord
100
AcDbLayerTableRecord
  2
FASEN
 70
0
 62
7
  6
CONTINUOUS
370
-3
390
F
  0
LAYER
  5
202
100
AcDbSymbolTableRecord
100
AcDbLayerTableRecord
  2
HILFEN
 70
0
 62
7
  6
CONTINUOUS
370
-3
390
F
  0
LAYER
  5
203
100
AcDbSymbolTableRecord
100
AcDbLayerTableRecord
  2
KONSTRUKTIONSELEMENTE
 70
0
 62
7
  6
CONTINUOUS
370
-3
390
F
  0
LAYER
  5
204
100
AcDbSymbolTableRecord
100
AcDbLayerTableRecord
  2
NORM
 70
0
 62
7
  6
CONTINUOUS
370
-3
390
F
  0
LAYER
  5
205
100
AcDbSymbolTableRecord
100
AcDbLayerTableRecord
  2
PLATZIERUNG
 70
0
 62
7
  6
CONTINUOUS
370
-3
390
F
  0
LAYER
  5
206
100
AcDbSymbolTableRecord
100
AcDbLayerTableRecord
  2
PLAZIERUNG
 70
0
 62
7
  6
CONTINUOUS
370
-3
390
F
  0
LAYER
  5
207
100
AcDbSymbolTableRecord
100
AcDbLayerTableRecord
  2
RUNDUNGEN
 70
0
 62
7
  6
CONTINUOUS
370
-3
390
F
  0
LAYER
  5
208
100
AcDbSymbolTableRecord
100
AcDbLayerTableRecord
  2
TEIL_STARTBEZUEGE
 70
0
 62
7
  6
CONTINUOUS
370
-3
390
F
  0
LAYER
  5
209
100
AcDbSymbolTableRecord
100
AcDbLayerTableRecord
  2
T_STARTBEZUEGE
 70
0
 62
7
  6
CONTINUOUS
370
-3
390
F
  0
LAYER
  5
20A
100
AcDbSymbolTableRecord
100
AcDbLayerTableRecord
  2
ZEICHNUNGSBEMASSUNGEN
 70
0
 62
7
  6
CONTINUOUS
370
-3
390
F
  0
ENDTAB
  0
TABLE
  2
STYLE
  5
3
100
AcDbSymbolTable
 70
1
  0
STYLE
  5
11
100
AcDbSymbolTableRecord
100
AcDbTextStyleTableRecord
  2
STANDARD
 70
0
 40
0.0
 41
0.7
 50
0.0
 71
0
 42
0.2
  3
txt
  4

  0
STYLE
  5
20B
100
AcDbSymbolTableRecord
100
AcDbTextStyleTableRecord
  2
TEXTSTYLE_1
 70
0
 40
0.0
 41
0.8
 50
0.0
 71
0
 42
0.2
  3
gdt
  4

  0
ENDTAB
  0
TABLE
  2
VIEW
  5
6
100
AcDbSymbolTable
 70
0
  0
ENDTAB
  0
TABLE
  2
UCS
  5
7
100
AcDbSymbolTable
 70
0
  0
ENDTAB
  0
TABLE
  2
APPID
  5
9
100
AcDbSymbolTable
 70
1
  0
APPID
  5
20C
100
AcDbSymbolTableRecord
100
AcDbRegAppTableRecord
  2
ACAD
 70
0
  0
ENDTAB
  0
TABLE
  2
BLOCK_RECORD
  5
1
100
AcDbSymbolTable
 70
0
  0
BLOCK_RECORD
  5
20D
100
AcDbSymbolTableRecord
100
AcDbBlockTableRecord
  2
*Model_Space
  0
BLOCK_RECORD
  5
20E
100
AcDbSymbolTableRecord
100
AcDbBlockTableRecord
  2
*Paper_Space
  0
ENDTAB
  0
TABLE
  2
DIMSTYLE
  5
A
100
AcDbSymbolTable
 70
1
100
AcDbDimStyleTable
 71
0
  0
DIMSTYLE
105
20F
100
AcDbSymbolTableRecord
100
AcDbDimStyleTableRecord
  2
STANDARD
 70
0
  3

  4

 40
1.0
 41
3.5
 42
0.0625
 43
0.38
 44
0.18
 45
0.0
 46
0.0
 47
0.005
 48
0.005
140
3.5
141
0.09
142
0.0
143
25.4
144
1.0
145
0.0
146
1.0
147
0.09
 71
1.0
 72
0.0
 73
0
 74
0
 75
0
 76
0
 77
1
 78
8
170
0
171
2
172
0
173
0
174
0
175
0
176
0
177
0
178
5
270
2
271
3
272
3
273
2
274
2
275
0
280
0
281
0
282
0
283
1
284
8
285
0
286
0
287
3
288
0
340
11
  0
ENDTAB
  0
ENDSEC
  0
SECTION
  2
BLOCKS
  0
BLOCK
  5
20
100
AcDbEntity
  8
0
100
AcDbBlockBegin
  2
*Model_Space
 70
0
 10
0.0
 20
0.0
 30
0.0
  3
*Model_Space
  1

  0
ENDBLK
  5
21
100
AcDbEntity
  8
0
100
AcDbBlockEnd
  0
BLOCK
  5
1C
100
AcDbEntity
  8
0
100
AcDbBlockBegin
  2
*Paper_Space
 70
0
 10
0.0
 20
0.0
 30
0.0
  3
*Paper_Space
  1

  0
ENDBLK
  5
1D
100
AcDbEntity
  8
0
100
AcDbBlockEnd
  0
ENDSEC
  0
SECTION
  2
ENTITIES
  0
MTEXT
  5
210
100
AcDbEntity
  8
0
100
AcDbMText
 62
5
  6
CONTINUOUS
  7
STANDARD
 71
2
 72
1
 10
152.4526064013
 20
46.4024056457
 30
0.0
 11
0.0
 21
1.0
 31
0.0
 44
0.9
  1
RUD WPP-B\P1,5t
 40
5.0
 41
39.4047619048
  0
MTEXT
  5
211
100
AcDbEntity
  8
0
100
AcDbMText
 62
5
  6
CONTINUOUS
  7
STANDARD
 71
2
 72
1
 10
252.0484989821
 20
155.9849364123
 30
0.0
 11
1.0
 21
0.0
 31
0.0
 44
0.9
  1
RUD\PWPP-B 1,5t
 40
5.0
 41
38.2142857143
  0
LINE
  5
212
100
AcDbEntity
  8
0
100
AcDbLine
 62
7
  6
CONTINUOUS
 10
0.0
 20
0.0
 11
0.0
 21
297.0
  0
LINE
  5
213
100
AcDbEntity
  8
0
100
AcDbLine
 62
7
  6
CONTINUOUS
 10
0.0
 20
0.0
 11
420.0
 21
0.0
  0
LINE
  5
214
100
AcDbEntity
  8
0
100
AcDbLine
 62
7
  6
CONTINUOUS
 10
0.0
 20
297.0
 11
420.0
 21
297.0
  0
LINE
  5
215
100
AcDbEntity
  8
0
100
AcDbLine
 62
7
  6
CONTINUOUS
 10
420.0
 20
0.0
 11
420.0
 21
297.0
  0
LINE
  5
216
100
AcDbEntity
  8
FASEN
100
AcDbLine
 62
7
  6
CONTINUOUS
 10
180.5998218332
 20
130.9026557383
 11
135.5998218336
 21
130.9026557383
  0
LINE
  5
217
100
AcDbEntity
  8
FASEN
100
AcDbLine
 62
7
  6
CONTINUOUS
 10
181.0998218334
 20
131.4026557383
 11
135.0998218334
 21
131.4026557383
  0
LINE
  5
218
100
AcDbEntity
  8
FASEN
100
AcDbLine
 62
7
  6
CONTINUOUS
 10
135.5998218343
 20
130.9026557374
 11
135.0998218344
 21
131.4026557374
  0
LINE
  5
219
100
AcDbEntity
  8
0
100
AcDbLine
 62
7
  6
CONTINUOUS
 10
149.0976397864
 20
250.6755711034
 11
147.2790232834
 21
249.8433247366
  0
LINE
  5
21A
100
AcDbEntity
  8
0
100
AcDbLine
 62
7
  6
CONTINUOUS
 10
147.9107510831
 20
249.6644466929
 11
149.3504892925
 21
250.3233084662
  0
LINE
  5
21B
100
AcDbEntity
  8
0
100
AcDbLine
 62
7
  6
CONTINUOUS
 10
145.5139778335
 20
248.6339092633
 11
145.1272324872
 21
248.4570412075
  0
LINE
  5
21C
100
AcDbEntity
  8
0
100
AcDbLine
 62
7
  6
CONTINUOUS
 10
145.4453892959
 20
248.1624261303
 11
145.6975037832
 21
248.241047883
  0
LINE
  5
21D
100
AcDbEntity
  8
0
100
AcDbLine
 62
7
  6
CONTINUOUS
 10
145.1272324872
 20
248.4570412075
 11
143.5116629497
 21
247.2780861323
  0
LINE
  5
21E
100
AcDbEntity
  8
0
100
AcDbLine
 62
7
  6
CONTINUOUS
 10
144.1663968096
 20
247.2290867426
 11
145.4453892959
 21
248.1624261303
  0
LINE
  5
21F
100
AcDbEntity
  8
0
100
AcDbLine
 62
7
  6
CONTINUOUS
 10
146.1979138628
 20
247.1312114622
 11
144.9189213765
 21
246.1978720745
  0
LINE
  5
220
100
AcDbEntity
  8
0
100
AcDbLine
 62
7
  6
CONTINUOUS
 10
145.2199311471
 20
245.7853862843
 11
146.4316083002
 21
246.6696025907
  0
LINE
  5
221
100
AcDbEntity
  8
0
100
AcDbLine
 62
7
  6
CONTINUOUS
 10
149.8817104136
 20
249.1624893433
 11
148.4419722042
 21
248.5036275701
  0
LINE
  5
222
100
AcDbEntity
  8
0
100
AcDbLine
 62
7
  6
CONTINUOUS
 10
148.654460613
 20
248.0393000077
 11
150.0184229902
 21
248.6634847828
  0
LINE
  5
223
100
AcDbEntity
  8
0
100
AcDbLine
 62
7
  6
CONTINUOUS
 10
148.9435160171
 20
246.2060917306
 11
149.3981701428
 21
246.4141533224
  0
LINE
  5
224
100
AcDbEntity
  8
0
100
AcDbLine
 62
7
  6
CONTINUOUS
 10
160.7801851746
 20
250.8454419875
 11
160.3283735683
 21
250.6592573857
  0
LINE
  5
225
100
AcDbEntity
  8
FASEN
100
AcDbLine
 62
7
  6
CONTINUOUS
 10
135.0998218334
 20
139.4026557383
 11
181.0998218334
 21
139.4026557383
  0
LINE
  5
226
100
AcDbEntity
  8
FASEN
100
AcDbLine
 62
7
  6
CONTINUOUS
 10
135.5998218336
 20
139.9026557383
 11
180.5998218332
 21
139.9026557383
  0
LINE
  5
227
100
AcDbEntity
  8
0
100
AcDbLine
 62
7
  6
CONTINUOUS
 10
173.7862012754
 20
141.4026557383
 11
174.6357675275
 21
141.4026557383
  0
LINE
  5
228
100
AcDbEntity
  8
0
100
AcDbLine
 62
7
  6
CONTINUOUS
 10
176.792651341
 20
141.4026557383
 11
177.2925124994
 21
141.4026557383
  0
LINE
  5
229
100
AcDbEntity
  8
0
100
AcDbLine
 62
7
  6
CONTINUOUS
 10
177.8498218334
 20
141.4026557383
 11
177.9098572352
 21
141.4026557383
  0
LINE
  5
22A
100
AcDbEntity
  8
0
100
AcDbLine
 62
7
  6
CONTINUOUS
 10
177.8355761894
 20
143.5728684244
 11
178.0998216538
 21
143.5728684244
  0
LINE
  5
22B
100
AcDbEntity
  8
0
100
AcDbLine
 62
7
  6
CONTINUOUS
 10
150.0736227417
 20
249.3439080662
 11
149.8817104136
 21
249.1624893433
  0
LINE
  5
22C
100
AcDbEntity
  8
0
100
AcDbLine
 62
7
  6
CONTINUOUS
 10
150.0184229902
 20
248.6634847828
 11
150.361886549
 21
248.9142573035
  0
LINE
  5
22D
100
AcDbEntity
  8
0
100
AcDbLine
 62
7
  6
CONTINUOUS
 10
145.8695731002
 20
244.0469470572
 11
146.2734654846
 21
244.341685826
  0
LINE
  5
22E
100
AcDbEntity
  8
0
100
AcDbLine
 62
7
  6
CONTINUOUS
 10
160.4256189401
 20
250.2127170505
 11
160.7951479578
 21
250.4120852835
  0
LINE
  5
22F
100
AcDbEntity
  8
0
100
AcDbLine
 62
7
  6
CONTINUOUS
 10
161.9785441902
 20
248.84340704
 11
161.7047639822
 21
248.7148894284
  0
LINE
  5
230
100
AcDbEntity
  8
0
100
AcDbLine
 62
7
  6
CONTINUOUS
 10
161.7197248738
 20
248.2815329746
 11
162.1715383669
 21
248.4677172967
  0
LINE
  5
231
100
AcDbEntity
  8
0
100
AcDbLine
 62
7
  6
CONTINUOUS
 10
170.8099309347
 20
246.3647706475
 11
171.2083929734
 21
246.5048332011
  0
LINE
  5
232
100
AcDbEntity
  8
0
100
AcDbLine
 62
7
  6
CONTINUOUS
 10
177.8129995326
 20
144.0835068402
 11
177.2925124994
 21
144.0835068402
  0
LINE
  5
233
100
AcDbEntity
  8
0
100
AcDbLine
 62
7
  6
CONTINUOUS
 10
175.9603929329
 20
144.0835068402
 11
174.6357675275
 21
144.0835068402
  0
LINE
  5
234
100
AcDbEntity
  8
0
100
AcDbLine
 62
7
  6
CONTINUOUS
 10
177.9098571359
 20
144.2111663995
 11
178.0998216538
 21
144.2111663995
  0
LINE
  5
235
100
AcDbEntity
  8
0
100
AcDbLine
 62
7
  6
CONTINUOUS
 10
177.8339927445
 20
144.8494641957
 11
177.2925124994
 21
144.8494641957
  0
LINE
  5
236
100
AcDbEntity
  8
0
100
AcDbLine
 62
7
  6
CONTINUOUS
 10
176.0228342165
 20
144.8494641957
 11
174.6357675275
 21
144.8494641957
  0
LINE
  5
237
100
AcDbEntity
  8
0
100
AcDbLine
 62
7
  6
CONTINUOUS
 10
175.9271182625
 20
144.977123755
 11
176.2036887676
 21
144.977123755
  0
LINE
  5
238
100
AcDbEntity
  8
0
100
AcDbLine
 62
7
  6
CONTINUOUS
 10
177.6394450736
 20
144.977123755
 11
177.8921025602
 21
144.977123755
  0
LINE
  5
239
100
AcDbEntity
  8
0
100
AcDbLine
 62
7
  6
CONTINUOUS
 10
176.0441802783
 20
145.2324428735
 11
176.3189738444
 21
145.2324428735
  0
LINE
  5
23A
100
AcDbEntity
  8
0
100
AcDbLine
 62
7
  6
CONTINUOUS
 10
177.6745983327
 20
145.2324428735
 11
177.9268078625
 21
145.2324428735
  0
LINE
  5
23B
100
AcDbEntity
  8
0
100
AcDbLine
 62
7
  6
CONTINUOUS
 10
176.1011238158
 20
145.6154215512
 11
176.3750611769
 21
145.6154215512
  0
LINE
  5
23C
100
AcDbEntity
  8
0
100
AcDbLine
 62
7
  6
CONTINUOUS
 10
177.6909550623
 20
145.6154215512
 11
177.9429566964
 21
145.6154215512
  0
LINE
  5
23D
100
AcDbEntity
  8
0
100
AcDbLine
 62
7
  6
CONTINUOUS
 10
176.1011238158
 20
145.9984005866
 11
176.3750611769
 21
145.9984005866
  0
LINE
  5
23E
100
AcDbEntity
  8
0
100
AcDbLine
 62
7
  6
CONTINUOUS
 10
177.6909550623
 20
145.9984005866
 11
177.9429566964
 21
145.9984005866
  0
LINE
  5
23F
100
AcDbEntity
  8
0
100
AcDbLine
 62
7
  6
CONTINUOUS
 10
176.0441802783
 20
146.3813792643
 11
176.3189738444
 21
146.3813792643
  0
LINE
  5
240
100
AcDbEntity
  8
0
100
AcDbLine
 62
7
  6
CONTINUOUS
 10
177.6745983327
 20
146.3813792643
 11
177.9268078625
 21
146.3813792643
  0
LINE
  5
241
100
AcDbEntity
  8
0
100
AcDbLine
 62
7
  6
CONTINUOUS
 10
175.9271182625
 20
146.6366983828
 11
176.2036887676
 21
146.6366983828
  0
LINE
  5
242
100
AcDbEntity
  8
0
100
AcDbLine
 62
7
  6
CONTINUOUS
 10
177.6394450736
 20
146.6366983828
 11
177.8921025602
 21
146.6366983828
  0
LINE
  5
243
100
AcDbEntity
  8
0
100
AcDbLine
 62
7
  6
CONTINUOUS
 10
177.8339927445
 20
146.7643579421
 11
177.2925124994
 21
146.7643579421
  0
LINE
  5
244
100
AcDbEntity
  8
0
100
AcDbLine
 62
7
  6
CONTINUOUS
 10
176.0228342165
 20
146.7643579421
 11
174.6357675275
 21
146.7643579421
  0
LINE
  5
245
100
AcDbEntity
  8
0
100
AcDbLine
 62
7
  6
CONTINUOUS
 10
173.7862012754
 20
147.4026557383
 11
175.9603929329
 21
147.4026557383
  0
LINE
  5
246
100
AcDbEntity
  8
0
100
AcDbLine
 62
7
  6
CONTINUOUS
 10
176.792651341
 20
147.4026557383
 11
177.8129995326
 21
147.4026557383
  0
LINE
  5
247
100
AcDbEntity
  8
0
100
AcDbLine
 62
7
  6
CONTINUOUS
 10
177.8498218334
 20
147.4026557383
 11
177.9098572352
 21
147.4026557383
  0
LINE
  5
248
100
AcDbEntity
  8
0
100
AcDbLine
 62
7
  6
CONTINUOUS
 10
146.3496917599
 20
247.3473284783
 11
146.1979138628
 21
247.1312114622
  0
LINE
  5
249
100
AcDbEntity
  8
0
100
AcDbLine
 62
7
  6
CONTINUOUS
 10
146.4316083002
 20
246.6696025907
 11
146.7180170563
 21
246.9839659099
  0
LINE
  5
24A
100
AcDbEntity
  8
0
100
AcDbLine
 62
7
  6
CONTINUOUS
 10
169.8017374725
 20
244.8890499931
 11
170.200199528
 21
245.0291125713
  0
LINE
  5
24B
100
AcDbEntity
  8
0
100
AcDbLine
 62
7
  6
CONTINUOUS
 10
176.1570226131
 20
148.4026557383
 11
176.7394972597
 21
148.4026557383
  0
LINE
  5
24C
100
AcDbEntity
  8
0
100
AcDbLine
 62
7
  6
CONTINUOUS
 10
177.4142432334
 20
148.4026557383
 11
177.8339927249
 21
148.4026557383
  0
LINE
  5
24D
100
AcDbEntity
  8
0
100
AcDbLine
 62
7
  6
CONTINUOUS
 10
177.8482394885
 20
148.4026557383
 11
178.0982592694
 21
148.4026557383
  0
LINE
  5
24E
100
AcDbEntity
  8
0
100
AcDbLine
 62
7
  6
CONTINUOUS
 10
177.8304294013
 20
148.5303153088
 11
178.0806720405
 21
148.5303153088
  0
LINE
  5
24F
100
AcDbEntity
  8
0
100
AcDbLine
 62
7
  6
CONTINUOUS
 10
177.8018997528
 20
148.7856344608
 11
178.0525002086
 21
148.7856344608
  0
LINE
  5
250
100
AcDbEntity
  8
0
100
AcDbLine
 62
7
  6
CONTINUOUS
 10
178.0998218334
 20
149.1686131833
 11
178.0982592694
 21
149.1686131833
  0
LINE
  5
251
100
AcDbEntity
  8
0
100
AcDbLine
 62
7
  6
CONTINUOUS
 10
177.7741909298
 20
149.2962727425
 11
178.0117372584
 21
149.2962727425
  0
LINE
  5
252
100
AcDbEntity
  8
0
100
AcDbLine
 62
7
  6
CONTINUOUS
 10
177.7351694368
 20
149.8069110689
 11
177.9866108026
 21
149.8069110689
  0
LINE
  5
253
100
AcDbEntity
  8
0
100
AcDbLine
 62
7
  6
CONTINUOUS
 10
177.7212386901
 20
150.4452088652
 11
177.9728563139
 21
150.4452088652
  0
LINE
  5
254
100
AcDbEntity
  8
0
100
AcDbLine
 62
7
  6
CONTINUOUS
 10
177.4320326327
 20
151.0835068402
 11
176.7394972597
 21
151.0835068402
  0
LINE
  5
255
100
AcDbEntity
  8
0
100
AcDbLine
 62
7
  6
CONTINUOUS
 10
177.4965837755
 20
151.8494641957
 11
176.7394972597
 21
151.8494641957
  0
LINE
  5
256
100
AcDbEntity
  8
0
100
AcDbLine
 62
7
  6
CONTINUOUS
 10
177.3303314191
 20
151.977123755
 11
177.5869970758
 21
151.977123755
  0
LINE
  5
257
100
AcDbEntity
  8
0
100
AcDbLine
 62
7
  6
CONTINUOUS
 10
177.3871233554
 20
152.2324428735
 11
177.6430431646
 21
152.2324428735
  0
LINE
  5
258
100
AcDbEntity
  8
0
100
AcDbLine
 62
7
  6
CONTINUOUS
 10
177.4142432334
 20
152.6154215512
 11
177.6698083949
 21
152.6154215512
  0
LINE
  5
259
100
AcDbEntity
  8
0
100
AcDbLine
 62
7
  6
CONTINUOUS
 10
156.5349108515
 20
252.4834944876
 11
156.0772951195
 21
251.854606992
  0
LINE
  5
25A
100
AcDbEntity
  8
0
100
AcDbLine
 62
7
  6
CONTINUOUS
 10
162.1715383669
 20
248.4677172967
 11
162.4722472552
 21
248.7643040463
  0
LINE
  5
25B
100
AcDbEntity
  8
0
100
AcDbLine
 62
7
  6
CONTINUOUS
 10
177.4142432334
 20
152.9984005866
 11
177.6698083949
 21
152.9984005866
  0
LINE
  5
25C
100
AcDbEntity
  8
0
100
AcDbLine
 62
7
  6
CONTINUOUS
 10
177.3871233554
 20
153.3813792643
 11
177.6430431646
 21
153.3813792643
  0
LINE
  5
25D
100
AcDbEntity
  8
0
100
AcDbLine
 62
7
  6
CONTINUOUS
 10
177.3303314191
 20
153.6366983828
 11
177.5869970758
 21
153.6366983828
  0
LINE
  5
25E
100
AcDbEntity
  8
0
100
AcDbLine
 62
7
  6
CONTINUOUS
 10
177.4965837755
 20
153.7643579421
 11
176.7394972597
 21
153.7643579421
  0
LINE
  5
25F
100
AcDbEntity
  8
0
100
AcDbLine
 62
7
  6
CONTINUOUS
 10
176.1570226131
 20
154.4026557383
 11
177.4647385644
 21
154.4026557383
  0
LINE
  5
260
100
AcDbEntity
  8
0
100
AcDbLine
 62
7
  6
CONTINUOUS
 10
177.7212386901
 20
154.4026557383
 11
178.0434925265
 21
154.4026557383
  0
LINE
  5
261
100
AcDbEntity
  8
0
100
AcDbLine
 62
7
  6
CONTINUOUS
 10
150.361886549
 20
248.9142573035
 11
150.5587452397
 21
249.2851288786
  0
LINE
  5
262
100
AcDbEntity
  8
0
100
AcDbLine
 62
7
  6
CONTINUOUS
 10
156.1243669796
 20
251.1753849185
 11
156.5819826951
 21
251.8042726518
  0
LINE
  5
263
100
AcDbEntity
  8
0
100
AcDbLine
 62
7
  6
CONTINUOUS
 10
136.4373218334
 20
219.0122301874
 11
136.7498218334
 21
219.4377620516
  0
LINE
  5
264
100
AcDbEntity
  8
0
100
AcDbLine
 62
7
  6
CONTINUOUS
 10
162.1835042734
 20
249.0691431976
 11
161.9785441902
 21
248.84340704
  0
LINE
  5
265
100
AcDbEntity
  8
0
100
AcDbLine
 62
7
  6
CONTINUOUS
 10
136.1248218334
 20
219.5441450176
 11
135.9164884007
 21
219.3313790855
  0
LINE
  5
266
100
AcDbEntity
  8
0
100
AcDbLine
 62
7
  6
CONTINUOUS
 10
171.0563883074
 20
247.0209675614
 11
170.8435517581
 21
246.857159729
  0
LINE
  5
267
100
AcDbEntity
  8
0
100
AcDbLine
 62
7
  6
CONTINUOUS
 10
171.2083929734
 20
246.5048332011
 11
171.4212295227
 21
246.6686410335
  0
LINE
  5
268
100
AcDbEntity
  8
0
100
AcDbLine
 62
7
  6
CONTINUOUS
 10
170.0481948956
 20
245.5452469809
 11
169.8353583463
 21
245.3814391485
  0
LINE
  5
269
100
AcDbEntity
  8
0
100
AcDbLine
 62
7
  6
CONTINUOUS
 10
170.200199528
 20
245.0291125713
 11
170.4130361109
 21
245.1929204529
  0
LINE
  5
26A
100
AcDbEntity
  8
0
100
AcDbLine
 62
7
  6
CONTINUOUS
 10
136.0206552661
 20
218.7994642553
 11
136.4373218334
 21
219.0122301874
  0
LINE
  5
26B
100
AcDbEntity
  8
0
100
AcDbLine
 62
7
  6
CONTINUOUS
 10
135.9164884007
 20
219.3313790855
 11
135.6039884007
 21
219.2249961195
  0
LINE
  5
26C
100
AcDbEntity
  8
RUNDUNGEN
100
AcDbLine
 62
7
  6
CONTINUOUS
 10
175.8498218334
 20
160.6026557383
 11
172.0998190052
 21
160.6026557383
  0
LINE
  5
26D
100
AcDbEntity
  8
RUNDUNGEN
100
AcDbLine
 62
7
  6
CONTINUOUS
 10
144.0998530034
 20
160.6026557383
 11
140.3498218334
 21
160.6026557383
  0
LINE
  5
26E
100
AcDbEntity
  8
0
100
AcDbLine
 62
7
  6
CONTINUOUS
 10
136.2289884007
 20
219.8632939157
 11
136.1248218334
 21
219.5441450176
  0
LINE
  5
26F
100
AcDbEntity
  8
0
100
AcDbLine
 62
7
  6
CONTINUOUS
 10
136.7498218334
 20
219.4377620516
 11
136.8539884007
 21
219.7569109497
  0
LINE
  5
270
100
AcDbEntity
  8
0
100
AcDbLine
 62
7
  6
CONTINUOUS
 10
136.4373218334
 20
211.0973365751
 11
136.6456552661
 21
211.5228685138
  0
LINE
  5
271
100
AcDbEntity
  8
0
100
AcDbLine
 62
7
  6
CONTINUOUS
 10
136.0206552661
 20
211.6292514799
 11
135.8123218334
 21
211.3101025817
  0
LINE
  5
272
100
AcDbEntity
  8
0
100
AcDbLine
 62
7
  6
CONTINUOUS
 10
136.0206552661
 20
210.6718046737
 11
136.4373218334
 21
211.0973365751
  0
LINE
  5
273
100
AcDbEntity
  8
0
100
AcDbLine
 62
7
  6
CONTINUOUS
 10
135.8123218334
 20
211.3101025817
 11
135.4998218334
 21
211.0973365751
  0
LINE
  5
274
100
AcDbEntity
  8
0
100
AcDbLine
 62
7
  6
CONTINUOUS
 10
132.9998218334
 20
221.3526557383
 11
132.9998218334
 21
216.3526557383
  0
LINE
  5
275
100
AcDbEntity
  8
0
100
AcDbLine
 62
7
  6
CONTINUOUS
 10
132.9998218334
 20
215.3526557383
 11
132.9998218334
 21
212.054783344
  0
LINE
  5
276
100
AcDbEntity
  8
0
100
AcDbLine
 62
7
  6
CONTINUOUS
 10
132.9998218334
 20
209.3526557383
 11
132.9998218334
 21
204.3526557383
  0
LINE
  5
277
100
AcDbEntity
  8
0
100
AcDbLine
 62
7
  6
CONTINUOUS
 10
133.6248218334
 20
204.9909536091
 11
133.6248218334
 21
208.7143579421
  0
LINE
  5
278
100
AcDbEntity
  8
0
100
AcDbLine
 62
7
  6
CONTINUOUS
 10
133.6248218334
 20
212.054783344
 11
133.6248218334
 21
215.3526557383
  0
LINE
  5
279
100
AcDbEntity
  8
0
100
AcDbLine
 62
7
  6
CONTINUOUS
 10
133.6248218334
 20
216.3526557383
 11
133.6248218334
 21
218.5866983232
  0
LINE
  5
27A
100
AcDbEntity
  8
0
100
AcDbLine
 62
7
  6
CONTINUOUS
 10
133.6248218334
 20
219.2249961195
 11
133.6248218334
 21
220.8207409081
  0
LINE
  5
27B
100
AcDbEntity
  8
FASEN
100
AcDbLine
 62
7
  6
CONTINUOUS
 10
135.0998218334
 20
139.4026557383
 11
135.0998218334
 21
131.4026557383
  0
LINE
  5
27C
100
AcDbEntity
  8
BEZUGSACHSEN
100
AcDbLine
 62
7
  6
CONTINUOUS
 10
135.0998218334
 20
139.4026557383
 11
135.0998218334
 21
131.4026557383
  0
LINE
  5
27D
100
AcDbEntity
  8
0
100
AcDbLine
 62
7
  6
CONTINUOUS
 10
136.6456552661
 20
211.5228685138
 11
136.7498218334
 21
212.054783344
  0
LINE
  5
27E
100
AcDbEntity
  8
0
100
AcDbLine
 62
7
  6
CONTINUOUS
 10
137.0623218334
 20
205.5228685138
 11
137.1664884007
 21
206.054783344
  0
LINE
  5
27F
100
AcDbEntity
  8
0
100
AcDbLine
 62
7
  6
CONTINUOUS
 10
136.1248218334
 20
212.054783344
 11
136.0206552661
 21
211.6292514799
  0
LINE
  5
280
100
AcDbEntity
  8
0
100
AcDbLine
 62
7
  6
CONTINUOUS
 10
136.5414884007
 20
206.054783344
 11
136.4373218334
 21
205.6292514799
  0
LINE
  5
281
100
AcDbEntity
  8
0
100
AcDbLine
 62
7
  6
CONTINUOUS
 10
146.7180170563
 20
246.9839659099
 11
146.8367736964
 21
247.3867012707
  0
LINE
  5
282
100
AcDbEntity
  8
0
100
AcDbLine
 62
7
  6
CONTINUOUS
 10
150.1543445028
 20
249.5680377181
 11
150.0736227417
 21
249.3439080662
  0
LINE
  5
283
100
AcDbEntity
  8
0
100
AcDbLine
 62
7
  6
CONTINUOUS
 10
136.8539884007
 20
205.0973365751
 11
137.0623218334
 21
205.5228685138
  0
LINE
  5
284
100
AcDbEntity
  8
0
100
AcDbLine
 62
7
  6
CONTINUOUS
 10
158.4849527253
 20
248.9593233882
 11
157.9676989609
 21
248.0325746495
  0
LINE
  5
285
100
AcDbEntity
  8
0
100
AcDbLine
 62
7
  6
CONTINUOUS
 10
158.3842935157
 20
248.0248572543
 11
158.9015472801
 21
248.951605993
  0
LINE
  5
286
100
AcDbEntity
  8
0
100
AcDbLine
 62
7
  6
CONTINUOUS
 10
162.4722472552
 20
248.7643040463
 11
162.7041360139
 21
249.1581093123
  0
LINE
  5
287
100
AcDbEntity
  8
0
100
AcDbLine
 62
7
  6
CONTINUOUS
 10
136.4373218334
 20
205.6292514799
 11
136.2289884007
 21
205.3101025817
  0
LINE
  5
288
100
AcDbEntity
  8
0
100
AcDbLine
 62
7
  6
CONTINUOUS
 10
136.4373218334
 20
204.6718046737
 11
136.8539884007
 21
205.0973365751
  0
LINE
  5
289
100
AcDbEntity
  8
0
100
AcDbLine
 62
7
  6
CONTINUOUS
 10
135.6039884007
 20
210.4590387137
 11
136.0206552661
 21
210.6718046737
  0
LINE
  5
28A
100
AcDbEntity
  8
0
100
AcDbLine
 62
7
  6
CONTINUOUS
 10
149.0998218334
 20
166.9226557383
 11
148.5998218334
 21
166.9226557383
  0
LINE
  5
28B
100
AcDbEntity
  8
0
100
AcDbLine
 62
7
  6
CONTINUOUS
 10
149.0998218334
 20
167.9226557681
 11
148.5998218334
 21
167.9226557681
  0
LINE
  5
28C
100
AcDbEntity
  8
0
100
AcDbLine
 62
7
  6
CONTINUOUS
 10
149.0998218334
 20
168.4226557383
 11
148.5998218334
 21
168.4226557383
  0
LINE
  5
28D
100
AcDbEntity
  8
0
100
AcDbLine
 62
7
  6
CONTINUOUS
 10
149.0998218334
 20
169.4226556787
 11
148.5998218334
 21
169.4226556787
  0
LINE
  5
28E
100
AcDbEntity
  8
0
100
AcDbLine
 62
7
  6
CONTINUOUS
 10
149.0998224894
 20
169.9226557383
 11
148.5998218334
 21
169.9226557383
  0
LINE
  5
28F
100
AcDbEntity
  8
0
100
AcDbLine
 62
7
  6
CONTINUOUS
 10
149.0998218334
 20
170.2319667055
 11
148.5998218334
 21
170.2319667055
  0
LINE
  5
290
100
AcDbEntity
  8
0
100
AcDbLine
 62
7
  6
CONTINUOUS
 10
136.1248218334
 20
215.3526557383
 11
136.1248218334
 21
212.054783344
  0
LINE
  5
291
100
AcDbEntity
  8
0
100
AcDbLine
 62
7
  6
CONTINUOUS
 10
136.2289884007
 20
220.1824431119
 11
136.2289884007
 21
219.8632939157
  0
LINE
  5
292
100
AcDbEntity
  8
0
100
AcDbLine
 62
7
  6
CONTINUOUS
 10
136.5414884007
 20
207.6505279837
 11
136.5414884007
 21
206.054783344
  0
LINE
  5
293
100
AcDbEntity
  8
0
100
AcDbLine
 62
7
  6
CONTINUOUS
 10
136.7498218334
 20
212.054783344
 11
136.7498218334
 21
215.3526557383
  0
LINE
  5
294
100
AcDbEntity
  8
0
100
AcDbLine
 62
7
  6
CONTINUOUS
 10
136.8539884007
 20
219.7569109497
 11
136.8539884007
 21
220.1824431119
  0
LINE
  5
295
100
AcDbEntity
  8
0
100
AcDbLine
 62
7
  6
CONTINUOUS
 10
137.1664884007
 20
206.054783344
 11
137.1664884007
 21
207.6505279837
  0
LINE
  5
296
100
AcDbEntity
  8
0
100
AcDbLine
 62
7
  6
CONTINUOUS
 10
138.3498218334
 20
158.6026557383
 11
138.3498218334
 21
139.9026557383
  0
LINE
  5
297
100
AcDbEntity
  8
0
100
AcDbLine
 62
7
  6
CONTINUOUS
 10
146.3839860287
 20
247.5830700448
 11
146.3496917599
 21
247.3473284783
  0
LINE
  5
298
100
AcDbEntity
  8
0
100
AcDbLine
 62
7
  6
CONTINUOUS
 10
150.5587452397
 20
249.2851288786
 11
150.6444133634
 21
249.6987113828
  0
LINE
  5
299
100
AcDbEntity
  8
0
100
AcDbLine
 62
7
  6
CONTINUOUS
 10
162.3061817586
 20
249.3080629274
 11
162.1835042734
 21
249.0691431976
  0
LINE
  5
29A
100
AcDbEntity
  8
0
100
AcDbLine
 62
7
  6
CONTINUOUS
 10
169.5954562986
 20
249.4620614127
 11
167.3390233061
 21
246.1592580352
  0
LINE
  5
29B
100
AcDbEntity
  8
0
100
AcDbLine
 62
7
  6
CONTINUOUS
 10
168.0399290032
 20
246.2988383838
 11
168.7600672074
 21
247.3529245901
  0
LINE
  5
29C
100
AcDbEntity
  8
0
100
AcDbLine
 62
7
  6
CONTINUOUS
 10
169.0481224487
 20
247.7745590135
 11
169.7202514795
 21
248.7583728652
  0
LINE
  5
29D
100
AcDbEntity
  8
0
100
AcDbLine
 62
7
  6
CONTINUOUS
 10
171.1524067211
 20
247.1615123693
 11
171.0563883074
 21
247.0209675614
  0
LINE
  5
29E
100
AcDbEntity
  8
0
100
AcDbLine
 62
7
  6
CONTINUOUS
 10
170.1922225162
 20
245.7560641926
 11
170.0481948956
 21
245.5452469809
  0
LINE
  5
29F
100
AcDbEntity
  8
0
100
AcDbLine
 62
7
  6
CONTINUOUS
 10
170.4130361109
 20
245.1929204529
 11
170.6530821453
 21
245.5442824725
  0
LINE
  5
2A0
100
AcDbEntity
  8
0
100
AcDbLine
 62
7
  6
CONTINUOUS
 10
171.4212295227
 20
246.6686410335
 11
171.6132664847
 21
246.949730846
  0
LINE
  5
2A1
100
AcDbEntity
  8
0
100
AcDbLine
 62
7
  6
CONTINUOUS
 10
136.2289884007
 20
205.3101025817
 11
135.9164884007
 21
205.0973365751
  0
LINE
  5
2A2
100
AcDbEntity
  8
0
100
AcDbLine
 62
7
  6
CONTINUOUS
 10
136.0206552661
 20
204.4590387137
 11
136.4373218334
 21
204.6718046737
  0
LINE
  5
2A3
100
AcDbEntity
  8
0
100
AcDbLine
 62
7
  6
CONTINUOUS
 10
149.0998218334
 20
172.4319667055
 11
148.5998218334
 21
172.4319667055
  0
LINE
  5
2A4
100
AcDbEntity
  8
0
100
AcDbLine
 62
7
  6
CONTINUOUS
 10
149.0998218334
 20
173.6319667055
 11
148.5998218334
 21
173.6319667055
  0
LINE
  5
2A5
100
AcDbEntity
  8
FASEN
100
AcDbLine
 62
7
  6
CONTINUOUS
 10
180.5998218329
 20
139.9026557389
 11
181.0998218329
 21
139.4026557389
  0
LINE
  5
2A6
100
AcDbEntity
  8
0
100
AcDbLine
 62
7
  6
CONTINUOUS
 10
133.7289884752
 20
211.6292514799
 11
133.6248218334
 21
212.054783344
  0
LINE
  5
2A7
100
AcDbEntity
  8
0
100
AcDbLine
 62
7
  6
CONTINUOUS
 10
132.9998218334
 20
212.054783344
 11
133.1039885031
 21
211.5228685138
  0
LINE
  5
2A8
100
AcDbEntity
  8
0
100
AcDbLine
 62
7
  6
CONTINUOUS
 10
137.1664884007
 20
207.6505279837
 11
137.0623218334
 21
208.1824431119
  0
LINE
  5
2A9
100
AcDbEntity
  8
0
100
AcDbLine
 62
7
  6
CONTINUOUS
 10
166.4910818893
 20
248.6252801924
 11
166.3051726852
 21
248.2425071046
  0
LINE
  5
2AA
100
AcDbEntity
  8
0
100
AcDbLine
 62
7
  6
CONTINUOUS
 10
167.3546081601
 20
247.7328063967
 11
167.5405173642
 21
248.1155794845
  0
LINE
  5
2AB
100
AcDbEntity
  8
0
100
AcDbLine
 62
7
  6
CONTINUOUS
 10
149.0998218334
 20
175.8319667055
 11
148.5998218334
 21
175.8319667055
  0
LINE
  5
2AC
100
AcDbEntity
  8
RUNDUNGEN
100
AcDbLine
 62
7
  6
CONTINUOUS
 10
168.9517875347
 20
161.7181001666
 11
168.8822872352
 21
161.775450856
  0
LINE
  5
2AD
100
AcDbEntity
  8
0
100
AcDbLine
 62
7
  6
CONTINUOUS
 10
133.1039885031
 20
211.5228685138
 11
133.3123218334
 21
211.0973365751
  0
LINE
  5
2AE
100
AcDbEntity
  8
0
100
AcDbLine
 62
7
  6
CONTINUOUS
 10
136.4373218334
 20
208.0760598478
 11
136.5414884007
 21
207.6505279837
  0
LINE
  5
2AF
100
AcDbEntity
  8
0
100
AcDbLine
 62
7
  6
CONTINUOUS
 10
148.5998218334
 20
166.9226557383
 11
148.5998218334
 21
169.4226556787
  0
LINE
  5
2B0
100
AcDbEntity
  8
0
100
AcDbLine
 62
7
  6
CONTINUOUS
 10
148.5998218334
 20
169.9226557383
 11
148.5998218334
 21
172.4319667055
  0
LINE
  5
2B1
100
AcDbEntity
  8
0
100
AcDbLine
 62
7
  6
CONTINUOUS
 10
148.5998218334
 20
173.6323629998
 11
148.5998218334
 21
175.8319667055
  0
LINE
  5
2B2
100
AcDbEntity
  8
RUNDUNGEN
100
AcDbLine
 62
7
  6
CONTINUOUS
 10
149.0998218334
 20
165.6026557383
 11
149.0998218334
 21
184.1026557383
  0
LINE
  5
2B3
100
AcDbEntity
  8
0
100
AcDbLine
 62
7
  6
CONTINUOUS
 10
146.8367736964
 20
247.3867012707
 11
146.8380467082
 21
247.8090611819
  0
LINE
  5
2B4
100
AcDbEntity
  8
0
100
AcDbLine
 62
7
  6
CONTINUOUS
 10
164.0502754753
 20
250.4397813918
 11
163.9403480363
 21
250.1175928239
  0
LINE
  5
2B5
100
AcDbEntity
  8
0
100
AcDbLine
 62
7
  6
CONTINUOUS
 10
164.9010843212
 20
250.8688837488
 11
164.6812293661
 21
250.2245063874
  0
LINE
  5
2B6
100
AcDbEntity
  8
0
100
AcDbLine
 62
7
  6
CONTINUOUS
 10
164.5713019271
 20
249.9023178195
 11
164.0216646741
 21
248.2913748107
  0
LINE
  5
2B7
100
AcDbEntity
  8
0
100
AcDbLine
 62
7
  6
CONTINUOUS
 10
164.4709732407
 20
248.3179227352
 11
164.965646755
 21
249.7677714036
  0
LINE
  5
2B8
100
AcDbEntity
  8
0
100
AcDbLine
 62
7
  6
CONTINUOUS
 10
165.075574194
 20
250.0899599715
 11
165.2954291491
 21
250.734337333
  0
LINE
  5
2B9
100
AcDbEntity
  8
0
100
AcDbLine
 62
7
  6
CONTINUOUS
 10
164.9059763779
 20
247.2702672846
 11
165.0159038266
 21
247.5924558807
  0
LINE
  5
2BA
100
AcDbEntity
  8
0
100
AcDbLine
 62
7
  6
CONTINUOUS
 10
165.8332060984
 20
249.4717690424
 11
165.9431335374
 21
249.7939576103
  0
LINE
  5
2BB
100
AcDbEntity
  8
0
100
AcDbLine
 62
7
  6
CONTINUOUS
 10
133.9373218334
 20
211.3101025817
 11
133.7289884752
 21
211.6292514799
  0
LINE
  5
2BC
100
AcDbEntity
  8
0
100
AcDbLine
 62
7
  6
CONTINUOUS
 10
136.2289884007
 20
208.395209044
 11
136.4373218334
 21
208.0760598478
  0
LINE
  5
2BD
100
AcDbEntity
  8
0
100
AcDbLine
 62
7
  6
CONTINUOUS
 10
137.0623218334
 20
208.1824431119
 11
136.8539884007
 21
208.6079749761
  0
LINE
  5
2BE
100
AcDbEntity
  8
0
100
AcDbLine
 62
7
  6
CONTINUOUS
 10
136.9581552661
 20
216.3526557383
 11
136.0206552661
 21
218.7994642553
  0
LINE
  5
2BF
100
AcDbEntity
  8
0
100
AcDbLine
 62
7
  6
CONTINUOUS
 10
135.395655117
 20
218.5866983232
 11
136.2289884007
 21
216.3526557383
  0
LINE
  5
2C0
100
AcDbEntity
  8
0
100
AcDbLine
 62
7
  6
CONTINUOUS
 10
136.1248218334
 20
220.50159201
 11
136.2289884007
 21
220.1824431119
  0
LINE
  5
2C1
100
AcDbEntity
  8
0
100
AcDbLine
 62
7
  6
CONTINUOUS
 10
136.8539884007
 20
220.1824431119
 11
136.7498218334
 21
220.50159201
  0
LINE
  5
2C2
100
AcDbEntity
  8
0
100
AcDbLine
 62
7
  6
CONTINUOUS
 10
160.1997051641
 20
252.4899024718
 11
159.8496323448
 21
250.3050038262
  0
LINE
  5
2C3
100
AcDbEntity
  8
0
100
AcDbLine
 62
7
  6
CONTINUOUS
 10
160.3283735683
 20
250.6592573857
 11
160.54380301
 21
252.0038104889
  0
LINE
  5
2C4
100
AcDbEntity
  8
0
100
AcDbLine
 62
7
  6
CONTINUOUS
 10
162.3331104341
 20
249.4761320359
 11
162.3061817586
 21
249.3080629274
  0
LINE
  5
2C5
100
AcDbEntity
  8
0
100
AcDbLine
 62
7
  6
CONTINUOUS
 10
162.9300348047
 20
251.6214793023
 11
162.9973564935
 21
252.0416520735
  0
LINE
  5
2C6
100
AcDbEntity
  8
0
100
AcDbLine
 62
7
  6
CONTINUOUS
 10
162.7041360139
 20
249.1581093123
 11
162.7579933649
 21
249.4942475293
  0
LINE
  5
2C7
100
AcDbEntity
  8
0
100
AcDbLine
 62
7
  6
CONTINUOUS
 10
133.3123218334
 20
211.0973365751
 11
133.7289884752
 21
210.6718046737
  0
LINE
  5
2C8
100
AcDbEntity
  8
0
100
AcDbLine
 62
7
  6
CONTINUOUS
 10
136.8539884007
 20
208.6079749761
 11
136.4373218334
 21
209.0335068402
  0
LINE
  5
2C9
100
AcDbEntity
  8
0
100
AcDbLine
 62
7
  6
CONTINUOUS
 10
170.2674412755
 20
246.0138908821
 11
170.1922225162
 21
245.7560641926
  0
LINE
  5
2CA
100
AcDbEntity
  8
0
100
AcDbLine
 62
7
  6
CONTINUOUS
 10
170.6530821453
 20
245.5442824725
 11
170.7283009045
 21
245.802109162
  0
LINE
  5
2CB
100
AcDbEntity
  8
0
100
AcDbLine
 62
7
  6
CONTINUOUS
 10
171.2276255476
 20
247.4193391572
 11
171.1524067211
 21
247.1615123693
  0
LINE
  5
2CC
100
AcDbEntity
  8
0
100
AcDbLine
 62
7
  6
CONTINUOUS
 10
171.6132664847
 20
246.949730846
 11
171.6884851767
 21
247.207557437
  0
LINE
  5
2CD
100
AcDbEntity
  8
0
100
AcDbLine
 62
7
  6
CONTINUOUS
 10
135.9164884007
 20
208.6079749761
 11
136.2289884007
 21
208.395209044
  0
LINE
  5
2CE
100
AcDbEntity
  8
0
100
AcDbLine
 62
7
  6
CONTINUOUS
 10
136.7498218334
 20
220.50159201
 11
136.4373218334
 21
220.9271238742
  0
LINE
  5
2CF
100
AcDbEntity
  8
0
100
AcDbLine
 62
7
  6
CONTINUOUS
 10
150.1238761306
 20
249.8348784974
 11
150.1543445028
 21
249.5680377181
  0
LINE
  5
2D0
100
AcDbEntity
  8
0
100
AcDbLine
 62
7
  6
CONTINUOUS
 10
150.6444133634
 20
249.6987113828
 11
150.6139449912
 21
249.9655521621
  0
LINE
  5
2D1
100
AcDbEntity
  8
0
100
AcDbLine
 62
7
  6
CONTINUOUS
 10
156.0772951195
 20
251.854606992
 11
156.1243669796
 21
251.1753849185
  0
LINE
  5
2D2
100
AcDbEntity
  8
0
100
AcDbLine
 62
7
  6
CONTINUOUS
 10
156.5819826951
 20
251.8042726518
 11
156.8114579656
 21
248.4930657269
  0
LINE
  5
2D3
100
AcDbEntity
  8
0
100
AcDbLine
 62
7
  6
CONTINUOUS
 10
157.3102615606
 20
248.5276341162
 11
157.0337144465
 21
252.5180628768
  0
LINE
  5
2D4
100
AcDbEntity
  8
0
100
AcDbLine
 62
7
  6
CONTINUOUS
 10
136.4373218334
 20
209.0335068402
 11
136.0206552661
 21
209.2462727723
  0
LINE
  5
2D5
100
AcDbEntity
  8
0
100
AcDbLine
 62
7
  6
CONTINUOUS
 10
133.7289884752
 20
210.6718046737
 11
134.1456551915
 21
210.4590387137
  0
LINE
  5
2D6
100
AcDbEntity
  8
0
100
AcDbLine
 62
7
  6
CONTINUOUS
 10
134.2498218334
 20
211.0973365751
 11
133.9373218334
 21
211.3101025817
  0
LINE
  5
2D7
100
AcDbEntity
  8
0
100
AcDbLine
 62
7
  6
CONTINUOUS
 10
135.9164884007
 20
220.7143579421
 11
136.1248218334
 21
220.50159201
  0
LINE
  5
2D8
100
AcDbEntity
  8
RUNDUNGEN
100
AcDbLine
 62
7
  6
CONTINUOUS
 10
167.0998218334
 20
165.6026557383
 11
167.0998218334
 21
184.1026557383
  0
LINE
  5
2D9
100
AcDbEntity
  8
0
100
AcDbLine
 62
7
  6
CONTINUOUS
 10
164.4673973298
 20
248.0493717233
 11
164.4709732407
 21
248.3179227352
  0
LINE
  5
2DA
100
AcDbEntity
  8
KONSTRUKTIONSELEMENTE
100
AcDbLine
 62
7
  6
CONTINUOUS
 10
131.1833550969
 20
201.4026557383
 11
140.4852110307
 21
201.4026557383
  0
LINE
  5
2DB
100
AcDbEntity
  8
KONSTRUKTIONSELEMENTE
100
AcDbLine
 62
7
  6
CONTINUOUS
 10
175.714432636
 20
201.4026557383
 11
185.0162885699
 21
201.4026557383
  0
LINE
  5
2DC
100
AcDbEntity
  8
0
100
AcDbLine
 62
7
  6
CONTINUOUS
 10
135.4998218334
 20
208.7143579421
 11
135.9164884007
 21
208.6079749761
  0
LINE
  5
2DD
100
AcDbEntity
  8
0
100
AcDbLine
 62
7
  6
CONTINUOUS
 10
136.4373218334
 20
220.9271238742
 11
136.0206552661
 21
221.2462727723
  0
LINE
  5
2DE
100
AcDbEntity
  8
0
100
AcDbLine
 62
7
  6
CONTINUOUS
 10
146.3007964767
 20
247.8384360212
 11
146.3839860287
 21
247.5830700448
  0
LINE
  5
2DF
100
AcDbEntity
  8
0
100
AcDbLine
 62
7
  6
CONTINUOUS
 10
146.8380467082
 20
247.8090611819
 11
146.7548571561
 21
248.0644271583
  0
LINE
  5
2E0
100
AcDbEntity
  8
0
100
AcDbLine
 62
7
  6
CONTINUOUS
 10
132.9998218334
 20
204.3526557383
 11
135.4998218334
 21
204.3526557383
  0
LINE
  5
2E1
100
AcDbEntity
  8
0
100
AcDbLine
 62
7
  6
CONTINUOUS
 10
135.4998218334
 20
204.9909536091
 11
133.6248218334
 21
204.9909536091
  0
LINE
  5
2E2
100
AcDbEntity
  8
0
100
AcDbLine
 62
7
  6
CONTINUOUS
 10
136.0206552661
 20
209.2462727723
 11
135.4998218334
 21
209.3526557383
  0
LINE
  5
2E3
100
AcDbEntity
  8
0
100
AcDbLine
 62
7
  6
CONTINUOUS
 10
134.1456551915
 20
210.4590387137
 11
134.6664885497
 21
210.3526557383
  0
LINE
  5
2E4
100
AcDbEntity
  8
0
100
AcDbLine
 62
7
  6
CONTINUOUS
 10
134.6664885497
 20
210.9909536091
 11
134.2498218334
 21
211.0973365751
  0
LINE
  5
2E5
100
AcDbEntity
  8
0
100
AcDbLine
 62
7
  6
CONTINUOUS
 10
147.2790232834
 20
249.8433247366
 11
148.9435160171
 21
246.2060917306
  0
LINE
  5
2E6
100
AcDbEntity
  8
0
100
AcDbLine
 62
7
  6
CONTINUOUS
 10
149.3981701428
 20
246.4141533224
 11
148.654460613
 21
248.0393000077
  0
LINE
  5
2E7
100
AcDbEntity
  8
0
100
AcDbLine
 62
7
  6
CONTINUOUS
 10
148.4419722042
 20
248.5036275701
 11
147.9107510831
 21
249.6644466929
  0
LINE
  5
2E8
100
AcDbEntity
  8
0
100
AcDbLine
 62
7
  6
CONTINUOUS
 10
162.2912189943
 20
249.7414197492
 11
162.3331104341
 21
249.4761320359
  0
LINE
  5
2E9
100
AcDbEntity
  8
0
100
AcDbLine
 62
7
  6
CONTINUOUS
 10
164.0216646741
 20
248.2913748107
 11
164.0694747955
 21
247.9153677714
  0
LINE
  5
2EA
100
AcDbEntity
  8
0
100
AcDbLine
 62
7
  6
CONTINUOUS
 10
170.7283009045
 20
245.802109162
 11
170.713912521
 21
246.2242258396
  0
LINE
  5
2EB
100
AcDbEntity
  8
0
100
AcDbLine
 62
7
  6
CONTINUOUS
 10
171.6884851767
 20
247.207557437
 11
171.6740967931
 21
247.6296741147
  0
LINE
  5
2EC
100
AcDbEntity
  8
0
100
AcDbLine
 62
7
  6
CONTINUOUS
 10
173.7862012754
 20
147.4026557383
 11
173.7862012754
 21
141.4026557383
  0
LINE
  5
2ED
100
AcDbEntity
  8
0
100
AcDbLine
 62
7
  6
CONTINUOUS
 10
174.0998218334
 20
147.4026557383
 11
174.0998218334
 21
141.4026557383
  0
LINE
  5
2EE
100
AcDbEntity
  8
0
100
AcDbLine
 62
7
  6
CONTINUOUS
 10
174.6357675275
 20
146.7643579421
 11
174.6357675275
 21
144.8494641957
  0
LINE
  5
2EF
100
AcDbEntity
  8
0
100
AcDbLine
 62
7
  6
CONTINUOUS
 10
174.6357675275
 20
144.0835068402
 11
174.6357675275
 21
141.4026557383
  0
LINE
  5
2F0
100
AcDbEntity
  8
0
100
AcDbLine
 62
7
  6
CONTINUOUS
 10
176.1011238158
 20
145.9984005866
 11
176.1011238158
 21
145.6154215512
  0
LINE
  5
2F1
100
AcDbEntity
  8
0
100
AcDbLine
 62
7
  6
CONTINUOUS
 10
176.1570226131
 20
154.4026557383
 11
176.1570226131
 21
148.4026557383
  0
LINE
  5
2F2
100
AcDbEntity
  8
0
100
AcDbLine
 62
7
  6
CONTINUOUS
 10
176.3750611769
 20
145.9984005866
 11
176.3750611769
 21
145.6154215512
  0
LINE
  5
2F3
100
AcDbEntity
  8
0
100
AcDbLine
 62
7
  6
CONTINUOUS
 10
176.4301246132
 20
154.4026557383
 11
176.4301246132
 21
148.4026557383
  0
LINE
  5
2F4
100
AcDbEntity
  8
0
100
AcDbLine
 62
7
  6
CONTINUOUS
 10
176.6903939935
 20
145.9984005866
 11
176.6903939935
 21
145.487761992
  0
LINE
  5
2F5
100
AcDbEntity
  8
0
100
AcDbLine
 62
7
  6
CONTINUOUS
 10
176.7394972597
 20
153.7643579421
 11
176.7394972597
 21
151.8494641957
  0
LINE
  5
2F6
100
AcDbEntity
  8
0
100
AcDbLine
 62
7
  6
CONTINUOUS
 10
176.7394972597
 20
151.0835068402
 11
176.7394972597
 21
148.4026557383
  0
LINE
  5
2F7
100
AcDbEntity
  8
0
100
AcDbLine
 62
7
  6
CONTINUOUS
 10
176.792651341
 20
147.4026557383
 11
176.792651341
 21
141.4026557383
  0
LINE
  5
2F8
100
AcDbEntity
  8
0
100
AcDbLine
 62
7
  6
CONTINUOUS
 10
135.9164884007
 20
205.0973365751
 11
135.4998218334
 21
204.9909536091
  0
LINE
  5
2F9
100
AcDbEntity
  8
0
100
AcDbLine
 62
7
  6
CONTINUOUS
 10
135.4998218334
 20
204.3526557383
 11
136.0206552661
 21
204.4590387137
  0
LINE
  5
2FA
100
AcDbEntity
  8
0
100
AcDbLine
 62
7
  6
CONTINUOUS
 10
133.6248218334
 20
208.7143579421
 11
135.4998218334
 21
208.7143579421
  0
LINE
  5
2FB
100
AcDbEntity
  8
0
100
AcDbLine
 62
7
  6
CONTINUOUS
 10
135.4998218334
 20
209.3526557383
 11
132.9998218334
 21
209.3526557383
  0
LINE
  5
2FC
100
AcDbEntity
  8
0
100
AcDbLine
 62
7
  6
CONTINUOUS
 10
134.6664885497
 20
210.3526557383
 11
135.083155117
 21
210.3526557383
  0
LINE
  5
2FD
100
AcDbEntity
  8
0
100
AcDbLine
 62
7
  6
CONTINUOUS
 10
135.083155117
 20
210.9909536091
 11
134.6664885497
 21
210.9909536091
  0
LINE
  5
2FE
100
AcDbEntity
  8
0
100
AcDbLine
 62
7
  6
CONTINUOUS
 10
135.6039884007
 20
220.8207409081
 11
135.9164884007
 21
220.7143579421
  0
LINE
  5
2FF
100
AcDbEntity
  8
0
100
AcDbLine
 62
7
  6
CONTINUOUS
 10
150.017631827
 20
250.0670424954
 11
150.1238761306
 21
249.8348784974
  0
LINE
  5
300
100
AcDbEntity
  8
0
100
AcDbLine
 62
7
  6
CONTINUOUS
 10
150.6139449912
 20
249.9655521621
 11
150.4722859528
 21
250.2751040872
  0
LINE
  5
301
100
AcDbEntity
  8
0
100
AcDbLine
 62
7
  6
CONTINUOUS
 10
159.7284532862
 20
249.5486927204
 11
159.839163928
 21
249.1861867297
  0
LINE
  5
302
100
AcDbEntity
  8
0
100
AcDbLine
 62
7
  6
CONTINUOUS
 10
160.332866993
 20
249.107083736
 11
160.2221563512
 21
249.4695897267
  0
LINE
  5
303
100
AcDbEntity
  8
0
100
AcDbLine
 62
7
  6
CONTINUOUS
 10
162.7579933649
 20
249.4942475293
 11
162.660748012
 21
249.9407879821
  0
LINE
  5
304
100
AcDbEntity
  8
0
100
AcDbLine
 62
7
  6
CONTINUOUS
 10
177.0565983262
 20
147.4026557383
 11
177.0565983262
 21
141.4026557383
  0
LINE
  5
305
100
AcDbEntity
  8
0
100
AcDbLine
 62
7
  6
CONTINUOUS
 10
177.2925124994
 20
146.7643579421
 11
177.2925124994
 21
144.8494641957
  0
LINE
  5
306
100
AcDbEntity
  8
0
100
AcDbLine
 62
7
  6
CONTINUOUS
 10
177.2925124994
 20
144.0835068402
 11
177.2925124994
 21
141.4026557383
  0
LINE
  5
307
100
AcDbEntity
  8
0
100
AcDbLine
 62
7
  6
CONTINUOUS
 10
177.4142432334
 20
152.9984005866
 11
177.4142432334
 21
152.6154215512
  0
LINE
  5
308
100
AcDbEntity
  8
0
100
AcDbLine
 62
7
  6
CONTINUOUS
 10
177.6698083949
 20
152.9984005866
 11
177.6698083949
 21
152.6154215512
  0
LINE
  5
309
100
AcDbEntity
  8
0
100
AcDbLine
 62
7
  6
CONTINUOUS
 10
177.6909550623
 20
145.9984005866
 11
177.6909550623
 21
145.6154215512
  0
LINE
  5
30A
100
AcDbEntity
  8
0
100
AcDbLine
 62
7
  6
CONTINUOUS
 10
177.7212386901
 20
154.4026557383
 11
177.7212386901
 21
153.8920175013
  0
LINE
  5
30B
100
AcDbEntity
  8
0
100
AcDbLine
 62
7
  6
CONTINUOUS
 10
177.7212386901
 20
151.5941450772
 11
177.7212386901
 21
150.4452088652
  0
LINE
  5
30C
100
AcDbEntity
  8
0
100
AcDbLine
 62
7
  6
CONTINUOUS
 10
177.8129995122
 20
152.9984005866
 11
177.8129995122
 21
152.487761992
  0
LINE
  5
30D
100
AcDbEntity
  8
0
100
AcDbLine
 62
7
  6
CONTINUOUS
 10
177.8355761894
 20
144.1110969496
 11
177.8355761894
 21
143.5728684244
  0
LINE
  5
30E
100
AcDbEntity
  8
0
100
AcDbLine
 62
7
  6
CONTINUOUS
 10
177.8498218334
 20
158.6026557383
 11
177.8498218334
 21
154.4026557383
  0
LINE
  5
30F
100
AcDbEntity
  8
0
100
AcDbLine
 62
7
  6
CONTINUOUS
 10
177.8498218334
 20
148.4026557383
 11
177.8498218334
 21
147.3569855756
  0
LINE
  5
310
100
AcDbEntity
  8
0
100
AcDbLine
 62
7
  6
CONTINUOUS
 10
177.8498218334
 20
143.5728684244
 11
177.8498218334
 21
139.9026557383
  0
LINE
  5
311
100
AcDbEntity
  8
0
100
AcDbLine
 62
7
  6
CONTINUOUS
 10
177.9098572352
 20
141.4026557383
 11
177.9098572352
 21
143.5728684244
  0
LINE
  5
312
100
AcDbEntity
  8
0
100
AcDbLine
 62
7
  6
CONTINUOUS
 10
177.9429566964
 20
145.9984005866
 11
177.9429566964
 21
145.6154215512
  0
LINE
  5
313
100
AcDbEntity
  8
0
100
AcDbLine
 62
7
  6
CONTINUOUS
 10
177.9728563139
 20
154.4026557383
 11
177.9728563139
 21
150.4452088652
  0
LINE
  5
314
100
AcDbEntity
  8
0
100
AcDbLine
 62
7
  6
CONTINUOUS
 10
178.0231122452
 20
145.9984005866
 11
178.0231122452
 21
145.487761992
  0
LINE
  5
315
100
AcDbEntity
  8
0
100
AcDbLine
 62
7
  6
CONTINUOUS
 10
178.0434925265
 20
154.4026557383
 11
178.0434925265
 21
150.4452088652
  0
LINE
  5
316
100
AcDbEntity
  8
0
100
AcDbLine
 62
7
  6
CONTINUOUS
 10
178.085754386
 20
144.2111663995
 11
178.085754386
 21
143.5728684244
  0
LINE
  5
317
100
AcDbEntity
  8
0
100
AcDbLine
 62
7
  6
CONTINUOUS
 10
178.0998218334
 20
149.1686131833
 11
178.0998218334
 21
148.4026557383
  0
LINE
  5
318
100
AcDbEntity
  8
0
100
AcDbLine
 62
7
  6
CONTINUOUS
 10
178.0998218334
 20
144.2111663995
 11
178.0998218334
 21
143.5728684244
  0
LINE
  5
319
100
AcDbEntity
  8
FASEN
100
AcDbLine
 62
7
  6
CONTINUOUS
 10
181.0998218334
 20
139.4026557383
 11
181.0998218334
 21
131.4026557383
  0
LINE
  5
31A
100
AcDbEntity
  8
BEZUGSACHSEN
100
AcDbLine
 62
7
  6
CONTINUOUS
 10
181.0998218334
 20
139.4026557383
 11
181.0998218334
 21
131.4026557383
  0
LINE
  5
31B
100
AcDbEntity
  8
FASEN
100
AcDbLine
 62
7
  6
CONTINUOUS
 10
135.5998218343
 20
139.9026557393
 11
135.0998218344
 21
139.4026557393
  0
LINE
  5
31C
100
AcDbEntity
  8
0
100
AcDbLine
 62
7
  6
CONTINUOUS
 10
135.4998218334
 20
211.0973365751
 11
135.083155117
 21
210.9909536091
  0
LINE
  5
31D
100
AcDbEntity
  8
0
100
AcDbLine
 62
7
  6
CONTINUOUS
 10
135.083155117
 20
210.3526557383
 11
135.6039884007
 21
210.4590387137
  0
LINE
  5
31E
100
AcDbEntity
  8
0
100
AcDbLine
 62
7
  6
CONTINUOUS
 10
136.7498218334
 20
215.3526557383
 11
136.1248218334
 21
215.3526557383
  0
LINE
  5
31F
100
AcDbEntity
  8
0
100
AcDbLine
 62
7
  6
CONTINUOUS
 10
133.6248218334
 20
215.3526557383
 11
132.9998218334
 21
215.3526557383
  0
LINE
  5
320
100
AcDbEntity
  8
0
100
AcDbLine
 62
7
  6
CONTINUOUS
 10
132.9998218334
 20
216.3526557383
 11
133.6248218334
 21
216.3526557383
  0
LINE
  5
321
100
AcDbEntity
  8
0
100
AcDbLine
 62
7
  6
CONTINUOUS
 10
136.2289884007
 20
216.3526557383
 11
136.9581552661
 21
216.3526557383
  0
LINE
  5
322
100
AcDbEntity
  8
0
100
AcDbLine
 62
7
  6
CONTINUOUS
 10
136.0206552661
 20
221.2462727723
 11
135.4998218334
 21
221.3526557383
  0
LINE
  5
323
100
AcDbEntity
  8
0
100
AcDbLine
 62
7
  6
CONTINUOUS
 10
143.5116629497
 20
247.2780861323
 11
145.8695731002
 21
244.0469470572
  0
LINE
  5
324
100
AcDbEntity
  8
0
100
AcDbLine
 62
7
  6
CONTINUOUS
 10
146.2734654846
 20
244.341685826
 11
145.2199311471
 21
245.7853862843
  0
LINE
  5
325
100
AcDbEntity
  8
0
100
AcDbLine
 62
7
  6
CONTINUOUS
 10
144.9189213765
 20
246.1978720745
 11
144.1663968096
 21
247.2290867426
  0
LINE
  5
326
100
AcDbEntity
  8
0
100
AcDbLine
 62
7
  6
CONTINUOUS
 10
146.1502914508
 20
248.0446791089
 11
146.3007964767
 21
247.8384360212
  0
LINE
  5
327
100
AcDbEntity
  8
0
100
AcDbLine
 62
7
  6
CONTINUOUS
 10
146.7548571561
 20
248.0644271583
 11
146.5541838352
 21
248.3394178777
  0
LINE
  5
328
100
AcDbEntity
  8
0
100
AcDbLine
 62
7
  6
CONTINUOUS
 10
170.2258434068
 20
246.2484533726
 11
170.2674412755
 21
246.0138908821
  0
LINE
  5
329
100
AcDbEntity
  8
0
100
AcDbLine
 62
7
  6
CONTINUOUS
 10
171.1860276789
 20
247.6539016477
 11
171.2276255476
 21
247.4193391572
  0
LINE
  5
32A
100
AcDbEntity
  8
0
100
AcDbLine
 62
7
  6
CONTINUOUS
 10
133.6248218334
 20
218.5866983232
 11
135.395655117
 21
218.5866983232
  0
LINE
  5
32B
100
AcDbEntity
  8
0
100
AcDbLine
 62
7
  6
CONTINUOUS
 10
135.6039884007
 20
219.2249961195
 11
133.6248218334
 21
219.2249961195
  0
LINE
  5
32C
100
AcDbEntity
  8
0
100
AcDbLine
 62
7
  6
CONTINUOUS
 10
133.6248218334
 20
220.8207409081
 11
135.6039884007
 21
220.8207409081
  0
LINE
  5
32D
100
AcDbEntity
  8
0
100
AcDbLine
 62
7
  6
CONTINUOUS
 10
135.4998218334
 20
221.3526557383
 11
132.9998218334
 21
221.3526557383
  0
LINE
  5
32E
100
AcDbEntity
  8
0
100
AcDbLine
 62
7
  6
CONTINUOUS
 10
159.839163928
 20
249.1861867297
 11
160.0321581047
 21
248.8104969865
  0
LINE
  5
32F
100
AcDbEntity
  8
0
100
AcDbLine
 62
7
  6
CONTINUOUS
 10
162.167044947
 20
250.0198909759
 11
162.2912189943
 21
249.7414197492
  0
LINE
  5
330
100
AcDbEntity
  8
KONSTRUKTIONSELEMENTE
100
AcDbLine
 62
7
  6
CONTINUOUS
 10
131.1833550969
 20
223.4026557383
 11
140.4852110307
 21
223.4026557383
  0
LINE
  5
331
100
AcDbEntity
  8
KONSTRUKTIONSELEMENTE
100
AcDbLine
 62
7
  6
CONTINUOUS
 10
175.714432636
 20
223.4026557383
 11
185.0162885699
 21
223.4026557383
  0
LINE
  5
332
100
AcDbEntity
  8
0
100
AcDbLine
 62
7
  6
CONTINUOUS
 10
149.8356117905
 20
250.2645292786
 11
150.017631827
 21
250.0670424954
  0
LINE
  5
333
100
AcDbEntity
  8
0
100
AcDbLine
 62
7
  6
CONTINUOUS
 10
162.660748012
 20
249.9407879821
 11
162.4677538305
 21
250.3164776959
  0
LINE
  5
334
100
AcDbEntity
  8
0
100
AcDbLine
 62
7
  6
CONTINUOUS
 10
171.6740967931
 20
247.6296741147
 11
171.5428918489
 21
248.0285266918
  0
LINE
  5
335
100
AcDbEntity
  8
0
100
AcDbLine
 62
7
  6
CONTINUOUS
 10
150.4722859528
 20
250.2751040872
 11
150.2902659162
 21
250.4725908703
  0
LINE
  5
336
100
AcDbEntity
  8
0
100
AcDbLine
 62
7
  6
CONTINUOUS
 10
170.713912521
 20
246.2242258396
 11
170.6243054454
 21
246.3885159263
  0
LINE
  5
337
100
AcDbEntity
  8
0
100
AcDbLine
 62
7
  6
CONTINUOUS
 10
145.9324712324
 20
248.2017989227
 11
146.1502914508
 21
248.0446791089
  0
LINE
  5
338
100
AcDbEntity
  8
0
100
AcDbLine
 62
7
  6
CONTINUOUS
 10
146.5541838352
 20
248.3394178777
 11
146.3363636167
 21
248.4965376915
  0
LINE
  5
339
100
AcDbEntity
  8
0
100
AcDbLine
 62
7
  6
CONTINUOUS
 10
164.0694747955
 20
247.9153677714
 11
164.2511183289
 21
247.6735455007
  0
LINE
  5
33A
100
AcDbEntity
  8
0
100
AcDbLine
 62
7
  6
CONTINUOUS
 10
164.6490408681
 20
247.8075494667
 11
164.4673973298
 21
248.0493717233
  0
LINE
  5
33B
100
AcDbEntity
  8
0
100
AcDbLine
 62
7
  6
CONTINUOUS
 10
170.0674274026
 20
246.4597528386
 11
170.2258434068
 21
246.2484533726
  0
LINE
  5
33C
100
AcDbEntity
  8
0
100
AcDbLine
 62
7
  6
CONTINUOUS
 10
150.2902659162
 20
250.4725908703
 11
149.9212799142
 21
250.6781117827
  0
LINE
  5
33D
100
AcDbEntity
  8
0
100
AcDbLine
 62
7
  6
CONTINUOUS
 10
160.0321581047
 20
248.8104969865
 11
160.403183681
 21
248.4924742409
  0
LINE
  5
33E
100
AcDbEntity
  8
0
100
AcDbLine
 62
7
  6
CONTINUOUS
 10
162.4677538305
 20
250.3164776959
 11
162.0967263674
 21
250.6345007212
  0
LINE
  5
33F
100
AcDbEntity
  8
0
100
AcDbLine
 62
7
  6
CONTINUOUS
 10
160.55278985
 20
248.8994631307
 11
160.332866993
 21
249.107083736
  0
LINE
  5
340
100
AcDbEntity
  8
0
100
AcDbLine
 62
7
  6
CONTINUOUS
 10
161.94712209
 20
250.2275115812
 11
162.167044947
 21
250.0198909759
  0
LINE
  5
341
100
AcDbEntity
  8
0
100
AcDbLine
 62
7
  6
CONTINUOUS
 10
171.0276116747
 20
247.8652011137
 11
171.1860276789
 21
247.6539016477
  0
LINE
  5
342
100
AcDbEntity
  8
0
100
AcDbLine
 62
7
  6
CONTINUOUS
 10
169.8353583463
 20
245.3814391485
 11
169.6017236165
 21
245.3349119742
  0
LINE
  5
343
100
AcDbEntity
  8
0
100
AcDbLine
 62
7
  6
CONTINUOUS
 10
170.8435517581
 20
246.857159729
 11
170.6099170619
 21
246.8106326039
  0
LINE
  5
344
100
AcDbEntity
  8
0
100
AcDbLine
 62
7
  6
CONTINUOUS
 10
169.3824772744
 20
244.8662681283
 11
169.8017374725
 21
244.8890499931
  0
LINE
  5
345
100
AcDbEntity
  8
0
100
AcDbLine
 62
7
  6
CONTINUOUS
 10
146.3363636167
 20
248.4965376915
 11
145.9337442442
 21
248.6241588339
  0
LINE
  5
346
100
AcDbEntity
  8
0
100
AcDbLine
 62
7
  6
CONTINUOUS
 10
149.6132310902
 20
250.3499513349
 11
149.8356117905
 21
250.2645292786
  0
LINE
  5
347
100
AcDbEntity
  8
0
100
AcDbLine
 62
7
  6
CONTINUOUS
 10
164.4602437245
 20
247.512270379
 11
164.9059763779
 21
247.2702672846
  0
LINE
  5
348
100
AcDbEntity
  8
0
100
AcDbLine
 62
7
  6
CONTINUOUS
 10
165.0159038266
 20
247.5924558807
 11
164.6490408681
 21
247.8075494667
  0
LINE
  5
349
100
AcDbEntity
  8
0
100
AcDbLine
 62
7
  6
CONTINUOUS
 10
167.3390233061
 20
246.1592580352
 11
168.9904249949
 21
245.0310415389
  0
LINE
  5
34A
100
AcDbEntity
  8
0
100
AcDbLine
 62
7
  6
CONTINUOUS
 10
169.3472891985
 20
245.4056666323
 11
168.0399290032
 21
246.2988383838
  0
LINE
  5
34B
100
AcDbEntity
  8
0
100
AcDbLine
 62
7
  6
CONTINUOUS
 10
168.7600672074
 20
247.3529245901
 11
170.0674274026
 21
246.4597528386
  0
LINE
  5
34C
100
AcDbEntity
  8
0
100
AcDbLine
 62
7
  6
CONTINUOUS
 10
164.2511183289
 20
247.6735455007
 11
164.4602437245
 21
247.512270379
  0
LINE
  5
34D
100
AcDbEntity
  8
0
100
AcDbLine
 62
7
  6
CONTINUOUS
 10
171.5428918489
 20
248.0285266918
 11
171.2468579874
 21
248.3338449164
  0
LINE
  5
34E
100
AcDbEntity
  8
0
100
AcDbLine
 62
7
  6
CONTINUOUS
 10
161.7047639822
 20
248.7148894284
 11
161.36216364
 21
248.6835903039
  0
LINE
  5
34F
100
AcDbEntity
  8
0
100
AcDbLine
 62
7
  6
CONTINUOUS
 10
156.8114579656
 20
248.4930657269
 11
157.3102615606
 21
248.5276341162
  0
LINE
  5
350
100
AcDbEntity
  8
0
100
AcDbLine
 62
7
  6
CONTINUOUS
 10
161.2948419418
 20
248.2634174738
 11
161.7197248738
 21
248.2815329746
  0
LINE
  5
351
100
AcDbEntity
  8
0
100
AcDbLine
 62
7
  6
CONTINUOUS
 10
157.9676989609
 20
248.0325746495
 11
158.3842935157
 21
248.0248572543
  0
LINE
  5
352
100
AcDbEntity
  8
0
100
AcDbLine
 62
7
  6
CONTINUOUS
 10
145.9337442442
 20
248.6241588339
 11
145.5139778335
 21
248.6339092633
  0
LINE
  5
353
100
AcDbEntity
  8
0
100
AcDbLine
 62
7
  6
CONTINUOUS
 10
170.6243054454
 20
246.3885159263
 11
170.8099309347
 21
246.3647706475
  0
LINE
  5
354
100
AcDbEntity
  8
0
100
AcDbLine
 62
7
  6
CONTINUOUS
 10
160.8011388768
 20
248.3425204675
 11
161.2948419418
 21
248.2634174738
  0
LINE
  5
355
100
AcDbEntity
  8
0
100
AcDbLine
 62
7
  6
CONTINUOUS
 10
161.36216364
 20
248.6835903039
 11
160.868460575
 21
248.7626932976
  0
LINE
  5
356
100
AcDbEntity
  8
0
100
AcDbLine
 62
7
  6
CONTINUOUS
 10
145.6975037832
 20
248.241047883
 11
145.9324712324
 21
248.2017989227
  0
LINE
  5
357
100
AcDbEntity
  8
0
100
AcDbLine
 62
7
  6
CONTINUOUS
 10
149.9212799142
 20
250.6781117827
 11
149.5119328148
 21
250.77156777
  0
LINE
  5
358
100
AcDbEntity
  8
0
100
AcDbLine
 62
7
  6
CONTINUOUS
 10
169.6017236165
 20
245.3349119742
 11
169.3472891985
 21
245.4056666323
  0
LINE
  5
359
100
AcDbEntity
  8
0
100
AcDbLine
 62
7
  6
CONTINUOUS
 10
170.6099170619
 20
246.8106326039
 11
170.3554826439
 21
246.881387262
  0
LINE
  5
35A
100
AcDbEntity
  8
0
100
AcDbLine
 62
7
  6
CONTINUOUS
 10
160.403183681
 20
248.4924742409
 11
160.8011388768
 21
248.3425204675
  0
LINE
  5
35B
100
AcDbEntity
  8
0
100
AcDbLine
 62
7
  6
CONTINUOUS
 10
162.0967263674
 20
250.6345007212
 11
161.6987721121
 21
250.7844543363
  0
LINE
  5
35C
100
AcDbEntity
  8
0
100
AcDbLine
 62
7
  6
CONTINUOUS
 10
168.9904249949
 20
245.0310415389
 11
169.3824772744
 21
244.8662681283
  0
LINE
  5
35D
100
AcDbEntity
  8
0
100
AcDbLine
 62
7
  6
CONTINUOUS
 10
160.868460575
 20
248.7626932976
 11
160.55278985
 21
248.8994631307
  0
LINE
  5
35E
100
AcDbEntity
  8
0
100
AcDbLine
 62
7
  6
CONTINUOUS
 10
161.6314504233
 20
250.3642815652
 11
161.94712209
 21
250.2275115812
  0
LINE
  5
35F
100
AcDbEntity
  8
0
100
AcDbLine
 62
7
  6
CONTINUOUS
 10
166.3051726852
 20
248.2425071046
 11
167.3546081601
 21
247.7328063967
  0
LINE
  5
360
100
AcDbEntity
  8
0
100
AcDbLine
 62
7
  6
CONTINUOUS
 10
167.5405173642
 20
248.1155794845
 11
166.4910818893
 21
248.6252801924
  0
LINE
  5
361
100
AcDbEntity
  8
0
100
AcDbLine
 62
7
  6
CONTINUOUS
 10
170.3554826439
 20
246.881387262
 11
169.0481224487
 21
247.7745590135
  0
LINE
  5
362
100
AcDbEntity
  8
0
100
AcDbLine
 62
7
  6
CONTINUOUS
 10
169.7202514795
 20
248.7583728652
 11
171.0276116747
 21
247.8652011137
  0
LINE
  5
363
100
AcDbEntity
  8
0
100
AcDbLine
 62
7
  6
CONTINUOUS
 10
171.2468579874
 20
248.3338449164
 11
169.5954562986
 21
249.4620614127
  0
LINE
  5
364
100
AcDbEntity
  8
FASEN
100
AcDbLine
 62
7
  6
CONTINUOUS
 10
180.5998218329
 20
130.9026557378
 11
181.0998218329
 21
131.4026557378
  0
LINE
  5
365
100
AcDbEntity
  8
0
100
AcDbLine
 62
7
  6
CONTINUOUS
 10
149.5119328148
 20
250.77156777
 11
149.0976397864
 21
250.6755711034
  0
LINE
  5
366
100
AcDbEntity
  8
0
100
AcDbLine
 62
7
  6
CONTINUOUS
 10
149.3504892925
 20
250.3233084662
 11
149.6132310902
 21
250.3499513349
  0
LINE
  5
367
100
AcDbEntity
  8
0
100
AcDbLine
 62
7
  6
CONTINUOUS
 10
160.7951479578
 20
250.4120852835
 11
161.1377473583
 21
250.4433845589
  0
LINE
  5
368
100
AcDbEntity
  8
0
100
AcDbLine
 62
7
  6
CONTINUOUS
 10
157.0337144465
 20
252.5180628768
 11
156.5349108515
 21
252.4834944876
  0
LINE
  5
369
100
AcDbEntity
  8
0
100
AcDbLine
 62
7
  6
CONTINUOUS
 10
161.2050690471
 20
250.8635573301
 11
160.7801851746
 21
250.8454419875
  0
LINE
  5
36A
100
AcDbEntity
  8
0
100
AcDbLine
 62
7
  6
CONTINUOUS
 10
158.9015472801
 20
248.951605993
 11
158.4849527253
 21
248.9593233882
  0
LINE
  5
36B
100
AcDbEntity
  8
0
100
AcDbLine
 62
7
  6
CONTINUOUS
 10
160.2221563512
 20
249.4695897267
 11
159.7284532862
 21
249.5486927204
  0
LINE
  5
36C
100
AcDbEntity
  8
0
100
AcDbLine
 62
7
  6
CONTINUOUS
 10
159.8496323448
 20
250.3050038262
 11
160.4256189401
 21
250.2127170505
  0
LINE
  5
36D
100
AcDbEntity
  8
0
100
AcDbLine
 62
7
  6
CONTINUOUS
 10
161.1377473583
 20
250.4433845589
 11
161.6314504233
 21
250.3642815652
  0
LINE
  5
36E
100
AcDbEntity
  8
0
100
AcDbLine
 62
7
  6
CONTINUOUS
 10
161.6987721121
 20
250.7844543363
 11
161.2050690471
 21
250.8635573301
  0
LINE
  5
36F
100
AcDbEntity
  8
0
100
AcDbLine
 62
7
  6
CONTINUOUS
 10
160.54380301
 20
252.0038104889
 11
162.9300348047
 21
251.6214793023
  0
LINE
  5
370
100
AcDbEntity
  8
0
100
AcDbLine
 62
7
  6
CONTINUOUS
 10
162.9973564935
 20
252.0416520735
 11
160.1997051641
 21
252.4899024718
  0
LINE
  5
371
100
AcDbEntity
  8
0
100
AcDbLine
 62
7
  6
CONTINUOUS
 10
163.9403480363
 20
250.1175928239
 11
164.5713019271
 21
249.9023178195
  0
LINE
  5
372
100
AcDbEntity
  8
0
100
AcDbLine
 62
7
  6
CONTINUOUS
 10
164.965646755
 20
249.7677714036
 11
165.8332060984
 21
249.4717690424
  0
LINE
  5
373
100
AcDbEntity
  8
0
100
AcDbLine
 62
7
  6
CONTINUOUS
 10
165.9431335374
 20
249.7939576103
 11
165.075574194
 21
250.0899599715
  0
LINE
  5
374
100
AcDbEntity
  8
0
100
AcDbLine
 62
7
  6
CONTINUOUS
 10
164.6812293661
 20
250.2245063874
 11
164.0502754753
 21
250.4397813918
  0
LINE
  5
375
100
AcDbEntity
  8
0
100
AcDbLine
 62
7
  6
CONTINUOUS
 10
165.2954291491
 20
250.734337333
 11
164.9010843212
 21
250.8688837488
  0
LINE
  5
376
100
AcDbEntity
  8
FASEN
100
AcDbLine
 62
7
  6
CONTINUOUS
 10
274.0070307583
 20
130.9026557383
 11
229.0078169691
 21
130.9026557383
  0
LINE
  5
377
100
AcDbEntity
  8
FASEN
100
AcDbLine
 62
7
  6
CONTINUOUS
 10
274.5074238637
 20
131.4026557383
 11
228.5074238637
 21
131.4026557383
  0
LINE
  5
378
100
AcDbEntity
  8
FASEN
100
AcDbLine
 62
7
  6
CONTINUOUS
 10
229.0074238637
 20
130.9026557383
 11
228.5074238637
 21
131.4026557383
  0
LINE
  5
379
100
AcDbEntity
  8
FASEN
100
AcDbLine
 62
7
  6
CONTINUOUS
 10
228.5074238637
 20
139.4026557383
 11
274.5074238637
 21
139.4026557383
  0
LINE
  5
37A
100
AcDbEntity
  8
FASEN
100
AcDbLine
 62
7
  6
CONTINUOUS
 10
229.0078169691
 20
139.9026557383
 11
274.0070307583
 21
139.9026557383
  0
LINE
  5
37B
100
AcDbEntity
  8
RUNDUNGEN
100
AcDbLine
 62
7
  6
CONTINUOUS
 10
262.4190479307
 20
160.6026557383
 11
240.5957999726
 21
160.6026557383
  0
LINE
  5
37C
100
AcDbEntity
  8
0
100
AcDbLine
 62
7
  6
CONTINUOUS
 10
241.5074238637
 20
168.4226557383
 11
238.5074238637
 21
169.4226556787
  0
LINE
  5
37D
100
AcDbEntity
  8
0
100
AcDbLine
 62
7
  6
CONTINUOUS
 10
238.5074238637
 20
169.0476556787
 11
241.1244451413
 21
168.1726557085
  0
LINE
  5
37E
100
AcDbEntity
  8
BEZUGSACHSEN
100
AcDbLine
 62
7
  6
CONTINUOUS
 10
228.5074238637
 20
139.4026557383
 11
228.5074238637
 21
131.4026557383
  0
LINE
  5
37F
100
AcDbEntity
  8
0
100
AcDbLine
 62
7
  6
CONTINUOUS
 10
238.5074238637
 20
169.9226557383
 11
241.5074238637
 21
169.9226557383
  0
LINE
  5
380
100
AcDbEntity
  8
0
100
AcDbLine
 62
7
  6
CONTINUOUS
 10
241.5074238637
 20
170.2976557383
 11
238.5074238637
 21
170.2976557383
  0
LINE
  5
381
100
AcDbEntity
  8
0
100
AcDbLine
 62
7
  6
CONTINUOUS
 10
238.5074238637
 20
170.7976556191
 11
241.5074238637
 21
170.7976556191
  0
LINE
  5
382
100
AcDbEntity
  8
0
100
AcDbLine
 62
7
  6
CONTINUOUS
 10
241.5074238637
 20
171.1726556191
 11
240.1669983128
 21
171.1726556191
  0
LINE
  5
383
100
AcDbEntity
  8
0
100
AcDbLine
 62
7
  6
CONTINUOUS
 10
239.784019635
 20
171.1726556191
 11
238.8265727619
 21
171.1726556191
  0
LINE
  5
384
100
AcDbEntity
  8
0
100
AcDbLine
 62
7
  6
CONTINUOUS
 10
239.4010409573
 20
172.7351557383
 11
239.5925302962
 21
172.6726556191
  0
LINE
  5
385
100
AcDbEntity
  8
0
100
AcDbLine
 62
7
  6
CONTINUOUS
 10
239.6563600758
 20
173.0476559768
 11
239.4648707369
 21
173.1101557383
  0
LINE
  5
386
100
AcDbEntity
  8
0
100
AcDbLine
 62
7
  6
CONTINUOUS
 10
239.9116791943
 20
172.8601556191
 11
239.6563600758
 21
173.0476559768
  0
LINE
  5
387
100
AcDbEntity
  8
0
100
AcDbLine
 62
7
  6
CONTINUOUS
 10
239.5925302962
 20
172.6726556191
 11
239.7201898554
 21
172.5476557383
  0
LINE
  5
388
100
AcDbEntity
  8
FASEN
100
AcDbLine
 62
7
  6
CONTINUOUS
 10
274.0074238637
 20
139.9026557383
 11
274.5074238637
 21
139.4026557383
  0
LINE
  5
389
100
AcDbEntity
  8
0
100
AcDbLine
 62
7
  6
CONTINUOUS
 10
240.1031685332
 20
172.6101558576
 11
239.9116791943
 21
172.8601556191
  0
LINE
  5
38A
100
AcDbEntity
  8
0
100
AcDbLine
 62
7
  6
CONTINUOUS
 10
231.7574238637
 20
168.8347065459
 11
231.7574238637
 21
139.9026557383
  0
LINE
  5
38B
100
AcDbEntity
  8
0
100
AcDbLine
 62
7
  6
CONTINUOUS
 10
266.4779332546
 20
172.4319667055
 11
265.8735990265
 21
172.4319667055
  0
LINE
  5
38C
100
AcDbEntity
  8
0
100
AcDbLine
 62
7
  6
CONTINUOUS
 10
263.1023177343
 20
172.4319667055
 11
262.4979835062
 21
172.4319667055
  0
LINE
  5
38D
100
AcDbEntity
  8
0
100
AcDbLine
 62
7
  6
CONTINUOUS
 10
239.2095514396
 20
172.7351557383
 11
239.4010409573
 21
172.7351557383
  0
LINE
  5
38E
100
AcDbEntity
  8
0
100
AcDbLine
 62
7
  6
CONTINUOUS
 10
239.4648707369
 20
173.1101557383
 11
239.2095514396
 21
173.1101557383
  0
LINE
  5
38F
100
AcDbEntity
  8
0
100
AcDbLine
 62
7
  6
CONTINUOUS
 10
264.7879583804
 20
175.4319667055
 11
264.1836241522
 21
175.4319667055
  0
LINE
  5
390
100
AcDbEntity
  8
0
100
AcDbLine
 62
7
  6
CONTINUOUS
 10
266.4779332546
 20
175.8319667055
 11
265.8735990265
 21
175.8319667055
  0
LINE
  5
391
100
AcDbEntity
  8
0
100
AcDbLine
 62
7
  6
CONTINUOUS
 10
263.1023177343
 20
175.8319667055
 11
262.4979835062
 21
175.8319667055
  0
LINE
  5
392
100
AcDbEntity
  8
0
100
AcDbLine
 62
7
  6
CONTINUOUS
 10
239.3372111777
 20
176.6726557383
 11
239.784019635
 21
176.6101559768
  0
LINE
  5
393
100
AcDbEntity
  8
0
100
AcDbLine
 62
7
  6
CONTINUOUS
 10
239.784019635
 20
176.9226554999
 11
239.4010409573
 21
176.9851559768
  0
LINE
  5
394
100
AcDbEntity
  8
0
100
AcDbLine
 62
7
  6
CONTINUOUS
 10
239.4010409573
 20
176.9851559768
 11
239.2095514396
 21
177.0476557383
  0
LINE
  5
395
100
AcDbEntity
  8
0
100
AcDbLine
 62
7
  6
CONTINUOUS
 10
240.4223175207
 20
176.9851559768
 11
240.2308280924
 21
177.0476557383
  0
LINE
  5
396
100
AcDbEntity
  8
0
100
AcDbLine
 62
7
  6
CONTINUOUS
 10
240.6138068596
 20
178.5476557383
 11
240.8052961984
 21
178.4851559768
  0
LINE
  5
397
100
AcDbEntity
  8
0
100
AcDbLine
 62
7
  6
CONTINUOUS
 10
239.0180621007
 20
176.7976559768
 11
239.3372111777
 21
176.6726557383
  0
LINE
  5
398
100
AcDbEntity
  8
0
100
AcDbLine
 62
7
  6
CONTINUOUS
 10
240.996785582
 20
178.7351557383
 11
240.6776366392
 21
178.8601559768
  0
LINE
  5
399
100
AcDbEntity
  8
0
100
AcDbLine
 62
7
  6
CONTINUOUS
 10
239.2095514396
 20
177.0476557383
 11
239.0180621007
 21
177.1726559768
  0
LINE
  5
39A
100
AcDbEntity
  8
0
100
AcDbLine
 62
7
  6
CONTINUOUS
 10
240.8052961984
 20
178.4851559768
 11
240.996785582
 21
178.3601557383
  0
LINE
  5
39B
100
AcDbEntity
  8
0
100
AcDbLine
 62
7
  6
CONTINUOUS
 10
238.7627429822
 20
176.9851559768
 11
239.0180621007
 21
176.7976559768
  0
LINE
  5
39C
100
AcDbEntity
  8
0
100
AcDbLine
 62
7
  6
CONTINUOUS
 10
241.2521047229
 20
178.5476557383
 11
240.996785582
 21
178.7351557383
  0
LINE
  5
39D
100
AcDbEntity
  8
0
100
AcDbLine
 62
7
  6
CONTINUOUS
 10
240.2308280924
 20
177.0476557383
 11
240.1031685332
 21
177.1726559768
  0
LINE
  5
39E
100
AcDbEntity
  8
0
100
AcDbLine
 62
7
  6
CONTINUOUS
 10
239.0180621007
 20
177.1726559768
 11
238.8904025415
 21
177.3601559768
  0
LINE
  5
39F
100
AcDbEntity
  8
0
100
AcDbLine
 62
7
  6
CONTINUOUS
 10
239.6563600758
 20
177.2976554999
 11
239.9116791943
 21
176.9226554999
  0
LINE
  5
3A0
100
AcDbEntity
  8
0
100
AcDbLine
 62
7
  6
CONTINUOUS
 10
240.1031685332
 20
177.1726559768
 11
239.9755089739
 21
177.3601559768
  0
LINE
  5
3A1
100
AcDbEntity
  8
0
100
AcDbLine
 62
7
  6
CONTINUOUS
 10
238.5712536434
 20
177.2976554999
 11
238.7627429822
 21
176.9851559768
  0
LINE
  5
3A2
100
AcDbEntity
  8
0
100
AcDbLine
 62
7
  6
CONTINUOUS
 10
239.7201898554
 20
172.5476557383
 11
239.784019635
 21
172.3601557383
  0
LINE
  5
3A3
100
AcDbEntity
  8
RUNDUNGEN
100
AcDbLine
 62
7
  6
CONTINUOUS
 10
236.5074238637
 20
189.626860449
 11
236.5074238637
 21
178.2677192478
  0
LINE
  5
3A4
100
AcDbEntity
  8
0
100
AcDbLine
 62
7
  6
CONTINUOUS
 10
238.5074238637
 20
177.8601554999
 11
238.5074238637
 21
177.6101557383
  0
LINE
  5
3A5
100
AcDbEntity
  8
0
100
AcDbLine
 62
7
  6
CONTINUOUS
 10
238.5074238637
 20
172.2976556191
 11
238.5074238637
 21
170.7976556191
  0
LINE
  5
3A6
100
AcDbEntity
  8
0
100
AcDbLine
 62
7
  6
CONTINUOUS
 10
238.5074238637
 20
170.2976557383
 11
238.5074238637
 21
169.9226557383
  0
LINE
  5
3A7
100
AcDbEntity
  8
0
100
AcDbLine
 62
7
  6
CONTINUOUS
 10
238.5074238637
 20
169.4226556787
 11
238.5074238637
 21
169.0476556787
  0
LINE
  5
3A8
100
AcDbEntity
  8
0
100
AcDbLine
 62
7
  6
CONTINUOUS
 10
238.5074238637
 20
167.2976557383
 11
238.5074238637
 21
166.9226557383
  0
LINE
  5
3A9
100
AcDbEntity
  8
0
100
AcDbLine
 62
7
  6
CONTINUOUS
 10
240.2308280924
 20
176.6101559768
 11
240.6776366392
 21
176.6726557383
  0
LINE
  5
3AA
100
AcDbEntity
  8
0
100
AcDbLine
 62
7
  6
CONTINUOUS
 10
239.784019635
 20
176.6101559768
 11
240.2308280924
 21
176.6101559768
  0
LINE
  5
3AB
100
AcDbEntity
  8
0
100
AcDbLine
 62
7
  6
CONTINUOUS
 10
239.9116791943
 20
176.9226554999
 11
239.784019635
 21
176.9226554999
  0
LINE
  5
3AC
100
AcDbEntity
  8
0
100
AcDbLine
 62
7
  6
CONTINUOUS
 10
240.6138068596
 20
176.9851559768
 11
240.4223175207
 21
176.9851559768
  0
LINE
  5
3AD
100
AcDbEntity
  8
0
100
AcDbLine
 62
7
  6
CONTINUOUS
 10
240.4223175207
 20
178.5476557383
 11
240.6138068596
 21
178.5476557383
  0
LINE
  5
3AE
100
AcDbEntity
  8
0
100
AcDbLine
 62
7
  6
CONTINUOUS
 10
240.6776366392
 20
178.8601559768
 11
240.3584876517
 21
178.8601559768
  0
LINE
  5
3AF
100
AcDbEntity
  8
0
100
AcDbLine
 62
7
  6
CONTINUOUS
 10
240.996785582
 20
178.3601557383
 11
241.1244451413
 21
178.1726557383
  0
LINE
  5
3B0
100
AcDbEntity
  8
0
100
AcDbLine
 62
7
  6
CONTINUOUS
 10
241.4435940785
 20
178.2351554999
 11
241.2521047229
 21
178.5476557383
  0
LINE
  5
3B1
100
AcDbEntity
  8
0
100
AcDbLine
 62
7
  6
CONTINUOUS
 10
238.8904025415
 20
177.3601559768
 11
238.8265727619
 21
177.5476559768
  0
LINE
  5
3B2
100
AcDbEntity
  8
0
100
AcDbLine
 62
7
  6
CONTINUOUS
 10
239.9755089739
 20
177.3601559768
 11
239.9116791943
 21
177.5476559768
  0
LINE
  5
3B3
100
AcDbEntity
  8
0
100
AcDbLine
 62
7
  6
CONTINUOUS
 10
241.1244451413
 20
178.1726557383
 11
241.1882749209
 21
177.9851557383
  0
LINE
  5
3B4
100
AcDbEntity
  8
0
100
AcDbLine
 62
7
  6
CONTINUOUS
 10
238.5074238637
 20
177.6101557383
 11
238.5712536434
 21
177.2976554999
  0
LINE
  5
3B5
100
AcDbEntity
  8
0
100
AcDbLine
 62
7
  6
CONTINUOUS
 10
240.1669983128
 20
172.2976556191
 11
240.1031685332
 21
172.6101558576
  0
LINE
  5
3B6
100
AcDbEntity
  8
0
100
AcDbLine
 62
7
  6
CONTINUOUS
 10
239.5925302962
 20
177.6101557383
 11
239.6563600758
 21
177.2976554999
  0
LINE
  5
3B7
100
AcDbEntity
  8
0
100
AcDbLine
 62
7
  6
CONTINUOUS
 10
241.5074238637
 20
177.9226559768
 11
241.4435940785
 21
178.2351554999
  0
LINE
  5
3B8
100
AcDbEntity
  8
0
100
AcDbLine
 62
7
  6
CONTINUOUS
 10
238.8265727619
 20
171.1726556191
 11
238.8265727619
 21
172.3601557383
  0
LINE
  5
3B9
100
AcDbEntity
  8
0
100
AcDbLine
 62
7
  6
CONTINUOUS
 10
238.8265727619
 20
177.5476559768
 11
238.8265727619
 21
177.9226559768
  0
LINE
  5
3BA
100
AcDbEntity
  8
0
100
AcDbLine
 62
7
  6
CONTINUOUS
 10
239.2095514396
 20
178.4226554999
 11
239.2095514396
 21
178.7351557383
  0
LINE
  5
3BB
100
AcDbEntity
  8
0
100
AcDbLine
 62
7
  6
CONTINUOUS
 10
239.5925302962
 20
177.9226559768
 11
239.5925302962
 21
177.6101557383
  0
LINE
  5
3BC
100
AcDbEntity
  8
0
100
AcDbLine
 62
7
  6
CONTINUOUS
 10
239.784019635
 20
172.3601557383
 11
239.784019635
 21
171.1726556191
  0
LINE
  5
3BD
100
AcDbEntity
  8
0
100
AcDbLine
 62
7
  6
CONTINUOUS
 10
239.9116791943
 20
177.5476559768
 11
239.9116791943
 21
177.9851557383
  0
LINE
  5
3BE
100
AcDbEntity
  8
0
100
AcDbLine
 62
7
  6
CONTINUOUS
 10
240.1669983128
 20
171.1726556191
 11
240.1669983128
 21
172.2976556191
  0
LINE
  5
3BF
100
AcDbEntity
  8
0
100
AcDbLine
 62
7
  6
CONTINUOUS
 10
241.1882749209
 20
177.9851557383
 11
241.1882749209
 21
177.5476559768
  0
LINE
  5
3C0
100
AcDbEntity
  8
0
100
AcDbLine
 62
7
  6
CONTINUOUS
 10
241.5074238637
 20
167.9226557681
 11
241.5074238637
 21
168.4226557383
  0
LINE
  5
3C1
100
AcDbEntity
  8
0
100
AcDbLine
 62
7
  6
CONTINUOUS
 10
241.5074238637
 20
169.9226557383
 11
241.5074238637
 21
170.2976557383
  0
LINE
  5
3C2
100
AcDbEntity
  8
0
100
AcDbLine
 62
7
  6
CONTINUOUS
 10
241.5074238637
 20
170.7976556191
 11
241.5074238637
 21
171.1726556191
  0
LINE
  5
3C3
100
AcDbEntity
  8
0
100
AcDbLine
 62
7
  6
CONTINUOUS
 10
241.5074238637
 20
177.6101557383
 11
241.5074238637
 21
177.9226559768
  0
LINE
  5
3C4
100
AcDbEntity
  8
0
100
AcDbLine
 62
7
  6
CONTINUOUS
 10
238.5712536434
 20
178.1726557383
 11
238.5074238637
 21
177.8601554999
  0
LINE
  5
3C5
100
AcDbEntity
  8
0
100
AcDbLine
 62
7
  6
CONTINUOUS
 10
239.6563600758
 20
178.2351554999
 11
239.5925302962
 21
177.9226559768
  0
LINE
  5
3C6
100
AcDbEntity
  8
0
100
AcDbLine
 62
7
  6
CONTINUOUS
 10
238.5712536434
 20
172.6101558576
 11
238.5074238637
 21
172.2976556191
  0
LINE
  5
3C7
100
AcDbEntity
  8
RUNDUNGEN
100
AcDbLine
 62
7
  6
CONTINUOUS
 10
237.8387487293
 20
192.6026557386
 11
236.842292992
 21
190.8767437741
  0
LINE
  5
3C8
100
AcDbEntity
  8
KONSTRUKTIONSELEMENTE
100
AcDbLine
 62
7
  6
CONTINUOUS
 10
246.0074238637
 20
250.3556436881
 11
246.0074238637
 21
232.7231771314
  0
LINE
  5
3C9
100
AcDbEntity
  8
KONSTRUKTIONSELEMENTE
100
AcDbLine
 62
7
  6
CONTINUOUS
 10
246.0074238637
 20
192.0822499644
 11
246.0074238637
 21
174.4026557383
  0
LINE
  5
3CA
100
AcDbEntity
  8
0
100
AcDbLine
 62
7
  6
CONTINUOUS
 10
241.4435940785
 20
177.2976554999
 11
241.5074238637
 21
177.6101557383
  0
LINE
  5
3CB
100
AcDbEntity
  8
KONSTRUKTIONSELEMENTE
100
AcDbLine
 62
7
  6
CONTINUOUS
 10
246.0073476436
 20
192.072244262
 11
248.5074238637
 21
201.4026557383
  0
LINE
  5
3CC
100
AcDbEntity
  8
KONSTRUKTIONSELEMENTE
100
AcDbLine
 62
7
  6
CONTINUOUS
 10
257.0074988845
 20
232.7330627387
 11
254.5074238637
 21
223.4026557383
  0
LINE
  5
3CD
100
AcDbEntity
  8
0
100
AcDbLine
 62
7
  6
CONTINUOUS
 10
238.8265727619
 20
177.9226559768
 11
238.8904025415
 21
178.1101559768
  0
LINE
  5
3CE
100
AcDbEntity
  8
0
100
AcDbLine
 62
7
  6
CONTINUOUS
 10
239.9116791943
 20
177.9851557383
 11
239.9755089739
 21
178.1726557383
  0
LINE
  5
3CF
100
AcDbEntity
  8
0
100
AcDbLine
 62
7
  6
CONTINUOUS
 10
238.8265727619
 20
172.3601557383
 11
238.8904025415
 21
172.5476557383
  0
LINE
  5
3D0
100
AcDbEntity
  8
0
100
AcDbLine
 62
7
  6
CONTINUOUS
 10
241.1882749209
 20
177.5476559768
 11
241.1244451413
 21
177.3601559768
  0
LINE
  5
3D1
100
AcDbEntity
  8
RUNDUNGEN
100
AcDbLine
 62
7
  6
CONTINUOUS
 10
236.038512777
 20
176.5177192478
 11
231.8913984599
 21
169.3347065459
  0
LINE
  5
3D2
100
AcDbEntity
  8
RUNDUNGEN
100
AcDbLine
 62
7
  6
CONTINUOUS
 10
257.4524520203
 20
175.4558454656
 11
257.0074238637
 21
175.9500993057
  0
LINE
  5
3D3
100
AcDbEntity
  8
KONSTRUKTIONSELEMENTE
100
AcDbLine
 62
7
  6
CONTINUOUS
 10
248.5074238637
 20
223.4026557383
 11
248.5074238637
 21
201.4026557383
  0
LINE
  5
3D4
100
AcDbEntity
  8
0
100
AcDbLine
 62
7
  6
CONTINUOUS
 10
238.7627429822
 20
178.4851559768
 11
238.5712536434
 21
178.1726557383
  0
LINE
  5
3D5
100
AcDbEntity
  8
0
100
AcDbLine
 62
7
  6
CONTINUOUS
 10
239.8478494147
 20
178.5476557383
 11
239.6563600758
 21
178.2351554999
  0
LINE
  5
3D6
100
AcDbEntity
  8
0
100
AcDbLine
 62
7
  6
CONTINUOUS
 10
241.2521047229
 20
176.9851559768
 11
241.4435940785
 21
177.2976554999
  0
LINE
  5
3D7
100
AcDbEntity
  8
0
100
AcDbLine
 62
7
  6
CONTINUOUS
 10
238.8904025415
 20
178.1101559768
 11
239.0180621007
 21
178.2976559768
  0
LINE
  5
3D8
100
AcDbEntity
  8
0
100
AcDbLine
 62
7
  6
CONTINUOUS
 10
239.9755089739
 20
178.1726557383
 11
240.1031685332
 21
178.3601557383
  0
LINE
  5
3D9
100
AcDbEntity
  8
0
100
AcDbLine
 62
7
  6
CONTINUOUS
 10
241.1244451413
 20
177.3601559768
 11
240.996785582
 21
177.1726559768
  0
LINE
  5
3DA
100
AcDbEntity
  8
0
100
AcDbLine
 62
7
  6
CONTINUOUS
 10
238.7047628508
 20
193.1026557383
 11
242.4520387256
 21
193.1026557383
  0
LINE
  5
3DB
100
AcDbEntity
  8
0
100
AcDbLine
 62
7
  6
CONTINUOUS
 10
260.5628090019
 20
193.1026557383
 11
265.290084913
 21
193.1026557383
  0
LINE
  5
3DC
100
AcDbEntity
  8
KONSTRUKTIONSELEMENTE
100
AcDbLine
 62
7
  6
CONTINUOUS
 10
254.5074238637
 20
223.4026557383
 11
254.5074238637
 21
201.4026557383
  0
LINE
  5
3DD
100
AcDbEntity
  8
0
100
AcDbLine
 62
7
  6
CONTINUOUS
 10
255.0074238637
 20
221.3526557383
 11
255.0074238637
 21
216.3526557383
  0
LINE
  5
3DE
100
AcDbEntity
  8
0
100
AcDbLine
 62
7
  6
CONTINUOUS
 10
255.0074238637
 20
215.3526557383
 11
255.0074238637
 21
210.3526557383
  0
LINE
  5
3DF
100
AcDbEntity
  8
0
100
AcDbLine
 62
7
  6
CONTINUOUS
 10
255.0074238637
 20
209.3526557383
 11
255.0074238637
 21
204.3526557383
  0
LINE
  5
3E0
100
AcDbEntity
  8
0
100
AcDbLine
 62
7
  6
CONTINUOUS
 10
238.7627429822
 20
172.8601556191
 11
238.5712536434
 21
172.6101558576
  0
LINE
  5
3E1
100
AcDbEntity
  8
0
100
AcDbLine
 62
7
  6
CONTINUOUS
 10
240.0393387535
 20
178.7351557383
 11
239.8478494147
 21
178.5476557383
  0
LINE
  5
3E2
100
AcDbEntity
  8
0
100
AcDbLine
 62
7
  6
CONTINUOUS
 10
240.1031685332
 20
178.3601557383
 11
240.2308280924
 21
178.4851559768
  0
LINE
  5
3E3
100
AcDbEntity
  8
0
100
AcDbLine
 62
7
  6
CONTINUOUS
 10
239.0180621007
 20
178.6726559768
 11
238.7627429822
 21
178.4851559768
  0
LINE
  5
3E4
100
AcDbEntity
  8
KONSTRUKTIONSELEMENTE
100
AcDbLine
 62
7
  6
CONTINUOUS
 10
248.5074238637
 20
223.4026557383
 11
246.0073510521
 21
232.7330544941
  0
LINE
  5
3E5
100
AcDbEntity
  8
KONSTRUKTIONSELEMENTE
100
AcDbLine
 62
7
  6
CONTINUOUS
 10
254.5074238637
 20
201.4026557383
 11
257.0074965537
 21
192.0722574368
  0
LINE
  5
3E6
100
AcDbEntity
  8
KONSTRUKTIONSELEMENTE
100
AcDbLine
 62
7
  6
CONTINUOUS
 10
257.0074238637
 20
245.5064581487
 11
257.0074238637
 21
232.7239768255
  0
LINE
  5
3E7
100
AcDbEntity
  8
KONSTRUKTIONSELEMENTE
100
AcDbLine
 62
7
  6
CONTINUOUS
 10
257.0074238637
 20
192.0821246162
 11
257.0074238637
 21
174.4026557383
  0
LINE
  5
3E8
100
AcDbEntity
  8
0
100
AcDbLine
 62
7
  6
CONTINUOUS
 10
257.5074238637
 20
252.5180628768
 11
257.5074238637
 21
244.0469470572
  0
LINE
  5
3E9
100
AcDbEntity
  8
RUNDUNGEN
100
AcDbLine
 62
7
  6
CONTINUOUS
 10
246.0074238637
 20
175.9500993057
 11
245.5623700454
 21
175.4558169653
  0
LINE
  5
3EA
100
AcDbEntity
  8
0
100
AcDbLine
 62
7
  6
CONTINUOUS
 10
238.8904025415
 20
172.5476557383
 11
239.0180621007
 21
172.6726556191
  0
LINE
  5
3EB
100
AcDbEntity
  8
0
100
AcDbLine
 62
7
  6
CONTINUOUS
 10
240.996785582
 20
176.7976559768
 11
241.2521047229
 21
176.9851559768
  0
LINE
  5
3EC
100
AcDbEntity
  8
0
100
AcDbLine
 62
7
  6
CONTINUOUS
 10
239.0180621007
 20
173.0476559768
 11
238.7627429822
 21
172.8601556191
  0
LINE
  5
3ED
100
AcDbEntity
  8
0
100
AcDbLine
 62
7
  6
CONTINUOUS
 10
239.0180621007
 20
178.2976559768
 11
239.2095514396
 21
178.4226554999
  0
LINE
  5
3EE
100
AcDbEntity
  8
0
100
AcDbLine
 62
7
  6
CONTINUOUS
 10
240.996785582
 20
177.1726559768
 11
240.8052961984
 21
177.0476557383
  0
LINE
  5
3EF
100
AcDbEntity
  8
0
100
AcDbLine
 62
7
  6
CONTINUOUS
 10
240.3584876517
 20
178.8601559768
 11
240.0393387535
 21
178.7351557383
  0
LINE
  5
3F0
100
AcDbEntity
  8
RUNDUNGEN
100
AcDbLine
 62
7
  6
CONTINUOUS
 10
271.1234492675
 20
171.0321163373
 11
267.9563349505
 21
176.5177192478
  0
LINE
  5
3F1
100
AcDbEntity
  8
0
100
AcDbLine
 62
7
  6
CONTINUOUS
 10
264.1836241522
 20
175.4319667055
 11
264.1836241522
 21
174.2654453271
  0
LINE
  5
3F2
100
AcDbEntity
  8
0
100
AcDbLine
 62
7
  6
CONTINUOUS
 10
264.7879583804
 20
174.2644872724
 11
264.7879583804
 21
175.4319667055
  0
LINE
  5
3F3
100
AcDbEntity
  8
0
100
AcDbLine
 62
7
  6
CONTINUOUS
 10
263.0890559293
 20
172.1892180925
 11
263.1023177343
 21
172.4319667055
  0
LINE
  5
3F4
100
AcDbEntity
  8
0
100
AcDbLine
 62
7
  6
CONTINUOUS
 10
240.6776366392
 20
176.6726557383
 11
240.996785582
 21
176.7976559768
  0
LINE
  5
3F5
100
AcDbEntity
  8
0
100
AcDbLine
 62
7
  6
CONTINUOUS
 10
239.2095514396
 20
178.7351557383
 11
239.0180621007
 21
178.6726559768
  0
LINE
  5
3F6
100
AcDbEntity
  8
0
100
AcDbLine
 62
7
  6
CONTINUOUS
 10
240.2308280924
 20
178.4851559768
 11
240.4223175207
 21
178.5476557383
  0
LINE
  5
3F7
100
AcDbEntity
  8
0
100
AcDbLine
 62
7
  6
CONTINUOUS
 10
240.8052961984
 20
177.0476557383
 11
240.6138068596
 21
176.9851559768
  0
LINE
  5
3F8
100
AcDbEntity
  8
0
100
AcDbLine
 62
7
  6
CONTINUOUS
 10
254.5074238637
 20
204.3526557383
 11
255.0074238637
 21
204.3526557383
  0
LINE
  5
3F9
100
AcDbEntity
  8
RUNDUNGEN
100
AcDbLine
 62
7
  6
CONTINUOUS
 10
267.1524873732
 20
190.876860449
 11
266.1560989982
 21
192.6026557386
  0
LINE
  5
3FA
100
AcDbEntity
  8
0
100
AcDbLine
 62
7
  6
CONTINUOUS
 10
266.4847071585
 20
172.1250962064
 11
266.4779332546
 21
172.4319667055
  0
LINE
  5
3FB
100
AcDbEntity
  8
0
100
AcDbLine
 62
7
  6
CONTINUOUS
 10
266.4847071585
 20
175.5250962064
 11
266.4779332546
 21
175.8319667055
  0
LINE
  5
3FC
100
AcDbEntity
  8
RUNDUNGEN
100
AcDbLine
 62
7
  6
CONTINUOUS
 10
267.4874238637
 20
178.2677192478
 11
267.4874238637
 21
189.626860449
  0
LINE
  5
3FD
100
AcDbEntity
  8
0
100
AcDbLine
 62
7
  6
CONTINUOUS
 10
239.2095514396
 20
173.1101557383
 11
239.0180621007
 21
173.0476559768
  0
LINE
  5
3FE
100
AcDbEntity
  8
0
100
AcDbLine
 62
7
  6
CONTINUOUS
 10
239.0180621007
 20
172.6726556191
 11
239.2095514396
 21
172.7351557383
  0
LINE
  5
3FF
100
AcDbEntity
  8
0
100
AcDbLine
 62
7
  6
CONTINUOUS
 10
254.5074238637
 20
209.3526557383
 11
255.0074238637
 21
209.3526557383
  0
LINE
  5
400
100
AcDbEntity
  8
0
100
AcDbLine
 62
7
  6
CONTINUOUS
 10
254.5074238637
 20
210.3526557383
 11
255.0074238637
 21
210.3526557383
  0
LINE
  5
401
100
AcDbEntity
  8
0
100
AcDbLine
 62
7
  6
CONTINUOUS
 10
254.5074238637
 20
210.4590387137
 11
255.0074238637
 21
210.4590387137
  0
LINE
  5
402
100
AcDbEntity
  8
0
100
AcDbLine
 62
7
  6
CONTINUOUS
 10
254.5074238637
 20
210.6718046737
 11
255.0074238637
 21
210.6718046737
  0
LINE
  5
403
100
AcDbEntity
  8
0
100
AcDbLine
 62
7
  6
CONTINUOUS
 10
254.5074238637
 20
211.0973365751
 11
255.0074238637
 21
211.0973365751
  0
LINE
  5
404
100
AcDbEntity
  8
0
100
AcDbLine
 62
7
  6
CONTINUOUS
 10
254.5074238637
 20
211.5228685138
 11
255.0074238637
 21
211.5228685138
  0
LINE
  5
405
100
AcDbEntity
  8
0
100
AcDbLine
 62
7
  6
CONTINUOUS
 10
271.2574238637
 20
170.5321163373
 11
271.2574238637
 21
139.9026557383
  0
LINE
  5
406
100
AcDbEntity
  8
FASEN
100
AcDbLine
 62
7
  6
CONTINUOUS
 10
229.0074238637
 20
139.9026557383
 11
228.5074238637
 21
139.4026557383
  0
LINE
  5
407
100
AcDbEntity
  8
0
100
AcDbLine
 62
7
  6
CONTINUOUS
 10
241.1244451413
 20
168.1726557085
 11
238.5074238637
 21
167.2976557383
  0
LINE
  5
408
100
AcDbEntity
  8
0
100
AcDbLine
 62
7
  6
CONTINUOUS
 10
238.5074238637
 20
166.9226557383
 11
241.5074238637
 21
167.9226557681
  0
LINE
  5
409
100
AcDbEntity
  8
0
100
AcDbLine
 62
7
  6
CONTINUOUS
 10
254.5074238637
 20
212.054783344
 11
255.0074238637
 21
212.054783344
  0
LINE
  5
40A
100
AcDbEntity
  8
0
100
AcDbLine
 62
7
  6
CONTINUOUS
 10
254.5074238637
 20
215.3526557383
 11
255.0074238637
 21
215.3526557383
  0
LINE
  5
40B
100
AcDbEntity
  8
BEZUGSACHSEN
100
AcDbLine
 62
7
  6
CONTINUOUS
 10
274.5074238637
 20
139.4026557383
 11
274.5074238637
 21
131.4026557383
  0
LINE
  5
40C
100
AcDbEntity
  8
0
100
AcDbLine
 62
7
  6
CONTINUOUS
 10
254.5074238637
 20
216.3526557383
 11
255.0074238637
 21
216.3526557383
  0
LINE
  5
40D
100
AcDbEntity
  8
0
100
AcDbLine
 62
7
  6
CONTINUOUS
 10
254.5074238637
 20
221.3526557383
 11
255.0074238637
 21
221.3526557383
  0
LINE
  5
40E
100
AcDbEntity
  8
0
100
AcDbLine
 62
7
  6
CONTINUOUS
 10
257.0074238637
 20
244.0469470572
 11
257.5074238637
 21
244.0469470572
  0
LINE
  5
40F
100
AcDbEntity
  8
0
100
AcDbLine
 62
7
  6
CONTINUOUS
 10
256.5537198935
 20
247.2780861323
 11
257.5074238637
 21
247.2780861323
  0
LINE
  5
410
100
AcDbEntity
  8
0
100
AcDbLine
 62
7
  6
CONTINUOUS
 10
256.5741724394
 20
248.4570412075
 11
257.5074238637
 21
248.4570412075
  0
LINE
  5
411
100
AcDbEntity
  8
0
100
AcDbLine
 62
7
  6
CONTINUOUS
 10
256.6042930313
 20
248.6339092633
 11
257.5074238637
 21
248.6339092633
  0
LINE
  5
412
100
AcDbEntity
  8
0
100
AcDbLine
 62
7
  6
CONTINUOUS
 10
256.55371989
 20
249.8433247366
 11
257.5074238637
 21
249.8433247366
  0
LINE
  5
413
100
AcDbEntity
  8
0
100
AcDbLine
 62
7
  6
CONTINUOUS
 10
256.5741724404
 20
250.6755711034
 11
257.5074238637
 21
250.6755711034
  0
LINE
  5
414
100
AcDbEntity
  8
0
100
AcDbLine
 62
7
  6
CONTINUOUS
 10
256.6042930369
 20
250.77156777
 11
257.5074238637
 21
250.77156777
  0
LINE
  5
415
100
AcDbEntity
  8
0
100
AcDbLine
 62
7
  6
CONTINUOUS
 10
256.9390959636
 20
251.1753849185
 11
257.5074238637
 21
251.1753849185
  0
LINE
  5
416
100
AcDbEntity
  8
FASEN
100
AcDbLine
 62
7
  6
CONTINUOUS
 10
274.0074238637
 20
130.9026557383
 11
274.5074238637
 21
131.4026557383
  0
LINE
  5
417
100
AcDbEntity
  8
0
100
AcDbLine
 62
7
  6
CONTINUOUS
 10
256.7859845148
 20
251.854606992
 11
257.5074238637
 21
251.854606992
  0
LINE
  5
418
100
AcDbEntity
  8
0
100
AcDbLine
 62
7
  6
CONTINUOUS
 10
256.5761293198
 20
252.4834944876
 11
257.5074238637
 21
252.4834944876
  0
LINE
  5
419
100
AcDbEntity
  8
0
100
AcDbLine
 62
7
  6
CONTINUOUS
 10
256.5737999501
 20
252.5180628768
 11
257.5074238637
 21
252.5180628768
  0
LINE
  5
41A
100
AcDbEntity
  8
0
100
AcDbLine
 62
7
  6
CONTINUOUS
 10
143.5116629497
 20
41.2392641926
 11
143.5116629497
 21
40.2855602224
  0
LINE
  5
41B
100
AcDbEntity
  8
RUNDUNGEN
100
AcDbLine
 62
7
  6
CONTINUOUS
 10
150.0998218334
 20
30.3055602224
 11
166.0998218334
 21
30.3055602224
  0
LINE
  5
41C
100
AcDbEntity
  8
0
100
AcDbLine
 62
7
  6
CONTINUOUS
 10
149.0998218334
 20
31.3050257058
 11
148.5998218334
 21
31.3050257058
  0
LINE
  5
41D
100
AcDbEntity
  8
0
100
AcDbLine
 62
7
  6
CONTINUOUS
 10
149.0998218334
 20
31.3150508316
 11
148.5998218334
 21
31.3150508316
  0
LINE
  5
41E
100
AcDbEntity
  8
0
100
AcDbLine
 62
7
  6
CONTINUOUS
 10
149.0998218334
 20
31.9193850597
 11
148.5998218334
 21
31.9193850597
  0
LINE
  5
41F
100
AcDbEntity
  8
0
100
AcDbLine
 62
7
  6
CONTINUOUS
 10
145.1272324872
 20
41.2188116468
 11
145.1272324872
 21
40.2855602224
  0
LINE
  5
420
100
AcDbEntity
  8
0
100
AcDbLine
 62
7
  6
CONTINUOUS
 10
145.5139778335
 20
41.1886910549
 11
145.5139778335
 21
40.2855602224
  0
LINE
  5
421
100
AcDbEntity
  8
0
100
AcDbLine
 62
7
  6
CONTINUOUS
 10
145.9337442442
 20
41.0979797322
 11
145.9337442442
 21
40.2855602224
  0
LINE
  5
422
100
AcDbEntity
  8
0
100
AcDbLine
 62
7
  6
CONTINUOUS
 10
149.0998218334
 20
33.0050257058
 11
148.5998218334
 21
33.0050257058
  0
LINE
  5
423
100
AcDbEntity
  8
0
100
AcDbLine
 62
7
  6
CONTINUOUS
 10
149.0998218334
 20
33.6093599339
 11
148.5998218334
 21
33.6093599339
  0
LINE
  5
424
100
AcDbEntity
  8
0
100
AcDbLine
 62
7
  6
CONTINUOUS
 10
173.7862012754
 20
34.2855602224
 11
174.0998218334
 21
34.2855602224
  0
LINE
  5
425
100
AcDbEntity
  8
0
100
AcDbLine
 62
7
  6
CONTINUOUS
 10
146.3363636167
 20
40.9947758861
 11
146.3363636167
 21
40.2855602224
  0
LINE
  5
426
100
AcDbEntity
  8
0
100
AcDbLine
 62
7
  6
CONTINUOUS
 10
146.5541838352
 20
40.930313354
 11
146.5541838352
 21
40.2855602224
  0
LINE
  5
427
100
AcDbEntity
  8
0
100
AcDbLine
 62
7
  6
CONTINUOUS
 10
146.7548571561
 20
40.8620321681
 11
146.7548571561
 21
40.2855602224
  0
LINE
  5
428
100
AcDbEntity
  8
0
100
AcDbLine
 62
7
  6
CONTINUOUS
 10
146.8380467082
 20
40.8245118062
 11
146.8380467082
 21
40.2855602224
  0
LINE
  5
429
100
AcDbEntity
  8
0
100
AcDbLine
 62
7
  6
CONTINUOUS
 10
147.2790232834
 20
41.2392641961
 11
147.2790232834
 21
40.2855602224
  0
LINE
  5
42A
100
AcDbEntity
  8
0
100
AcDbLine
 62
7
  6
CONTINUOUS
 10
148.5998218334
 20
31.3150508316
 11
148.5998218334
 21
31.9193850597
  0
LINE
  5
42B
100
AcDbEntity
  8
0
100
AcDbLine
 62
7
  6
CONTINUOUS
 10
148.5998218334
 20
31.9422761847
 11
148.5998218334
 21
35.29500058
  0
LINE
  5
42C
100
AcDbEntity
  8
0
100
AcDbLine
 62
7
  6
CONTINUOUS
 10
148.5998218334
 20
56.2855602224
 11
148.5998218334
 21
59.2855602224
  0
LINE
  5
42D
100
AcDbEntity
  8
0
100
AcDbLine
 62
7
  6
CONTINUOUS
 10
149.0998218334
 20
34.6906663518
 11
148.5998218334
 21
34.6906663518
  0
LINE
  5
42E
100
AcDbEntity
  8
0
100
AcDbLine
 62
7
  6
CONTINUOUS
 10
149.0998218334
 20
35.29500058
 11
148.5998218334
 21
35.29500058
  0
LINE
  5
42F
100
AcDbEntity
  8
0
100
AcDbLine
 62
7
  6
CONTINUOUS
 10
149.0998218334
 20
35.3050257058
 11
148.5998218334
 21
35.3050257058
  0
LWPOLYLINE
  5
430
100
AcDbEntity
  8
RUNDUNGEN
100
AcDbPolyline
 62
7
  6
CONTINUOUS
 90
7
 70
0
 10
149.099819687
 20
54.6539223223
 10
149.1016267374
 20
54.5786730601
 10
149.1104869673
 20
54.4689916876
 10
149.125327735
 20
54.3666094766
 10
149.1449238753
 20
54.2704380428
 10
149.1682482532
 20
54.1798193131
 10
149.1774224365
 20
54.1483182367
  0
LINE
  5
431
100
AcDbEntity
  8
0
100
AcDbLine
 62
7
  6
CONTINUOUS
 10
149.0976397864
 20
41.2188116458
 11
149.0976397864
 21
40.2855602224
  0
LINE
  5
432
100
AcDbEntity
  8
RUNDUNGEN
100
AcDbLine
 62
7
  6
CONTINUOUS
 10
149.0998218334
 20
29.9741378442
 11
149.0998218334
 21
37.9162590042
  0
LINE
  5
433
100
AcDbEntity
  8
RUNDUNGEN
100
AcDbLine
 62
7
  6
CONTINUOUS
 10
149.0998240822
 20
54.6538851355
 11
149.0998218334
 21
62.5969826006
  0
LINE
  5
434
100
AcDbEntity
  8
0
100
AcDbLine
 62
7
  6
CONTINUOUS
 10
149.5119328148
 20
41.1886910493
 11
149.5119328148
 21
40.2855602224
  0
LINE
  5
435
100
AcDbEntity
  8
0
100
AcDbLine
 62
7
  6
CONTINUOUS
 10
149.9212799142
 20
41.09797973
 11
149.9212799142
 21
40.2855602224
  0
LINE
  5
436
100
AcDbEntity
  8
0
100
AcDbLine
 62
7
  6
CONTINUOUS
 10
150.2902659162
 20
40.9947758838
 11
150.2902659162
 21
40.2855602224
  0
LINE
  5
437
100
AcDbEntity
  8
0
100
AcDbLine
 62
7
  6
CONTINUOUS
 10
150.4722859528
 20
40.930313356
 11
150.4722859528
 21
40.2855602224
  0
LINE
  5
438
100
AcDbEntity
  8
0
100
AcDbLine
 62
7
  6
CONTINUOUS
 10
150.6139449912
 20
40.8620321695
 11
150.6139449912
 21
40.2855602224
  0
LINE
  5
439
100
AcDbEntity
  8
0
100
AcDbLine
 62
7
  6
CONTINUOUS
 10
150.6444133634
 20
40.8245118053
 11
150.6444133634
 21
40.2855602224
  0
LINE
  5
43A
100
AcDbEntity
  8
0
100
AcDbLine
 62
7
  6
CONTINUOUS
 10
175.6799953251
 20
37.2855602224
 11
175.9603929329
 21
37.2855602224
  0
LINE
  5
43B
100
AcDbEntity
  8
0
100
AcDbLine
 62
7
  6
CONTINUOUS
 10
175.9861819158
 20
37.9105603417
 11
176.2618530248
 21
37.9105603417
  0
LINE
  5
43C
100
AcDbEntity
  8
0
100
AcDbLine
 62
7
  6
CONTINUOUS
 10
176.1570226131
 20
38.2855602224
 11
176.4301246132
 21
38.2855602224
  0
LWPOLYLINE
  5
43D
100
AcDbEntity
  8
RUNDUNGEN
100
AcDbPolyline
 62
7
  6
CONTINUOUS
 90
6
 70
0
 10
149.1659396684
 20
38.3830667367
 10
149.1426740917
 20
38.2908531066
 10
149.1235110841
 20
38.1939781074
 10
149.1092927929
 20
38.0913539204
 10
149.1011363682
 20
37.9812844316
 10
149.0998217567
 20
37.9158195039
  0
LINE
  5
43E
100
AcDbEntity
  8
RUNDUNGEN
100
AcDbLine
 62
7
  6
CONTINUOUS
 10
149.1773619908
 20
38.4226032027
 11
149.1659396684
 21
38.3830667367
  0
LINE
  5
43F
100
AcDbEntity
  8
RUNDUNGEN
100
AcDbLine
 62
7
  6
CONTINUOUS
 10
149.1773550035
 20
38.4226052712
 11
149.1774426874
 21
38.4228977167
  0
LINE
  5
440
100
AcDbEntity
  8
RUNDUNGEN
100
AcDbLine
 62
7
  6
CONTINUOUS
 10
149.2367925406
 20
38.5908203312
 11
149.1774426874
 21
38.4228977167
  0
LINE
  5
441
100
AcDbEntity
  8
RUNDUNGEN
100
AcDbLine
 62
7
  6
CONTINUOUS
 10
150.0201374618
 20
40.025948826
 11
149.984203008
 21
39.9449969417
  0
LWPOLYLINE
  5
442
100
AcDbEntity
  8
RUNDUNGEN
100
AcDbPolyline
 62
7
  6
CONTINUOUS
 90
3
 70
0
 10
149.984203008
 20
39.9449969417
 10
149.9488332011
 20
39.8672109942
 10
149.9120136227
 20
39.7881667077
  0
LINE
  5
443
100
AcDbEntity
  8
RUNDUNGEN
100
AcDbLine
 62
7
  6
CONTINUOUS
 10
149.9120136227
 20
39.7881667077
 11
149.8799728305
 21
39.7208717572
  0
LINE
  5
444
100
AcDbEntity
  8
0
100
AcDbLine
 62
7
  6
CONTINUOUS
 10
166.4910818893
 20
40.7855866932
 11
166.4836213321
 21
40.7855602084
  0
LINE
  5
445
100
AcDbEntity
  8
0
100
AcDbLine
 62
7
  6
CONTINUOUS
 10
171.6884851767
 20
40.2855602224
 11
166.3051726852
 21
40.2855602224
  0
LINE
  5
446
100
AcDbEntity
  8
0
100
AcDbLine
 62
7
  6
CONTINUOUS
 10
165.9431335374
 20
40.2855602224
 11
163.9403480363
 21
40.2855602224
  0
LINE
  5
447
100
AcDbEntity
  8
0
100
AcDbLine
 62
7
  6
CONTINUOUS
 10
162.9973564935
 20
40.2855602224
 11
159.7284532862
 21
40.2855602224
  0
LINE
  5
448
100
AcDbEntity
  8
0
100
AcDbLine
 62
7
  6
CONTINUOUS
 10
158.9015472801
 20
40.2855602224
 11
157.9676989609
 21
40.2855602224
  0
LINE
  5
449
100
AcDbEntity
  8
0
100
AcDbLine
 62
7
  6
CONTINUOUS
 10
157.3102615606
 20
40.2855602224
 11
156.0772951195
 21
40.2855602224
  0
LINE
  5
44A
100
AcDbEntity
  8
0
100
AcDbLine
 62
7
  6
CONTINUOUS
 10
150.6444133634
 20
40.2855602224
 11
147.2790232834
 21
40.2855602224
  0
LINE
  5
44B
100
AcDbEntity
  8
0
100
AcDbLine
 62
7
  6
CONTINUOUS
 10
146.8380467082
 20
40.2855602224
 11
143.5116629497
 21
40.2855602224
  0
LINE
  5
44C
100
AcDbEntity
  8
KONSTRUKTIONSELEMENTE
100
AcDbLine
 62
7
  6
CONTINUOUS
 10
178.5739249439
 20
40.7855602224
 11
171.6884851767
 21
40.7855602224
  0
LINE
  5
44D
100
AcDbEntity
  8
KONSTRUKTIONSELEMENTE
100
AcDbLine
 62
7
  6
CONTINUOUS
 10
168.3581850773
 20
40.7855602224
 11
167.5342622121
 21
40.7855602224
  0
LINE
  5
44E
100
AcDbEntity
  8
KONSTRUKTIONSELEMENTE
100
AcDbLine
 62
7
  6
CONTINUOUS
 10
166.4836188242
 20
40.7855602224
 11
165.9431335374
 21
40.7855602224
  0
LINE
  5
44F
100
AcDbEntity
  8
KONSTRUKTIONSELEMENTE
100
AcDbLine
 62
7
  6
CONTINUOUS
 10
163.9403480363
 20
40.7855602224
 11
162.9973564935
 21
40.7855602224
  0
LINE
  5
450
100
AcDbEntity
  8
KONSTRUKTIONSELEMENTE
100
AcDbLine
 62
7
  6
CONTINUOUS
 10
159.8531976433
 20
40.7855602224
 11
157.18178828
 21
40.7855602224
  0
LINE
  5
451
100
AcDbEntity
  8
KONSTRUKTIONSELEMENTE
100
AcDbLine
 62
7
  6
CONTINUOUS
 10
156.0772951195
 20
40.7855602224
 11
150.6444133634
 21
40.7855602224
  0
LINE
  5
452
100
AcDbEntity
  8
KONSTRUKTIONSELEMENTE
100
AcDbLine
 62
7
  6
CONTINUOUS
 10
147.2790232834
 20
40.7855602224
 11
146.8380467082
 21
40.7855602224
  0
LINE
  5
453
100
AcDbEntity
  8
KONSTRUKTIONSELEMENTE
100
AcDbLine
 62
7
  6
CONTINUOUS
 10
143.5116629497
 20
40.7855602224
 11
137.625950861
 21
40.7855602224
  0
LWPOLYLINE
  5
454
100
AcDbEntity
  8
RUNDUNGEN
100
AcDbPolyline
 62
7
  6
CONTINUOUS
 90
4
 70
0
 10
149.8799443355
 20
52.8503037967
 10
149.9155325447
 20
52.7754800234
 10
149.9522720831
 20
52.696429155
 10
149.9882197535
 20
52.6171899451
  0
LWPOLYLINE
  5
455
100
AcDbEntity
  8
RUNDUNGEN
100
AcDbPolyline
 62
7
  6
CONTINUOUS
 90
4
 70
0
 10
149.2403746282
 20
53.9715960258
 10
149.3194449931
 20
53.8050531695
 10
149.4150142256
 20
53.6467964517
 10
149.4842075406
 20
53.5471102763
  0
LINE
  5
456
100
AcDbEntity
  8
RUNDUNGEN
100
AcDbLine
 62
7
  6
CONTINUOUS
 10
150.0201379911
 20
52.5451704241
 11
149.9882197535
 21
52.6171899451
  0
LINE
  5
457
100
AcDbEntity
  8
RUNDUNGEN
100
AcDbLine
 62
7
  6
CONTINUOUS
 10
149.1774645769
 20
54.1481643416
 11
149.2403746282
 21
53.9715960258
  0
LINE
  5
458
100
AcDbEntity
  8
RUNDUNGEN
100
AcDbLine
 62
7
  6
CONTINUOUS
 10
149.1774645769
 20
54.1481643416
 11
149.1774187248
 21
54.1483171149
  0
LWPOLYLINE
  5
459
100
AcDbEntity
  8
RUNDUNGEN
100
AcDbPolyline
 62
7
  6
CONTINUOUS
 90
3
 70
0
 10
149.8799481108
 20
39.7208259049
 10
149.8341753317
 20
39.6274890603
 10
149.7455407893
 20
39.4568149655
  0
LWPOLYLINE
  5
45A
100
AcDbEntity
  8
RUNDUNGEN
100
AcDbPolyline
 62
7
  6
CONTINUOUS
 90
5
 70
0
 10
149.7455407893
 20
39.4568149655
 10
149.6566207865
 20
39.2981870864
 10
149.5680329061
 20
39.1519826422
 10
149.4804528948
 20
39.0185061974
 10
149.4405741974
 20
38.9612534929
  0
LWPOLYLINE
  5
45B
100
AcDbEntity
  8
RUNDUNGEN
100
AcDbPolyline
 62
7
  6
CONTINUOUS
 90
4
 70
0
 10
149.4399081481
 20
38.960293417
 10
149.4049538254
 20
38.9092391022
 10
149.3129619745
 20
38.7539022191
 10
149.2367925406
 20
38.5908203312
  0
LINE
  5
45C
100
AcDbEntity
  8
RUNDUNGEN
100
AcDbLine
 62
7
  6
CONTINUOUS
 10
149.4401087881
 20
38.9605761855
 11
149.4405655376
 21
38.9612194
  0
LINE
  5
45D
100
AcDbEntity
  8
KONSTRUKTIONSELEMENTE
100
AcDbLine
 62
7
  6
CONTINUOUS
 10
185.709594062
 20
43.2855602224
 11
185.0162885699
 21
43.2855602224
  0
LINE
  5
45E
100
AcDbEntity
  8
KONSTRUKTIONSELEMENTE
100
AcDbLine
 62
7
  6
CONTINUOUS
 10
131.1833550969
 20
43.2855602224
 11
130.4900496047
 21
43.2855602224
  0
LINE
  5
45F
100
AcDbEntity
  8
RUNDUNGEN
100
AcDbLine
 62
7
  6
CONTINUOUS
 10
149.4405635535
 20
53.609885964
 11
149.4402672681
 21
53.6103031894
  0
LWPOLYLINE
  5
460
100
AcDbEntity
  8
RUNDUNGEN
100
AcDbPolyline
 62
7
  6
CONTINUOUS
 90
4
 70
0
 10
149.4842075406
 20
53.5471102763
 10
149.5718595903
 20
53.413060045
 10
149.6604798435
 20
53.2663059575
 10
149.7494027756
 20
53.1071409615
  0
LWPOLYLINE
  5
461
100
AcDbEntity
  8
RUNDUNGEN
100
AcDbPolyline
 62
7
  6
CONTINUOUS
 90
3
 70
0
 10
149.7494027756
 20
53.1071409615
 10
149.8380145472
 20
52.9359448667
 10
149.8799443355
 20
52.8503037967
  0
LINE
  5
462
100
AcDbEntity
  8
0
100
AcDbLine
 62
7
  6
CONTINUOUS
 10
156.0772951195
 20
41.0069995714
 11
156.0772951195
 21
40.2855602224
  0
LINE
  5
463
100
AcDbEntity
  8
0
100
AcDbLine
 62
7
  6
CONTINUOUS
 10
156.5349108515
 20
41.2168547664
 11
156.5349108515
 21
40.2855602224
  0
LINE
  5
464
100
AcDbEntity
  8
0
100
AcDbLine
 62
7
  6
CONTINUOUS
 10
157.0337144465
 20
41.2191841361
 11
157.0337144465
 21
40.2855602224
  0
LINE
  5
465
100
AcDbEntity
  8
0
100
AcDbLine
 62
7
  6
CONTINUOUS
 10
157.3102615606
 20
40.7855602224
 11
157.3102615606
 21
40.2855602224
  0
LINE
  5
466
100
AcDbEntity
  8
0
100
AcDbLine
 62
7
  6
CONTINUOUS
 10
157.9676989609
 20
40.7855602224
 11
157.9676989609
 21
40.2855602224
  0
LINE
  5
467
100
AcDbEntity
  8
0
100
AcDbLine
 62
7
  6
CONTINUOUS
 10
158.4849527253
 20
40.7855602224
 11
158.4849527253
 21
40.2855602224
  0
LINE
  5
468
100
AcDbEntity
  8
0
100
AcDbLine
 62
7
  6
CONTINUOUS
 10
158.9015472801
 20
40.7855602224
 11
158.9015472801
 21
40.2855602224
  0
LINE
  5
469
100
AcDbEntity
  8
0
100
AcDbLine
 62
7
  6
CONTINUOUS
 10
159.7284532862
 20
40.7855602224
 11
159.7284532862
 21
40.2855602224
  0
LINE
  5
46A
100
AcDbEntity
  8
0
100
AcDbLine
 62
7
  6
CONTINUOUS
 10
159.8496323448
 20
40.7856072862
 11
159.8496323448
 21
40.2855602224
  0
LINE
  5
46B
100
AcDbEntity
  8
0
100
AcDbLine
 62
7
  6
CONTINUOUS
 10
160.1997051641
 20
41.2380543043
 11
160.1997051641
 21
40.2855602224
  0
LINE
  5
46C
100
AcDbEntity
  8
0
100
AcDbLine
 62
7
  6
CONTINUOUS
 10
162.9973564935
 20
41.2335610839
 11
162.9973564935
 21
40.2855602224
  0
LINE
  5
46D
100
AcDbEntity
  8
RUNDUNGEN
100
AcDbLine
 62
7
  6
CONTINUOUS
 10
166.179506275
 20
52.5451717537
 11
166.2154405991
 21
52.6261235202
  0
LWPOLYLINE
  5
46E
100
AcDbEntity
  8
RUNDUNGEN
100
AcDbPolyline
 62
7
  6
CONTINUOUS
 90
3
 70
0
 10
166.2154405991
 20
52.6261235202
 10
166.2508087529
 20
52.7039058084
 10
166.28762858
 20
52.7829506232
  0
LINE
  5
46F
100
AcDbEntity
  8
RUNDUNGEN
100
AcDbLine
 62
7
  6
CONTINUOUS
 10
166.28762858
 20
52.7829506232
 11
166.3196708282
 21
52.8502486282
  0
LWPOLYLINE
  5
470
100
AcDbEntity
  8
RUNDUNGEN
100
AcDbPolyline
 62
7
  6
CONTINUOUS
 90
3
 70
0
 10
166.3196948142
 20
52.8502933184
 10
166.3654869736
 20
52.9436684975
 10
166.454132031
 20
53.1143578848
  0
LWPOLYLINE
  5
471
100
AcDbEntity
  8
RUNDUNGEN
100
AcDbPolyline
 62
7
  6
CONTINUOUS
 90
5
 70
0
 10
166.454132031
 20
53.1143578848
 10
166.5430579643
 20
53.2729909818
 10
166.6316458089
 20
53.4191919499
 10
166.7192150401
 20
53.5526501279
 10
166.7590725534
 20
53.6098718374
  0
LWPOLYLINE
  5
472
100
AcDbEntity
  8
RUNDUNGEN
100
AcDbPolyline
 62
7
  6
CONTINUOUS
 90
4
 70
0
 10
166.7597377602
 20
53.610830878
 10
166.7946902215
 20
53.6618825005
 10
166.8866824945
 20
53.8172200224
 10
166.9628520945
 20
53.9803026922
  0
LINE
  5
473
100
AcDbEntity
  8
RUNDUNGEN
100
AcDbLine
 62
7
  6
CONTINUOUS
 10
166.7595368147
 20
53.6105476786
 11
166.7590811712
 21
53.6099060184
  0
LINE
  5
474
100
AcDbEntity
  8
KONSTRUKTIONSELEMENTE
100
AcDbLine
 62
7
  6
CONTINUOUS
 10
185.709594062
 20
49.2855602224
 11
185.0162885699
 21
49.2855602224
  0
LINE
  5
475
100
AcDbEntity
  8
KONSTRUKTIONSELEMENTE
100
AcDbLine
 62
7
  6
CONTINUOUS
 10
131.1833550969
 20
49.2855602224
 11
130.4900496047
 21
49.2855602224
  0
LINE
  5
476
100
AcDbEntity
  8
RUNDUNGEN
100
AcDbLine
 62
7
  6
CONTINUOUS
 10
166.759081004
 20
38.9612340089
 11
166.7593551763
 21
38.9608479268
  0
LWPOLYLINE
  5
477
100
AcDbEntity
  8
RUNDUNGEN
100
AcDbPolyline
 62
7
  6
CONTINUOUS
 90
4
 70
0
 10
166.7154407513
 20
39.024003085
 10
166.627791269
 20
39.1580490631
 10
166.5391710541
 20
39.3048030921
 10
166.4502468474
 20
39.4639698361
  0
LWPOLYLINE
  5
478
100
AcDbEntity
  8
RUNDUNGEN
100
AcDbPolyline
 62
7
  6
CONTINUOUS
 90
3
 70
0
 10
166.4502468474
 20
39.4639698361
 10
166.3616325057
 20
39.6351699746
 10
166.3196986735
 20
39.7208188686
  0
LWPOLYLINE
  5
479
100
AcDbEntity
  8
RUNDUNGEN
100
AcDbPolyline
 62
7
  6
CONTINUOUS
 90
4
 70
0
 10
166.3196986735
 20
39.7208188686
 10
166.2841106932
 20
39.7956411447
 10
166.247371145
 20
39.8746919872
 10
166.2114235529
 20
39.9539309979
  0
LWPOLYLINE
  5
47A
100
AcDbEntity
  8
RUNDUNGEN
100
AcDbPolyline
 62
7
  6
CONTINUOUS
 90
4
 70
0
 10
166.9592657185
 20
38.5995350795
 10
166.8801994554
 20
38.7660664843
 10
166.7846381979
 20
38.9243112467
 10
166.7154407513
 20
39.024003085
  0
LINE
  5
47B
100
AcDbEntity
  8
RUNDUNGEN
100
AcDbLine
 62
7
  6
CONTINUOUS
 10
166.1795057182
 20
40.0259499663
 11
166.2114235529
 21
39.9539309979
  0
LINE
  5
47C
100
AcDbEntity
  8
0
100
AcDbLine
 62
7
  6
CONTINUOUS
 10
163.9403480363
 20
40.812306877
 11
163.9403480363
 21
40.2855602224
  0
LINE
  5
47D
100
AcDbEntity
  8
0
100
AcDbLine
 62
7
  6
CONTINUOUS
 10
164.0502754753
 20
40.8567089266
 11
164.0502754753
 21
40.2855602224
  0
LINE
  5
47E
100
AcDbEntity
  8
0
100
AcDbLine
 62
7
  6
CONTINUOUS
 10
164.6812293661
 20
40.8533718774
 11
164.6812293661
 21
40.2855602224
  0
LINE
  5
47F
100
AcDbEntity
  8
0
100
AcDbLine
 62
7
  6
CONTINUOUS
 10
164.9010843212
 20
41.0060785412
 11
164.9010843212
 21
40.2855602224
  0
LINE
  5
480
100
AcDbEntity
  8
0
100
AcDbLine
 62
7
  6
CONTINUOUS
 10
165.2954291491
 20
41.0053890318
 11
165.2954291491
 21
40.2855602224
  0
LWPOLYLINE
  5
481
100
AcDbEntity
  8
RUNDUNGEN
100
AcDbPolyline
 62
7
  6
CONTINUOUS
 90
6
 70
0
 10
167.0336864103
 20
54.1879907861
 10
167.0569545499
 20
54.2802013758
 10
167.0761227618
 20
54.3770848546
 10
167.090346388
 20
54.479723172
 10
167.0985058422
 20
54.5898056711
 10
167.0998217657
 20
54.6553263146
  0
LINE
  5
482
100
AcDbEntity
  8
RUNDUNGEN
100
AcDbLine
 62
7
  6
CONTINUOUS
 10
167.02228056
 20
54.1485131476
 11
167.0336864103
 21
54.1879907861
  0
LINE
  5
483
100
AcDbEntity
  8
RUNDUNGEN
100
AcDbLine
 62
7
  6
CONTINUOUS
 10
167.0222874159
 20
54.148511123
 11
167.0222017483
 21
54.1482254091
  0
LINE
  5
484
100
AcDbEntity
  8
RUNDUNGEN
100
AcDbLine
 62
7
  6
CONTINUOUS
 10
166.9628520945
 20
53.9803026922
 11
167.0222017483
 21
54.1482254091
  0
LINE
  5
485
100
AcDbEntity
  8
KONSTRUKTIONSELEMENTE
100
AcDbLine
 62
7
  6
CONTINUOUS
 10
178.5739246795
 20
51.7855602224
 11
137.6257489259
 21
51.7855602224
  0
LINE
  5
486
100
AcDbEntity
  8
0
100
AcDbLine
 62
7
  6
CONTINUOUS
 10
176.8348158286
 20
52.5355602224
 11
177.0981770253
 21
52.5355602224
  0
LINE
  5
487
100
AcDbEntity
  8
0
100
AcDbLine
 62
7
  6
CONTINUOUS
 10
176.6145961621
 20
53.1605606993
 11
176.8810456605
 21
53.1605606993
  0
LINE
  5
488
100
AcDbEntity
  8
0
100
AcDbLine
 62
7
  6
CONTINUOUS
 10
176.4211720838
 20
53.6605602224
 11
176.6903940408
 21
53.6605602224
  0
LINE
  5
489
100
AcDbEntity
  8
RUNDUNGEN
100
AcDbLine
 62
7
  6
CONTINUOUS
 10
167.0221792206
 20
38.4229543091
 11
166.9592657185
 21
38.5995350795
  0
LINE
  5
48A
100
AcDbEntity
  8
RUNDUNGEN
100
AcDbLine
 62
7
  6
CONTINUOUS
 10
167.0221792206
 20
38.4229543091
 11
167.0222655413
 21
38.4226665401
  0
LWPOLYLINE
  5
48B
100
AcDbEntity
  8
RUNDUNGEN
100
AcDbPolyline
 62
7
  6
CONTINUOUS
 90
7
 70
0
 10
167.0998218904
 20
37.9155729494
 10
167.0980790241
 20
37.9911381202
 10
167.0894612643
 20
38.0994393346
 10
167.0750066523
 20
38.2005524071
 10
167.0557990129
 20
38.2959962011
 10
167.0326756229
 20
38.3867499041
 10
167.0222630171
 20
38.4226657858
  0
LINE
  5
48C
100
AcDbEntity
  8
0
100
AcDbLine
 62
7
  6
CONTINUOUS
 10
165.9431335374
 20
40.8567089266
 11
165.9431335374
 21
40.2855602224
  0
LINE
  5
48D
100
AcDbEntity
  8
0
100
AcDbLine
 62
7
  6
CONTINUOUS
 10
166.3051726852
 20
40.7855602224
 11
166.3051726852
 21
40.2855602224
  0
LINE
  5
48E
100
AcDbEntity
  8
0
100
AcDbLine
 62
7
  6
CONTINUOUS
 10
166.4910818893
 20
40.7855866932
 11
166.4910818893
 21
40.2855602224
  0
LINE
  5
48F
100
AcDbEntity
  8
0
100
AcDbLine
 62
7
  6
CONTINUOUS
 10
167.0998218334
 20
60.2855602224
 11
167.0998218334
 21
55.3409453606
  0
LINE
  5
490
100
AcDbEntity
  8
RUNDUNGEN
100
AcDbLine
 62
7
  6
CONTINUOUS
 10
167.0998218334
 20
29.9741378442
 11
167.0998218334
 21
37.9162621249
  0
LINE
  5
491
100
AcDbEntity
  8
RUNDUNGEN
100
AcDbLine
 62
7
  6
CONTINUOUS
 10
167.0998218334
 20
54.6551861432
 11
167.0998218334
 21
62.5969826006
  0
LINE
  5
492
100
AcDbEntity
  8
0
100
AcDbLine
 62
7
  6
CONTINUOUS
 10
167.5405173642
 20
40.7855788644
 11
167.5405173642
 21
40.2855602224
  0
LINE
  5
493
100
AcDbEntity
  8
0
100
AcDbLine
 62
7
  6
CONTINUOUS
 10
176.2118863902
 20
54.1605597456
 11
176.4841733996
 21
54.1605597456
  0
LINE
  5
494
100
AcDbEntity
  8
0
100
AcDbLine
 62
7
  6
CONTINUOUS
 10
176.1011238696
 20
54.4105602224
 11
176.3750612299
 21
54.4105602224
  0
LINE
  5
495
100
AcDbEntity
  8
0
100
AcDbLine
 62
7
  6
CONTINUOUS
 10
176.0441804975
 20
54.5355597456
 11
176.3189740603
 21
54.5355597456
  0
LINE
  5
496
100
AcDbEntity
  8
0
100
AcDbLine
 62
7
  6
CONTINUOUS
 10
149.0998218334
 20
56.2855602224
 11
148.5998218334
 21
56.2855602224
  0
LINE
  5
497
100
AcDbEntity
  8
0
100
AcDbLine
 62
7
  6
CONTINUOUS
 10
149.0998218334
 20
56.3493900077
 11
148.5998218334
 21
56.3493900077
  0
LINE
  5
498
100
AcDbEntity
  8
0
100
AcDbLine
 62
7
  6
CONTINUOUS
 10
169.5954562986
 20
41.2392642032
 11
169.5954562986
 21
40.2855602224
  0
LINE
  5
499
100
AcDbEntity
  8
0
100
AcDbLine
 62
7
  6
CONTINUOUS
 10
149.0998218334
 20
56.5408793633
 11
148.5998218334
 21
56.5408793633
  0
LINE
  5
49A
100
AcDbEntity
  8
0
100
AcDbLine
 62
7
  6
CONTINUOUS
 10
149.0998218334
 20
56.7961985041
 11
148.5998218334
 21
56.7961985041
  0
LINE
  5
49B
100
AcDbEntity
  8
0
100
AcDbLine
 62
7
  6
CONTINUOUS
 10
149.0998218334
 20
57.115347447
 11
148.5998218334
 21
57.115347447
  0
LINE
  5
49C
100
AcDbEntity
  8
0
100
AcDbLine
 62
7
  6
CONTINUOUS
 10
174.4184266877
 20
57.4105606993
 11
174.7201216017
 21
57.4105606993
  0
LINE
  5
49D
100
AcDbEntity
  8
0
100
AcDbLine
 62
7
  6
CONTINUOUS
 10
149.0998218334
 20
57.4344964345
 11
148.5998218334
 21
57.4344964345
  0
LINE
  5
49E
100
AcDbEntity
  8
0
100
AcDbLine
 62
7
  6
CONTINUOUS
 10
174.2451581832
 20
57.6605597456
 11
174.5500311283
 21
57.6605597456
  0
LINE
  5
49F
100
AcDbEntity
  8
0
100
AcDbLine
 62
7
  6
CONTINUOUS
 10
149.0998218334
 20
57.7536453326
 11
148.5998218334
 21
57.7536453326
  0
LINE
  5
4A0
100
AcDbEntity
  8
0
100
AcDbLine
 62
7
  6
CONTINUOUS
 10
149.0998218334
 20
57.9451346715
 11
148.5998218334
 21
57.9451346715
  0
LINE
  5
4A1
100
AcDbEntity
  8
0
100
AcDbLine
 62
7
  6
CONTINUOUS
 10
149.0998218334
 20
58.1366240104
 11
148.5998218334
 21
58.1366240104
  0
LINE
  5
4A2
100
AcDbEntity
  8
0
100
AcDbLine
 62
7
  6
CONTINUOUS
 10
149.0998218334
 20
58.20045379
 11
148.5998218334
 21
58.20045379
  0
LINE
  5
4A3
100
AcDbEntity
  8
0
100
AcDbLine
 62
7
  6
CONTINUOUS
 10
149.0998218334
 20
58.3919431289
 11
148.5998218334
 21
58.3919431289
  0
LINE
  5
4A4
100
AcDbEntity
  8
0
100
AcDbLine
 62
7
  6
CONTINUOUS
 10
149.0998218334
 20
58.5834326466
 11
148.5998218334
 21
58.5834326466
  0
LINE
  5
4A5
100
AcDbEntity
  8
0
100
AcDbLine
 62
7
  6
CONTINUOUS
 10
173.4920885605
 20
58.6605602224
 11
173.8115809647
 21
58.6605602224
  0
LINE
  5
4A6
100
AcDbEntity
  8
0
100
AcDbLine
 62
7
  6
CONTINUOUS
 10
149.0998218334
 20
58.7749219854
 11
148.5998218334
 21
58.7749219854
  0
LINE
  5
4A7
100
AcDbEntity
  8
0
100
AcDbLine
 62
7
  6
CONTINUOUS
 10
171.2468579874
 20
41.2188116438
 11
171.2468579874
 21
40.2855602224
  0
LINE
  5
4A8
100
AcDbEntity
  8
0
100
AcDbLine
 62
7
  6
CONTINUOUS
 10
171.5428918489
 20
41.188691068
 11
171.5428918489
 21
40.2855602224
  0
LINE
  5
4A9
100
AcDbEntity
  8
0
100
AcDbLine
 62
7
  6
CONTINUOUS
 10
171.6740967931
 20
41.0979797254
 11
171.6740967931
 21
40.2855602224
  0
LINE
  5
4AA
100
AcDbEntity
  8
0
100
AcDbLine
 62
7
  6
CONTINUOUS
 10
171.6884851767
 20
40.9947758794
 11
171.6884851767
 21
40.2855602224
  0
LINE
  5
4AB
100
AcDbEntity
  8
0
100
AcDbLine
 62
7
  6
CONTINUOUS
 10
149.0998218334
 20
59.0302411039
 11
148.5998218334
 21
59.0302411039
  0
LINE
  5
4AC
100
AcDbEntity
  8
0
100
AcDbLine
 62
7
  6
CONTINUOUS
 10
149.0998218334
 20
59.2217304428
 11
148.5998218334
 21
59.2217304428
  0
LINE
  5
4AD
100
AcDbEntity
  8
0
100
AcDbLine
 62
7
  6
CONTINUOUS
 10
149.0998218334
 20
59.2855602224
 11
148.5998218334
 21
59.2855602224
  0
LINE
  5
4AE
100
AcDbEntity
  8
0
100
AcDbLine
 62
7
  6
CONTINUOUS
 10
172.6315767347
 20
59.6605592688
 11
172.9695696628
 21
59.6605592688
  0
LINE
  5
4AF
100
AcDbEntity
  8
0
100
AcDbLine
 62
7
  6
CONTINUOUS
 10
172.0304525907
 20
60.2855611761
 11
172.3826777557
 21
60.2855611761
  0
LINE
  5
4B0
100
AcDbEntity
  8
RUNDUNGEN
100
AcDbLine
 62
7
  6
CONTINUOUS
 10
150.0998218334
 20
61.2855602224
 11
166.0998218334
 21
61.2855602224
  0
LINE
  5
4B1
100
AcDbEntity
  8
0
100
AcDbLine
 62
7
  6
CONTINUOUS
 10
170.4962678967
 20
61.6605602224
 11
170.8908098718
 21
61.6605602224
  0
ARC
  5
4B2
100
AcDbEntity
  8
RUNDUNGEN
100
AcDbCircle
 62
7
  6
CONTINUOUS
 10
144.0998218334
 20
165.6026557383
 40
5.0
100
AcDbArc
 50
270.0003558636
 51
360.0
  0
ARC
  5
4B3
100
AcDbEntity
  8
RUNDUNGEN
100
AcDbCircle
 62
7
  6
CONTINUOUS
 10
140.3498218334
 20
158.6026557383
 40
2.0
100
AcDbArc
 50
90.0
 51
180.0
  0
ARC
  5
4B4
100
AcDbEntity
  8
KONSTRUKTIONSELEMENTE
100
AcDbCircle
 62
7
  6
CONTINUOUS
 10
98.0998218334
 20
212.4026557383
 40
88.5
100
AcDbArc
 50
343.7397952917
 51
16.2602047083
  0
ARC
  5
4B5
100
AcDbEntity
  8
KONSTRUKTIONSELEMENTE
100
AcDbCircle
 62
7
  6
CONTINUOUS
 10
98.0998218334
 20
212.4026557383
 40
87.6097722286
100
AcDbArc
 50
352.7870903408
 51
7.2129096592
  0
ARC
  5
4B6
100
AcDbEntity
  8
KONSTRUKTIONSELEMENTE
100
AcDbCircle
 62
7
  6
CONTINUOUS
 10
98.0998218334
 20
212.4026557383
 40
78.3902277714
100
AcDbArc
 50
351.9334272256
 51
8.0665727744
  0
ARC
  5
4B7
100
AcDbEntity
  8
KONSTRUKTIONSELEMENTE
100
AcDbCircle
 62
7
  6
CONTINUOUS
 10
98.0998218334
 20
212.4026557383
 40
77.5
100
AcDbArc
 50
343.7397952917
 51
16.2602047083
  0
ARC
  5
4B8
100
AcDbEntity
  8
RUNDUNGEN
100
AcDbCircle
 62
7
  6
CONTINUOUS
 10
158.0998218334
 20
184.1026557383
 40
9.0
100
AcDbArc
 50
0.0
 51
180.0
  0
ARC
  5
4B9
100
AcDbEntity
  8
RUNDUNGEN
100
AcDbCircle
 62
7
  6
CONTINUOUS
 10
172.0998218334
 20
165.6026557383
 40
5.0
100
AcDbArc
 50
180.0
 51
269.9999675918
  0
ARC
  5
4BA
100
AcDbEntity
  8
RUNDUNGEN
100
AcDbCircle
 62
7
  6
CONTINUOUS
 10
175.8498218334
 20
158.6026557383
 40
2.0
100
AcDbArc
 50
0.0
 51
90.0
  0
ARC
  5
4BB
100
AcDbEntity
  8
KONSTRUKTIONSELEMENTE
100
AcDbCircle
 62
7
  6
CONTINUOUS
 10
218.0998218334
 20
212.4026557383
 40
88.5
100
AcDbArc
 50
163.7397952917
 51
196.2602047083
  0
ARC
  5
4BC
100
AcDbEntity
  8
KONSTRUKTIONSELEMENTE
100
AcDbCircle
 62
7
  6
CONTINUOUS
 10
218.0998218334
 20
212.4026557383
 40
87.6097722286
100
AcDbArc
 50
172.7870903408
 51
187.2129096592
  0
ARC
  5
4BD
100
AcDbEntity
  8
KONSTRUKTIONSELEMENTE
100
AcDbCircle
 62
7
  6
CONTINUOUS
 10
218.0998218334
 20
212.4026557383
 40
78.3902277714
100
AcDbArc
 50
171.9334272256
 51
188.0665727744
  0
ARC
  5
4BE
100
AcDbEntity
  8
KONSTRUKTIONSELEMENTE
100
AcDbCircle
 62
7
  6
CONTINUOUS
 10
218.0998218334
 20
212.4026557383
 40
77.5
100
AcDbArc
 50
163.7397952917
 51
196.2602047083
  0
ARC
  5
4BF
100
AcDbEntity
  8
KONSTRUKTIONSELEMENTE
100
AcDbCircle
 62
7
  6
CONTINUOUS
 10
158.0998218334
 20
194.9026557383
 40
26.0
100
AcDbArc
 50
196.2602047083
 51
248.5654002565
  0
ARC
  5
4C0
100
AcDbEntity
  8
KONSTRUKTIONSELEMENTE
100
AcDbCircle
 62
7
  6
CONTINUOUS
 10
158.0998218334
 20
194.9026557383
 40
26.0
100
AcDbArc
 50
290.2608690755
 51
343.7397952917
  0
ARC
  5
4C1
100
AcDbEntity
  8
KONSTRUKTIONSELEMENTE
100
AcDbCircle
 62
7
  6
CONTINUOUS
 10
158.0998218334
 20
229.9026557383
 40
26.0
100
AcDbArc
 50
16.2602047083
 51
163.7397952917
  0
ARC
  5
4C2
100
AcDbEntity
  8
KONSTRUKTIONSELEMENTE
100
AcDbCircle
 62
7
  6
CONTINUOUS
 10
158.0998218334
 20
229.9026557383
 40
15.0
100
AcDbArc
 50
16.2602047083
 51
163.7397952917
  0
ARC
  5
4C3
100
AcDbEntity
  8
KONSTRUKTIONSELEMENTE
100
AcDbCircle
 62
7
  6
CONTINUOUS
 10
158.0998218334
 20
194.9026557383
 40
15.0
100
AcDbArc
 50
196.2602047083
 51
233.099312579
  0
ARC
  5
4C4
100
AcDbEntity
  8
KONSTRUKTIONSELEMENTE
100
AcDbCircle
 62
7
  6
CONTINUOUS
 10
158.0998218334
 20
194.9026557383
 40
15.0
100
AcDbArc
 50
306.900687421
 51
343.7397952917
  0
ARC
  5
4C5
100
AcDbEntity
  8
RUNDUNGEN
100
AcDbCircle
 62
7
  6
CONTINUOUS
 10
251.5074238637
 20
170.1026557383
 40
8.0
100
AcDbArc
 50
137.9988784384
 51
42.0013962293
  0
ARC
  5
4C6
100
AcDbEntity
  8
KONSTRUKTIONSELEMENTE
100
AcDbCircle
 62
7
  6
CONTINUOUS
 10
251.5074238637
 20
174.4026557383
 40
5.5
100
AcDbArc
 50
180.0
 51
360.0
  0
ARC
  5
4C7
100
AcDbEntity
  8
RUNDUNGEN
100
AcDbCircle
 62
7
  6
CONTINUOUS
 10
233.0074238637
 20
178.2677192478
 40
3.5
100
AcDbArc
 50
330.0
 51
360.0
  0
ARC
  5
4C8
100
AcDbEntity
  8
RUNDUNGEN
100
AcDbCircle
 62
7
  6
CONTINUOUS
 10
239.0074238637
 20
189.626860449
 40
2.5
100
AcDbArc
 50
150.0030876611
 51
179.9990290171
  0
ARC
  5
4C9
100
AcDbEntity
  8
RUNDUNGEN
100
AcDbCircle
 62
7
  6
CONTINUOUS
 10
242.4520387256
 20
191.6026557383
 40
1.5
100
AcDbArc
 50
65.090847263
 51
90.0
  0
ARC
  5
4CA
100
AcDbEntity
  8
RUNDUNGEN
100
AcDbCircle
 62
7
  6
CONTINUOUS
 10
238.7047741329
 20
192.1026557383
 40
1.0
100
AcDbArc
 50
90.0000000006
 51
150.0
  0
ARC
  5
4CB
100
AcDbEntity
  8
RUNDUNGEN
100
AcDbCircle
 62
7
  6
CONTINUOUS
 10
232.7574321123
 20
168.8347208328
 40
1.0
100
AcDbArc
 50
150.0009452138
 51
180.0008185712
  0
ARC
  5
4CC
100
AcDbEntity
  8
0
100
AcDbCircle
 62
7
  6
CONTINUOUS
 10
251.5074238637
 20
211.1026557383
 40
20.0
100
AcDbArc
 50
285.9663322658
 51
294.909152737
  0
ARC
  5
4CD
100
AcDbEntity
  8
0
100
AcDbCircle
 62
7
  6
CONTINUOUS
 10
251.5074238637
 20
211.1026557383
 40
20.0
100
AcDbArc
 50
245.090847263
 51
254.0336677342
  0
ARC
  5
4CE
100
AcDbEntity
  8
0
100
AcDbCircle
 62
7
  6
CONTINUOUS
 10
238.267142129
 20
248.1849771411
 40
18.3090517952
100
AcDbArc
 50
357.1608416034
 51
0.8514201964
  0
ARC
  5
4CF
100
AcDbEntity
  8
0
100
AcDbCircle
 62
7
  6
CONTINUOUS
 10
247.4410047667
 20
250.4836452559
 40
9.1351840313
100
AcDbArc
 50
355.9806204455
 51
1.2038454992
  0
ARC
  5
4D0
100
AcDbEntity
  8
0
100
AcDbCircle
 62
7
  6
CONTINUOUS
 10
249.3311920583
 20
249.7815180036
 40
7.3630838365
100
AcDbArc
 50
349.6371880419
 51
351.0333350391
  0
ARC
  5
4D1
100
AcDbEntity
  8
0
100
AcDbCircle
 62
7
  6
CONTINUOUS
 10
251.2034259999
 20
250.34120504
 40
5.784059564
100
AcDbArc
 50
15.1680182549
 51
21.7389424365
  0
ARC
  5
4D2
100
AcDbEntity
  8
KONSTRUKTIONSELEMENTE
100
AcDbCircle
 62
7
  6
CONTINUOUS
 10
251.5074238637
 20
250.4026557383
 40
5.5
100
AcDbArc
 50
22.6669822791
 51
180.0
  0
ARC
  5
4D3
100
AcDbEntity
  8
0
100
AcDbCircle
 62
7
  6
CONTINUOUS
 10
251.5238358471
 20
250.3115357085
 40
5.4837284384
100
AcDbArc
 50
9.0635307779
 51
16.3432355456
  0
ARC
  5
4D4
100
AcDbEntity
  8
0
100
AcDbCircle
 62
7
  6
CONTINUOUS
 10
251.5367808241
 20
250.3538275844
 40
5.4706349882
100
AcDbArc
 50
4.3826540673
 51
8.6470219385
  0
ARC
  5
4D5
100
AcDbEntity
  8
RUNDUNGEN
100
AcDbCircle
 62
7
  6
CONTINUOUS
 10
270.9874238637
 20
178.2677192478
 40
3.5
100
AcDbArc
 50
180.0
 51
210.0
  0
ARC
  5
4D6
100
AcDbEntity
  8
RUNDUNGEN
100
AcDbCircle
 62
7
  6
CONTINUOUS
 10
264.9874238637
 20
189.626860449
 40
2.5
100
AcDbArc
 50
359.9999173245
 51
30.0
  0
ARC
  5
4D7
100
AcDbEntity
  8
0
100
AcDbCircle
 62
7
  6
CONTINUOUS
 10
264.4879583804
 20
175.6319667055
 40
2.0
100
AcDbArc
 50
174.2608295227
 51
356.9363238298
  0
ARC
  5
4D8
100
AcDbEntity
  8
0
100
AcDbCircle
 62
7
  6
CONTINUOUS
 10
264.4879583804
 20
172.2319667055
 40
2.0
100
AcDbArc
 50
174.2608295227
 51
356.9363238298
  0
ARC
  5
4D9
100
AcDbEntity
  8
RUNDUNGEN
100
AcDbCircle
 62
7
  6
CONTINUOUS
 10
260.5628090019
 20
191.6026557383
 40
1.5
100
AcDbArc
 50
90.0
 51
114.909152737
  0
ARC
  5
4DA
100
AcDbEntity
  8
0
100
AcDbCircle
 62
7
  6
CONTINUOUS
 10
264.4879583804
 20
175.6319667055
 40
1.4
100
AcDbArc
 50
282.3736251162
 51
8.2132107017
  0
ARC
  5
4DB
100
AcDbEntity
  8
0
100
AcDbCircle
 62
7
  6
CONTINUOUS
 10
264.4879583804
 20
175.6319667055
 40
1.4
100
AcDbArc
 50
171.7867892983
 51
257.4447123387
  0
ARC
  5
4DC
100
AcDbEntity
  8
0
100
AcDbCircle
 62
7
  6
CONTINUOUS
 10
264.4879583804
 20
172.2319667055
 40
1.4
100
AcDbArc
 50
181.7503387136
 51
8.2132107017
  0
ARC
  5
4DD
100
AcDbEntity
  8
RUNDUNGEN
100
AcDbCircle
 62
7
  6
CONTINUOUS
 10
265.2900735945
 20
192.1026557383
 40
1.0
100
AcDbArc
 50
30.0
 51
89.9999999995
  0
ARC
  5
4DE
100
AcDbEntity
  8
RUNDUNGEN
100
AcDbCircle
 62
7
  6
CONTINUOUS
 10
270.2573754437
 20
170.5322002033
 40
1.0
100
AcDbArc
 50
359.9951951704
 51
29.9944514745
  0
ARC
  5
4DF
100
AcDbEntity
  8
0
100
AcDbCircle
 62
7
  6
CONTINUOUS
 10
252.3125624301
 20
247.8236134083
 40
4.6975153485
100
AcDbArc
 50
9.9337966361
 51
25.4645843539
  0
ARC
  5
4E0
100
AcDbEntity
  8
0
100
AcDbCircle
 62
7
  6
CONTINUOUS
 10
254.3064299835
 20
251.4398378572
 40
2.3930648804
100
AcDbArc
 50
341.3753316786
 51
343.7843849818
  0
ARC
  5
4E1
100
AcDbEntity
  8
0
100
AcDbCircle
 62
7
  6
CONTINUOUS
 10
256.3173703159
 20
252.4834208472
 40
0.2587590144
100
AcDbArc
 50
0.0163058282
 51
7.6937205597
  0
ARC
  5
4E2
100
AcDbEntity
  8
0
100
AcDbCircle
 62
7
  6
CONTINUOUS
 10
131.0998218334
 20
46.2855602224
 40
20.0
100
AcDbArc
 50
335.090847263
 51
341.4166327144
  0
ARC
  5
4E3
100
AcDbEntity
  8
0
100
AcDbCircle
 62
7
  6
CONTINUOUS
 10
131.0998218334
 20
46.2855602224
 40
20.0
100
AcDbArc
 50
18.5833672856
 51
24.9091527369
  0
ARC
  5
4E4
100
AcDbEntity
  8
RUNDUNGEN
100
AcDbCircle
 62
7
  6
CONTINUOUS
 10
131.0998218334
 20
46.2855602224
 40
20.0
100
AcDbArc
 50
335.090847263
 51
341.4166327144
  0
ARC
  5
4E5
100
AcDbEntity
  8
RUNDUNGEN
100
AcDbCircle
 62
7
  6
CONTINUOUS
 10
131.0998218334
 20
46.2855602224
 40
20.0
100
AcDbArc
 50
18.5833672856
 51
24.909152737
  0
ARC
  5
4E6
100
AcDbEntity
  8
KONSTRUKTIONSELEMENTE
100
AcDbCircle
 62
7
  6
CONTINUOUS
 10
137.6273507131
 20
46.7613820752
 40
5.9758035035
100
AcDbArc
 50
269.1351752577
 51
270.0163892118
  0
ARC
  5
4E7
100
AcDbEntity
  8
KONSTRUKTIONSELEMENTE
100
AcDbCircle
 62
7
  6
CONTINUOUS
 10
137.6272207876
 20
45.8729630795
 40
5.9125786561
100
AcDbArc
 50
89.9816002185
 51
90.1288570287
  0
ARC
  5
4E8
100
AcDbEntity
  8
KONSTRUKTIONSELEMENTE
100
AcDbCircle
 62
7
  6
CONTINUOUS
 10
135.0998218334
 20
46.2855602224
 40
5.5
100
AcDbArc
 50
146.9442688491
 51
213.0557311509
  0
ARC
  5
4E9
100
AcDbEntity
  8
RUNDUNGEN
100
AcDbCircle
 62
7
  6
CONTINUOUS
 10
150.5998218334
 20
37.2301750843
 40
1.5
100
AcDbArc
 50
155.090847263
 51
180.0
  0
ARC
  5
4EA
100
AcDbEntity
  8
RUNDUNGEN
100
AcDbCircle
 62
7
  6
CONTINUOUS
 10
150.0998218334
 20
31.3055602224
 40
1.0
100
AcDbArc
 50
180.0
 51
270.0
  0
ARC
  5
4EB
100
AcDbEntity
  8
0
100
AcDbCircle
 62
7
  6
CONTINUOUS
 10
148.4230248981
 20
53.6337091608
 40
12.7804941407
100
AcDbArc
 50
256.8432340662
 51
258.7686032243
  0
ARC
  5
4EC
100
AcDbEntity
  8
0
100
AcDbCircle
 62
7
  6
CONTINUOUS
 10
148.0433866701
 20
48.4911752554
 40
7.6882983299
100
AcDbArc
 50
254.0739451415
 51
257.1717823973
  0
ARC
  5
4ED
100
AcDbEntity
  8
0
100
AcDbCircle
 62
7
  6
CONTINUOUS
 10
147.6624460427
 20
45.075394854
 40
4.2906812701
100
AcDbArc
 50
251.9973463354
 51
255.0310729814
  0
ARC
  5
4EE
100
AcDbEntity
  8
0
100
AcDbCircle
 62
7
  6
CONTINUOUS
 10
147.3373920242
 20
42.9030813321
 40
2.1225523698
100
AcDbArc
 50
248.3464381091
 51
254.0707491643
  0
ARC
  5
4EF
100
AcDbEntity
  8
RUNDUNGEN
100
AcDbCircle
 62
7
  6
CONTINUOUS
 10
150.5998218334
 20
55.3409453606
 40
1.5
100
AcDbArc
 50
180.0
 51
204.9091527382
  0
ARC
  5
4F0
100
AcDbEntity
  8
RUNDUNGEN
100
AcDbCircle
 62
7
  6
CONTINUOUS
 10
151.8610464878
 20
39.2137224209
 40
2.0120803051
100
AcDbArc
 50
151.1137074984
 51
156.1924762964
  0
ARC
  5
4F1
100
AcDbEntity
  8
RUNDUNGEN
100
AcDbCircle
 62
7
  6
CONTINUOUS
 10
151.85500632
 20
39.2170332022
 40
2.0051923055
100
AcDbArc
 50
148.9804407814
 51
151.1131649638
  0
ARC
  5
4F2
100
AcDbEntity
  8
RUNDUNGEN
100
AcDbCircle
 62
7
  6
CONTINUOUS
 10
151.0998218334
 20
29.9741378442
 40
2.0
100
AcDbArc
 50
180.0
 51
246.7726241047
  0
ARC
  5
4F3
100
AcDbEntity
  8
RUNDUNGEN
100
AcDbCircle
 62
7
  6
CONTINUOUS
 10
151.9527623844
 20
39.2745073357
 40
1.9999999845
100
AcDbArc
 50
149.5775927231
 51
161.4165915854
  0
ARC
  5
4F4
100
AcDbEntity
  8
RUNDUNGEN
100
AcDbCircle
 62
7
  6
CONTINUOUS
 10
151.8481153117
 20
39.2211563508
 40
1.9971619857
100
AcDbArc
 50
147.769489365
 51
148.9799345754
  0
ARC
  5
4F5
100
AcDbEntity
  8
0
100
AcDbCircle
 62
7
  6
CONTINUOUS
 10
152.3548470294
 20
53.0487532787
 40
12.1960336715
100
AcDbArc
 50
256.520258644
 51
258.4900803812
  0
ARC
  5
4F6
100
AcDbEntity
  8
0
100
AcDbCircle
 62
7
  6
CONTINUOUS
 10
151.8753240029
 20
47.3730759464
 40
6.5722995082
100
AcDbArc
 50
252.7035851885
 51
256.0442457645
  0
ARC
  5
4F7
100
AcDbEntity
  8
0
100
AcDbCircle
 62
7
  6
CONTINUOUS
 10
154.8480780967
 20
44.2913344103
 40
3.5068261752
100
AcDbArc
 50
290.5191991507
 51
298.751653924
  0
ARC
  5
4F8
100
AcDbEntity
  8
0
100
AcDbCircle
 62
7
  6
CONTINUOUS
 10
151.4338331126
 20
43.9346045517
 40
3.1544157191
100
AcDbArc
 50
248.7444075718
 51
252.2523186521
  0
ARC
  5
4F9
100
AcDbEntity
  8
RUNDUNGEN
100
AcDbCircle
 62
7
  6
CONTINUOUS
 10
151.9527630098
 20
53.2966118048
 40
2.0
100
AcDbArc
 50
198.5833672856
 51
229.1811331197
  0
ARC
  5
4FA
100
AcDbEntity
  8
RUNDUNGEN
100
AcDbCircle
 62
7
  6
CONTINUOUS
 10
151.8483954438
 20
53.3506585724
 40
1.997785578
100
AcDbArc
 50
203.7771842763
 51
231.7154743402
  0
ARC
  5
4FB
100
AcDbEntity
  8
0
100
AcDbCircle
 62
7
  6
CONTINUOUS
 10
148.6778002331
 20
84.7520136397
 40
43.535226439
100
AcDbArc
 50
268.1587827206
 51
270.552550413
  0
ARC
  5
4FC
100
AcDbEntity
  8
0
100
AcDbCircle
 62
7
  6
CONTINUOUS
 10
152.1331364451
 20
80.1062261361
 40
39.0057078605
100
AcDbArc
 50
265.5366230125
 51
266.1467903039
  0
ARC
  5
4FD
100
AcDbEntity
  8
0
100
AcDbCircle
 62
7
  6
CONTINUOUS
 10
144.7542955758
 20
75.5781579799
 40
34.3613702052
100
AcDbArc
 50
267.9275234807
 51
270.6218649154
  0
ARC
  5
4FE
100
AcDbEntity
  8
0
100
AcDbCircle
 62
7
  6
CONTINUOUS
 10
147.9629418465
 20
75.1310864966
 40
34.0306278675
100
AcDbArc
 50
265.2201060107
 51
265.8732264532
  0
ARC
  5
4FF
100
AcDbEntity
  8
RUNDUNGEN
100
AcDbCircle
 62
7
  6
CONTINUOUS
 10
151.0998218334
 20
62.5969826006
 40
2.0
100
AcDbArc
 50
113.2248924501
 51
180.0
  0
ARC
  5
500
100
AcDbEntity
  8
RUNDUNGEN
100
AcDbCircle
 62
7
  6
CONTINUOUS
 10
150.0998218334
 20
60.2855602224
 40
1.0
100
AcDbArc
 50
90.0
 51
180.0
  0
ARC
  5
501
100
AcDbEntity
  8
0
100
AcDbCircle
 62
7
  6
CONTINUOUS
 10
156.5352526013
 20
94.5509225269
 40
53.3340677616
100
AcDbArc
 50
269.9996328646
 51
270.5354959216
  0
ARC
  5
502
100
AcDbEntity
  8
FASEN
100
AcDbCircle
 62
7
  6
CONTINUOUS
 10
158.0998218334
 20
46.2855602224
 40
23.0
100
AcDbArc
 50
193.2053001565
 51
346.7949017178
  0
ARC
  5
503
100
AcDbEntity
  8
FASEN
100
AcDbCircle
 62
7
  6
CONTINUOUS
 10
158.0998218334
 20
46.2855602224
 40
23.0
100
AcDbArc
 50
13.2050967
 51
166.7949053875
  0
ARC
  5
504
100
AcDbEntity
  8
FASEN
100
AcDbCircle
 62
7
  6
CONTINUOUS
 10
158.0998218334
 20
46.2855602224
 40
22.5
100
AcDbArc
 50
13.7951346434
 51
166.2048657633
  0
ARC
  5
505
100
AcDbEntity
  8
FASEN
100
AcDbCircle
 62
7
  6
CONTINUOUS
 10
158.0998218334
 20
46.2855602224
 40
22.5
100
AcDbArc
 50
193.7951828625
 51
346.20486534
  0
ARC
  5
506
100
AcDbEntity
  8
0
100
AcDbCircle
 62
7
  6
CONTINUOUS
 10
158.0998218334
 20
46.2855602224
 40
20.0
100
AcDbArc
 50
38.2249102016
 51
50.2417722628
  0
ARC
  5
507
100
AcDbEntity
  8
0
100
AcDbCircle
 62
7
  6
CONTINUOUS
 10
158.0998218334
 20
46.2855602224
 40
20.0
100
AcDbArc
 50
15.9621771144
 51
34.6631037125
  0
ARC
  5
508
100
AcDbEntity
  8
0
100
AcDbCircle
 62
7
  6
CONTINUOUS
 10
158.0998218334
 20
46.2855602224
 40
20.0
100
AcDbArc
 50
323.1301023542
 51
344.0345141124
  0
ARC
  5
509
100
AcDbEntity
  8
RUNDUNGEN
100
AcDbCircle
 62
7
  6
CONTINUOUS
 10
158.0998218334
 20
46.2855602224
 40
19.75
100
AcDbArc
 50
16.1835988214
 51
163.8164012103
  0
ARC
  5
50A
100
AcDbEntity
  8
RUNDUNGEN
100
AcDbCircle
 62
7
  6
CONTINUOUS
 10
158.0998218334
 20
46.2855602224
 40
19.75
100
AcDbArc
 50
196.1835987991
 51
343.8164011886
  0
ARC
  5
50B
100
AcDbEntity
  8
RUNDUNGEN
100
AcDbCircle
 62
7
  6
CONTINUOUS
 10
164.3409488317
 20
39.2148229027
 40
2.0094845548
100
AcDbArc
 50
23.8059179446
 51
32.9059031058
  0
ARC
  5
50C
100
AcDbEntity
  8
RUNDUNGEN
100
AcDbCircle
 62
7
  6
CONTINUOUS
 10
165.0998218334
 20
29.9741378442
 40
2.0
100
AcDbArc
 50
293.2270472543
 51
360.0
  0
ARC
  5
50D
100
AcDbEntity
  8
RUNDUNGEN
100
AcDbCircle
 62
7
  6
CONTINUOUS
 10
164.2468806569
 20
39.2745086401
 40
2.0
100
AcDbArc
 50
18.5833672856
 51
31.9135714161
  0
ARC
  5
50E
100
AcDbEntity
  8
RUNDUNGEN
100
AcDbCircle
 62
7
  6
CONTINUOUS
 10
164.3534649452
 20
39.2221736511
 40
1.9949844349
100
AcDbArc
 50
33.8934362856
 51
37.0186851469
  0
ARC
  5
50F
100
AcDbEntity
  8
RUNDUNGEN
100
AcDbCircle
 62
7
  6
CONTINUOUS
 10
164.3573521303
 20
39.2248246995
 40
1.9902794182
100
AcDbArc
 50
32.9207036106
 51
33.8924896497
  0
ARC
  5
510
100
AcDbEntity
  8
RUNDUNGEN
100
AcDbCircle
 62
7
  6
CONTINUOUS
 10
165.5998218334
 20
37.2301750843
 40
1.5
100
AcDbArc
 50
0.0
 51
24.909152737
  0
ARC
  5
511
100
AcDbEntity
  8
RUNDUNGEN
100
AcDbCircle
 62
7
  6
CONTINUOUS
 10
166.0998218334
 20
31.3055602224
 40
1.0
100
AcDbArc
 50
270.0
 51
360.0
  0
ARC
  5
512
100
AcDbEntity
  8
RUNDUNGEN
100
AcDbCircle
 62
7
  6
CONTINUOUS
 10
164.246881373
 20
53.2966133108
 40
1.9999999826
100
AcDbArc
 50
310.8188231296
 51
341.4165852833
  0
ARC
  5
513
100
AcDbEntity
  8
RUNDUNGEN
100
AcDbCircle
 62
7
  6
CONTINUOUS
 10
164.3512489577
 20
53.3506600651
 40
1.997785517
100
AcDbArc
 50
308.2844423052
 51
336.2228098783
  0
ARC
  5
514
100
AcDbEntity
  8
RUNDUNGEN
100
AcDbCircle
 62
7
  6
CONTINUOUS
 10
165.5998218334
 20
55.3409453606
 40
1.5
100
AcDbArc
 50
335.090847263
 51
360.0
  0
ARC
  5
515
100
AcDbEntity
  8
RUNDUNGEN
100
AcDbCircle
 62
7
  6
CONTINUOUS
 10
166.0998218334
 20
60.2855602224
 40
1.0
100
AcDbArc
 50
0.0
 51
90.0
  0
ARC
  5
516
100
AcDbEntity
  8
0
100
AcDbCircle
 62
7
  6
CONTINUOUS
 10
161.6808172724
 20
92.470503986
 40
51.2538544255
100
AcDbArc
 50
268.3440603822
 51
271.4718978564
  0
ARC
  5
517
100
AcDbEntity
  8
0
100
AcDbCircle
 62
7
  6
CONTINUOUS
 10
170.8656440684
 20
77.1182606123
 40
35.9014729544
100
AcDbArc
 50
267.9724623053
 51
270.6083972973
  0
ARC
  5
518
100
AcDbEntity
  8
RUNDUNGEN
100
AcDbCircle
 62
7
  6
CONTINUOUS
 10
165.0998504701
 20
62.5969797725
 40
1.9999918181
100
AcDbArc
 50
0.0000810222
 51
66.7743345796
  0
ARC
  5
519
100
AcDbEntity
  8
0
100
AcDbCircle
 62
7
  6
CONTINUOUS
 10
173.4260870773
 20
61.1671008066
 40
20.0669698746
100
AcDbArc
 50
263.765507917
 51
264.6151238644
  0
ARC
  5
51A
100
AcDbEntity
  8
0
100
AcDbCircle
 62
7
  6
CONTINUOUS
 10
185.0998218334
 20
46.2855602224
 40
20.0
100
AcDbArc
 50
198.5833672856
 51
204.909152737
  0
ARC
  5
51B
100
AcDbEntity
  8
0
100
AcDbCircle
 62
7
  6
CONTINUOUS
 10
185.0998218334
 20
46.2855602224
 40
20.0
100
AcDbArc
 50
155.090847263
 51
161.4166327144
  0
ARC
  5
51C
100
AcDbEntity
  8
RUNDUNGEN
100
AcDbCircle
 62
7
  6
CONTINUOUS
 10
185.0998218334
 20
46.2855602224
 40
20.0
100
AcDbArc
 50
198.5833672856
 51
204.909152737
  0
ARC
  5
51D
100
AcDbEntity
  8
RUNDUNGEN
100
AcDbCircle
 62
7
  6
CONTINUOUS
 10
185.0998218334
 20
46.2855602224
 40
20.0
100
AcDbArc
 50
155.090847263
 51
161.4166327144
  0
ARC
  5
51E
100
AcDbEntity
  8
KONSTRUKTIONSELEMENTE
100
AcDbCircle
 62
7
  6
CONTINUOUS
 10
178.5723780464
 20
46.7487995029
 40
5.96322259
100
AcDbArc
 50
269.9823152536
 51
270.8811962514
  0
ARC
  5
51F
100
AcDbEntity
  8
KONSTRUKTIONSELEMENTE
100
AcDbCircle
 62
7
  6
CONTINUOUS
 10
178.5723270268
 20
45.8226713834
 40
5.9628702554
100
AcDbArc
 50
89.3347952246
 51
90.0169085605
  0
ARC
  5
520
100
AcDbEntity
  8
KONSTRUKTIONSELEMENTE
100
AcDbCircle
 62
7
  6
CONTINUOUS
 10
181.0998218334
 20
46.2855602224
 40
5.5
100
AcDbArc
 50
326.9442688491
 51
33.0557311509
  0
ARC
  5
521
100
AcDbEntity
  8
0
100
AcDbCircle
 62
7
  6
CONTINUOUS
 10
172.7935948604
 20
42.8574655782
 40
2.0854415333
100
AcDbArc
 50
233.1493973806
 51
237.5328581785
  0
ARC
  5
522
100
AcDbEntity
  8
0
100
AcDbCircle
 62
7
  6
CONTINUOUS
 10
165.010583685
 20
157.5102387804
 40
116.6572572821
100
AcDbArc
 50
270.1399009563
 51
270.4580232817
  0
ARC
  5
523
100
AcDbEntity
  8
0
100
AcDbCircle
 62
7
  6
CONTINUOUS
 10
164.982233366
 20
157.4164161312
 40
116.5634328987
100
AcDbArc
 50
269.5418990209
 51
269.8520438396
  0
ARC
  5
524
100
AcDbEntity
  8
0
100
AcDbCircle
 62
7
  6
CONTINUOUS
 10
165.2165048324
 20
108.634292705
 40
67.6289497263
100
AcDbArc
 50
269.7327722867
 51
270.0668653186
  0
SPLINE
  5
525
100
AcDbEntity
  8
KONSTRUKTIONSELEMENTE
100
AcDbSpline
 62
7
  6
CONTINUOUS
 70
0
 71
3
 72
32
 73
28
 74
0
 42
0.0000001
 43
0.0000001
 44
0.0000000001
 40
0.0
 40
0.0
 40
0.0
 40
0.0
 40
0.0621737771
 40
0.1244064511
 40
0.1867112618
 40
0.249107771
 40
0.3116243584
 40
0.3429500026
 40
0.3743289008
 40
0.4057754378
 40
0.4373109871
 40
0.4689668465
 40
0.5007761465
 40
0.516788768
 40
0.5328335209
 40
0.5488697533
 40
0.5648423161
 40
0.5807122115
 40
0.5964794277
 40
0.6277631679
 40
0.6589143348
 40
0.68999707
 40
0.752047204
 40
0.8140545977
 40
0.8760433972
 40
0.9380237063
 40
1.0
 40
1.0
 40
1.0
 40
1.0
 10
131.1833550969
 20
201.4026557383
 30
0.0
 10
131.3165344278
 20
200.962143432
 30
0.0
 10
131.6014687531
 20
200.0861364842
 30
0.0
 10
132.0879501823
 20
198.7920509893
 30
0.0
 10
132.6390471778
 20
197.5221408463
 30
0.0
 10
133.2624881224
 20
196.283635128
 30
0.0
 10
133.8519445187
 20
195.2871717308
 30
0.0
 10
134.3752139488
 20
194.5217506278
 30
0.0
 10
134.7980648518
 20
193.9673133163
 30
0.0
 10
135.2562616191
 20
193.4394367009
 30
0.0
 10
135.7576810061
 20
192.9486756185
 30
0.0
 10
136.3128824076
 20
192.5145804872
 30
0.0
 10
136.8346430378
 20
192.2312419718
 30
0.0
 10
137.2896877788
 20
192.0959887726
 30
0.0
 10
137.6463572958
 20
192.0589046483
 30
0.0
 10
138.0028246498
 20
192.1045887786
 30
0.0
 10
138.3350914033
 20
192.2382286501
 30
0.0
 10
138.6248271069
 20
192.4433935345
 30
0.0
 10
138.9501782137
 20
192.7793669355
 30
0.0
 10
139.2612343046
 20
193.2736250191
 30
0.0
 10
139.5338056772
 20
193.9112557547
 30
0.0
 10
139.8094172168
 20
194.7900950491
 30
0.0
 10
140.042496985
 20
195.9167309066
 30
0.0
 10
140.2256600591
 20
197.2820396715
 30
0.0
 10
140.3484182802
 20
198.6534686157
 30
0.0
 10
140.4317562515
 20
200.0273963501
 30
0.0
 10
140.469441577
 20
200.9441844982
 30
0.0
 10
140.4852110307
 20
201.4026557383
 30
0.0
  0
SPLINE
  5
526
100
AcDbEntity
  8
KONSTRUKTIONSELEMENTE
100
AcDbSpline
 62
7
  6
CONTINUOUS
 70
0
 71
3
 72
32
 73
28
 74
0
 42
0.0000001
 43
0.0000001
 44
0.0000000001
 40
0.0
 40
0.0
 40
0.0
 40
0.0
 40
0.0619763937
 40
0.1239568035
 40
0.1859457065
 40
0.2479532023
 40
0.310003438
 40
0.341086201
 40
0.3722373141
 40
0.4035204698
 40
0.4192875366
 40
0.4351566503
 40
0.4511289869
 40
0.4671654263
 40
0.4832099247
 40
0.4992223428
 40
0.531032062
 40
0.5626880744
 40
0.5942237046
 40
0.6256703138
 40
0.6570492791
 40
0.6883749923
 40
0.7508917291
 40
0.8132883662
 40
0.8755932989
 40
0.9378261041
 40
1.0
 40
1.0
 40
1.0
 40
1.0
 10
140.4852110307
 20
223.4026557383
 30
0.0
 10
140.4694415501
 20
223.8611277594
 30
0.0
 10
140.4317561597
 20
224.7779174768
 30
0.0
 10
140.3484178711
 20
226.1518475667
 30
0.0
 10
140.22565959
 20
227.5232789222
 30
0.0
 10
140.0424950814
 20
228.8885899051
 30
0.0
 10
139.8094147696
 20
230.0152275313
 30
0.0
 10
139.5338017203
 20
230.894067059
 30
0.0
 10
139.2612303306
 20
231.5316929777
 30
0.0
 10
138.9501773271
 20
232.0259457895
 30
0.0
 10
138.6248327431
 20
232.3619106605
 30
0.0
 10
138.3351046115
 20
232.5670687992
 30
0.0
 10
138.0028528229
 20
232.7007288191
 30
0.0
 10
137.6463848543
 20
232.7464147741
 30
0.0
 10
137.2897201083
 20
232.7093173471
 30
0.0
 10
136.8346673856
 20
232.5740939413
 30
0.0
 10
136.312907534
 20
232.2907412248
 30
0.0
 10
135.7576990085
 20
231.8566502431
 30
0.0
 10
135.2562762959
 20
231.365888298
 30
0.0
 10
134.7980769058
 20
230.8380119486
 30
0.0
 10
134.3752236349
 20
230.2835743569
 30
0.0
 10
133.8519514502
 20
229.5181524654
 30
0.0
 10
133.2624942196
 20
228.5216864154
 30
0.0
 10
132.6390507219
 20
227.2831785735
 30
0.0
 10
132.0879522225
 20
226.0132658416
 30
0.0
 10
131.6014696446
 20
224.7191777067
 30
0.0
 10
131.3165346942
 20
223.8431689259
 30
0.0
 10
131.1833550969
 20
223.4026557383
 30
0.0
  0
SPLINE
  5
527
100
AcDbEntity
  8
KONSTRUKTIONSELEMENTE
100
AcDbSpline
 62
7
  6
CONTINUOUS
 70
0
 71
3
 72
32
 73
28
 74
0
 42
0.0000001
 43
0.0000001
 44
0.0000000001
 40
0.0
 40
0.0
 40
0.0
 40
0.0
 40
0.0619763919
 40
0.1239568
 40
0.1859457018
 40
0.2479531962
 40
0.3100034338
 40
0.3410862
 40
0.3722373161
 40
0.4035205219
 40
0.419287584
 40
0.4351568034
 40
0.4511291253
 40
0.4671655014
 40
0.4832100077
 40
0.4992224422
 40
0.5310321123
 40
0.5626881123
 40
0.5942237384
 40
0.6256703446
 40
0.6570493074
 40
0.6883750178
 40
0.7508917477
 40
0.81328838
 40
0.8755933085
 40
0.9378261082
 40
1.0
 40
1.0
 40
1.0
 40
1.0
 10
175.714432636
 20
201.4026557383
 30
0.0
 10
175.730202116
 20
200.9441837366
 30
0.0
 10
175.7678875032
 20
200.0273940564
 30
0.0
 10
175.8512258015
 20
198.6534640211
 30
0.0
 10
175.9739840209
 20
197.282032709
 30
0.0
 10
176.1571486128
 20
195.916721761
 30
0.0
 10
176.3902288464
 20
194.7900841088
 30
0.0
 10
176.6658418187
 20
193.9112445078
 30
0.0
 10
176.9384135878
 20
193.2736182708
 30
0.0
 10
177.2494671605
 20
192.7793654518
 30
0.0
 10
177.5748119781
 20
192.4433993577
 30
0.0
 10
177.8645408679
 20
192.2382407715
 30
0.0
 10
178.1967940469
 20
192.1045837084
 30
0.0
 10
178.5532610984
 20
192.0588975276
 30
0.0
 10
178.9099259092
 20
192.0959933604
 30
0.0
 10
179.3649776371
 20
192.2312196151
 30
0.0
 10
179.886737683
 20
192.5145705545
 30
0.0
 10
180.4419455715
 20
192.9486618726
 30
0.0
 10
180.9433680839
 20
193.4394237046
 30
0.0
 10
181.4015673265
 20
193.9673001009
 30
0.0
 10
181.8244204561
 20
194.5217377052
 30
0.0
 10
182.3476924692
 20
195.2871595897
 30
0.0
 10
182.9371497433
 20
196.2836254684
 30
0.0
 10
183.5605930875
 20
197.5221332399
 30
0.0
 10
184.1116915247
 20
198.7920458593
 30
0.0
 10
184.5981740584
 20
200.0861338831
 30
0.0
 10
184.883108983
 20
200.9621425854
 30
0.0
 10
185.0162885699
 20
201.4026557383
 30
0.0
  0
SPLINE
  5
528
100
AcDbEntity
  8
KONSTRUKTIONSELEMENTE
100
AcDbSpline
 62
7
  6
CONTINUOUS
 70
0
 71
3
 72
32
 73
28
 74
0
 42
0.0000001
 43
0.0000001
 44
0.0000000001
 40
0.0
 40
0.0
 40
0.0
 40
0.0
 40
0.0621737788
 40
0.1244064522
 40
0.1867112644
 40
0.2491077741
 40
0.3116243588
 40
0.3429500029
 40
0.3743289013
 40
0.4057754378
 40
0.4373109847
 40
0.4689668275
 40
0.5007760522
 40
0.5167887022
 40
0.53283346
 40
0.5488695455
 40
0.5648420221
 40
0.580712118
 40
0.5964793155
 40
0.6277631078
 40
0.6589142815
 40
0.6899970295
 40
0.7520471791
 40
0.8140545799
 40
0.8760433862
 40
0.938023701
 40
1.0
 40
1.0
 40
1.0
 40
1.0
 10
185.0162885699
 20
223.4026557383
 30
0.0
 10
184.8831092389
 20
223.8431680451
 30
0.0
 10
184.5981749163
 20
224.7191749781
 30
0.0
 10
184.1116934839
 20
226.0132604556
 30
0.0
 10
183.5605965003
 20
227.2831705735
 30
0.0
 10
182.9371556811
 20
228.5216763177
 30
0.0
 10
182.347699102
 20
229.5181395486
 30
0.0
 10
181.8244298193
 20
230.2835606985
 30
0.0
 10
181.4015790413
 20
230.8379980716
 30
0.0
 10
180.9433823877
 20
231.3658747686
 30
0.0
 10
180.4419631967
 20
231.8566356958
 30
0.0
 10
179.8867625538
 20
232.290731064
 30
0.0
 10
179.3650015313
 20
232.5740669634
 30
0.0
 10
178.9099582217
 20
232.7093237972
 30
0.0
 10
178.5532890214
 20
232.7464063518
 30
0.0
 10
178.1968241267
 20
232.7007203666
 30
0.0
 10
177.864555802
 20
232.5670857482
 30
0.0
 10
177.5748183826
 20
232.3619212215
 30
0.0
 10
177.2494678854
 20
232.0259449461
 30
0.0
 10
176.9384103095
 20
231.5316877583
 30
0.0
 10
176.6658381082
 20
230.8940566544
 30
0.0
 10
176.3902265722
 20
230.0152171376
 30
0.0
 10
176.1571469059
 20
228.8885810135
 30
0.0
 10
175.9739835364
 20
227.5232721094
 30
0.0
 10
175.8512254309
 20
226.1518430396
 30
0.0
 10
175.7678874144
 20
224.7779152135
 30
0.0
 10
175.7302020907
 20
223.8611270063
 30
0.0
 10
175.714432636
 20
223.4026557383
 30
0.0
  0
SPLINE
  5
529
100
AcDbEntity
  8
0
100
AcDbSpline
 62
7
  6
CONTINUOUS
 70
0
 71
3
 72
9
 73
5
 74
0
 42
0.0000001
 43
0.0000001
 44
0.0000000001
 40
0.0
 40
0.0
 40
0.0
 40
0.0
 40
0.5052275049
 40
1.0
 40
1.0
 40
1.0
 40
1.0
 10
256.5537198935
 20
247.2780861323
 30
0.0
 10
256.7002251069
 20
247.0044394412
 30
0.0
 10
256.9287792288
 20
246.4269376107
 30
0.0
 10
257.0074593334
 20
245.8101400951
 30
0.0
 10
257.0074232965
 20
245.506166363
 30
0.0
  0
SPLINE
  5
52A
100
AcDbEntity
  8
KONSTRUKTIONSELEMENTE
100
AcDbSpline
 62
7
  6
CONTINUOUS
 70
0
 71
3
 72
14
 73
10
 74
0
 42
0.0000001
 43
0.0000001
 44
0.0000000001
 40
0.0
 40
0.0
 40
0.0
 40
0.0
 40
0.1743619957
 40
0.3820727197
 40
0.5029786241
 40
0.6400105295
 40
0.8011374201
 40
0.8953528947
 40
1.0
 40
1.0
 40
1.0
 40
1.0
 10
185.0162885699
 20
43.2855602224
 30
0.0
 10
184.7101789566
 20
43.014259695
 30
0.0
 10
183.9883224051
 20
42.4765643664
 30
0.0
 10
182.9505182971
 20
41.9077400581
 30
0.0
 10
181.9453619582
 20
41.4781558957
 30
0.0
 10
181.0142624335
 20
41.1597668081
 30
0.0
 10
180.1184843479
 20
40.9398245936
 30
0.0
 10
179.2827906418
 20
40.8143767891
 30
0.0
 10
178.8160574659
 20
40.7855015216
 30
0.0
 10
178.5705681953
 20
40.7855790492
 30
0.0
  0
SPLINE
  5
52B
100
AcDbEntity
  8
KONSTRUKTIONSELEMENTE
100
AcDbSpline
 62
7
  6
CONTINUOUS
 70
0
 71
3
 72
14
 73
10
 74
0
 42
0.0000001
 43
0.0000001
 44
0.0000000001
 40
0.0
 40
0.0
 40
0.0
 40
0.0
 40
0.1046459681
 40
0.1988626208
 40
0.3599900217
 40
0.49702193
 40
0.6179278421
 40
0.8256382985
 40
1.0
 40
1.0
 40
1.0
 40
1.0
 10
137.6291045461
 20
40.7855769906
 30
0.0
 10
137.3836169312
 20
40.7854933704
 30
0.0
 10
136.9168816234
 20
40.8143753457
 30
0.0
 10
136.0811832256
 20
40.9398205837
 30
0.0
 10
135.1853964397
 20
41.1597613168
 30
0.0
 10
134.2542920845
 20
41.478152515
 30
0.0
 10
133.2491313739
 20
41.9077363884
 30
0.0
 10
132.2113241399
 20
42.4765625832
 30
0.0
 10
131.4894654581
 20
43.0142590321
 30
0.0
 10
131.1833550969
 20
43.2855602224
 30
0.0
  0
SPLINE
  5
52C
100
AcDbEntity
  8
KONSTRUKTIONSELEMENTE
100
AcDbSpline
 62
7
  6
CONTINUOUS
 70
0
 71
3
 72
14
 73
10
 74
0
 42
0.0000001
 43
0.0000001
 44
0.0000000001
 40
0.0
 40
0.0
 40
0.0
 40
0.0
 40
0.1046472013
 40
0.1988629942
 40
0.3599902197
 40
0.4970221718
 40
0.6179279918
 40
0.8256384019
 40
1.0
 40
1.0
 40
1.0
 40
1.0
 10
178.5705242206
 20
51.7855414233
 30
0.0
 10
178.8160152472
 20
51.7856205148
 30
0.0
 10
179.2827525268
 20
51.756748081
 30
0.0
 10
180.1184537016
 20
51.6313023642
 30
0.0
 10
181.0142395471
 20
51.4113605745
 30
0.0
 10
181.9453460809
 20
51.0929708078
 30
0.0
 10
182.9505084193
 20
50.6633854137
 30
0.0
 10
183.9883178435
 20
50.0945592936
 30
0.0
 10
184.7101777451
 20
49.5568618236
 30
0.0
 10
185.0162885699
 20
49.2855602224
 30
0.0
  0
SPLINE
  5
52D
100
AcDbEntity
  8
KONSTRUKTIONSELEMENTE
100
AcDbSpline
 62
7
  6
CONTINUOUS
 70
0
 71
3
 72
14
 73
10
 74
0
 42
0.0000001
 43
0.0000001
 44
0.0000000001
 40
0.0
 40
0.0
 40
0.0
 40
0.0
 40
0.1743621068
 40
0.3820729048
 40
0.5029788303
 40
0.6400107008
 40
0.8011374999
 40
0.8953530086
 40
1.0
 40
1.0
 40
1.0
 40
1.0
 10
131.1833550969
 20
49.2855602224
 30
0.0
 10
131.4894642774
 20
49.5568603663
 30
0.0
 10
132.2113196404
 20
50.0945549076
 30
0.0
 10
133.2491218354
 20
50.6633786592
 30
0.0
 10
134.2542761242
 20
51.0929622676
 30
0.0
 10
135.1853732542
 20
51.4113513111
 30
0.0
 10
136.0811491868
 20
51.631293596
 30
0.0
 10
136.9168405488
 20
51.7567419263
 30
0.0
 10
137.3835725087
 20
51.7856195188
 30
0.0
 10
137.6290610085
 20
51.785541611
 30
0.0
  0
SPLINE
  5
52E
100
AcDbEntity
  8
0
100
AcDbSpline
 62
7
  6
CONTINUOUS
 70
0
 71
3
 72
12
 73
8
 74
0
 42
0.0000001
 43
0.0000001
 44
0.0000000001
 40
0.0
 40
0.0
 40
0.0
 40
0.0
 40
0.3581730005
 40
0.6365390281
 40
0.7479597793
 40
0.843278507
 40
1.0
 40
1.0
 40
1.0
 40
1.0
 10
160.1997051641
 20
41.2380543043
 30
0.0
 10
160.175227588
 20
41.1712355364
 30
0.0
 10
160.1270650803
 20
41.0541360221
 30
0.0
 10
160.0528076752
 20
40.9243235438
 30
0.0
 10
159.9896641211
 20
40.850918305
 30
0.0
 10
159.9344594557
 20
40.8043648556
 30
0.0
 10
159.8842962383
 20
40.7855427928
 30
0.0
 10
159.8531591367
 20
40.7855603094
 30
0.0
  0
SPLINE
  5
52F
100
AcDbEntity
  8
0
100
AcDbSpline
 62
7
  6
CONTINUOUS
 70
0
 71
3
 72
9
 73
5
 74
0
 42
0.0000001
 43
0.0000001
 44
0.0000000001
 40
0.0
 40
0.0
 40
0.0
 40
0.0
 40
0.2661584408
 40
1.0
 40
1.0
 40
1.0
 40
1.0
 10
164.9010843212
 20
41.0060785412
 30
0.0
 10
164.8834385499
 20
40.9901220671
 30
0.0
 10
164.8154730341
 20
40.9321036583
 30
0.0
 10
164.7401137093
 20
40.8822716096
 30
0.0
 10
164.6812293661
 20
40.8533718774
 30
0.0
  0
SPLINE
  5
530
100
AcDbEntity
  8
0
100
AcDbSpline
 62
7
  6
CONTINUOUS
 70
0
 71
3
 72
9
 73
5
 74
0
 42
0.0000001
 43
0.0000001
 44
0.0000000001
 40
0.0
 40
0.0
 40
0.0
 40
0.0
 40
0.2559130243
 40
1.0
 40
1.0
 40
1.0
 40
1.0
 10
164.0502754753
 20
40.8567089266
 30
0.0
 10
164.0412327903
 20
40.8521653204
 30
0.0
 10
164.005556111
 20
40.8351043167
 30
0.0
 10
163.9684834529
 20
40.8209214786
 30
0.0
 10
163.9403480363
 20
40.812306877
 30
0.0
  0
SPLINE
  5
531
100
AcDbEntity
  8
0
100
AcDbSpline
 62
7
  6
CONTINUOUS
 70
0
 71
3
 72
9
 73
5
 74
0
 42
0.0000001
 43
0.0000001
 44
0.0000000001
 40
0.0
 40
0.0
 40
0.0
 40
0.0
 40
0.2317503173
 40
1.0
 40
1.0
 40
1.0
 40
1.0
 10
150.6444133634
 20
40.8245118053
 30
0.0
 10
150.6418013722
 20
40.8271834002
 30
0.0
 10
150.6308316803
 20
40.8390056171
 30
0.0
 10
150.6210042288
 20
40.8518549996
 30
0.0
 10
150.6139449912
 20
40.8620321695
 30
0.0
  0
SPLINE
  5
532
100
AcDbEntity
  8
0
100
AcDbSpline
 62
7
  6
CONTINUOUS
 70
0
 71
3
 72
9
 73
5
 74
0
 42
0.0000001
 43
0.0000001
 44
0.0000000001
 40
0.0
 40
0.0
 40
0.0
 40
0.0
 40
0.245582057
 40
1.0
 40
1.0
 40
1.0
 40
1.0
 10
150.6139449912
 20
40.8620321695
 30
0.0
 10
150.6020042147
 20
40.8668553431
 30
0.0
 10
150.5537132464
 20
40.8873096118
 30
0.0
 10
150.5067869554
 20
40.9109548974
 30
0.0
 10
150.4722859528
 20
40.930313356
 30
0.0
  0
LINE
  5
533
100
AcDbEntity
  8
0
100
AcDbLine
 62
7
  6
CONTINUOUS
 10
167.5405173642
 20
40.7855788644
 11
166.4910818893
 21
40.7855866932
  0
SPLINE
  5
534
100
AcDbEntity
  8
0
100
AcDbSpline
 62
7
  6
CONTINUOUS
 70
0
 71
3
 72
9
 73
5
 74
0
 42
0.0000001
 43
0.0000001
 44
0.0000000001
 40
0.0
 40
0.0
 40
0.0
 40
0.0
 40
0.2305744342
 40
1.0
 40
1.0
 40
1.0
 40
1.0
 10
171.6884851767
 20
40.9947758794
 30
0.0
 10
171.6872444853
 20
41.0026881557
 30
0.0
 10
171.6820290374
 20
41.0370295821
 30
0.0
 10
171.6774155783
 20
41.0714607355
 30
0.0
 10
171.6740967931
 20
41.0979797254
 30
0.0
  0
SPLINE
  5
535
100
AcDbEntity
  8
0
100
AcDbSpline
 62
7
  6
CONTINUOUS
 70
0
 71
3
 72
10
 73
6
 74
0
 42
0.0000001
 43
0.0000001
 44
0.0000000001
 40
0.0
 40
0.0
 40
0.0
 40
0.0
 40
0.5185011265
 40
0.7618392946
 40
1.0
 40
1.0
 40
1.0
 40
1.0
 10
169.5954562986
 20
41.2392642032
 30
0.0
 10
169.4118324445
 20
41.0984893145
 30
0.0
 10
169.1116275406
 20
40.9243353184
 30
0.0
 10
168.6797313255
 20
40.8052279981
 30
0.0
 10
168.4643314891
 20
40.7855427477
 30
0.0
 10
168.3580541986
 20
40.7855607897
 30
0.0
  0
SPLINE
  5
536
100
AcDbEntity
  8
0
100
AcDbSpline
 62
7
  6
CONTINUOUS
 70
0
 71
3
 72
13
 73
9
 74
0
 42
0.0000001
 43
0.0000001
 44
0.0000000001
 40
0.0
 40
0.0
 40
0.0
 40
0.0
 40
0.0996903624
 40
0.182902015
 40
0.2922069161
 40
0.4284756083
 40
0.5919621692
 40
1.0
 40
1.0
 40
1.0
 40
1.0
 10
157.1817486258
 20
40.7855605849
 30
0.0
 10
157.1661403833
 20
40.7855560667
 30
0.0
 10
157.1426244549
 20
40.8109348431
 30
0.0
 10
157.1227756301
 20
40.8502511864
 30
0.0
 10
157.1040711053
 20
40.8989493212
 30
0.0
 10
157.0860624705
 20
40.9602198625
 30
0.0
 10
157.0599855265
 20
41.0680608627
 30
0.0
 10
157.0440338155
 20
41.1561377364
 30
0.0
 10
157.0337144465
 20
41.2191841361
 30
0.0
  0
SPLINE
  5
537
100
AcDbEntity
  8
0
100
AcDbSpline
 62
7
  6
CONTINUOUS
 70
0
 71
3
 72
9
 73
5
 74
0
 42
0.0000001
 43
0.0000001
 44
0.0000000001
 40
0.0
 40
0.0
 40
0.0
 40
0.0
 40
0.2453995908
 40
1.0
 40
1.0
 40
1.0
 40
1.0
 10
146.8380467082
 20
40.8245118062
 30
0.0
 10
146.8310534148
 20
40.8271315638
 30
0.0
 10
146.8027360479
 20
40.8382844952
 30
0.0
 10
146.7751638258
 20
40.851309858
 30
0.0
 10
146.7548571561
 20
40.8620321681
 30
0.0
  0
ELLIPSE
  5
538
100
AcDbEntity
  8
0
100
AcDbEllipse
 62
7
  6
CONTINUOUS
 10
158.0998218334
 20
144.1260609524
 30
0.0
 11
0.0
 21
23.8297843933
 31
0.0
 40
0.8392858143
 41
4.8352874542
 42
4.8503259527
  0
ELLIPSE
  5
539
100
AcDbEntity
  8
0
100
AcDbEllipse
 62
7
  6
CONTINUOUS
 10
158.0998218334
 20
150.8494525234
 30
0.0
 11
0.0
 21
61.2764715643
 31
0.0
 40
0.3263895503
 41
-1.6646842019
 42
-1.6584083549
  0
ELLIPSE
  5
53A
100
AcDbEntity
  8
0
100
AcDbEllipse
 62
7
  6
CONTINUOUS
 10
158.0998218334
 20
147.6579744992
 30
0.0
 11
0.0
 21
27.2340393066
 31
0.0
 40
0.7343750875
 41
-1.6835349933
 42
-1.6646842019
  0
ELLIPSE
  5
53B
100
AcDbEntity
  8
0
100
AcDbEllipse
 62
7
  6
CONTINUOUS
 10
158.0998218334
 20
146.3175483053
 30
0.0
 11
20.0
 21
0.0
 31
0.0
 40
0.7659569903
 41
-0.1379370085
 42
-0.1127386665
  0
ELLIPSE
  5
53C
100
AcDbEntity
  8
0
100
AcDbEllipse
 62
7
  6
CONTINUOUS
 10
158.0998218334
 20
144.7728687231
 30
0.0
 11
20.0
 21
-0.0
 31
0.0
 40
0.2042553727
 41
-0.1695613439
 42
-0.1379370085
  0
ELLIPSE
  5
53D
100
AcDbEntity
  8
0
100
AcDbEllipse
 62
7
  6
CONTINUOUS
 10
158.0998218334
 20
146.7132938554
 30
0.0
 11
20.0
 21
-0.0
 31
0.0
 40
0.2042553727
 41
0.1379370085
 42
0.1695613439
  0
ELLIPSE
  5
53E
100
AcDbEntity
  8
0
100
AcDbEllipse
 62
7
  6
CONTINUOUS
 10
158.0998218334
 20
145.1686142733
 30
0.0
 11
20.0
 21
-0.0
 31
0.0
 40
0.7659569903
 41
0.1127386665
 42
0.1379370085
  0
ELLIPSE
  5
53F
100
AcDbEntity
  8
0
100
AcDbEllipse
 62
7
  6
CONTINUOUS
 10
158.0998218334
 20
143.8281880793
 30
0.0
 11
0.0
 21
27.2340393066
 31
0.0
 40
0.7343750875
 41
-1.4769084517
 42
-1.4580576603
  0
ELLIPSE
  5
540
100
AcDbEntity
  8
0
100
AcDbEllipse
 62
7
  6
CONTINUOUS
 10
158.0998218334
 20
140.6367100552
 30
0.0
 11
0.0
 21
61.2764715643
 31
0.0
 40
0.3263895503
 41
-1.4831842987
 42
-1.4769084517
  0
ELLIPSE
  5
541
100
AcDbEntity
  8
0
100
AcDbEllipse
 62
7
  6
CONTINUOUS
 10
158.0998218334
 20
168.0835258934
 30
0.0
 11
0.0
 21
61.2766468779
 31
0.0
 40
0.3263886165
 41
-1.9551931013
 42
-1.948460227
  0
ELLIPSE
  5
542
100
AcDbEntity
  8
0
100
AcDbEllipse
 62
7
  6
CONTINUOUS
 10
158.0998218334
 20
155.3175480542
 30
0.0
 11
0.0
 21
27.2340393066
 31
0.0
 40
0.7343750875
 41
-1.975503929
 42
-1.9551931013
  0
ELLIPSE
  5
543
100
AcDbEntity
  8
0
100
AcDbEllipse
 62
7
  6
CONTINUOUS
 10
158.0998218334
 20
150.6260606899
 30
0.0
 11
20.0
 21
-0.0
 31
0.0
 40
0.7659575381
 41
-0.4320683779
 42
-0.4047076022
  0
ELLIPSE
  5
544
100
AcDbEntity
  8
0
100
AcDbEllipse
 62
7
  6
CONTINUOUS
 10
158.0998218334
 20
145.9218041428
 30
0.0
 11
20.0
 21
-0.0
 31
0.0
 40
0.2042552558
 41
-0.466765339
 42
-0.4320683779
  0
ELLIPSE
  5
545
100
AcDbEntity
  8
0
100
AcDbEllipse
 62
7
  6
CONTINUOUS
 10
158.0998218334
 20
145.5643584358
 30
0.0
 11
20.0
 21
-0.0
 31
0.0
 40
0.2042552558
 41
0.4320683779
 42
0.466765339
  0
ELLIPSE
  5
546
100
AcDbEntity
  8
0
100
AcDbEllipse
 62
7
  6
CONTINUOUS
 10
158.0998218334
 20
140.8601018887
 30
0.0
 11
20.0
 21
0.0
 31
0.0
 40
0.7659575381
 41
0.4047076022
 42
0.4320683779
  0
ELLIPSE
  5
547
100
AcDbEntity
  8
0
100
AcDbEllipse
 62
7
  6
CONTINUOUS
 10
158.0998218334
 20
136.1686145244
 30
0.0
 11
0.0
 21
27.2340393066
 31
0.0
 40
0.7343750875
 41
-1.1863995523
 42
-1.1660887246
  0
ELLIPSE
  5
548
100
AcDbEntity
  8
0
100
AcDbEllipse
 62
7
  6
CONTINUOUS
 10
158.0998218334
 20
123.4026366851
 30
0.0
 11
0.0
 21
61.2766468779
 31
0.0
 40
0.3263886165
 41
-1.1931324266
 42
-1.1863995523
  0
ELLIPSE
  5
549
100
AcDbEntity
  8
0
100
AcDbEllipse
 62
7
  6
CONTINUOUS
 10
158.0998218334
 20
144.3175276199
 30
0.0
 11
0.0
 21
81.70242959
 31
0.0
 40
0.244790762
 41
-1.5019920408
 42
-1.4957258477
  0
ELLIPSE
  5
54A
100
AcDbEntity
  8
0
100
AcDbEllipse
 62
7
  6
CONTINUOUS
 10
158.0998218334
 20
147.8281915529
 30
0.0
 11
-0.0
 21
30.6382357822
 31
0.0
 40
0.6527791007
 41
-1.5145166333
 42
-1.5019920408
  0
ELLIPSE
  5
54B
100
AcDbEntity
  8
0
100
AcDbEllipse
 62
7
  6
CONTINUOUS
 10
158.0998218334
 20
148.785634489
 30
0.0
 11
20.0
 21
-0.0
 31
0.0
 40
0.6808512211
 41
0.0375087827
 42
0.0562796935
  0
ELLIPSE
  5
54C
100
AcDbEntity
  8
0
100
AcDbEllipse
 62
7
  6
CONTINUOUS
 10
158.0998218334
 20
149.1047834341
 30
0.0
 11
20.0
 21
-0.0
 31
0.0
 40
0.2553189968
 41
0.0125003255
 42
0.0375087827
  0
ELLIPSE
  5
54D
100
AcDbEntity
  8
0
100
AcDbEllipse
 62
7
  6
CONTINUOUS
 10
158.0998218334
 20
153.3813794591
 30
0.0
 11
20.0
 21
-0.0
 31
0.0
 40
0.2042552558
 41
0.2205332548
 42
0.2526802551
  0
ELLIPSE
  5
54E
100
AcDbEntity
  8
0
100
AcDbEllipse
 62
7
  6
CONTINUOUS
 10
158.0998218334
 20
150.9239320411
 30
0.0
 11
20.0
 21
0.0
 31
0.0
 40
0.7659575381
 41
0.1949831456
 42
0.2205332548
  0
ELLIPSE
  5
54F
100
AcDbEntity
  8
0
100
AcDbEllipse
 62
7
  6
CONTINUOUS
 10
158.0998218334
 20
148.6154223857
 30
0.0
 11
0.0
 21
27.2340393066
 31
0.0
 40
0.7343750875
 41
-1.3948905586
 42
-1.3758131812
  0
ELLIPSE
  5
550
100
AcDbEntity
  8
0
100
AcDbEllipse
 62
7
  6
CONTINUOUS
 10
158.0998218334
 20
142.6579660607
 30
0.0
 11
0.0
 21
61.2766468779
 31
0.0
 40
0.3263886165
 41
-1.4012349769
 42
-1.3948905586
  0
ELLIPSE
  5
551
100
AcDbEntity
  8
0
100
AcDbEllipse
 62
7
  6
CONTINUOUS
 10
158.0998218334
 20
162.8281965179
 30
0.0
 11
0.0
 21
61.2766468779
 31
0.0
 40
0.3263886165
 41
-1.746702095
 42
-1.7403576767
  0
ELLIPSE
  5
552
100
AcDbEntity
  8
0
100
AcDbEllipse
 62
7
  6
CONTINUOUS
 10
158.0998218334
 20
156.8707401929
 30
0.0
 11
0.0
 21
27.2340393066
 31
0.0
 40
0.7343750875
 41
-1.7657794724
 42
-1.746702095
  0
ELLIPSE
  5
553
100
AcDbEntity
  8
0
100
AcDbEllipse
 62
7
  6
CONTINUOUS
 10
158.0998218334
 20
153.5728687174
 30
0.0
 11
20.0
 21
-0.0
 31
0.0
 40
0.5106383587
 41
-0.2205332548
 42
-0.1949831456
  0
ELLIPSE
  5
554
100
AcDbEntity
  8
0
100
AcDbEllipse
 62
7
  6
CONTINUOUS
 10
158.0998218334
 20
139.9203865239
 30
0.0
 11
0.0
 21
52.1985816956
 31
0.0
 40
0.3831521729
 41
-1.4075725293
 42
-1.350263072
  0
ELLIPSE
  5
555
100
AcDbEntity
  8
0
100
AcDbEllipse
 62
7
  6
CONTINUOUS
 10
158.0998218334
 20
138.9558698381
 30
0.0
 11
0.0
 21
100.8508594497
 31
0.0
 40
0.1958337302
 41
-1.4625035236
 42
-1.4566243888
  0
ELLIPSE
  5
556
100
AcDbEntity
  8
0
100
AcDbEllipse
 62
7
  6
CONTINUOUS
 10
158.0998218334
 20
145.6579751764
 30
0.0
 11
19.75
 21
-0.0
 31
0.0
 40
0.3404254913
 41
0.1460886891
 42
0.1653088211
  0
ELLIPSE
  5
557
100
AcDbEntity
  8
0
100
AcDbEllipse
 62
7
  6
CONTINUOUS
 10
158.0998218334
 20
143.7005259634
 30
0.0
 11
-0.0
 21
20.1702295973
 31
0.0
 40
0.9791658496
 41
-1.4374904675
 42
-1.4247076377
  0
ELLIPSE
  5
558
100
AcDbEntity
  8
0
100
AcDbEllipse
 62
7
  6
CONTINUOUS
 10
158.0998218334
 20
138.3388423715
 30
0.0
 11
0.0
 21
60.5105156698
 31
0.0
 40
0.3263895503
 41
-1.4438735601
 42
-1.4374904675
  0
ELLIPSE
  5
559
100
AcDbEntity
  8
0
100
AcDbEllipse
 62
7
  6
CONTINUOUS
 10
158.0998218334
 20
153.2749797663
 30
0.0
 11
0.0
 21
60.5105156698
 31
0.0
 40
0.3263895503
 41
-1.7041021861
 42
-1.6977190935
  0
ELLIPSE
  5
55A
100
AcDbEntity
  8
0
100
AcDbEllipse
 62
7
  6
CONTINUOUS
 10
158.0998218334
 20
145.9558469614
 30
0.0
 11
20.0
 21
-0.0
 31
0.0
 40
0.3404254913
 41
-0.1632237914
 42
-0.1442497255
  0
ELLIPSE
  5
55B
100
AcDbEntity
  8
0
100
AcDbEllipse
 62
7
  6
CONTINUOUS
 10
158.0998218334
 20
147.9132961744
 30
0.0
 11
-0.0
 21
20.4255489593
 31
0.0
 40
0.9791658496
 41
-1.7150460523
 42
-1.7024261093
  0
ELLIPSE
  5
55C
100
AcDbEntity
  8
0
100
AcDbEllipse
 62
7
  6
CONTINUOUS
 10
158.0998218334
 20
153.2749797663
 30
0.0
 11
0.0
 21
61.2764715643
 31
0.0
 40
0.3263895503
 41
-1.7024261093
 42
-1.6961241459
  0
ELLIPSE
  5
55D
100
AcDbEntity
  8
0
100
AcDbEllipse
 62
7
  6
CONTINUOUS
 10
158.0998218334
 20
138.3388423715
 30
0.0
 11
0.0
 21
61.2764715643
 31
0.0
 40
0.3263895503
 41
-1.4454685076
 42
-1.4391665443
  0
ELLIPSE
  5
55E
100
AcDbEntity
  8
0
100
AcDbEllipse
 62
7
  6
CONTINUOUS
 10
158.0998218334
 20
147.9132961744
 30
0.0
 11
-0.0
 21
20.1702295973
 31
0.0
 40
0.9791658496
 41
-1.7168850159
 42
-1.7041021861
  0
ELLIPSE
  5
55F
100
AcDbEntity
  8
0
100
AcDbEllipse
 62
7
  6
CONTINUOUS
 10
158.0998218334
 20
145.9558469614
 30
0.0
 11
19.75
 21
-0.0
 31
0.0
 40
0.3404254913
 41
-0.1653088211
 42
-0.1460886891
  0
ELLIPSE
  5
560
100
AcDbEntity
  8
0
100
AcDbEllipse
 62
7
  6
CONTINUOUS
 10
158.0998218334
 20
143.7430816659
 30
0.0
 11
19.75
 21
-0.0
 31
0.0
 40
0.3404254913
 41
6.7280987518
 42
6.7492420547
  0
ELLIPSE
  5
561
100
AcDbEntity
  8
0
100
AcDbEllipse
 62
7
  6
CONTINUOUS
 10
158.0998218334
 20
137.9558523715
 30
0.0
 11
-0.0
 21
20.1702007436
 31
0.0
 40
0.9791672503
 41
-1.1398602086
 42
-1.1258828822
  0
ELLIPSE
  5
562
100
AcDbEntity
  8
0
100
AcDbEllipse
 62
7
  6
CONTINUOUS
 10
158.0998218334
 20
121.1047624272
 30
0.0
 11
0.0
 21
60.5106887919
 31
0.0
 40
0.3263886165
 41
-1.1468151164
 42
-1.1398602086
  0
ELLIPSE
  5
563
100
AcDbEntity
  8
0
100
AcDbEllipse
 62
7
  6
CONTINUOUS
 10
158.0998218334
 20
143.7005259634
 30
0.0
 11
0.0
 21
20.4255489593
 31
0.0
 40
0.9791658496
 41
-1.4391665443
 42
-1.4265466013
  0
ELLIPSE
  5
564
100
AcDbEntity
  8
0
100
AcDbEllipse
 62
7
  6
CONTINUOUS
 10
158.0998218334
 20
145.6579751764
 30
0.0
 11
20.0
 21
-0.0
 31
0.0
 40
0.3404254913
 41
0.1442497255
 42
0.1632237914
  0
ELLIPSE
  5
565
100
AcDbEntity
  8
0
100
AcDbEllipse
 62
7
  6
CONTINUOUS
 10
158.0998218334
 20
170.5090597106
 30
0.0
 11
0.0
 21
60.5106887919
 31
0.0
 40
0.3263886165
 41
-2.0017324449
 42
-1.9947775372
  0
ELLIPSE
  5
566
100
AcDbEntity
  8
0
100
AcDbEllipse
 62
7
  6
CONTINUOUS
 10
158.0998218334
 20
153.6579697664
 30
0.0
 11
-0.0
 21
20.1702007436
 31
0.0
 40
0.9791672503
 41
-2.0157097714
 42
-2.0017324449
  0
ELLIPSE
  5
567
100
AcDbEntity
  8
0
100
AcDbEllipse
 62
7
  6
CONTINUOUS
 10
158.0998218334
 20
147.8707404719
 30
0.0
 11
19.75
 21
0.0
 31
0.0
 40
0.3404254913
 41
-0.4660567476
 42
-0.4449134446
  0
ELLIPSE
  5
568
100
AcDbEntity
  8
0
100
AcDbEllipse
 62
7
  6
CONTINUOUS
 10
158.0998218334
 20
148.0835070058
 30
0.0
 11
19.75
 21
-0.0
 31
0.0
 40
0.5106380606
 41
0.0443183037
 42
0.0581343681
  0
ELLIPSE
  5
569
100
AcDbEntity
  8
0
100
AcDbEllipse
 62
7
  6
CONTINUOUS
 10
158.0998218334
 20
148.351591842
 30
0.0
 11
19.75
 21
-0.0
 31
0.0
 40
0.2042553906
 41
6.2958438852
 42
6.3275036109
  0
ELLIPSE
  5
56A
100
AcDbEntity
  8
0
100
AcDbEllipse
 62
7
  6
CONTINUOUS
 10
158.0998218334
 20
147.8707404719
 30
0.0
 11
20.0
 21
-0.0
 31
0.0
 40
0.3404254913
 41
-0.4597789302
 42
-0.4389618922
  0
ELLIPSE
  5
56B
100
AcDbEntity
  8
0
100
AcDbEllipse
 62
7
  6
CONTINUOUS
 10
158.0998218334
 20
153.6579697664
 30
0.0
 11
-0.0
 21
20.4255197403
 31
0.0
 40
0.9791672503
 41
-2.009758219
 42
-1.9959930541
  0
ELLIPSE
  5
56C
100
AcDbEntity
  8
0
100
AcDbEllipse
 62
7
  6
CONTINUOUS
 10
158.0998218334
 20
170.5090597106
 30
0.0
 11
0.0
 21
61.2766468779
 31
0.0
 40
0.3263886165
 41
-1.9959930541
 42
-1.9891427198
  0
ELLIPSE
  5
56D
100
AcDbEntity
  8
0
100
AcDbEllipse
 62
7
  6
CONTINUOUS
 10
158.0998218334
 20
121.1047624272
 30
0.0
 11
0.0
 21
61.2766468779
 31
0.0
 40
0.3263886165
 41
-1.1524499338
 42
-1.1455995994
  0
ELLIPSE
  5
56E
100
AcDbEntity
  8
0
100
AcDbEllipse
 62
7
  6
CONTINUOUS
 10
158.0998218334
 20
137.9558523715
 30
0.0
 11
0.0
 21
20.4255197403
 31
0.0
 40
0.9791672503
 41
-1.1455995994
 42
-1.1318344346
  0
ELLIPSE
  5
56F
100
AcDbEntity
  8
0
100
AcDbEllipse
 62
7
  6
CONTINUOUS
 10
158.0998218334
 20
143.7430816659
 30
0.0
 11
20.0
 21
-0.0
 31
0.0
 40
0.3404254913
 41
0.4389618922
 42
0.4597789302
  0
ELLIPSE
  5
570
100
AcDbEntity
  8
0
100
AcDbEllipse
 62
7
  6
CONTINUOUS
 10
158.0998218334
 20
152.1047836313
 30
0.0
 11
19.75
 21
-0.0
 31
0.0
 40
0.3404254913
 41
0.2298670857
 42
0.2494132931
  0
ELLIPSE
  5
571
100
AcDbEntity
  8
0
100
AcDbEllipse
 62
7
  6
CONTINUOUS
 10
158.0998218334
 20
149.0409563195
 30
0.0
 11
-0.0
 21
20.1702007436
 31
0.0
 40
0.9791672503
 41
-1.3539100727
 42
-1.3409292411
  0
ELLIPSE
  5
572
100
AcDbEntity
  8
0
100
AcDbEllipse
 62
7
  6
CONTINUOUS
 10
158.0998218334
 20
140.3600918028
 30
0.0
 11
0.0
 21
60.5106887919
 31
0.0
 40
0.3263886165
 41
-1.3603864387
 42
-1.3539100727
  0
ELLIPSE
  5
573
100
AcDbEntity
  8
0
100
AcDbEllipse
 62
7
  6
CONTINUOUS
 10
158.0998218334
 20
165.253730335
 30
0.0
 11
0.0
 21
60.5106887919
 31
0.0
 40
0.3263886165
 41
-1.7876825809
 42
-1.7812062149
  0
ELLIPSE
  5
574
100
AcDbEntity
  8
0
100
AcDbEllipse
 62
7
  6
CONTINUOUS
 10
158.0998218334
 20
156.5728658183
 30
0.0
 11
-0.0
 21
20.1702007436
 31
0.0
 40
0.9791672503
 41
-1.8006634125
 42
-1.7876825809
  0
ELLIPSE
  5
575
100
AcDbEntity
  8
0
100
AcDbEllipse
 62
7
  6
CONTINUOUS
 10
158.0998218334
 20
153.5090385066
 30
0.0
 11
19.75
 21
-0.0
 31
0.0
 40
0.3404254913
 41
-0.2494132931
 42
-0.2298670857
  0
ELLIPSE
  5
576
100
AcDbEntity
  8
0
100
AcDbEllipse
 62
7
  6
CONTINUOUS
 10
158.0998218334
 20
148.351591842
 30
0.0
 11
20.0
 21
-0.0
 31
0.0
 40
0.2042553906
 41
0.0125003375
 42
0.0437639687
  0
ELLIPSE
  5
577
100
AcDbEntity
  8
0
100
AcDbEllipse
 62
7
  6
CONTINUOUS
 10
158.0998218334
 20
148.0835070058
 30
0.0
 11
20.0
 21
0.0
 31
0.0
 40
0.5106380606
 41
0.0437639687
 42
0.068804286
  0
ELLIPSE
  5
578
100
AcDbEntity
  8
0
100
AcDbEllipse
 62
7
  6
CONTINUOUS
 10
158.0998218334
 20
147.3813776034
 30
0.0
 11
-0.0
 21
20.4255507474
 31
0.0
 40
0.9791657639
 41
-1.5019920408
 42
-1.4769084637
  0
ELLIPSE
  5
579
100
AcDbEntity
  8
0
100
AcDbEllipse
 62
7
  6
CONTINUOUS
 10
158.0998218334
 20
145.4664876076
 30
0.0
 11
0.0
 21
40.8510466332
 31
0.0
 40
0.4895835394
 41
-1.4769084637
 42
-1.4643453999
  0
ELLIPSE
  5
57A
100
AcDbEntity
  8
0
100
AcDbEllipse
 62
7
  6
CONTINUOUS
 10
158.0998218334
 20
138.9558698381
 30
0.0
 11
0.0
 21
102.1274526072
 31
0.0
 40
0.1958337302
 41
-1.4643453999
 42
-1.4580576543
  0
ELLIPSE
  5
57B
100
AcDbEntity
  8
0
100
AcDbEllipse
 62
7
  6
CONTINUOUS
 10
158.0998218334
 20
137.3441439644
 30
0.0
 11
0.0
 21
52.9468124179
 31
0.0
 40
0.3730158455
 41
-1.3603864387
 42
-1.3082984464
  0
ELLIPSE
  5
57C
100
AcDbEntity
  8
0
100
AcDbEllipse
 62
7
  6
CONTINUOUS
 10
158.0998218334
 20
153.5090385066
 30
0.0
 11
20.0
 21
-0.0
 31
0.0
 40
0.3404254913
 41
-0.2462306146
 42
-0.2269430423
  0
ELLIPSE
  5
57D
100
AcDbEntity
  8
0
100
AcDbEllipse
 62
7
  6
CONTINUOUS
 10
158.0998218334
 20
156.5728658183
 30
0.0
 11
0.0
 21
20.4255197403
 31
0.0
 40
0.9791672503
 41
-1.7977393691
 42
-1.7849290099
  0
ELLIPSE
  5
57E
100
AcDbEntity
  8
0
100
AcDbEllipse
 62
7
  6
CONTINUOUS
 10
158.0998218334
 20
165.253730335
 30
0.0
 11
0.0
 21
61.2766468779
 31
0.0
 40
0.3263886165
 41
-1.7849290099
 42
-1.7785373349
  0
ELLIPSE
  5
57F
100
AcDbEntity
  8
0
100
AcDbEllipse
 62
7
  6
CONTINUOUS
 10
158.0998218334
 20
140.3600918028
 30
0.0
 11
0.0
 21
61.2766468779
 31
0.0
 40
0.3263886165
 41
-1.3630553187
 42
-1.3566636437
  0
ELLIPSE
  5
580
100
AcDbEntity
  8
0
100
AcDbEllipse
 62
7
  6
CONTINUOUS
 10
158.0998218334
 20
149.0409563195
 30
0.0
 11
0.0
 21
20.4255197403
 31
0.0
 40
0.9791672503
 41
-1.3566636437
 42
-1.3438532845
  0
ELLIPSE
  5
581
100
AcDbEntity
  8
0
100
AcDbEllipse
 62
7
  6
CONTINUOUS
 10
158.0998218334
 20
152.1047836313
 30
0.0
 11
20.0
 21
-0.0
 31
0.0
 40
0.3404254913
 41
0.2269430423
 42
0.2462306146
  0
ELLIPSE
  5
582
100
AcDbEntity
  8
0
100
AcDbEllipse
 62
7
  6
CONTINUOUS
 10
158.0998218334
 20
137.3441439644
 30
0.0
 11
0.0
 21
53.6170252333
 31
0.0
 40
0.3730158455
 41
-1.3630553187
 42
-1.3116556632
  0
ENDSEC
  0
SECTION
  2
OBJECTS
  0
DICTIONARY
  5
C
100
AcDbDictionary
280
0
281
1
  3
ACAD_GROUP
350
D
  3
ACAD_MLINESTYLE
350
17
  3
ACAD_LAYOUT
350
1A
  3
ACAD_PLOTSETTINGS
350
19
  3
ACAD_PLOTSTYLENAME
350
E
  0
DICTIONARY
  5
D
102
{ACAD_REACTORS
330
C
102
}
100
AcDbDictionary
280
0
281
1
  0
ACDBDICTIONARYWDFLT
  5
E
102
{ACAD_REACTORS
330
C
102
}
100
AcDbDictionary
281
1
  3
Normal
350
F
100
AcDbDictionaryWithDefault
340
F
  0
DICTIONARY
  5
17
102
{ACAD_REACTORS
330
C
102
}
100
AcDbDictionary
280
0
281
1
  3
Standard
350
18
  0
DICTIONARY
  5
19
102
{ACAD_REACTORS
330
C
102
}
100
AcDbDictionary
281
1
  0
DICTIONARY
  5
1A
102
{ACAD_REACTORS
330
C
102
}
100
AcDbDictionary
281
1
  3
Model
350
583
  3
Layout1
350
584
  0
ACDBPLACEHOLDER
  5
F
102
{ACAD_REACTORS
330
E
102
}
  0
MLINESTYLE
  5
18
102
{ACAD_REACTORS
330
17
102
}
100
AcDbMlineStyle
  2
STANDARD
 70
0
  3

 62
256
 51
90.0
 52
90.0
 71
2
 49
0.5
 62
256
  6
BYLAYER
 49
-0.5
 62
256
  6
BYLAYER
  0
LAYOUT
  5
583
102
{ACAD_REACTORS
330
1A
102
}
100
AcDbPlotSettings
  1

  2
none_device
  4
ISO_A3_(420.00_x_297.00_MM)
  6

 40
0.0
 41
0.0
 42
0.0
 43
0.0
 44
420.0
 45
297.0
 46
0.0
 47
0.0
 48
0.0
 49
0.0
140
0.0
141
0.0
142
1.0
143
1.0
 70
1024
 72
1
 73
0
 74
0
  7

 75
0
147
1.0
148
0.0
149
0.0
100
AcDbLayout
  1
Model
 70
0
 71
0
 10
0.0
 20
0.0
 11
420.0
 21
297.0
 12
0.0
 22
0.0
 32
0.0
 14
0.0
 24
0.0
 34
0.0
 15
0.0
 25
0.0
 35
0.0
146
0.0
 13
0.0
 23
0.0
 33
0.0
 16
1.0
 26
0.0
 36
0.0
 17
0.0
 27
1.0
 37
0.0
 76
0
330
20D
345
0
346
0
  0
LAYOUT
  5
584
102
{ACAD_REACTORS
330
1A
102
}
100
AcDbPlotSettings
  1

  2
none_device
  4
ISO_A3_(420.00_x_297.00_MM)
  6

 40
0.0
 41
0.0
 42
0.0
 43
0.0
 44
420.0
 45
297.0
 46
0.0
 47
0.0
 48
0.0
 49
0.0
140
0.0
141
0.0
142
1.0
143
1.0
 70
0
 72
1
 73
0
 74
0
  7

 75
0
147
1.0
148
0.0
149
0.0
100
AcDbLayout
  1
Layout1
 70
0
 71
1
 10
0.0
 20
0.0
 11
420.0
 21
297.0
 12
0.0
 22
0.0
 32
0.0
 14
0.0
 24
0.0
 34
0.0
 15
0.0
 25
0.0
 35
0.0
146
0.0
 13
0.0
 23
0.0
 33
0.0
 16
1.0
 26
0.0
 36
0.0
 17
0.0
 27
1.0
 37
0.0
 76
0
330
20E
345
0
346
0
  0
ENDSEC
  0
EOF
