999
DXF file: 001-m31453-p-40.dxf
999
Pro/ENGINEER 2011490 by Parametric Technology Corporation
  0
SECTION
  2
HEADER
  9
$ACADVER
  1
AC1015
  9
$DWGCODEPAGE
  3
ANSI_1252
  9
$EXTMAX
 10
297.0
 20
210.0
 30
0.0
  9
$EXTMIN
 10
0.0
 20
0.0
 30
0.0
  9
$LIMMIN
 10
0.0
 20
0.0
  9
$LIMMAX
 10
297.0
 20
210.0
  9
$VIEWCTR
 10
148.5
 20
105.0
  9
$VIEWSIZE
 40
210.0
  9
$CLAYER
  8
0
  9
$LTSCALE
 40
16.335
  9
$CELTYPE
  6
BYLAYER
  9
$DIMSCALE
 40
1.0
  9
$DIMASZ
 40
3.5
  9
$DIMEXO
 40
1.85625
  9
$DIMDLI
 40
11.286
  9
$DIMEXE
 40
5.346
  9
$DIMCEN
 40
2.673
  9
$DIMLFAC
 40
1.0
  9
$DIMBLK
  1
_FILLED
  9
$DIMTXT
 40
3.5
  9
$DIMTOL
 70
1
  9
$DIMLIM
 70
0
  9
$DIMTFAC
 40
1.0
  9
$DIMTP
 40
0.005
  9
$DIMTM
 40
0.005
  9
$PDMODE
 70
3
  9
$PDSIZE
 40
0.3125
  9
$HANDSEED
  5
643
  9
$TILEMODE
 70
1
  9
$MEASUREMENT
 70
1
  9
$INSUNITS
 70
4
  0
ENDSEC
  0
SECTION
  2
CLASSES
  0
CLASS
  1
ACDBDICTIONARYWDFLT
  2
AcDbDictionaryWithDefault
  3
AutoCAD 2000
 90
0
280
0
281
0
  0
CLASS
  1
ACDBPLACEHOLDER
  2
AcDbPlaceHolder
  3
AutoCAD 2000
 90
0
280
0
281
0
  0
CLASS
  1
LAYOUT
  2
AcDbLayout
  3
AutoCAD 2000
 90
0
280
0
281
0
  0
ENDSEC
  0
SECTION
  2
TABLES
  0
TABLE
  2
VPORT
  5
8
100
AcDbSymbolTable
 70
2
  0
VPORT
  5
1F4
100
AcDbSymbolTableRecord
100
AcDbViewportTableRecord
  2
*ACTIVE
 70
0
 10
0.0
 20
0.0
 11
1.0
 21
1.0
 12
148.5
 22
105.0
 13
0.0
 23
0.0
 14
1.0
 24
1.0
 15
0.0
 25
0.0
 16
0.0
 26
0.0
 36
1.0
 17
0.0
 27
0.0
 37
0.0
 40
210.0
 41
1.4142857143
 42
50.0
 43
0.0
 44
0.0
 50
0.0
 51
0.0
 71
0
 72
100
 73
1
 74
1
 75
0
 76
0
 77
0
 78
0
  0
ENDTAB
  0
TABLE
  2
LTYPE
  5
5
100
AcDbSymbolTable
 70
6
  0
LTYPE
  5
14
100
AcDbSymbolTableRecord
100
AcDbLinetypeTableRecord
  2
BYBLOCK
 70
0
  3

 72
65
 73
0
 40
0.0
  0
LTYPE
  5
15
100
AcDbSymbolTableRecord
100
AcDbLinetypeTableRecord
  2
BYLAYER
 70
0
  3

 72
65
 73
0
 40
0.0
  0
LTYPE
  5
16
100
AcDbSymbolTableRecord
100
AcDbLinetypeTableRecord
  2
CONTINUOUS
 70
64
  3
Solid line
 72
65
 73
0
 40
0.0
  0
LTYPE
  5
1F5
100
AcDbSymbolTableRecord
100
AcDbLinetypeTableRecord
  2
CENTER
 70
64
  3
____ _ ____ _ ____ _ ____ _ ____ _ ____ _ ____
 72
65
 73
4
 40
0.6
 49
0.375
 74
0
 49
-0.075
 74
0
 49
0.075
 74
0
 49
-0.075
 74
0
  0
LTYPE
  5
1F6
100
AcDbSymbolTableRecord
100
AcDbLinetypeTableRecord
  2
HIDDEN
 70
64
  3
- - - - - - - - - - - - - - - - - - - -
 72
65
 73
2
 40
0.2
 49
0.1
 74
0
 49
-0.1
 74
0
  0
LTYPE
  5
1F7
100
AcDbSymbolTableRecord
100
AcDbLinetypeTableRecord
  2
PHANTOM
 70
64
  3
_____ _ _ _____ _ _ _____ _ _ _____
 72
65
 73
6
 40
0.8
 49
0.45
 74
0
 49
-0.05
 74
0
 49
0.1
 74
0
 49
-0.05
 74
0
 49
0.1
 74
0
 49
-0.05
 74
0
  0
LTYPE
  5
1F8
100
AcDbSymbolTableRecord
100
AcDbLinetypeTableRecord
  2
DOT
 70
64
  3
. . . . . . . . . . . . . . . . . . . .
 72
65
 73
2
 40
0.2
 49
0.1
 74
0
 49
-0.1
 74
0
  0
LTYPE
  5
1F9
100
AcDbSymbolTableRecord
100
AcDbLinetypeTableRecord
  2
DASHED
 70
64
  3
- - - - - - - - - - - - - - - - - - - -
 72
65
 73
2
 40
0.2
 49
0.1
 74
0
 49
-0.1
 74
0
  0
ENDTAB
  0
TABLE
  2
LAYER
  5
2
100
AcDbSymbolTable
 70
36
  0
LAYER
  5
10
100
AcDbSymbolTableRecord
100
AcDbLayerTableRecord
  2
0
 70
0
 62
7
  6
CONTINUOUS
370
-3
390
F
  0
LAYER
  5
1FA
100
AcDbSymbolTableRecord
100
AcDbLayerTableRecord
  2
DEFAULT_1
 70
0
 62
7
  6
CENTER
370
-3
390
F
  0
LAYER
  5
1FB
100
AcDbSymbolTableRecord
100
AcDbLayerTableRecord
  2
DEFAULT_2
 70
0
 62
8
  6
HIDDEN
370
-3
390
F
  0
LAYER
  5
1FC
100
AcDbSymbolTableRecord
100
AcDbLayerTableRecord
  2
DEFAULT_3
 70
0
 62
7
  6
PHANTOM
370
-3
390
F
  0
LAYER
  5
1FD
100
AcDbSymbolTableRecord
100
AcDbLayerTableRecord
  2
AUSFORMSCHRAEGEN
 70
0
 62
7
  6
CONTINUOUS
370
-3
390
F
  0
LAYER
  5
1FE
100
AcDbSymbolTableRecord
100
AcDbLayerTableRecord
  2
BEZUGSACHSEN
 70
0
 62
7
  6
CONTINUOUS
370
-3
390
F
  0
LAYER
  5
1FF
100
AcDbSymbolTableRecord
100
AcDbLayerTableRecord
  2
BEZUGSEBENEN
 70
0
 62
7
  6
CONTINUOUS
370
-3
390
F
  0
LAYER
  5
200
100
AcDbSymbolTableRecord
100
AcDbLayerTableRecord
  2
BG_STARTBEZUEGE
 70
0
 62
7
  6
CONTINUOUS
370
-3
390
F
  0
LAYER
  5
201
100
AcDbSymbolTableRecord
100
AcDbLayerTableRecord
  2
FASEN
 70
0
 62
7
  6
CONTINUOUS
370
-3
390
F
  0
LAYER
  5
202
100
AcDbSymbolTableRecord
100
AcDbLayerTableRecord
  2
HILFEN
 70
0
 62
7
  6
CONTINUOUS
370
-3
390
F
  0
LAYER
  5
203
100
AcDbSymbolTableRecord
100
AcDbLayerTableRecord
  2
KONSTRUKTIONSELEMENTE
 70
0
 62
7
  6
CONTINUOUS
370
-3
390
F
  0
LAYER
  5
204
100
AcDbSymbolTableRecord
100
AcDbLayerTableRecord
  2
KURVEN
 70
0
 62
7
  6
CONTINUOUS
370
-3
390
F
  0
LAYER
  5
205
100
AcDbSymbolTableRecord
100
AcDbLayerTableRecord
  2
NORM
 70
0
 62
7
  6
CONTINUOUS
370
-3
390
F
  0
LAYER
  5
206
100
AcDbSymbolTableRecord
100
AcDbLayerTableRecord
  2
PLATZIERUNG
 70
0
 62
7
  6
CONTINUOUS
370
-3
390
F
  0
LAYER
  5
207
100
AcDbSymbolTableRecord
100
AcDbLayerTableRecord
  2
PLAZIERUNG
 70
0
 62
7
  6
CONTINUOUS
370
-3
390
F
  0
LAYER
  5
208
100
AcDbSymbolTableRecord
100
AcDbLayerTableRecord
  2
RUNDUNGEN
 70
0
 62
7
  6
CONTINUOUS
370
-3
390
F
  0
LAYER
  5
209
100
AcDbSymbolTableRecord
100
AcDbLayerTableRecord
  2
TEIL_STARTBEZUEGE
 70
0
 62
7
  6
CONTINUOUS
370
-3
390
F
  0
LAYER
  5
20A
100
AcDbSymbolTableRecord
100
AcDbLayerTableRecord
  2
T_STARTBEZUEGE
 70
0
 62
7
  6
CONTINUOUS
370
-3
390
F
  0
LAYER
  5
20B
100
AcDbSymbolTableRecord
100
AcDbLayerTableRecord
  2
ZEICHNUNGSBEMASSUNGEN
 70
0
 62
7
  6
CONTINUOUS
370
-3
390
F
  0
ENDTAB
  0
TABLE
  2
STYLE
  5
3
100
AcDbSymbolTable
 70
1
  0
STYLE
  5
11
100
AcDbSymbolTableRecord
100
AcDbTextStyleTableRecord
  2
STANDARD
 70
0
 40
0.0
 41
0.7
 50
0.0
 71
0
 42
0.2
  3
txt
  4

  0
STYLE
  5
20C
100
AcDbSymbolTableRecord
100
AcDbTextStyleTableRecord
  2
TEXTSTYLE_1
 70
0
 40
0.0
 41
0.8
 50
0.0
 71
0
 42
0.2
  3
gdt
  4

  0
ENDTAB
  0
TABLE
  2
VIEW
  5
6
100
AcDbSymbolTable
 70
0
  0
ENDTAB
  0
TABLE
  2
UCS
  5
7
100
AcDbSymbolTable
 70
0
  0
ENDTAB
  0
TABLE
  2
APPID
  5
9
100
AcDbSymbolTable
 70
1
  0
APPID
  5
20D
100
AcDbSymbolTableRecord
100
AcDbRegAppTableRecord
  2
ACAD
 70
0
  0
ENDTAB
  0
TABLE
  2
BLOCK_RECORD
  5
1
100
AcDbSymbolTable
 70
0
  0
BLOCK_RECORD
  5
20E
100
AcDbSymbolTableRecord
100
AcDbBlockTableRecord
  2
*Model_Space
  0
BLOCK_RECORD
  5
20F
100
AcDbSymbolTableRecord
100
AcDbBlockTableRecord
  2
*Paper_Space
  0
ENDTAB
  0
TABLE
  2
DIMSTYLE
  5
A
100
AcDbSymbolTable
 70
1
100
AcDbDimStyleTable
 71
0
  0
DIMSTYLE
105
210
100
AcDbSymbolTableRecord
100
AcDbDimStyleTableRecord
  2
STANDARD
 70
0
  3

  4

 40
1.0
 41
3.5
 42
0.0625
 43
0.38
 44
0.18
 45
0.0
 46
0.0
 47
0.005
 48
0.005
140
3.5
141
0.09
142
0.0
143
25.4
144
1.0
145
0.0
146
1.0
147
0.09
 71
1.0
 72
0.0
 73
0
 74
0
 75
0
 76
0
 77
1
 78
8
170
0
171
2
172
0
173
0
174
0
175
0
176
0
177
0
178
5
270
2
271
3
272
3
273
2
274
2
275
0
280
0
281
0
282
0
283
1
284
8
285
0
286
0
287
3
288
0
340
11
  0
ENDTAB
  0
ENDSEC
  0
SECTION
  2
BLOCKS
  0
BLOCK
  5
20
100
AcDbEntity
  8
0
100
AcDbBlockBegin
  2
*Model_Space
 70
0
 10
0.0
 20
0.0
 30
0.0
  3
*Model_Space
  1

  0
ENDBLK
  5
21
100
AcDbEntity
  8
0
100
AcDbBlockEnd
  0
BLOCK
  5
1C
100
AcDbEntity
  8
0
100
AcDbBlockBegin
  2
*Paper_Space
 70
0
 10
0.0
 20
0.0
 30
0.0
  3
*Paper_Space
  1

  0
ENDBLK
  5
1D
100
AcDbEntity
  8
0
100
AcDbBlockEnd
  0
ENDSEC
  0
SECTION
  2
ENTITIES
  0
MTEXT
  5
211
100
AcDbEntity
  8
0
100
AcDbMText
 62
5
  6
CONTINUOUS
  7
STANDARD
 71
2
 72
1
 10
99.1080945704
 20
33.0846115519
 30
0.0
 11
0.0
 21
1.0
 31
0.0
 44
0.9
  1
RUD WPP-B\P0,63t
 40
4.0
 41
31.5238095238
  0
MTEXT
  5
212
100
AcDbEntity
  8
0
100
AcDbMText
 62
5
  6
CONTINUOUS
  7
STANDARD
 71
2
 72
1
 10
200.1056473612
 20
97.7512346992
 30
0.0
 11
1.0
 21
0.0
 31
0.0
 44
0.9
  1
RUD\PWPP-B 0,63t
 40
4.0
 41
34.5714285714
  0
LINE
  5
213
100
AcDbEntity
  8
0
100
AcDbLine
 62
7
  6
CONTINUOUS
 10
0.0
 20
0.0
 11
0.0
 21
210.0
  0
LINE
  5
214
100
AcDbEntity
  8
0
100
AcDbLine
 62
7
  6
CONTINUOUS
 10
0.0
 20
0.0
 11
297.0
 21
0.0
  0
LINE
  5
215
100
AcDbEntity
  8
0
100
AcDbLine
 62
7
  6
CONTINUOUS
 10
0.0
 20
210.0
 11
297.0
 21
210.0
  0
LINE
  5
216
100
AcDbEntity
  8
0
100
AcDbLine
 62
7
  6
CONTINUOUS
 10
297.0
 20
0.0
 11
297.0
 21
210.0
  0
LINE
  5
217
100
AcDbEntity
  8
FASEN
100
AcDbLine
 62
7
  6
CONTINUOUS
 10
123.6783297335
 20
76.3451205638
 11
84.6783297341
 21
76.3451205638
  0
LINE
  5
218
100
AcDbEntity
  8
FASEN
100
AcDbLine
 62
7
  6
CONTINUOUS
 10
124.1783297338
 20
76.8451205638
 11
84.1783297338
 21
76.8451205638
  0
LINE
  5
219
100
AcDbEntity
  8
FASEN
100
AcDbLine
 62
7
  6
CONTINUOUS
 10
84.6783297353
 20
76.3451205624
 11
84.1783297353
 21
76.8451205623
  0
LINE
  5
21A
100
AcDbEntity
  8
KONSTRUKTIONSELEMENTE
100
AcDbLine
 62
7
  6
CONTINUOUS
 10
94.5197857243
 20
186.3775859243
 11
93.1472619613
 21
185.6520400164
  0
LINE
  5
21B
100
AcDbEntity
  8
KONSTRUKTIONSELEMENTE
100
AcDbLine
 62
7
  6
CONTINUOUS
 10
93.6892618551
 20
185.4572237462
 11
94.7758432765
 21
186.0316143143
  0
LINE
  5
21C
100
AcDbEntity
  8
KONSTRUKTIONSELEMENTE
100
AcDbLine
 62
7
  6
CONTINUOUS
 10
100.9265913865
 20
187.9216399586
 11
101.2348307861
 21
188.0514196417
  0
LINE
  5
21D
100
AcDbEntity
  8
KONSTRUKTIONSELEMENTE
100
AcDbLine
 62
7
  6
CONTINUOUS
 10
91.7839548215
 20
184.6254949547
 11
91.4755016699
 21
184.4962245903
  0
LINE
  5
21E
100
AcDbEntity
  8
KONSTRUKTIONSELEMENTE
100
AcDbLine
 62
7
  6
CONTINUOUS
 10
101.1749415007
 20
188.472716023
 11
100.802658943
 21
188.3338323003
  0
LINE
  5
21F
100
AcDbEntity
  8
KONSTRUKTIONSELEMENTE
100
AcDbLine
 62
7
  6
CONTINUOUS
 10
105.2777957054
 20
188.1490662463
 11
105.4774366793
 21
188.2201053225
  0
LINE
  5
220
100
AcDbEntity
  8
KONSTRUKTIONSELEMENTE
100
AcDbLine
 62
7
  6
CONTINUOUS
 10
91.4755016699
 20
184.4962245903
 11
90.2435010895
 21
183.5515485008
  0
LINE
  5
221
100
AcDbEntity
  8
KONSTRUKTIONSELEMENTE
100
AcDbLine
 62
7
  6
CONTINUOUS
 10
90.8104328099
 20
183.4500315644
 11
91.7857665538
 21
184.1979000977
  0
LINE
  5
222
100
AcDbEntity
  8
KONSTRUKTIONSELEMENTE
100
AcDbLine
 62
7
  6
CONTINUOUS
 10
92.5625614246
 20
183.1848420322
 11
91.5872276808
 21
182.4369734989
  0
LINE
  5
223
100
AcDbEntity
  8
KONSTRUKTIONSELEMENTE
100
AcDbLine
 62
7
  6
CONTINUOUS
 10
95.372450247
 20
184.9030058622
 11
94.2858688256
 21
184.3286152941
  0
LINE
  5
224
100
AcDbEntity
  8
KONSTRUKTIONSELEMENTE
100
AcDbLine
 62
7
  6
CONTINUOUS
 10
94.5245115692
 20
183.8771719975
 11
95.5539043914
 21
184.4213314284
  0
LINE
  5
225
100
AcDbEntity
  8
KONSTRUKTIONSELEMENTE
100
AcDbLine
 62
7
  6
CONTINUOUS
 10
95.0166303426
 20
182.1157337718
 11
95.3597612833
 21
182.2971202488
  0
LINE
  5
226
100
AcDbEntity
  8
KONSTRUKTIONSELEMENTE
100
AcDbLine
 62
7
  6
CONTINUOUS
 10
101.9862509563
 20
185.06360569
 11
101.6780115568
 21
184.9338260069
  0
LINE
  5
227
100
AcDbEntity
  8
KONSTRUKTIONSELEMENTE
100
AcDbLine
 62
7
  6
CONTINUOUS
 10
101.7379008506
 20
184.5125295665
 11
102.1101834072
 21
184.6514132967
  0
LINE
  5
228
100
AcDbEntity
  8
KONSTRUKTIONSELEMENTE
100
AcDbLine
 62
7
  6
CONTINUOUS
 10
108.6360439426
 20
188.1337501851
 11
108.3447130734
 21
188.028631091
  0
LINE
  5
229
100
AcDbEntity
  8
KONSTRUKTIONSELEMENTE
100
AcDbLine
 62
7
  6
CONTINUOUS
 10
108.9935618007
 20
184.6345088597
 11
108.8478970859
 21
184.5819491398
  0
LINE
  5
22A
100
AcDbEntity
  8
KONSTRUKTIONSELEMENTE
100
AcDbLine
 62
7
  6
CONTINUOUS
 10
105.1745364099
 20
186.7059472023
 11
105.3741773838
 21
186.7769862785
  0
LINE
  5
22B
100
AcDbEntity
  8
KONSTRUKTIONSELEMENTE
100
AcDbLine
 62
7
  6
CONTINUOUS
 10
105.9039934302
 20
185.1179210247
 11
105.7043524562
 21
185.0468819485
  0
LINE
  5
22C
100
AcDbEntity
  8
FASEN
100
AcDbLine
 62
7
  6
CONTINUOUS
 10
84.1783297338
 20
84.3451205638
 11
124.1783297338
 21
84.3451205638
  0
LINE
  5
22D
100
AcDbEntity
  8
FASEN
100
AcDbLine
 62
7
  6
CONTINUOUS
 10
84.6783297341
 20
84.8451205638
 11
123.6783297335
 21
84.8451205638
  0
LINE
  5
22E
100
AcDbEntity
  8
0
100
AcDbLine
 62
7
  6
CONTINUOUS
 10
121.1783297338
 20
86.2344822672
 11
121.4283297338
 21
86.2344822672
  0
LINE
  5
22F
100
AcDbEntity
  8
0
100
AcDbLine
 62
7
  6
CONTINUOUS
 10
115.1327808839
 20
86.7451205638
 11
116.0658231617
 21
86.7451205638
  0
LINE
  5
230
100
AcDbEntity
  8
0
100
AcDbLine
 62
7
  6
CONTINUOUS
 10
118.4414815594
 20
86.7451205638
 11
119.0443984811
 21
86.7451205638
  0
LINE
  5
231
100
AcDbEntity
  8
0
100
AcDbLine
 62
7
  6
CONTINUOUS
 10
121.0396924954
 20
86.7451205638
 11
121.2917178898
 21
86.7451205638
  0
LINE
  5
232
100
AcDbEntity
  8
0
100
AcDbLine
 62
7
  6
CONTINUOUS
 10
120.9678766959
 20
86.8302269441
 11
121.2209641309
 21
86.8302269441
  0
LINE
  5
233
100
AcDbEntity
  8
0
100
AcDbLine
 62
7
  6
CONTINUOUS
 10
120.8963755979
 20
87.085546085
 11
121.1505292823
 21
87.085546085
  0
LINE
  5
234
100
AcDbEntity
  8
0
100
AcDbLine
 62
7
  6
CONTINUOUS
 10
121.3829802679
 20
87.1706524876
 11
121.4210818343
 21
87.1706524876
  0
LINE
  5
235
100
AcDbEntity
  8
0
100
AcDbLine
 62
7
  6
CONTINUOUS
 10
121.2337948559
 20
87.2557588604
 11
121.3393320355
 21
87.2557588604
  0
LINE
  5
236
100
AcDbEntity
  8
0
100
AcDbLine
 62
7
  6
CONTINUOUS
 10
120.8483294641
 20
87.3408652333
 11
121.1032046523
 21
87.3408652333
  0
LINE
  5
237
100
AcDbEntity
  8
0
100
AcDbLine
 62
7
  6
CONTINUOUS
 10
121.1940496428
 20
87.4259716061
 11
121.3629885899
 21
87.4259716061
  0
LINE
  5
238
100
AcDbEntity
  8
0
100
AcDbLine
 62
7
  6
CONTINUOUS
 10
120.8141344934
 20
87.6812907842
 11
121.0695256654
 21
87.6812907842
  0
LINE
  5
239
100
AcDbEntity
  8
0
100
AcDbLine
 62
7
  6
CONTINUOUS
 10
120.7963839069
 20
87.9366099027
 11
121.0520437441
 21
87.9366099027
  0
LINE
  5
23A
100
AcDbEntity
  8
0
100
AcDbLine
 62
7
  6
CONTINUOUS
 10
121.1382497851
 20
87.9366099027
 11
121.3888319968
 21
87.9366099027
  0
LINE
  5
23B
100
AcDbEntity
  8
KONSTRUKTIONSELEMENTE
100
AcDbLine
 62
7
  6
CONTINUOUS
 10
95.5539043914
 20
184.4213314284
 11
95.8000729423
 21
184.6477273177
  0
LINE
  5
23C
100
AcDbEntity
  8
KONSTRUKTIONSELEMENTE
100
AcDbLine
 62
7
  6
CONTINUOUS
 10
91.8979455711
 20
182.0317503484
 11
92.8219460064
 21
182.7402574155
  0
LINE
  5
23D
100
AcDbEntity
  8
KONSTRUKTIONSELEMENTE
100
AcDbLine
 62
7
  6
CONTINUOUS
 10
92.6774581872
 20
180.3773001099
 11
92.9854583323
 21
180.6134691323
  0
LINE
  5
23E
100
AcDbEntity
  8
KONSTRUKTIONSELEMENTE
100
AcDbLine
 62
7
  6
CONTINUOUS
 10
105.0720806563
 20
187.9931378285
 11
105.2777957054
 21
188.1490662463
  0
LINE
  5
23F
100
AcDbEntity
  8
KONSTRUKTIONSELEMENTE
100
AcDbLine
 62
7
  6
CONTINUOUS
 10
105.1403839941
 20
187.1350107003
 11
104.7289538958
 21
186.8231538647
  0
LINE
  5
240
100
AcDbEntity
  8
KONSTRUKTIONSELEMENTE
100
AcDbLine
 62
7
  6
CONTINUOUS
 10
105.2436432896
 20
188.5781297443
 11
104.9028100584
 21
188.3465454599
  0
LINE
  5
241
100
AcDbEntity
  8
KONSTRUKTIONSELEMENTE
100
AcDbLine
 62
7
  6
CONTINUOUS
 10
109.3312487079
 20
186.0413572657
 11
109.6424435103
 21
186.2292321381
  0
LINE
  5
242
100
AcDbEntity
  8
KONSTRUKTIONSELEMENTE
100
AcDbLine
 62
7
  6
CONTINUOUS
 10
108.3711956283
 20
187.5846557951
 11
108.5996253869
 21
187.7048730912
  0
LINE
  5
243
100
AcDbEntity
  8
KONSTRUKTIONSELEMENTE
100
AcDbLine
 62
7
  6
CONTINUOUS
 10
109.0399068422
 20
184.2732896587
 11
109.2683366078
 21
184.3935069838
  0
LINE
  5
244
100
AcDbEntity
  8
KONSTRUKTIONSELEMENTE
100
AcDbLine
 62
7
  6
CONTINUOUS
 10
108.7485774074
 20
184.1681701973
 11
109.0399068422
 21
184.2732896587
  0
LINE
  5
245
100
AcDbEntity
  8
KONSTRUKTIONSELEMENTE
100
AcDbLine
 62
7
  6
CONTINUOUS
 10
116.0732712773
 20
183.3076658652
 11
115.8701802949
 21
183.2408493002
  0
LINE
  5
246
100
AcDbEntity
  8
KONSTRUKTIONSELEMENTE
100
AcDbLine
 62
7
  6
CONTINUOUS
 10
115.0596574506
 20
181.8356630806
 11
114.8565664345
 21
181.7688464665
  0
LINE
  5
247
100
AcDbEntity
  8
0
100
AcDbLine
 62
7
  6
CONTINUOUS
 10
120.2640376759
 20
88.1919290212
 11
120.8751774895
 21
88.1919290212
  0
LINE
  5
248
100
AcDbEntity
  8
0
100
AcDbLine
 62
7
  6
CONTINUOUS
 10
120.8751774895
 20
88.3621418861
 11
121.0341315013
 21
88.3621418861
  0
LINE
  5
249
100
AcDbEntity
  8
0
100
AcDbLine
 62
7
  6
CONTINUOUS
 10
121.143776665
 20
88.4472482589
 11
121.3942784319
 21
88.4472482589
  0
LINE
  5
24A
100
AcDbEntity
  8
0
100
AcDbLine
 62
7
  6
CONTINUOUS
 10
119.8308055763
 20
88.5323546317
 11
119.0443984811
 21
88.5323546317
  0
LINE
  5
24B
100
AcDbEntity
  8
0
100
AcDbLine
 62
7
  6
CONTINUOUS
 10
117.4660119997
 20
88.5323546317
 11
116.0658231617
 21
88.5323546317
  0
LINE
  5
24C
100
AcDbEntity
  8
0
100
AcDbLine
 62
7
  6
CONTINUOUS
 10
120.2640376759
 20
88.6174610046
 11
120.8751774895
 21
88.6174610046
  0
LINE
  5
24D
100
AcDbEntity
  8
0
100
AcDbLine
 62
7
  6
CONTINUOUS
 10
119.8691356776
 20
89.0429928687
 11
119.0443984811
 21
89.0429928687
  0
LINE
  5
24E
100
AcDbEntity
  8
0
100
AcDbLine
 62
7
  6
CONTINUOUS
 10
117.5345600086
 20
89.0429928687
 11
116.0658231617
 21
89.0429928687
  0
LINE
  5
24F
100
AcDbEntity
  8
0
100
AcDbLine
 62
7
  6
CONTINUOUS
 10
121.143776665
 20
89.0429928687
 11
121.3942784319
 21
89.0429928687
  0
LINE
  5
250
100
AcDbEntity
  8
0
100
AcDbLine
 62
7
  6
CONTINUOUS
 10
117.4154827708
 20
89.1280992416
 11
117.7350520709
 21
89.1280992416
  0
LINE
  5
251
100
AcDbEntity
  8
0
100
AcDbLine
 62
7
  6
CONTINUOUS
 10
119.7076479552
 20
89.1280992416
 11
119.9809315582
 21
89.1280992416
  0
LINE
  5
252
100
AcDbEntity
  8
0
100
AcDbLine
 62
7
  6
CONTINUOUS
 10
120.7781957942
 20
89.1280992416
 11
121.0341315013
 21
89.1280992416
  0
LINE
  5
253
100
AcDbEntity
  8
0
100
AcDbLine
 62
7
  6
CONTINUOUS
 10
117.5480716909
 20
89.2983119872
 11
117.8645454269
 21
89.2983119872
  0
LINE
  5
254
100
AcDbEntity
  8
0
100
AcDbLine
 62
7
  6
CONTINUOUS
 10
119.7808135104
 20
89.2983119872
 11
120.0528376002
 21
89.2983119872
  0
LINE
  5
255
100
AcDbEntity
  8
0
100
AcDbLine
 62
7
  6
CONTINUOUS
 10
117.6131000668
 20
89.5536311057
 11
117.928077146
 21
89.5536311057
  0
LINE
  5
256
100
AcDbEntity
  8
0
100
AcDbLine
 62
7
  6
CONTINUOUS
 10
119.8166019425
 20
89.5536311057
 11
120.0880141327
 21
89.5536311057
  0
LINE
  5
257
100
AcDbEntity
  8
0
100
AcDbLine
 62
7
  6
CONTINUOUS
 10
120.7963839069
 20
89.5536311057
 11
121.0520437441
 21
89.5536311057
  0
LINE
  5
258
100
AcDbEntity
  8
0
100
AcDbLine
 62
7
  6
CONTINUOUS
 10
121.1382497851
 20
89.5536311057
 11
121.3888319968
 21
89.5536311057
  0
LINE
  5
259
100
AcDbEntity
  8
0
100
AcDbLine
 62
7
  6
CONTINUOUS
 10
117.6131000668
 20
89.8089504627
 11
117.928077146
 21
89.8089504627
  0
LINE
  5
25A
100
AcDbEntity
  8
0
100
AcDbLine
 62
7
  6
CONTINUOUS
 10
119.8166019425
 20
89.8089504627
 11
120.0880141327
 21
89.8089504627
  0
LINE
  5
25B
100
AcDbEntity
  8
0
100
AcDbLine
 62
7
  6
CONTINUOUS
 10
120.8141344934
 20
89.8089504627
 11
121.0695256654
 21
89.8089504627
  0
LINE
  5
25C
100
AcDbEntity
  8
0
100
AcDbLine
 62
7
  6
CONTINUOUS
 10
117.5480716909
 20
90.0642695812
 11
117.8645454269
 21
90.0642695812
  0
LINE
  5
25D
100
AcDbEntity
  8
0
100
AcDbLine
 62
7
  6
CONTINUOUS
 10
119.7808135104
 20
90.0642695812
 11
120.0528376002
 21
90.0642695812
  0
LINE
  5
25E
100
AcDbEntity
  8
0
100
AcDbLine
 62
7
  6
CONTINUOUS
 10
121.1940496428
 20
90.0642695812
 11
121.3629885899
 21
90.0642695812
  0
LINE
  5
25F
100
AcDbEntity
  8
0
100
AcDbLine
 62
7
  6
CONTINUOUS
 10
120.8483294641
 20
90.149375954
 11
121.1032046523
 21
90.149375954
  0
LINE
  5
260
100
AcDbEntity
  8
0
100
AcDbLine
 62
7
  6
CONTINUOUS
 10
117.4154827708
 20
90.2344823268
 11
117.7350520709
 21
90.2344823268
  0
LINE
  5
261
100
AcDbEntity
  8
0
100
AcDbLine
 62
7
  6
CONTINUOUS
 10
119.7076479552
 20
90.2344823268
 11
119.9809315582
 21
90.2344823268
  0
LINE
  5
262
100
AcDbEntity
  8
0
100
AcDbLine
 62
7
  6
CONTINUOUS
 10
121.2337948559
 20
90.2344823268
 11
121.3393320355
 21
90.2344823268
  0
LINE
  5
263
100
AcDbEntity
  8
0
100
AcDbLine
 62
7
  6
CONTINUOUS
 10
119.8691356776
 20
90.3195886997
 11
119.0443984811
 21
90.3195886997
  0
LINE
  5
264
100
AcDbEntity
  8
0
100
AcDbLine
 62
7
  6
CONTINUOUS
 10
117.5345600086
 20
90.3195886997
 11
116.0658231617
 21
90.3195886997
  0
LINE
  5
265
100
AcDbEntity
  8
0
100
AcDbLine
 62
7
  6
CONTINUOUS
 10
120.8963755979
 20
90.4046950725
 11
121.1505292823
 21
90.4046950725
  0
LINE
  5
266
100
AcDbEntity
  8
0
100
AcDbLine
 62
7
  6
CONTINUOUS
 10
120.9678766959
 20
90.660014191
 11
121.2209641309
 21
90.660014191
  0
LINE
  5
267
100
AcDbEntity
  8
0
100
AcDbLine
 62
7
  6
CONTINUOUS
 10
115.1327808839
 20
90.7451205638
 11
117.4660119997
 21
90.7451205638
  0
LINE
  5
268
100
AcDbEntity
  8
0
100
AcDbLine
 62
7
  6
CONTINUOUS
 10
118.4414815594
 20
90.7451205638
 11
119.8308055763
 21
90.7451205638
  0
LINE
  5
269
100
AcDbEntity
  8
0
100
AcDbLine
 62
7
  6
CONTINUOUS
 10
121.0396924954
 20
90.7451205638
 11
121.2917178898
 21
90.7451205638
  0
LINE
  5
26A
100
AcDbEntity
  8
KONSTRUKTIONSELEMENTE
100
AcDbLine
 62
7
  6
CONTINUOUS
 10
92.8219460064
 20
182.7402574155
 11
93.0268265279
 21
183.0046021634
  0
LINE
  5
26B
100
AcDbEntity
  8
KONSTRUKTIONSELEMENTE
100
AcDbLine
 62
7
  6
CONTINUOUS
 10
95.5042419267
 20
185.0689396501
 11
95.372450247
 21
184.9030058622
  0
LINE
  5
26C
100
AcDbEntity
  8
KONSTRUKTIONSELEMENTE
100
AcDbLine
 62
7
  6
CONTINUOUS
 10
100.7584168933
 20
187.7258091829
 11
100.9265913865
 21
187.9216399586
  0
LINE
  5
26D
100
AcDbEntity
  8
KONSTRUKTIONSELEMENTE
100
AcDbLine
 62
7
  6
CONTINUOUS
 10
100.802658943
 20
188.3338323003
 11
100.5183752576
 21
188.0355340646
  0
LINE
  5
26E
100
AcDbEntity
  8
KONSTRUKTIONSELEMENTE
100
AcDbLine
 62
7
  6
CONTINUOUS
 10
108.3447130734
 20
188.028631091
 11
108.0136557773
 21
187.7580000946
  0
LINE
  5
26F
100
AcDbEntity
  8
KONSTRUKTIONSELEMENTE
100
AcDbLine
 62
7
  6
CONTINUOUS
 10
109.4504323074
 20
186.5378919358
 11
109.2849036594
 21
186.4025764377
  0
LINE
  5
270
100
AcDbEntity
  8
KONSTRUKTIONSELEMENTE
100
AcDbLine
 62
7
  6
CONTINUOUS
 10
104.9688213608
 20
186.5500187845
 11
105.1745364099
 21
186.7059472023
  0
LINE
  5
271
100
AcDbEntity
  8
KONSTRUKTIONSELEMENTE
100
AcDbLine
 62
7
  6
CONTINUOUS
 10
106.1097084793
 20
185.2738494425
 11
105.9039934302
 21
185.1179210247
  0
LINE
  5
272
100
AcDbEntity
  8
KONSTRUKTIONSELEMENTE
100
AcDbLine
 62
7
  6
CONTINUOUS
 10
105.9381443655
 20
184.6888575804
 11
106.2789790751
 21
184.9204417814
  0
LINE
  5
273
100
AcDbEntity
  8
KONSTRUKTIONSELEMENTE
100
AcDbLine
 62
7
  6
CONTINUOUS
 10
115.9917679564
 20
182.8471286243
 11
116.3446705324
 21
183.0174496776
  0
LINE
  5
274
100
AcDbEntity
  8
KONSTRUKTIONSELEMENTE
100
AcDbLine
 62
7
  6
CONTINUOUS
 10
114.9781540791
 20
181.3751257661
 11
115.3310566719
 21
181.5454468439
  0
LINE
  5
275
100
AcDbEntity
  8
0
100
AcDbLine
 62
7
  6
CONTINUOUS
 10
120.4264065431
 20
92.7451205638
 11
120.8310322172
 21
92.7451205638
  0
LINE
  5
276
100
AcDbEntity
  8
0
100
AcDbLine
 62
7
  6
CONTINUOUS
 10
121.0056801443
 20
92.7451205638
 11
121.4275245635
 21
92.7451205638
  0
LINE
  5
277
100
AcDbEntity
  8
0
100
AcDbLine
 62
7
  6
CONTINUOUS
 10
121.3306295557
 20
92.8302269441
 11
121.4265180444
 21
92.8302269441
  0
LINE
  5
278
100
AcDbEntity
  8
0
100
AcDbLine
 62
7
  6
CONTINUOUS
 10
121.3196292133
 20
93.0004397121
 11
121.418463783
 21
93.0004397121
  0
LINE
  5
279
100
AcDbEntity
  8
0
100
AcDbLine
 62
7
  6
CONTINUOUS
 10
121.3045160264
 20
93.3408652333
 11
121.4039566458
 21
93.3408652333
  0
LINE
  5
27A
100
AcDbEntity
  8
0
100
AcDbLine
 62
7
  6
CONTINUOUS
 10
121.2884012369
 20
93.6812907842
 11
121.3942784169
 21
93.6812907842
  0
LINE
  5
27B
100
AcDbEntity
  8
0
100
AcDbLine
 62
7
  6
CONTINUOUS
 10
121.2666309928
 20
94.1068226484
 11
121.388832013
 21
94.1068226484
  0
LINE
  5
27C
100
AcDbEntity
  8
0
100
AcDbLine
 62
7
  6
CONTINUOUS
 10
121.1505292174
 20
94.5323546317
 11
120.8310322172
 21
94.5323546317
  0
LINE
  5
27D
100
AcDbEntity
  8
0
100
AcDbLine
 62
7
  6
CONTINUOUS
 10
121.1799636286
 20
95.0429928687
 11
120.8310322172
 21
95.0429928687
  0
LINE
  5
27E
100
AcDbEntity
  8
0
100
AcDbLine
 62
7
  6
CONTINUOUS
 10
120.9678767338
 20
95.1280992416
 11
121.2209641682
 21
95.1280992416
  0
LINE
  5
27F
100
AcDbEntity
  8
0
100
AcDbLine
 62
7
  6
CONTINUOUS
 10
120.9935014546
 20
95.2983119872
 11
121.2462089225
 21
95.2983119872
  0
LINE
  5
280
100
AcDbEntity
  8
0
100
AcDbLine
 62
7
  6
CONTINUOUS
 10
121.0056801443
 20
95.5536311057
 11
121.2582074218
 21
95.5536311057
  0
LINE
  5
281
100
AcDbEntity
  8
0
100
AcDbLine
 62
7
  6
CONTINUOUS
 10
121.0056801443
 20
95.8089504627
 11
121.2582074218
 21
95.8089504627
  0
LINE
  5
282
100
AcDbEntity
  8
0
100
AcDbLine
 62
7
  6
CONTINUOUS
 10
120.9935014546
 20
96.0642695812
 11
121.2462089225
 21
96.0642695812
  0
LINE
  5
283
100
AcDbEntity
  8
0
100
AcDbLine
 62
7
  6
CONTINUOUS
 10
120.9678767338
 20
96.2344823268
 11
121.2209641682
 21
96.2344823268
  0
LINE
  5
284
100
AcDbEntity
  8
0
100
AcDbLine
 62
7
  6
CONTINUOUS
 10
121.1799636286
 20
96.3195886997
 11
120.8310322172
 21
96.3195886997
  0
LINE
  5
285
100
AcDbEntity
  8
KONSTRUKTIONSELEMENTE
100
AcDbLine
 62
7
  6
CONTINUOUS
 10
92.6647751821
 20
183.3704637352
 11
92.5625614246
 21
183.1848420322
  0
LINE
  5
286
100
AcDbEntity
  8
KONSTRUKTIONSELEMENTE
100
AcDbLine
 62
7
  6
CONTINUOUS
 10
102.1544254495
 20
185.2594364657
 11
101.9862509563
 21
185.06360569
  0
LINE
  5
287
100
AcDbEntity
  8
KONSTRUKTIONSELEMENTE
100
AcDbLine
 62
7
  6
CONTINUOUS
 10
104.8276291035
 20
186.3894735764
 11
104.9688213608
 21
186.5500187845
  0
LINE
  5
288
100
AcDbEntity
  8
KONSTRUKTIONSELEMENTE
100
AcDbLine
 62
7
  6
CONTINUOUS
 10
102.1101834072
 20
184.6514132967
 11
102.3944670894
 21
184.9497115544
  0
LINE
  5
289
100
AcDbEntity
  8
KONSTRUKTIONSELEMENTE
100
AcDbLine
 62
7
  6
CONTINUOUS
 10
109.1590904626
 20
184.7698244158
 11
108.9935618007
 21
184.6345088597
  0
LINE
  5
28A
100
AcDbEntity
  8
0
100
AcDbLine
 62
7
  6
CONTINUOUS
 10
120.4264065431
 20
96.7451205638
 11
121.4154424783
 21
96.7451205638
  0
LINE
  5
28B
100
AcDbEntity
  8
KONSTRUKTIONSELEMENTE
100
AcDbLine
 62
7
  6
CONTINUOUS
 10
100.5183752576
 20
188.0355340646
 11
100.3621786215
 21
187.7554440126
  0
LINE
  5
28C
100
AcDbEntity
  8
KONSTRUKTIONSELEMENTE
100
AcDbLine
 62
7
  6
CONTINUOUS
 10
104.9028100584
 20
188.3465454599
 11
104.6849468588
 21
188.0208383591
  0
LINE
  5
28D
100
AcDbEntity
  8
KONSTRUKTIONSELEMENTE
100
AcDbLine
 62
7
  6
CONTINUOUS
 10
83.7720797338
 20
155.238737568
 11
84.0533297338
 21
155.6217162457
  0
LINE
  5
28E
100
AcDbEntity
  8
KONSTRUKTIONSELEMENTE
100
AcDbLine
 62
7
  6
CONTINUOUS
 10
108.1858016073
 20
187.3665848641
 11
108.3711956283
 21
187.5846557951
  0
LINE
  5
28F
100
AcDbEntity
  8
KONSTRUKTIONSELEMENTE
100
AcDbLine
 62
7
  6
CONTINUOUS
 10
109.6424435103
 20
186.2292321381
 11
109.8278360916
 21
186.4473034146
  0
LINE
  5
290
100
AcDbEntity
  8
KONSTRUKTIONSELEMENTE
100
AcDbLine
 62
7
  6
CONTINUOUS
 10
83.4908297338
 20
155.7174609152
 11
83.3033296444
 21
155.5259715763
  0
LINE
  5
291
100
AcDbEntity
  8
KONSTRUKTIONSELEMENTE
100
AcDbLine
 62
7
  6
CONTINUOUS
 10
116.2713501927
 20
183.4812657195
 11
116.0732712773
 21
183.3076658652
  0
LINE
  5
292
100
AcDbEntity
  8
KONSTRUKTIONSELEMENTE
100
AcDbLine
 62
7
  6
CONTINUOUS
 10
116.3446705324
 20
183.0174496776
 11
116.5427494478
 21
183.1910495319
  0
LINE
  5
293
100
AcDbEntity
  8
RUNDUNGEN
100
AcDbLine
 62
7
  6
CONTINUOUS
 10
119.6779168538
 20
102.2451205638
 11
114.6782226384
 21
102.2451205638
  0
LINE
  5
294
100
AcDbEntity
  8
RUNDUNGEN
100
AcDbLine
 62
7
  6
CONTINUOUS
 10
93.6784098353
 20
102.2451205638
 11
88.6783297338
 21
102.2451205638
  0
LINE
  5
295
100
AcDbEntity
  8
KONSTRUKTIONSELEMENTE
100
AcDbLine
 62
7
  6
CONTINUOUS
 10
83.5845796444
 20
156.0046949235
 11
83.4908297338
 21
155.7174609152
  0
LINE
  5
296
100
AcDbEntity
  8
KONSTRUKTIONSELEMENTE
100
AcDbLine
 62
7
  6
CONTINUOUS
 10
84.0533297338
 20
155.6217162457
 11
84.1470796444
 21
155.9089502541
  0
LINE
  5
297
100
AcDbEntity
  8
KONSTRUKTIONSELEMENTE
100
AcDbLine
 62
7
  6
CONTINUOUS
 10
102.3944670894
 20
184.9497115544
 11
102.5506637214
 21
185.229801636
  0
LINE
  5
298
100
AcDbEntity
  8
KONSTRUKTIONSELEMENTE
100
AcDbLine
 62
7
  6
CONTINUOUS
 10
104.9248143238
 20
187.7477032788
 11
105.0720806563
 21
187.9931378285
  0
LINE
  5
299
100
AcDbEntity
  8
KONSTRUKTIONSELEMENTE
100
AcDbLine
 62
7
  6
CONTINUOUS
 10
106.2569748161
 20
185.5192840516
 11
106.1097084793
 21
185.2738494425
  0
LINE
  5
29A
100
AcDbEntity
  8
KONSTRUKTIONSELEMENTE
100
AcDbLine
 62
7
  6
CONTINUOUS
 10
83.3970798232
 20
147.9940567312
 11
83.2095797338
 21
147.7068227229
  0
LINE
  5
29B
100
AcDbEntity
  8
KONSTRUKTIONSELEMENTE
100
AcDbLine
 62
7
  6
CONTINUOUS
 10
106.2789790751
 20
184.9204417814
 11
106.4968422768
 21
185.246148912
  0
LINE
  5
29C
100
AcDbEntity
  8
KONSTRUKTIONSELEMENTE
100
AcDbLine
 62
7
  6
CONTINUOUS
 10
109.655688822
 20
186.8387189907
 11
109.4504323074
 21
186.5378919358
  0
LINE
  5
29D
100
AcDbEntity
  8
KONSTRUKTIONSELEMENTE
100
AcDbLine
 62
7
  6
CONTINUOUS
 10
109.2683366078
 20
184.3935069838
 11
109.4537306287
 21
184.6115779148
  0
LINE
  5
29E
100
AcDbEntity
  8
KONSTRUKTIONSELEMENTE
100
AcDbLine
 62
7
  6
CONTINUOUS
 10
115.2577363661
 20
182.0092629349
 11
115.0596574506
 21
181.8356630806
  0
LINE
  5
29F
100
AcDbEntity
  8
KONSTRUKTIONSELEMENTE
100
AcDbLine
 62
7
  6
CONTINUOUS
 10
115.3310566719
 20
181.5454468439
 11
115.5291356211
 21
181.7190467473
  0
LINE
  5
2A0
100
AcDbEntity
  8
KONSTRUKTIONSELEMENTE
100
AcDbLine
 62
7
  6
CONTINUOUS
 10
83.3970798232
 20
155.0472482291
 11
83.7720797338
 21
155.238737568
  0
LINE
  5
2A1
100
AcDbEntity
  8
KONSTRUKTIONSELEMENTE
100
AcDbLine
 62
7
  6
CONTINUOUS
 10
83.3033296444
 20
155.5259715763
 11
83.0220796444
 21
155.4302269069
  0
LINE
  5
2A2
100
AcDbEntity
  8
0
100
AcDbLine
 62
7
  6
CONTINUOUS
 10
97.6783297338
 20
108.7051205638
 11
97.1783297338
 21
108.7051205638
  0
LINE
  5
2A3
100
AcDbEntity
  8
KONSTRUKTIONSELEMENTE
100
AcDbLine
 62
7
  6
CONTINUOUS
 10
80.6783297338
 20
157.3451205638
 11
80.6783297338
 21
152.8451205638
  0
LINE
  5
2A4
100
AcDbEntity
  8
KONSTRUKTIONSELEMENTE
100
AcDbLine
 62
7
  6
CONTINUOUS
 10
80.6783297338
 20
151.3451205638
 11
80.6783297338
 21
148.3770354089
  0
LINE
  5
2A5
100
AcDbEntity
  8
KONSTRUKTIONSELEMENTE
100
AcDbLine
 62
7
  6
CONTINUOUS
 10
80.6783297338
 20
145.3451205638
 11
80.6783297338
 21
140.8451205638
  0
LINE
  5
2A6
100
AcDbEntity
  8
KONSTRUKTIONSELEMENTE
100
AcDbLine
 62
7
  6
CONTINUOUS
 10
81.2408297338
 20
141.4195886475
 11
81.2408297338
 21
144.7706525472
  0
LINE
  5
2A7
100
AcDbEntity
  8
KONSTRUKTIONSELEMENTE
100
AcDbLine
 62
7
  6
CONTINUOUS
 10
81.2408297338
 20
148.3770354089
 11
81.2408297338
 21
151.3451205638
  0
LINE
  5
2A8
100
AcDbEntity
  8
KONSTRUKTIONSELEMENTE
100
AcDbLine
 62
7
  6
CONTINUOUS
 10
81.2408297338
 20
152.8451205638
 11
81.2408297338
 21
154.8557588902
  0
LINE
  5
2A9
100
AcDbEntity
  8
KONSTRUKTIONSELEMENTE
100
AcDbLine
 62
7
  6
CONTINUOUS
 10
81.2408297338
 20
155.4302269069
 11
81.2408297338
 21
156.8663972166
  0
LINE
  5
2AA
100
AcDbEntity
  8
KONSTRUKTIONSELEMENTE
100
AcDbLine
 62
7
  6
CONTINUOUS
 10
83.4908297338
 20
151.3451205638
 11
83.4908297338
 21
148.3770354089
  0
LINE
  5
2AB
100
AcDbEntity
  8
KONSTRUKTIONSELEMENTE
100
AcDbLine
 62
7
  6
CONTINUOUS
 10
83.5845796444
 20
156.2919292
 11
83.5845796444
 21
156.0046949235
  0
LINE
  5
2AC
100
AcDbEntity
  8
KONSTRUKTIONSELEMENTE
100
AcDbLine
 62
7
  6
CONTINUOUS
 10
83.9595798232
 20
147.8983120618
 11
84.0533297338
 21
148.3770354089
  0
LINE
  5
2AD
100
AcDbEntity
  8
KONSTRUKTIONSELEMENTE
100
AcDbLine
 62
7
  6
CONTINUOUS
 10
84.3345797338
 20
141.8983120618
 11
84.4283296444
 21
142.3770354089
  0
LINE
  5
2AE
100
AcDbEntity
  8
KONSTRUKTIONSELEMENTE
100
AcDbLine
 62
7
  6
CONTINUOUS
 10
83.4908297338
 20
148.3770354089
 11
83.3970798232
 21
147.9940567312
  0
LINE
  5
2AF
100
AcDbEntity
  8
KONSTRUKTIONSELEMENTE
100
AcDbLine
 62
7
  6
CONTINUOUS
 10
83.8658296444
 20
142.3770354089
 11
83.7720797338
 21
141.9940567312
  0
LINE
  5
2B0
100
AcDbEntity
  8
KONSTRUKTIONSELEMENTE
100
AcDbLine
 62
7
  6
CONTINUOUS
 10
95.8000729423
 20
184.6477273177
 11
95.9095056401
 21
184.9943733416
  0
LINE
  5
2B1
100
AcDbEntity
  8
KONSTRUKTIONSELEMENTE
100
AcDbLine
 62
7
  6
CONTINUOUS
 10
100.5741107038
 20
187.1838370263
 11
100.7584168933
 21
187.7258091829
  0
LINE
  5
2B2
100
AcDbEntity
  8
KONSTRUKTIONSELEMENTE
100
AcDbLine
 62
7
  6
CONTINUOUS
 10
83.7720797338
 20
147.5153333169
 11
83.9595798232
 21
147.8983120618
  0
LINE
  5
2B3
100
AcDbEntity
  8
KONSTRUKTIONSELEMENTE
100
AcDbLine
 62
7
  6
CONTINUOUS
 10
84.1470796444
 20
141.5153333169
 11
84.3345797338
 21
141.8983120618
  0
LINE
  5
2B4
100
AcDbEntity
  8
KONSTRUKTIONSELEMENTE
100
AcDbLine
 62
7
  6
CONTINUOUS
 10
83.7720797338
 20
141.9940567312
 11
83.5845796444
 21
141.7068227229
  0
LINE
  5
2B5
100
AcDbEntity
  8
KONSTRUKTIONSELEMENTE
100
AcDbLine
 62
7
  6
CONTINUOUS
 10
109.2617194397
 20
184.9202377705
 11
109.1590904626
 21
184.7698244158
  0
LINE
  5
2B6
100
AcDbEntity
  8
KONSTRUKTIONSELEMENTE
100
AcDbLine
 62
7
  6
CONTINUOUS
 10
83.3970798232
 20
147.1323546057
 11
83.7720797338
 21
147.5153333169
  0
LINE
  5
2B7
100
AcDbEntity
  8
KONSTRUKTIONSELEMENTE
100
AcDbLine
 62
7
  6
CONTINUOUS
 10
83.2095797338
 20
147.7068227229
 11
82.9283297338
 21
147.5153333169
  0
LINE
  5
2B8
100
AcDbEntity
  8
KONSTRUKTIONSELEMENTE
100
AcDbLine
 62
7
  6
CONTINUOUS
 10
83.0220796444
 20
146.9408652417
 11
83.3970798232
 21
147.1323546057
  0
LINE
  5
2B9
100
AcDbEntity
  8
0
100
AcDbLine
 62
7
  6
CONTINUOUS
 10
97.2620597462
 20
109.3717872504
 11
97.1783297338
 21
109.3717872504
  0
LINE
  5
2BA
100
AcDbEntity
  8
0
100
AcDbLine
 62
7
  6
CONTINUOUS
 10
97.6783297338
 20
110.6212931505
 11
97.1783297338
 21
110.6212931505
  0
LINE
  5
2BB
100
AcDbEntity
  8
0
100
AcDbLine
 62
7
  6
CONTINUOUS
 10
97.6783297338
 20
112.2712931505
 11
97.1783297338
 21
112.2712931505
  0
LINE
  5
2BC
100
AcDbEntity
  8
0
100
AcDbLine
 62
7
  6
CONTINUOUS
 10
97.6783297338
 20
113.1712931505
 11
97.1783297338
 21
113.1712931505
  0
LINE
  5
2BD
100
AcDbEntity
  8
FASEN
100
AcDbLine
 62
7
  6
CONTINUOUS
 10
123.678329733
 20
84.8451205646
 11
124.178329733
 21
84.3451205646
  0
LINE
  5
2BE
100
AcDbEntity
  8
KONSTRUKTIONSELEMENTE
100
AcDbLine
 62
7
  6
CONTINUOUS
 10
83.8658296444
 20
143.8132055846
 11
83.8658296444
 21
142.3770354089
  0
LINE
  5
2BF
100
AcDbEntity
  8
KONSTRUKTIONSELEMENTE
100
AcDbLine
 62
7
  6
CONTINUOUS
 10
84.0533297338
 20
148.3770354089
 11
84.0533297338
 21
151.3451205638
  0
LINE
  5
2C0
100
AcDbEntity
  8
KONSTRUKTIONSELEMENTE
100
AcDbLine
 62
7
  6
CONTINUOUS
 10
84.1470796444
 20
155.9089502541
 11
84.1470796444
 21
156.2919292
  0
LINE
  5
2C1
100
AcDbEntity
  8
FASEN
100
AcDbLine
 62
7
  6
CONTINUOUS
 10
84.1783297338
 20
84.3451205638
 11
84.1783297338
 21
76.8451205638
  0
LINE
  5
2C2
100
AcDbEntity
  8
0
100
AcDbLine
 62
7
  6
CONTINUOUS
 10
84.1783297338
 20
84.3451205638
 11
84.1783297338
 21
76.8451205638
  0
LINE
  5
2C3
100
AcDbEntity
  8
KONSTRUKTIONSELEMENTE
100
AcDbLine
 62
7
  6
CONTINUOUS
 10
84.4283296444
 20
142.3770354089
 11
84.4283296444
 21
143.8132055846
  0
LINE
  5
2C4
100
AcDbEntity
  8
0
100
AcDbLine
 62
7
  6
CONTINUOUS
 10
87.1783297338
 20
100.7451205638
 11
87.1783297338
 21
84.8451205638
  0
LINE
  5
2C5
100
AcDbEntity
  8
KONSTRUKTIONSELEMENTE
100
AcDbLine
 62
7
  6
CONTINUOUS
 10
93.0268265279
 20
183.0046021634
 11
93.0768009638
 21
183.3646597161
  0
LINE
  5
2C6
100
AcDbEntity
  8
KONSTRUKTIONSELEMENTE
100
AcDbLine
 62
7
  6
CONTINUOUS
 10
95.5390712167
 20
185.2798828503
 11
95.5042419267
 21
185.0689396501
  0
LINE
  5
2C7
100
AcDbEntity
  8
KONSTRUKTIONSELEMENTE
100
AcDbLine
 62
7
  6
CONTINUOUS
 10
102.3387316642
 20
185.8014084453
 11
102.1544254495
 21
185.2594364657
  0
LINE
  5
2C8
100
AcDbEntity
  8
KONSTRUKTIONSELEMENTE
100
AcDbLine
 62
7
  6
CONTINUOUS
 10
104.6849468588
 20
188.0208383591
 11
104.5255323589
 21
187.6056248885
  0
LINE
  5
2C9
100
AcDbEntity
  8
KONSTRUKTIONSELEMENTE
100
AcDbLine
 62
7
  6
CONTINUOUS
 10
108.0136557773
 20
187.7580000946
 11
107.8712989336
 21
187.4420751833
  0
LINE
  5
2CA
100
AcDbEntity
  8
KONSTRUKTIONSELEMENTE
100
AcDbLine
 62
7
  6
CONTINUOUS
 10
109.8278360916
 20
186.4473034146
 11
109.9701929353
 21
186.763228326
  0
LINE
  5
2CB
100
AcDbEntity
  8
KONSTRUKTIONSELEMENTE
100
AcDbLine
 62
7
  6
CONTINUOUS
 10
109.4537306287
 20
184.6115779148
 11
109.5762221134
 21
184.8447474513
  0
LINE
  5
2CC
100
AcDbEntity
  8
KONSTRUKTIONSELEMENTE
100
AcDbLine
 62
7
  6
CONTINUOUS
 10
115.2954829993
 20
185.5998913918
 11
113.0269186015
 21
182.3054087962
  0
LINE
  5
2CD
100
AcDbEntity
  8
KONSTRUKTIONSELEMENTE
100
AcDbLine
 62
7
  6
CONTINUOUS
 10
113.6361891434
 20
182.5058602198
 11
114.3601990727
 21
183.5572908574
  0
LINE
  5
2CE
100
AcDbEntity
  8
KONSTRUKTIONSELEMENTE
100
AcDbLine
 62
7
  6
CONTINUOUS
 10
114.6498030039
 20
183.9778630535
 11
115.3255456451
 21
184.9591983741
  0
LINE
  5
2CF
100
AcDbEntity
  8
KONSTRUKTIONSELEMENTE
100
AcDbLine
 62
7
  6
CONTINUOUS
 10
116.3678848364
 20
183.6214564515
 11
116.2713501927
 21
183.4812657195
  0
LINE
  5
2D0
100
AcDbEntity
  8
KONSTRUKTIONSELEMENTE
100
AcDbLine
 62
7
  6
CONTINUOUS
 10
115.4025383316
 20
182.2195490329
 11
115.2577363661
 21
182.0092629349
  0
LINE
  5
2D1
100
AcDbEntity
  8
KONSTRUKTIONSELEMENTE
100
AcDbLine
 62
7
  6
CONTINUOUS
 10
115.5291356211
 20
181.7190467473
 11
115.7704722304
 21
182.0695235774
  0
LINE
  5
2D2
100
AcDbEntity
  8
KONSTRUKTIONSELEMENTE
100
AcDbLine
 62
7
  6
CONTINUOUS
 10
116.5427494478
 20
183.1910495319
 11
116.7358188705
 21
183.4714311923
  0
LINE
  5
2D3
100
AcDbEntity
  8
KONSTRUKTIONSELEMENTE
100
AcDbLine
 62
7
  6
CONTINUOUS
 10
83.7720797338
 20
141.1323546057
 11
84.1470796444
 21
141.5153333169
  0
LINE
  5
2D4
100
AcDbEntity
  8
KONSTRUKTIONSELEMENTE
100
AcDbLine
 62
7
  6
CONTINUOUS
 10
83.5845796444
 20
141.7068227229
 11
83.3033296444
 21
141.5153333169
  0
LINE
  5
2D5
100
AcDbEntity
  8
0
100
AcDbLine
 62
7
  6
CONTINUOUS
 10
97.6783297338
 20
114.8212931505
 11
97.1783297338
 21
114.8212931505
  0
LINE
  5
2D6
100
AcDbEntity
  8
KONSTRUKTIONSELEMENTE
100
AcDbLine
 62
7
  6
CONTINUOUS
 10
81.3345797114
 20
147.9940567312
 11
81.2408297338
 21
148.3770354089
  0
LINE
  5
2D7
100
AcDbEntity
  8
KONSTRUKTIONSELEMENTE
100
AcDbLine
 62
7
  6
CONTINUOUS
 10
83.7720797338
 20
144.1961842624
 11
83.8658296444
 21
143.8132055846
  0
LINE
  5
2D8
100
AcDbEntity
  8
KONSTRUKTIONSELEMENTE
100
AcDbLine
 62
7
  6
CONTINUOUS
 10
80.6783297338
 20
148.3770354089
 11
80.7720797366
 21
147.8983120618
  0
LINE
  5
2D9
100
AcDbEntity
  8
KONSTRUKTIONSELEMENTE
100
AcDbLine
 62
7
  6
CONTINUOUS
 10
84.4283296444
 20
143.8132055846
 11
84.3345797338
 21
144.2919292
  0
LINE
  5
2DA
100
AcDbEntity
  8
KONSTRUKTIONSELEMENTE
100
AcDbLine
 62
7
  6
CONTINUOUS
 10
100.3621786215
 20
187.7554440126
 11
100.2820037335
 21
187.4001988282
  0
LINE
  5
2DB
100
AcDbEntity
  8
KONSTRUKTIONSELEMENTE
100
AcDbLine
 62
7
  6
CONTINUOUS
 10
102.5506637214
 20
185.229801636
 11
102.630838601
 21
185.5850468794
  0
LINE
  5
2DC
100
AcDbEntity
  8
KONSTRUKTIONSELEMENTE
100
AcDbLine
 62
7
  6
CONTINUOUS
 10
104.8420692893
 20
187.4976518067
 11
104.9248143238
 21
187.7477032788
  0
LINE
  5
2DD
100
AcDbEntity
  8
KONSTRUKTIONSELEMENTE
100
AcDbLine
 62
7
  6
CONTINUOUS
 10
104.7448840775
 20
186.1394222232
 11
104.8276291035
 21
186.3894735764
  0
LINE
  5
2DE
100
AcDbEntity
  8
KONSTRUKTIONSELEMENTE
100
AcDbLine
 62
7
  6
CONTINUOUS
 10
106.3397198335
 20
185.769335286
 11
106.2569748161
 21
185.5192840516
  0
LINE
  5
2DF
100
AcDbEntity
  8
KONSTRUKTIONSELEMENTE
100
AcDbLine
 62
7
  6
CONTINUOUS
 10
106.4968422768
 20
185.246148912
 11
106.6562567639
 21
185.6613622042
  0
LINE
  5
2E0
100
AcDbEntity
  8
KONSTRUKTIONSELEMENTE
100
AcDbLine
 62
7
  6
CONTINUOUS
 10
110.8489188646
 20
186.2830723014
 11
110.7234913676
 21
185.96659567
  0
LINE
  5
2E1
100
AcDbEntity
  8
KONSTRUKTIONSELEMENTE
100
AcDbLine
 62
7
  6
CONTINUOUS
 10
111.5808656868
 20
186.7253572596
 11
111.3300106052
 21
186.0924037754
  0
LINE
  5
2E2
100
AcDbEntity
  8
KONSTRUKTIONSELEMENTE
100
AcDbLine
 62
7
  6
CONTINUOUS
 10
111.2045831082
 20
185.775927144
 11
110.5774455578
 21
184.1935438212
  0
LINE
  5
2E3
100
AcDbEntity
  8
KONSTRUKTIONSELEMENTE
100
AcDbLine
 62
7
  6
CONTINUOUS
 10
110.940841494
 20
184.2326144317
 11
111.5052652741
 21
185.6567593835
  0
LINE
  5
2E4
100
AcDbEntity
  8
KONSTRUKTIONSELEMENTE
100
AcDbLine
 62
7
  6
CONTINUOUS
 10
111.630692771
 20
185.9732360148
 11
111.8815478526
 21
186.6061894991
  0
LINE
  5
2E5
100
AcDbEntity
  8
KONSTRUKTIONSELEMENTE
100
AcDbLine
 62
7
  6
CONTINUOUS
 10
112.620478833
 20
184.610611534
 11
112.423617653
 21
184.2333541356
  0
LINE
  5
2E6
100
AcDbEntity
  8
KONSTRUKTIONSELEMENTE
100
AcDbLine
 62
7
  6
CONTINUOUS
 10
113.226500373
 20
183.8143923332
 11
113.4233615529
 21
184.1916497317
  0
LINE
  5
2E7
100
AcDbEntity
  8
KONSTRUKTIONSELEMENTE
100
AcDbLine
 62
7
  6
CONTINUOUS
 10
83.3970798232
 20
140.9408652417
 11
83.7720797338
 21
141.1323546057
  0
LINE
  5
2E8
100
AcDbEntity
  8
KONSTRUKTIONSELEMENTE
100
AcDbLine
 62
7
  6
CONTINUOUS
 10
80.7720797366
 20
147.8983120618
 11
80.9595797338
 21
147.5153333169
  0
LINE
  5
2E9
100
AcDbEntity
  8
KONSTRUKTIONSELEMENTE
100
AcDbLine
 62
7
  6
CONTINUOUS
 10
84.3345797338
 20
144.2919292
 11
84.1470796444
 21
144.6749078778
  0
LINE
  5
2EA
100
AcDbEntity
  8
KONSTRUKTIONSELEMENTE
100
AcDbLine
 62
7
  6
CONTINUOUS
 10
82.8345796891
 20
154.8557588902
 11
83.5845796444
 21
152.8451205638
  0
LINE
  5
2EB
100
AcDbEntity
  8
KONSTRUKTIONSELEMENTE
100
AcDbLine
 62
7
  6
CONTINUOUS
 10
83.4908297338
 20
156.5791632083
 11
83.5845796444
 21
156.2919292
  0
LINE
  5
2EC
100
AcDbEntity
  8
KONSTRUKTIONSELEMENTE
100
AcDbLine
 62
7
  6
CONTINUOUS
 10
92.663869316
 20
183.5842611637
 11
92.6647751821
 21
183.3704637352
  0
LINE
  5
2ED
100
AcDbEntity
  8
KONSTRUKTIONSELEMENTE
100
AcDbLine
 62
7
  6
CONTINUOUS
 10
95.9095056401
 20
184.9943733416
 11
95.921975948
 21
185.3860287778
  0
LINE
  5
2EE
100
AcDbEntity
  8
KONSTRUKTIONSELEMENTE
100
AcDbLine
 62
7
  6
CONTINUOUS
 10
100.2820037335
 20
187.4001988282
 11
100.2538934472
 21
187.1383166194
  0
LINE
  5
2EF
100
AcDbEntity
  8
KONSTRUKTIONSELEMENTE
100
AcDbLine
 62
7
  6
CONTINUOUS
 10
104.5255323589
 20
187.6056248885
 11
104.4184910406
 21
187.016016288
  0
LINE
  5
2F0
100
AcDbEntity
  8
KONSTRUKTIONSELEMENTE
100
AcDbLine
 62
7
  6
CONTINUOUS
 10
104.7411020462
 20
186.9929325478
 11
104.8420692893
 21
187.4976518067
  0
LINE
  5
2F1
100
AcDbEntity
  8
KONSTRUKTIONSELEMENTE
100
AcDbLine
 62
7
  6
CONTINUOUS
 10
108.6161690059
 20
186.3880458648
 11
108.5367132729
 21
186.0570227514
  0
LINE
  5
2F2
100
AcDbEntity
  8
KONSTRUKTIONSELEMENTE
100
AcDbLine
 62
7
  6
CONTINUOUS
 10
111.1685014322
 20
183.2269204463
 11
111.2939289401
 21
183.5433971053
  0
LINE
  5
2F3
100
AcDbEntity
  8
KONSTRUKTIONSELEMENTE
100
AcDbLine
 62
7
  6
CONTINUOUS
 10
112.1667679659
 20
185.3945895465
 11
112.2921954628
 21
185.7110661778
  0
LINE
  5
2F4
100
AcDbEntity
  8
KONSTRUKTIONSELEMENTE
100
AcDbLine
 62
7
  6
CONTINUOUS
 10
83.5845796444
 20
144.4834185389
 11
83.7720797338
 21
144.1961842624
  0
LINE
  5
2F5
100
AcDbEntity
  8
KONSTRUKTIONSELEMENTE
100
AcDbLine
 62
7
  6
CONTINUOUS
 10
81.5220797338
 20
147.7068227229
 11
81.3345797114
 21
147.9940567312
  0
LINE
  5
2F6
100
AcDbEntity
  8
KONSTRUKTIONSELEMENTE
100
AcDbLine
 62
7
  6
CONTINUOUS
 10
84.2408298232
 20
152.8451205638
 11
83.3970798232
 21
155.0472482291
  0
LINE
  5
2F7
100
AcDbEntity
  8
KONSTRUKTIONSELEMENTE
100
AcDbLine
 62
7
  6
CONTINUOUS
 10
84.1470796444
 20
156.2919292
 11
84.0533297338
 21
156.5791632083
  0
LINE
  5
2F8
100
AcDbEntity
  8
0
100
AcDbLine
 62
7
  6
CONTINUOUS
 10
97.1783297338
 20
108.7051205638
 11
97.1783297338
 21
109.3945075121
  0
LINE
  5
2F9
100
AcDbEntity
  8
0
100
AcDbLine
 62
7
  6
CONTINUOUS
 10
97.1783297338
 20
110.6219538892
 11
97.1783297338
 21
112.2712931505
  0
LINE
  5
2FA
100
AcDbEntity
  8
0
100
AcDbLine
 62
7
  6
CONTINUOUS
 10
97.1783297338
 20
113.1719538892
 11
97.1783297338
 21
114.8212931505
  0
LINE
  5
2FB
100
AcDbEntity
  8
RUNDUNGEN
100
AcDbLine
 62
7
  6
CONTINUOUS
 10
97.6783297338
 20
106.2451205715
 11
97.6783297338
 21
118.7451205638
  0
LINE
  5
2FC
100
AcDbEntity
  8
KONSTRUKTIONSELEMENTE
100
AcDbLine
 62
7
  6
CONTINUOUS
 10
100.2538934472
 20
187.1383166194
 11
100.2497395744
 21
186.7079161984
  0
LINE
  5
2FD
100
AcDbEntity
  8
KONSTRUKTIONSELEMENTE
100
AcDbLine
 62
7
  6
CONTINUOUS
 10
102.630838601
 20
185.5850468794
 11
102.6589489208
 21
185.8469288521
  0
LINE
  5
2FE
100
AcDbEntity
  8
KONSTRUKTIONSELEMENTE
100
AcDbLine
 62
7
  6
CONTINUOUS
 10
109.6954167442
 20
187.0042307793
 11
109.655688822
 21
186.8387189907
  0
LINE
  5
2FF
100
AcDbEntity
  8
KONSTRUKTIONSELEMENTE
100
AcDbLine
 62
7
  6
CONTINUOUS
 10
109.3411751728
 20
185.2512608839
 11
109.2617194397
 21
184.9202377705
  0
LINE
  5
300
100
AcDbEntity
  8
KONSTRUKTIONSELEMENTE
100
AcDbLine
 62
7
  6
CONTINUOUS
 10
109.9701929353
 20
186.763228326
 11
110.0099208575
 21
186.9287401146
  0
LINE
  5
301
100
AcDbEntity
  8
KONSTRUKTIONSELEMENTE
100
AcDbLine
 62
7
  6
CONTINUOUS
 10
109.5762221134
 20
184.8447474513
 11
109.6556778464
 21
185.1757705648
  0
LINE
  5
302
100
AcDbEntity
  8
KONSTRUKTIONSELEMENTE
100
AcDbLine
 62
7
  6
CONTINUOUS
 10
115.494063415
 20
182.466521473
 11
115.4025383316
 21
182.2195490329
  0
LINE
  5
303
100
AcDbEntity
  8
KONSTRUKTIONSELEMENTE
100
AcDbLine
 62
7
  6
CONTINUOUS
 10
115.7704722304
 20
182.0695235774
 11
115.8619973138
 21
182.3164960174
  0
LINE
  5
304
100
AcDbEntity
  8
KONSTRUKTIONSELEMENTE
100
AcDbLine
 62
7
  6
CONTINUOUS
 10
116.4594099874
 20
183.8684289897
 11
116.3678848364
 21
183.6214564515
  0
LINE
  5
305
100
AcDbEntity
  8
KONSTRUKTIONSELEMENTE
100
AcDbLine
 62
7
  6
CONTINUOUS
 10
116.7358188705
 20
183.4714311923
 11
116.8273438862
 21
183.7184035342
  0
LINE
  5
306
100
AcDbEntity
  8
KONSTRUKTIONSELEMENTE
100
AcDbLine
 62
7
  6
CONTINUOUS
 10
80.9595797338
 20
147.5153333169
 11
81.3345797114
 21
147.1323546057
  0
LINE
  5
307
100
AcDbEntity
  8
KONSTRUKTIONSELEMENTE
100
AcDbLine
 62
7
  6
CONTINUOUS
 10
84.1470796444
 20
144.6749078778
 11
83.7720797338
 21
145.0578865555
  0
LINE
  5
308
100
AcDbEntity
  8
KONSTRUKTIONSELEMENTE
100
AcDbLine
 62
7
  6
CONTINUOUS
 10
93.0768009638
 20
183.3646597161
 11
93.0236557762
 21
183.7528929943
  0
LINE
  5
309
100
AcDbEntity
  8
KONSTRUKTIONSELEMENTE
100
AcDbLine
 62
7
  6
CONTINUOUS
 10
100.5819346881
 20
186.669177329
 11
100.5741107038
 21
187.1838370263
  0
LINE
  5
30A
100
AcDbEntity
  8
KONSTRUKTIONSELEMENTE
100
AcDbLine
 62
7
  6
CONTINUOUS
 10
102.3309076631
 20
186.3160682606
 11
102.3387316642
 21
185.8014084453
  0
LINE
  5
30B
100
AcDbEntity
  8
KONSTRUKTIONSELEMENTE
100
AcDbLine
 62
7
  6
CONTINUOUS
 10
102.6589489208
 20
185.8469288521
 11
102.6631027768
 21
186.2773293911
  0
LINE
  5
30C
100
AcDbEntity
  8
KONSTRUKTIONSELEMENTE
100
AcDbLine
 62
7
  6
CONTINUOUS
 10
104.4184910406
 20
187.016016288
 11
104.3759725142
 21
186.4217908973
  0
LINE
  5
30D
100
AcDbEntity
  8
KONSTRUKTIONSELEMENTE
100
AcDbLine
 62
7
  6
CONTINUOUS
 10
104.7289538958
 20
186.8231538647
 11
104.7411020462
 21
186.9929325478
  0
LINE
  5
30E
100
AcDbEntity
  8
KONSTRUKTIONSELEMENTE
100
AcDbLine
 62
7
  6
CONTINUOUS
 10
104.7266618519
 20
185.8847541985
 11
104.7448840775
 21
186.1394222232
  0
LINE
  5
30F
100
AcDbEntity
  8
KONSTRUKTIONSELEMENTE
100
AcDbLine
 62
7
  6
CONTINUOUS
 10
106.3579420591
 20
186.0240033106
 11
106.3397198335
 21
185.769335286
  0
LINE
  5
310
100
AcDbEntity
  8
KONSTRUKTIONSELEMENTE
100
AcDbLine
 62
7
  6
CONTINUOUS
 10
106.6562567639
 20
185.6613622042
 11
106.6866271484
 21
186.0858090308
  0
LINE
  5
311
100
AcDbEntity
  8
KONSTRUKTIONSELEMENTE
100
AcDbLine
 62
7
  6
CONTINUOUS
 10
110.9069078331
 20
183.9714231325
 11
110.940841494
 21
184.2326144317
  0
LINE
  5
312
100
AcDbEntity
  8
KONSTRUKTIONSELEMENTE
100
AcDbLine
 62
7
  6
CONTINUOUS
 10
83.3033296444
 20
144.6749078778
 11
83.5845796444
 21
144.4834185389
  0
LINE
  5
313
100
AcDbEntity
  8
KONSTRUKTIONSELEMENTE
100
AcDbLine
 62
7
  6
CONTINUOUS
 10
81.8033297338
 20
147.5153333169
 11
81.5220797338
 21
147.7068227229
  0
LINE
  5
314
100
AcDbEntity
  8
KONSTRUKTIONSELEMENTE
100
AcDbLine
 62
7
  6
CONTINUOUS
 10
84.0533297338
 20
156.5791632083
 11
83.7720797338
 21
156.9621418861
  0
LINE
  5
315
100
AcDbEntity
  8
KONSTRUKTIONSELEMENTE
100
AcDbLine
 62
7
  6
CONTINUOUS
 10
104.3759725142
 20
186.4217908973
 11
104.3979767711
 21
185.8229485972
  0
LINE
  5
316
100
AcDbEntity
  8
KONSTRUKTIONSELEMENTE
100
AcDbLine
 62
7
  6
CONTINUOUS
 10
103.397018498
 20
185.0942009789
 11
103.4118617693
 21
184.6689280131
  0
LINE
  5
317
100
AcDbEntity
  8
KONSTRUKTIONSELEMENTE
100
AcDbLine
 62
7
  6
CONTINUOUS
 10
103.7351007471
 20
184.6802099996
 11
103.7202574758
 21
185.1054829654
  0
LINE
  5
318
100
AcDbEntity
  8
KONSTRUKTIONSELEMENTE
100
AcDbLine
 62
7
  6
CONTINUOUS
 10
107.311799408
 20
185.3882785785
 11
107.3151087049
 21
185.1249129834
  0
LINE
  5
319
100
AcDbEntity
  8
KONSTRUKTIONSELEMENTE
100
AcDbLine
 62
7
  6
CONTINUOUS
 10
109.6556778464
 20
185.1757705648
 11
109.6722339364
 21
185.5218916506
  0
LINE
  5
31A
100
AcDbEntity
  8
KONSTRUKTIONSELEMENTE
100
AcDbLine
 62
7
  6
CONTINUOUS
 10
110.0099208575
 20
186.9287401146
 11
110.0264754799
 21
187.2748614301
  0
LINE
  5
31B
100
AcDbEntity
  8
KONSTRUKTIONSELEMENTE
100
AcDbLine
 62
7
  6
CONTINUOUS
 10
83.7720797338
 20
145.0578865555
 11
83.3970798232
 21
145.2493758944
  0
LINE
  5
31C
100
AcDbEntity
  8
KONSTRUKTIONSELEMENTE
100
AcDbLine
 62
7
  6
CONTINUOUS
 10
81.3345797114
 20
147.1323546057
 11
81.7095797561
 21
146.9408652417
  0
LINE
  5
31D
100
AcDbEntity
  8
KONSTRUKTIONSELEMENTE
100
AcDbLine
 62
7
  6
CONTINUOUS
 10
83.3033296444
 20
156.7706525472
 11
83.4908297338
 21
156.5791632083
  0
LINE
  5
31E
100
AcDbEntity
  8
KONSTRUKTIONSELEMENTE
100
AcDbLine
 62
7
  6
CONTINUOUS
 10
95.4769384441
 20
185.5358356357
 11
95.5390712167
 21
185.2798828503
  0
LINE
  5
31F
100
AcDbEntity
  8
KONSTRUKTIONSELEMENTE
100
AcDbLine
 62
7
  6
CONTINUOUS
 10
95.921975948
 20
185.3860287778
 11
95.8598431754
 21
185.6419815632
  0
LINE
  5
320
100
AcDbEntity
  8
KONSTRUKTIONSELEMENTE
100
AcDbLine
 62
7
  6
CONTINUOUS
 10
100.2497395744
 20
186.7079161984
 11
100.3575402882
 21
185.9495827121
  0
LINE
  5
321
100
AcDbEntity
  8
KONSTRUKTIONSELEMENTE
100
AcDbLine
 62
7
  6
CONTINUOUS
 10
100.6657796877
 20
186.0793623951
 11
100.5819346881
 21
186.669177329
  0
LINE
  5
322
100
AcDbEntity
  8
RUNDUNGEN
100
AcDbLine
 62
7
  6
CONTINUOUS
 10
110.6783297338
 20
106.2451205638
 11
110.6783297338
 21
118.7451205638
  0
LINE
  5
323
100
AcDbEntity
  8
KONSTRUKTIONSELEMENTE
100
AcDbLine
 62
7
  6
CONTINUOUS
 10
110.5774455578
 20
184.1935438212
 11
110.572290641
 21
183.8294001671
  0
LINE
  5
324
100
AcDbEntity
  8
KONSTRUKTIONSELEMENTE
100
AcDbLine
 62
7
  6
CONTINUOUS
 10
115.8619973138
 20
182.3164960174
 11
115.8952333127
 21
182.7069378923
  0
LINE
  5
325
100
AcDbEntity
  8
KONSTRUKTIONSELEMENTE
100
AcDbLine
 62
7
  6
CONTINUOUS
 10
116.8273438862
 20
183.7184035342
 11
116.8605798851
 21
184.108845409
  0
LINE
  5
326
100
AcDbEntity
  8
KONSTRUKTIONSELEMENTE
100
AcDbLine
 62
7
  6
CONTINUOUS
 10
78.853332603
 20
138.8451205638
 11
86.9893093705
 21
138.8451205638
  0
LINE
  5
327
100
AcDbEntity
  8
KONSTRUKTIONSELEMENTE
100
AcDbLine
 62
7
  6
CONTINUOUS
 10
121.367350097
 20
138.8451205638
 11
129.5033268645
 21
138.8451205638
  0
LINE
  5
328
100
AcDbEntity
  8
KONSTRUKTIONSELEMENTE
100
AcDbLine
 62
7
  6
CONTINUOUS
 10
80.6783297338
 20
140.8451205638
 11
82.9283297338
 21
140.8451205638
  0
LINE
  5
329
100
AcDbEntity
  8
KONSTRUKTIONSELEMENTE
100
AcDbLine
 62
7
  6
CONTINUOUS
 10
82.9283297338
 20
141.4195886475
 11
81.2408297338
 21
141.4195886475
  0
LINE
  5
32A
100
AcDbEntity
  8
KONSTRUKTIONSELEMENTE
100
AcDbLine
 62
7
  6
CONTINUOUS
 10
83.3970798232
 20
145.2493758944
 11
82.9283297338
 21
145.3451205638
  0
LINE
  5
32B
100
AcDbEntity
  8
KONSTRUKTIONSELEMENTE
100
AcDbLine
 62
7
  6
CONTINUOUS
 10
81.7095797561
 20
146.9408652417
 11
82.1783297785
 21
146.8451205638
  0
LINE
  5
32C
100
AcDbEntity
  8
KONSTRUKTIONSELEMENTE
100
AcDbLine
 62
7
  6
CONTINUOUS
 10
82.9283297338
 20
144.7706525472
 11
83.3033296444
 21
144.6749078778
  0
LINE
  5
32D
100
AcDbEntity
  8
KONSTRUKTIONSELEMENTE
100
AcDbLine
 62
7
  6
CONTINUOUS
 10
82.1783297785
 20
147.4195886475
 11
81.8033297338
 21
147.5153333169
  0
LINE
  5
32E
100
AcDbEntity
  8
KONSTRUKTIONSELEMENTE
100
AcDbLine
 62
7
  6
CONTINUOUS
 10
83.7720797338
 20
156.9621418861
 11
83.3970798232
 21
157.2493758944
  0
LINE
  5
32F
100
AcDbEntity
  8
KONSTRUKTIONSELEMENTE
100
AcDbLine
 62
7
  6
CONTINUOUS
 10
102.2470626635
 20
186.9058831944
 11
102.3309076631
 21
186.3160682606
  0
LINE
  5
330
100
AcDbEntity
  8
KONSTRUKTIONSELEMENTE
100
AcDbLine
 62
7
  6
CONTINUOUS
 10
102.6631027768
 20
186.2773293911
 11
102.5553020631
 21
187.0356628775
  0
LINE
  5
331
100
AcDbEntity
  8
0
100
AcDbLine
 62
7
  6
CONTINUOUS
 10
115.1327808839
 20
90.7451205638
 11
115.1327808839
 21
86.7451205638
  0
LINE
  5
332
100
AcDbEntity
  8
0
100
AcDbLine
 62
7
  6
CONTINUOUS
 10
115.5168702042
 20
90.7451205638
 11
115.5168702042
 21
86.7451205638
  0
LINE
  5
333
100
AcDbEntity
  8
0
100
AcDbLine
 62
7
  6
CONTINUOUS
 10
116.0658231617
 20
90.3195886997
 11
116.0658231617
 21
89.0429928687
  0
LINE
  5
334
100
AcDbEntity
  8
0
100
AcDbLine
 62
7
  6
CONTINUOUS
 10
116.0658231617
 20
88.5323546317
 11
116.0658231617
 21
86.7451205638
  0
LINE
  5
335
100
AcDbEntity
  8
KONSTRUKTIONSELEMENTE
100
AcDbLine
 62
7
  6
CONTINUOUS
 10
83.3033296444
 20
141.5153333169
 11
82.9283297338
 21
141.4195886475
  0
LINE
  5
336
100
AcDbEntity
  8
KONSTRUKTIONSELEMENTE
100
AcDbLine
 62
7
  6
CONTINUOUS
 10
82.9283297338
 20
140.8451205638
 11
83.3970798232
 21
140.9408652417
  0
LINE
  5
337
100
AcDbEntity
  8
KONSTRUKTIONSELEMENTE
100
AcDbLine
 62
7
  6
CONTINUOUS
 10
81.2408297338
 20
144.7706525472
 11
82.9283297338
 21
144.7706525472
  0
LINE
  5
338
100
AcDbEntity
  8
KONSTRUKTIONSELEMENTE
100
AcDbLine
 62
7
  6
CONTINUOUS
 10
82.9283297338
 20
145.3451205638
 11
80.6783297338
 21
145.3451205638
  0
LINE
  5
339
100
AcDbEntity
  8
KONSTRUKTIONSELEMENTE
100
AcDbLine
 62
7
  6
CONTINUOUS
 10
82.1783297785
 20
146.8451205638
 11
82.5533296891
 21
146.8451205638
  0
LINE
  5
33A
100
AcDbEntity
  8
KONSTRUKTIONSELEMENTE
100
AcDbLine
 62
7
  6
CONTINUOUS
 10
92.5598436794
 20
183.8262342051
 11
92.663869316
 21
183.5842611637
  0
LINE
  5
33B
100
AcDbEntity
  8
KONSTRUKTIONSELEMENTE
100
AcDbLine
 62
7
  6
CONTINUOUS
 10
93.0236557762
 20
183.7528929943
 11
92.9196301396
 21
183.9948660357
  0
LINE
  5
33C
100
AcDbEntity
  8
KONSTRUKTIONSELEMENTE
100
AcDbLine
 62
7
  6
CONTINUOUS
 10
100.3575402882
 20
185.9495827121
 11
100.4814727485
 21
185.5373902524
  0
LINE
  5
33D
100
AcDbEntity
  8
KONSTRUKTIONSELEMENTE
100
AcDbLine
 62
7
  6
CONTINUOUS
 10
100.8016900051
 20
185.5829106592
 11
100.6657796877
 21
186.0793623951
  0
LINE
  5
33E
100
AcDbEntity
  8
KONSTRUKTIONSELEMENTE
100
AcDbLine
 62
7
  6
CONTINUOUS
 10
102.1111523629
 20
187.4023348123
 11
102.2470626635
 21
186.9058831944
  0
LINE
  5
33F
100
AcDbEntity
  8
KONSTRUKTIONSELEMENTE
100
AcDbLine
 62
7
  6
CONTINUOUS
 10
104.3979767711
 20
185.8229485972
 11
104.4966504977
 21
185.3892683551
  0
LINE
  5
340
100
AcDbEntity
  8
KONSTRUKTIONSELEMENTE
100
AcDbLine
 62
7
  6
CONTINUOUS
 10
104.7729624181
 20
185.6254693836
 11
104.7266618519
 21
185.8847541985
  0
LINE
  5
341
100
AcDbEntity
  8
KONSTRUKTIONSELEMENTE
100
AcDbLine
 62
7
  6
CONTINUOUS
 10
106.3116415014
 20
186.2832882444
 11
106.3579420591
 21
186.0240033106
  0
LINE
  5
342
100
AcDbEntity
  8
KONSTRUKTIONSELEMENTE
100
AcDbLine
 62
7
  6
CONTINUOUS
 10
106.6669164123
 20
187.6230508913
 11
106.620615846
 21
187.8823357062
  0
LINE
  5
343
100
AcDbEntity
  8
KONSTRUKTIONSELEMENTE
100
AcDbLine
 62
7
  6
CONTINUOUS
 10
107.6494753257
 20
185.1321785006
 11
107.6263035213
 21
185.3127879138
  0
LINE
  5
344
100
AcDbEntity
  8
KONSTRUKTIONSELEMENTE
100
AcDbLine
 62
7
  6
CONTINUOUS
 10
109.2948301521
 20
185.6124801718
 11
109.3411751728
 21
185.2512608839
  0
LINE
  5
345
100
AcDbEntity
  8
KONSTRUKTIONSELEMENTE
100
AcDbLine
 62
7
  6
CONTINUOUS
 10
115.4840417201
 20
182.680086372
 11
115.494063415
 21
182.466521473
  0
LINE
  5
346
100
AcDbEntity
  8
KONSTRUKTIONSELEMENTE
100
AcDbLine
 62
7
  6
CONTINUOUS
 10
116.4493882925
 20
184.0819938888
 11
116.4594099874
 21
183.8684289897
  0
LINE
  5
347
100
AcDbEntity
  8
0
100
AcDbLine
 62
7
  6
CONTINUOUS
 10
117.6131000668
 20
89.8089504627
 11
117.6131000668
 21
89.5536311057
  0
LINE
  5
348
100
AcDbEntity
  8
0
100
AcDbLine
 62
7
  6
CONTINUOUS
 10
117.928077146
 20
89.8089504627
 11
117.928077146
 21
89.5536311057
  0
LINE
  5
349
100
AcDbEntity
  8
0
100
AcDbLine
 62
7
  6
CONTINUOUS
 10
118.2929399178
 20
89.8089504627
 11
118.2929399178
 21
89.4685247329
  0
LINE
  5
34A
100
AcDbEntity
  8
0
100
AcDbLine
 62
7
  6
CONTINUOUS
 10
118.4414815594
 20
90.7451205638
 11
118.4414815594
 21
86.7451205638
  0
LINE
  5
34B
100
AcDbEntity
  8
0
100
AcDbLine
 62
7
  6
CONTINUOUS
 10
118.7385495123
 20
90.7451205638
 11
118.7385495123
 21
86.7451205638
  0
LINE
  5
34C
100
AcDbEntity
  8
0
100
AcDbLine
 62
7
  6
CONTINUOUS
 10
119.0443984811
 20
90.3195886997
 11
119.0443984811
 21
89.0429928687
  0
LINE
  5
34D
100
AcDbEntity
  8
0
100
AcDbLine
 62
7
  6
CONTINUOUS
 10
119.0443984811
 20
88.5323546317
 11
119.0443984811
 21
86.7451205638
  0
LINE
  5
34E
100
AcDbEntity
  8
0
100
AcDbLine
 62
7
  6
CONTINUOUS
 10
119.8166019425
 20
89.8089504627
 11
119.8166019425
 21
89.5536311057
  0
LINE
  5
34F
100
AcDbEntity
  8
0
100
AcDbLine
 62
7
  6
CONTINUOUS
 10
120.0880141327
 20
89.8089504627
 11
120.0880141327
 21
89.5536311057
  0
LINE
  5
350
100
AcDbEntity
  8
0
100
AcDbLine
 62
7
  6
CONTINUOUS
 10
120.2640376759
 20
88.6174610046
 11
120.2640376759
 21
88.1919290212
  0
LINE
  5
351
100
AcDbEntity
  8
0
100
AcDbLine
 62
7
  6
CONTINUOUS
 10
120.2884111793
 20
89.8089504627
 11
120.2884111793
 21
89.4685247329
  0
LINE
  5
352
100
AcDbEntity
  8
0
100
AcDbLine
 62
7
  6
CONTINUOUS
 10
120.4264065431
 20
96.7451205638
 11
120.4264065431
 21
92.7451205638
  0
LINE
  5
353
100
AcDbEntity
  8
0
100
AcDbLine
 62
7
  6
CONTINUOUS
 10
120.5280239205
 20
88.6174610046
 11
120.5280239205
 21
88.1919290212
  0
LINE
  5
354
100
AcDbEntity
  8
0
100
AcDbLine
 62
7
  6
CONTINUOUS
 10
120.6877967149
 20
96.7451205638
 11
120.6877967149
 21
92.7451205638
  0
LINE
  5
355
100
AcDbEntity
  8
0
100
AcDbLine
 62
7
  6
CONTINUOUS
 10
120.7781957942
 20
88.6174610046
 11
120.7781957942
 21
89.1280992416
  0
LINE
  5
356
100
AcDbEntity
  8
0
100
AcDbLine
 62
7
  6
CONTINUOUS
 10
120.8310322172
 20
96.3195886997
 11
120.8310322172
 21
95.0429928687
  0
LINE
  5
357
100
AcDbEntity
  8
0
100
AcDbLine
 62
7
  6
CONTINUOUS
 10
120.8310322172
 20
94.5323546317
 11
120.8310322172
 21
92.7451205638
  0
LINE
  5
358
100
AcDbEntity
  8
0
100
AcDbLine
 62
7
  6
CONTINUOUS
 10
120.8751774895
 20
88.6174610046
 11
120.8751774895
 21
88.1919290212
  0
LINE
  5
359
100
AcDbEntity
  8
0
100
AcDbLine
 62
7
  6
CONTINUOUS
 10
121.0056801443
 20
95.8089504627
 11
121.0056801443
 21
95.5536311057
  0
LINE
  5
35A
100
AcDbEntity
  8
0
100
AcDbLine
 62
7
  6
CONTINUOUS
 10
121.0341315013
 20
88.3621418861
 11
121.0341315013
 21
89.1280992416
  0
LINE
  5
35B
100
AcDbEntity
  8
0
100
AcDbLine
 62
7
  6
CONTINUOUS
 10
121.1194040799
 20
89.0429928687
 11
121.1194040799
 21
88.4472482589
  0
LINE
  5
35C
100
AcDbEntity
  8
0
100
AcDbLine
 62
7
  6
CONTINUOUS
 10
121.143776665
 20
89.0429928687
 11
121.143776665
 21
88.4472482589
  0
LINE
  5
35D
100
AcDbEntity
  8
0
100
AcDbLine
 62
7
  6
CONTINUOUS
 10
121.1783297338
 20
100.7451205638
 11
121.1783297338
 21
96.7451205638
  0
LINE
  5
35E
100
AcDbEntity
  8
0
100
AcDbLine
 62
7
  6
CONTINUOUS
 10
121.1783297338
 20
92.7451205638
 11
121.1783297338
 21
90.7451205638
  0
LINE
  5
35F
100
AcDbEntity
  8
0
100
AcDbLine
 62
7
  6
CONTINUOUS
 10
121.1783297338
 20
86.7451205638
 11
121.1783297338
 21
84.8451205638
  0
LINE
  5
360
100
AcDbEntity
  8
0
100
AcDbLine
 62
7
  6
CONTINUOUS
 10
121.2582074218
 20
95.8089504627
 11
121.2582074218
 21
95.5536311057
  0
LINE
  5
361
100
AcDbEntity
  8
0
100
AcDbLine
 62
7
  6
CONTINUOUS
 10
121.3215175524
 20
95.8089504627
 11
121.3215175524
 21
95.4685247329
  0
LINE
  5
362
100
AcDbEntity
  8
0
100
AcDbLine
 62
7
  6
CONTINUOUS
 10
121.388832013
 20
96.7451205638
 11
121.388832013
 21
94.1068226484
  0
LINE
  5
363
100
AcDbEntity
  8
0
100
AcDbLine
 62
7
  6
CONTINUOUS
 10
121.3942784319
 20
89.0429928687
 11
121.3942784319
 21
88.4472482589
  0
LINE
  5
364
100
AcDbEntity
  8
0
100
AcDbLine
 62
7
  6
CONTINUOUS
 10
121.4154424783
 20
96.7451205638
 11
121.4154424783
 21
94.1068226484
  0
LINE
  5
365
100
AcDbEntity
  8
0
100
AcDbLine
 62
7
  6
CONTINUOUS
 10
121.4154424599
 20
89.1280992416
 11
121.4154424599
 21
88.3621418861
  0
LINE
  5
366
100
AcDbEntity
  8
0
100
AcDbLine
 62
7
  6
CONTINUOUS
 10
121.4283297338
 20
93.2983120469
 11
121.4283297338
 21
93.0004397121
  0
LINE
  5
367
100
AcDbEntity
  8
KONSTRUKTIONSELEMENTE
100
AcDbLine
 62
7
  6
CONTINUOUS
 10
82.5533296891
 20
146.8451205638
 11
83.0220796444
 21
146.9408652417
  0
LINE
  5
368
100
AcDbEntity
  8
KONSTRUKTIONSELEMENTE
100
AcDbLine
 62
7
  6
CONTINUOUS
 10
82.5533296891
 20
147.4195886475
 11
82.1783297785
 21
147.4195886475
  0
LINE
  5
369
100
AcDbEntity
  8
KONSTRUKTIONSELEMENTE
100
AcDbLine
 62
7
  6
CONTINUOUS
 10
83.0220796444
 20
156.8663972166
 11
83.3033296444
 21
156.7706525472
  0
LINE
  5
36A
100
AcDbEntity
  8
KONSTRUKTIONSELEMENTE
100
AcDbLine
 62
7
  6
CONTINUOUS
 10
93.1472619613
 20
185.6520400164
 11
95.0166303426
 21
182.1157337718
  0
LINE
  5
36B
100
AcDbEntity
  8
KONSTRUKTIONSELEMENTE
100
AcDbLine
 62
7
  6
CONTINUOUS
 10
95.3597612833
 20
182.2971202488
 11
94.5245115692
 21
183.8771719975
  0
LINE
  5
36C
100
AcDbEntity
  8
KONSTRUKTIONSELEMENTE
100
AcDbLine
 62
7
  6
CONTINUOUS
 10
94.2858688256
 20
184.3286152941
 11
93.6892618551
 21
185.4572237462
  0
LINE
  5
36D
100
AcDbEntity
  8
KONSTRUKTIONSELEMENTE
100
AcDbLine
 62
7
  6
CONTINUOUS
 10
95.3576169608
 20
185.7615574947
 11
95.4769384441
 21
185.5358356357
  0
LINE
  5
36E
100
AcDbEntity
  8
KONSTRUKTIONSELEMENTE
100
AcDbLine
 62
7
  6
CONTINUOUS
 10
95.8598431754
 20
185.6419815632
 11
95.7007479016
 21
185.9429439717
  0
LINE
  5
36F
100
AcDbEntity
  8
KONSTRUKTIONSELEMENTE
100
AcDbLine
 62
7
  6
CONTINUOUS
 10
100.4814727485
 20
185.5373902524
 11
100.5814502108
 21
185.2937165675
  0
LINE
  5
370
100
AcDbEntity
  8
KONSTRUKTIONSELEMENTE
100
AcDbLine
 62
7
  6
CONTINUOUS
 10
102.5553020631
 20
187.0356628775
 11
102.4313696195
 21
187.4478552192
  0
LINE
  5
371
100
AcDbEntity
  8
KONSTRUKTIONSELEMENTE
100
AcDbLine
 62
7
  6
CONTINUOUS
 10
107.3151087049
 20
185.1249129834
 11
107.3813176867
 21
184.8464495898
  0
LINE
  5
372
100
AcDbEntity
  8
KONSTRUKTIONSELEMENTE
100
AcDbLine
 62
7
  6
CONTINUOUS
 10
109.6722339364
 20
185.5218916506
 11
109.606023515
 21
185.8003553898
  0
LINE
  5
373
100
AcDbEntity
  8
KONSTRUKTIONSELEMENTE
100
AcDbLine
 62
7
  6
CONTINUOUS
 10
106.6866271484
 20
186.0858090308
 11
106.5879534176
 21
186.5194892134
  0
LINE
  5
374
100
AcDbEntity
  8
FASEN
100
AcDbLine
 62
7
  6
CONTINUOUS
 10
124.1783297338
 20
84.3451205638
 11
124.1783297338
 21
76.8451205638
  0
LINE
  5
375
100
AcDbEntity
  8
0
100
AcDbLine
 62
7
  6
CONTINUOUS
 10
124.1783297338
 20
84.3451205638
 11
124.1783297338
 21
76.8451205638
  0
LINE
  5
376
100
AcDbEntity
  8
FASEN
100
AcDbLine
 62
7
  6
CONTINUOUS
 10
84.6783297353
 20
84.8451205653
 11
84.1783297353
 21
84.3451205653
  0
LINE
  5
377
100
AcDbEntity
  8
KONSTRUKTIONSELEMENTE
100
AcDbLine
 62
7
  6
CONTINUOUS
 10
82.9283297338
 20
147.5153333169
 11
82.5533296891
 21
147.4195886475
  0
LINE
  5
378
100
AcDbEntity
  8
KONSTRUKTIONSELEMENTE
100
AcDbLine
 62
7
  6
CONTINUOUS
 10
84.0533297338
 20
151.3451205638
 11
83.4908297338
 21
151.3451205638
  0
LINE
  5
379
100
AcDbEntity
  8
KONSTRUKTIONSELEMENTE
100
AcDbLine
 62
7
  6
CONTINUOUS
 10
81.2408297338
 20
151.3451205638
 11
80.6783297338
 21
151.3451205638
  0
LINE
  5
37A
100
AcDbEntity
  8
KONSTRUKTIONSELEMENTE
100
AcDbLine
 62
7
  6
CONTINUOUS
 10
80.6783297338
 20
152.8451205638
 11
81.2408297338
 21
152.8451205638
  0
LINE
  5
37B
100
AcDbEntity
  8
KONSTRUKTIONSELEMENTE
100
AcDbLine
 62
7
  6
CONTINUOUS
 10
83.5845796444
 20
152.8451205638
 11
84.2408298232
 21
152.8451205638
  0
LINE
  5
37C
100
AcDbEntity
  8
KONSTRUKTIONSELEMENTE
100
AcDbLine
 62
7
  6
CONTINUOUS
 10
81.2408297338
 20
154.8557588902
 11
82.8345796891
 21
154.8557588902
  0
LINE
  5
37D
100
AcDbEntity
  8
KONSTRUKTIONSELEMENTE
100
AcDbLine
 62
7
  6
CONTINUOUS
 10
83.0220796444
 20
155.4302269069
 11
81.2408297338
 21
155.4302269069
  0
LINE
  5
37E
100
AcDbEntity
  8
KONSTRUKTIONSELEMENTE
100
AcDbLine
 62
7
  6
CONTINUOUS
 10
83.3970798232
 20
157.2493758944
 11
82.9283297338
 21
157.3451205638
  0
LINE
  5
37F
100
AcDbEntity
  8
KONSTRUKTIONSELEMENTE
100
AcDbLine
 62
7
  6
CONTINUOUS
 10
90.2435010895
 20
183.5515485008
 11
92.6774581872
 21
180.3773001099
  0
LINE
  5
380
100
AcDbEntity
  8
KONSTRUKTIONSELEMENTE
100
AcDbLine
 62
7
  6
CONTINUOUS
 10
92.9854583323
 20
180.6134691323
 11
91.8979455711
 21
182.0317503484
  0
LINE
  5
381
100
AcDbEntity
  8
KONSTRUKTIONSELEMENTE
100
AcDbLine
 62
7
  6
CONTINUOUS
 10
91.5872276808
 20
182.4369734989
 11
90.8104328099
 21
183.4500315644
  0
LINE
  5
382
100
AcDbEntity
  8
KONSTRUKTIONSELEMENTE
100
AcDbLine
 62
7
  6
CONTINUOUS
 10
92.4044845892
 20
184.0288459696
 11
92.5598436794
 21
183.8262342051
  0
LINE
  5
383
100
AcDbEntity
  8
KONSTRUKTIONSELEMENTE
100
AcDbLine
 62
7
  6
CONTINUOUS
 10
92.9196301396
 20
183.9948660357
 11
92.7124847343
 21
184.265014992
  0
LINE
  5
384
100
AcDbEntity
  8
KONSTRUKTIONSELEMENTE
100
AcDbLine
 62
7
  6
CONTINUOUS
 10
104.8837842951
 20
185.3615678246
 11
104.7729624181
 21
185.6254693836
  0
LINE
  5
385
100
AcDbEntity
  8
KONSTRUKTIONSELEMENTE
100
AcDbLine
 62
7
  6
CONTINUOUS
 10
102.4313696195
 20
187.4478552192
 11
102.3313921237
 21
187.6915291401
  0
LINE
  5
386
100
AcDbEntity
  8
KONSTRUKTIONSELEMENTE
100
AcDbLine
 62
7
  6
CONTINUOUS
 10
109.6292077624
 20
187.2826941729
 11
109.6954167442
 21
187.0042307793
  0
LINE
  5
387
100
AcDbEntity
  8
KONSTRUKTIONSELEMENTE
100
AcDbLine
 62
7
  6
CONTINUOUS
 10
81.2408297338
 20
156.8663972166
 11
83.0220796444
 21
156.8663972166
  0
LINE
  5
388
100
AcDbEntity
  8
KONSTRUKTIONSELEMENTE
100
AcDbLine
 62
7
  6
CONTINUOUS
 10
82.9283297338
 20
157.3451205638
 11
80.6783297338
 21
157.3451205638
  0
LINE
  5
389
100
AcDbEntity
  8
KONSTRUKTIONSELEMENTE
100
AcDbLine
 62
7
  6
CONTINUOUS
 10
100.5814502108
 20
185.2937165675
 11
100.7574479638
 21
184.9748874828
  0
LINE
  5
38A
100
AcDbEntity
  8
KONSTRUKTIONSELEMENTE
100
AcDbLine
 62
7
  6
CONTINUOUS
 10
102.3313921237
 20
187.6915291401
 11
102.155394379
 21
188.0103581658
  0
LINE
  5
38B
100
AcDbEntity
  8
KONSTRUKTIONSELEMENTE
100
AcDbLine
 62
7
  6
CONTINUOUS
 10
104.4966504977
 20
185.3892683551
 11
104.6659210935
 21
185.0358606939
  0
LINE
  5
38C
100
AcDbEntity
  8
KONSTRUKTIONSELEMENTE
100
AcDbLine
 62
7
  6
CONTINUOUS
 10
106.620615846
 20
187.8823357062
 11
106.4513452481
 21
188.2357433377
  0
LINE
  5
38D
100
AcDbEntity
  8
KONSTRUKTIONSELEMENTE
100
AcDbLine
 62
7
  6
CONTINUOUS
 10
107.7355496665
 20
184.9364704818
 11
107.6494753257
 21
185.1321785006
  0
LINE
  5
38E
100
AcDbEntity
  8
KONSTRUKTIONSELEMENTE
100
AcDbLine
 62
7
  6
CONTINUOUS
 10
106.2334820486
 20
187.9100362368
 11
106.3443039299
 21
187.6461347372
  0
LINE
  5
38F
100
AcDbEntity
  8
KONSTRUKTIONSELEMENTE
100
AcDbLine
 62
7
  6
CONTINUOUS
 10
116.8605798851
 20
184.108845409
 11
116.7922703929
 21
184.4658790014
  0
LINE
  5
390
100
AcDbEntity
  8
KONSTRUKTIONSELEMENTE
100
AcDbLine
 62
7
  6
CONTINUOUS
 10
78.853332603
 20
160.8451205638
 11
86.9893093705
 21
160.8451205638
  0
LINE
  5
391
100
AcDbEntity
  8
KONSTRUKTIONSELEMENTE
100
AcDbLine
 62
7
  6
CONTINUOUS
 10
121.367350097
 20
160.8451205638
 11
129.5033268645
 21
160.8451205638
  0
LINE
  5
392
100
AcDbEntity
  8
KONSTRUKTIONSELEMENTE
100
AcDbLine
 62
7
  6
CONTINUOUS
 10
95.1811069898
 20
185.9570480059
 11
95.3576169608
 21
185.7615574947
  0
LINE
  5
393
100
AcDbEntity
  8
KONSTRUKTIONSELEMENTE
100
AcDbLine
 62
7
  6
CONTINUOUS
 10
95.7007479016
 20
185.9429439717
 11
95.5242379306
 21
186.1384344828
  0
LINE
  5
394
100
AcDbEntity
  8
KONSTRUKTIONSELEMENTE
100
AcDbLine
 62
7
  6
CONTINUOUS
 10
101.1297305215
 20
185.1137712056
 11
100.8016900051
 21
185.5829106592
  0
LINE
  5
395
100
AcDbEntity
  8
KONSTRUKTIONSELEMENTE
100
AcDbLine
 62
7
  6
CONTINUOUS
 10
101.7831118213
 20
187.871474443
 11
102.1111523629
 21
187.4023348123
  0
LINE
  5
396
100
AcDbEntity
  8
KONSTRUKTIONSELEMENTE
100
AcDbLine
 62
7
  6
CONTINUOUS
 10
110.572290641
 20
183.8294001671
 11
110.6899864618
 21
183.5996610721
  0
LINE
  5
397
100
AcDbEntity
  8
KONSTRUKTIONSELEMENTE
100
AcDbLine
 62
7
  6
CONTINUOUS
 10
111.0246036595
 20
183.7416840514
 11
110.9069078331
 21
183.9714231325
  0
LINE
  5
398
100
AcDbEntity
  8
KONSTRUKTIONSELEMENTE
100
AcDbLine
 62
7
  6
CONTINUOUS
 10
110.0264754799
 20
187.2748614301
 11
109.8543282103
 21
187.6662770062
  0
LINE
  5
399
100
AcDbEntity
  8
KONSTRUKTIONSELEMENTE
100
AcDbLine
 62
7
  6
CONTINUOUS
 10
115.8952333127
 20
182.7069378923
 11
115.836944296
 21
182.8504074253
  0
LINE
  5
39A
100
AcDbEntity
  8
KONSTRUKTIONSELEMENTE
100
AcDbLine
 62
7
  6
CONTINUOUS
 10
92.1977923355
 20
184.1920960787
 11
92.4044845892
 21
184.0288459696
  0
LINE
  5
39B
100
AcDbEntity
  8
KONSTRUKTIONSELEMENTE
100
AcDbLine
 62
7
  6
CONTINUOUS
 10
92.7124847343
 20
184.265014992
 11
92.5057924806
 21
184.428265101
  0
LINE
  5
39C
100
AcDbEntity
  8
KONSTRUKTIONSELEMENTE
100
AcDbLine
 62
7
  6
CONTINUOUS
 10
100.7574479638
 20
184.9748874828
 11
100.9855117467
 21
184.7494218478
  0
LINE
  5
39D
100
AcDbEntity
  8
KONSTRUKTIONSELEMENTE
100
AcDbLine
 62
7
  6
CONTINUOUS
 10
107.3813176867
 20
184.8464495898
 11
107.5302917053
 21
184.6356437435
  0
LINE
  5
39E
100
AcDbEntity
  8
KONSTRUKTIONSELEMENTE
100
AcDbLine
 62
7
  6
CONTINUOUS
 10
109.1458561266
 20
185.8232859891
 11
109.2948301521
 21
185.6124801718
  0
LINE
  5
39F
100
AcDbEntity
  8
KONSTRUKTIONSELEMENTE
100
AcDbLine
 62
7
  6
CONTINUOUS
 10
106.1947455449
 20
186.4623004025
 11
106.3116415014
 21
186.2832882444
  0
LINE
  5
3A0
100
AcDbEntity
  8
KONSTRUKTIONSELEMENTE
100
AcDbLine
 62
7
  6
CONTINUOUS
 10
106.5879534176
 20
186.5194892134
 11
106.4126087445
 21
186.7880075033
  0
LINE
  5
3A1
100
AcDbEntity
  8
KONSTRUKTIONSELEMENTE
100
AcDbLine
 62
7
  6
CONTINUOUS
 10
104.6659210935
 20
185.0358606939
 11
104.9703098719
 21
184.7581089068
  0
LINE
  5
3A2
100
AcDbEntity
  8
KONSTRUKTIONSELEMENTE
100
AcDbLine
 62
7
  6
CONTINUOUS
 10
102.155394379
 20
188.0103581658
 11
101.9273306004
 21
188.2358237713
  0
LINE
  5
3A3
100
AcDbEntity
  8
KONSTRUKTIONSELEMENTE
100
AcDbLine
 62
7
  6
CONTINUOUS
 10
105.0652030434
 20
185.1779388762
 11
104.8837842951
 21
185.3615678246
  0
LINE
  5
3A4
100
AcDbEntity
  8
KONSTRUKTIONSELEMENTE
100
AcDbLine
 62
7
  6
CONTINUOUS
 10
106.0133267966
 20
186.6459293508
 11
106.1947455449
 21
186.4623004025
  0
LINE
  5
3A5
100
AcDbEntity
  8
KONSTRUKTIONSELEMENTE
100
AcDbLine
 62
7
  6
CONTINUOUS
 10
107.5302917053
 20
184.6356437435
 11
107.7421668362
 21
184.4097397024
  0
LINE
  5
3A6
100
AcDbEntity
  8
KONSTRUKTIONSELEMENTE
100
AcDbLine
 62
7
  6
CONTINUOUS
 10
107.8414865147
 20
184.8235186449
 11
107.7355496665
 21
184.9364704818
  0
LINE
  5
3A7
100
AcDbEntity
  8
KONSTRUKTIONSELEMENTE
100
AcDbLine
 62
7
  6
CONTINUOUS
 10
109.4802337368
 20
187.4934999903
 11
109.6292077624
 21
187.2826941729
  0
LINE
  5
3A8
100
AcDbEntity
  8
KONSTRUKTIONSELEMENTE
100
AcDbLine
 62
7
  6
CONTINUOUS
 10
115.3724757534
 20
182.8602421488
 11
115.4840417201
 21
182.680086372
  0
LINE
  5
3A9
100
AcDbEntity
  8
KONSTRUKTIONSELEMENTE
100
AcDbLine
 62
7
  6
CONTINUOUS
 10
116.3378223259
 20
184.2621496656
 11
116.4493882925
 21
184.0819938888
  0
LINE
  5
3AA
100
AcDbEntity
  8
KONSTRUKTIONSELEMENTE
100
AcDbLine
 62
7
  6
CONTINUOUS
 10
92.5057924806
 20
184.428265101
 11
92.1446471478
 21
184.5803293569
  0
LINE
  5
3AB
100
AcDbEntity
  8
KONSTRUKTIONSELEMENTE
100
AcDbLine
 62
7
  6
CONTINUOUS
 10
100.9855117467
 20
184.7494218478
 11
101.3416625777
 21
184.5421644037
  0
LINE
  5
3AC
100
AcDbEntity
  8
KONSTRUKTIONSELEMENTE
100
AcDbLine
 62
7
  6
CONTINUOUS
 10
95.5242379306
 20
186.1384344828
 11
95.1935772978
 21
186.3487034421
  0
LINE
  5
3AD
100
AcDbEntity
  8
KONSTRUKTIONSELEMENTE
100
AcDbLine
 62
7
  6
CONTINUOUS
 10
101.3458164431
 20
184.9725648763
 11
101.1297305215
 21
185.1137712056
  0
LINE
  5
3AE
100
AcDbEntity
  8
KONSTRUKTIONSELEMENTE
100
AcDbLine
 62
7
  6
CONTINUOUS
 10
109.606023515
 20
185.8003553898
 11
109.3312487079
 21
186.0413572657
  0
LINE
  5
3AF
100
AcDbEntity
  8
KONSTRUKTIONSELEMENTE
100
AcDbLine
 62
7
  6
CONTINUOUS
 10
106.4126087445
 20
186.7880075033
 11
106.1082184877
 21
187.0657593739
  0
LINE
  5
3B0
100
AcDbEntity
  8
KONSTRUKTIONSELEMENTE
100
AcDbLine
 62
7
  6
CONTINUOUS
 10
106.4513452481
 20
188.2357433377
 11
106.1469564682
 21
188.5134951025
  0
LINE
  5
3B1
100
AcDbEntity
  8
KONSTRUKTIONSELEMENTE
100
AcDbLine
 62
7
  6
CONTINUOUS
 10
110.6899864618
 20
183.5996610721
 11
110.8390391596
 21
183.4490411419
  0
LINE
  5
3B2
100
AcDbEntity
  8
KONSTRUKTIONSELEMENTE
100
AcDbLine
 62
7
  6
CONTINUOUS
 10
106.0520633003
 20
188.0936651852
 11
106.2334820486
 21
187.9100362368
  0
LINE
  5
3B3
100
AcDbEntity
  8
KONSTRUKTIONSELEMENTE
100
AcDbLine
 62
7
  6
CONTINUOUS
 10
109.8543282103
 20
187.6662770062
 11
109.6424545138
 21
187.89218068
  0
LINE
  5
3B4
100
AcDbEntity
  8
KONSTRUKTIONSELEMENTE
100
AcDbLine
 62
7
  6
CONTINUOUS
 10
116.7922703929
 20
184.4658790014
 11
116.5741493071
 21
184.7194081055
  0
LINE
  5
3B5
100
AcDbEntity
  8
KONSTRUKTIONSELEMENTE
100
AcDbLine
 62
7
  6
CONTINUOUS
 10
114.620240643
 20
181.3115871439
 11
114.9781540791
 21
181.3751257661
  0
LINE
  5
3B6
100
AcDbEntity
  8
KONSTRUKTIONSELEMENTE
100
AcDbLine
 62
7
  6
CONTINUOUS
 10
91.9915529414
 20
184.2484474172
 11
92.1977923355
 21
184.1920960787
  0
LINE
  5
3B7
100
AcDbEntity
  8
KONSTRUKTIONSELEMENTE
100
AcDbLine
 62
7
  6
CONTINUOUS
 10
94.9871825375
 20
186.0470670034
 11
95.1811069898
 21
185.9570480059
  0
LINE
  5
3B8
100
AcDbEntity
  8
KONSTRUKTIONSELEMENTE
100
AcDbLine
 62
7
  6
CONTINUOUS
 10
105.252695867
 20
185.0791992694
 11
105.0652030434
 21
185.1779388762
  0
LINE
  5
3B9
100
AcDbEntity
  8
KONSTRUKTIONSELEMENTE
100
AcDbLine
 62
7
  6
CONTINUOUS
 10
108.1361252551
 20
184.6652725474
 11
107.8414865147
 21
184.8235186449
  0
LINE
  5
3BA
100
AcDbEntity
  8
KONSTRUKTIONSELEMENTE
100
AcDbLine
 62
7
  6
CONTINUOUS
 10
101.9273306004
 20
188.2358237713
 11
101.5711797725
 21
188.4430811933
  0
LINE
  5
3BB
100
AcDbEntity
  8
KONSTRUKTIONSELEMENTE
100
AcDbLine
 62
7
  6
CONTINUOUS
 10
107.7421668362
 20
184.4097397024
 11
107.973905904
 21
184.2665914541
  0
LINE
  5
3BC
100
AcDbEntity
  8
KONSTRUKTIONSELEMENTE
100
AcDbLine
 62
7
  6
CONTINUOUS
 10
101.5670258998
 20
188.0126807723
 11
101.7831118213
 21
187.871474443
  0
LINE
  5
3BD
100
AcDbEntity
  8
KONSTRUKTIONSELEMENTE
100
AcDbLine
 62
7
  6
CONTINUOUS
 10
110.8390391596
 20
183.4490411419
 11
111.1685014322
 21
183.2269204463
  0
LINE
  5
3BE
100
AcDbEntity
  8
KONSTRUKTIONSELEMENTE
100
AcDbLine
 62
7
  6
CONTINUOUS
 10
113.0269186015
 20
182.3054087962
 11
114.3055849093
 21
181.4249255099
  0
LINE
  5
3BF
100
AcDbEntity
  8
KONSTRUKTIONSELEMENTE
100
AcDbLine
 62
7
  6
CONTINUOUS
 10
114.6484658241
 20
181.8088115113
 11
113.6361891434
 21
182.5058602198
  0
LINE
  5
3C0
100
AcDbEntity
  8
KONSTRUKTIONSELEMENTE
100
AcDbLine
 62
7
  6
CONTINUOUS
 10
114.3601990727
 20
183.5572908574
 11
115.3724757534
 21
182.8602421488
  0
LINE
  5
3C1
100
AcDbEntity
  8
KONSTRUKTIONSELEMENTE
100
AcDbLine
 62
7
  6
CONTINUOUS
 10
111.2939289401
 20
183.5433971053
 11
111.0246036595
 21
183.7416840514
  0
LINE
  5
3C2
100
AcDbEntity
  8
KONSTRUKTIONSELEMENTE
100
AcDbLine
 62
7
  6
CONTINUOUS
 10
105.6094592841
 20
184.6270519716
 11
105.9381443655
 21
184.6888575804
  0
LINE
  5
3C3
100
AcDbEntity
  8
KONSTRUKTIONSELEMENTE
100
AcDbLine
 62
7
  6
CONTINUOUS
 10
109.2849036594
 20
186.4025764377
 11
108.8677720086
 21
186.3276534021
  0
LINE
  5
3C4
100
AcDbEntity
  8
KONSTRUKTIONSELEMENTE
100
AcDbLine
 62
7
  6
CONTINUOUS
 10
108.4771104697
 20
184.1458068744
 11
108.7485774074
 21
184.1681701973
  0
LINE
  5
3C5
100
AcDbEntity
  8
KONSTRUKTIONSELEMENTE
100
AcDbLine
 62
7
  6
CONTINUOUS
 10
103.4118617693
 20
184.6689280131
 11
103.7351007471
 21
184.6802099996
  0
LINE
  5
3C6
100
AcDbEntity
  8
KONSTRUKTIONSELEMENTE
100
AcDbLine
 62
7
  6
CONTINUOUS
 10
108.8478970859
 20
184.5819491398
 11
108.5135290393
 21
184.5746840262
  0
LINE
  5
3C7
100
AcDbEntity
  8
KONSTRUKTIONSELEMENTE
100
AcDbLine
 62
7
  6
CONTINUOUS
 10
115.836944296
 20
182.8504074253
 11
115.9917679564
 21
182.8471286243
  0
LINE
  5
3C8
100
AcDbEntity
  8
KONSTRUKTIONSELEMENTE
100
AcDbLine
 62
7
  6
CONTINUOUS
 10
105.2868482785
 20
184.6501357119
 11
105.6094592841
 21
184.6270519716
  0
LINE
  5
3C9
100
AcDbEntity
  8
KONSTRUKTIONSELEMENTE
100
AcDbLine
 62
7
  6
CONTINUOUS
 10
101.3416625777
 20
184.5421644037
 11
101.7379008506
 21
184.5125295665
  0
LINE
  5
3CA
100
AcDbEntity
  8
KONSTRUKTIONSELEMENTE
100
AcDbLine
 62
7
  6
CONTINUOUS
 10
101.6780115568
 20
184.9338260069
 11
101.3458164431
 21
184.9725648763
  0
LINE
  5
3CB
100
AcDbEntity
  8
KONSTRUKTIONSELEMENTE
100
AcDbLine
 62
7
  6
CONTINUOUS
 10
92.1446471478
 20
184.5803293569
 11
91.7839548215
 21
184.6254949547
  0
LINE
  5
3CC
100
AcDbEntity
  8
KONSTRUKTIONSELEMENTE
100
AcDbLine
 62
7
  6
CONTINUOUS
 10
114.8565664345
 20
181.7688464665
 11
114.6484658241
 21
181.8088115113
  0
LINE
  5
3CD
100
AcDbEntity
  8
KONSTRUKTIONSELEMENTE
100
AcDbLine
 62
7
  6
CONTINUOUS
 10
115.8701802949
 20
183.2408493002
 11
115.6620796846
 21
183.2808143449
  0
LINE
  5
3CE
100
AcDbEntity
  8
KONSTRUKTIONSELEMENTE
100
AcDbLine
 62
7
  6
CONTINUOUS
 10
107.973905904
 20
184.2665914541
 11
108.4771104697
 21
184.1458068744
  0
LINE
  5
3CF
100
AcDbEntity
  8
KONSTRUKTIONSELEMENTE
100
AcDbLine
 62
7
  6
CONTINUOUS
 10
108.5135290393
 20
184.5746840262
 11
108.1361252551
 21
184.6652725474
  0
LINE
  5
3D0
100
AcDbEntity
  8
KONSTRUKTIONSELEMENTE
100
AcDbLine
 62
7
  6
CONTINUOUS
 10
107.6263035213
 20
185.3127879138
 11
107.311799408
 21
185.3882785785
  0
LINE
  5
3D1
100
AcDbEntity
  8
KONSTRUKTIONSELEMENTE
100
AcDbLine
 62
7
  6
CONTINUOUS
 10
95.1935772978
 20
186.3487034421
 11
94.8455018564
 21
186.4535007147
  0
LINE
  5
3D2
100
AcDbEntity
  8
KONSTRUKTIONSELEMENTE
100
AcDbLine
 62
7
  6
CONTINUOUS
 10
104.9703098719
 20
184.7581089068
 11
105.2868482785
 21
184.6501357119
  0
LINE
  5
3D3
100
AcDbEntity
  8
KONSTRUKTIONSELEMENTE
100
AcDbLine
 62
7
  6
CONTINUOUS
 10
106.1082184877
 20
187.0657593739
 11
105.7916815573
 21
187.1737324557
  0
LINE
  5
3D4
100
AcDbEntity
  8
KONSTRUKTIONSELEMENTE
100
AcDbLine
 62
7
  6
CONTINUOUS
 10
114.3055849093
 20
181.4249255099
 11
114.620240643
 21
181.3115871439
  0
LINE
  5
3D5
100
AcDbEntity
  8
KONSTRUKTIONSELEMENTE
100
AcDbLine
 62
7
  6
CONTINUOUS
 10
110.7234913676
 20
185.96659567
 11
111.2045831082
 21
185.775927144
  0
LINE
  5
3D6
100
AcDbEntity
  8
KONSTRUKTIONSELEMENTE
100
AcDbLine
 62
7
  6
CONTINUOUS
 10
111.5052652741
 20
185.6567593835
 11
112.1667679659
 21
185.3945895465
  0
LINE
  5
3D7
100
AcDbEntity
  8
KONSTRUKTIONSELEMENTE
100
AcDbLine
 62
7
  6
CONTINUOUS
 10
108.7883162756
 20
185.9966302887
 11
109.1458561266
 21
185.8232859891
  0
LINE
  5
3D8
100
AcDbEntity
  8
KONSTRUKTIONSELEMENTE
100
AcDbLine
 62
7
  6
CONTINUOUS
 10
112.423617653
 20
184.2333541356
 11
113.226500373
 21
183.8143923332
  0
LINE
  5
3D9
100
AcDbEntity
  8
KONSTRUKTIONSELEMENTE
100
AcDbLine
 62
7
  6
CONTINUOUS
 10
113.4233615529
 20
184.1916497317
 11
112.620478833
 21
184.610611534
  0
LINE
  5
3DA
100
AcDbEntity
  8
KONSTRUKTIONSELEMENTE
100
AcDbLine
 62
7
  6
CONTINUOUS
 10
105.8258339731
 20
186.7446689577
 11
106.0133267966
 21
186.6459293508
  0
LINE
  5
3DB
100
AcDbEntity
  8
KONSTRUKTIONSELEMENTE
100
AcDbLine
 62
7
  6
CONTINUOUS
 10
105.8645704768
 20
188.192404792
 11
106.0520633003
 21
188.0936651852
  0
LINE
  5
3DC
100
AcDbEntity
  8
KONSTRUKTIONSELEMENTE
100
AcDbLine
 62
7
  6
CONTINUOUS
 10
109.1855949965
 20
187.6517460878
 11
109.4802337368
 21
187.4934999903
  0
LINE
  5
3DD
100
AcDbEntity
  8
KONSTRUKTIONSELEMENTE
100
AcDbLine
 62
7
  6
CONTINUOUS
 10
115.6620796846
 20
183.2808143449
 11
114.6498030039
 21
183.9778630535
  0
LINE
  5
3DE
100
AcDbEntity
  8
KONSTRUKTIONSELEMENTE
100
AcDbLine
 62
7
  6
CONTINUOUS
 10
115.3255456451
 20
184.9591983741
 11
116.3378223259
 21
184.2621496656
  0
LINE
  5
3DF
100
AcDbEntity
  8
KONSTRUKTIONSELEMENTE
100
AcDbLine
 62
7
  6
CONTINUOUS
 10
116.5741493071
 20
184.7194081055
 11
115.2954829993
 21
185.5998913918
  0
LINE
  5
3E0
100
AcDbEntity
  8
FASEN
100
AcDbLine
 62
7
  6
CONTINUOUS
 10
123.678329733
 20
76.345120563
 11
124.178329733
 21
76.845120563
  0
LINE
  5
3E1
100
AcDbEntity
  8
KONSTRUKTIONSELEMENTE
100
AcDbLine
 62
7
  6
CONTINUOUS
 10
91.7857665538
 20
184.1979000977
 11
91.9915529414
 21
184.2484474172
  0
LINE
  5
3E2
100
AcDbEntity
  8
KONSTRUKTIONSELEMENTE
100
AcDbLine
 62
7
  6
CONTINUOUS
 10
94.8455018564
 20
186.4535007147
 11
94.5197857243
 21
186.3775859243
  0
LINE
  5
3E3
100
AcDbEntity
  8
KONSTRUKTIONSELEMENTE
100
AcDbLine
 62
7
  6
CONTINUOUS
 10
105.4690705517
 20
187.1968161959
 11
105.1403839941
 21
187.1350107003
  0
LINE
  5
3E4
100
AcDbEntity
  8
KONSTRUKTIONSELEMENTE
100
AcDbLine
 62
7
  6
CONTINUOUS
 10
105.5723298472
 20
188.6399352399
 11
105.2436432896
 21
188.5781297443
  0
LINE
  5
3E5
100
AcDbEntity
  8
KONSTRUKTIONSELEMENTE
100
AcDbLine
 62
7
  6
CONTINUOUS
 10
94.7758432765
 20
186.0316143143
 11
94.9871825375
 21
186.0470670034
  0
LINE
  5
3E6
100
AcDbEntity
  8
KONSTRUKTIONSELEMENTE
100
AcDbLine
 62
7
  6
CONTINUOUS
 10
103.7202574758
 20
185.1054829654
 11
103.397018498
 21
185.0942009789
  0
LINE
  5
3E7
100
AcDbEntity
  8
KONSTRUKTIONSELEMENTE
100
AcDbLine
 62
7
  6
CONTINUOUS
 10
108.5996253869
 20
187.7048730912
 11
108.9339919938
 21
187.7121385504
  0
LINE
  5
3E8
100
AcDbEntity
  8
KONSTRUKTIONSELEMENTE
100
AcDbLine
 62
7
  6
CONTINUOUS
 10
109.0962127707
 20
188.1108192402
 11
108.6360439426
 21
188.1337501851
  0
LINE
  5
3E9
100
AcDbEntity
  8
KONSTRUKTIONSELEMENTE
100
AcDbLine
 62
7
  6
CONTINUOUS
 10
105.7043524562
 20
185.0468819485
 11
105.252695867
 21
185.0791992694
  0
LINE
  5
3EA
100
AcDbEntity
  8
KONSTRUKTIONSELEMENTE
100
AcDbLine
 62
7
  6
CONTINUOUS
 10
105.3741773838
 20
186.7769862785
 11
105.8258339731
 21
186.7446689577
  0
LINE
  5
3EB
100
AcDbEntity
  8
KONSTRUKTIONSELEMENTE
100
AcDbLine
 62
7
  6
CONTINUOUS
 10
105.7916815573
 20
187.1737324557
 11
105.4690705517
 21
187.1968161959
  0
LINE
  5
3EC
100
AcDbEntity
  8
KONSTRUKTIONSELEMENTE
100
AcDbLine
 62
7
  6
CONTINUOUS
 10
106.3443039299
 20
187.6461347372
 11
106.6669164123
 21
187.6230508913
  0
LINE
  5
3ED
100
AcDbEntity
  8
KONSTRUKTIONSELEMENTE
100
AcDbLine
 62
7
  6
CONTINUOUS
 10
105.4774366793
 20
188.2201053225
 11
105.8645704768
 21
188.192404792
  0
LINE
  5
3EE
100
AcDbEntity
  8
KONSTRUKTIONSELEMENTE
100
AcDbLine
 62
7
  6
CONTINUOUS
 10
105.830418061
 20
188.62146829
 11
105.5723298472
 21
188.6399352399
  0
LINE
  5
3EF
100
AcDbEntity
  8
KONSTRUKTIONSELEMENTE
100
AcDbLine
 62
7
  6
CONTINUOUS
 10
101.5711797725
 20
188.4430811933
 11
101.1749415007
 21
188.472716023
  0
LINE
  5
3F0
100
AcDbEntity
  8
KONSTRUKTIONSELEMENTE
100
AcDbLine
 62
7
  6
CONTINUOUS
 10
101.2348307861
 20
188.0514196417
 11
101.5670258998
 21
188.0126807723
  0
LINE
  5
3F1
100
AcDbEntity
  8
KONSTRUKTIONSELEMENTE
100
AcDbLine
 62
7
  6
CONTINUOUS
 10
108.5367132729
 20
186.0570227514
 11
108.7883162756
 21
185.9966302887
  0
LINE
  5
3F2
100
AcDbEntity
  8
KONSTRUKTIONSELEMENTE
100
AcDbLine
 62
7
  6
CONTINUOUS
 10
108.8677720086
 20
186.3276534021
 11
108.6161690059
 21
186.3880458648
  0
LINE
  5
3F3
100
AcDbEntity
  8
KONSTRUKTIONSELEMENTE
100
AcDbLine
 62
7
  6
CONTINUOUS
 10
107.8712989336
 20
187.4420751833
 11
108.1858016073
 21
187.3665848641
  0
LINE
  5
3F4
100
AcDbEntity
  8
KONSTRUKTIONSELEMENTE
100
AcDbLine
 62
7
  6
CONTINUOUS
 10
108.9339919938
 20
187.7121385504
 11
109.1855949965
 21
187.6517460878
  0
LINE
  5
3F5
100
AcDbEntity
  8
KONSTRUKTIONSELEMENTE
100
AcDbLine
 62
7
  6
CONTINUOUS
 10
109.2220135522
 20
188.0806231816
 11
109.0962127707
 21
188.1108192402
  0
LINE
  5
3F6
100
AcDbEntity
  8
KONSTRUKTIONSELEMENTE
100
AcDbLine
 62
7
  6
CONTINUOUS
 10
106.1469564682
 20
188.5134951025
 11
105.830418061
 21
188.62146829
  0
LINE
  5
3F7
100
AcDbEntity
  8
KONSTRUKTIONSELEMENTE
100
AcDbLine
 62
7
  6
CONTINUOUS
 10
112.2921954628
 20
185.7110661778
 11
111.630692771
 21
185.9732360148
  0
LINE
  5
3F8
100
AcDbEntity
  8
KONSTRUKTIONSELEMENTE
100
AcDbLine
 62
7
  6
CONTINUOUS
 10
111.3300106052
 20
186.0924037754
 11
110.8489188646
 21
186.2830723014
  0
LINE
  5
3F9
100
AcDbEntity
  8
KONSTRUKTIONSELEMENTE
100
AcDbLine
 62
7
  6
CONTINUOUS
 10
111.8815478526
 20
186.6061894991
 11
111.5808656868
 21
186.7253572596
  0
LINE
  5
3FA
100
AcDbEntity
  8
KONSTRUKTIONSELEMENTE
100
AcDbLine
 62
7
  6
CONTINUOUS
 10
109.6424545138
 20
187.89218068
 11
109.2220135522
 21
188.0806231816
  0
LINE
  5
3FB
100
AcDbEntity
  8
FASEN
100
AcDbLine
 62
7
  6
CONTINUOUS
 10
219.4146085525
 20
76.3451205638
 11
180.4146085525
 21
76.3451205638
  0
LINE
  5
3FC
100
AcDbEntity
  8
FASEN
100
AcDbLine
 62
7
  6
CONTINUOUS
 10
219.9146085525
 20
76.8451205638
 11
179.9146085525
 21
76.8451205638
  0
LINE
  5
3FD
100
AcDbEntity
  8
FASEN
100
AcDbLine
 62
7
  6
CONTINUOUS
 10
180.4146085525
 20
76.3451205638
 11
179.9146085525
 21
76.8451205638
  0
LINE
  5
3FE
100
AcDbEntity
  8
FASEN
100
AcDbLine
 62
7
  6
CONTINUOUS
 10
179.9146085525
 20
84.3451205638
 11
219.9146085525
 21
84.3451205638
  0
LINE
  5
3FF
100
AcDbEntity
  8
FASEN
100
AcDbLine
 62
7
  6
CONTINUOUS
 10
180.4146085525
 20
84.8451205638
 11
219.4146085525
 21
84.8451205638
  0
LINE
  5
400
100
AcDbEntity
  8
RUNDUNGEN
100
AcDbLine
 62
7
  6
CONTINUOUS
 10
211.3164514528
 20
102.2451205638
 11
188.5127645796
 21
102.2451205638
  0
LINE
  5
401
100
AcDbEntity
  8
0
100
AcDbLine
 62
7
  6
CONTINUOUS
 10
191.1096085525
 20
109.7051205638
 11
189.1096085525
 21
110.3717871908
  0
LINE
  5
402
100
AcDbEntity
  8
0
100
AcDbLine
 62
7
  6
CONTINUOUS
 10
189.1096085525
 20
110.1217871908
 11
190.8542894042
 21
109.5384538773
  0
LINE
  5
403
100
AcDbEntity
  8
0
100
AcDbLine
 62
7
  6
CONTINUOUS
 10
179.9146085525
 20
84.3451205638
 11
179.9146085525
 21
76.8451205638
  0
LINE
  5
404
100
AcDbEntity
  8
0
100
AcDbLine
 62
7
  6
CONTINUOUS
 10
189.1096085525
 20
110.7051205638
 11
191.1096085525
 21
110.7051205638
  0
LINE
  5
405
100
AcDbEntity
  8
0
100
AcDbLine
 62
7
  6
CONTINUOUS
 10
191.1096085525
 20
110.9551205638
 11
189.1096085525
 21
110.9551205638
  0
LINE
  5
406
100
AcDbEntity
  8
0
100
AcDbLine
 62
7
  6
CONTINUOUS
 10
189.1096085525
 20
111.2884538177
 11
191.1096085525
 21
111.2884538177
  0
LINE
  5
407
100
AcDbEntity
  8
0
100
AcDbLine
 62
7
  6
CONTINUOUS
 10
191.1096085525
 20
111.5384538177
 11
190.2159915185
 21
111.5384538177
  0
LINE
  5
408
100
AcDbEntity
  8
0
100
AcDbLine
 62
7
  6
CONTINUOUS
 10
189.9606724
 20
111.5384538177
 11
189.3223744845
 21
111.5384538177
  0
LINE
  5
409
100
AcDbEntity
  8
0
100
AcDbLine
 62
7
  6
CONTINUOUS
 10
211.4663361072
 20
112.2712931505
 11
211.0130854361
 21
112.2712931505
  0
LINE
  5
40A
100
AcDbEntity
  8
0
100
AcDbLine
 62
7
  6
CONTINUOUS
 10
208.934624467
 20
112.2712931505
 11
208.4813737959
 21
112.2712931505
  0
LINE
  5
40B
100
AcDbEntity
  8
0
100
AcDbLine
 62
7
  6
CONTINUOUS
 10
189.577693603
 20
112.5801205638
 11
189.7053532815
 21
112.5801205638
  0
LINE
  5
40C
100
AcDbEntity
  8
0
100
AcDbLine
 62
7
  6
CONTINUOUS
 10
189.7479064679
 20
112.8301205638
 11
189.577693603
 21
112.8301205638
  0
LINE
  5
40D
100
AcDbEntity
  8
0
100
AcDbLine
 62
7
  6
CONTINUOUS
 10
189.7053532815
 20
112.5801205638
 11
189.8330128408
 21
112.5384538177
  0
LINE
  5
40E
100
AcDbEntity
  8
0
100
AcDbLine
 62
7
  6
CONTINUOUS
 10
189.8755660272
 20
112.7884540561
 11
189.7479064679
 21
112.8301205638
  0
LINE
  5
40F
100
AcDbEntity
  8
0
100
AcDbLine
 62
7
  6
CONTINUOUS
 10
190.0457787728
 20
112.6634538177
 11
189.8755660272
 21
112.7884540561
  0
LINE
  5
410
100
AcDbEntity
  8
0
100
AcDbLine
 62
7
  6
CONTINUOUS
 10
189.1096085525
 20
116.1634540561
 11
190.2585447049
 21
115.1634540561
  0
LINE
  5
411
100
AcDbEntity
  8
0
100
AcDbLine
 62
7
  6
CONTINUOUS
 10
190.2585447049
 20
115.4551205638
 11
189.4500340438
 21
116.1634540561
  0
LINE
  5
412
100
AcDbEntity
  8
0
100
AcDbLine
 62
7
  6
CONTINUOUS
 10
189.8330128408
 20
112.5384538177
 11
189.9181192136
 21
112.4551205638
  0
LINE
  5
413
100
AcDbEntity
  8
FASEN
100
AcDbLine
 62
7
  6
CONTINUOUS
 10
219.4146085525
 20
84.8451205638
 11
219.9146085525
 21
84.3451205638
  0
LINE
  5
414
100
AcDbEntity
  8
0
100
AcDbLine
 62
7
  6
CONTINUOUS
 10
190.1734383321
 20
112.49678731
 11
190.0457787728
 21
112.6634538177
  0
LINE
  5
415
100
AcDbEntity
  8
0
100
AcDbLine
 62
7
  6
CONTINUOUS
 10
182.9146085525
 20
108.4771713714
 11
182.9146085525
 21
84.8451205638
  0
LINE
  5
416
100
AcDbEntity
  8
0
100
AcDbLine
 62
7
  6
CONTINUOUS
 10
210.2038549516
 20
114.5212931505
 11
209.7506042804
 21
114.5212931505
  0
LINE
  5
417
100
AcDbEntity
  8
0
100
AcDbLine
 62
7
  6
CONTINUOUS
 10
211.4663361072
 20
114.8212931505
 11
211.0130854361
 21
114.8212931505
  0
LINE
  5
418
100
AcDbEntity
  8
0
100
AcDbLine
 62
7
  6
CONTINUOUS
 10
208.934624467
 20
114.8212931505
 11
208.4813737959
 21
114.8212931505
  0
LINE
  5
419
100
AcDbEntity
  8
0
100
AcDbLine
 62
7
  6
CONTINUOUS
 10
190.2585447049
 20
115.1634540561
 11
190.513863883
 21
115.1634540561
  0
LINE
  5
41A
100
AcDbEntity
  8
0
100
AcDbLine
 62
7
  6
CONTINUOUS
 10
189.4500340438
 20
116.1634540561
 11
190.2585447049
 21
116.1634540561
  0
LINE
  5
41B
100
AcDbEntity
  8
0
100
AcDbLine
 62
7
  6
CONTINUOUS
 10
190.513863883
 20
116.1634540561
 11
191.1096085525
 21
116.1634540561
  0
LINE
  5
41C
100
AcDbEntity
  8
0
100
AcDbLine
 62
7
  6
CONTINUOUS
 10
191.1096085525
 20
116.4134540561
 11
190.513863883
 21
116.4134540561
  0
LINE
  5
41D
100
AcDbEntity
  8
0
100
AcDbLine
 62
7
  6
CONTINUOUS
 10
190.2585447049
 20
116.4134540561
 11
189.1096085525
 21
116.4134540561
  0
LINE
  5
41E
100
AcDbEntity
  8
0
100
AcDbLine
 62
7
  6
CONTINUOUS
 10
190.513863883
 20
116.8301205638
 11
190.2585447049
 21
116.8301205638
  0
LINE
  5
41F
100
AcDbEntity
  8
0
100
AcDbLine
 62
7
  6
CONTINUOUS
 10
189.9181192136
 20
112.4551205638
 11
189.9606724
 21
112.3301205638
  0
LINE
  5
420
100
AcDbEntity
  8
RUNDUNGEN
100
AcDbLine
 62
7
  6
CONTINUOUS
 10
186.9146085525
 20
122.6786574845
 11
186.9146085525
 21
116.6111459676
  0
LINE
  5
421
100
AcDbEntity
  8
0
100
AcDbLine
 62
7
  6
CONTINUOUS
 10
190.2159915185
 20
112.2884538177
 11
190.1734383321
 21
112.49678731
  0
LINE
  5
422
100
AcDbEntity
  8
0
100
AcDbLine
 62
7
  6
CONTINUOUS
 10
189.1096085525
 20
116.4134540561
 11
189.1096085525
 21
116.1634540561
  0
LINE
  5
423
100
AcDbEntity
  8
0
100
AcDbLine
 62
7
  6
CONTINUOUS
 10
189.1096085525
 20
112.2884538177
 11
189.1096085525
 21
111.2884538177
  0
LINE
  5
424
100
AcDbEntity
  8
0
100
AcDbLine
 62
7
  6
CONTINUOUS
 10
189.1096085525
 20
110.9551205638
 11
189.1096085525
 21
110.7051205638
  0
LINE
  5
425
100
AcDbEntity
  8
0
100
AcDbLine
 62
7
  6
CONTINUOUS
 10
189.1096085525
 20
110.3717871908
 11
189.1096085525
 21
110.1217871908
  0
LINE
  5
426
100
AcDbEntity
  8
0
100
AcDbLine
 62
7
  6
CONTINUOUS
 10
189.1096085525
 20
108.9551205638
 11
189.1096085525
 21
108.7051205638
  0
LINE
  5
427
100
AcDbEntity
  8
0
100
AcDbLine
 62
7
  6
CONTINUOUS
 10
189.3223744845
 20
111.5384538177
 11
189.3223744845
 21
112.3301205638
  0
LINE
  5
428
100
AcDbEntity
  8
0
100
AcDbLine
 62
7
  6
CONTINUOUS
 10
189.9606724
 20
112.3301205638
 11
189.9606724
 21
111.5384538177
  0
LINE
  5
429
100
AcDbEntity
  8
0
100
AcDbLine
 62
7
  6
CONTINUOUS
 10
190.2159915185
 20
111.5384538177
 11
190.2159915185
 21
112.2884538177
  0
LINE
  5
42A
100
AcDbEntity
  8
0
100
AcDbLine
 62
7
  6
CONTINUOUS
 10
190.2585447049
 20
116.8301205638
 11
190.2585447049
 21
116.4134540561
  0
LINE
  5
42B
100
AcDbEntity
  8
0
100
AcDbLine
 62
7
  6
CONTINUOUS
 10
190.2585447049
 20
116.1634540561
 11
190.2585447049
 21
115.4551205638
  0
LINE
  5
42C
100
AcDbEntity
  8
0
100
AcDbLine
 62
7
  6
CONTINUOUS
 10
190.513863883
 20
115.1634540561
 11
190.513863883
 21
116.1634540561
  0
LINE
  5
42D
100
AcDbEntity
  8
0
100
AcDbLine
 62
7
  6
CONTINUOUS
 10
190.513863883
 20
116.4134540561
 11
190.513863883
 21
116.8301205638
  0
LINE
  5
42E
100
AcDbEntity
  8
0
100
AcDbLine
 62
7
  6
CONTINUOUS
 10
191.1096085525
 20
109.3717872504
 11
191.1096085525
 21
109.7051205638
  0
LINE
  5
42F
100
AcDbEntity
  8
0
100
AcDbLine
 62
7
  6
CONTINUOUS
 10
191.1096085525
 20
110.7051205638
 11
191.1096085525
 21
110.9551205638
  0
LINE
  5
430
100
AcDbEntity
  8
0
100
AcDbLine
 62
7
  6
CONTINUOUS
 10
191.1096085525
 20
111.2884538177
 11
191.1096085525
 21
111.5384538177
  0
LINE
  5
431
100
AcDbEntity
  8
0
100
AcDbLine
 62
7
  6
CONTINUOUS
 10
191.1096085525
 20
116.1634540561
 11
191.1096085525
 21
116.4134540561
  0
LINE
  5
432
100
AcDbEntity
  8
0
100
AcDbLine
 62
7
  6
CONTINUOUS
 10
188.7709146672
 20
125.2451205638
 11
193.729950114
 21
125.2451205638
  0
LINE
  5
433
100
AcDbEntity
  8
0
100
AcDbLine
 62
7
  6
CONTINUOUS
 10
206.0992669909
 20
125.2451205638
 11
211.058302238
 21
125.2451205638
  0
LINE
  5
434
100
AcDbEntity
  8
RUNDUNGEN
100
AcDbLine
 62
7
  6
CONTINUOUS
 10
204.7450510018
 20
114.0944683016
 11
204.4146085525
 21
114.4614618212
  0
LINE
  5
435
100
AcDbEntity
  8
KONSTRUKTIONSELEMENTE
100
AcDbLine
 62
7
  6
CONTINUOUS
 10
195.4146085525
 20
186.8004017843
 11
195.4146085525
 21
170.166669301
  0
LINE
  5
436
100
AcDbEntity
  8
KONSTRUKTIONSELEMENTE
100
AcDbLine
 62
7
  6
CONTINUOUS
 10
195.4146085525
 20
129.5243744483
 11
195.4146085525
 21
112.8451205638
  0
LINE
  5
437
100
AcDbEntity
  8
0
100
AcDbLine
 62
7
  6
CONTINUOUS
 10
189.1521617389
 20
112.49678731
 11
189.1096085525
 21
112.2884538177
  0
LINE
  5
438
100
AcDbEntity
  8
KONSTRUKTIONSELEMENTE
100
AcDbLine
 62
7
  6
CONTINUOUS
 10
204.41467026
 20
170.1754778784
 11
201.9146085525
 21
160.8451205638
  0
LINE
  5
439
100
AcDbEntity
  8
KONSTRUKTIONSELEMENTE
100
AcDbLine
 62
7
  6
CONTINUOUS
 10
197.9146085525
 20
160.8451205638
 11
197.9146085525
 21
138.8451205638
  0
LINE
  5
43A
100
AcDbEntity
  8
KONSTRUKTIONSELEMENTE
100
AcDbLine
 62
7
  6
CONTINUOUS
 10
195.4145472233
 20
129.5147646613
 11
197.9146085525
 21
138.8451205638
  0
LINE
  5
43B
100
AcDbEntity
  8
0
100
AcDbLine
 62
7
  6
CONTINUOUS
 10
189.3223744845
 20
112.3301205638
 11
189.364927671
 21
112.4551205638
  0
LINE
  5
43C
100
AcDbEntity
  8
RUNDUNGEN
100
AcDbLine
 62
7
  6
CONTINUOUS
 10
186.4456974657
 20
114.8611459676
 11
183.0485831487
 21
108.9771713714
  0
LINE
  5
43D
100
AcDbEntity
  8
RUNDUNGEN
100
AcDbLine
 62
7
  6
CONTINUOUS
 10
188.0048717675
 20
124.8879081735
 11
187.4994974447
 21
124.2856265087
  0
LINE
  5
43E
100
AcDbEntity
  8
KONSTRUKTIONSELEMENTE
100
AcDbLine
 62
7
  6
CONTINUOUS
 10
201.9146085525
 20
160.8451205638
 11
201.9146085525
 21
138.8451205638
  0
LINE
  5
43F
100
AcDbEntity
  8
KONSTRUKTIONSELEMENTE
100
AcDbLine
 62
7
  6
CONTINUOUS
 10
202.3396085525
 20
157.3451205638
 11
202.3396085525
 21
152.8451205638
  0
LINE
  5
440
100
AcDbEntity
  8
KONSTRUKTIONSELEMENTE
100
AcDbLine
 62
7
  6
CONTINUOUS
 10
202.3396085525
 20
151.3451205638
 11
202.3396085525
 21
146.8451205638
  0
LINE
  5
441
100
AcDbEntity
  8
KONSTRUKTIONSELEMENTE
100
AcDbLine
 62
7
  6
CONTINUOUS
 10
202.3396085525
 20
145.3451205638
 11
202.3396085525
 21
140.8451205638
  0
LINE
  5
442
100
AcDbEntity
  8
KONSTRUKTIONSELEMENTE
100
AcDbLine
 62
7
  6
CONTINUOUS
 10
204.4146085525
 20
182.0621475088
 11
204.4146085525
 21
170.1658583476
  0
LINE
  5
443
100
AcDbEntity
  8
KONSTRUKTIONSELEMENTE
100
AcDbLine
 62
7
  6
CONTINUOUS
 10
204.4146085525
 20
129.5235766606
 11
204.4146085525
 21
112.8451205638
  0
LINE
  5
444
100
AcDbEntity
  8
0
100
AcDbLine
 62
7
  6
CONTINUOUS
 10
189.2798212981
 20
112.6634538177
 11
189.1521617389
 21
112.49678731
  0
LINE
  5
445
100
AcDbEntity
  8
RUNDUNGEN
100
AcDbLine
 62
7
  6
CONTINUOUS
 10
212.3297163383
 20
124.2856304677
 11
211.8243453374
 21
124.8879081735
  0
LINE
  5
446
100
AcDbEntity
  8
RUNDUNGEN
100
AcDbLine
 62
7
  6
CONTINUOUS
 10
216.7806339562
 20
108.9771713714
 11
213.3835196392
 21
114.8611459676
  0
LINE
  5
447
100
AcDbEntity
  8
KONSTRUKTIONSELEMENTE
100
AcDbLine
 62
7
  6
CONTINUOUS
 10
201.9146085525
 20
138.8451205638
 11
204.4146653748
 21
129.5147814809
  0
LINE
  5
448
100
AcDbEntity
  8
KONSTRUKTIONSELEMENTE
100
AcDbLine
 62
7
  6
CONTINUOUS
 10
204.9146085525
 20
188.6399352399
 11
204.9146085525
 21
180.3773001099
  0
LINE
  5
449
100
AcDbEntity
  8
0
100
AcDbLine
 62
7
  6
CONTINUOUS
 10
189.364927671
 20
112.4551205638
 11
189.4500340438
 21
112.5384538177
  0
LINE
  5
44A
100
AcDbEntity
  8
KONSTRUKTIONSELEMENTE
100
AcDbLine
 62
7
  6
CONTINUOUS
 10
201.9146085525
 20
140.8451205638
 11
202.3396085525
 21
140.8451205638
  0
LINE
  5
44B
100
AcDbEntity
  8
KONSTRUKTIONSELEMENTE
100
AcDbLine
 62
7
  6
CONTINUOUS
 10
197.9146085525
 20
160.8451205638
 11
195.4145518155
 21
170.175459328
  0
LINE
  5
44C
100
AcDbEntity
  8
0
100
AcDbLine
 62
7
  6
CONTINUOUS
 10
209.7506042804
 20
114.5212931505
 11
209.7506042804
 21
113.645301368
  0
LINE
  5
44D
100
AcDbEntity
  8
0
100
AcDbLine
 62
7
  6
CONTINUOUS
 10
210.2038549516
 20
113.6467932725
 11
210.2038549516
 21
114.5212931505
  0
LINE
  5
44E
100
AcDbEntity
  8
0
100
AcDbLine
 62
7
  6
CONTINUOUS
 10
208.9256991236
 20
112.0683090589
 11
208.934624467
 21
112.2712931505
  0
LINE
  5
44F
100
AcDbEntity
  8
RUNDUNGEN
100
AcDbLine
 62
7
  6
CONTINUOUS
 10
195.4146085525
 20
114.4614618212
 11
195.0841661979
 21
114.0944684069
  0
LINE
  5
450
100
AcDbEntity
  8
0
100
AcDbLine
 62
7
  6
CONTINUOUS
 10
189.4500340438
 20
112.7884540561
 11
189.2798212981
 21
112.6634538177
  0
LINE
  5
451
100
AcDbEntity
  8
KONSTRUKTIONSELEMENTE
100
AcDbLine
 62
7
  6
CONTINUOUS
 10
201.9146085525
 20
145.3451205638
 11
202.3396085525
 21
145.3451205638
  0
LINE
  5
452
100
AcDbEntity
  8
RUNDUNGEN
100
AcDbLine
 62
7
  6
CONTINUOUS
 10
212.9146085525
 20
116.6111459676
 11
212.9146085525
 21
122.6786574845
  0
LINE
  5
453
100
AcDbEntity
  8
0
100
AcDbLine
 62
7
  6
CONTINUOUS
 10
189.577693603
 20
112.8301205638
 11
189.4500340438
 21
112.7884540561
  0
LINE
  5
454
100
AcDbEntity
  8
KONSTRUKTIONSELEMENTE
100
AcDbLine
 62
7
  6
CONTINUOUS
 10
201.9146085525
 20
146.8451205638
 11
202.3396085525
 21
146.8451205638
  0
LINE
  5
455
100
AcDbEntity
  8
KONSTRUKTIONSELEMENTE
100
AcDbLine
 62
7
  6
CONTINUOUS
 10
201.9146085525
 20
146.9408652417
 11
202.3396085525
 21
146.9408652417
  0
LINE
  5
456
100
AcDbEntity
  8
KONSTRUKTIONSELEMENTE
100
AcDbLine
 62
7
  6
CONTINUOUS
 10
201.9146085525
 20
147.1323546057
 11
202.3396085525
 21
147.1323546057
  0
LINE
  5
457
100
AcDbEntity
  8
KONSTRUKTIONSELEMENTE
100
AcDbLine
 62
7
  6
CONTINUOUS
 10
201.9146085525
 20
147.5153333169
 11
202.3396085525
 21
147.5153333169
  0
LINE
  5
458
100
AcDbEntity
  8
KONSTRUKTIONSELEMENTE
100
AcDbLine
 62
7
  6
CONTINUOUS
 10
201.9146085525
 20
147.8983120618
 11
202.3396085525
 21
147.8983120618
  0
LINE
  5
459
100
AcDbEntity
  8
KONSTRUKTIONSELEMENTE
100
AcDbLine
 62
7
  6
CONTINUOUS
 10
201.9146085525
 20
148.3770354089
 11
202.3396085525
 21
148.3770354089
  0
LINE
  5
45A
100
AcDbEntity
  8
0
100
AcDbLine
 62
7
  6
CONTINUOUS
 10
216.9146085525
 20
108.4771713714
 11
216.9146085525
 21
84.8451205638
  0
LINE
  5
45B
100
AcDbEntity
  8
0
100
AcDbLine
 62
7
  6
CONTINUOUS
 10
219.9146085525
 20
84.3451205638
 11
219.9146085525
 21
76.8451205638
  0
LINE
  5
45C
100
AcDbEntity
  8
0
100
AcDbLine
 62
7
  6
CONTINUOUS
 10
190.8542894042
 20
109.5384538773
 11
189.1096085525
 21
108.9551205638
  0
LINE
  5
45D
100
AcDbEntity
  8
0
100
AcDbLine
 62
7
  6
CONTINUOUS
 10
189.1096085525
 20
108.7051205638
 11
191.1096085525
 21
109.3717872504
  0
LINE
  5
45E
100
AcDbEntity
  8
0
100
AcDbLine
 62
7
  6
CONTINUOUS
 10
189.4500340438
 20
112.5384538177
 11
189.577693603
 21
112.5801205638
  0
LINE
  5
45F
100
AcDbEntity
  8
KONSTRUKTIONSELEMENTE
100
AcDbLine
 62
7
  6
CONTINUOUS
 10
201.9146085525
 20
151.3451205638
 11
202.3396085525
 21
151.3451205638
  0
LINE
  5
460
100
AcDbEntity
  8
KONSTRUKTIONSELEMENTE
100
AcDbLine
 62
7
  6
CONTINUOUS
 10
201.9146085525
 20
152.8451205638
 11
202.3396085525
 21
152.8451205638
  0
LINE
  5
461
100
AcDbEntity
  8
FASEN
100
AcDbLine
 62
7
  6
CONTINUOUS
 10
180.4146085525
 20
84.8451205638
 11
179.9146085525
 21
84.3451205638
  0
LINE
  5
462
100
AcDbEntity
  8
KONSTRUKTIONSELEMENTE
100
AcDbLine
 62
7
  6
CONTINUOUS
 10
201.9146085525
 20
157.3451205638
 11
202.3396085525
 21
157.3451205638
  0
LINE
  5
463
100
AcDbEntity
  8
KONSTRUKTIONSELEMENTE
100
AcDbLine
 62
7
  6
CONTINUOUS
 10
204.4146085525
 20
180.3773001099
 11
204.9146085525
 21
180.3773001099
  0
LINE
  5
464
100
AcDbEntity
  8
KONSTRUKTIONSELEMENTE
100
AcDbLine
 62
7
  6
CONTINUOUS
 10
204.0060493582
 20
183.5515485008
 11
204.9146085525
 21
183.5515485008
  0
LINE
  5
465
100
AcDbEntity
  8
KONSTRUKTIONSELEMENTE
100
AcDbLine
 62
7
  6
CONTINUOUS
 10
204.0199069882
 20
184.4962245903
 11
204.9146085525
 21
184.4962245903
  0
LINE
  5
466
100
AcDbEntity
  8
KONSTRUKTIONSELEMENTE
100
AcDbLine
 62
7
  6
CONTINUOUS
 10
204.053708463
 20
184.6254949547
 11
204.9146085525
 21
184.6254949547
  0
LINE
  5
467
100
AcDbEntity
  8
KONSTRUKTIONSELEMENTE
100
AcDbLine
 62
7
  6
CONTINUOUS
 10
204.0060493559
 20
185.6520400164
 11
204.9146085525
 21
185.6520400164
  0
LINE
  5
468
100
AcDbEntity
  8
KONSTRUKTIONSELEMENTE
100
AcDbLine
 62
7
  6
CONTINUOUS
 10
204.0199069888
 20
186.3775859243
 11
204.9146085525
 21
186.3775859243
  0
LINE
  5
469
100
AcDbEntity
  8
KONSTRUKTIONSELEMENTE
100
AcDbLine
 62
7
  6
CONTINUOUS
 10
204.0537084668
 20
186.4535007147
 11
204.9146085525
 21
186.4535007147
  0
LINE
  5
46A
100
AcDbEntity
  8
KONSTRUKTIONSELEMENTE
100
AcDbLine
 62
7
  6
CONTINUOUS
 10
204.4072454902
 20
186.7079161984
 11
204.9146085525
 21
186.7079161984
  0
LINE
  5
46B
100
AcDbEntity
  8
FASEN
100
AcDbLine
 62
7
  6
CONTINUOUS
 10
219.4146085525
 20
76.3451205638
 11
219.9146085525
 21
76.8451205638
  0
LINE
  5
46C
100
AcDbEntity
  8
KONSTRUKTIONSELEMENTE
100
AcDbLine
 62
7
  6
CONTINUOUS
 10
204.3631633176
 20
187.1383166194
 11
204.9146085525
 21
187.1383166194
  0
LINE
  5
46D
100
AcDbEntity
  8
KONSTRUKTIONSELEMENTE
100
AcDbLine
 62
7
  6
CONTINUOUS
 10
204.3174463542
 20
187.4001988282
 11
204.9146085525
 21
187.4001988282
  0
LINE
  5
46E
100
AcDbEntity
  8
KONSTRUKTIONSELEMENTE
100
AcDbLine
 62
7
  6
CONTINUOUS
 10
204.2334355303
 20
187.7554440126
 11
204.9146085525
 21
187.7554440126
  0
LINE
  5
46F
100
AcDbEntity
  8
KONSTRUKTIONSELEMENTE
100
AcDbLine
 62
7
  6
CONTINUOUS
 10
204.153120462
 20
188.0355340646
 11
204.9146085525
 21
188.0355340646
  0
LINE
  5
470
100
AcDbEntity
  8
KONSTRUKTIONSELEMENTE
100
AcDbLine
 62
7
  6
CONTINUOUS
 10
204.0568177262
 20
188.3338323003
 11
204.9146085525
 21
188.3338323003
  0
LINE
  5
471
100
AcDbEntity
  8
KONSTRUKTIONSELEMENTE
100
AcDbLine
 62
7
  6
CONTINUOUS
 10
204.0212370172
 20
188.472716023
 11
204.9146085525
 21
188.472716023
  0
LINE
  5
472
100
AcDbEntity
  8
KONSTRUKTIONSELEMENTE
100
AcDbLine
 62
7
  6
CONTINUOUS
 10
204.0562743615
 20
188.5781297443
 11
204.9146085525
 21
188.5781297443
  0
LINE
  5
473
100
AcDbEntity
  8
KONSTRUKTIONSELEMENTE
100
AcDbLine
 62
7
  6
CONTINUOUS
 10
204.0391903687
 20
188.6399352399
 11
204.9146085525
 21
188.6399352399
  0
LINE
  5
474
100
AcDbEntity
  8
KONSTRUKTIONSELEMENTE
100
AcDbLine
 62
7
  6
CONTINUOUS
 10
90.2435010895
 20
28.7161677484
 11
90.2435010895
 21
27.8076085541
  0
LINE
  5
475
100
AcDbEntity
  8
RUNDUNGEN
100
AcDbLine
 62
7
  6
CONTINUOUS
 10
98.6783297338
 20
19.8076085541
 11
109.6783297338
 21
19.8076085541
  0
LINE
  5
476
100
AcDbEntity
  8
0
100
AcDbLine
 62
7
  6
CONTINUOUS
 10
115.1327808839
 20
19.8076085541
 11
115.5168702042
 21
19.8076085541
  0
LINE
  5
477
100
AcDbEntity
  8
KONSTRUKTIONSELEMENTE
100
AcDbLine
 62
7
  6
CONTINUOUS
 10
91.4755016699
 20
28.7023101184
 11
91.4755016699
 21
27.8076085541
  0
LINE
  5
478
100
AcDbEntity
  8
KONSTRUKTIONSELEMENTE
100
AcDbLine
 62
7
  6
CONTINUOUS
 10
91.7839548215
 20
28.6685086435
 11
91.7839548215
 21
27.8076085541
  0
LINE
  5
479
100
AcDbEntity
  8
KONSTRUKTIONSELEMENTE
100
AcDbLine
 62
7
  6
CONTINUOUS
 10
92.1446471478
 20
28.5722759525
 11
92.1446471478
 21
27.8076085541
  0
LINE
  5
47A
100
AcDbEntity
  8
KONSTRUKTIONSELEMENTE
100
AcDbLine
 62
7
  6
CONTINUOUS
 10
92.5057924806
 20
28.4678431999
 11
92.5057924806
 21
27.8076085541
  0
LINE
  5
47B
100
AcDbEntity
  8
KONSTRUKTIONSELEMENTE
100
AcDbLine
 62
7
  6
CONTINUOUS
 10
92.7124847343
 20
28.4066454584
 11
92.7124847343
 21
27.8076085541
  0
LINE
  5
47C
100
AcDbEntity
  8
KONSTRUKTIONSELEMENTE
100
AcDbLine
 62
7
  6
CONTINUOUS
 10
92.9196301396
 20
28.3476619958
 11
92.9196301396
 21
27.8076085541
  0
LINE
  5
47D
100
AcDbEntity
  8
KONSTRUKTIONSELEMENTE
100
AcDbLine
 62
7
  6
CONTINUOUS
 10
93.0236557762
 20
28.3205022348
 11
93.0236557762
 21
27.8076085541
  0
LINE
  5
47E
100
AcDbEntity
  8
KONSTRUKTIONSELEMENTE
100
AcDbLine
 62
7
  6
CONTINUOUS
 10
93.0768009638
 20
28.3076191316
 11
93.0768009638
 21
27.8076085541
  0
LINE
  5
47F
100
AcDbEntity
  8
KONSTRUKTIONSELEMENTE
100
AcDbLine
 62
7
  6
CONTINUOUS
 10
93.1472619613
 20
28.7161677507
 11
93.1472619613
 21
27.8076085541
  0
LINE
  5
480
100
AcDbEntity
  8
0
100
AcDbLine
 62
7
  6
CONTINUOUS
 10
97.6783297338
 20
21.2558809994
 11
97.1783297338
 21
21.2558809994
  0
LINE
  5
481
100
AcDbEntity
  8
0
100
AcDbLine
 62
7
  6
CONTINUOUS
 10
97.6783297338
 20
21.7091316705
 11
97.1783297338
 21
21.7091316705
  0
LINE
  5
482
100
AcDbEntity
  8
0
100
AcDbLine
 62
7
  6
CONTINUOUS
 10
117.1398111306
 20
21.8076085541
 11
117.4660119997
 21
21.8076085541
  0
LINE
  5
483
100
AcDbEntity
  8
KONSTRUKTIONSELEMENTE
100
AcDbLine
 62
7
  6
CONTINUOUS
 10
94.5197857243
 20
28.7023101178
 11
94.5197857243
 21
27.8076085541
  0
LINE
  5
484
100
AcDbEntity
  8
KONSTRUKTIONSELEMENTE
100
AcDbLine
 62
7
  6
CONTINUOUS
 10
94.8455018564
 20
28.6685086398
 11
94.8455018564
 21
27.8076085541
  0
LINE
  5
485
100
AcDbEntity
  8
KONSTRUKTIONSELEMENTE
100
AcDbLine
 62
7
  6
CONTINUOUS
 10
95.1935772978
 20
28.572275951
 11
95.1935772978
 21
27.8076085541
  0
LINE
  5
486
100
AcDbEntity
  8
KONSTRUKTIONSELEMENTE
100
AcDbLine
 62
7
  6
CONTINUOUS
 10
95.5242379306
 20
28.4678431985
 11
95.5242379306
 21
27.8076085541
  0
LINE
  5
487
100
AcDbEntity
  8
0
100
AcDbLine
 62
7
  6
CONTINUOUS
 10
117.4822035019
 20
22.2242753003
 11
117.8002076233
 21
22.2242753003
  0
LINE
  5
488
100
AcDbEntity
  8
0
100
AcDbLine
 62
7
  6
CONTINUOUS
 10
97.6783297338
 20
22.518362155
 11
97.1783297338
 21
22.518362155
  0
LINE
  5
489
100
AcDbEntity
  8
0
100
AcDbLine
 62
7
  6
CONTINUOUS
 10
117.7406857238
 20
22.5576085541
 11
118.0527666593
 21
22.5576085541
  0
LINE
  5
48A
100
AcDbEntity
  8
0
100
AcDbLine
 62
7
  6
CONTINUOUS
 10
117.9260568186
 20
22.8076085541
 11
118.2340225306
 21
22.8076085541
  0
LINE
  5
48B
100
AcDbEntity
  8
0
100
AcDbLine
 62
7
  6
CONTINUOUS
 10
117.9862883318
 20
22.890941808
 11
118.2929399178
 21
22.890941808
  0
LINE
  5
48C
100
AcDbEntity
  8
0
100
AcDbLine
 62
7
  6
CONTINUOUS
 10
97.6783297338
 20
22.9716128262
 11
97.1783297338
 21
22.9716128262
  0
LINE
  5
48D
100
AcDbEntity
  8
0
100
AcDbLine
 62
7
  6
CONTINUOUS
 10
118.4414815594
 20
23.5576085541
 11
118.7385495123
 21
23.5576085541
  0
LINE
  5
48E
100
AcDbEntity
  8
0
100
AcDbLine
 62
7
  6
CONTINUOUS
 10
97.6783297338
 20
23.7875926396
 11
97.1783297338
 21
23.7875926396
  0
LINE
  5
48F
100
AcDbEntity
  8
0
100
AcDbLine
 62
7
  6
CONTINUOUS
 10
97.6783297338
 20
24.2408433107
 11
97.1783297338
 21
24.2408433107
  0
LINE
  5
490
100
AcDbEntity
  8
KONSTRUKTIONSELEMENTE
100
AcDbLine
 62
7
  6
CONTINUOUS
 10
95.7007479016
 20
28.4066454595
 11
95.7007479016
 21
27.8076085541
  0
LINE
  5
491
100
AcDbEntity
  8
KONSTRUKTIONSELEMENTE
100
AcDbLine
 62
7
  6
CONTINUOUS
 10
95.8598431754
 20
28.3476619966
 11
95.8598431754
 21
27.8076085541
  0
LINE
  5
492
100
AcDbEntity
  8
KONSTRUKTIONSELEMENTE
100
AcDbLine
 62
7
  6
CONTINUOUS
 10
95.921975948
 20
28.3205022344
 11
95.921975948
 21
27.8076085541
  0
LINE
  5
493
100
AcDbEntity
  8
0
100
AcDbLine
 62
7
  6
CONTINUOUS
 10
97.1783297338
 20
21.2558809994
 11
97.1783297338
 21
24.2408433107
  0
LINE
  5
494
100
AcDbEntity
  8
0
100
AcDbLine
 62
7
  6
CONTINUOUS
 10
97.1783297338
 20
41.6126085541
 11
97.1783297338
 21
43.6126085541
  0
LINE
  5
495
100
AcDbEntity
  8
RUNDUNGEN
100
AcDbLine
 62
7
  6
CONTINUOUS
 10
97.6783297338
 20
18.1362199461
 11
97.6783297338
 21
26.6789946182
  0
LINE
  5
496
100
AcDbEntity
  8
RUNDUNGEN
100
AcDbLine
 62
7
  6
CONTINUOUS
 10
97.6783297338
 20
38.9362164727
 11
97.6783297338
 21
47.4789973512
  0
LINE
  5
497
100
AcDbEntity
  8
0
100
AcDbLine
 62
7
  6
CONTINUOUS
 10
119.5548540485
 20
25.5576085541
 11
119.8308055763
 21
25.5576085541
  0
LINE
  5
498
100
AcDbEntity
  8
0
100
AcDbLine
 62
7
  6
CONTINUOUS
 10
119.7444966795
 20
25.9742750619
 11
120.0171445058
 21
25.9742750619
  0
LINE
  5
499
100
AcDbEntity
  8
0
100
AcDbLine
 62
7
  6
CONTINUOUS
 10
119.8866078062
 20
26.3076085541
 11
120.1568309151
 21
26.3076085541
  0
LINE
  5
49A
100
AcDbEntity
  8
0
100
AcDbLine
 62
7
  6
CONTINUOUS
 10
119.9877414875
 20
26.5576085541
 11
120.2562649246
 21
26.5576085541
  0
LINE
  5
49B
100
AcDbEntity
  8
0
100
AcDbLine
 62
7
  6
CONTINUOUS
 10
120.0204326303
 20
26.6409420464
 11
120.2884111793
 21
26.6409420464
  0
LINE
  5
49C
100
AcDbEntity
  8
0
100
AcDbLine
 62
7
  6
CONTINUOUS
 10
120.2640376759
 20
27.3076085541
 11
120.5280239205
 21
27.3076085541
  0
LINE
  5
49D
100
AcDbEntity
  8
KONSTRUKTIONSELEMENTE
100
AcDbLine
 62
7
  6
CONTINUOUS
 10
116.8605798851
 20
27.8076085541
 11
112.423617653
 21
27.8076085541
  0
LINE
  5
49E
100
AcDbEntity
  8
KONSTRUKTIONSELEMENTE
100
AcDbLine
 62
7
  6
CONTINUOUS
 10
112.2921954628
 20
27.8076085541
 11
110.572290641
 21
27.8076085541
  0
LINE
  5
49F
100
AcDbEntity
  8
KONSTRUKTIONSELEMENTE
100
AcDbLine
 62
7
  6
CONTINUOUS
 10
110.0264754799
 20
27.8076085541
 11
107.311799408
 21
27.8076085541
  0
LINE
  5
4A0
100
AcDbEntity
  8
KONSTRUKTIONSELEMENTE
100
AcDbLine
 62
7
  6
CONTINUOUS
 10
106.6866271484
 20
27.8076085541
 11
104.3759725142
 21
27.8076085541
  0
LINE
  5
4A1
100
AcDbEntity
  8
KONSTRUKTIONSELEMENTE
100
AcDbLine
 62
7
  6
CONTINUOUS
 10
103.7351007471
 20
27.8076085541
 11
103.397018498
 21
27.8076085541
  0
LINE
  5
4A2
100
AcDbEntity
  8
KONSTRUKTIONSELEMENTE
100
AcDbLine
 62
7
  6
CONTINUOUS
 10
102.6631027768
 20
27.8076085541
 11
100.2497395744
 21
27.8076085541
  0
LINE
  5
4A3
100
AcDbEntity
  8
KONSTRUKTIONSELEMENTE
100
AcDbLine
 62
7
  6
CONTINUOUS
 10
95.921975948
 20
27.8076085541
 11
93.1472619613
 21
27.8076085541
  0
LINE
  5
4A4
100
AcDbEntity
  8
KONSTRUKTIONSELEMENTE
100
AcDbLine
 62
7
  6
CONTINUOUS
 10
93.0768009638
 20
27.8076085541
 11
90.2435010895
 21
27.8076085541
  0
LINE
  5
4A5
100
AcDbEntity
  8
0
100
AcDbLine
 62
7
  6
CONTINUOUS
 10
120.4264065431
 20
27.8076085541
 11
120.6877967149
 21
27.8076085541
  0
LINE
  5
4A6
100
AcDbEntity
  8
KONSTRUKTIONSELEMENTE
100
AcDbLine
 62
7
  6
CONTINUOUS
 10
123.6200007774
 20
28.3076085541
 11
116.8605798851
 21
28.3076085541
  0
LINE
  5
4A7
100
AcDbEntity
  8
KONSTRUKTIONSELEMENTE
100
AcDbLine
 62
7
  6
CONTINUOUS
 10
114.230995183
 20
28.3076085541
 11
112.2921954628
 21
28.3076085541
  0
LINE
  5
4A8
100
AcDbEntity
  8
KONSTRUKTIONSELEMENTE
100
AcDbLine
 62
7
  6
CONTINUOUS
 10
110.7234913676
 20
28.3076085541
 11
110.0264754799
 21
28.3076085541
  0
LINE
  5
4A9
100
AcDbEntity
  8
KONSTRUKTIONSELEMENTE
100
AcDbLine
 62
7
  6
CONTINUOUS
 10
107.8712989336
 20
28.3076085541
 11
106.6669164123
 21
28.3076085541
  0
LINE
  5
4AA
100
AcDbEntity
  8
KONSTRUKTIONSELEMENTE
100
AcDbLine
 62
7
  6
CONTINUOUS
 10
104.4061010824
 20
28.3076085541
 11
102.591582816
 21
28.3076085541
  0
LINE
  5
4AB
100
AcDbEntity
  8
KONSTRUKTIONSELEMENTE
100
AcDbLine
 62
7
  6
CONTINUOUS
 10
100.2497395744
 20
28.3076085541
 11
95.921975948
 21
28.3076085541
  0
LINE
  5
4AC
100
AcDbEntity
  8
KONSTRUKTIONSELEMENTE
100
AcDbLine
 62
7
  6
CONTINUOUS
 10
93.1472619613
 20
28.3076085541
 11
93.0752773197
 21
28.3076085541
  0
LINE
  5
4AD
100
AcDbEntity
  8
KONSTRUKTIONSELEMENTE
100
AcDbLine
 62
7
  6
CONTINUOUS
 10
90.2435010895
 20
28.3076085541
 11
84.7361015681
 21
28.3076085541
  0
LINE
  5
4AE
100
AcDbEntity
  8
KONSTRUKTIONSELEMENTE
100
AcDbLine
 62
7
  6
CONTINUOUS
 10
100.2497395744
 20
28.3149716164
 11
100.2497395744
 21
27.8076085541
  0
LINE
  5
4AF
100
AcDbEntity
  8
KONSTRUKTIONSELEMENTE
100
AcDbLine
 62
7
  6
CONTINUOUS
 10
100.2538934472
 20
28.359053789
 11
100.2538934472
 21
27.8076085541
  0
LINE
  5
4B0
100
AcDbEntity
  8
KONSTRUKTIONSELEMENTE
100
AcDbLine
 62
7
  6
CONTINUOUS
 10
100.2820037335
 20
28.4047707524
 11
100.2820037335
 21
27.8076085541
  0
LINE
  5
4B1
100
AcDbEntity
  8
KONSTRUKTIONSELEMENTE
100
AcDbLine
 62
7
  6
CONTINUOUS
 10
100.3621786215
 20
28.4887815763
 11
100.3621786215
 21
27.8076085541
  0
LINE
  5
4B2
100
AcDbEntity
  8
KONSTRUKTIONSELEMENTE
100
AcDbLine
 62
7
  6
CONTINUOUS
 10
100.5183752576
 20
28.5690966446
 11
100.5183752576
 21
27.8076085541
  0
LINE
  5
4B3
100
AcDbEntity
  8
KONSTRUKTIONSELEMENTE
100
AcDbLine
 62
7
  6
CONTINUOUS
 10
100.802658943
 20
28.6653993804
 11
100.802658943
 21
27.8076085541
  0
LINE
  5
4B4
100
AcDbEntity
  8
KONSTRUKTIONSELEMENTE
100
AcDbLine
 62
7
  6
CONTINUOUS
 10
101.1749415007
 20
28.7009800894
 11
101.1749415007
 21
27.8076085541
  0
LINE
  5
4B5
100
AcDbEntity
  8
KONSTRUKTIONSELEMENTE
100
AcDbLine
 62
7
  6
CONTINUOUS
 10
101.5711797725
 20
28.6653993804
 11
101.5711797725
 21
27.8076085541
  0
LINE
  5
4B6
100
AcDbEntity
  8
KONSTRUKTIONSELEMENTE
100
AcDbLine
 62
7
  6
CONTINUOUS
 10
101.9273306004
 20
28.5690966446
 11
101.9273306004
 21
27.8076085541
  0
LINE
  5
4B7
100
AcDbEntity
  8
KONSTRUKTIONSELEMENTE
100
AcDbLine
 62
7
  6
CONTINUOUS
 10
102.155394379
 20
28.4887815763
 11
102.155394379
 21
27.8076085541
  0
LINE
  5
4B8
100
AcDbEntity
  8
RUNDUNGEN
100
AcDbLine
 62
7
  6
CONTINUOUS
 10
98.1909631002
 20
28.0408586974
 11
98.1794981525
 21
28.0145647342
  0
LWPOLYLINE
  5
4B9
100
AcDbEntity
  8
RUNDUNGEN
100
AcDbPolyline
 62
7
  6
CONTINUOUS
 90
4
 70
0
 10
98.1794981525
 20
28.0145647342
 10
98.1319857068
 20
27.9094602075
 10
98.0820853939
 20
27.8050216794
 10
98.0298285793
 20
27.7012669369
  0
LINE
  5
4BA
100
AcDbEntity
  8
RUNDUNGEN
100
AcDbLine
 62
7
  6
CONTINUOUS
 10
98.0298285793
 20
27.7012669369
 11
97.9752484434
 21
27.5982163974
  0
LWPOLYLINE
  5
4BB
100
AcDbEntity
  8
RUNDUNGEN
100
AcDbPolyline
 62
7
  6
CONTINUOUS
 90
3
 70
0
 10
97.9752484434
 20
27.5982163974
 10
97.954694115
 20
27.5606877449
 10
97.9249910125
 20
27.5077431019
  0
LINE
  5
4BC
100
AcDbEntity
  8
RUNDUNGEN
100
AcDbLine
 62
7
  6
CONTINUOUS
 10
97.9249910125
 20
27.5077431019
 11
97.8950903081
 21
27.4559565219
  0
LINE
  5
4BD
100
AcDbEntity
  8
RUNDUNGEN
100
AcDbLine
 62
7
  6
CONTINUOUS
 10
97.8950903081
 20
27.4559565219
 11
97.8867265415
 21
27.4417361678
  0
LINE
  5
4BE
100
AcDbEntity
  8
KONSTRUKTIONSELEMENTE
100
AcDbLine
 62
7
  6
CONTINUOUS
 10
130.2094586079
 20
30.8076085541
 11
129.5033268645
 21
30.8076085541
  0
LINE
  5
4BF
100
AcDbEntity
  8
KONSTRUKTIONSELEMENTE
100
AcDbLine
 62
7
  6
CONTINUOUS
 10
78.853332603
 20
30.8076085541
 11
78.1472008596
 21
30.8076085541
  0
LWPOLYLINE
  5
4C0
100
AcDbEntity
  8
RUNDUNGEN
100
AcDbPolyline
 62
7
  6
CONTINUOUS
 90
3
 70
0
 10
97.8874004172
 20
38.1723437044
 10
97.8993694079
 20
38.1519406281
 10
97.929256099
 20
38.0999646289
  0
LINE
  5
4C1
100
AcDbEntity
  8
RUNDUNGEN
100
AcDbLine
 62
7
  6
CONTINUOUS
 10
97.929256099
 20
38.0999646289
 11
97.9589441225
 21
38.0468290471
  0
LINE
  5
4C2
100
AcDbEntity
  8
RUNDUNGEN
100
AcDbLine
 62
7
  6
CONTINUOUS
 10
97.9589441225
 20
38.0468290471
 11
97.9791128457
 21
38.0098680452
  0
LINE
  5
4C3
100
AcDbEntity
  8
RUNDUNGEN
100
AcDbLine
 62
7
  6
CONTINUOUS
 10
97.9791128457
 20
38.0098680452
 11
98.0335110774
 21
37.9068100617
  0
LWPOLYLINE
  5
4C4
100
AcDbEntity
  8
RUNDUNGEN
100
AcDbPolyline
 62
7
  6
CONTINUOUS
 90
3
 70
0
 10
98.0335110774
 20
37.9068100617
 10
98.0855863194
 20
37.8030482452
 10
98.1353056614
 20
37.6986024419
  0
LWPOLYLINE
  5
4C5
100
AcDbEntity
  8
RUNDUNGEN
100
AcDbPolyline
 62
7
  6
CONTINUOUS
 90
3
 70
0
 10
98.1353056614
 20
37.6986024419
 10
98.1826376237
 20
37.593490402
 10
98.1909630852
 20
37.5743584328
  0
LINE
  5
4C6
100
AcDbEntity
  8
KONSTRUKTIONSELEMENTE
100
AcDbLine
 62
7
  6
CONTINUOUS
 10
102.3313921237
 20
28.4047707524
 11
102.3313921237
 21
27.8076085541
  0
LINE
  5
4C7
100
AcDbEntity
  8
KONSTRUKTIONSELEMENTE
100
AcDbLine
 62
7
  6
CONTINUOUS
 10
102.4313696195
 20
28.359053789
 11
102.4313696195
 21
27.8076085541
  0
LINE
  5
4C8
100
AcDbEntity
  8
KONSTRUKTIONSELEMENTE
100
AcDbLine
 62
7
  6
CONTINUOUS
 10
102.5553020631
 20
28.3149716164
 11
102.5553020631
 21
27.8076085541
  0
LINE
  5
4C9
100
AcDbEntity
  8
KONSTRUKTIONSELEMENTE
100
AcDbLine
 62
7
  6
CONTINUOUS
 10
102.6631027768
 20
28.3076085541
 11
102.6631027768
 21
27.8076085541
  0
LINE
  5
4CA
100
AcDbEntity
  8
KONSTRUKTIONSELEMENTE
100
AcDbLine
 62
7
  6
CONTINUOUS
 10
103.397018498
 20
28.3076085541
 11
103.397018498
 21
27.8076085541
  0
LINE
  5
4CB
100
AcDbEntity
  8
KONSTRUKTIONSELEMENTE
100
AcDbLine
 62
7
  6
CONTINUOUS
 10
103.7202574758
 20
28.3076085541
 11
103.7202574758
 21
27.8076085541
  0
LINE
  5
4CC
100
AcDbEntity
  8
KONSTRUKTIONSELEMENTE
100
AcDbLine
 62
7
  6
CONTINUOUS
 10
103.7351007471
 20
28.3076085541
 11
103.7351007471
 21
27.8076085541
  0
LINE
  5
4CD
100
AcDbEntity
  8
KONSTRUKTIONSELEMENTE
100
AcDbLine
 62
7
  6
CONTINUOUS
 10
104.3759725142
 20
28.3076085541
 11
104.3759725142
 21
27.8076085541
  0
LINE
  5
4CE
100
AcDbEntity
  8
KONSTRUKTIONSELEMENTE
100
AcDbLine
 62
7
  6
CONTINUOUS
 10
104.4184910406
 20
28.3109107175
 11
104.4184910406
 21
27.8076085541
  0
LINE
  5
4CF
100
AcDbEntity
  8
KONSTRUKTIONSELEMENTE
100
AcDbLine
 62
7
  6
CONTINUOUS
 10
104.5255323589
 20
28.3728481697
 11
104.5255323589
 21
27.8076085541
  0
LINE
  5
4D0
100
AcDbEntity
  8
KONSTRUKTIONSELEMENTE
100
AcDbLine
 62
7
  6
CONTINUOUS
 10
104.6849468588
 20
28.4655979132
 11
104.6849468588
 21
27.8076085541
  0
LINE
  5
4D1
100
AcDbEntity
  8
KONSTRUKTIONSELEMENTE
100
AcDbLine
 62
7
  6
CONTINUOUS
 10
104.9028100584
 20
28.5699140781
 11
104.9028100584
 21
27.8076085541
  0
LINE
  5
4D2
100
AcDbEntity
  8
KONSTRUKTIONSELEMENTE
100
AcDbLine
 62
7
  6
CONTINUOUS
 10
105.2436432896
 20
28.6659427451
 11
105.2436432896
 21
27.8076085541
  0
LINE
  5
4D3
100
AcDbEntity
  8
KONSTRUKTIONSELEMENTE
100
AcDbLine
 62
7
  6
CONTINUOUS
 10
105.5723298472
 20
28.7011558227
 11
105.5723298472
 21
27.8076085541
  0
LINE
  5
4D4
100
AcDbEntity
  8
KONSTRUKTIONSELEMENTE
100
AcDbLine
 62
7
  6
CONTINUOUS
 10
105.830418061
 20
28.7011558227
 11
105.830418061
 21
27.8076085541
  0
LINE
  5
4D5
100
AcDbEntity
  8
KONSTRUKTIONSELEMENTE
100
AcDbLine
 62
7
  6
CONTINUOUS
 10
106.1469564682
 20
28.6659427451
 11
106.1469564682
 21
27.8076085541
  0
LINE
  5
4D6
100
AcDbEntity
  8
KONSTRUKTIONSELEMENTE
100
AcDbLine
 62
7
  6
CONTINUOUS
 10
106.4513452481
 20
28.5699140781
 11
106.4513452481
 21
27.8076085541
  0
LINE
  5
4D7
100
AcDbEntity
  8
KONSTRUKTIONSELEMENTE
100
AcDbLine
 62
7
  6
CONTINUOUS
 10
106.620615846
 20
28.4655979132
 11
106.620615846
 21
27.8076085541
  0
LINE
  5
4D8
100
AcDbEntity
  8
KONSTRUKTIONSELEMENTE
100
AcDbLine
 62
7
  6
CONTINUOUS
 10
106.6669164123
 20
28.4047707604
 11
106.6669164123
 21
27.8076085541
  0
LINE
  5
4D9
100
AcDbEntity
  8
KONSTRUKTIONSELEMENTE
100
AcDbLine
 62
7
  6
CONTINUOUS
 10
130.2094586079
 20
34.8076085541
 11
129.5033268645
 21
34.8076085541
  0
LINE
  5
4DA
100
AcDbEntity
  8
KONSTRUKTIONSELEMENTE
100
AcDbLine
 62
7
  6
CONTINUOUS
 10
78.853332603
 20
34.8076085541
 11
78.1472008596
 21
34.8076085541
  0
LINE
  5
4DB
100
AcDbEntity
  8
KONSTRUKTIONSELEMENTE
100
AcDbLine
 62
7
  6
CONTINUOUS
 10
106.6866271484
 20
28.3076085541
 11
106.6866271484
 21
27.8076085541
  0
LINE
  5
4DC
100
AcDbEntity
  8
KONSTRUKTIONSELEMENTE
100
AcDbLine
 62
7
  6
CONTINUOUS
 10
107.311799408
 20
28.3076085541
 11
107.311799408
 21
27.8076085541
  0
LINE
  5
4DD
100
AcDbEntity
  8
KONSTRUKTIONSELEMENTE
100
AcDbLine
 62
7
  6
CONTINUOUS
 10
107.6263035213
 20
28.3076085541
 11
107.6263035213
 21
27.8076085541
  0
LINE
  5
4DE
100
AcDbEntity
  8
KONSTRUKTIONSELEMENTE
100
AcDbLine
 62
7
  6
CONTINUOUS
 10
107.6494753257
 20
28.3076085541
 11
107.6494753257
 21
27.8076085541
  0
LINE
  5
4DF
100
AcDbEntity
  8
KONSTRUKTIONSELEMENTE
100
AcDbLine
 62
7
  6
CONTINUOUS
 10
107.7355496665
 20
28.3076085541
 11
107.7355496665
 21
27.8076085541
  0
LINE
  5
4E0
100
AcDbEntity
  8
KONSTRUKTIONSELEMENTE
100
AcDbLine
 62
7
  6
CONTINUOUS
 10
107.8414865147
 20
28.3076085541
 11
107.8414865147
 21
27.8076085541
  0
LINE
  5
4E1
100
AcDbEntity
  8
KONSTRUKTIONSELEMENTE
100
AcDbLine
 62
7
  6
CONTINUOUS
 10
107.8712989336
 20
28.4054859363
 11
107.8712989336
 21
27.8076085541
  0
LINE
  5
4E2
100
AcDbEntity
  8
KONSTRUKTIONSELEMENTE
100
AcDbLine
 62
7
  6
CONTINUOUS
 10
108.0136557773
 20
28.4905553274
 11
108.0136557773
 21
27.8076085541
  0
LINE
  5
4E3
100
AcDbEntity
  8
KONSTRUKTIONSELEMENTE
100
AcDbLine
 62
7
  6
CONTINUOUS
 10
108.3447130734
 20
28.6012671072
 11
108.3447130734
 21
27.8076085541
  0
LINE
  5
4E4
100
AcDbEntity
  8
KONSTRUKTIONSELEMENTE
100
AcDbLine
 62
7
  6
CONTINUOUS
 10
108.6360439426
 20
28.6665702288
 11
108.6360439426
 21
27.8076085541
  0
LINE
  5
4E5
100
AcDbEntity
  8
RUNDUNGEN
100
AcDbLine
 62
7
  6
CONTINUOUS
 10
110.1657090426
 20
37.5743877117
 11
110.1771570821
 21
37.6006426937
  0
LWPOLYLINE
  5
4E6
100
AcDbEntity
  8
RUNDUNGEN
100
AcDbPolyline
 62
7
  6
CONTINUOUS
 90
5
 70
0
 10
110.1771570821
 20
37.6006426937
 10
110.2246668201
 20
37.705741947
 10
110.2745658966
 20
37.8101787541
 10
110.3268230387
 20
37.9139350408
 10
110.3814059007
 20
38.0169912982
  0
LWPOLYLINE
  5
4E7
100
AcDbEntity
  8
RUNDUNGEN
100
AcDbPolyline
 62
7
  6
CONTINUOUS
 90
3
 70
0
 10
110.3814059007
 20
38.0169912982
 10
110.4019690878
 20
38.0545361663
 10
110.4316727003
 20
38.1074814602
  0
LINE
  5
4E8
100
AcDbEntity
  8
RUNDUNGEN
100
AcDbLine
 62
7
  6
CONTINUOUS
 10
110.4316727003
 20
38.1074814602
 11
110.4615732627
 21
38.1592675818
  0
LINE
  5
4E9
100
AcDbEntity
  8
RUNDUNGEN
100
AcDbLine
 62
7
  6
CONTINUOUS
 10
110.4615732627
 20
38.1592675818
 11
110.4699329322
 21
38.1734809416
  0
LINE
  5
4EA
100
AcDbEntity
  8
KONSTRUKTIONSELEMENTE
100
AcDbLine
 62
7
  6
CONTINUOUS
 10
123.6205574714
 20
37.3076085541
 11
84.7363090085
 21
37.3076085541
  0
LWPOLYLINE
  5
4EB
100
AcDbEntity
  8
RUNDUNGEN
100
AcDbPolyline
 62
7
  6
CONTINUOUS
 90
3
 70
0
 10
110.4692586752
 20
27.4428734236
 10
110.4572873654
 20
27.4632810888
 10
110.4274005775
 20
27.5152574032
  0
LINE
  5
4EC
100
AcDbEntity
  8
RUNDUNGEN
100
AcDbLine
 62
7
  6
CONTINUOUS
 10
110.4274005775
 20
27.5152574032
 11
110.3977128852
 21
27.5683925805
  0
LINE
  5
4ED
100
AcDbEntity
  8
RUNDUNGEN
100
AcDbLine
 62
7
  6
CONTINUOUS
 10
110.3977128852
 20
27.5683925805
 11
110.3775397495
 21
27.6053617106
  0
LINE
  5
4EE
100
AcDbEntity
  8
RUNDUNGEN
100
AcDbLine
 62
7
  6
CONTINUOUS
 10
110.3775397495
 20
27.6053617106
 11
110.3231380923
 21
27.7084270125
  0
LWPOLYLINE
  5
4EF
100
AcDbEntity
  8
RUNDUNGEN
100
AcDbPolyline
 62
7
  6
CONTINUOUS
 90
3
 70
0
 10
110.3231380923
 20
27.7084270125
 10
110.2710623257
 20
27.8121910131
 10
110.2213446719
 20
27.9166344181
  0
LWPOLYLINE
  5
4F0
100
AcDbEntity
  8
RUNDUNGEN
100
AcDbPolyline
 62
7
  6
CONTINUOUS
 90
3
 70
0
 10
110.2213446719
 20
27.9166344181
 10
110.1740163856
 20
28.0217391884
 10
110.1657087772
 20
28.0408300012
  0
LINE
  5
4F1
100
AcDbEntity
  8
KONSTRUKTIONSELEMENTE
100
AcDbLine
 62
7
  6
CONTINUOUS
 10
109.0962127707
 20
28.7010240178
 11
109.0962127707
 21
27.8076085541
  0
LINE
  5
4F2
100
AcDbEntity
  8
KONSTRUKTIONSELEMENTE
100
AcDbLine
 62
7
  6
CONTINUOUS
 10
109.2220135522
 20
28.7010240198
 11
109.2220135522
 21
27.8076085541
  0
LINE
  5
4F3
100
AcDbEntity
  8
KONSTRUKTIONSELEMENTE
100
AcDbLine
 62
7
  6
CONTINUOUS
 10
109.6424545138
 20
28.6665702441
 11
109.6424545138
 21
27.8076085541
  0
LINE
  5
4F4
100
AcDbEntity
  8
KONSTRUKTIONSELEMENTE
100
AcDbLine
 62
7
  6
CONTINUOUS
 10
109.8543282103
 20
28.6012671072
 11
109.8543282103
 21
27.8076085541
  0
LINE
  5
4F5
100
AcDbEntity
  8
KONSTRUKTIONSELEMENTE
100
AcDbLine
 62
7
  6
CONTINUOUS
 10
110.0264754799
 20
28.4905553491
 11
110.0264754799
 21
27.8076085541
  0
LINE
  5
4F6
100
AcDbEntity
  8
KONSTRUKTIONSELEMENTE
100
AcDbLine
 62
7
  6
CONTINUOUS
 10
110.572290641
 20
28.3076085541
 11
110.572290641
 21
27.8076085541
  0
LINE
  5
4F7
100
AcDbEntity
  8
KONSTRUKTIONSELEMENTE
100
AcDbLine
 62
7
  6
CONTINUOUS
 10
110.5774455578
 20
28.3076085541
 11
110.5774455578
 21
27.8076085541
  0
LINE
  5
4F8
100
AcDbEntity
  8
RUNDUNGEN
100
AcDbLine
 62
7
  6
CONTINUOUS
 10
110.6783297338
 20
18.1362197571
 11
110.6783297338
 21
26.6789995538
  0
LINE
  5
4F9
100
AcDbEntity
  8
RUNDUNGEN
100
AcDbLine
 62
7
  6
CONTINUOUS
 10
110.6783297338
 20
38.9362234909
 11
110.6783297338
 21
47.4790093053
  0
LINE
  5
4FA
100
AcDbEntity
  8
KONSTRUKTIONSELEMENTE
100
AcDbLine
 62
7
  6
CONTINUOUS
 10
110.7234913676
 20
28.3139199373
 11
110.7234913676
 21
27.8076085541
  0
LINE
  5
4FB
100
AcDbEntity
  8
KONSTRUKTIONSELEMENTE
100
AcDbLine
 62
7
  6
CONTINUOUS
 10
110.8489188646
 20
28.3449372324
 11
110.8489188646
 21
27.8076085541
  0
LINE
  5
4FC
100
AcDbEntity
  8
0
100
AcDbLine
 62
7
  6
CONTINUOUS
 10
120.4518169373
 20
37.7242755387
 11
120.7128054062
 21
37.7242755387
  0
LINE
  5
4FD
100
AcDbEntity
  8
0
100
AcDbLine
 62
7
  6
CONTINUOUS
 10
120.3473587708
 20
38.0576085541
 11
120.6100064589
 21
38.0576085541
  0
LINE
  5
4FE
100
AcDbEntity
  8
0
100
AcDbLine
 62
7
  6
CONTINUOUS
 10
120.2353030612
 20
38.3909415696
 11
120.4997540723
 21
38.3909415696
  0
LINE
  5
4FF
100
AcDbEntity
  8
0
100
AcDbLine
 62
7
  6
CONTINUOUS
 10
120.1763764896
 20
38.5576085541
 11
120.4417857011
 21
38.5576085541
  0
LINE
  5
500
100
AcDbEntity
  8
0
100
AcDbLine
 62
7
  6
CONTINUOUS
 10
120.1461794929
 20
38.6409415696
 11
120.4120824093
 21
38.6409415696
  0
LINE
  5
501
100
AcDbEntity
  8
0
100
AcDbLine
 62
7
  6
CONTINUOUS
 10
120.0526186256
 20
38.8909425233
 11
120.3200628446
 21
38.8909425233
  0
LINE
  5
502
100
AcDbEntity
  8
0
100
AcDbLine
 62
7
  6
CONTINUOUS
 10
119.8166021458
 20
39.474274585
 11
120.0880143326
 21
39.474274585
  0
LINE
  5
503
100
AcDbEntity
  8
0
100
AcDbLine
 62
7
  6
CONTINUOUS
 10
119.7444964702
 20
39.6409425233
 11
120.0171443001
 21
39.6409425233
  0
LINE
  5
504
100
AcDbEntity
  8
KONSTRUKTIONSELEMENTE
100
AcDbLine
 62
7
  6
CONTINUOUS
 10
111.3300106052
 20
28.3432281772
 11
111.3300106052
 21
27.8076085541
  0
LINE
  5
505
100
AcDbEntity
  8
KONSTRUKTIONSELEMENTE
100
AcDbLine
 62
7
  6
CONTINUOUS
 10
111.5808656868
 20
28.4835122911
 11
111.5808656868
 21
27.8076085541
  0
LINE
  5
506
100
AcDbEntity
  8
KONSTRUKTIONSELEMENTE
100
AcDbLine
 62
7
  6
CONTINUOUS
 10
111.8815478526
 20
28.4830767018
 11
111.8815478526
 21
27.8076085541
  0
LINE
  5
507
100
AcDbEntity
  8
KONSTRUKTIONSELEMENTE
100
AcDbLine
 62
7
  6
CONTINUOUS
 10
112.2921954628
 20
28.3449372324
 11
112.2921954628
 21
27.8076085541
  0
LINE
  5
508
100
AcDbEntity
  8
KONSTRUKTIONSELEMENTE
100
AcDbLine
 62
7
  6
CONTINUOUS
 10
112.423617653
 20
28.3076085541
 11
112.423617653
 21
27.8076085541
  0
LINE
  5
509
100
AcDbEntity
  8
KONSTRUKTIONSELEMENTE
100
AcDbLine
 62
7
  6
CONTINUOUS
 10
112.620478833
 20
28.3076085541
 11
112.620478833
 21
27.8076085541
  0
LINE
  5
50A
100
AcDbEntity
  8
0
100
AcDbLine
 62
7
  6
CONTINUOUS
 10
119.4751615949
 20
40.224274585
 11
119.7525252182
 21
40.224274585
  0
LINE
  5
50B
100
AcDbEntity
  8
0
100
AcDbLine
 62
7
  6
CONTINUOUS
 10
119.3090104852
 20
40.5576085541
 11
119.5893647412
 21
40.5576085541
  0
LINE
  5
50C
100
AcDbEntity
  8
0
100
AcDbLine
 62
7
  6
CONTINUOUS
 10
119.133586734
 20
40.8909425233
 11
119.4171686641
 21
40.8909425233
  0
LINE
  5
50D
100
AcDbEntity
  8
0
100
AcDbLine
 62
7
  6
CONTINUOUS
 10
119.088244755
 20
40.974274585
 11
119.3726729555
 21
40.974274585
  0
LINE
  5
50E
100
AcDbEntity
  8
0
100
AcDbLine
 62
7
  6
CONTINUOUS
 10
119.04229623
 20
41.0576085541
 11
119.3275871413
 21
41.0576085541
  0
LINE
  5
50F
100
AcDbEntity
  8
0
100
AcDbLine
 62
7
  6
CONTINUOUS
 10
97.6783297338
 20
41.6126085541
 11
97.1783297338
 21
41.6126085541
  0
LINE
  5
510
100
AcDbEntity
  8
0
100
AcDbLine
 62
7
  6
CONTINUOUS
 10
118.6522050577
 20
41.724274585
 11
118.9450344066
 21
41.724274585
  0
LINE
  5
511
100
AcDbEntity
  8
KONSTRUKTIONSELEMENTE
100
AcDbLine
 62
7
  6
CONTINUOUS
 10
113.4233615529
 20
28.3076085541
 11
113.4233615529
 21
27.8076085541
  0
LINE
  5
512
100
AcDbEntity
  8
KONSTRUKTIONSELEMENTE
100
AcDbLine
 62
7
  6
CONTINUOUS
 10
115.2954829993
 20
28.7161677365
 11
115.2954829993
 21
27.8076085541
  0
LINE
  5
513
100
AcDbEntity
  8
0
100
AcDbLine
 62
7
  6
CONTINUOUS
 10
97.6783297338
 20
42.2083532236
 11
97.1783297338
 21
42.2083532236
  0
LINE
  5
514
100
AcDbEntity
  8
0
100
AcDbLine
 62
7
  6
CONTINUOUS
 10
118.2196868632
 20
42.3909425233
 11
118.5213492916
 21
42.3909425233
  0
LINE
  5
515
100
AcDbEntity
  8
0
100
AcDbLine
 62
7
  6
CONTINUOUS
 10
97.6783297338
 20
42.4636724017
 11
97.1783297338
 21
42.4636724017
  0
LINE
  5
516
100
AcDbEntity
  8
0
100
AcDbLine
 62
7
  6
CONTINUOUS
 10
117.9260568186
 20
42.8076085541
 11
118.2340225306
 21
42.8076085541
  0
LINE
  5
517
100
AcDbEntity
  8
0
100
AcDbLine
 62
7
  6
CONTINUOUS
 10
97.6783297338
 20
43.6126085541
 11
97.1783297338
 21
43.6126085541
  0
LINE
  5
518
100
AcDbEntity
  8
0
100
AcDbLine
 62
7
  6
CONTINUOUS
 10
117.2100756939
 20
43.724274585
 11
117.5345605932
 21
43.724274585
  0
LINE
  5
519
100
AcDbEntity
  8
KONSTRUKTIONSELEMENTE
100
AcDbLine
 62
7
  6
CONTINUOUS
 10
116.5741493071
 20
28.7023101219
 11
116.5741493071
 21
27.8076085541
  0
LINE
  5
51A
100
AcDbEntity
  8
KONSTRUKTIONSELEMENTE
100
AcDbLine
 62
7
  6
CONTINUOUS
 10
116.7922703929
 20
28.6685086423
 11
116.7922703929
 21
27.8076085541
  0
LINE
  5
51B
100
AcDbEntity
  8
KONSTRUKTIONSELEMENTE
100
AcDbLine
 62
7
  6
CONTINUOUS
 10
116.8605798851
 20
28.5722759599
 11
116.8605798851
 21
27.8076085541
  0
LINE
  5
51C
100
AcDbEntity
  8
RUNDUNGEN
100
AcDbLine
 62
7
  6
CONTINUOUS
 10
98.6783297338
 20
45.8076085541
 11
109.6783297338
 21
45.8076085541
  0
ARC
  5
51D
100
AcDbEntity
  8
RUNDUNGEN
100
AcDbCircle
 62
7
  6
CONTINUOUS
 10
93.6783297338
 20
106.2451205638
 40
4.0
100
AcDbArc
 50
270.0011473704
 51
360.0
  0
ARC
  5
51E
100
AcDbEntity
  8
RUNDUNGEN
100
AcDbCircle
 62
7
  6
CONTINUOUS
 10
88.6783297338
 20
100.7451205638
 40
1.5
100
AcDbArc
 50
90.0
 51
180.0
  0
ARC
  5
51F
100
AcDbEntity
  8
KONSTRUKTIONSELEMENTE
100
AcDbCircle
 62
7
  6
CONTINUOUS
 10
44.1783297338
 20
149.8451205638
 40
86.5
100
AcDbArc
 50
343.7397952917
 51
16.2602047083
  0
ARC
  5
520
100
AcDbEntity
  8
KONSTRUKTIONSELEMENTE
100
AcDbCircle
 62
7
  6
CONTINUOUS
 10
44.1783297338
 20
149.8451205638
 40
86.0311288741
100
AcDbArc
 50
352.6540124577
 51
7.3459875423
  0
ARC
  5
521
100
AcDbEntity
  8
KONSTRUKTIONSELEMENTE
100
AcDbCircle
 62
7
  6
CONTINUOUS
 10
44.1783297338
 20
149.8451205638
 40
77.9688711259
100
AcDbArc
 50
351.8895414224
 51
8.1104585776
  0
ARC
  5
522
100
AcDbEntity
  8
KONSTRUKTIONSELEMENTE
100
AcDbCircle
 62
7
  6
CONTINUOUS
 10
44.1783297338
 20
149.8451205638
 40
77.5
100
AcDbArc
 50
343.7397952917
 51
16.2602047083
  0
ARC
  5
523
100
AcDbEntity
  8
KONSTRUKTIONSELEMENTE
100
AcDbCircle
 62
7
  6
CONTINUOUS
 10
104.1783297338
 20
132.3451205638
 40
24.0
100
AcDbArc
 50
196.2602047083
 51
254.2842786346
  0
ARC
  5
524
100
AcDbEntity
  8
KONSTRUKTIONSELEMENTE
100
AcDbCircle
 62
7
  6
CONTINUOUS
 10
104.1783297338
 20
132.3451205638
 40
24.0
100
AcDbArc
 50
285.7157213654
 51
343.7397952917
  0
ARC
  5
525
100
AcDbEntity
  8
KONSTRUKTIONSELEMENTE
100
AcDbCircle
 62
7
  6
CONTINUOUS
 10
104.1783297338
 20
132.3451205638
 40
15.0
100
AcDbArc
 50
196.2602047083
 51
244.3325538844
  0
ARC
  5
526
100
AcDbEntity
  8
KONSTRUKTIONSELEMENTE
100
AcDbCircle
 62
7
  6
CONTINUOUS
 10
104.1783297338
 20
132.3451205638
 40
15.0
100
AcDbArc
 50
295.6674461155
 51
343.7397952917
  0
ARC
  5
527
100
AcDbEntity
  8
RUNDUNGEN
100
AcDbCircle
 62
7
  6
CONTINUOUS
 10
104.1783297338
 20
118.7451205638
 40
6.5
100
AcDbArc
 50
0.0
 51
180.0
  0
ARC
  5
528
100
AcDbEntity
  8
RUNDUNGEN
100
AcDbCircle
 62
7
  6
CONTINUOUS
 10
114.6783297338
 20
106.2451205638
 40
4.0
100
AcDbArc
 50
180.0
 51
269.9984659712
  0
ARC
  5
529
100
AcDbEntity
  8
RUNDUNGEN
100
AcDbCircle
 62
7
  6
CONTINUOUS
 10
119.6783297338
 20
100.7451205638
 40
1.5
100
AcDbArc
 50
0.0
 51
90.0
  0
ARC
  5
52A
100
AcDbEntity
  8
KONSTRUKTIONSELEMENTE
100
AcDbCircle
 62
7
  6
CONTINUOUS
 10
164.1783297338
 20
149.8451205638
 40
86.5
100
AcDbArc
 50
163.7397952917
 51
196.2602047083
  0
ARC
  5
52B
100
AcDbEntity
  8
KONSTRUKTIONSELEMENTE
100
AcDbCircle
 62
7
  6
CONTINUOUS
 10
164.1783297338
 20
149.8451205638
 40
86.0311288741
100
AcDbArc
 50
172.6540124577
 51
187.3459875423
  0
ARC
  5
52C
100
AcDbEntity
  8
KONSTRUKTIONSELEMENTE
100
AcDbCircle
 62
7
  6
CONTINUOUS
 10
164.1783297338
 20
149.8451205638
 40
77.9688711259
100
AcDbArc
 50
171.8895414224
 51
188.1104585776
  0
ARC
  5
52D
100
AcDbEntity
  8
KONSTRUKTIONSELEMENTE
100
AcDbCircle
 62
7
  6
CONTINUOUS
 10
164.1783297338
 20
149.8451205638
 40
77.5
100
AcDbArc
 50
163.7397952917
 51
196.2602047083
  0
ARC
  5
52E
100
AcDbEntity
  8
KONSTRUKTIONSELEMENTE
100
AcDbCircle
 62
7
  6
CONTINUOUS
 10
104.1783297338
 20
167.3451205638
 40
24.0
100
AcDbArc
 50
16.2602047083
 51
163.7397952917
  0
ARC
  5
52F
100
AcDbEntity
  8
KONSTRUKTIONSELEMENTE
100
AcDbCircle
 62
7
  6
CONTINUOUS
 10
104.1783297338
 20
167.3451205638
 40
15.0
100
AcDbArc
 50
16.2602047083
 51
163.7397952917
  0
ARC
  5
530
100
AcDbEntity
  8
RUNDUNGEN
100
AcDbCircle
 62
7
  6
CONTINUOUS
 10
183.4146085525
 20
116.6111459676
 40
3.5
100
AcDbArc
 50
330.0
 51
360.0
  0
ARC
  5
531
100
AcDbEntity
  8
RUNDUNGEN
100
AcDbCircle
 62
7
  6
CONTINUOUS
 10
189.4146085525
 20
122.6786574845
 40
2.5
100
AcDbArc
 50
140.0
 51
179.9993956533
  0
ARC
  5
532
100
AcDbEntity
  8
RUNDUNGEN
100
AcDbCircle
 62
7
  6
CONTINUOUS
 10
193.729950114
 20
123.7451205638
 40
1.5
100
AcDbArc
 50
62.7339555493
 51
90.0
  0
ARC
  5
533
100
AcDbEntity
  8
RUNDUNGEN
100
AcDbCircle
 62
7
  6
CONTINUOUS
 10
188.7709162106
 20
124.2451205638
 40
1.0
100
AcDbArc
 50
90.0
 51
140.0
  0
ARC
  5
534
100
AcDbEntity
  8
RUNDUNGEN
100
AcDbCircle
 62
7
  6
CONTINUOUS
 10
183.9146174271
 20
108.4771867427
 40
1.0
100
AcDbArc
 50
150.0010169546
 51
180.0008806989
  0
ARC
  5
535
100
AcDbEntity
  8
KONSTRUKTIONSELEMENTE
100
AcDbCircle
 62
7
  6
CONTINUOUS
 10
186.6512493835
 20
184.2785689865
 40
17.3700213284
100
AcDbArc
 50
357.6011902106
 51
0.7179653739
  0
ARC
  5
536
100
AcDbEntity
  8
KONSTRUKTIONSELEMENTE
100
AcDbCircle
 62
7
  6
CONTINUOUS
 10
193.7687367441
 20
186.2104738326
 40
10.2525322646
100
AcDbArc
 50
356.8776745311
 51
0.9339391803
  0
ARC
  5
537
100
AcDbEntity
  8
KONSTRUKTIONSELEMENTE
100
AcDbCircle
 62
7
  6
CONTINUOUS
 10
198.892719312
 20
186.5019581309
 40
5.4793864076
100
AcDbArc
 50
16.2531002226
 51
19.5312561121
  0
ARC
  5
538
100
AcDbEntity
  8
KONSTRUKTIONSELEMENTE
100
AcDbCircle
 62
7
  6
CONTINUOUS
 10
199.0410824064
 20
186.4181108249
 40
5.3618085585
100
AcDbArc
 50
14.4430929898
 51
17.557110507
  0
ARC
  5
539
100
AcDbEntity
  8
KONSTRUKTIONSELEMENTE
100
AcDbCircle
 62
7
  6
CONTINUOUS
 10
199.4191869368
 20
186.4293810824
 40
4.9935390671
100
AcDbArc
 50
11.2105380792
 51
15.3999771853
  0
ARC
  5
53A
100
AcDbEntity
  8
KONSTRUKTIONSELEMENTE
100
AcDbCircle
 62
7
  6
CONTINUOUS
 10
199.5726642874
 20
186.436967323
 40
4.8415670804
100
AcDbArc
 50
8.32917086
 51
11.4755855577
  0
ARC
  5
53B
100
AcDbEntity
  8
KONSTRUKTIONSELEMENTE
100
AcDbCircle
 62
7
  6
CONTINUOUS
 10
199.4578515985
 20
185.7581602618
 40
4.7333741683
100
AcDbArc
 50
344.5377256909
 51
346.1551586208
  0
ARC
  5
53C
100
AcDbEntity
  8
KONSTRUKTIONSELEMENTE
100
AcDbCircle
 62
7
  6
CONTINUOUS
 10
199.7211309764
 20
186.4454159238
 40
4.6934609438
100
AcDbArc
 50
3.2061649483
 51
8.4896688862
  0
ARC
  5
53D
100
AcDbEntity
  8
0
100
AcDbCircle
 62
7
  6
CONTINUOUS
 10
199.9146085525
 20
135.7451205638
 40
12.0
100
AcDbArc
 50
292.028587925
 51
297.2660444507
  0
ARC
  5
53E
100
AcDbEntity
  8
0
100
AcDbCircle
 62
7
  6
CONTINUOUS
 10
199.9146085525
 20
135.7451205638
 40
12.0
100
AcDbArc
 50
242.7339555493
 51
247.971412075
  0
ARC
  5
53F
100
AcDbEntity
  8
RUNDUNGEN
100
AcDbCircle
 62
7
  6
CONTINUOUS
 10
199.9146085525
 20
109.7451205638
 40
6.5
100
AcDbArc
 50
138.0000130275
 51
41.9999857237
  0
ARC
  5
540
100
AcDbEntity
  8
KONSTRUKTIONSELEMENTE
100
AcDbCircle
 62
7
  6
CONTINUOUS
 10
199.9146085525
 20
112.8451205638
 40
4.5
100
AcDbArc
 50
180.0
 51
360.0
  0
ARC
  5
541
100
AcDbEntity
  8
RUNDUNGEN
100
AcDbCircle
 62
7
  6
CONTINUOUS
 10
216.4146085525
 20
116.6111459676
 40
3.5
100
AcDbArc
 50
180.0
 51
210.0
  0
ARC
  5
542
100
AcDbEntity
  8
RUNDUNGEN
100
AcDbCircle
 62
7
  6
CONTINUOUS
 10
210.4146085525
 20
122.6786574845
 40
2.5
100
AcDbArc
 50
359.9998064356
 51
40.0001184437
  0
ARC
  5
543
100
AcDbEntity
  8
RUNDUNGEN
100
AcDbCircle
 62
7
  6
CONTINUOUS
 10
206.0992669909
 20
123.7451205638
 40
1.5
100
AcDbArc
 50
90.0
 51
117.2660444507
  0
ARC
  5
544
100
AcDbEntity
  8
0
100
AcDbCircle
 62
7
  6
CONTINUOUS
 10
209.9738549516
 20
114.6712931505
 40
1.5
100
AcDbArc
 50
174.2608295227
 51
5.7391704773
  0
ARC
  5
545
100
AcDbEntity
  8
0
100
AcDbCircle
 62
7
  6
CONTINUOUS
 10
209.9738549516
 20
112.1212931505
 40
1.5
100
AcDbArc
 50
174.2608295227
 51
5.7391704773
  0
ARC
  5
546
100
AcDbEntity
  8
0
100
AcDbCircle
 62
7
  6
CONTINUOUS
 10
209.9738549516
 20
114.6712931505
 40
1.05
100
AcDbArc
 50
282.6531012477
 51
8.2132107017
  0
ARC
  5
547
100
AcDbEntity
  8
0
100
AcDbCircle
 62
7
  6
CONTINUOUS
 10
209.9738549516
 20
114.6712931505
 40
1.05
100
AcDbArc
 50
171.7867892983
 51
257.7240830835
  0
ARC
  5
548
100
AcDbEntity
  8
0
100
AcDbCircle
 62
7
  6
CONTINUOUS
 10
209.9738549516
 20
112.1212931505
 40
1.05
100
AcDbArc
 50
182.8938283409
 51
8.2132107017
  0
ARC
  5
549
100
AcDbEntity
  8
RUNDUNGEN
100
AcDbCircle
 62
7
  6
CONTINUOUS
 10
211.0583008943
 20
124.2451205638
 40
1.0
100
AcDbArc
 50
40.0
 51
89.9999999999
  0
ARC
  5
54A
100
AcDbEntity
  8
RUNDUNGEN
100
AcDbCircle
 62
7
  6
CONTINUOUS
 10
215.9145457536
 20
108.4772801422
 40
1.0
100
AcDbArc
 50
359.993768506
 51
29.9928037816
  0
ARC
  5
54B
100
AcDbEntity
  8
KONSTRUKTIONSELEMENTE
100
AcDbCircle
 62
7
  6
CONTINUOUS
 10
199.9146085525
 20
186.8451205638
 40
4.5
100
AcDbArc
 50
21.2339996808
 51
180.0
  0
ARC
  5
54C
100
AcDbEntity
  8
KONSTRUKTIONSELEMENTE
100
AcDbCircle
 62
7
  6
CONTINUOUS
 10
199.987005018
 20
186.4526765284
 40
4.4276035415
100
AcDbArc
 50
0.0004484039
 51
3.304782765
  0
ARC
  5
54D
100
AcDbEntity
  8
KONSTRUKTIONSELEMENTE
100
AcDbCircle
 62
7
  6
CONTINUOUS
 10
199.9416485724
 20
187.3535640889
 40
4.2303123916
100
AcDbArc
 50
13.3986380901
 51
15.3405355337
  0
ARC
  5
54E
100
AcDbEntity
  8
KONSTRUKTIONSELEMENTE
100
AcDbCircle
 62
7
  6
CONTINUOUS
 10
202.2653993788
 20
187.2042726304
 40
1.9395122748
100
AcDbArc
 50
334.7711827724
 51
337.2262528135
  0
ARC
  5
54F
100
AcDbEntity
  8
0
100
AcDbCircle
 62
7
  6
CONTINUOUS
 10
87.1783297338
 20
32.8076085541
 40
12.0
100
AcDbArc
 50
332.7339555493
 51
337.9707809999
  0
ARC
  5
550
100
AcDbEntity
  8
0
100
AcDbCircle
 62
7
  6
CONTINUOUS
 10
87.1783297338
 20
32.8076085541
 40
12.0
100
AcDbArc
 50
22.0292190001
 51
27.2660444507
  0
ARC
  5
551
100
AcDbEntity
  8
RUNDUNGEN
100
AcDbCircle
 62
7
  6
CONTINUOUS
 10
87.1783297338
 20
32.8076085541
 40
12.0
100
AcDbArc
 50
22.0252968834
 51
27.2660444507
  0
ARC
  5
552
100
AcDbEntity
  8
RUNDUNGEN
100
AcDbCircle
 62
7
  6
CONTINUOUS
 10
87.1783297338
 20
32.8076085541
 40
12.0
100
AcDbArc
 50
332.7339555493
 51
337.9747041083
  0
ARC
  5
553
100
AcDbEntity
  8
KONSTRUKTIONSELEMENTE
100
AcDbCircle
 62
7
  6
CONTINUOUS
 10
82.1783297338
 20
32.8076085541
 40
4.5
100
AcDbArc
 50
153.6122000388
 51
206.3877999612
  0
ARC
  5
554
100
AcDbEntity
  8
KONSTRUKTIONSELEMENTE
100
AcDbCircle
 62
7
  6
CONTINUOUS
 10
91.1915900842
 20
58.2332974473
 40
29.5323520636
100
AcDbArc
 50
268.1602944089
 51
270.5508259606
  0
ARC
  5
555
100
AcDbEntity
  8
KONSTRUKTIONSELEMENTE
100
AcDbCircle
 62
7
  6
CONTINUOUS
 10
94.0405443659
 20
36.4024157106
 40
8.0563958997
100
AcDbArc
 50
253.7338783579
 51
256.3890296457
  0
ARC
  5
556
100
AcDbEntity
  8
KONSTRUKTIONSELEMENTE
100
AcDbCircle
 62
7
  6
CONTINUOUS
 10
97.0330183876
 20
35.9031829407
 40
7.5581572367
100
AcDbArc
 50
253.176490017
 51
255.9143771357
  0
ARC
  5
557
100
AcDbEntity
  8
KONSTRUKTIONSELEMENTE
100
AcDbCircle
 62
7
  6
CONTINUOUS
 10
93.7511129873
 20
33.451028567
 40
5.1364345189
100
AcDbArc
 50
251.7744237813
 51
255.9689058871
  0
ARC
  5
558
100
AcDbEntity
  8
KONSTRUKTIONSELEMENTE
100
AcDbCircle
 62
7
  6
CONTINUOUS
 10
96.6839582708
 20
32.7155066759
 40
4.4031348248
100
AcDbArc
 50
250.2155962966
 51
254.7289796062
  0
ARC
  5
559
100
AcDbEntity
  8
KONSTRUKTIONSELEMENTE
100
AcDbCircle
 62
7
  6
CONTINUOUS
 10
93.5042417228
 20
31.4604094921
 40
3.1547351556
100
AcDbArc
 50
251.54907663
 51
255.4648348893
  0
ARC
  5
55A
100
AcDbEntity
  8
KONSTRUKTIONSELEMENTE
100
AcDbCircle
 62
7
  6
CONTINUOUS
 10
96.4017649671
 20
30.7137073026
 40
2.4112153106
100
AcDbArc
 50
248.6579089987
 51
253.0982246685
  0
ARC
  5
55B
100
AcDbEntity
  8
KONSTRUKTIONSELEMENTE
100
AcDbCircle
 62
7
  6
CONTINUOUS
 10
93.3051587706
 20
30.0948401705
 40
1.7892076177
100
AcDbArc
 50
250.6553705342
 51
257.5566328786
  0
ARC
  5
55C
100
AcDbEntity
  8
KONSTRUKTIONSELEMENTE
100
AcDbCircle
 62
7
  6
CONTINUOUS
 10
93.1734985323
 20
29.106211462
 40
0.7999040276
100
AcDbArc
 50
251.4958366497
 51
257.2954262217
  0
ARC
  5
55D
100
AcDbEntity
  8
KONSTRUKTIONSELEMENTE
100
AcDbCircle
 62
7
  6
CONTINUOUS
 10
93.165819828
 20
29.0741255605
 40
0.7669150765
100
AcDbArc
 50
257.3278683515
 51
259.3172186986
  0
ARC
  5
55E
100
AcDbEntity
  8
KONSTRUKTIONSELEMENTE
100
AcDbCircle
 62
7
  6
CONTINUOUS
 10
96.0388326666
 20
28.6674770749
 40
0.3664954601
100
AcDbArc
 50
240.7657622844
 51
243.5055857966
  0
ARC
  5
55F
100
AcDbEntity
  8
RUNDUNGEN
100
AcDbCircle
 62
7
  6
CONTINUOUS
 10
99.1910709184
 20
26.6767189384
 40
1.5128141156
100
AcDbArc
 50
161.7640016113
 51
177.2409396931
  0
ARC
  5
560
100
AcDbEntity
  8
RUNDUNGEN
100
AcDbCircle
 62
7
  6
CONTINUOUS
 10
99.1783297338
 20
26.6229501157
 40
1.5
100
AcDbArc
 50
152.7339555493
 51
180.0
  0
ARC
  5
561
100
AcDbEntity
  8
RUNDUNGEN
100
AcDbCircle
 62
7
  6
CONTINUOUS
 10
99.1782760847
 20
18.1362074531
 40
1.4999853684
100
AcDbArc
 50
179.9999866315
 51
251.180116958
  0
ARC
  5
562
100
AcDbEntity
  8
RUNDUNGEN
100
AcDbCircle
 62
7
  6
CONTINUOUS
 10
99.1757809044
 20
26.6803227379
 40
1.4971649093
100
AcDbArc
 50
149.3260167424
 51
161.7118812221
  0
ARC
  5
563
100
AcDbEntity
  8
RUNDUNGEN
100
AcDbCircle
 62
7
  6
CONTINUOUS
 10
99.1681335279
 20
26.6786409367
 40
1.4898110202
100
AcDbArc
 50
177.272308471
 51
177.8522626409
  0
ARC
  5
564
100
AcDbEntity
  8
RUNDUNGEN
100
AcDbCircle
 62
7
  6
CONTINUOUS
 10
99.158949289
 20
26.6789425141
 40
1.4806219318
100
AcDbArc
 50
177.8506054041
 51
179.9979060391
  0
ARC
  5
565
100
AcDbEntity
  8
RUNDUNGEN
100
AcDbCircle
 62
7
  6
CONTINUOUS
 10
98.6783297338
 20
20.8076085541
 40
1.0
100
AcDbArc
 50
180.0
 51
270.0
  0
ARC
  5
566
100
AcDbEntity
  8
KONSTRUKTIONSELEMENTE
100
AcDbCircle
 62
7
  6
CONTINUOUS
 10
103.7115122182
 20
35.8741494932
 40
7.5197806594
100
AcDbArc
 50
253.4634474249
 51
256.2748187822
  0
ARC
  5
567
100
AcDbEntity
  8
KONSTRUKTIONSELEMENTE
100
AcDbCircle
 62
7
  6
CONTINUOUS
 10
103.1778965453
 20
35.3449976481
 40
6.9912147734
100
AcDbArc
 50
284.2838499586
 51
287.1861732584
  0
ARC
  5
568
100
AcDbEntity
  8
KONSTRUKTIONSELEMENTE
100
AcDbCircle
 62
7
  6
CONTINUOUS
 10
99.0409018614
 20
33.3983187161
 40
5.0501795465
100
AcDbArc
 50
287.0111971948
 51
290.417015672
  0
ARC
  5
569
100
AcDbEntity
  8
KONSTRUKTIONSELEMENTE
100
AcDbCircle
 62
7
  6
CONTINUOUS
 10
103.2908946542
 20
32.0771279239
 40
3.7637202852
100
AcDbArc
 50
248.7590052197
 51
252.4404879834
  0
ARC
  5
56A
100
AcDbEntity
  8
KONSTRUKTIONSELEMENTE
100
AcDbCircle
 62
7
  6
CONTINUOUS
 10
103.8215586897
 20
30.5484354796
 40
2.2546954248
100
AcDbArc
 50
292.5152274659
 51
298.6563685829
  0
ARC
  5
56B
100
AcDbEntity
  8
KONSTRUKTIONSELEMENTE
100
AcDbCircle
 62
7
  6
CONTINUOUS
 10
99.4738695268
 20
30.4084069385
 40
2.1151961089
100
AcDbArc
 50
294.8324005208
 51
299.5913340231
  0
ARC
  5
56C
100
AcDbEntity
  8
RUNDUNGEN
100
AcDbCircle
 62
7
  6
CONTINUOUS
 10
99.1910730272
 20
38.9384877502
 40
1.5128135129
100
AcDbArc
 50
182.7599158804
 51
198.236091943
  0
ARC
  5
56D
100
AcDbEntity
  8
RUNDUNGEN
100
AcDbCircle
 62
7
  6
CONTINUOUS
 10
99.1783297338
 20
38.9922669926
 40
1.5
100
AcDbArc
 50
180.0
 51
207.2660444537
  0
ARC
  5
56E
100
AcDbEntity
  8
RUNDUNGEN
100
AcDbCircle
 62
7
  6
CONTINUOUS
 10
99.1757835583
 20
38.9348839606
 40
1.4971648294
100
AcDbArc
 50
198.2882071439
 51
210.6733631426
  0
ARC
  5
56F
100
AcDbEntity
  8
RUNDUNGEN
100
AcDbCircle
 62
7
  6
CONTINUOUS
 10
99.1681316051
 20
38.9365654221
 40
1.4898063624
100
AcDbArc
 50
182.1461823639
 51
182.7285550138
  0
ARC
  5
570
100
AcDbEntity
  8
RUNDUNGEN
100
AcDbCircle
 62
7
  6
CONTINUOUS
 10
99.1589456089
 20
38.9362639186
 40
1.4806155194
100
AcDbArc
 50
180.0026274083
 51
182.1478353615
  0
ARC
  5
571
100
AcDbEntity
  8
KONSTRUKTIONSELEMENTE
100
AcDbCircle
 62
7
  6
CONTINUOUS
 10
94.2034737682
 20
65.350782561
 40
36.6498374577
100
AcDbArc
 50
268.3485640599
 51
270.4945060157
  0
ARC
  5
572
100
AcDbEntity
  8
KONSTRUKTIONSELEMENTE
100
AcDbCircle
 62
7
  6
CONTINUOUS
 10
98.3246520631
 20
56.5582916745
 40
28.0027491262
100
AcDbArc
 50
275.0768334255
 51
275.842028916
  0
ARC
  5
573
100
AcDbEntity
  8
KONSTRUKTIONSELEMENTE
100
AcDbCircle
 62
7
  6
CONTINUOUS
 10
97.5364298237
 20
56.184921356
 40
27.6476773364
100
AcDbArc
 50
263.7359739153
 51
264.4146020136
  0
ARC
  5
574
100
AcDbEntity
  8
KONSTRUKTIONSELEMENTE
100
AcDbCircle
 62
7
  6
CONTINUOUS
 10
102.5085575814
 20
55.7474527958
 40
27.2192740619
100
AcDbArc
 50
275.7670085374
 51
276.4628475931
  0
ARC
  5
575
100
AcDbEntity
  8
KONSTRUKTIONSELEMENTE
100
AcDbCircle
 62
7
  6
CONTINUOUS
 10
94.3355829985
 20
53.3775102081
 40
24.8404018621
100
AcDbArc
 50
263.3883986849
 51
264.1041269281
  0
ARC
  5
576
100
AcDbEntity
  8
RUNDUNGEN
100
AcDbCircle
 62
7
  6
CONTINUOUS
 10
99.1783297338
 20
47.4790093053
 40
1.5
100
AcDbArc
 50
108.8196295078
 51
180.0
  0
ARC
  5
577
100
AcDbEntity
  8
RUNDUNGEN
100
AcDbCircle
 62
7
  6
CONTINUOUS
 10
98.6783297338
 20
44.8076085541
 40
1.0
100
AcDbArc
 50
90.0
 51
180.0
  0
ARC
  5
578
100
AcDbEntity
  8
FASEN
100
AcDbCircle
 62
7
  6
CONTINUOUS
 10
104.1783297338
 20
32.8076085541
 40
20.0
100
AcDbArc
 50
193.0329724199
 51
346.9672056156
  0
ARC
  5
579
100
AcDbEntity
  8
FASEN
100
AcDbCircle
 62
7
  6
CONTINUOUS
 10
104.1783297338
 20
32.8076085541
 40
20.0
100
AcDbArc
 50
13.0327936184
 51
166.9670299716
  0
ARC
  5
57A
100
AcDbEntity
  8
FASEN
100
AcDbCircle
 62
7
  6
CONTINUOUS
 10
104.1783297338
 20
32.8076085541
 40
19.5
100
AcDbArc
 50
13.349783831
 51
166.6502160862
  0
ARC
  5
57B
100
AcDbEntity
  8
FASEN
100
AcDbCircle
 62
7
  6
CONTINUOUS
 10
104.1783297338
 20
32.8076085541
 40
19.5
100
AcDbArc
 50
193.349783831
 51
346.6502160862
  0
ARC
  5
57C
100
AcDbEntity
  8
0
100
AcDbCircle
 62
7
  6
CONTINUOUS
 10
104.1783297338
 20
32.8076085541
 40
17.25
100
AcDbArc
 50
31.1250856063
 51
39.2607199174
  0
ARC
  5
57D
100
AcDbEntity
  8
0
100
AcDbCircle
 62
7
  6
CONTINUOUS
 10
104.1783297338
 20
32.8076085541
 40
17.25
100
AcDbArc
 50
327.5725066183
 51
339.0539998895
  0
ARC
  5
57E
100
AcDbEntity
  8
0
100
AcDbCircle
 62
7
  6
CONTINUOUS
 10
104.1783297338
 20
32.8076085541
 40
17.25
100
AcDbArc
 50
311.094787995
 51
324.9088248461
  0
ARC
  5
57F
100
AcDbEntity
  8
0
100
AcDbCircle
 62
7
  6
CONTINUOUS
 10
104.1783297338
 20
32.8076085541
 40
17.25
100
AcDbArc
 50
15.1216653149
 51
28.5718781423
  0
ARC
  5
580
100
AcDbEntity
  8
0
100
AcDbCircle
 62
7
  6
CONTINUOUS
 10
104.1783297338
 20
32.8076085541
 40
17.25
100
AcDbArc
 50
341.4071774506
 51
344.8782650379
  0
ARC
  5
581
100
AcDbEntity
  8
RUNDUNGEN
100
AcDbCircle
 62
7
  6
CONTINUOUS
 10
104.1783297338
 20
32.8076085541
 40
17.0
100
AcDbArc
 50
15.3540074203
 51
164.6459926497
  0
ARC
  5
582
100
AcDbEntity
  8
RUNDUNGEN
100
AcDbCircle
 62
7
  6
CONTINUOUS
 10
104.1783297338
 20
32.8076085541
 40
17.0
100
AcDbArc
 50
195.3540073617
 51
344.6459925745
  0
ARC
  5
583
100
AcDbEntity
  8
KONSTRUKTIONSELEMENTE
100
AcDbCircle
 62
7
  6
CONTINUOUS
 10
106.798671173
 20
32.6740083823
 40
4.3563134703
100
AcDbArc
 50
286.1946844608
 51
290.7871222979
  0
ARC
  5
584
100
AcDbEntity
  8
KONSTRUKTIONSELEMENTE
100
AcDbCircle
 62
7
  6
CONTINUOUS
 10
106.1804438013
 20
38.9390200152
 40
10.5618746759
100
AcDbArc
 50
281.8244275195
 51
283.4441027752
  0
ARC
  5
585
100
AcDbEntity
  8
RUNDUNGEN
100
AcDbCircle
 62
7
  6
CONTINUOUS
 10
109.165586308
 20
26.6767287193
 40
1.512813669
100
AcDbArc
 50
2.7603375489
 51
18.2357609146
  0
ARC
  5
586
100
AcDbEntity
  8
RUNDUNGEN
100
AcDbCircle
 62
7
  6
CONTINUOUS
 10
109.1783297338
 20
18.136207803
 40
1.5
100
AcDbArc
 50
288.8196331525
 51
360.0
  0
ARC
  5
587
100
AcDbEntity
  8
RUNDUNGEN
100
AcDbCircle
 62
7
  6
CONTINUOUS
 10
109.1783297338
 20
26.6229501157
 40
1.5
100
AcDbArc
 50
0.0
 51
27.2660444545
  0
ARC
  5
588
100
AcDbEntity
  8
RUNDUNGEN
100
AcDbCircle
 62
7
  6
CONTINUOUS
 10
109.1808757133
 20
26.6803323917
 40
1.4971650748
100
AcDbArc
 50
18.2878761438
 51
30.6734797429
  0
ARC
  5
589
100
AcDbEntity
  8
RUNDUNGEN
100
AcDbCircle
 62
7
  6
CONTINUOUS
 10
109.1885255593
 20
26.6786508572
 40
1.4898086898
100
AcDbArc
 50
2.1457136316
 51
2.7289865265
  0
ARC
  5
58A
100
AcDbEntity
  8
RUNDUNGEN
100
AcDbCircle
 62
7
  6
CONTINUOUS
 10
109.1977142888
 20
26.6789523992
 40
1.4806151138
100
AcDbArc
 50
0.0022077105
 51
2.1473661934
  0
ARC
  5
58B
100
AcDbEntity
  8
RUNDUNGEN
100
AcDbCircle
 62
7
  6
CONTINUOUS
 10
109.6783297338
 20
20.8076085541
 40
1.0
100
AcDbArc
 50
270.0
 51
360.0
  0
ARC
  5
58C
100
AcDbEntity
  8
KONSTRUKTIONSELEMENTE
100
AcDbCircle
 62
7
  6
CONTINUOUS
 10
111.5000612958
 20
34.3171492464
 40
5.9480875933
100
AcDbArc
 50
251.8019131056
 51
253.9376812664
  0
ARC
  5
58D
100
AcDbEntity
  8
KONSTRUKTIONSELEMENTE
100
AcDbCircle
 62
7
  6
CONTINUOUS
 10
108.023531695
 20
34.0838189133
 40
5.7336652113
100
AcDbArc
 50
250.8955865236
 51
254.0854944314
  0
ARC
  5
58E
100
AcDbEntity
  8
RUNDUNGEN
100
AcDbCircle
 62
7
  6
CONTINUOUS
 10
109.1655885837
 20
38.9384986329
 40
1.5128141151
100
AcDbArc
 50
341.7640982673
 51
357.2408470198
  0
ARC
  5
58F
100
AcDbEntity
  8
RUNDUNGEN
100
AcDbCircle
 62
7
  6
CONTINUOUS
 10
109.1783297338
 20
38.9922669926
 40
1.5
100
AcDbArc
 50
332.7339555493
 51
360.0
  0
ARC
  5
590
100
AcDbEntity
  8
RUNDUNGEN
100
AcDbCircle
 62
7
  6
CONTINUOUS
 10
109.1808785101
 20
38.934894887
 40
1.4971650063
100
AcDbArc
 50
329.3259705155
 51
341.7119779964
  0
ARC
  5
591
100
AcDbEntity
  8
RUNDUNGEN
100
AcDbCircle
 62
7
  6
CONTINUOUS
 10
109.1885253537
 20
38.936576687
 40
1.4898116406
100
AcDbArc
 50
357.27221349
 51
357.8523418659
  0
ARC
  5
592
100
AcDbEntity
  8
RUNDUNGEN
100
AcDbCircle
 62
7
  6
CONTINUOUS
 10
109.1977101614
 20
38.9362750996
 40
1.4806219833
100
AcDbArc
 50
357.8506846842
 51
359.9979958688
  0
ARC
  5
593
100
AcDbEntity
  8
RUNDUNGEN
100
AcDbCircle
 62
7
  6
CONTINUOUS
 10
109.6783297338
 20
44.8076085541
 40
1.0
100
AcDbArc
 50
0.0
 51
90.0
  0
ARC
  5
594
100
AcDbEntity
  8
KONSTRUKTIONSELEMENTE
100
AcDbCircle
 62
7
  6
CONTINUOUS
 10
105.7013739541
 20
76.0753314568
 40
47.3743513876
100
AcDbArc
 50
269.8439304893
 51
270.1560695107
  0
ARC
  5
595
100
AcDbEntity
  8
KONSTRUKTIONSELEMENTE
100
AcDbCircle
 62
7
  6
CONTINUOUS
 10
109.1591124416
 20
73.731730782
 40
45.0307506938
100
AcDbArc
 50
269.9199683152
 51
270.0800335167
  0
ARC
  5
596
100
AcDbEntity
  8
KONSTRUKTIONSELEMENTE
100
AcDbCircle
 62
7
  6
CONTINUOUS
 10
106.2184821411
 20
64.0460690185
 40
35.462001349
100
AcDbArc
 50
273.9090745653
 51
274.6546533488
  0
ARC
  5
597
100
AcDbEntity
  8
KONSTRUKTIONSELEMENTE
100
AcDbCircle
 62
7
  6
CONTINUOUS
 10
104.2056216092
 20
60.2275039453
 40
31.6718601973
100
AcDbArc
 50
264.5089655208
 51
265.2286667639
  0
ARC
  5
598
100
AcDbEntity
  8
KONSTRUKTIONSELEMENTE
100
AcDbCircle
 62
7
  6
CONTINUOUS
 10
111.8539820366
 20
58.2364960054
 40
29.6525102397
100
AcDbArc
 50
264.9077025314
 51
265.7228255912
  0
ARC
  5
599
100
AcDbEntity
  8
KONSTRUKTIONSELEMENTE
100
AcDbCircle
 62
7
  6
CONTINUOUS
 10
108.7834389798
 20
53.8062116121
 40
25.2781359822
100
AcDbArc
 50
263.2913226301
 51
264.0132236222
  0
ARC
  5
59A
100
AcDbEntity
  8
RUNDUNGEN
100
AcDbCircle
 62
7
  6
CONTINUOUS
 10
109.1783662212
 20
47.4790085677
 40
1.4999900489
100
AcDbArc
 50
0.0000281736
 51
71.1803883162
  0
ARC
  5
59B
100
AcDbEntity
  8
KONSTRUKTIONSELEMENTE
100
AcDbCircle
 62
7
  6
CONTINUOUS
 10
118.6193994466
 20
41.1796487421
 40
12.6438533357
100
AcDbArc
 50
260.6910221976
 51
261.6912511741
  0
ARC
  5
59C
100
AcDbEntity
  8
RUNDUNGEN
100
AcDbCircle
 62
7
  6
CONTINUOUS
 10
121.1783297338
 20
32.8076085541
 40
12.0
100
AcDbArc
 50
152.7339555493
 51
157.9756710363
  0
ARC
  5
59D
100
AcDbEntity
  8
RUNDUNGEN
100
AcDbCircle
 62
7
  6
CONTINUOUS
 10
121.1783297338
 20
32.8076085541
 40
12.0
100
AcDbArc
 50
202.0243289638
 51
207.2660444507
  0
ARC
  5
59E
100
AcDbEntity
  8
KONSTRUKTIONSELEMENTE
100
AcDbCircle
 62
7
  6
CONTINUOUS
 10
126.1783297338
 20
32.8076085541
 40
4.5
100
AcDbArc
 50
333.6122000388
 51
26.3877999612
  0
ARC
  5
59F
100
AcDbEntity
  8
KONSTRUKTIONSELEMENTE
100
AcDbCircle
 62
7
  6
CONTINUOUS
 10
116.2794774238
 20
60.5117364811
 40
31.8107912008
100
AcDbArc
 50
268.2274027092
 51
270.5307537501
  0
ARC
  5
5A0
100
AcDbEntity
  8
KONSTRUKTIONSELEMENTE
100
AcDbCircle
 62
7
  6
CONTINUOUS
 10
111.5632221337
 20
161.9410652739
 40
133.5980406463
100
AcDbArc
 50
269.745214851
 51
269.8999832405
  0
ARC
  5
5A1
100
AcDbEntity
  8
KONSTRUKTIONSELEMENTE
100
AcDbCircle
 62
7
  6
CONTINUOUS
 10
111.5839175698
 20
160.137501823
 40
131.7944677858
100
AcDbArc
 50
270.1293906706
 51
270.3079152715
  0
ARC
  5
5A2
100
AcDbEntity
  8
KONSTRUKTIONSELEMENTE
100
AcDbCircle
 62
7
  6
CONTINUOUS
 10
111.8213789453
 20
90.7280748158
 40
62.2450271951
100
AcDbArc
 50
269.7786099622
 51
270.0553847454
  0
SPLINE
  5
5A3
100
AcDbEntity
  8
KONSTRUKTIONSELEMENTE
100
AcDbSpline
 62
7
  6
CONTINUOUS
 70
0
 71
3
 72
36
 73
32
 74
0
 42
0.0000001
 43
0.0000001
 44
0.0000000001
 40
0.0
 40
0.0
 40
0.0
 40
0.0
 40
0.0621919403
 40
0.12443698
 40
0.1867480229
 40
0.2491429826
 40
0.2803845154
 40
0.3116593393
 40
0.342974403
 40
0.3743391956
 40
0.4057676349
 40
0.4372810372
 40
0.4689133407
 40
0.484806172
 40
0.500760002
 40
0.5167784169
 40
0.5328328271
 40
0.540876572
 40
0.548902507
 40
0.5648325217
 40
0.5806490975
 40
0.5963639241
 40
0.6275763674
 40
0.6586954263
 40
0.689767973
 40
0.7208162095
 40
0.7518510689
 40
0.8138960714
 40
0.8759325482
 40
0.9379664449
 40
1.0
 40
1.0
 40
1.0
 40
1.0
 10
78.853332603
 20
138.8451205638
 30
0.0
 10
78.967602043
 20
138.4105683493
 30
0.0
 10
79.214638684
 20
137.5457962921
 30
0.0
 10
79.6436142038
 20
136.2660749295
 30
0.0
 10
80.135932359
 20
135.0076800148
 30
0.0
 10
80.6047164633
 20
133.9822883753
 30
0.0
 10
81.0204292092
 20
133.1810903926
 30
0.0
 10
81.3549549147
 20
132.5912557598
 30
0.0
 10
81.7147775452
 20
132.0153834404
 30
0.0
 10
82.1036952486
 20
131.457285279
 30
0.0
 10
82.5271438916
 20
130.9227642501
 30
0.0
 10
82.9930737698
 20
130.4219241894
 30
0.0
 10
83.42706202
 20
130.0475308335
 30
0.0
 10
83.8106560804
 20
129.7948575226
 30
0.0
 10
84.1203140736
 20
129.6386113193
 30
0.0
 10
84.4524999161
 20
129.5320593257
 30
0.0
 10
84.7445772787
 20
129.5056309678
 30
0.0
 10
84.9757913696
 20
129.5335315234
 30
0.0
 10
85.1992912189
 20
129.5957875342
 30
0.0
 10
85.455779716
 20
129.7342553716
 30
0.0
 10
85.7092943593
 20
129.9689309376
 30
0.0
 10
85.9821645511
 20
130.3330012798
 30
0.0
 10
86.2313824389
 20
130.8432625276
 30
0.0
 10
86.4417775719
 20
131.4853421558
 30
0.0
 10
86.5955844512
 20
132.1418463417
 30
0.0
 10
86.7103030967
 20
132.8052773649
 30
0.0
 10
86.8252889874
 20
133.6948796538
 30
0.0
 10
86.9159915965
 20
134.8124365689
 30
0.0
 10
86.9727773333
 20
136.1560566262
 30
0.0
 10
86.994592555
 20
137.5005563545
 30
0.0
 10
86.9929951645
 20
138.3969548273
 30
0.0
 10
86.9893093705
 20
138.8451205638
 30
0.0
  0
SPLINE
  5
5A4
100
AcDbEntity
  8
KONSTRUKTIONSELEMENTE
100
AcDbSpline
 62
7
  6
CONTINUOUS
 70
0
 71
3
 72
37
 73
33
 74
0
 42
0.0000001
 43
0.0000001
 44
0.0000000001
 40
0.0
 40
0.0
 40
0.0
 40
0.0
 40
0.0620312252
 40
0.1240627961
 40
0.1860969547
 40
0.2481396457
 40
0.2791733494
 40
0.3102204352
 40
0.3412918559
 40
0.3724098881
 40
0.4036211132
 40
0.4193358923
 40
0.4351517575
 40
0.443115191
 40
0.4511191283
 40
0.459145377
 40
0.467187837
 40
0.4832417527
 40
0.4992595882
 40
0.5152124849
 40
0.5311045061
 40
0.5627356698
 40
0.5942478542
 40
0.6256750761
 40
0.657038661
 40
0.68835252
 40
0.7196261514
 40
0.750866501
 40
0.813259082
 40
0.8755677578
 40
0.937810423
 40
1.0
 40
1.0
 40
1.0
 40
1.0
 10
86.9893093705
 20
160.8451205638
 30
0.0
 10
86.9929951692
 20
161.2932868721
 30
0.0
 10
86.9945925028
 20
162.1896865172
 30
0.0
 10
86.9727772218
 20
163.5341880771
 30
0.0
 10
86.915991694
 20
164.877810091
 30
0.0
 10
86.8252889112
 20
165.995368787
 30
0.0
 10
86.7103006238
 20
166.8849722094
 30
0.0
 10
86.5955833748
 20
167.5484048303
 30
0.0
 10
86.4417649423
 20
168.2049092863
 30
0.0
 10
86.2314081748
 20
168.8469974018
 30
0.0
 10
85.9820771013
 20
169.3572460936
 30
0.0
 10
85.7094229312
 20
169.7213500314
 30
0.0
 10
85.4979003824
 20
169.9165610527
 30
0.0
 10
85.302862639
 20
170.0389934065
 30
0.0
 10
85.143931541
 20
170.1097438518
 30
0.0
 10
84.975779488
 20
170.1567537534
 30
0.0
 10
84.7445704411
 20
170.1845912751
 30
0.0
 10
84.4524959836
 20
170.1581985743
 30
0.0
 10
84.1203161417
 20
170.0516216926
 30
0.0
 10
83.8106612921
 20
169.8953815396
 30
0.0
 10
83.4270617829
 20
169.6427204371
 30
0.0
 10
82.9930811968
 20
169.2683185657
 30
0.0
 10
82.5271482843
 20
168.7674811503
 30
0.0
 10
82.1036994162
 20
168.232959834
 30
0.0
 10
81.714781035
 20
167.674862019
 30
0.0
 10
81.3549573603
 20
167.098989956
 30
0.0
 10
81.0204310762
 20
166.5091551121
 30
0.0
 10
80.6047186377
 20
165.707956188
 30
0.0
 10
80.1359332157
 20
164.6825641602
 30
0.0
 10
79.6436149715
 20
163.4241681703
 30
0.0
 10
79.2146389715
 20
162.1444458586
 30
0.0
 10
78.9676021384
 20
161.279673141
 30
0.0
 10
78.853332603
 20
160.8451205638
 30
0.0
  0
SPLINE
  5
5A5
100
AcDbEntity
  8
KONSTRUKTIONSELEMENTE
100
AcDbSpline
 62
7
  6
CONTINUOUS
 70
0
 71
3
 72
35
 73
31
 74
0
 42
0.0000001
 43
0.0000001
 44
0.0000000001
 40
0.0
 40
0.0
 40
0.0
 40
0.0
 40
0.0621947149
 40
0.1244425437
 40
0.1867563673
 40
0.2491541233
 40
0.2803970475
 40
0.3116732777
 40
0.3429897632
 40
0.3743559842
 40
0.405785871
 40
0.4373007339
 40
0.4689343655
 40
0.4848282619
 40
0.5007832455
 40
0.516802126
 40
0.5328572063
 40
0.5488835437
 40
0.5648154359
 40
0.5806319376
 40
0.5963464979
 40
0.6275602953
 40
0.65868051
 40
0.6897543604
 40
0.7208039411
 40
0.7518401561
 40
0.8138878762
 40
0.8759270802
 40
0.9379637095
 40
1.0
 40
1.0
 40
1.0
 40
1.0
 10
129.5033268645
 20
160.8451205638
 30
0.0
 10
129.389057445
 20
161.2796727004
 30
0.0
 10
129.1420208118
 20
162.1444446787
 30
0.0
 10
128.7130454539
 20
163.4241659547
 30
0.0
 10
128.2207268059
 20
164.682560583
 30
0.0
 10
127.7519437609
 20
165.7079526012
 30
0.0
 10
127.3362299449
 20
166.5091500214
 30
0.0
 10
127.001704603
 20
167.0989849828
 30
0.0
 10
126.6418826022
 20
167.6748580769
 30
0.0
 10
126.2529649513
 20
168.2329571299
 30
0.0
 10
125.8295157041
 20
168.7674782949
 30
0.0
 10
125.3635882528
 20
169.2683218828
 30
0.0
 10
124.9295904627
 20
169.6427055399
 30
0.0
 10
124.5459951792
 20
169.8953891034
 30
0.0
 10
124.2363586452
 20
170.051665866
 30
0.0
 10
123.9040581569
 20
170.1580746195
 30
0.0
 10
123.5542753848
 20
170.1902277581
 30
0.0
 10
123.2085317581
 20
170.1225372196
 30
0.0
 10
122.9009351678
 20
169.9559216463
 30
0.0
 10
122.6473359457
 20
169.7212840375
 30
0.0
 10
122.3744897523
 20
169.3572218417
 30
0.0
 10
122.1252774893
 20
168.8469651196
 30
0.0
 10
121.9148781336
 20
168.2048907465
 30
0.0
 10
121.7610731887
 20
167.548388457
 30
0.0
 10
121.6463552053
 20
166.8849586821
 30
0.0
 10
121.5313704297
 20
165.9953572488
 30
0.0
 10
121.4406679913
 20
164.8778014333
 30
0.0
 10
121.3838820728
 20
163.5341825242
 30
0.0
 10
121.3620668746
 20
162.1896838158
 30
0.0
 10
121.3636643056
 20
161.293285988
 30
0.0
 10
121.367350097
 20
160.8451205638
 30
0.0
  0
SPLINE
  5
5A6
100
AcDbEntity
  8
KONSTRUKTIONSELEMENTE
100
AcDbSpline
 62
7
  6
CONTINUOUS
 70
0
 71
3
 72
37
 73
33
 74
0
 42
0.0000001
 43
0.0000001
 44
0.0000000001
 40
0.0
 40
0.0
 40
0.0
 40
0.0
 40
0.0620312243
 40
0.1240627943
 40
0.1860969521
 40
0.2481396424
 40
0.2791733456
 40
0.3102204311
 40
0.3412918516
 40
0.3724098849
 40
0.4036211102
 40
0.4193358964
 40
0.43515176
 40
0.4431151944
 40
0.4511191291
 40
0.4591453881
 40
0.4671878416
 40
0.4832417677
 40
0.4992596069
 40
0.5152124992
 40
0.5311045171
 40
0.5627356809
 40
0.5942478639
 40
0.6256750844
 40
0.6570386682
 40
0.6883525261
 40
0.7196261566
 40
0.7508665054
 40
0.8132590849
 40
0.8755677594
 40
0.9378104236
 40
1.0
 40
1.0
 40
1.0
 40
1.0
 10
121.367350097
 20
138.8451205638
 30
0.0
 10
121.3636642984
 20
138.3969542615
 30
0.0
 10
121.3620669654
 20
137.5005546282
 30
0.0
 10
121.3838822458
 20
136.1560530857
 30
0.0
 10
121.440667767
 20
134.8124310883
 30
0.0
 10
121.5313705482
 20
133.6948724053
 30
0.0
 10
121.6463588381
 20
132.8052689941
 30
0.0
 10
121.7610760837
 20
132.1418363764
 30
0.0
 10
121.9148945242
 20
131.4853319253
 30
0.0
 10
122.1252512278
 20
130.843243758
 30
0.0
 10
122.3745823847
 20
130.3329950953
 30
0.0
 10
122.647236428
 20
129.9688909302
 30
0.0
 10
122.8587593272
 20
129.773680314
 30
0.0
 10
123.0537967442
 20
129.6512474504
 30
0.0
 10
123.2127281109
 20
129.5804974421
 30
0.0
 10
123.3808800741
 20
129.5334872417
 30
0.0
 10
123.6120892615
 20
129.5056499129
 30
0.0
 10
123.9041637853
 20
129.532042383
 30
0.0
 10
124.2363435983
 20
129.6386196799
 30
0.0
 10
124.5459983995
 20
129.7948598024
 30
0.0
 10
124.9295979681
 20
130.0475207343
 30
0.0
 10
125.3635783841
 20
130.4219227657
 30
0.0
 10
125.8295113041
 20
130.9227601342
 30
0.0
 10
126.2529601427
 20
131.4572814434
 30
0.0
 10
126.6418785082
 20
132.0153792369
 30
0.0
 10
127.0017021756
 20
132.5912512791
 30
0.0
 10
127.3362284449
 20
133.1810861093
 30
0.0
 10
127.751940862
 20
133.982285019
 30
0.0
 10
128.2207262761
 20
135.0076770225
 30
0.0
 10
128.7130445069
 20
136.2660729901
 30
0.0
 10
129.1420205005
 20
137.5457952833
 30
0.0
 10
129.3890573303
 20
138.4105679909
 30
0.0
 10
129.5033268645
 20
138.8451205638
 30
0.0
  0
SPLINE
  5
5A7
100
AcDbEntity
  8
KONSTRUKTIONSELEMENTE
100
AcDbSpline
 62
7
  6
CONTINUOUS
 70
0
 71
3
 72
9
 73
5
 74
0
 42
0.0000001
 43
0.0000001
 44
0.0000000001
 40
0.0
 40
0.0
 40
0.0
 40
0.0
 40
0.5062953466
 40
1.0
 40
1.0
 40
1.0
 40
1.0
 10
204.0060493582
 20
183.5515485008
 30
0.0
 10
204.1372864578
 20
183.3237582519
 30
0.0
 10
204.343194078
 20
182.8401702678
 30
0.0
 10
204.4146018335
 20
182.3186108037
 30
0.0
 10
204.4146079767
 20
182.0622576431
 30
0.0
  0
SPLINE
  5
5A8
100
AcDbEntity
  8
KONSTRUKTIONSELEMENTE
100
AcDbSpline
 62
7
  6
CONTINUOUS
 70
0
 71
3
 72
9
 73
5
 74
0
 42
0.0000001
 43
0.0000001
 44
0.0000000001
 40
0.0
 40
0.0
 40
0.0
 40
0.0
 40
0.5025507651
 40
1.0
 40
1.0
 40
1.0
 40
1.0
 10
204.0060493559
 20
185.6520400164
 30
0.0
 10
204.0897644119
 20
185.4901608213
 30
0.0
 10
204.2332338625
 20
185.155505059
 30
0.0
 10
204.3252954543
 20
184.8031424702
 30
0.0
 10
204.3575235675
 20
184.6256500888
 30
0.0
  0
SPLINE
  5
5A9
100
AcDbEntity
  8
KONSTRUKTIONSELEMENTE
100
AcDbSpline
 62
7
  6
CONTINUOUS
 70
0
 71
3
 72
14
 73
10
 74
0
 42
0.0000001
 43
0.0000001
 44
0.0000000001
 40
0.0
 40
0.0
 40
0.0
 40
0.0
 40
0.1718395365
 40
0.3773785471
 40
0.4974219782
 40
0.6338686688
 40
0.7953713403
 40
0.8911939958
 40
1.0
 40
1.0
 40
1.0
 40
1.0
 10
129.5033268645
 20
30.8076085541
 30
0.0
 10
129.2413506052
 20
30.5406608084
 30
0.0
 10
128.6084829302
 20
30.0100793605
 30
0.0
 10
127.6786406669
 20
29.4480450558
 30
0.0
 10
126.7676044533
 20
29.020370758
 30
0.0
 10
125.9151329487
 20
28.6997200483
 30
0.0
 10
125.0863095033
 20
28.4737008685
 30
0.0
 10
124.3001187006
 20
28.3398936079
 30
0.0
 10
123.8544938963
 20
28.3075389492
 30
0.0
 10
123.617669083
 20
28.3076250551
 30
0.0
  0
SPLINE
  5
5AA
100
AcDbEntity
  8
KONSTRUKTIONSELEMENTE
100
AcDbSpline
 62
7
  6
CONTINUOUS
 70
0
 71
3
 72
14
 73
10
 74
0
 42
0.0000001
 43
0.0000001
 44
0.0000000001
 40
0.0
 40
0.0
 40
0.0
 40
0.0
 40
0.1088073918
 40
0.204630343
 40
0.3661346119
 40
0.5025814767
 40
0.6226245404
 40
0.8281622618
 40
1.0
 40
1.0
 40
1.0
 40
1.0
 10
84.7391870298
 20
28.307629967
 30
0.0
 10
84.502352088
 20
28.3075538219
 30
0.0
 10
84.0567079925
 20
28.3398575762
 30
0.0
 10
83.2704855239
 20
28.4736781663
 30
0.0
 10
82.4416284928
 20
28.6996833517
 30
0.0
 10
81.5891261761
 20
29.0203407443
 30
0.0
 10
80.678063006
 20
29.4480205315
 30
0.0
 10
79.7481963651
 20
30.0100634326
 30
0.0
 10
79.1153139802
 20
30.5406555935
 30
0.0
 10
78.853332603
 20
30.8076085541
 30
0.0
  0
SPLINE
  5
5AB
100
AcDbEntity
  8
KONSTRUKTIONSELEMENTE
100
AcDbSpline
 62
7
  6
CONTINUOUS
 70
0
 71
3
 72
14
 73
10
 74
0
 42
0.0000001
 43
0.0000001
 44
0.0000000001
 40
0.0
 40
0.0
 40
0.0
 40
0.0
 40
0.108807409
 40
0.2046303367
 40
0.3661345761
 40
0.502581434
 40
0.6226245
 40
0.8281622372
 40
1.0
 40
1.0
 40
1.0
 40
1.0
 10
123.6174750634
 20
37.3075871267
 30
0.0
 10
123.8543099476
 20
37.3076632477
 30
0.0
 10
124.2999538337
 20
37.2753591885
 30
0.0
 10
125.0861758708
 20
37.1415385027
 30
0.0
 10
125.9150323996
 20
36.9155332737
 30
0.0
 10
126.7675342668
 20
36.5948759437
 30
0.0
 10
127.6785970585
 20
36.1671962432
 30
0.0
 10
128.608463369
 20
35.6051534623
 30
0.0
 10
129.2413455551
 20
35.0745614458
 30
0.0
 10
129.5033268645
 20
34.8076085541
 30
0.0
  0
SPLINE
  5
5AC
100
AcDbEntity
  8
KONSTRUKTIONSELEMENTE
100
AcDbSpline
 62
7
  6
CONTINUOUS
 70
0
 71
3
 72
14
 73
10
 74
0
 42
0.0000001
 43
0.0000001
 44
0.0000000001
 40
0.0
 40
0.0
 40
0.0
 40
0.0
 40
0.171838283
 40
0.3773763704
 40
0.4974195329
 40
0.6338663216
 40
0.7953700544
 40
0.8911930861
 40
1.0
 40
1.0
 40
1.0
 40
1.0
 10
78.853332603
 20
34.8076085541
 30
0.0
 10
79.1153123705
 20
35.0745598745
 30
0.0
 10
79.7481901286
 20
35.6051486166
 30
0.0
 10
80.6780490162
 20
36.1671888628
 30
0.0
 10
81.5891036773
 20
36.5948669295
 30
0.0
 10
82.4415962572
 20
36.9155220258
 30
0.0
 10
83.2704430403
 20
37.1415325074
 30
0.0
 10
84.0566559022
 20
37.2753470919
 30
0.0
 10
84.5022942577
 20
37.307670826
 30
0.0
 10
84.7391259514
 20
37.3075888187
 30
0.0
  0
SPLINE
  5
5AD
100
AcDbEntity
  8
KONSTRUKTIONSELEMENTE
100
AcDbSpline
 62
7
  6
CONTINUOUS
 70
0
 71
3
 72
9
 73
5
 74
0
 42
0.0000001
 43
0.0000001
 44
0.0000000001
 40
0.0
 40
0.0
 40
0.0
 40
0.0
 40
0.2647357597
 40
1.0
 40
1.0
 40
1.0
 40
1.0
 10
100.3621786215
 20
28.4887815763
 30
0.0
 10
100.3556813103
 20
28.4808488141
 30
0.0
 10
100.3306252559
 20
28.4513157237
 30
0.0
 10
100.3033988875
 20
28.4235668389
 30
0.0
 10
100.2820037335
 20
28.4047707524
 30
0.0
  0
SPLINE
  5
5AE
100
AcDbEntity
  8
KONSTRUKTIONSELEMENTE
100
AcDbSpline
 62
7
  6
CONTINUOUS
 70
0
 71
3
 72
9
 73
5
 74
0
 42
0.0000001
 43
0.0000001
 44
0.0000000001
 40
0.0
 40
0.0
 40
0.0
 40
0.0
 40
0.2713652718
 40
1.0
 40
1.0
 40
1.0
 40
1.0
 10
100.2820037335
 20
28.4047707524
 30
0.0
 10
100.2797338238
 20
28.4004770537
 30
0.0
 10
100.2711441174
 20
28.3847782709
 30
0.0
 10
100.2616034936
 20
28.3695712832
 30
0.0
 10
100.2538934472
 20
28.359053789
 30
0.0
  0
SPLINE
  5
5AF
100
AcDbEntity
  8
KONSTRUKTIONSELEMENTE
100
AcDbSpline
 62
7
  6
CONTINUOUS
 70
0
 71
3
 72
9
 73
5
 74
0
 42
0.0000001
 43
0.0000001
 44
0.0000000001
 40
0.0
 40
0.0
 40
0.0
 40
0.0
 40
0.3337078336
 40
1.0
 40
1.0
 40
1.0
 40
1.0
 10
100.2538934472
 20
28.359053789
 30
0.0
 10
100.2535757307
 20
28.3541380977
 30
0.0
 10
100.2525064355
 20
28.33942313
 30
0.0
 10
100.2514093481
 20
28.3246641507
 30
0.0
 10
100.2497395744
 20
28.3149716164
 30
0.0
  0
SPLINE
  5
5B0
100
AcDbEntity
  8
KONSTRUKTIONSELEMENTE
100
AcDbSpline
 62
7
  6
CONTINUOUS
 70
0
 71
3
 72
9
 73
5
 74
0
 42
0.0000001
 43
0.0000001
 44
0.0000000001
 40
0.0
 40
0.0
 40
0.0
 40
0.0
 40
0.2363275825
 40
1.0
 40
1.0
 40
1.0
 40
1.0
 10
106.6669164123
 20
28.4047707604
 30
0.0
 10
106.6629604176
 20
28.4093139124
 30
0.0
 10
106.6465681449
 20
28.428839792
 30
0.0
 10
106.6315064231
 20
28.4494629114
 30
0.0
 10
106.620615846
 20
28.4655979132
 30
0.0
  0
SPLINE
  5
5B1
100
AcDbEntity
  8
KONSTRUKTIONSELEMENTE
100
AcDbSpline
 62
7
  6
CONTINUOUS
 70
0
 71
3
 72
9
 73
5
 74
0
 42
0.0000001
 43
0.0000001
 44
0.0000000001
 40
0.0
 40
0.0
 40
0.0
 40
0.0
 40
0.2447338606
 40
1.0
 40
1.0
 40
1.0
 40
1.0
 10
106.620615846
 20
28.4655979132
 30
0.0
 10
106.6062918572
 20
28.4732211292
 30
0.0
 10
106.5482688476
 20
28.5053147986
 30
0.0
 10
106.4923134263
 20
28.5411192887
 30
0.0
 10
106.4513452481
 20
28.5699140781
 30
0.0
  0
SPLINE
  5
5B2
100
AcDbEntity
  8
KONSTRUKTIONSELEMENTE
100
AcDbSpline
 62
7
  6
CONTINUOUS
 70
0
 71
3
 72
9
 73
5
 74
0
 42
0.0000001
 43
0.0000001
 44
0.0000000001
 40
0.0
 40
0.0
 40
0.0
 40
0.0
 40
0.2593511352
 40
1.0
 40
1.0
 40
1.0
 40
1.0
 10
104.6849468588
 20
28.4655979132
 30
0.0
 10
104.6719680232
 20
28.4563122249
 30
0.0
 10
104.6211457719
 20
28.4216230152
 30
0.0
 10
104.5670721598
 20
28.3915946316
 30
0.0
 10
104.5255323589
 20
28.3728481697
 30
0.0
  0
SPLINE
  5
5B3
100
AcDbEntity
  8
KONSTRUKTIONSELEMENTE
100
AcDbSpline
 62
7
  6
CONTINUOUS
 70
0
 71
3
 72
9
 73
5
 74
0
 42
0.0000001
 43
0.0000001
 44
0.0000000001
 40
0.0
 40
0.0
 40
0.0
 40
0.0
 40
0.2815248629
 40
1.0
 40
1.0
 40
1.0
 40
1.0
 10
104.5255323589
 20
28.3728481697
 30
0.0
 10
104.5170671568
 20
28.3647969444
 30
0.0
 10
104.4858148746
 20
28.3376614552
 30
0.0
 10
104.4476600944
 20
28.3170825058
 30
0.0
 10
104.4184910406
 20
28.3109107175
 30
0.0
  0
SPLINE
  5
5B4
100
AcDbEntity
  8
KONSTRUKTIONSELEMENTE
100
AcDbSpline
 62
7
  6
CONTINUOUS
 70
0
 71
3
 72
8
 73
4
 74
0
 42
0.0000001
 43
0.0000001
 44
0.0000000001
 40
0.0
 40
0.0
 40
0.0
 40
0.0
 40
1.0
 40
1.0
 40
1.0
 40
1.0
 10
104.4184910406
 20
28.3109107175
 30
0.0
 10
104.4147419096
 20
28.3089007103
 30
0.0
 10
104.410417673
 20
28.3076082141
 30
0.0
 10
104.4061637205
 20
28.3076088711
 30
0.0
  0
SPLINE
  5
5B5
100
AcDbEntity
  8
KONSTRUKTIONSELEMENTE
100
AcDbSpline
 62
7
  6
CONTINUOUS
 70
0
 71
3
 72
9
 73
5
 74
0
 42
0.0000001
 43
0.0000001
 44
0.0000000001
 40
0.0
 40
0.0
 40
0.0
 40
0.0
 40
0.2446960954
 40
1.0
 40
1.0
 40
1.0
 40
1.0
 10
95.921975948
 20
28.3205022344
 30
0.0
 10
95.9180573611
 20
28.3217394896
 30
0.0
 10
95.9021490541
 20
28.327127729
 30
0.0
 10
95.8866887535
 20
28.3338164411
 30
0.0
 10
95.8753351704
 20
28.3394717533
 30
0.0
  0
SPLINE
  5
5B6
100
AcDbEntity
  8
KONSTRUKTIONSELEMENTE
100
AcDbSpline
 62
7
  6
CONTINUOUS
 70
0
 71
3
 72
9
 73
5
 74
0
 42
0.0000001
 43
0.0000001
 44
0.0000000001
 40
0.0
 40
0.0
 40
0.0
 40
0.0
 40
0.2463007133
 40
1.0
 40
1.0
 40
1.0
 40
1.0
 10
95.8598431754
 20
28.3476619966
 30
0.0
 10
95.84644587
 20
28.3515057397
 30
0.0
 10
95.7923564992
 20
28.3681615089
 30
0.0
 10
95.7395586558
 20
28.388959005
 30
0.0
 10
95.7007479016
 20
28.4066454595
 30
0.0
  0
SPLINE
  5
5B7
100
AcDbEntity
  8
KONSTRUKTIONSELEMENTE
100
AcDbSpline
 62
7
  6
CONTINUOUS
 70
0
 71
3
 72
9
 73
5
 74
0
 42
0.0000001
 43
0.0000001
 44
0.0000000001
 40
0.0
 40
0.0
 40
0.0
 40
0.0
 40
0.2419112654
 40
1.0
 40
1.0
 40
1.0
 40
1.0
 10
93.0753142421
 20
28.3076085551
 30
0.0
 10
93.0709980284
 20
28.3076086687
 30
0.0
 10
93.053154475
 20
28.3087085057
 30
0.0
 10
93.0357490693
 20
28.3144439486
 30
0.0
 10
93.0236557762
 20
28.3205022348
 30
0.0
  0
SPLINE
  5
5B8
100
AcDbEntity
  8
KONSTRUKTIONSELEMENTE
100
AcDbSpline
 62
7
  6
CONTINUOUS
 70
0
 71
3
 72
9
 73
5
 74
0
 42
0.0000001
 43
0.0000001
 44
0.0000000001
 40
0.0
 40
0.0
 40
0.0
 40
0.0
 40
0.2444367121
 40
1.0
 40
1.0
 40
1.0
 40
1.0
 10
110.0264754799
 20
28.4905553491
 30
0.0
 10
110.0119138839
 20
28.4986955994
 30
0.0
 10
109.9528676527
 20
28.5329325824
 30
0.0
 10
109.8959736587
 20
28.5708579784
 30
0.0
 10
109.8543282103
 20
28.6012671072
 30
0.0
  0
SPLINE
  5
5B9
100
AcDbEntity
  8
KONSTRUKTIONSELEMENTE
100
AcDbSpline
 62
7
  6
CONTINUOUS
 70
0
 71
3
 72
9
 73
5
 74
0
 42
0.0000001
 43
0.0000001
 44
0.0000000001
 40
0.0
 40
0.0
 40
0.0
 40
0.0
 40
0.2564865349
 40
1.0
 40
1.0
 40
1.0
 40
1.0
 10
108.0136557773
 20
28.4905553274
 30
0.0
 10
108.0020129651
 20
28.4824520374
 30
0.0
 10
107.9561000891
 20
28.4516161081
 30
0.0
 10
107.9080612543
 20
28.4239094278
 30
0.0
 10
107.8712989336
 20
28.4054859363
 30
0.0
  0
SPLINE
  5
5BA
100
AcDbEntity
  8
KONSTRUKTIONSELEMENTE
100
AcDbSpline
 62
7
  6
CONTINUOUS
 70
0
 71
3
 72
9
 73
5
 74
0
 42
0.0000001
 43
0.0000001
 44
0.0000000001
 40
0.0
 40
0.0
 40
0.0
 40
0.0
 40
0.7410935615
 40
1.0
 40
1.0
 40
1.0
 40
1.0
 10
102.5915807183
 20
28.3076085473
 30
0.0
 10
102.5824041668
 20
28.3076087701
 30
0.0
 10
102.5699327112
 20
28.309592475
 30
0.0
 10
102.5582722124
 20
28.3137649779
 30
0.0
 10
102.5553020631
 20
28.3149716164
 30
0.0
  0
SPLINE
  5
5BB
100
AcDbEntity
  8
KONSTRUKTIONSELEMENTE
100
AcDbSpline
 62
7
  6
CONTINUOUS
 70
0
 71
3
 72
9
 73
5
 74
0
 42
0.0000001
 43
0.0000001
 44
0.0000000001
 40
0.0
 40
0.0
 40
0.0
 40
0.0
 40
0.2654757463
 40
1.0
 40
1.0
 40
1.0
 40
1.0
 10
111.5808656868
 20
28.4835122911
 30
0.0
 10
111.5607796017
 20
28.4678061993
 30
0.0
 10
111.483166177
 20
28.4112777627
 30
0.0
 10
111.3967314671
 20
28.3661473247
 30
0.0
 10
111.3300106052
 20
28.3432281772
 30
0.0
  0
LINE
  5
5BC
100
AcDbEntity
  8
KONSTRUKTIONSELEMENTE
100
AcDbLine
 62
7
  6
CONTINUOUS
 10
110.9691350161
 20
28.3443455349
 11
110.8489188646
 21
28.3449372324
  0
SPLINE
  5
5BD
100
AcDbEntity
  8
KONSTRUKTIONSELEMENTE
100
AcDbSpline
 62
7
  6
CONTINUOUS
 70
0
 71
3
 72
9
 73
5
 74
0
 42
0.0000001
 43
0.0000001
 44
0.0000000001
 40
0.0
 40
0.0
 40
0.0
 40
0.0
 40
0.2542741732
 40
1.0
 40
1.0
 40
1.0
 40
1.0
 10
110.8489188646
 20
28.3449372324
 30
0.0
 10
110.8385781908
 20
28.341302282
 30
0.0
 10
110.7975885158
 20
28.3279472146
 30
0.0
 10
110.75530999
 20
28.3184950606
 30
0.0
 10
110.7234913676
 20
28.3139199373
 30
0.0
  0
SPLINE
  5
5BE
100
AcDbEntity
  8
KONSTRUKTIONSELEMENTE
100
AcDbSpline
 62
7
  6
CONTINUOUS
 70
0
 71
3
 72
9
 73
5
 74
0
 42
0.0000001
 43
0.0000001
 44
0.0000000001
 40
0.0
 40
0.0
 40
0.0
 40
0.0
 40
0.2422494026
 40
1.0
 40
1.0
 40
1.0
 40
1.0
 10
102.5553020631
 20
28.3149716164
 30
0.0
 10
102.5448552003
 20
28.3170041316
 30
0.0
 10
102.5020605322
 20
28.3270673656
 30
0.0
 10
102.4609225041
 20
28.343728352
 30
0.0
 10
102.4313696195
 20
28.359053789
 30
0.0
  0
SPLINE
  5
5BF
100
AcDbEntity
  8
KONSTRUKTIONSELEMENTE
100
AcDbSpline
 62
7
  6
CONTINUOUS
 70
0
 71
3
 72
9
 73
5
 74
0
 42
0.0000001
 43
0.0000001
 44
0.0000000001
 40
0.0
 40
0.0
 40
0.0
 40
0.0
 40
0.2396754618
 40
1.0
 40
1.0
 40
1.0
 40
1.0
 10
116.8605798851
 20
28.5722759599
 30
0.0
 10
116.8547739258
 20
28.579706635
 30
0.0
 10
116.8309242388
 20
28.6110016692
 30
0.0
 10
116.8085467038
 20
28.6434093775
 30
0.0
 10
116.7922703929
 20
28.6685086423
 30
0.0
  0
SPLINE
  5
5C0
100
AcDbEntity
  8
KONSTRUKTIONSELEMENTE
100
AcDbSpline
 62
7
  6
CONTINUOUS
 70
0
 71
3
 72
10
 73
6
 74
0
 42
0.0000001
 43
0.0000001
 44
0.0000000001
 40
0.0
 40
0.0
 40
0.0
 40
0.0
 40
0.5198437728
 40
0.7627166418
 40
1.0
 40
1.0
 40
1.0
 40
1.0
 10
115.2954829993
 20
28.7161677365
 30
0.0
 10
115.1390677295
 20
28.5900748949
 30
0.0
 10
114.8818121123
 20
28.433168721
 30
0.0
 10
114.5088941168
 20
28.3254344497
 30
0.0
 10
114.3228261005
 20
28.3076122049
 30
0.0
 10
114.231120117
 20
28.3076091299
 30
0.0
  0
SPLINE
  5
5C1
100
AcDbEntity
  8
KONSTRUKTIONSELEMENTE
100
AcDbSpline
 62
7
  6
CONTINUOUS
 70
0
 71
3
 72
9
 73
5
 74
0
 42
0.0000001
 43
0.0000001
 44
0.0000000001
 40
0.0
 40
0.0
 40
0.0
 40
0.0
 40
0.2457893424
 40
1.0
 40
1.0
 40
1.0
 40
1.0
 10
102.4313696195
 20
28.359053789
 30
0.0
 10
102.4229570766
 20
28.3622803925
 30
0.0
 10
102.3889424244
 20
28.3759564602
 30
0.0
 10
102.3558022145
 20
28.3917883397
 30
0.0
 10
102.3313921237
 20
28.4047707524
 30
0.0
  0
SPLINE
  5
5C2
100
AcDbEntity
  8
KONSTRUKTIONSELEMENTE
100
AcDbSpline
 62
7
  6
CONTINUOUS
 70
0
 71
3
 72
9
 73
5
 74
0
 42
0.0000001
 43
0.0000001
 44
0.0000000001
 40
0.0
 40
0.0
 40
0.0
 40
0.0
 40
0.2460194699
 40
1.0
 40
1.0
 40
1.0
 40
1.0
 10
102.3313921237
 20
28.4047707524
 30
0.0
 10
102.316538437
 20
28.4107152826
 30
0.0
 10
102.2565633532
 20
28.4358720191
 30
0.0
 10
102.198245043
 20
28.4649485285
 30
0.0
 10
102.155394379
 20
28.4887815763
 30
0.0
  0
ELLIPSE
  5
5C3
100
AcDbEntity
  8
0
100
AcDbEllipse
 62
7
  6
CONTINUOUS
 10
104.1783297338
 20
93.2983120469
 30
0.0
 11
17.25
 21
-0.0
 31
0.0
 40
0.255319362
 41
0.0
 42
0.0096619769
  0
ELLIPSE
  5
5C4
100
AcDbEntity
  8
0
100
AcDbEllipse
 62
7
  6
CONTINUOUS
 10
104.1783297338
 20
86.2344822672
 30
0.0
 11
-0.0
 21
32.2978726029
 31
0.0
 40
0.5340909047
 41
-1.5707963268
 42
-1.5418067593
  0
ELLIPSE
  5
5C5
100
AcDbEntity
  8
0
100
AcDbEllipse
 62
7
  6
CONTINUOUS
 10
104.1783297338
 20
68.5322763972
 30
0.0
 11
-0.0
 21
105.7025429584
 31
0.0
 40
0.1631938033
 41
-1.3861744009
 42
-1.3812577075
  0
ELLIPSE
  5
5C6
100
AcDbEntity
  8
0
100
AcDbEllipse
 62
7
  6
CONTINUOUS
 10
104.1783297338
 20
83.0855548506
 30
0.0
 11
-0.0
 21
26.4254814467
 31
0.0
 40
0.6527790245
 41
4.877387823
 42
4.8970109063
  0
ELLIPSE
  5
5C7
100
AcDbEntity
  8
0
100
AcDbEllipse
 62
7
  6
CONTINUOUS
 10
104.1783297338
 20
85.4968940383
 30
0.0
 11
17.25
 21
0.0
 31
0.0
 40
0.6808509827
 41
0.1503239486
 42
0.1649988426
  0
ELLIPSE
  5
5C8
100
AcDbEntity
  8
0
100
AcDbEllipse
 62
7
  6
CONTINUOUS
 10
104.1783297338
 20
86.7280986087
 30
0.0
 11
17.25
 21
-0.0
 31
0.0
 40
0.2042556065
 41
6.4091218187
 42
6.4335092558
  0
ELLIPSE
  5
5C9
100
AcDbEntity
  8
0
100
AcDbEllipse
 62
7
  6
CONTINUOUS
 10
104.1783297338
 20
90.7621425786
 30
0.0
 11
17.25
 21
0.0
 31
0.0
 40
0.2042556065
 41
-0.1503239486
 42
-0.1259365116
  0
ELLIPSE
  5
5CA
100
AcDbEntity
  8
0
100
AcDbEllipse
 62
7
  6
CONTINUOUS
 10
104.1783297338
 20
91.993347149
 30
0.0
 11
17.25
 21
0.0
 31
0.0
 40
0.6808509827
 41
-0.1649988426
 42
-0.1503239486
  0
ELLIPSE
  5
5CB
100
AcDbEntity
  8
0
100
AcDbEllipse
 62
7
  6
CONTINUOUS
 10
104.1783297338
 20
94.4046878565
 30
0.0
 11
0.0
 21
26.4254907003
 31
0.0
 40
0.6527787959
 41
-1.7554182527
 42
-1.7357951694
  0
ELLIPSE
  5
5CC
100
AcDbEntity
  8
0
100
AcDbEllipse
 62
7
  6
CONTINUOUS
 10
104.1783297338
 20
108.9579600813
 30
0.0
 11
-0.0
 21
105.702518282
 31
0.0
 40
0.1631938414
 41
-1.7603349461
 42
-1.7554182527
  0
ELLIPSE
  5
5CD
100
AcDbEntity
  8
0
100
AcDbEllipse
 62
7
  6
CONTINUOUS
 10
104.1783297338
 20
90.3763262274
 30
0.0
 11
17.25
 21
0.0
 31
0.0
 40
0.1702127457
 41
0.0967693348
 42
0.1259365116
  0
ELLIPSE
  5
5CE
100
AcDbEntity
  8
0
100
AcDbEllipse
 62
7
  6
CONTINUOUS
 10
104.1783297338
 20
89.6387383014
 30
0.0
 11
17.25
 21
-0.0
 31
0.0
 40
0.6127654169
 41
0.0725273363
 42
0.0967693348
  0
ELLIPSE
  5
5CF
100
AcDbEntity
  8
0
100
AcDbEllipse
 62
7
  6
CONTINUOUS
 10
104.1783297338
 20
89.12809948
 30
0.0
 11
0.0
 21
17.6170191765
 31
0.0
 40
0.9791667834
 41
4.770392514
 42
4.7849163167
  0
ELLIPSE
  5
5D0
100
AcDbEntity
  8
0
100
AcDbEllipse
 62
7
  6
CONTINUOUS
 10
104.1783297338
 20
88.1068269019
 30
0.0
 11
0.0
 21
35.2339711495
 31
0.0
 40
0.4895843255
 41
4.7607169509
 42
4.770392514
  0
ELLIPSE
  5
5D1
100
AcDbEntity
  8
0
100
AcDbEllipse
 62
7
  6
CONTINUOUS
 10
104.1783297338
 20
87.2557481278
 30
0.0
 11
-0.0
 21
52.8513084938
 31
0.0
 40
0.3263873779
 41
-1.527304356
 42
-1.5224683563
  0
ELLIPSE
  5
5D2
100
AcDbEntity
  8
0
100
AcDbEllipse
 62
7
  6
CONTINUOUS
 10
104.1783297338
 20
85.7238297187
 30
0.0
 11
-0.0
 21
88.0854319017
 31
0.0
 40
0.1958326096
 41
-1.5321393382
 42
-1.527304356
  0
ELLIPSE
  5
5D3
100
AcDbEntity
  8
0
100
AcDbEllipse
 62
7
  6
CONTINUOUS
 10
104.1783297338
 20
91.7664123626
 30
0.0
 11
-0.0
 21
88.0854565781
 31
0.0
 40
0.1958325548
 41
-1.6142882976
 42
-1.6094533154
  0
ELLIPSE
  5
5D4
100
AcDbEntity
  8
0
100
AcDbEllipse
 62
7
  6
CONTINUOUS
 10
104.1783297338
 20
90.2344907349
 30
0.0
 11
-0.0
 21
52.851259141
 31
0.0
 40
0.3263876827
 41
-1.6191242973
 42
-1.6142882976
  0
ELLIPSE
  5
5D5
100
AcDbEntity
  8
0
100
AcDbEllipse
 62
7
  6
CONTINUOUS
 10
104.1783297338
 20
89.383414643
 30
0.0
 11
0.0
 21
35.2339773186
 31
0.0
 40
0.4895842398
 41
-1.6287998604
 42
-1.6191242973
  0
ELLIPSE
  5
5D6
100
AcDbEntity
  8
0
100
AcDbEllipse
 62
7
  6
CONTINUOUS
 10
104.1783297338
 20
88.3621418265
 30
0.0
 11
0.0
 21
17.6170212328
 31
0.0
 40
0.9791666691
 41
-1.6433236631
 42
-1.6287998604
  0
ELLIPSE
  5
5D7
100
AcDbEntity
  8
0
100
AcDbEllipse
 62
7
  6
CONTINUOUS
 10
104.1783297338
 20
87.8515029231
 30
0.0
 11
17.25
 21
0.0
 31
0.0
 40
0.6127654705
 41
-0.0967693348
 42
-0.0725273363
  0
ELLIPSE
  5
5D8
100
AcDbEntity
  8
0
100
AcDbEllipse
 62
7
  6
CONTINUOUS
 10
104.1783297338
 20
87.1139149325
 30
0.0
 11
17.25
 21
0.0
 31
0.0
 40
0.1702127606
 41
-0.1259365116
 42
-0.0967693348
  0
ELLIPSE
  5
5D9
100
AcDbEntity
  8
0
100
AcDbEllipse
 62
7
  6
CONTINUOUS
 10
104.1783297338
 20
108.3621029783
 30
0.0
 11
-0.0
 21
52.8509567242
 31
0.0
 40
0.3263895503
 41
-1.9415509026
 42
-1.9363729938
  0
ELLIPSE
  5
5DA
100
AcDbEntity
  8
0
100
AcDbEllipse
 62
7
  6
CONTINUOUS
 10
104.1783297338
 20
97.7238428977
 30
0.0
 11
0.0
 21
23.489358902
 31
0.0
 40
0.7343750875
 41
-1.9571480781
 42
-1.9415509026
  0
ELLIPSE
  5
5DB
100
AcDbEntity
  8
0
100
AcDbEllipse
 62
7
  6
CONTINUOUS
 10
104.1783297338
 20
93.8515005598
 30
0.0
 11
17.25
 21
0.0
 31
0.0
 40
0.7659569903
 41
-0.4073039459
 42
-0.3863517513
  0
ELLIPSE
  5
5DC
100
AcDbEntity
  8
0
100
AcDbEllipse
 62
7
  6
CONTINUOUS
 10
104.1783297338
 20
90.0132060839
 30
0.0
 11
17.25
 21
0.0
 31
0.0
 40
0.2042553727
 41
-0.4337647347
 42
-0.4073039459
  0
ELLIPSE
  5
5DD
100
AcDbEntity
  8
0
100
AcDbEllipse
 62
7
  6
CONTINUOUS
 10
104.1783297338
 20
89.2642691116
 30
0.0
 11
17.25
 21
-0.0
 31
0.0
 40
0.2042553727
 41
0.4073039459
 42
0.4337647347
  0
ELLIPSE
  5
5DE
100
AcDbEntity
  8
0
100
AcDbEllipse
 62
7
  6
CONTINUOUS
 10
104.1783297338
 20
85.4259746358
 30
0.0
 11
17.25
 21
-0.0
 31
0.0
 40
0.7659569903
 41
0.3863517513
 42
0.4073039459
  0
ELLIPSE
  5
5DF
100
AcDbEntity
  8
0
100
AcDbEllipse
 62
7
  6
CONTINUOUS
 10
104.1783297338
 20
81.5536322978
 30
0.0
 11
0.0
 21
23.489358902
 31
0.0
 40
0.7343750875
 41
-1.200041751
 42
-1.1844445755
  0
ELLIPSE
  5
5E0
100
AcDbEntity
  8
0
100
AcDbEllipse
 62
7
  6
CONTINUOUS
 10
104.1783297338
 20
70.9153722173
 30
0.0
 11
-0.0
 21
52.8509567242
 31
0.0
 40
0.3263895503
 41
-1.2052196597
 42
-1.200041751
  0
ELLIPSE
  5
5E1
100
AcDbEntity
  8
0
100
AcDbEllipse
 62
7
  6
CONTINUOUS
 10
104.1783297338
 20
119.8515290534
 30
0.0
 11
-0.0
 21
52.8511079322
 31
0.0
 40
0.3263886165
 41
-2.1891692447
 42
-2.1832528716
  0
ELLIPSE
  5
5E2
100
AcDbEntity
  8
0
100
AcDbEllipse
 62
7
  6
CONTINUOUS
 10
104.1783297338
 20
102.8302252677
 30
0.0
 11
0.0
 21
23.489358902
 31
0.0
 40
0.7343750875
 41
-2.2070705811
 42
-2.1891692447
  0
ELLIPSE
  5
5E3
100
AcDbEntity
  8
0
100
AcDbEllipse
 62
7
  6
CONTINUOUS
 10
104.1783297338
 20
96.7238448888
 30
0.0
 11
17.25
 21
0.0
 31
0.0
 40
0.7659575381
 41
-0.6605187342
 42
-0.6362742543
  0
ELLIPSE
  5
5E4
100
AcDbEntity
  8
0
100
AcDbEllipse
 62
7
  6
CONTINUOUS
 10
104.1783297338
 20
90.779162446
 30
0.0
 11
17.25
 21
0.0
 31
0.0
 40
0.2042552558
 41
-0.691484194
 42
-0.6605187342
  0
ELLIPSE
  5
5E5
100
AcDbEntity
  8
0
100
AcDbEllipse
 62
7
  6
CONTINUOUS
 10
104.1783297338
 20
88.4983127496
 30
0.0
 11
17.25
 21
-0.0
 31
0.0
 40
0.2042552558
 41
0.6605187342
 42
0.691484194
  0
ELLIPSE
  5
5E6
100
AcDbEntity
  8
0
100
AcDbEllipse
 62
7
  6
CONTINUOUS
 10
104.1783297338
 20
82.5536303068
 30
0.0
 11
17.25
 21
-0.0
 31
0.0
 40
0.7659575381
 41
0.6362742543
 42
0.6605187342
  0
ELLIPSE
  5
5E7
100
AcDbEntity
  8
0
100
AcDbEllipse
 62
7
  6
CONTINUOUS
 10
104.1783297338
 20
76.4472499278
 30
0.0
 11
0.0
 21
23.489358902
 31
0.0
 40
0.7343750875
 41
-0.9524234089
 42
-0.9345220725
  0
ELLIPSE
  5
5E8
100
AcDbEntity
  8
0
100
AcDbEllipse
 62
7
  6
CONTINUOUS
 10
104.1783297338
 20
59.4259461422
 30
0.0
 11
-0.0
 21
52.8511079322
 31
0.0
 40
0.3263886165
 41
-0.958339782
 42
-0.9524234089
  0
ELLIPSE
  5
5E9
100
AcDbEntity
  8
0
100
AcDbEllipse
 62
7
  6
CONTINUOUS
 10
104.1783297338
 20
91.383408978
 30
0.0
 11
-0.0
 21
70.4683455213
 31
0.0
 40
0.244790762
 41
-1.536973444
 42
-1.5321393658
  0
ELLIPSE
  5
5EA
100
AcDbEntity
  8
0
100
AcDbEllipse
 62
7
  6
CONTINUOUS
 10
104.1783297338
 20
92.8727817032
 30
0.0
 11
-0.0
 21
26.4254783621
 31
0.0
 40
0.6527791007
 41
-1.5466393972
 42
-1.536973444
  0
ELLIPSE
  5
5EB
100
AcDbEntity
  8
0
100
AcDbEllipse
 62
7
  6
CONTINUOUS
 10
104.1783297338
 20
93.227390138
 30
0.0
 11
17.25
 21
0.0
 31
0.0
 40
0.6808512211
 41
6.292847284
 42
6.3073422368
  0
ELLIPSE
  5
5EC
100
AcDbEntity
  8
0
100
AcDbEllipse
 62
7
  6
CONTINUOUS
 10
104.1783297338
 20
96.1323547963
 30
0.0
 11
17.25
 21
-0.0
 31
0.0
 40
0.2042552558
 41
0.1503239626
 42
0.1748018834
  0
ELLIPSE
  5
5ED
100
AcDbEntity
  8
0
100
AcDbEllipse
 62
7
  6
CONTINUOUS
 10
104.1783297338
 20
94.6812906117
 30
0.0
 11
17.25
 21
-0.0
 31
0.0
 40
0.7659575381
 41
0.1308074961
 42
0.1503239626
  0
ELLIPSE
  5
5EE
100
AcDbEntity
  8
0
100
AcDbEllipse
 62
7
  6
CONTINUOUS
 10
104.1783297338
 20
93.3408656505
 30
0.0
 11
-0.0
 21
23.489358902
 31
0.0
 40
0.7343750875
 41
4.8285923529
 42
4.8431964765
  0
ELLIPSE
  5
5EF
100
AcDbEntity
  8
0
100
AcDbEllipse
 62
7
  6
CONTINUOUS
 10
104.1783297338
 20
89.9366048934
 30
0.0
 11
-0.0
 21
52.8511079322
 31
0.0
 40
0.3263886165
 41
-1.4594553078
 42
-1.4545929543
  0
ELLIPSE
  5
5F0
100
AcDbEntity
  8
0
100
AcDbEllipse
 62
7
  6
CONTINUOUS
 10
104.1783297338
 20
101.3408703022
 30
0.0
 11
-0.0
 21
52.8511079322
 31
0.0
 40
0.3263886165
 41
-1.6869996993
 42
-1.6821373458
  0
ELLIPSE
  5
5F1
100
AcDbEntity
  8
0
100
AcDbEllipse
 62
7
  6
CONTINUOUS
 10
104.1783297338
 20
97.9366095451
 30
0.0
 11
-0.0
 21
23.489358902
 31
0.0
 40
0.7343750875
 41
-1.7016038229
 42
-1.6869996993
  0
ELLIPSE
  5
5F2
100
AcDbEntity
  8
0
100
AcDbEllipse
 62
7
  6
CONTINUOUS
 10
104.1783297338
 20
96.0217164303
 30
0.0
 11
17.25
 21
0.0
 31
0.0
 40
0.5106383587
 41
-0.1503239626
 42
-0.1308074961
  0
ELLIPSE
  5
5F3
100
AcDbEntity
  8
0
100
AcDbEllipse
 62
7
  6
CONTINUOUS
 10
104.1783297338
 20
87.9602507825
 30
0.0
 11
0.0
 21
45.0212767124
 31
0.0
 40
0.3831521729
 41
4.8188702738
 42
4.862712943
  0
ELLIPSE
  5
5F4
100
AcDbEntity
  8
0
100
AcDbEllipse
 62
7
  6
CONTINUOUS
 10
104.1783297338
 20
91.1139149002
 30
0.0
 11
17.25
 21
0.0
 31
0.0
 40
0.1702127457
 41
-0.1552118342
 42
-0.1259365116
  0
ELLIPSE
  5
5F5
100
AcDbEntity
  8
0
100
AcDbEllipse
 62
7
  6
CONTINUOUS
 10
104.1783297338
 20
95.3266809896
 30
0.0
 11
17.0
 21
0.0
 31
0.0
 40
0.3404254913
 41
0.1575132709
 42
0.1724216907
  0
ELLIPSE
  5
5F6
100
AcDbEntity
  8
0
100
AcDbEllipse
 62
7
  6
CONTINUOUS
 10
104.1783297338
 20
93.5110796136
 30
0.0
 11
-0.0
 21
17.3616917793
 31
0.0
 40
0.9791672503
 41
-1.4232022211
 42
-1.4132830559
  0
ELLIPSE
  5
5F7
100
AcDbEntity
  8
0
100
AcDbEllipse
 62
7
  6
CONTINUOUS
 10
104.1783297338
 20
88.4046887214
 30
0.0
 11
0.0
 21
52.0851498462
 31
0.0
 40
0.3263886165
 41
-1.4281562542
 42
-1.4232022211
  0
ELLIPSE
  5
5F8
100
AcDbEntity
  8
0
100
AcDbEllipse
 62
7
  6
CONTINUOUS
 10
104.1783297338
 20
102.957892847
 30
0.0
 11
-0.0
 21
52.0851498462
 31
0.0
 40
0.3263886165
 41
-1.7183904325
 42
-1.7134363994
  0
ELLIPSE
  5
5F9
100
AcDbEntity
  8
0
100
AcDbEllipse
 62
7
  6
CONTINUOUS
 10
104.1783297338
 20
97.8515019548
 30
0.0
 11
-0.0
 21
17.3616917793
 31
0.0
 40
0.9791672503
 41
-1.7283095977
 42
-1.7183904325
  0
ELLIPSE
  5
5FA
100
AcDbEntity
  8
0
100
AcDbEllipse
 62
7
  6
CONTINUOUS
 10
104.1783297338
 20
96.0359005789
 30
0.0
 11
17.0
 21
0.0
 31
0.0
 40
0.3404254913
 41
-0.1724216907
 42
-0.1575132709
  0
ELLIPSE
  5
5FB
100
AcDbEntity
  8
0
100
AcDbEllipse
 62
7
  6
CONTINUOUS
 10
104.1783297338
 20
69.6388758415
 30
0.0
 11
-0.0
 21
88.0844485277
 31
0.0
 40
0.1958347959
 41
-1.3615431249
 42
-1.3566018266
  0
ELLIPSE
  5
5FC
100
AcDbEntity
  8
0
100
AcDbEllipse
 62
7
  6
CONTINUOUS
 10
104.1783297338
 20
76.9578469005
 30
0.0
 11
-0.0
 21
52.851259141
 31
0.0
 40
0.3263876827
 41
-1.366479187
 42
-1.3615431249
  0
ELLIPSE
  5
5FD
100
AcDbEntity
  8
0
100
AcDbEllipse
 62
7
  6
CONTINUOUS
 10
104.1783297338
 20
80.53236785
 30
0.0
 11
-0.0
 21
35.2339773186
 31
0.0
 40
0.4895842398
 41
4.9068489351
 42
4.9167061202
  0
ELLIPSE
  5
5FE
100
AcDbEntity
  8
0
100
AcDbEllipse
 62
7
  6
CONTINUOUS
 10
104.1783297338
 20
83.9366102472
 30
0.0
 11
-0.0
 21
17.6170212328
 31
0.0
 40
0.9791666691
 41
-1.3910866401
 42
-1.3763363721
  0
ELLIPSE
  5
5FF
100
AcDbEntity
  8
0
100
AcDbEllipse
 62
7
  6
CONTINUOUS
 10
104.1783297338
 20
85.1961817545
 30
0.0
 11
17.25
 21
-0.0
 31
0.0
 40
0.6127668731
 41
0.1552118342
 42
0.1797096866
  0
ELLIPSE
  5
600
100
AcDbEntity
  8
0
100
AcDbEllipse
 62
7
  6
CONTINUOUS
 10
104.1783297338
 20
86.3763261952
 30
0.0
 11
17.25
 21
0.0
 31
0.0
 40
0.1702127606
 41
0.1259365116
 42
0.1552118342
  0
ELLIPSE
  5
601
100
AcDbEntity
  8
0
100
AcDbEllipse
 62
7
  6
CONTINUOUS
 10
104.1783297338
 20
91.4827088359
 30
0.0
 11
17.25
 21
0.0
 31
0.0
 40
0.3404254913
 41
-0.4284472765
 42
-0.4125712715
  0
ELLIPSE
  5
602
100
AcDbEntity
  8
0
100
AcDbEllipse
 62
7
  6
CONTINUOUS
 10
104.1783297338
 20
96.191934761
 30
0.0
 11
-0.0
 21
17.6170359774
 31
0.0
 40
0.9791658496
 41
-1.9833675983
 42
-1.9728448599
  0
ELLIPSE
  5
603
100
AcDbEntity
  8
0
100
AcDbEllipse
 62
7
  6
CONTINUOUS
 10
104.1783297338
 20
109.9791211402
 30
0.0
 11
-0.0
 21
52.8509567242
 31
0.0
 40
0.3263895503
 41
-1.9728448599
 42
-1.9676011651
  0
ELLIPSE
  5
604
100
AcDbEntity
  8
0
100
AcDbEllipse
 62
7
  6
CONTINUOUS
 10
104.1783297338
 20
69.3834604282
 30
0.0
 11
-0.0
 21
52.8509567242
 31
0.0
 40
0.3263895503
 41
-1.1739914885
 42
-1.1687477937
  0
ELLIPSE
  5
605
100
AcDbEntity
  8
0
100
AcDbEllipse
 62
7
  6
CONTINUOUS
 10
104.1783297338
 20
83.1706468074
 30
0.0
 11
-0.0
 21
17.6170359774
 31
0.0
 40
0.9791658496
 41
-1.1687477937
 42
-1.1582250553
  0
ELLIPSE
  5
606
100
AcDbEntity
  8
0
100
AcDbEllipse
 62
7
  6
CONTINUOUS
 10
104.1783297338
 20
87.8798727326
 30
0.0
 11
17.25
 21
-0.0
 31
0.0
 40
0.3404254913
 41
0.4125712715
 42
0.4284472765
  0
ELLIPSE
  5
607
100
AcDbEntity
  8
0
100
AcDbEllipse
 62
7
  6
CONTINUOUS
 10
104.1783297338
 20
91.1139149002
 30
0.0
 11
17.0
 21
0.0
 31
0.0
 40
0.1702127457
 41
-0.1575132851
 42
-0.1277985931
  0
ELLIPSE
  5
608
100
AcDbEntity
  8
0
100
AcDbEllipse
 62
7
  6
CONTINUOUS
 10
104.1783297338
 20
92.2940592375
 30
0.0
 11
17.0
 21
0.0
 31
0.0
 40
0.6127668194
 41
-0.1823819505
 42
-0.1575132851
  0
ELLIPSE
  5
609
100
AcDbEntity
  8
0
100
AcDbEllipse
 62
7
  6
CONTINUOUS
 10
104.1783297338
 20
93.5536305427
 30
0.0
 11
0.0
 21
17.361700058
 31
0.0
 40
0.9791667834
 41
-1.7681534173
 42
-1.7531782773
  0
ELLIPSE
  5
60A
100
AcDbEntity
  8
0
100
AcDbEllipse
 62
7
  6
CONTINUOUS
 10
104.1783297338
 20
96.9578721452
 30
0.0
 11
-0.0
 21
34.7233338865
 31
0.0
 40
0.4895843255
 41
-1.7781616183
 42
-1.7681534173
  0
ELLIPSE
  5
60B
100
AcDbEntity
  8
0
100
AcDbEllipse
 62
7
  6
CONTINUOUS
 10
104.1783297338
 20
100.53240436
 30
0.0
 11
-0.0
 21
52.0853475012
 31
0.0
 40
0.3263873779
 41
-1.7831735383
 42
-1.7781616183
  0
ELLIPSE
  5
60C
100
AcDbEntity
  8
0
100
AcDbEllipse
 62
7
  6
CONTINUOUS
 10
104.1783297338
 20
107.851360041
 30
0.0
 11
-0.0
 21
86.8078379987
 31
0.0
 40
0.1958348508
 41
-1.7881909382
 42
-1.7831735383
  0
ELLIPSE
  5
60D
100
AcDbEntity
  8
0
100
AcDbEllipse
 62
7
  6
CONTINUOUS
 10
104.1783297338
 20
69.6388758415
 30
0.0
 11
-0.0
 21
86.8078623172
 31
0.0
 40
0.1958347959
 41
-1.3584191152
 42
-1.3554093345
  0
ELLIPSE
  5
60E
100
AcDbEntity
  8
0
100
AcDbEllipse
 62
7
  6
CONTINUOUS
 10
104.1783297338
 20
76.9578469005
 30
0.0
 11
0.0
 21
52.0852988636
 31
0.0
 40
0.3263876827
 41
-1.3634310353
 42
-1.3584191152
  0
ELLIPSE
  5
60F
100
AcDbEntity
  8
0
100
AcDbEllipse
 62
7
  6
CONTINUOUS
 10
104.1783297338
 20
80.53236785
 30
0.0
 11
-0.0
 21
34.7233399661
 31
0.0
 40
0.4895842398
 41
-1.3734392363
 42
-1.3634310353
  0
ELLIPSE
  5
610
100
AcDbEntity
  8
0
100
AcDbEllipse
 62
7
  6
CONTINUOUS
 10
104.1783297338
 20
83.9366102472
 30
0.0
 11
-0.0
 21
17.3617020845
 31
0.0
 40
0.9791666691
 41
-1.3884143763
 42
-1.3734392363
  0
ELLIPSE
  5
611
100
AcDbEntity
  8
0
100
AcDbEllipse
 62
7
  6
CONTINUOUS
 10
104.1783297338
 20
85.1961817545
 30
0.0
 11
17.0
 21
0.0
 31
0.0
 40
0.6127668731
 41
0.1575132851
 42
0.1823819505
  0
ELLIPSE
  5
612
100
AcDbEntity
  8
0
100
AcDbEllipse
 62
7
  6
CONTINUOUS
 10
104.1783297338
 20
92.7593045095
 30
0.0
 11
17.25
 21
0.0
 31
0.0
 40
0.3404254913
 41
-0.6852288828
 42
-0.6666510023
  0
ELLIPSE
  5
613
100
AcDbEntity
  8
0
100
AcDbEllipse
 62
7
  6
CONTINUOUS
 10
104.1783297338
 20
100.0217098509
 30
0.0
 11
0.0
 21
17.617010776
 31
0.0
 40
0.9791672503
 41
-2.237447329
 42
-2.225211889
  0
ELLIPSE
  5
614
100
AcDbEntity
  8
0
100
AcDbEllipse
 62
7
  6
CONTINUOUS
 10
104.1783297338
 20
121.4685515981
 30
0.0
 11
-0.0
 21
52.8511079322
 31
0.0
 40
0.3263886165
 41
-2.225211889
 42
-2.2191371617
  0
ELLIPSE
  5
615
100
AcDbEntity
  8
0
100
AcDbEllipse
 62
7
  6
CONTINUOUS
 10
104.1783297338
 20
57.8940299703
 30
0.0
 11
-0.0
 21
52.8511079322
 31
0.0
 40
0.3263886165
 41
-0.9224554919
 42
-0.9163807645
  0
ELLIPSE
  5
616
100
AcDbEntity
  8
0
100
AcDbEllipse
 62
7
  6
CONTINUOUS
 10
104.1783297338
 20
79.3408717175
 30
0.0
 11
0.0
 21
17.617010776
 31
0.0
 40
0.9791672503
 41
-0.9163807645
 42
-0.9041453245
  0
ELLIPSE
  5
617
100
AcDbEntity
  8
0
100
AcDbEllipse
 62
7
  6
CONTINUOUS
 10
104.1783297338
 20
86.6032770589
 30
0.0
 11
17.25
 21
0.0
 31
0.0
 40
0.3404254913
 41
0.6666510023
 42
0.6852288828
  0
ELLIPSE
  5
618
100
AcDbEntity
  8
0
100
AcDbEllipse
 62
7
  6
CONTINUOUS
 10
104.1783297338
 20
92.7791630965
 30
0.0
 11
17.25
 21
-0.0
 31
0.0
 40
0.2042553906
 41
6.2735233303
 42
6.2976785682
  0
ELLIPSE
  5
619
100
AcDbEntity
  8
0
100
AcDbEllipse
 62
7
  6
CONTINUOUS
 10
104.1783297338
 20
86.2663964684
 30
0.0
 11
-0.0
 21
45.5744714483
 31
0.0
 40
0.3730158455
 41
-1.4281562542
 42
-1.3884143549
  0
ELLIPSE
  5
61A
100
AcDbEntity
  8
0
100
AcDbEllipse
 62
7
  6
CONTINUOUS
 10
104.1783297338
 20
87.6132053536
 30
0.0
 11
17.25
 21
-0.0
 31
0.0
 40
0.204255139
 41
-0.1259365116
 42
-0.1016241049
  0
ELLIPSE
  5
61B
100
AcDbEntity
  8
0
100
AcDbEllipse
 62
7
  6
CONTINUOUS
 10
104.1783297338
 20
88.4472480801
 30
0.0
 11
17.25
 21
-0.0
 31
0.0
 40
0.6808509827
 41
-0.1016241049
 42
-0.0870664823
  0
ELLIPSE
  5
61C
100
AcDbEntity
  8
0
100
AcDbEllipse
 62
7
  6
CONTINUOUS
 10
104.1783297338
 20
89.7238461322
 30
0.0
 11
-0.0
 21
26.4255570506
 31
0.0
 40
0.6527771569
 41
-1.6578628091
 42
-1.638480863
  0
ELLIPSE
  5
61D
100
AcDbEntity
  8
0
100
AcDbEllipse
 62
7
  6
CONTINUOUS
 10
104.1783297338
 20
95.0854942959
 30
0.0
 11
-0.0
 21
105.701333298
 31
0.0
 40
0.1631956709
 41
-1.638480863
 42
-1.6336395968
  0
ELLIPSE
  5
61E
100
AcDbEntity
  8
0
100
AcDbEllipse
 62
7
  6
CONTINUOUS
 10
104.1783297338
 20
82.4047483815
 30
0.0
 11
-0.0
 21
105.7013086219
 31
0.0
 40
0.163195709
 41
-1.5079530568
 42
-1.5031117906
  0
ELLIPSE
  5
61F
100
AcDbEntity
  8
0
100
AcDbEllipse
 62
7
  6
CONTINUOUS
 10
104.1783297338
 20
87.7663942504
 30
0.0
 11
-0.0
 21
26.4255663043
 31
0.0
 40
0.6527769283
 41
4.7800735166
 42
4.7994554627
  0
ELLIPSE
  5
620
100
AcDbEntity
  8
0
100
AcDbEllipse
 62
7
  6
CONTINUOUS
 10
104.1783297338
 20
92.702567429
 30
0.0
 11
17.25
 21
0.0
 31
0.0
 40
0.5106380606
 41
6.2976785682
 42
6.31700819
  0
ELLIPSE
  5
621
100
AcDbEntity
  8
0
100
AcDbEllipse
 62
7
  6
CONTINUOUS
 10
104.1783297338
 20
89.0429931072
 30
0.0
 11
17.25
 21
-0.0
 31
0.0
 40
0.6808509827
 41
6.3702517895
 42
6.384809412
  0
ELLIPSE
  5
622
100
AcDbEntity
  8
0
100
AcDbEllipse
 62
7
  6
CONTINUOUS
 10
104.1783297338
 20
89.8770358336
 30
0.0
 11
17.25
 21
-0.0
 31
0.0
 40
0.204255139
 41
6.384809412
 42
6.4091218187
  0
ELLIPSE
  5
623
100
AcDbEntity
  8
0
100
AcDbEllipse
 62
7
  6
CONTINUOUS
 10
104.1783297338
 20
82.4047483815
 30
0.0
 11
-0.0
 21
104.1694055984
 31
0.0
 40
0.163195709
 41
4.7761576617
 42
4.781070434
  0
ELLIPSE
  5
624
100
AcDbEntity
  8
0
100
AcDbEllipse
 62
7
  6
CONTINUOUS
 10
104.1783297338
 20
92.4046943197
 30
0.0
 11
0.0
 21
17.6170375197
 31
0.0
 40
0.9791657639
 41
-1.536973444
 42
-1.5176311974
  0
ELLIPSE
  5
625
100
AcDbEntity
  8
0
100
AcDbEllipse
 62
7
  6
CONTINUOUS
 10
104.1783297338
 20
91.4685259206
 30
0.0
 11
0.0
 21
35.2340277212
 31
0.0
 40
0.4895835394
 41
-1.5176311974
 42
-1.5079530429
  0
ELLIPSE
  5
626
100
AcDbEntity
  8
0
100
AcDbEllipse
 62
7
  6
CONTINUOUS
 10
104.1783297338
 20
88.1493875071
 30
0.0
 11
-0.0
 21
88.0849278737
 31
0.0
 40
0.1958337302
 41
-1.5079530429
 42
-1.5031118045
  0
ELLIPSE
  5
627
100
AcDbEntity
  8
0
100
AcDbEllipse
 62
7
  6
CONTINUOUS
 10
104.1783297338
 20
95.0854942959
 30
0.0
 11
-0.0
 21
104.1694299169
 31
0.0
 40
0.1631956709
 41
-1.6394777804
 42
-1.6345650081
  0
ELLIPSE
  5
628
100
AcDbEntity
  8
0
100
AcDbEllipse
 62
7
  6
CONTINUOUS
 10
104.1783297338
 20
86.3763261952
 30
0.0
 11
17.0
 21
0.0
 31
0.0
 40
0.1702127606
 41
0.1277985931
 42
0.1575132851
  0
ELLIPSE
  5
629
100
AcDbEntity
  8
0
100
AcDbEllipse
 62
7
  6
CONTINUOUS
 10
104.1783297338
 20
107.851360041
 30
0.0
 11
-0.0
 21
88.0844238516
 31
0.0
 40
0.1958348508
 41
-1.784990827
 42
-1.7800495287
  0
ELLIPSE
  5
62A
100
AcDbEntity
  8
0
100
AcDbEllipse
 62
7
  6
CONTINUOUS
 10
104.1783297338
 20
100.53240436
 30
0.0
 11
-0.0
 21
52.8513084938
 31
0.0
 40
0.3263873779
 41
-1.7800495287
 42
-1.7751134666
  0
ELLIPSE
  5
62B
100
AcDbEntity
  8
0
100
AcDbEllipse
 62
7
  6
CONTINUOUS
 10
104.1783297338
 20
96.0359005789
 30
0.0
 11
17.25
 21
0.0
 31
0.0
 40
0.3404254913
 41
-0.1698983162
 42
-0.1552118202
  0
ELLIPSE
  5
62C
100
AcDbEntity
  8
0
100
AcDbEllipse
 62
7
  6
CONTINUOUS
 10
104.1783297338
 20
97.8515019548
 30
0.0
 11
0.0
 21
17.617010776
 31
0.0
 40
0.9791672503
 41
-1.726008147
 42
-1.7162360619
  0
ELLIPSE
  5
62D
100
AcDbEntity
  8
0
100
AcDbEllipse
 62
7
  6
CONTINUOUS
 10
104.1783297338
 20
102.957892847
 30
0.0
 11
-0.0
 21
52.8511079322
 31
0.0
 40
0.3263886165
 41
-1.7162360619
 42
-1.7113553262
  0
ELLIPSE
  5
62E
100
AcDbEntity
  8
0
100
AcDbEllipse
 62
7
  6
CONTINUOUS
 10
104.1783297338
 20
88.4046887214
 30
0.0
 11
-0.0
 21
52.8511079322
 31
0.0
 40
0.3263886165
 41
-1.4302373274
 42
-1.4253565917
  0
ELLIPSE
  5
62F
100
AcDbEntity
  8
0
100
AcDbEllipse
 62
7
  6
CONTINUOUS
 10
104.1783297338
 20
93.5110796136
 30
0.0
 11
0.0
 21
17.617010776
 31
0.0
 40
0.9791672503
 41
-1.4253565917
 42
-1.4155845066
  0
ELLIPSE
  5
630
100
AcDbEntity
  8
0
100
AcDbEllipse
 62
7
  6
CONTINUOUS
 10
104.1783297338
 20
95.3266809896
 30
0.0
 11
17.25
 21
-0.0
 31
0.0
 40
0.3404254913
 41
0.1552118202
 42
0.1698983162
  0
ELLIPSE
  5
631
100
AcDbEntity
  8
0
100
AcDbEllipse
 62
7
  6
CONTINUOUS
 10
104.1783297338
 20
87.8798727326
 30
0.0
 11
17.0
 21
-0.0
 31
0.0
 40
0.3404254913
 41
0.4190170503
 42
0.4351744717
  0
ELLIPSE
  5
632
100
AcDbEntity
  8
0
100
AcDbEllipse
 62
7
  6
CONTINUOUS
 10
104.1783297338
 20
83.1706468074
 30
0.0
 11
-0.0
 21
17.3617166154
 31
0.0
 40
0.9791658496
 41
-1.1624863287
 42
-1.1517792765
  0
ELLIPSE
  5
633
100
AcDbEntity
  8
0
100
AcDbEllipse
 62
7
  6
CONTINUOUS
 10
104.1783297338
 20
69.3834604282
 30
0.0
 11
-0.0
 21
52.0850008297
 31
0.0
 40
0.3263895503
 41
-1.1678212377
 42
-1.1624863287
  0
ELLIPSE
  5
634
100
AcDbEntity
  8
0
100
AcDbEllipse
 62
7
  6
CONTINUOUS
 10
104.1783297338
 20
109.9791211402
 30
0.0
 11
-0.0
 21
52.0850008297
 31
0.0
 40
0.3263895503
 41
-1.9791063249
 42
-1.9737714159
  0
ELLIPSE
  5
635
100
AcDbEntity
  8
0
100
AcDbEllipse
 62
7
  6
CONTINUOUS
 10
104.1783297338
 20
96.191934761
 30
0.0
 11
0.0
 21
17.3617166154
 31
0.0
 40
0.9791658496
 41
-1.9898133771
 42
-1.9791063249
  0
ELLIPSE
  5
636
100
AcDbEntity
  8
0
100
AcDbEllipse
 62
7
  6
CONTINUOUS
 10
104.1783297338
 20
91.4827088359
 30
0.0
 11
17.0
 21
0.0
 31
0.0
 40
0.3404254913
 41
-0.4351744717
 42
-0.4190170503
  0
ELLIPSE
  5
637
100
AcDbEntity
  8
0
100
AcDbEllipse
 62
7
  6
CONTINUOUS
 10
104.1783297338
 20
96.9578721452
 30
0.0
 11
0.0
 21
35.2339711495
 31
0.0
 40
0.4895843255
 41
-1.7751134666
 42
-1.7652562815
  0
ELLIPSE
  5
638
100
AcDbEntity
  8
0
100
AcDbEllipse
 62
7
  6
CONTINUOUS
 10
104.1783297338
 20
93.5536305427
 30
0.0
 11
-0.0
 21
17.6170191765
 31
0.0
 40
0.9791667834
 41
-1.7652562815
 42
-1.7505060134
  0
ELLIPSE
  5
639
100
AcDbEntity
  8
0
100
AcDbEllipse
 62
7
  6
CONTINUOUS
 10
104.1783297338
 20
86.6032770589
 30
0.0
 11
17.0
 21
-0.0
 31
0.0
 40
0.3404254913
 41
0.6782752682
 42
0.6973086094
  0
ELLIPSE
  5
63A
100
AcDbEntity
  8
0
100
AcDbEllipse
 62
7
  6
CONTINUOUS
 10
104.1783297338
 20
79.3408717175
 30
0.0
 11
-0.0
 21
17.3616917793
 31
0.0
 40
0.9791672503
 41
-0.9050489816
 42
-0.8925210586
  0
ELLIPSE
  5
63B
100
AcDbEntity
  8
0
100
AcDbEllipse
 62
7
  6
CONTINUOUS
 10
104.1783297338
 20
57.8940299703
 30
0.0
 11
0.0
 21
52.0851498462
 31
0.0
 40
0.3263886165
 41
-0.9112668142
 42
-0.9050489816
  0
ELLIPSE
  5
63C
100
AcDbEntity
  8
0
100
AcDbEllipse
 62
7
  6
CONTINUOUS
 10
104.1783297338
 20
121.4685515981
 30
0.0
 11
-0.0
 21
52.0851498462
 31
0.0
 40
0.3263886165
 41
-2.236543672
 42
-2.2303258394
  0
ELLIPSE
  5
63D
100
AcDbEntity
  8
0
100
AcDbEllipse
 62
7
  6
CONTINUOUS
 10
104.1783297338
 20
100.0217098509
 30
0.0
 11
0.0
 21
17.3616917793
 31
0.0
 40
0.9791672503
 41
-2.249071595
 42
-2.236543672
  0
ELLIPSE
  5
63E
100
AcDbEntity
  8
0
100
AcDbEllipse
 62
7
  6
CONTINUOUS
 10
104.1783297338
 20
92.7593045095
 30
0.0
 11
17.0
 21
0.0
 31
0.0
 40
0.3404254913
 41
-0.6973086094
 42
-0.6782752682
  0
ELLIPSE
  5
63F
100
AcDbEntity
  8
0
100
AcDbEllipse
 62
7
  6
CONTINUOUS
 10
104.1783297338
 20
92.2940592375
 30
0.0
 11
17.25
 21
0.0
 31
0.0
 40
0.6127668194
 41
-0.1797096866
 42
-0.1552118342
  0
ELLIPSE
  5
640
100
AcDbEntity
  8
0
100
AcDbEllipse
 62
7
  6
CONTINUOUS
 10
104.1783297338
 20
86.2663964684
 30
0.0
 11
-0.0
 21
46.2446842637
 31
0.0
 40
0.3730158455
 41
-1.4302373274
 42
-1.3910866191
  0
ENDSEC
  0
SECTION
  2
OBJECTS
  0
DICTIONARY
  5
C
100
AcDbDictionary
280
0
281
1
  3
ACAD_GROUP
350
D
  3
ACAD_MLINESTYLE
350
17
  3
ACAD_LAYOUT
350
1A
  3
ACAD_PLOTSETTINGS
350
19
  3
ACAD_PLOTSTYLENAME
350
E
  0
DICTIONARY
  5
D
102
{ACAD_REACTORS
330
C
102
}
100
AcDbDictionary
280
0
281
1
  0
ACDBDICTIONARYWDFLT
  5
E
102
{ACAD_REACTORS
330
C
102
}
100
AcDbDictionary
281
1
  3
Normal
350
F
100
AcDbDictionaryWithDefault
340
F
  0
DICTIONARY
  5
17
102
{ACAD_REACTORS
330
C
102
}
100
AcDbDictionary
280
0
281
1
  3
Standard
350
18
  0
DICTIONARY
  5
19
102
{ACAD_REACTORS
330
C
102
}
100
AcDbDictionary
281
1
  0
DICTIONARY
  5
1A
102
{ACAD_REACTORS
330
C
102
}
100
AcDbDictionary
281
1
  3
Model
350
641
  3
Layout1
350
642
  0
ACDBPLACEHOLDER
  5
F
102
{ACAD_REACTORS
330
E
102
}
  0
MLINESTYLE
  5
18
102
{ACAD_REACTORS
330
17
102
}
100
AcDbMlineStyle
  2
STANDARD
 70
0
  3

 62
256
 51
90.0
 52
90.0
 71
2
 49
0.5
 62
256
  6
BYLAYER
 49
-0.5
 62
256
  6
BYLAYER
  0
LAYOUT
  5
641
102
{ACAD_REACTORS
330
1A
102
}
100
AcDbPlotSettings
  1

  2
none_device
  4
ISO_A4_(297.00_x_210.00_MM)
  6

 40
0.0
 41
0.0
 42
0.0
 43
0.0
 44
297.0
 45
210.0
 46
0.0
 47
0.0
 48
0.0
 49
0.0
140
0.0
141
0.0
142
1.0
143
1.0
 70
1024
 72
1
 73
0
 74
0
  7

 75
0
147
1.0
148
0.0
149
0.0
100
AcDbLayout
  1
Model
 70
0
 71
0
 10
0.0
 20
0.0
 11
297.0
 21
210.0
 12
0.0
 22
0.0
 32
0.0
 14
0.0
 24
0.0
 34
0.0
 15
0.0
 25
0.0
 35
0.0
146
0.0
 13
0.0
 23
0.0
 33
0.0
 16
1.0
 26
0.0
 36
0.0
 17
0.0
 27
1.0
 37
0.0
 76
0
330
20E
345
0
346
0
  0
LAYOUT
  5
642
102
{ACAD_REACTORS
330
1A
102
}
100
AcDbPlotSettings
  1

  2
none_device
  4
ISO_A4_(297.00_x_210.00_MM)
  6

 40
0.0
 41
0.0
 42
0.0
 43
0.0
 44
297.0
 45
210.0
 46
0.0
 47
0.0
 48
0.0
 49
0.0
140
0.0
141
0.0
142
1.0
143
1.0
 70
0
 72
1
 73
0
 74
0
  7

 75
0
147
1.0
148
0.0
149
0.0
100
AcDbLayout
  1
Layout1
 70
0
 71
1
 10
0.0
 20
0.0
 11
297.0
 21
210.0
 12
0.0
 22
0.0
 32
0.0
 14
0.0
 24
0.0
 34
0.0
 15
0.0
 25
0.0
 35
0.0
146
0.0
 13
0.0
 23
0.0
 33
0.0
 16
1.0
 26
0.0
 36
0.0
 17
0.0
 27
1.0
 37
0.0
 76
0
330
20F
345
0
346
0
  0
ENDSEC
  0
EOF
