999
DXF file: 001-m31342-p-40.dxf
999
Pro/ENGINEER 2011490 by Parametric Technology Corporation
  0
SECTION
  2
HEADER
  9
$ACADVER
  1
AC1015
  9
$DWGCODEPAGE
  3
ANSI_1252
  9
$EXTMAX
 10
594.0
 20
420.0
 30
0.0
  9
$EXTMIN
 10
0.0
 20
0.0
 30
0.0
  9
$LIMMIN
 10
0.0
 20
0.0
  9
$LIMMAX
 10
594.0
 20
420.0
  9
$VIEWCTR
 10
297.0
 20
210.0
  9
$VIEWSIZE
 40
420.0
  9
$CLAYER
  8
0
  9
$LTSCALE
 40
32.67
  9
$CELTYPE
  6
BYLAYER
  9
$DIMSCALE
 40
1.0
  9
$DIMASZ
 40
3.5
  9
$DIMEXO
 40
3.7125
  9
$DIMDLI
 40
22.572
  9
$DIMEXE
 40
10.692
  9
$DIMCEN
 40
5.346
  9
$DIMLFAC
 40
1.0
  9
$DIMBLK
  1
_FILLED
  9
$DIMTXT
 40
3.5
  9
$DIMTOL
 70
1
  9
$DIMLIM
 70
0
  9
$DIMTFAC
 40
1.0
  9
$DIMTP
 40
0.005
  9
$DIMTM
 40
0.005
  9
$PDMODE
 70
3
  9
$PDSIZE
 40
0.3125
  9
$HANDSEED
  5
3F0
  9
$TILEMODE
 70
1
  9
$MEASUREMENT
 70
1
  9
$INSUNITS
 70
4
  0
ENDSEC
  0
SECTION
  2
CLASSES
  0
CLASS
  1
ACDBDICTIONARYWDFLT
  2
AcDbDictionaryWithDefault
  3
AutoCAD 2000
 90
0
280
0
281
0
  0
CLASS
  1
ACDBPLACEHOLDER
  2
AcDbPlaceHolder
  3
AutoCAD 2000
 90
0
280
0
281
0
  0
CLASS
  1
LAYOUT
  2
AcDbLayout
  3
AutoCAD 2000
 90
0
280
0
281
0
  0
ENDSEC
  0
SECTION
  2
TABLES
  0
TABLE
  2
VPORT
  5
8
100
AcDbSymbolTable
 70
2
  0
VPORT
  5
1F4
100
AcDbSymbolTableRecord
100
AcDbViewportTableRecord
  2
*ACTIVE
 70
0
 10
0.0
 20
0.0
 11
1.0
 21
1.0
 12
297.0
 22
210.0
 13
0.0
 23
0.0
 14
1.0
 24
1.0
 15
0.0
 25
0.0
 16
0.0
 26
0.0
 36
1.0
 17
0.0
 27
0.0
 37
0.0
 40
420.0
 41
1.4142857143
 42
50.0
 43
0.0
 44
0.0
 50
0.0
 51
0.0
 71
0
 72
100
 73
1
 74
1
 75
0
 76
0
 77
0
 78
0
  0
ENDTAB
  0
TABLE
  2
LTYPE
  5
5
100
AcDbSymbolTable
 70
6
  0
LTYPE
  5
14
100
AcDbSymbolTableRecord
100
AcDbLinetypeTableRecord
  2
BYBLOCK
 70
0
  3

 72
65
 73
0
 40
0.0
  0
LTYPE
  5
15
100
AcDbSymbolTableRecord
100
AcDbLinetypeTableRecord
  2
BYLAYER
 70
0
  3

 72
65
 73
0
 40
0.0
  0
LTYPE
  5
16
100
AcDbSymbolTableRecord
100
AcDbLinetypeTableRecord
  2
CONTINUOUS
 70
64
  3
Solid line
 72
65
 73
0
 40
0.0
  0
LTYPE
  5
1F5
100
AcDbSymbolTableRecord
100
AcDbLinetypeTableRecord
  2
CENTER
 70
64
  3
____ _ ____ _ ____ _ ____ _ ____ _ ____ _ ____
 72
65
 73
4
 40
0.6
 49
0.375
 74
0
 49
-0.075
 74
0
 49
0.075
 74
0
 49
-0.075
 74
0
  0
LTYPE
  5
1F6
100
AcDbSymbolTableRecord
100
AcDbLinetypeTableRecord
  2
HIDDEN
 70
64
  3
- - - - - - - - - - - - - - - - - - - -
 72
65
 73
2
 40
0.2
 49
0.1
 74
0
 49
-0.1
 74
0
  0
LTYPE
  5
1F7
100
AcDbSymbolTableRecord
100
AcDbLinetypeTableRecord
  2
PHANTOM
 70
64
  3
_____ _ _ _____ _ _ _____ _ _ _____
 72
65
 73
6
 40
0.8
 49
0.45
 74
0
 49
-0.05
 74
0
 49
0.1
 74
0
 49
-0.05
 74
0
 49
0.1
 74
0
 49
-0.05
 74
0
  0
LTYPE
  5
1F8
100
AcDbSymbolTableRecord
100
AcDbLinetypeTableRecord
  2
DOT
 70
64
  3
. . . . . . . . . . . . . . . . . . . .
 72
65
 73
2
 40
0.2
 49
0.1
 74
0
 49
-0.1
 74
0
  0
LTYPE
  5
1F9
100
AcDbSymbolTableRecord
100
AcDbLinetypeTableRecord
  2
DASHED
 70
64
  3
- - - - - - - - - - - - - - - - - - - -
 72
65
 73
2
 40
0.2
 49
0.1
 74
0
 49
-0.1
 74
0
  0
ENDTAB
  0
TABLE
  2
LAYER
  5
2
100
AcDbSymbolTable
 70
36
  0
LAYER
  5
10
100
AcDbSymbolTableRecord
100
AcDbLayerTableRecord
  2
0
 70
0
 62
7
  6
CONTINUOUS
370
-3
390
F
  0
LAYER
  5
1FA
100
AcDbSymbolTableRecord
100
AcDbLayerTableRecord
  2
DEFAULT_1
 70
0
 62
7
  6
CENTER
370
-3
390
F
  0
LAYER
  5
1FB
100
AcDbSymbolTableRecord
100
AcDbLayerTableRecord
  2
DEFAULT_2
 70
0
 62
8
  6
HIDDEN
370
-3
390
F
  0
LAYER
  5
1FC
100
AcDbSymbolTableRecord
100
AcDbLayerTableRecord
  2
DEFAULT_3
 70
0
 62
7
  6
PHANTOM
370
-3
390
F
  0
LAYER
  5
1FD
100
AcDbSymbolTableRecord
100
AcDbLayerTableRecord
  2
AUSFORMSCHRAEGEN
 70
0
 62
7
  6
CONTINUOUS
370
-3
390
F
  0
LAYER
  5
1FE
100
AcDbSymbolTableRecord
100
AcDbLayerTableRecord
  2
BEZUGSACHSEN
 70
0
 62
7
  6
CONTINUOUS
370
-3
390
F
  0
LAYER
  5
1FF
100
AcDbSymbolTableRecord
100
AcDbLayerTableRecord
  2
BEZUGSEBENEN
 70
0
 62
7
  6
CONTINUOUS
370
-3
390
F
  0
LAYER
  5
200
100
AcDbSymbolTableRecord
100
AcDbLayerTableRecord
  2
BG_STARTBEZUEGE
 70
0
 62
7
  6
CONTINUOUS
370
-3
390
F
  0
LAYER
  5
201
100
AcDbSymbolTableRecord
100
AcDbLayerTableRecord
  2
FASEN
 70
0
 62
7
  6
CONTINUOUS
370
-3
390
F
  0
LAYER
  5
202
100
AcDbSymbolTableRecord
100
AcDbLayerTableRecord
  2
HILFEN
 70
0
 62
7
  6
CONTINUOUS
370
-3
390
F
  0
LAYER
  5
203
100
AcDbSymbolTableRecord
100
AcDbLayerTableRecord
  2
KONSTRUKTIONSELEMENTE
 70
0
 62
7
  6
CONTINUOUS
370
-3
390
F
  0
LAYER
  5
204
100
AcDbSymbolTableRecord
100
AcDbLayerTableRecord
  2
NORM
 70
0
 62
7
  6
CONTINUOUS
370
-3
390
F
  0
LAYER
  5
205
100
AcDbSymbolTableRecord
100
AcDbLayerTableRecord
  2
PLATZIERUNG
 70
0
 62
7
  6
CONTINUOUS
370
-3
390
F
  0
LAYER
  5
206
100
AcDbSymbolTableRecord
100
AcDbLayerTableRecord
  2
RUNDUNGEN
 70
0
 62
7
  6
CONTINUOUS
370
-3
390
F
  0
LAYER
  5
207
100
AcDbSymbolTableRecord
100
AcDbLayerTableRecord
  2
TEIL_STARTBEZUEGE
 70
0
 62
7
  6
CONTINUOUS
370
-3
390
F
  0
LAYER
  5
208
100
AcDbSymbolTableRecord
100
AcDbLayerTableRecord
  2
T_STARTBEZUEGE
 70
0
 62
7
  6
CONTINUOUS
370
-3
390
F
  0
LAYER
  5
209
100
AcDbSymbolTableRecord
100
AcDbLayerTableRecord
  2
ZEICHNUNGSBEMASSUNGEN
 70
0
 62
7
  6
CONTINUOUS
370
-3
390
F
  0
ENDTAB
  0
TABLE
  2
STYLE
  5
3
100
AcDbSymbolTable
 70
1
  0
STYLE
  5
11
100
AcDbSymbolTableRecord
100
AcDbTextStyleTableRecord
  2
STANDARD
 70
0
 40
0.0
 41
0.7
 50
0.0
 71
0
 42
0.2
  3
txt
  4

  0
STYLE
  5
20A
100
AcDbSymbolTableRecord
100
AcDbTextStyleTableRecord
  2
TEXTSTYLE_1
 70
0
 40
0.0
 41
0.8
 50
0.0
 71
0
 42
0.2
  3
gdt
  4

  0
ENDTAB
  0
TABLE
  2
VIEW
  5
6
100
AcDbSymbolTable
 70
0
  0
ENDTAB
  0
TABLE
  2
UCS
  5
7
100
AcDbSymbolTable
 70
0
  0
ENDTAB
  0
TABLE
  2
APPID
  5
9
100
AcDbSymbolTable
 70
1
  0
APPID
  5
20B
100
AcDbSymbolTableRecord
100
AcDbRegAppTableRecord
  2
ACAD
 70
0
  0
ENDTAB
  0
TABLE
  2
BLOCK_RECORD
  5
1
100
AcDbSymbolTable
 70
0
  0
BLOCK_RECORD
  5
20C
100
AcDbSymbolTableRecord
100
AcDbBlockTableRecord
  2
*Model_Space
  0
BLOCK_RECORD
  5
20D
100
AcDbSymbolTableRecord
100
AcDbBlockTableRecord
  2
*Paper_Space
  0
ENDTAB
  0
TABLE
  2
DIMSTYLE
  5
A
100
AcDbSymbolTable
 70
1
100
AcDbDimStyleTable
 71
0
  0
DIMSTYLE
105
20E
100
AcDbSymbolTableRecord
100
AcDbDimStyleTableRecord
  2
STANDARD
 70
0
  3

  4

 40
1.0
 41
3.5
 42
0.0625
 43
0.38
 44
0.18
 45
0.0
 46
0.0
 47
0.005
 48
0.005
140
3.5
141
0.09
142
0.0
143
25.4
144
1.0
145
0.0
146
1.0
147
0.09
 71
1.0
 72
0.0
 73
0
 74
0
 75
0
 76
0
 77
1
 78
8
170
0
171
2
172
0
173
0
174
0
175
0
176
0
177
0
178
5
270
2
271
3
272
3
273
2
274
2
275
0
280
0
281
0
282
0
283
1
284
8
285
0
286
0
287
3
288
0
340
11
  0
ENDTAB
  0
ENDSEC
  0
SECTION
  2
BLOCKS
  0
BLOCK
  5
20
100
AcDbEntity
  8
0
100
AcDbBlockBegin
  2
*Model_Space
 70
0
 10
0.0
 20
0.0
 30
0.0
  3
*Model_Space
  1

  0
ENDBLK
  5
21
100
AcDbEntity
  8
0
100
AcDbBlockEnd
  0
BLOCK
  5
1C
100
AcDbEntity
  8
0
100
AcDbBlockBegin
  2
*Paper_Space
 70
0
 10
0.0
 20
0.0
 30
0.0
  3
*Paper_Space
  1

  0
ENDBLK
  5
1D
100
AcDbEntity
  8
0
100
AcDbBlockEnd
  0
ENDSEC
  0
SECTION
  2
ENTITIES
  0
MTEXT
  5
20F
100
AcDbEntity
  8
0
100
AcDbMText
 62
5
  6
CONTINUOUS
  7
STANDARD
 71
2
 72
1
 10
197.2935479605
 20
101.6967886946
 30
0.0
 11
0.0
 21
1.0
 31
0.0
 44
0.9
  1
RUD WPP\PVIP 16 8t
 40
10.0
 41
65.4761904762
  0
MTEXT
  5
210
100
AcDbEntity
  8
0
100
AcDbMText
 62
5
  6
CONTINUOUS
  7
STANDARD
 71
2
 72
1
 10
408.9404286648
 20
277.1448215197
 30
0.0
 11
1.0
 21
0.0
 31
0.0
 44
0.9
  1
RUD\PWPP 8t
 40
10.0
 41
50.7142857143
  0
LINE
  5
211
100
AcDbEntity
  8
0
100
AcDbLine
 62
7
  6
CONTINUOUS
 10
0.0
 20
0.0
 11
0.0
 21
420.0
  0
LINE
  5
212
100
AcDbEntity
  8
0
100
AcDbLine
 62
7
  6
CONTINUOUS
 10
0.0
 20
0.0
 11
594.0
 21
0.0
  0
LINE
  5
213
100
AcDbEntity
  8
0
100
AcDbLine
 62
7
  6
CONTINUOUS
 10
0.0
 20
420.0
 11
594.0
 21
420.0
  0
LINE
  5
214
100
AcDbEntity
  8
0
100
AcDbLine
 62
7
  6
CONTINUOUS
 10
594.0
 20
0.0
 11
594.0
 21
420.0
  0
LINE
  5
215
100
AcDbEntity
  8
FASEN
100
AcDbLine
 62
7
  6
CONTINUOUS
 10
163.1324688734
 20
224.1851429735
 11
160.1324688734
 21
227.1851429735
  0
LINE
  5
216
100
AcDbEntity
  8
FASEN
100
AcDbLine
 62
7
  6
CONTINUOUS
 10
257.1322671681
 20
224.1851429735
 11
163.1326705788
 21
224.1851429735
  0
LINE
  5
217
100
AcDbEntity
  8
FASEN
100
AcDbLine
 62
7
  6
CONTINUOUS
 10
260.1324688734
 20
227.1851429735
 11
160.1324688734
 21
227.1851429735
  0
LINE
  5
218
100
AcDbEntity
  8
BEZUGSACHSEN
100
AcDbLine
 62
7
  6
CONTINUOUS
 10
160.1324688734
 20
227.1851429735
 11
160.1324688734
 21
242.6851429735
  0
LINE
  5
219
100
AcDbEntity
  8
FASEN
100
AcDbLine
 62
7
  6
CONTINUOUS
 10
160.1324688734
 20
242.6851429735
 11
260.1324688734
 21
242.6851429735
  0
LINE
  5
21A
100
AcDbEntity
  8
FASEN
100
AcDbLine
 62
7
  6
CONTINUOUS
 10
160.6324688734
 20
243.1851429735
 11
259.6324688734
 21
243.1851429735
  0
LINE
  5
21B
100
AcDbEntity
  8
0
100
AcDbLine
 62
7
  6
CONTINUOUS
 10
166.1324688734
 20
281.1851429735
 11
166.1324688734
 21
243.1851429735
  0
LINE
  5
21C
100
AcDbEntity
  8
0
100
AcDbLine
 62
7
  6
CONTINUOUS
 10
248.23758664
 20
248.6851429735
 11
249.6293041897
 21
248.6851429735
  0
LINE
  5
21D
100
AcDbEntity
  8
0
100
AcDbLine
 62
7
  6
CONTINUOUS
 10
252.7990541598
 20
248.6851429735
 11
253.660477098
 21
248.6851429735
  0
LINE
  5
21E
100
AcDbEntity
  8
0
100
AcDbLine
 62
7
  6
CONTINUOUS
 10
254.1324688734
 20
250.4723769818
 11
254.1551902795
 21
250.4723769818
  0
LINE
  5
21F
100
AcDbEntity
  8
0
100
AcDbLine
 62
7
  6
CONTINUOUS
 10
254.1324688734
 20
251.7489727532
 11
254.2261193397
 21
251.7489727532
  0
LINE
  5
220
100
AcDbEntity
  8
0
100
AcDbLine
 62
7
  6
CONTINUOUS
 10
254.1324688734
 20
252.5149301087
 11
254.2261193397
 21
252.5149301087
  0
LINE
  5
221
100
AcDbEntity
  8
0
100
AcDbLine
 62
7
  6
CONTINUOUS
 10
254.1296278726
 20
253.0255683457
 11
254.629659796
 21
253.0255683457
  0
LINE
  5
222
100
AcDbEntity
  8
0
100
AcDbLine
 62
7
  6
CONTINUOUS
 10
254.3782313824
 20
254.0468451773
 11
253.660477098
 21
254.0468451773
  0
LINE
  5
223
100
AcDbEntity
  8
0
100
AcDbLine
 62
7
  6
CONTINUOUS
 10
251.6565582674
 20
254.0468451773
 11
249.6293041897
 21
254.0468451773
  0
LINE
  5
224
100
AcDbEntity
  8
0
100
AcDbLine
 62
7
  6
CONTINUOUS
 10
254.4946148615
 20
254.3021642958
 11
254.629659796
 21
254.3021642958
  0
LINE
  5
225
100
AcDbEntity
  8
0
100
AcDbLine
 62
7
  6
CONTINUOUS
 10
254.4043561643
 20
255.5787598883
 11
253.660477098
 21
255.5787598883
  0
LINE
  5
226
100
AcDbEntity
  8
0
100
AcDbLine
 62
7
  6
CONTINUOUS
 10
251.7520254844
 20
255.5787598883
 11
249.6293041897
 21
255.5787598883
  0
LINE
  5
227
100
AcDbEntity
  8
0
100
AcDbLine
 62
7
  6
CONTINUOUS
 10
251.4967045469
 20
255.8340790068
 11
252.0281726251
 21
255.8340790068
  0
LINE
  5
228
100
AcDbEntity
  8
0
100
AcDbLine
 62
7
  6
CONTINUOUS
 10
253.9723765327
 20
255.8340790068
 11
254.474181781
 21
255.8340790068
  0
LINE
  5
229
100
AcDbEntity
  8
0
100
AcDbLine
 62
7
  6
CONTINUOUS
 10
251.6746161458
 20
256.3447172438
 11
252.2038368094
 21
256.3447172438
  0
LINE
  5
22A
100
AcDbEntity
  8
0
100
AcDbLine
 62
7
  6
CONTINUOUS
 10
254.0122763024
 20
256.3447172438
 11
254.5136304175
 21
256.3447172438
  0
LINE
  5
22B
100
AcDbEntity
  8
0
100
AcDbLine
 62
7
  6
CONTINUOUS
 10
251.7610347051
 20
257.1106745993
 11
252.2891705139
 21
257.1106745993
  0
LINE
  5
22C
100
AcDbEntity
  8
0
100
AcDbLine
 62
7
  6
CONTINUOUS
 10
254.0300770413
 20
257.1106745993
 11
254.5312301496
 21
257.1106745993
  0
LINE
  5
22D
100
AcDbEntity
  8
0
100
AcDbLine
 62
7
  6
CONTINUOUS
 10
251.7610347051
 20
257.87663267
 11
252.2891705139
 21
257.87663267
  0
LINE
  5
22E
100
AcDbEntity
  8
0
100
AcDbLine
 62
7
  6
CONTINUOUS
 10
254.0300770413
 20
257.87663267
 11
254.5312301496
 21
257.87663267
  0
LINE
  5
22F
100
AcDbEntity
  8
0
100
AcDbLine
 62
7
  6
CONTINUOUS
 10
251.6746161458
 20
258.6425900255
 11
252.2038368094
 21
258.6425900255
  0
LINE
  5
230
100
AcDbEntity
  8
0
100
AcDbLine
 62
7
  6
CONTINUOUS
 10
254.0122763024
 20
258.6425900255
 11
254.5136304175
 21
258.6425900255
  0
LINE
  5
231
100
AcDbEntity
  8
0
100
AcDbLine
 62
7
  6
CONTINUOUS
 10
251.4967045469
 20
259.1532282625
 11
252.0281726251
 21
259.1532282625
  0
LINE
  5
232
100
AcDbEntity
  8
0
100
AcDbLine
 62
7
  6
CONTINUOUS
 10
253.9723765327
 20
259.1532282625
 11
254.474181781
 21
259.1532282625
  0
LINE
  5
233
100
AcDbEntity
  8
0
100
AcDbLine
 62
7
  6
CONTINUOUS
 10
254.4043561643
 20
259.408547381
 11
253.660477098
 21
259.408547381
  0
LINE
  5
234
100
AcDbEntity
  8
0
100
AcDbLine
 62
7
  6
CONTINUOUS
 10
251.7520254844
 20
259.408547381
 11
249.6293041897
 21
259.408547381
  0
LINE
  5
235
100
AcDbEntity
  8
0
100
AcDbLine
 62
7
  6
CONTINUOUS
 10
248.23758664
 20
260.6851429735
 11
251.6565582674
 21
260.6851429735
  0
LINE
  5
236
100
AcDbEntity
  8
0
100
AcDbLine
 62
7
  6
CONTINUOUS
 10
252.7990541598
 20
260.6851429735
 11
254.3782313824
 21
260.6851429735
  0
LINE
  5
237
100
AcDbEntity
  8
0
100
AcDbLine
 62
7
  6
CONTINUOUS
 10
251.1202719373
 20
262.6851429735
 11
252.2038368094
 21
262.6851429735
  0
LINE
  5
238
100
AcDbEntity
  8
0
100
AcDbLine
 62
7
  6
CONTINUOUS
 10
253.3521113531
 20
262.6851429735
 11
254.6296597907
 21
262.6851429735
  0
LINE
  5
239
100
AcDbEntity
  8
0
100
AcDbLine
 62
7
  6
CONTINUOUS
 10
254.140316971
 20
262.9404621144
 11
254.5980454468
 21
262.9404621144
  0
LINE
  5
23A
100
AcDbEntity
  8
0
100
AcDbLine
 62
7
  6
CONTINUOUS
 10
254.1105702821
 20
263.4511004184
 11
254.5474156524
 21
263.4511004184
  0
LINE
  5
23B
100
AcDbEntity
  8
0
100
AcDbLine
 62
7
  6
CONTINUOUS
 10
254.6324688734
 20
264.2170578633
 11
254.6296597907
 21
264.2170578633
  0
LINE
  5
23C
100
AcDbEntity
  8
0
100
AcDbLine
 62
7
  6
CONTINUOUS
 10
254.0483802778
 20
264.4723769818
 11
254.474181781
 21
264.4723769818
  0
LINE
  5
23D
100
AcDbEntity
  8
0
100
AcDbLine
 62
7
  6
CONTINUOUS
 10
185.6324688734
 20
305.7586522618
 11
185.6324688734
 21
315.7919513481
  0
LINE
  5
23E
100
AcDbEntity
  8
0
100
AcDbLine
 62
7
  6
CONTINUOUS
 10
185.6324688734
 20
315.8351429735
 11
185.6324688734
 21
317.3351429735
  0
LINE
  5
23F
100
AcDbEntity
  8
0
100
AcDbLine
 62
7
  6
CONTINUOUS
 10
185.6324688734
 20
318.3351429139
 11
185.6324688734
 21
324.2919513481
  0
LINE
  5
240
100
AcDbEntity
  8
RUNDUNGEN
100
AcDbLine
 62
7
  6
CONTINUOUS
 10
186.6324688734
 20
336.6849289576
 11
186.6324688734
 21
290.1851854798
  0
LINE
  5
241
100
AcDbEntity
  8
0
100
AcDbLine
 62
7
  6
CONTINUOUS
 10
253.9826162057
 20
265.4936536347
 11
254.4290545435
 21
265.4936536347
  0
LINE
  5
242
100
AcDbEntity
  8
0
100
AcDbLine
 62
7
  6
CONTINUOUS
 10
253.9017503144
 20
266.7702492272
 11
254.4043560916
 21
266.7702492272
  0
LINE
  5
243
100
AcDbEntity
  8
0
100
AcDbLine
 62
7
  6
CONTINUOUS
 10
253.4359040438
 20
268.0468451773
 11
252.2038368094
 21
268.0468451773
  0
LINE
  5
244
100
AcDbEntity
  8
0
100
AcDbLine
 62
7
  6
CONTINUOUS
 10
253.5512147714
 20
269.5787598883
 11
252.2038368094
 21
269.5787598883
  0
LINE
  5
245
100
AcDbEntity
  8
0
100
AcDbLine
 62
7
  6
CONTINUOUS
 10
253.2021797583
 20
269.8340790068
 11
253.7128543204
 21
269.8340790068
  0
LINE
  5
246
100
AcDbEntity
  8
0
100
AcDbLine
 62
7
  6
CONTINUOUS
 10
253.3036398096
 20
270.3447172438
 11
253.8131282091
 21
270.3447172438
  0
LINE
  5
247
100
AcDbEntity
  8
0
100
AcDbLine
 62
7
  6
CONTINUOUS
 10
253.3521113531
 20
271.1106745993
 11
253.8610350066
 21
271.1106745993
  0
LINE
  5
248
100
AcDbEntity
  8
0
100
AcDbLine
 62
7
  6
CONTINUOUS
 10
253.3521113531
 20
271.87663267
 11
253.8610350066
 21
271.87663267
  0
LINE
  5
249
100
AcDbEntity
  8
0
100
AcDbLine
 62
7
  6
CONTINUOUS
 10
253.3036398096
 20
272.6425900255
 11
253.8131282091
 21
272.6425900255
  0
LINE
  5
24A
100
AcDbEntity
  8
0
100
AcDbLine
 62
7
  6
CONTINUOUS
 10
253.2021797583
 20
273.1532282625
 11
253.7128543204
 21
273.1532282625
  0
LINE
  5
24B
100
AcDbEntity
  8
0
100
AcDbLine
 62
7
  6
CONTINUOUS
 10
253.5512147714
 20
273.408547381
 11
252.2038368094
 21
273.408547381
  0
LINE
  5
24C
100
AcDbEntity
  8
0
100
AcDbLine
 62
7
  6
CONTINUOUS
 10
251.1202719373
 20
274.6851429735
 11
253.494318465
 21
274.6851429735
  0
LINE
  5
24D
100
AcDbEntity
  8
0
100
AcDbLine
 62
7
  6
CONTINUOUS
 10
253.9017503144
 20
274.6851429735
 11
254.5312301496
 21
274.6851429735
  0
LINE
  5
24E
100
AcDbEntity
  8
RUNDUNGEN
100
AcDbLine
 62
7
  6
CONTINUOUS
 10
250.1324688734
 20
285.1851429735
 11
238.6324486117
 21
285.1851429735
  0
LINE
  5
24F
100
AcDbEntity
  8
RUNDUNGEN
100
AcDbLine
 62
7
  6
CONTINUOUS
 10
181.6325002511
 20
285.1851429735
 11
170.1324688734
 21
285.1851429735
  0
LINE
  5
250
100
AcDbEntity
  8
FASEN
100
AcDbLine
 62
7
  6
CONTINUOUS
 10
160.6324688734
 20
243.1851429735
 11
160.1324688734
 21
242.6851429735
  0
LINE
  5
251
100
AcDbEntity
  8
FASEN
100
AcDbLine
 62
7
  6
CONTINUOUS
 10
259.6324688734
 20
243.1851429735
 11
260.1324688734
 21
242.6851429735
  0
LINE
  5
252
100
AcDbEntity
  8
0
100
AcDbLine
 62
7
  6
CONTINUOUS
 10
186.6324688734
 20
305.7586522618
 11
185.6324688734
 21
305.7586522618
  0
LINE
  5
253
100
AcDbEntity
  8
0
100
AcDbLine
 62
7
  6
CONTINUOUS
 10
186.6324688734
 20
306.6286522618
 11
185.6324688734
 21
306.6286522618
  0
LINE
  5
254
100
AcDbEntity
  8
0
100
AcDbLine
 62
7
  6
CONTINUOUS
 10
186.6324688734
 20
307.351816752
 11
185.6324688734
 21
307.351816752
  0
LINE
  5
255
100
AcDbEntity
  8
0
100
AcDbLine
 62
7
  6
CONTINUOUS
 10
186.6324688734
 20
310.2919513481
 11
185.6324688734
 21
310.2919513481
  0
LINE
  5
256
100
AcDbEntity
  8
RUNDUNGEN
100
AcDbLine
 62
7
  6
CONTINUOUS
 10
233.6324688734
 20
290.1852314913
 11
233.6324688734
 21
336.6850086006
  0
LINE
  5
257
100
AcDbEntity
  8
0
100
AcDbLine
 62
7
  6
CONTINUOUS
 10
186.6324688734
 20
315.7919513481
 11
185.6324688734
 21
315.7919513481
  0
LINE
  5
258
100
AcDbEntity
  8
0
100
AcDbLine
 62
7
  6
CONTINUOUS
 10
186.6324688734
 20
315.8351429735
 11
185.6324688734
 21
315.8351429735
  0
LINE
  5
259
100
AcDbEntity
  8
0
100
AcDbLine
 62
7
  6
CONTINUOUS
 10
186.6324688734
 20
316.5851429735
 11
185.6324688734
 21
316.5851429735
  0
LINE
  5
25A
100
AcDbEntity
  8
0
100
AcDbLine
 62
7
  6
CONTINUOUS
 10
186.6324688734
 20
317.3351429735
 11
185.6324688734
 21
317.3351429735
  0
LINE
  5
25B
100
AcDbEntity
  8
0
100
AcDbLine
 62
7
  6
CONTINUOUS
 10
186.6324688734
 20
318.3351429139
 11
185.6324688734
 21
318.3351429139
  0
LINE
  5
25C
100
AcDbEntity
  8
0
100
AcDbLine
 62
7
  6
CONTINUOUS
 10
186.6324688734
 20
318.4601429735
 11
185.6324688734
 21
318.4601429735
  0
LINE
  5
25D
100
AcDbEntity
  8
0
100
AcDbLine
 62
7
  6
CONTINUOUS
 10
186.6324688734
 20
318.7101429139
 11
185.6324688734
 21
318.7101429139
  0
LINE
  5
25E
100
AcDbEntity
  8
0
100
AcDbLine
 62
7
  6
CONTINUOUS
 10
186.6324688734
 20
318.7919513481
 11
185.6324688734
 21
318.7919513481
  0
LINE
  5
25F
100
AcDbEntity
  8
0
100
AcDbLine
 62
7
  6
CONTINUOUS
 10
186.6324688734
 20
324.2919513481
 11
185.6324688734
 21
324.2919513481
  0
LINE
  5
260
100
AcDbEntity
  8
0
100
AcDbLine
 62
7
  6
CONTINUOUS
 10
248.23758664
 20
260.6851429735
 11
248.23758664
 21
248.6851429735
  0
LINE
  5
261
100
AcDbEntity
  8
0
100
AcDbLine
 62
7
  6
CONTINUOUS
 10
248.8138597481
 20
260.6851429735
 11
248.8138597481
 21
248.6851429735
  0
LINE
  5
262
100
AcDbEntity
  8
0
100
AcDbLine
 62
7
  6
CONTINUOUS
 10
249.6293041897
 20
259.408547381
 11
249.6293041897
 21
255.5787598883
  0
LINE
  5
263
100
AcDbEntity
  8
0
100
AcDbLine
 62
7
  6
CONTINUOUS
 10
249.6293041897
 20
254.0468451773
 11
249.6293041897
 21
248.6851429735
  0
LINE
  5
264
100
AcDbEntity
  8
0
100
AcDbLine
 62
7
  6
CONTINUOUS
 10
251.1202719373
 20
274.6851429735
 11
251.1202719373
 21
262.6851429735
  0
LINE
  5
265
100
AcDbEntity
  8
0
100
AcDbLine
 62
7
  6
CONTINUOUS
 10
251.6565582674
 20
274.6851429735
 11
251.6565582674
 21
262.6851429735
  0
LINE
  5
266
100
AcDbEntity
  8
0
100
AcDbLine
 62
7
  6
CONTINUOUS
 10
251.7610347051
 20
257.87663267
 11
251.7610347051
 21
257.1106745993
  0
LINE
  5
267
100
AcDbEntity
  8
0
100
AcDbLine
 62
7
  6
CONTINUOUS
 10
252.2038368094
 20
273.408547381
 11
252.2038368094
 21
269.5787598883
  0
LINE
  5
268
100
AcDbEntity
  8
0
100
AcDbLine
 62
7
  6
CONTINUOUS
 10
252.2038368094
 20
268.0468451773
 11
252.2038368094
 21
262.6851429735
  0
LINE
  5
269
100
AcDbEntity
  8
0
100
AcDbLine
 62
7
  6
CONTINUOUS
 10
252.2891705139
 20
257.87663267
 11
252.2891705139
 21
257.1106745993
  0
LINE
  5
26A
100
AcDbEntity
  8
0
100
AcDbLine
 62
7
  6
CONTINUOUS
 10
252.7668152848
 20
257.87663267
 11
252.7668152848
 21
256.8553554808
  0
LINE
  5
26B
100
AcDbEntity
  8
0
100
AcDbLine
 62
7
  6
CONTINUOUS
 10
252.7990541598
 20
260.6851429735
 11
252.7990541598
 21
248.6851429735
  0
LINE
  5
26C
100
AcDbEntity
  8
0
100
AcDbLine
 62
7
  6
CONTINUOUS
 10
253.3144963849
 20
260.6851429735
 11
253.3144963849
 21
248.6851429735
  0
LINE
  5
26D
100
AcDbEntity
  8
0
100
AcDbLine
 62
7
  6
CONTINUOUS
 10
253.3521113531
 20
271.87663267
 11
253.3521113531
 21
271.1106745993
  0
LINE
  5
26E
100
AcDbEntity
  8
0
100
AcDbLine
 62
7
  6
CONTINUOUS
 10
253.660477098
 20
259.408547381
 11
253.660477098
 21
255.5787598883
  0
LINE
  5
26F
100
AcDbEntity
  8
0
100
AcDbLine
 62
7
  6
CONTINUOUS
 10
253.660477098
 20
254.0468451773
 11
253.660477098
 21
248.6851429735
  0
LINE
  5
270
100
AcDbEntity
  8
0
100
AcDbLine
 62
7
  6
CONTINUOUS
 10
253.8610350066
 20
271.87663267
 11
253.8610350066
 21
271.1106745993
  0
LINE
  5
271
100
AcDbEntity
  8
0
100
AcDbLine
 62
7
  6
CONTINUOUS
 10
253.9017503144
 20
274.6851429735
 11
253.9017503144
 21
273.8789140947
  0
LINE
  5
272
100
AcDbEntity
  8
0
100
AcDbLine
 62
7
  6
CONTINUOUS
 10
253.9017503144
 20
268.9247559009
 11
253.9017503144
 21
266.7702492272
  0
LINE
  5
273
100
AcDbEntity
  8
0
100
AcDbLine
 62
7
  6
CONTINUOUS
 10
254.0300770413
 20
257.87663267
 11
254.0300770413
 21
257.1106745993
  0
LINE
  5
274
100
AcDbEntity
  8
0
100
AcDbLine
 62
7
  6
CONTINUOUS
 10
254.1175515354
 20
271.87663267
 11
254.1175515354
 21
270.8553554808
  0
LINE
  5
275
100
AcDbEntity
  8
0
100
AcDbLine
 62
7
  6
CONTINUOUS
 10
254.1324688734
 20
281.1851429735
 11
254.1324688734
 21
274.6851429735
  0
LINE
  5
276
100
AcDbEntity
  8
0
100
AcDbLine
 62
7
  6
CONTINUOUS
 10
254.1324688734
 20
262.6851429735
 11
254.1324688734
 21
260.6851429735
  0
LINE
  5
277
100
AcDbEntity
  8
0
100
AcDbLine
 62
7
  6
CONTINUOUS
 10
254.1324688734
 20
254.0468451773
 11
254.1324688734
 21
243.1851429735
  0
LINE
  5
278
100
AcDbEntity
  8
0
100
AcDbLine
 62
7
  6
CONTINUOUS
 10
254.2261193397
 20
251.7489727532
 11
254.2261193397
 21
252.5149301087
  0
LINE
  5
279
100
AcDbEntity
  8
0
100
AcDbLine
 62
7
  6
CONTINUOUS
 10
254.4043560916
 20
274.6851429735
 11
254.4043560916
 21
266.7702492272
  0
LINE
  5
27A
100
AcDbEntity
  8
0
100
AcDbLine
 62
7
  6
CONTINUOUS
 10
254.5312301496
 20
274.6851429735
 11
254.5312301496
 21
266.7702492272
  0
LINE
  5
27B
100
AcDbEntity
  8
0
100
AcDbLine
 62
7
  6
CONTINUOUS
 10
254.5312301496
 20
257.87663267
 11
254.5312301496
 21
257.1106745993
  0
LINE
  5
27C
100
AcDbEntity
  8
0
100
AcDbLine
 62
7
  6
CONTINUOUS
 10
254.6071808054
 20
257.87663267
 11
254.6071808054
 21
256.8553554808
  0
LINE
  5
27D
100
AcDbEntity
  8
0
100
AcDbLine
 62
7
  6
CONTINUOUS
 10
254.629659796
 20
254.3021642958
 11
254.629659796
 21
253.0255683457
  0
LINE
  5
27E
100
AcDbEntity
  8
0
100
AcDbLine
 62
7
  6
CONTINUOUS
 10
254.6324688734
 20
264.2170578633
 11
254.6324688734
 21
262.6851429735
  0
LINE
  5
27F
100
AcDbEntity
  8
BEZUGSACHSEN
100
AcDbLine
 62
7
  6
CONTINUOUS
 10
260.1324688734
 20
227.1851429735
 11
260.1324688734
 21
242.6851429735
  0
LINE
  5
280
100
AcDbEntity
  8
FASEN
100
AcDbLine
 62
7
  6
CONTINUOUS
 10
257.1324688734
 20
224.1851429735
 11
260.1324688734
 21
227.1851429735
  0
LINE
  5
281
100
AcDbEntity
  8
FASEN
100
AcDbLine
 62
7
  6
CONTINUOUS
 10
362.4802916792
 20
224.1851429735
 11
359.4802916792
 21
227.1851429735
  0
LINE
  5
282
100
AcDbEntity
  8
RUNDUNGEN
100
AcDbLine
 62
7
  6
CONTINUOUS
 10
374.2860054019
 20
358.4795254071
 11
370.203683502
 21
352.649365523
  0
LINE
  5
283
100
AcDbEntity
  8
FASEN
100
AcDbLine
 62
7
  6
CONTINUOUS
 10
456.4802916792
 20
224.1851429735
 11
362.4802916792
 21
224.1851429735
  0
LINE
  5
284
100
AcDbEntity
  8
FASEN
100
AcDbLine
 62
7
  6
CONTINUOUS
 10
459.4802916792
 20
227.1851429735
 11
359.4802916792
 21
227.1851429735
  0
LINE
  5
285
100
AcDbEntity
  8
FASEN
100
AcDbLine
 62
7
  6
CONTINUOUS
 10
359.4802916792
 20
227.1851429735
 11
359.4802916792
 21
242.6851429735
  0
LINE
  5
286
100
AcDbEntity
  8
BEZUGSACHSEN
100
AcDbLine
 62
7
  6
CONTINUOUS
 10
359.4802916792
 20
227.1851429735
 11
359.4802916792
 21
242.6851429735
  0
LINE
  5
287
100
AcDbEntity
  8
RUNDUNGEN
100
AcDbLine
 62
7
  6
CONTINUOUS
 10
368.8104186981
 20
318.953092166
 11
366.1501646603
 21
314.3453970114
  0
LINE
  5
288
100
AcDbEntity
  8
FASEN
100
AcDbLine
 62
7
  6
CONTINUOUS
 10
359.4802916792
 20
242.6851429735
 11
459.4802916792
 21
242.6851429735
  0
LINE
  5
289
100
AcDbEntity
  8
FASEN
100
AcDbLine
 62
7
  6
CONTINUOUS
 10
359.9802916792
 20
243.1851429735
 11
458.9802916792
 21
243.1851429735
  0
LINE
  5
28A
100
AcDbEntity
  8
0
100
AcDbLine
 62
7
  6
CONTINUOUS
 10
365.4802916792
 20
311.8453970114
 11
365.4802916792
 21
243.1851429735
  0
LINE
  5
28B
100
AcDbEntity
  8
RUNDUNGEN
100
AcDbLine
 62
7
  6
CONTINUOUS
 10
369.4802916792
 20
320.8027118199
 11
369.4802916792
 21
350.3550597776
  0
LINE
  5
28C
100
AcDbEntity
  8
0
100
AcDbLine
 62
7
  6
CONTINUOUS
 10
378.8809299162
 20
322.0851427351
 11
378.4979512384
 21
321.4601429735
  0
LINE
  5
28D
100
AcDbEntity
  8
0
100
AcDbLine
 62
7
  6
CONTINUOUS
 10
381.051142781
 20
322.2101429735
 11
380.6681641033
 21
321.5851428543
  0
LINE
  5
28E
100
AcDbEntity
  8
0
100
AcDbLine
 62
7
  6
CONTINUOUS
 10
379.1362490347
 20
321.3351430927
 11
379.3915681532
 21
321.7101430927
  0
LINE
  5
28F
100
AcDbEntity
  8
0
100
AcDbLine
 62
7
  6
CONTINUOUS
 10
381.3064618995
 20
321.4601429735
 11
381.561781018
 21
321.8351429735
  0
LINE
  5
290
100
AcDbEntity
  8
0
100
AcDbLine
 62
7
  6
CONTINUOUS
 10
381.4341214588
 20
322.5851429735
 11
381.051142781
 21
322.2101429735
  0
LINE
  5
291
100
AcDbEntity
  8
0
100
AcDbLine
 62
7
  6
CONTINUOUS
 10
381.561781018
 20
321.8351429735
 11
381.8171001365
 21
322.0851427351
  0
LINE
  5
292
100
AcDbEntity
  8
0
100
AcDbLine
 62
7
  6
CONTINUOUS
 10
379.3915681532
 20
322.4601427351
 11
378.8809299162
 21
322.0851427351
  0
LINE
  5
293
100
AcDbEntity
  8
0
100
AcDbLine
 62
7
  6
CONTINUOUS
 10
379.3915681532
 20
321.7101430927
 11
379.7745468309
 21
321.960143212
  0
LINE
  5
294
100
AcDbEntity
  8
0
100
AcDbLine
 62
7
  6
CONTINUOUS
 10
378.4979512384
 20
321.4601429735
 11
378.3702916792
 21
320.8351428543
  0
LINE
  5
295
100
AcDbEntity
  8
0
100
AcDbLine
 62
7
  6
CONTINUOUS
 10
380.6681641033
 20
321.5851428543
 11
380.5405045441
 21
320.9601430927
  0
LINE
  5
296
100
AcDbEntity
  8
0
100
AcDbLine
 62
7
  6
CONTINUOUS
 10
379.0085894754
 20
320.9601430927
 11
379.1362490347
 21
321.3351430927
  0
LINE
  5
297
100
AcDbEntity
  8
0
100
AcDbLine
 62
7
  6
CONTINUOUS
 10
381.1788023403
 20
321.0851429735
 11
381.3064618995
 21
321.4601429735
  0
LINE
  5
298
100
AcDbEntity
  8
0
100
AcDbLine
 62
7
  6
CONTINUOUS
 10
383.7319937935
 20
320.2101430927
 11
383.6043342343
 21
319.8351430927
  0
LINE
  5
299
100
AcDbEntity
  8
0
100
AcDbLine
 62
7
  6
CONTINUOUS
 10
383.8596533975
 20
319.0851430927
 11
384.2426321087
 21
319.7101428543
  0
LINE
  5
29A
100
AcDbEntity
  8
0
100
AcDbLine
 62
7
  6
CONTINUOUS
 10
383.6043342343
 20
319.8351430927
 11
383.3490151158
 21
319.4601430927
  0
LINE
  5
29B
100
AcDbEntity
  8
0
100
AcDbLine
 62
7
  6
CONTINUOUS
 10
383.3490151158
 20
318.7101429139
 11
383.8596533975
 21
319.0851430927
  0
LINE
  5
29C
100
AcDbEntity
  8
0
100
AcDbLine
 62
7
  6
CONTINUOUS
 10
383.3490151158
 20
319.4601430927
 11
382.9660363486
 21
319.2101429735
  0
LINE
  5
29D
100
AcDbEntity
  8
0
100
AcDbLine
 62
7
  6
CONTINUOUS
 10
382.072419255
 20
322.8351427351
 11
381.4341214588
 21
322.5851429735
  0
LINE
  5
29E
100
AcDbEntity
  8
0
100
AcDbLine
 62
7
  6
CONTINUOUS
 10
382.7107172301
 20
318.4601429735
 11
383.3490151158
 21
318.7101429139
  0
LINE
  5
29F
100
AcDbEntity
  8
0
100
AcDbLine
 62
7
  6
CONTINUOUS
 10
379.7745468309
 20
322.5851429735
 11
379.3915681532
 21
322.4601427351
  0
LINE
  5
2A0
100
AcDbEntity
  8
0
100
AcDbLine
 62
7
  6
CONTINUOUS
 10
381.8171001365
 20
322.0851427351
 11
382.2000789931
 21
322.2101429735
  0
LINE
  5
2A1
100
AcDbEntity
  8
0
100
AcDbLine
 62
7
  6
CONTINUOUS
 10
382.9660363486
 20
319.2101429735
 11
382.5830576709
 21
319.0851430927
  0
LINE
  5
2A2
100
AcDbEntity
  8
0
100
AcDbLine
 62
7
  6
CONTINUOUS
 10
378.3702916792
 20
320.8351428543
 11
378.3702916792
 21
320.3351429735
  0
LINE
  5
2A3
100
AcDbEntity
  8
0
100
AcDbLine
 62
7
  6
CONTINUOUS
 10
378.3702916792
 20
317.3351429735
 11
378.3702916792
 21
316.5851429735
  0
LINE
  5
2A4
100
AcDbEntity
  8
0
100
AcDbLine
 62
7
  6
CONTINUOUS
 10
378.6202916792
 20
313.8296636478
 11
378.6202916792
 21
312.9596636478
  0
LINE
  5
2A5
100
AcDbEntity
  8
0
100
AcDbLine
 62
7
  6
CONTINUOUS
 10
379.0085894754
 20
320.2101430927
 11
379.0085894754
 21
320.9601430927
  0
LINE
  5
2A6
100
AcDbEntity
  8
0
100
AcDbLine
 62
7
  6
CONTINUOUS
 10
379.7745468309
 20
321.960143212
 11
379.7745468309
 21
322.5851429735
  0
LINE
  5
2A7
100
AcDbEntity
  8
0
100
AcDbLine
 62
7
  6
CONTINUOUS
 10
380.5405045441
 20
320.9601430927
 11
380.5405045441
 21
320.3351429735
  0
LINE
  5
2A8
100
AcDbEntity
  8
0
100
AcDbLine
 62
7
  6
CONTINUOUS
 10
381.1788023403
 20
320.2101430927
 11
381.1788023403
 21
321.0851429735
  0
LINE
  5
2A9
100
AcDbEntity
  8
0
100
AcDbLine
 62
7
  6
CONTINUOUS
 10
384.2426321087
 20
319.7101428543
 11
384.3702916792
 21
320.3351429735
  0
LINE
  5
2AA
100
AcDbEntity
  8
RUNDUNGEN
100
AcDbLine
 62
7
  6
CONTINUOUS
 10
400.0700494719
 20
324.6197714863
 11
399.6769506724
 21
324.3741360943
  0
LINE
  5
2AB
100
AcDbEntity
  8
0
100
AcDbLine
 62
7
  6
CONTINUOUS
 10
383.7319937935
 20
321.0851429735
 11
383.7319937935
 21
320.2101430927
  0
LINE
  5
2AC
100
AcDbEntity
  8
0
100
AcDbLine
 62
7
  6
CONTINUOUS
 10
383.9002916792
 20
305.7586522618
 11
383.9002916792
 21
306.6286522618
  0
LINE
  5
2AD
100
AcDbEntity
  8
0
100
AcDbLine
 62
7
  6
CONTINUOUS
 10
384.3702916792
 20
316.5851429735
 11
384.3702916792
 21
317.3351429735
  0
LINE
  5
2AE
100
AcDbEntity
  8
0
100
AcDbLine
 62
7
  6
CONTINUOUS
 10
384.3702916792
 20
320.3351429735
 11
384.3702916792
 21
320.9601430927
  0
LINE
  5
2AF
100
AcDbEntity
  8
0
100
AcDbLine
 62
7
  6
CONTINUOUS
 10
378.3702916792
 20
320.3351429735
 11
378.4979512384
 21
319.7101428543
  0
LINE
  5
2B0
100
AcDbEntity
  8
0
100
AcDbLine
 62
7
  6
CONTINUOUS
 10
380.5405045441
 20
320.3351429735
 11
380.6681641033
 21
319.7101428543
  0
LINE
  5
2B1
100
AcDbEntity
  8
0
100
AcDbLine
 62
7
  6
CONTINUOUS
 10
379.1362490347
 20
319.8351430927
 11
379.0085894754
 21
320.2101430927
  0
LINE
  5
2B2
100
AcDbEntity
  8
0
100
AcDbLine
 62
7
  6
CONTINUOUS
 10
381.3064618995
 20
319.8351430927
 11
381.1788023403
 21
320.2101430927
  0
LINE
  5
2B3
100
AcDbEntity
  8
0
100
AcDbLine
 62
7
  6
CONTINUOUS
 10
384.3702916792
 20
320.9601430927
 11
384.2426321087
 21
321.5851428543
  0
LINE
  5
2B4
100
AcDbEntity
  8
0
100
AcDbLine
 62
7
  6
CONTINUOUS
 10
378.6202916792
 20
312.9596636478
 11
379.1602916792
 21
312.2231965743
  0
LINE
  5
2B5
100
AcDbEntity
  8
0
100
AcDbLine
 62
7
  6
CONTINUOUS
 10
379.6605566338
 20
311.5409212648
 11
382.448029396
 21
307.7392881021
  0
LINE
  5
2B6
100
AcDbEntity
  8
0
100
AcDbLine
 62
7
  6
CONTINUOUS
 10
382.9482943506
 20
307.0570127926
 11
383.9002916792
 21
305.7586522618
  0
LINE
  5
2B7
100
AcDbEntity
  8
0
100
AcDbLine
 62
7
  6
CONTINUOUS
 10
383.9002916792
 20
306.6286522618
 11
383.3700455369
 21
307.351816752
  0
LINE
  5
2B8
100
AcDbEntity
  8
0
100
AcDbLine
 62
7
  6
CONTINUOUS
 10
382.8722373236
 20
308.0307414891
 11
380.0660824533
 21
311.8578538322
  0
LINE
  5
2B9
100
AcDbEntity
  8
0
100
AcDbLine
 62
7
  6
CONTINUOUS
 10
379.56827424
 20
312.5367785694
 11
378.6202916792
 21
313.8296636478
  0
LINE
  5
2BA
100
AcDbEntity
  8
0
100
AcDbLine
 62
7
  6
CONTINUOUS
 10
378.4979512384
 20
319.7101428543
 11
378.8809299162
 21
319.0851430927
  0
LINE
  5
2BB
100
AcDbEntity
  8
0
100
AcDbLine
 62
7
  6
CONTINUOUS
 10
383.6043342343
 20
321.4601429735
 11
383.7319937935
 21
321.0851429735
  0
LINE
  5
2BC
100
AcDbEntity
  8
RUNDUNGEN
100
AcDbLine
 62
7
  6
CONTINUOUS
 10
401.4802916792
 20
327.1639157748
 11
401.4802916792
 21
352.284262707
  0
LINE
  5
2BD
100
AcDbEntity
  8
RUNDUNGEN
100
AcDbLine
 62
7
  6
CONTINUOUS
 10
437.54721169
 20
285.1851429735
 11
381.4133721876
 21
285.1851429735
  0
LINE
  5
2BE
100
AcDbEntity
  8
0
100
AcDbLine
 62
7
  6
CONTINUOUS
 10
379.3915681532
 20
319.4601430927
 11
379.1362490347
 21
319.8351430927
  0
LINE
  5
2BF
100
AcDbEntity
  8
0
100
AcDbLine
 62
7
  6
CONTINUOUS
 10
380.6681641033
 20
319.7101428543
 11
381.1788023403
 21
318.9601428543
  0
LINE
  5
2C0
100
AcDbEntity
  8
0
100
AcDbLine
 62
7
  6
CONTINUOUS
 10
381.561781018
 20
319.4601430927
 11
381.3064618995
 21
319.8351430927
  0
LINE
  5
2C1
100
AcDbEntity
  8
0
100
AcDbLine
 62
7
  6
CONTINUOUS
 10
383.3490151158
 20
321.8351429735
 11
383.6043342343
 21
321.4601429735
  0
LINE
  5
2C2
100
AcDbEntity
  8
0
100
AcDbLine
 62
7
  6
CONTINUOUS
 10
384.2426321087
 20
321.5851428543
 11
383.8596533975
 21
322.2101429735
  0
LINE
  5
2C3
100
AcDbEntity
  8
FASEN
100
AcDbLine
 62
7
  6
CONTINUOUS
 10
359.9802916792
 20
243.1851429736
 11
359.4802916792
 21
242.6851429736
  0
LINE
  5
2C4
100
AcDbEntity
  8
0
100
AcDbLine
 62
7
  6
CONTINUOUS
 10
378.3702916792
 20
316.5851429735
 11
379.2639085939
 21
315.8351429735
  0
LINE
  5
2C5
100
AcDbEntity
  8
0
100
AcDbLine
 62
7
  6
CONTINUOUS
 10
380.2851854256
 20
315.8351429735
 11
379.3915681532
 21
316.5851429735
  0
LINE
  5
2C6
100
AcDbEntity
  8
0
100
AcDbLine
 62
7
  6
CONTINUOUS
 10
381.8171001365
 20
319.2101429735
 11
381.561781018
 21
319.4601430927
  0
LINE
  5
2C7
100
AcDbEntity
  8
FASEN
100
AcDbLine
 62
7
  6
CONTINUOUS
 10
458.9802916791
 20
243.1851429736
 11
459.4802916791
 21
242.6851429736
  0
LINE
  5
2C8
100
AcDbEntity
  8
0
100
AcDbLine
 62
7
  6
CONTINUOUS
 10
378.8809299162
 20
319.0851430927
 11
379.3915681532
 21
318.7101429139
  0
LINE
  5
2C9
100
AcDbEntity
  8
RUNDUNGEN
100
AcDbLine
 62
7
  6
CONTINUOUS
 10
417.4802916792
 20
327.1639157748
 11
417.4802916792
 21
352.2842620276
  0
LINE
  5
2CA
100
AcDbEntity
  8
0
100
AcDbLine
 62
7
  6
CONTINUOUS
 10
379.7745468309
 20
319.2101429735
 11
379.3915681532
 21
319.4601430927
  0
LINE
  5
2CB
100
AcDbEntity
  8
0
100
AcDbLine
 62
7
  6
CONTINUOUS
 10
382.9660363486
 20
322.0851427351
 11
383.3490151158
 21
321.8351429735
  0
LINE
  5
2CC
100
AcDbEntity
  8
0
100
AcDbLine
 62
7
  6
CONTINUOUS
 10
383.8596533975
 20
322.2101429735
 11
383.3490151158
 21
322.5851429735
  0
LINE
  5
2CD
100
AcDbEntity
  8
0
100
AcDbLine
 62
7
  6
CONTINUOUS
 10
380.1575258663
 20
319.0851430927
 11
379.7745468309
 21
319.2101429735
  0
LINE
  5
2CE
100
AcDbEntity
  8
0
100
AcDbLine
 62
7
  6
CONTINUOUS
 10
382.2000789931
 20
319.0851430927
 11
381.8171001365
 21
319.2101429735
  0
LINE
  5
2CF
100
AcDbEntity
  8
0
100
AcDbLine
 62
7
  6
CONTINUOUS
 10
379.3915681532
 20
318.7101429139
 11
380.0298663071
 21
318.4601429735
  0
LINE
  5
2D0
100
AcDbEntity
  8
0
100
AcDbLine
 62
7
  6
CONTINUOUS
 10
380.0298663071
 20
318.4601429735
 11
380.9234832218
 21
318.3351429139
  0
LINE
  5
2D1
100
AcDbEntity
  8
0
100
AcDbLine
 62
7
  6
CONTINUOUS
 10
380.9234832218
 20
318.9601428543
 11
380.1575258663
 21
319.0851430927
  0
LINE
  5
2D2
100
AcDbEntity
  8
0
100
AcDbLine
 62
7
  6
CONTINUOUS
 10
382.5830576709
 20
322.2101429735
 11
382.9660363486
 21
322.0851427351
  0
LINE
  5
2D3
100
AcDbEntity
  8
0
100
AcDbLine
 62
7
  6
CONTINUOUS
 10
383.3490151158
 20
322.5851429735
 11
382.7107172301
 21
322.8351427351
  0
LINE
  5
2D4
100
AcDbEntity
  8
0
100
AcDbLine
 62
7
  6
CONTINUOUS
 10
437.732655483
 20
323.2919513481
 11
437.732655483
 21
320.3756479021
  0
LINE
  5
2D5
100
AcDbEntity
  8
0
100
AcDbLine
 62
7
  6
CONTINUOUS
 10
443.468428239
 20
315.7919513481
 11
441.9575926686
 21
315.7919513481
  0
LINE
  5
2D6
100
AcDbEntity
  8
0
100
AcDbLine
 62
7
  6
CONTINUOUS
 10
435.0293894383
 20
315.7919513481
 11
433.5185538679
 21
315.7919513481
  0
LINE
  5
2D7
100
AcDbEntity
  8
0
100
AcDbLine
 62
7
  6
CONTINUOUS
 10
379.2639085939
 20
315.8351429735
 11
380.2851854256
 21
315.8351429735
  0
LINE
  5
2D8
100
AcDbEntity
  8
0
100
AcDbLine
 62
7
  6
CONTINUOUS
 10
379.3915681532
 20
316.5851429735
 11
384.3702916792
 21
316.5851429735
  0
LINE
  5
2D9
100
AcDbEntity
  8
0
100
AcDbLine
 62
7
  6
CONTINUOUS
 10
384.3702916792
 20
317.3351429735
 11
378.3702916792
 21
317.3351429735
  0
LINE
  5
2DA
100
AcDbEntity
  8
0
100
AcDbLine
 62
7
  6
CONTINUOUS
 10
380.9234832218
 20
318.3351429139
 11
381.8171001365
 21
318.3351429139
  0
LINE
  5
2DB
100
AcDbEntity
  8
0
100
AcDbLine
 62
7
  6
CONTINUOUS
 10
381.1788023403
 20
318.9601428543
 11
380.9234832218
 21
318.9601428543
  0
LINE
  5
2DC
100
AcDbEntity
  8
0
100
AcDbLine
 62
7
  6
CONTINUOUS
 10
382.5830576709
 20
319.0851430927
 11
382.2000789931
 21
319.0851430927
  0
LINE
  5
2DD
100
AcDbEntity
  8
0
100
AcDbLine
 62
7
  6
CONTINUOUS
 10
439.2434910534
 20
320.3732527653
 11
439.2434910534
 21
323.2919513481
  0
LINE
  5
2DE
100
AcDbEntity
  8
0
100
AcDbLine
 62
7
  6
CONTINUOUS
 10
381.8171001365
 20
318.3351429139
 11
382.7107172301
 21
318.4601429735
  0
LINE
  5
2DF
100
AcDbEntity
  8
0
100
AcDbLine
 62
7
  6
CONTINUOUS
 10
382.2000789931
 20
322.2101429735
 11
382.5830576709
 21
322.2101429735
  0
LINE
  5
2E0
100
AcDbEntity
  8
0
100
AcDbLine
 62
7
  6
CONTINUOUS
 10
382.7107172301
 20
322.8351427351
 11
382.072419255
 21
322.8351427351
  0
LINE
  5
2E1
100
AcDbEntity
  8
0
100
AcDbLine
 62
7
  6
CONTINUOUS
 10
439.2434910534
 20
323.2919513481
 11
437.732655483
 21
323.2919513481
  0
LINE
  5
2E2
100
AcDbEntity
  8
0
100
AcDbLine
 62
7
  6
CONTINUOUS
 10
443.468428239
 20
324.2919513481
 11
441.9575926686
 21
324.2919513481
  0
LINE
  5
2E3
100
AcDbEntity
  8
0
100
AcDbLine
 62
7
  6
CONTINUOUS
 10
435.0293894383
 20
324.2919513481
 11
433.5185538679
 21
324.2919513481
  0
LINE
  5
2E4
100
AcDbEntity
  8
BEZUGSACHSEN
100
AcDbLine
 62
7
  6
CONTINUOUS
 10
401.3161343874
 20
326.1851429735
 11
417.644448971
 21
326.1851429735
  0
LINE
  5
2E5
100
AcDbEntity
  8
RUNDUNGEN
100
AcDbLine
 62
7
  6
CONTINUOUS
 10
419.2836281913
 20
324.3741389028
 11
418.8905338865
 21
324.6197714863
  0
LINE
  5
2E6
100
AcDbEntity
  8
RUNDUNGEN
100
AcDbLine
 62
7
  6
CONTINUOUS
 10
449.4802916792
 20
350.3550597776
 11
449.4802916792
 21
320.8025142379
  0
LINE
  5
2E7
100
AcDbEntity
  8
0
100
AcDbLine
 62
7
  6
CONTINUOUS
 10
453.4802916792
 20
311.8453970114
 11
453.4802916792
 21
243.1851429735
  0
LINE
  5
2E8
100
AcDbEntity
  8
FASEN
100
AcDbLine
 62
7
  6
CONTINUOUS
 10
459.4802916792
 20
227.1851429735
 11
459.4802916792
 21
242.6851429735
  0
LINE
  5
2E9
100
AcDbEntity
  8
BEZUGSACHSEN
100
AcDbLine
 62
7
  6
CONTINUOUS
 10
459.4802916792
 20
227.1851429735
 11
459.4802916792
 21
242.6851429735
  0
LINE
  5
2EA
100
AcDbEntity
  8
RUNDUNGEN
100
AcDbLine
 62
7
  6
CONTINUOUS
 10
452.8104186981
 20
314.3453970114
 11
450.1501646603
 21
318.953092166
  0
LINE
  5
2EB
100
AcDbEntity
  8
BEZUGSACHSEN
100
AcDbLine
 62
7
  6
CONTINUOUS
 10
401.4802916792
 20
345.1851429735
 11
417.4802916792
 21
345.1851429735
  0
LINE
  5
2EC
100
AcDbEntity
  8
0
100
AcDbLine
 62
7
  6
CONTINUOUS
 10
377.5389060218
 20
360.1851429735
 11
391.1841172156
 21
360.1851429735
  0
LINE
  5
2ED
100
AcDbEntity
  8
0
100
AcDbLine
 62
7
  6
CONTINUOUS
 10
427.7764661427
 20
360.1851429735
 11
441.4216773316
 21
360.1851429735
  0
LINE
  5
2EE
100
AcDbEntity
  8
RUNDUNGEN
100
AcDbLine
 62
7
  6
CONTINUOUS
 10
444.6745779406
 20
358.4795254298
 11
448.7568998563
 21
352.649365523
  0
LINE
  5
2EF
100
AcDbEntity
  8
FASEN
100
AcDbLine
 62
7
  6
CONTINUOUS
 10
456.4802916791
 20
224.1851429735
 11
459.4802916791
 21
227.1851429735
  0
LINE
  5
2F0
100
AcDbEntity
  8
RUNDUNGEN
100
AcDbLine
 62
7
  6
CONTINUOUS
 10
192.6968731077
 20
61.5576995629
 11
227.5680647798
 21
61.5576995629
  0
LINE
  5
2F1
100
AcDbEntity
  8
0
100
AcDbLine
 62
7
  6
CONTINUOUS
 10
186.6324688734
 20
67.5445001886
 11
185.6324688734
 21
67.5445001886
  0
LINE
  5
2F2
100
AcDbEntity
  8
0
100
AcDbLine
 62
7
  6
CONTINUOUS
 10
186.6324688734
 20
67.5695630031
 11
185.6324688734
 21
67.5695630031
  0
LINE
  5
2F3
100
AcDbEntity
  8
0
100
AcDbLine
 62
7
  6
CONTINUOUS
 10
186.6324688734
 20
69.0803985735
 11
185.6324688734
 21
69.0803985735
  0
LINE
  5
2F4
100
AcDbEntity
  8
0
100
AcDbLine
 62
7
  6
CONTINUOUS
 10
186.6324688734
 20
71.7945001886
 11
185.6324688734
 21
71.7945001886
  0
LINE
  5
2F5
100
AcDbEntity
  8
0
100
AcDbLine
 62
7
  6
CONTINUOUS
 10
186.6324688734
 20
73.305335759
 11
185.6324688734
 21
73.305335759
  0
LWPOLYLINE
  5
2F6
100
AcDbEntity
  8
RUNDUNGEN
100
AcDbPolyline
 62
7
  6
CONTINUOUS
 90
8
 70
0
 10
186.6325088628
 20
119.7674880483
 10
186.636812841
 20
119.6046555311
 10
186.6768957725
 20
119.2072881591
 10
186.7581929451
 20
118.8161694564
 10
186.8795290048
 20
118.4356013248
 10
187.0394709881
 20
118.0688189374
 10
187.2364602107
 20
117.7194231054
 10
187.4682502368
 20
117.3910062674
  0
LINE
  5
2F7
100
AcDbEntity
  8
0
100
AcDbLine
 62
7
  6
CONTINUOUS
 10
185.6324688734
 20
67.5446701683
 11
185.6324688734
 21
69.0803985735
  0
LINE
  5
2F8
100
AcDbEntity
  8
0
100
AcDbLine
 62
7
  6
CONTINUOUS
 10
185.6324688734
 20
69.0997788394
 11
185.6324688734
 21
77.5443302089
  0
LINE
  5
2F9
100
AcDbEntity
  8
0
100
AcDbLine
 62
7
  6
CONTINUOUS
 10
185.6324688734
 20
126.4978016653
 11
185.6324688734
 21
126.626169087
  0
LINE
  5
2FA
100
AcDbEntity
  8
0
100
AcDbLine
 62
7
  6
CONTINUOUS
 10
185.6324688734
 20
126.6676995629
 11
185.6324688734
 21
132.9375610487
  0
LINE
  5
2FB
100
AcDbEntity
  8
RUNDUNGEN
100
AcDbLine
 62
7
  6
CONTINUOUS
 10
186.6324688734
 20
112.5121431022
 11
186.6324688734
 21
136.4826190331
  0
LINE
  5
2FC
100
AcDbEntity
  8
RUNDUNGEN
100
AcDbLine
 62
7
  6
CONTINUOUS
 10
186.6324688734
 20
66.6327800927
 11
186.6324688734
 21
90.6032559733
  0
LINE
  5
2FD
100
AcDbEntity
  8
0
100
AcDbLine
 62
7
  6
CONTINUOUS
 10
186.6324688734
 20
76.0086018037
 11
185.6324688734
 21
76.0086018037
  0
LINE
  5
2FE
100
AcDbEntity
  8
0
100
AcDbLine
 62
7
  6
CONTINUOUS
 10
186.6324688734
 20
77.5194373741
 11
185.6324688734
 21
77.5194373741
  0
LINE
  5
2FF
100
AcDbEntity
  8
0
100
AcDbLine
 62
7
  6
CONTINUOUS
 10
186.6324688734
 20
77.5445001886
 11
185.6324688734
 21
77.5445001886
  0
LINE
  5
300
100
AcDbEntity
  8
0
100
AcDbLine
 62
7
  6
CONTINUOUS
 10
248.23758664
 20
79.5576995629
 11
248.8138597481
 21
79.5576995629
  0
LINE
  5
301
100
AcDbEntity
  8
0
100
AcDbLine
 62
7
  6
CONTINUOUS
 10
251.1202719373
 20
85.5576995629
 11
251.6565582674
 21
85.5576995629
  0
LINE
  5
302
100
AcDbEntity
  8
BEZUGSACHSEN
100
AcDbLine
 62
7
  6
CONTINUOUS
 10
200.6324688734
 20
109.5576995629
 11
200.6324688734
 21
93.5576995629
  0
LWPOLYLINE
  5
303
100
AcDbEntity
  8
RUNDUNGEN
100
AcDbPolyline
 62
7
  6
CONTINUOUS
 90
8
 70
0
 10
187.4582020518
 20
85.7115299499
 10
187.2290385092
 20
85.3842002807
 10
187.0343269347
 20
85.0362198972
 10
186.8762761709
 20
84.6711276268
 10
186.7564220637
 20
84.2924641608
 10
186.6761804058
 20
83.90345057
 10
186.6366991391
 20
83.5083582293
 10
186.6325091036
 20
83.3479600924
  0
LINE
  5
304
100
AcDbEntity
  8
0
100
AcDbLine
 62
7
  6
CONTINUOUS
 10
252.9810394447
 20
91.5576995629
 11
253.494318465
 21
91.5576995629
  0
LINE
  5
305
100
AcDbEntity
  8
RUNDUNGEN
100
AcDbLine
 62
7
  6
CONTINUOUS
 10
187.9118057805
 20
86.2679045974
 11
187.8890454548
 21
86.2386480117
  0
LINE
  5
306
100
AcDbEntity
  8
RUNDUNGEN
100
AcDbLine
 62
7
  6
CONTINUOUS
 10
187.8890454548
 20
86.2386480117
 11
187.8214612999
 21
86.1526891337
  0
LWPOLYLINE
  5
307
100
AcDbEntity
  8
RUNDUNGEN
100
AcDbPolyline
 62
7
  6
CONTINUOUS
 90
3
 70
0
 10
187.8214612999
 20
86.1526891337
 10
187.7470646201
 20
86.0602578082
 10
187.6717795132
 20
85.9689180351
  0
LINE
  5
308
100
AcDbEntity
  8
RUNDUNGEN
100
AcDbLine
 62
7
  6
CONTINUOUS
 10
187.5805009104
 20
85.861104856
 11
187.4582020518
 21
85.7115299499
  0
LWPOLYLINE
  5
309
100
AcDbEntity
  8
RUNDUNGEN
100
AcDbPolyline
 62
7
  6
CONTINUOUS
 90
3
 70
0
 10
187.6717795132
 20
85.9689180351
 10
187.595608222
 20
85.8787010866
 10
187.5806043366
 20
85.8611869842
  0
LINE
  5
30A
100
AcDbEntity
  8
0
100
AcDbLine
 62
7
  6
CONTINUOUS
 10
253.2536644062
 20
92.8076998013
 11
253.7637363793
 21
92.8076998013
  0
LINE
  5
30B
100
AcDbEntity
  8
RUNDUNGEN
100
AcDbLine
 62
7
  6
CONTINUOUS
 10
224.3847357955
 20
93.5576995629
 11
195.8801959583
 21
93.5576995629
  0
LINE
  5
30C
100
AcDbEntity
  8
0
100
AcDbLine
 62
7
  6
CONTINUOUS
 10
253.4445630274
 20
93.8076995629
 11
253.9524129629
 21
93.8076995629
  0
LINE
  5
30D
100
AcDbEntity
  8
0
100
AcDbLine
 62
7
  6
CONTINUOUS
 10
253.5720821314
 20
94.5576995629
 11
254.0784584516
 21
94.5576995629
  0
LINE
  5
30E
100
AcDbEntity
  8
0
100
AcDbLine
 62
7
  6
CONTINUOUS
 10
253.6116305119
 20
94.8076993244
 11
254.1175515354
 21
94.8076993244
  0
LINE
  5
30F
100
AcDbEntity
  8
0
100
AcDbLine
 62
7
  6
CONTINUOUS
 10
253.6497068729
 20
95.0576998013
 11
254.1551903147
 21
95.0576998013
  0
LINE
  5
310
100
AcDbEntity
  8
0
100
AcDbLine
 62
7
  6
CONTINUOUS
 10
253.8753254331
 20
96.8076995629
 11
254.3782313824
 21
96.8076995629
  0
LINE
  5
311
100
AcDbEntity
  8
0
100
AcDbLine
 62
7
  6
CONTINUOUS
 10
253.9017503144
 20
97.0576993244
 11
254.4043560916
 21
97.0576993244
  0
LINE
  5
312
100
AcDbEntity
  8
RUNDUNGEN
100
AcDbLine
 62
7
  6
CONTINUOUS
 10
187.580427744
 20
117.2543794803
 11
187.6007163597
 21
117.230716151
  0
LINE
  5
313
100
AcDbEntity
  8
RUNDUNGEN
100
AcDbLine
 62
7
  6
CONTINUOUS
 10
187.6007163597
 20
117.230716151
 11
187.6768609691
 21
117.1403845053
  0
LINE
  5
314
100
AcDbEntity
  8
RUNDUNGEN
100
AcDbLine
 62
7
  6
CONTINUOUS
 10
187.6768609691
 20
117.1403845053
 11
187.7521238784
 21
117.0489245186
  0
LINE
  5
315
100
AcDbEntity
  8
RUNDUNGEN
100
AcDbLine
 62
7
  6
CONTINUOUS
 10
187.4682502368
 20
117.3910062674
 11
187.580427744
 21
117.2543794803
  0
LINE
  5
316
100
AcDbEntity
  8
RUNDUNGEN
100
AcDbLine
 62
7
  6
CONTINUOUS
 10
187.7521238784
 20
117.0489245186
 11
187.8265026518
 21
116.9563673298
  0
LINE
  5
317
100
AcDbEntity
  8
RUNDUNGEN
100
AcDbLine
 62
7
  6
CONTINUOUS
 10
187.8265026518
 20
116.9563673298
 11
187.9007024698
 21
116.8618312415
  0
LINE
  5
318
100
AcDbEntity
  8
RUNDUNGEN
100
AcDbLine
 62
7
  6
CONTINUOUS
 10
187.9007024698
 20
116.8618312415
 11
187.911808577
 21
116.8474909262
  0
LINE
  5
319
100
AcDbEntity
  8
RUNDUNGEN
100
AcDbLine
 62
7
  6
CONTINUOUS
 10
230.1249500764
 20
114.2415334752
 11
230.1248755041
 21
114.2414863961
  0
LINE
  5
31A
100
AcDbEntity
  8
RUNDUNGEN
100
AcDbLine
 62
7
  6
CONTINUOUS
 10
190.1399876704
 20
88.8738656505
 11
190.1400623856
 21
88.8739128198
  0
LINE
  5
31B
100
AcDbEntity
  8
0
100
AcDbLine
 62
7
  6
CONTINUOUS
 10
254.0300770413
 20
98.5577000397
 11
254.5312301496
 21
98.5577000397
  0
LINE
  5
31C
100
AcDbEntity
  8
0
100
AcDbLine
 62
7
  6
CONTINUOUS
 10
254.0464472559
 20
98.807699086
 11
254.5474156524
 21
98.807699086
  0
LINE
  5
31D
100
AcDbEntity
  8
0
100
AcDbLine
 62
7
  6
CONTINUOUS
 10
254.0749028314
 20
99.3077000397
 11
254.5755504739
 21
99.3077000397
  0
LINE
  5
31E
100
AcDbEntity
  8
0
100
AcDbLine
 62
7
  6
CONTINUOUS
 10
254.1068932748
 20
100.0577000397
 11
254.6071808054
 21
100.0577000397
  0
LINE
  5
31F
100
AcDbEntity
  8
0
100
AcDbLine
 62
7
  6
CONTINUOUS
 10
254.1296278672
 20
101.057699086
 11
254.6296597907
 21
101.057699086
  0
LINE
  5
320
100
AcDbEntity
  8
0
100
AcDbLine
 62
7
  6
CONTINUOUS
 10
254.1296278726
 20
102.0576995629
 11
254.629659796
 21
102.0576995629
  0
LINE
  5
321
100
AcDbEntity
  8
RUNDUNGEN
100
AcDbLine
 62
7
  6
CONTINUOUS
 10
230.1248660059
 20
88.8739187261
 11
230.1249500764
 21
88.8738656505
  0
LINE
  5
322
100
AcDbEntity
  8
RUNDUNGEN
100
AcDbLine
 62
7
  6
CONTINUOUS
 10
190.140071525
 20
114.241480536
 11
190.1399876704
 21
114.2415334752
  0
LINE
  5
323
100
AcDbEntity
  8
0
100
AcDbLine
 62
7
  6
CONTINUOUS
 10
254.1068932423
 20
103.0577000397
 11
254.6071807732
 21
103.0577000397
  0
LINE
  5
324
100
AcDbEntity
  8
0
100
AcDbLine
 62
7
  6
CONTINUOUS
 10
254.0749027825
 20
103.8077000397
 11
254.5755504256
 21
103.8077000397
  0
LINE
  5
325
100
AcDbEntity
  8
0
100
AcDbLine
 62
7
  6
CONTINUOUS
 10
254.0464472858
 20
104.3076995629
 11
254.5474156819
 21
104.3076995629
  0
LINE
  5
326
100
AcDbEntity
  8
0
100
AcDbLine
 62
7
  6
CONTINUOUS
 10
254.0300769761
 20
104.5577000397
 11
254.5312300852
 21
104.5577000397
  0
LINE
  5
327
100
AcDbEntity
  8
0
100
AcDbLine
 62
7
  6
CONTINUOUS
 10
253.9017502898
 20
106.0577000397
 11
254.4043560673
 21
106.0577000397
  0
LINE
  5
328
100
AcDbEntity
  8
BEZUGSACHSEN
100
AcDbLine
 62
7
  6
CONTINUOUS
 10
219.6324688734
 20
109.5576995629
 11
219.6324688734
 21
93.5576995629
  0
LWPOLYLINE
  5
329
100
AcDbEntity
  8
RUNDUNGEN
100
AcDbPolyline
 62
7
  6
CONTINUOUS
 90
8
 70
0
 10
232.8067357185
 20
117.4038692082
 10
233.0358992923
 20
117.7311989338
 10
233.2306108602
 20
118.0791793367
 10
233.3886616009
 20
118.4442715782
 10
233.5085156861
 20
118.8229349779
 10
233.5887573328
 20
119.2119485106
 10
233.628238602
 20
119.6070408313
 10
233.6324286524
 20
119.7674414495
  0
LWPOLYLINE
  5
32A
100
AcDbEntity
  8
RUNDUNGEN
100
AcDbPolyline
 62
7
  6
CONTINUOUS
 90
3
 70
0
 10
232.3531336564
 20
116.8474967391
 10
232.3699825425
 20
116.8692348245
 10
232.4434952951
 20
116.9627336876
  0
LWPOLYLINE
  5
32B
100
AcDbEntity
  8
RUNDUNGEN
100
AcDbPolyline
 62
7
  6
CONTINUOUS
 90
3
 70
0
 10
232.4434952951
 20
116.9627336876
 10
232.5178942952
 20
117.0551673028
 10
232.5931771167
 20
117.1465037206
  0
LINE
  5
32C
100
AcDbEntity
  8
RUNDUNGEN
100
AcDbLine
 62
7
  6
CONTINUOUS
 10
232.6844368416
 20
117.2542942794
 11
232.8067357185
 21
117.4038692082
  0
LWPOLYLINE
  5
32D
100
AcDbEntity
  8
RUNDUNGEN
100
AcDbPolyline
 62
7
  6
CONTINUOUS
 90
3
 70
0
 10
232.5931771167
 20
117.1465037206
 10
232.6693414611
 20
117.2367120048
 10
232.6843334659
 20
117.2542122145
  0
LINE
  5
32E
100
AcDbEntity
  8
0
100
AcDbLine
 62
7
  6
CONTINUOUS
 10
253.7214584401
 20
107.5576986092
 11
254.2261193397
 21
107.5576986092
  0
LINE
  5
32F
100
AcDbEntity
  8
0
100
AcDbLine
 62
7
  6
CONTINUOUS
 10
253.6863147206
 20
107.8077005165
 11
254.1913781663
 21
107.8077005165
  0
LINE
  5
330
100
AcDbEntity
  8
0
100
AcDbLine
 62
7
  6
CONTINUOUS
 10
253.6497068373
 20
108.0576995629
 11
254.1551902795
 21
108.0576995629
  0
LINE
  5
331
100
AcDbEntity
  8
RUNDUNGEN
100
AcDbLine
 62
7
  6
CONTINUOUS
 10
195.8801959583
 20
109.5576995629
 11
224.3847417886
 21
109.5576995629
  0
LINE
  5
332
100
AcDbEntity
  8
RUNDUNGEN
100
AcDbLine
 62
7
  6
CONTINUOUS
 10
232.6845100133
 20
85.8610196254
 11
232.6642157576
 21
85.8846895536
  0
LINE
  5
333
100
AcDbEntity
  8
RUNDUNGEN
100
AcDbLine
 62
7
  6
CONTINUOUS
 10
232.6642157576
 20
85.8846895536
 11
232.588068255
 21
85.9750248483
  0
LINE
  5
334
100
AcDbEntity
  8
RUNDUNGEN
100
AcDbLine
 62
7
  6
CONTINUOUS
 10
232.588068255
 20
85.9750248483
 11
232.5128044829
 21
86.0664861475
  0
LINE
  5
335
100
AcDbEntity
  8
RUNDUNGEN
100
AcDbLine
 62
7
  6
CONTINUOUS
 10
232.7966875962
 20
85.7243927417
 11
232.6845100133
 21
85.8610196254
  0
LWPOLYLINE
  5
336
100
AcDbEntity
  8
RUNDUNGEN
100
AcDbPolyline
 62
7
  6
CONTINUOUS
 90
3
 70
0
 10
232.5128044829
 20
86.0664861475
 10
232.4384266275
 20
86.1590424778
 10
232.3656725676
 20
86.2517247478
  0
LINE
  5
337
100
AcDbEntity
  8
RUNDUNGEN
100
AcDbLine
 62
7
  6
CONTINUOUS
 10
232.3656725676
 20
86.2517247478
 11
232.3531373226
 21
86.2678976531
  0
LINE
  5
338
100
AcDbEntity
  8
0
100
AcDbLine
 62
7
  6
CONTINUOUS
 10
252.3195522047
 20
114.0576995629
 11
252.8407818816
 21
114.0576995629
  0
LINE
  5
339
100
AcDbEntity
  8
0
100
AcDbLine
 62
7
  6
CONTINUOUS
 10
251.928849982
 20
115.3077005165
 11
252.4548916984
 21
115.3077005165
  0
LINE
  5
33A
100
AcDbEntity
  8
0
100
AcDbLine
 62
7
  6
CONTINUOUS
 10
251.5865096897
 20
116.3076995629
 11
252.1168409659
 21
116.3076995629
  0
LINE
  5
33B
100
AcDbEntity
  8
0
100
AcDbLine
 62
7
  6
CONTINUOUS
 10
251.2169857872
 20
117.3076986092
 11
251.7520259355
 21
117.3076986092
  0
LINE
  5
33C
100
AcDbEntity
  8
0
100
AcDbLine
 62
7
  6
CONTINUOUS
 10
251.0218012231
 20
117.8076995629
 11
251.5593623124
 21
117.8076995629
  0
LINE
  5
33D
100
AcDbEntity
  8
0
100
AcDbLine
 62
7
  6
CONTINUOUS
 10
250.9215609382
 20
118.0576986092
 11
251.4604258937
 21
118.0576986092
  0
LINE
  5
33E
100
AcDbEntity
  8
0
100
AcDbLine
 62
7
  6
CONTINUOUS
 10
250.7157166488
 20
118.5576995629
 11
251.2572789034
 21
118.5576995629
  0
LINE
  5
33F
100
AcDbEntity
  8
0
100
AcDbLine
 62
7
  6
CONTINUOUS
 10
249.8187380828
 20
120.5577005165
 11
250.3723739896
 21
120.5577005165
  0
LWPOLYLINE
  5
340
100
AcDbEntity
  8
RUNDUNGEN
100
AcDbPolyline
 62
7
  6
CONTINUOUS
 90
8
 70
0
 10
233.6324288893
 20
83.3479097487
 10
233.6281249014
 20
83.5107436586
 10
233.5880419713
 20
83.9081109747
 10
233.5067448219
 20
84.2992295931
 10
233.3854087984
 20
84.6797976467
 10
233.2254668489
 20
85.0465799981
 10
233.0284776439
 20
85.3959758446
 10
232.7966875962
 20
85.7243927417
  0
LINE
  5
341
100
AcDbEntity
  8
RUNDUNGEN
100
AcDbLine
 62
7
  6
CONTINUOUS
 10
233.6324688734
 20
66.6327800927
 11
233.6324688734
 21
90.6032717067
  0
LINE
  5
342
100
AcDbEntity
  8
RUNDUNGEN
100
AcDbLine
 62
7
  6
CONTINUOUS
 10
233.6324688734
 20
136.4826190331
 11
233.6324688734
 21
112.512127623
  0
LINE
  5
343
100
AcDbEntity
  8
0
100
AcDbLine
 62
7
  6
CONTINUOUS
 10
249.1957193606
 20
121.8076986092
 11
249.758060839
 21
121.8076986092
  0
LINE
  5
344
100
AcDbEntity
  8
0
100
AcDbLine
 62
7
  6
CONTINUOUS
 10
247.6424675405
 20
124.5576995629
 11
248.227744171
 21
124.5576995629
  0
LINE
  5
345
100
AcDbEntity
  8
0
100
AcDbLine
 62
7
  6
CONTINUOUS
 10
186.6324688734
 20
126.4976995629
 11
185.6324688734
 21
126.4976995629
  0
LINE
  5
346
100
AcDbEntity
  8
0
100
AcDbLine
 62
7
  6
CONTINUOUS
 10
186.6324688734
 20
126.6676995629
 11
185.6324688734
 21
126.6676995629
  0
LINE
  5
347
100
AcDbEntity
  8
0
100
AcDbLine
 62
7
  6
CONTINUOUS
 10
186.6324688734
 20
126.7953591333
 11
185.6324688734
 21
126.7953591333
  0
LINE
  5
348
100
AcDbEntity
  8
0
100
AcDbLine
 62
7
  6
CONTINUOUS
 10
186.6324688734
 20
127.1783378446
 11
185.6324688734
 21
127.1783378446
  0
LINE
  5
349
100
AcDbEntity
  8
0
100
AcDbLine
 62
7
  6
CONTINUOUS
 10
186.6324688734
 20
127.6889761263
 11
185.6324688734
 21
127.6889761263
  0
LINE
  5
34A
100
AcDbEntity
  8
0
100
AcDbLine
 62
7
  6
CONTINUOUS
 10
186.6324688734
 20
128.3272740119
 11
185.6324688734
 21
128.3272740119
  0
LINE
  5
34B
100
AcDbEntity
  8
0
100
AcDbLine
 62
7
  6
CONTINUOUS
 10
186.6324688734
 20
128.965571987
 11
185.6324688734
 21
128.965571987
  0
LINE
  5
34C
100
AcDbEntity
  8
0
100
AcDbLine
 62
7
  6
CONTINUOUS
 10
186.6324688734
 20
129.6038697832
 11
185.6324688734
 21
129.6038697832
  0
LINE
  5
34D
100
AcDbEntity
  8
0
100
AcDbLine
 62
7
  6
CONTINUOUS
 10
186.6324688734
 20
129.986848461
 11
185.6324688734
 21
129.986848461
  0
LINE
  5
34E
100
AcDbEntity
  8
0
100
AcDbLine
 62
7
  6
CONTINUOUS
 10
186.6324688734
 20
130.3698271387
 11
185.6324688734
 21
130.3698271387
  0
LINE
  5
34F
100
AcDbEntity
  8
0
100
AcDbLine
 62
7
  6
CONTINUOUS
 10
186.6324688734
 20
130.497486698
 11
185.6324688734
 21
130.497486698
  0
LINE
  5
350
100
AcDbEntity
  8
0
100
AcDbLine
 62
7
  6
CONTINUOUS
 10
186.6324688734
 20
130.8804653757
 11
185.6324688734
 21
130.8804653757
  0
LINE
  5
351
100
AcDbEntity
  8
0
100
AcDbLine
 62
7
  6
CONTINUOUS
 10
186.6324688734
 20
131.2634444111
 11
185.6324688734
 21
131.2634444111
  0
LINE
  5
352
100
AcDbEntity
  8
0
100
AcDbLine
 62
7
  6
CONTINUOUS
 10
186.6324688734
 20
131.6464230889
 11
185.6324688734
 21
131.6464230889
  0
LINE
  5
353
100
AcDbEntity
  8
0
100
AcDbLine
 62
7
  6
CONTINUOUS
 10
186.6324688734
 20
132.1570613259
 11
185.6324688734
 21
132.1570613259
  0
LINE
  5
354
100
AcDbEntity
  8
0
100
AcDbLine
 62
7
  6
CONTINUOUS
 10
186.6324688734
 20
132.5400400036
 11
185.6324688734
 21
132.5400400036
  0
LINE
  5
355
100
AcDbEntity
  8
0
100
AcDbLine
 62
7
  6
CONTINUOUS
 10
186.6324688734
 20
132.6676995629
 11
185.6324688734
 21
132.6676995629
  0
LINE
  5
356
100
AcDbEntity
  8
0
100
AcDbLine
 62
7
  6
CONTINUOUS
 10
186.6324688734
 20
132.9376995629
 11
185.6324688734
 21
132.9376995629
  0
LINE
  5
357
100
AcDbEntity
  8
RUNDUNGEN
100
AcDbLine
 62
7
  6
CONTINUOUS
 10
192.6968729616
 20
141.5576995629
 11
227.5680646358
 21
141.5576995629
  0
ARC
  5
358
100
AcDbEntity
  8
RUNDUNGEN
100
AcDbCircle
 62
7
  6
CONTINUOUS
 10
181.6324688734
 20
290.1851429735
 40
5.0
100
AcDbArc
 50
270.000359561
 51
0.0004870856
  0
ARC
  5
359
100
AcDbEntity
  8
RUNDUNGEN
100
AcDbCircle
 62
7
  6
CONTINUOUS
 10
170.1324688734
 20
281.1851429735
 40
4.0
100
AcDbArc
 50
90.0
 51
180.0
  0
ARC
  5
35A
100
AcDbEntity
  8
RUNDUNGEN
100
AcDbCircle
 62
7
  6
CONTINUOUS
 10
238.6324688734
 20
290.1851429735
 40
5.0
100
AcDbArc
 50
179.9989856612
 51
269.9997678175
  0
ARC
  5
35B
100
AcDbEntity
  8
RUNDUNGEN
100
AcDbCircle
 62
7
  6
CONTINUOUS
 10
250.1324688734
 20
281.1851429735
 40
4.0
100
AcDbArc
 50
0.0
 51
90.0
  0
ARC
  5
35C
100
AcDbEntity
  8
RUNDUNGEN
100
AcDbCircle
 62
7
  6
CONTINUOUS
 10
210.1324688734
 20
336.6851429735
 40
23.5
100
AcDbArc
 50
0.0
 51
180.0
  0
ARC
  5
35D
100
AcDbEntity
  8
RUNDUNGEN
100
AcDbCircle
 62
7
  6
CONTINUOUS
 10
364.4802916792
 20
321.4531067417
 40
5.0000036446
100
AcDbArc
 50
329.9998553518
 51
359.9998329744
  0
ARC
  5
35E
100
AcDbEntity
  8
RUNDUNGEN
100
AcDbCircle
 62
7
  6
CONTINUOUS
 10
370.4802937772
 20
311.8454006453
 40
5.0
100
AcDbArc
 50
150.0000480838
 51
180.0000416417
  0
ARC
  5
35F
100
AcDbEntity
  8
0
100
AcDbCircle
 62
7
  6
CONTINUOUS
 10
381.3202916792
 20
309.8351429735
 40
3.22
100
AcDbArc
 50
132.1294150686
 51
300.3705849314
  0
ARC
  5
360
100
AcDbEntity
  8
0
100
AcDbCircle
 62
7
  6
CONTINUOUS
 10
381.3202916792
 20
309.8351429735
 40
3.22
100
AcDbArc
 50
309.5364903521
 51
122.9635096479
  0
ARC
  5
361
100
AcDbEntity
  8
RUNDUNGEN
100
AcDbCircle
 62
7
  6
CONTINUOUS
 10
398.4802916792
 20
327.1639157748
 40
3.0
100
AcDbArc
 50
302.0
 51
360.0
  0
ARC
  5
362
100
AcDbEntity
  8
0
100
AcDbCircle
 62
7
  6
CONTINUOUS
 10
381.3202916792
 20
309.8351429735
 40
2.38
100
AcDbArc
 50
310.6984581435
 51
121.8015418565
  0
ARC
  5
363
100
AcDbEntity
  8
0
100
AcDbCircle
 62
7
  6
CONTINUOUS
 10
381.3202916792
 20
309.8351429735
 40
2.38
100
AcDbArc
 50
134.2161911632
 51
298.2838088368
  0
ARC
  5
364
100
AcDbEntity
  8
RUNDUNGEN
100
AcDbCircle
 62
7
  6
CONTINUOUS
 10
377.5625397922
 20
356.1851142833
 40
4.0
100
AcDbArc
 50
90.0003221495
 51
145.0
  0
ARC
  5
365
100
AcDbEntity
  8
RUNDUNGEN
100
AcDbCircle
 62
7
  6
CONTINUOUS
 10
397.4802916792
 20
352.2843854086
 40
4.0
100
AcDbArc
 50
0.0
 51
65.5566645723
  0
ARC
  5
366
100
AcDbEntity
  8
RUNDUNGEN
100
AcDbCircle
 62
7
  6
CONTINUOUS
 10
391.1841172156
 20
356.1851429735
 40
4.0
100
AcDbArc
 50
50.8832562204
 51
90.0
  0
ARC
  5
367
100
AcDbEntity
  8
RUNDUNGEN
100
AcDbCircle
 62
7
  6
CONTINUOUS
 10
373.4802916792
 20
350.3550597776
 40
4.0
100
AcDbArc
 50
145.0
 51
180.0
  0
ARC
  5
368
100
AcDbEntity
  8
RUNDUNGEN
100
AcDbCircle
 62
7
  6
CONTINUOUS
 10
409.4802916792
 20
308.6851429735
 40
18.5
100
AcDbArc
 50
121.999396027
 51
58.0006203873
  0
ARC
  5
369
100
AcDbEntity
  8
RUNDUNGEN
100
AcDbCircle
 62
7
  6
CONTINUOUS
 10
420.4802916792
 20
327.1639157748
 40
3.0
100
AcDbArc
 50
180.0
 51
238.0
  0
ARC
  5
36A
100
AcDbEntity
  8
RUNDUNGEN
100
AcDbCircle
 62
7
  6
CONTINUOUS
 10
448.4802895662
 20
311.8454006712
 40
5.0
100
AcDbArc
 50
359.9999580615
 51
29.9999515735
  0
ARC
  5
36B
100
AcDbEntity
  8
0
100
AcDbCircle
 62
7
  6
CONTINUOUS
 10
438.4934910534
 20
315.2919513481
 40
5.0
100
AcDbArc
 50
174.2608295227
 51
5.7391704773
  0
ARC
  5
36C
100
AcDbEntity
  8
0
100
AcDbCircle
 62
7
  6
CONTINUOUS
 10
438.4934910534
 20
315.2919513481
 40
3.5
100
AcDbArc
 50
171.7867892983
 51
8.2132107017
  0
ARC
  5
36D
100
AcDbEntity
  8
RUNDUNGEN
100
AcDbCircle
 62
7
  6
CONTINUOUS
 10
454.4802916792
 20
321.453092166
 40
5.0
100
AcDbArc
 50
180.4067696059
 51
210.0
  0
ARC
  5
36E
100
AcDbEntity
  8
0
100
AcDbCircle
 62
7
  6
CONTINUOUS
 10
438.4934910534
 20
323.7919513481
 40
5.0
100
AcDbArc
 50
174.2608295227
 51
5.7391704773
  0
ARC
  5
36F
100
AcDbEntity
  8
0
100
AcDbCircle
 62
7
  6
CONTINUOUS
 10
438.4934910534
 20
323.7919513481
 40
3.5
100
AcDbArc
 50
282.3736251162
 51
8.2132107017
  0
ARC
  5
370
100
AcDbEntity
  8
0
100
AcDbCircle
 62
7
  6
CONTINUOUS
 10
438.4934910534
 20
323.7919513481
 40
3.5
100
AcDbArc
 50
171.7867892983
 51
257.4447123387
  0
ARC
  5
371
100
AcDbEntity
  8
0
100
AcDbCircle
 62
7
  6
CONTINUOUS
 10
409.4802916792
 20
378.6851429735
 40
25.0
100
AcDbArc
 50
294.4433354277
 51
309.1167437796
  0
ARC
  5
372
100
AcDbEntity
  8
0
100
AcDbCircle
 62
7
  6
CONTINUOUS
 10
409.4802916792
 20
378.6851429735
 40
25.0
100
AcDbArc
 50
230.8832562204
 51
245.5566645723
  0
ARC
  5
373
100
AcDbEntity
  8
RUNDUNGEN
100
AcDbCircle
 62
7
  6
CONTINUOUS
 10
441.3980436409
 20
356.1851141764
 40
4.0
100
AcDbArc
 50
35.0
 51
89.9996766278
  0
ARC
  5
374
100
AcDbEntity
  8
RUNDUNGEN
100
AcDbCircle
 62
7
  6
CONTINUOUS
 10
421.4802916792
 20
352.2843854086
 40
4.0
100
AcDbArc
 50
114.4433354277
 51
180.0
  0
ARC
  5
375
100
AcDbEntity
  8
RUNDUNGEN
100
AcDbCircle
 62
7
  6
CONTINUOUS
 10
427.7764661427
 20
356.1851429735
 40
4.0
100
AcDbArc
 50
90.0
 51
129.1167437796
  0
ARC
  5
376
100
AcDbEntity
  8
RUNDUNGEN
100
AcDbCircle
 62
7
  6
CONTINUOUS
 10
445.4802916792
 20
350.3550597776
 40
4.0
100
AcDbArc
 50
0.0
 51
35.0
  0
ARC
  5
377
100
AcDbEntity
  8
0
100
AcDbCircle
 62
7
  6
CONTINUOUS
 10
168.1324688734
 20
101.5576995629
 40
25.0
100
AcDbArc
 50
320.8832562204
 51
326.3576851342
  0
ARC
  5
378
100
AcDbEntity
  8
0
100
AcDbCircle
 62
7
  6
CONTINUOUS
 10
168.1324688734
 20
101.5576995629
 40
25.0
100
AcDbArc
 50
33.6423148658
 51
39.1167437796
  0
ARC
  5
379
100
AcDbEntity
  8
RUNDUNGEN
100
AcDbCircle
 62
7
  6
CONTINUOUS
 10
168.1324688734
 20
101.5576995629
 40
25.0
100
AcDbArc
 50
33.6423148658
 51
39.1167437796
  0
ARC
  5
37A
100
AcDbEntity
  8
RUNDUNGEN
100
AcDbCircle
 62
7
  6
CONTINUOUS
 10
168.1324688734
 20
101.5576995629
 40
25.0
100
AcDbArc
 50
320.8832562204
 51
326.3576851342
  0
ARC
  5
37B
100
AcDbEntity
  8
RUNDUNGEN
100
AcDbCircle
 62
7
  6
CONTINUOUS
 10
192.6968730993
 20
65.5576995629
 40
4.0
100
AcDbArc
 50
244.1580653705
 51
270.00000012
  0
ARC
  5
37C
100
AcDbEntity
  8
RUNDUNGEN
100
AcDbCircle
 62
7
  6
CONTINUOUS
 10
190.6324688734
 20
83.2615250993
 40
4.0
100
AcDbArc
 50
140.8832562204
 51
180.0
  0
ARC
  5
37D
100
AcDbEntity
  8
RUNDUNGEN
100
AcDbCircle
 62
7
  6
CONTINUOUS
 10
190.6324559517
 20
66.6327847504
 40
3.999994257
100
AcDbArc
 50
180.0000667175
 51
240.8237982757
  0
ARC
  5
37E
100
AcDbEntity
  8
RUNDUNGEN
100
AcDbCircle
 62
7
  6
CONTINUOUS
 10
182.1324688734
 20
101.5576995629
 40
15.0
100
AcDbArc
 50
302.2649104107
 51
323.9681209275
  0
ARC
  5
37F
100
AcDbEntity
  8
RUNDUNGEN
100
AcDbCircle
 62
7
  6
CONTINUOUS
 10
182.1324688734
 20
101.5576995629
 40
15.0
100
AcDbArc
 50
36.0318835992
 51
57.7350895893
  0
ARC
  5
380
100
AcDbEntity
  8
RUNDUNGEN
100
AcDbCircle
 62
7
  6
CONTINUOUS
 10
192.2753260163
 20
85.4915099406
 40
4.0
100
AcDbArc
 50
122.2649104107
 51
146.3576851342
  0
ARC
  5
381
100
AcDbEntity
  8
RUNDUNGEN
100
AcDbCircle
 62
7
  6
CONTINUOUS
 10
195.8801959583
 20
91.5576995629
 40
2.0
100
AcDbArc
 50
90.0
 51
143.9681209275
  0
ARC
  5
382
100
AcDbEntity
  8
RUNDUNGEN
100
AcDbCircle
 62
7
  6
CONTINUOUS
 10
192.6968730993
 20
137.5576995629
 40
4.0
100
AcDbArc
 50
90.0000019722
 51
115.8419366856
  0
ARC
  5
383
100
AcDbEntity
  8
RUNDUNGEN
100
AcDbCircle
 62
7
  6
CONTINUOUS
 10
190.6324688734
 20
136.4826190331
 40
4.0
100
AcDbArc
 50
119.176395855
 51
180.0
  0
ARC
  5
384
100
AcDbEntity
  8
RUNDUNGEN
100
AcDbCircle
 62
7
  6
CONTINUOUS
 10
190.6324688734
 20
119.8538740264
 40
4.0
100
AcDbArc
 50
180.0
 51
219.1167437796
  0
ARC
  5
385
100
AcDbEntity
  8
RUNDUNGEN
100
AcDbCircle
 62
7
  6
CONTINUOUS
 10
192.2753260163
 20
117.6238891852
 40
4.0
100
AcDbArc
 50
213.6450003128
 51
237.7365100607
  0
ARC
  5
386
100
AcDbEntity
  8
RUNDUNGEN
100
AcDbCircle
 62
7
  6
CONTINUOUS
 10
195.8801959583
 20
111.5576995629
 40
2.0
100
AcDbArc
 50
216.0318451225
 51
270.0
  0
ARC
  5
387
100
AcDbEntity
  8
RUNDUNGEN
100
AcDbCircle
 62
7
  6
CONTINUOUS
 10
227.5680646476
 20
65.5576995629
 40
4.0
100
AcDbArc
 50
270.0000018936
 51
295.8419370084
  0
ARC
  5
388
100
AcDbEntity
  8
RUNDUNGEN
100
AcDbCircle
 62
7
  6
CONTINUOUS
 10
229.6324688734
 20
66.6327800927
 40
4.0
100
AcDbArc
 50
299.176395855
 51
360.0
  0
ARC
  5
389
100
AcDbEntity
  8
RUNDUNGEN
100
AcDbCircle
 62
7
  6
CONTINUOUS
 10
229.6324688734
 20
83.2615250993
 40
4.0
100
AcDbArc
 50
0.0
 51
39.1167437796
  0
CIRCLE
  5
38A
100
AcDbEntity
  8
FASEN
100
AcDbCircle
 62
7
  6
CONTINUOUS
 10
210.1324688734
 20
101.5576995629
 40
50.0
  0
CIRCLE
  5
38B
100
AcDbEntity
  8
FASEN
100
AcDbCircle
 62
7
  6
CONTINUOUS
 10
210.1324688734
 20
101.5576995629
 40
49.5
  0
ARC
  5
38C
100
AcDbEntity
  8
0
100
AcDbCircle
 62
7
  6
CONTINUOUS
 10
210.1324688734
 20
101.5576995629
 40
44.5
100
AcDbArc
 50
22.4590156109
 51
31.1214551226
  0
ARC
  5
38D
100
AcDbEntity
  8
0
100
AcDbCircle
 62
7
  6
CONTINUOUS
 10
210.1324688734
 20
101.5576995629
 40
44.5
100
AcDbArc
 50
7.7488729532
 51
21.7641306659
  0
ARC
  5
38E
100
AcDbEntity
  8
0
100
AcDbCircle
 62
7
  6
CONTINUOUS
 10
210.1324688734
 20
101.5576995629
 40
44.5
100
AcDbArc
 50
330.3709915468
 51
5.8038763814
  0
CIRCLE
  5
38F
100
AcDbEntity
  8
RUNDUNGEN
100
AcDbCircle
 62
7
  6
CONTINUOUS
 10
210.1324688734
 20
101.5576995629
 40
44.0
  0
ARC
  5
390
100
AcDbEntity
  8
RUNDUNGEN
100
AcDbCircle
 62
7
  6
CONTINUOUS
 10
227.9896117306
 20
85.4915099406
 40
4.0
100
AcDbArc
 50
33.6448889392
 51
57.7365137202
  0
ARC
  5
391
100
AcDbEntity
  8
RUNDUNGEN
100
AcDbCircle
 62
7
  6
CONTINUOUS
 10
224.3847417886
 20
91.5576995629
 40
2.0
100
AcDbArc
 50
36.0318790725
 51
90.0
  0
ARC
  5
392
100
AcDbEntity
  8
RUNDUNGEN
100
AcDbCircle
 62
7
  6
CONTINUOUS
 10
252.1324688734
 20
101.5576995629
 40
25.0
100
AcDbArc
 50
213.6423148658
 51
219.1167437796
  0
ARC
  5
393
100
AcDbEntity
  8
RUNDUNGEN
100
AcDbCircle
 62
7
  6
CONTINUOUS
 10
252.1324688734
 20
101.5576995629
 40
25.0
100
AcDbArc
 50
140.8832562204
 51
146.3576851342
  0
ARC
  5
394
100
AcDbEntity
  8
RUNDUNGEN
100
AcDbCircle
 62
7
  6
CONTINUOUS
 10
238.1324688734
 20
101.5576995629
 40
15.0
100
AcDbArc
 50
216.0318833628
 51
237.7350895893
  0
ARC
  5
395
100
AcDbEntity
  8
RUNDUNGEN
100
AcDbCircle
 62
7
  6
CONTINUOUS
 10
238.1324688734
 20
101.5576995629
 40
15.0
100
AcDbArc
 50
122.2649104107
 51
143.9681209275
  0
ARC
  5
396
100
AcDbEntity
  8
RUNDUNGEN
100
AcDbCircle
 62
7
  6
CONTINUOUS
 10
227.5680558096
 20
137.5577038464
 40
4.0000000003
100
AcDbArc
 50
64.1580076131
 51
89.999584787
  0
ARC
  5
397
100
AcDbEntity
  8
RUNDUNGEN
100
AcDbCircle
 62
7
  6
CONTINUOUS
 10
229.6324688734
 20
119.8538740264
 40
4.0
100
AcDbArc
 50
320.8832562204
 51
360.0
  0
ARC
  5
398
100
AcDbEntity
  8
RUNDUNGEN
100
AcDbCircle
 62
7
  6
CONTINUOUS
 10
227.9896117306
 20
117.6238891852
 40
4.0
100
AcDbArc
 50
302.2636471777
 51
326.3551390299
  0
ARC
  5
399
100
AcDbEntity
  8
RUNDUNGEN
100
AcDbCircle
 62
7
  6
CONTINUOUS
 10
229.6324784445
 20
136.4826155352
 40
3.9999957462
100
AcDbArc
 50
0.000050104
 51
60.8237482715
  0
ARC
  5
39A
100
AcDbEntity
  8
RUNDUNGEN
100
AcDbCircle
 62
7
  6
CONTINUOUS
 10
224.3847417886
 20
111.5576995629
 40
2.0
100
AcDbArc
 50
270.0
 51
323.9681209275
  0
SPLINE
  5
39B
100
AcDbEntity
  8
RUNDUNGEN
100
AcDbSpline
 62
7
  6
CONTINUOUS
 70
0
 71
3
 72
9
 73
5
 74
0
 42
0.0000001
 43
0.0000001
 44
0.0000000001
 40
0.0
 40
0.0
 40
0.0
 40
0.0
 40
0.4933252081
 40
1.0
 40
1.0
 40
1.0
 40
1.0
 10
186.6325108917
 20
83.3470029465
 30
0.0
 10
186.6345675215
 20
83.780830542
 30
0.0
 10
186.7936727186
 20
84.665531842
 30
0.0
 10
187.2401141602
 20
85.4453723184
 30
0.0
 10
187.5224967275
 20
85.7900382899
 30
0.0
  0
LINE
  5
39C
100
AcDbEntity
  8
RUNDUNGEN
100
AcDbLine
 62
7
  6
CONTINUOUS
 10
187.5224967275
 20
85.7900382899
 11
187.5287926113
 21
85.7977033218
  0
SPLINE
  5
39D
100
AcDbEntity
  8
RUNDUNGEN
100
AcDbSpline
 62
7
  6
CONTINUOUS
 70
0
 71
3
 72
9
 73
5
 74
0
 42
0.0000001
 43
0.0000001
 44
0.0000000001
 40
0.0
 40
0.0
 40
0.0
 40
0.0
 40
0.4933252189
 40
1.0
 40
1.0
 40
1.0
 40
1.0
 10
233.6324268639
 20
119.7683984871
 30
0.0
 10
233.6303705051
 20
119.3345705072
 30
0.0
 10
233.4712655439
 20
118.4498683439
 30
0.0
 10
233.0248238395
 20
117.6700270835
 30
0.0
 10
232.7424410174
 20
117.3253608369
 30
0.0
  0
LINE
  5
39E
100
AcDbEntity
  8
RUNDUNGEN
100
AcDbLine
 62
7
  6
CONTINUOUS
 10
232.7424410174
 20
117.3253608369
 11
232.7361453908
 21
117.3176961182
  0
LINE
  5
39F
100
AcDbEntity
  8
RUNDUNGEN
100
AcDbLine
 62
7
  6
CONTINUOUS
 10
187.5288327954
 20
117.3176470868
 11
187.5224967992
 21
117.3253609518
  0
SPLINE
  5
3A0
100
AcDbEntity
  8
RUNDUNGEN
100
AcDbSpline
 62
7
  6
CONTINUOUS
 70
0
 71
3
 72
9
 73
5
 74
0
 42
0.0000001
 43
0.0000001
 44
0.0000000001
 40
0.0
 40
0.0
 40
0.0
 40
0.0
 40
0.506674859
 40
1.0
 40
1.0
 40
1.0
 40
1.0
 10
187.5224967992
 20
117.3253609518
 30
0.0
 10
187.2401117577
 20
117.670035271
 30
0.0
 10
186.7936603029
 20
118.4498883836
 30
0.0
 10
186.6345617605
 20
119.3346088098
 30
0.0
 10
186.6325106689
 20
119.7684441288
 30
0.0
  0
LINE
  5
3A1
100
AcDbEntity
  8
RUNDUNGEN
100
AcDbLine
 62
7
  6
CONTINUOUS
 10
232.7361451311
 20
85.7977032656
 11
232.7424409925
 21
85.7900382591
  0
SPLINE
  5
3A2
100
AcDbEntity
  8
RUNDUNGEN
100
AcDbSpline
 62
7
  6
CONTINUOUS
 70
0
 71
3
 72
9
 73
5
 74
0
 42
0.0000001
 43
0.0000001
 44
0.0000000001
 40
0.0
 40
0.0
 40
0.0
 40
0.0
 40
0.5066748543
 40
1.0
 40
1.0
 40
1.0
 40
1.0
 10
232.7424409925
 20
85.7900382591
 30
0.0
 10
233.0248287463
 20
85.4453658867
 30
0.0
 10
233.4712764487
 20
84.6655091548
 30
0.0
 10
233.6303761366
 20
83.7807892822
 30
0.0
 10
233.6324270828
 20
83.3469537469
 30
0.0
  0
ELLIPSE
  5
3A3
100
AcDbEntity
  8
0
100
AcDbEllipse
 62
7
  6
CONTINUOUS
 10
210.1324688734
 20
257.1106748377
 30
0.0
 11
-0.0
 21
45.4468083978
 31
0.0
 40
0.9791666691
 41
-1.7208339036
 42
-1.7173882018
  0
ELLIPSE
  5
3A4
100
AcDbEntity
  8
0
100
AcDbEllipse
 62
7
  6
CONTINUOUS
 10
210.1324688734
 20
267.0680903551
 30
0.0
 11
0.0
 21
113.61680694
 31
0.0
 40
0.3916674055
 41
-1.7173882018
 42
-1.7060396731
  0
ELLIPSE
  5
3A5
100
AcDbEntity
  8
0
100
AcDbEllipse
 62
7
  6
CONTINUOUS
 10
210.1324688734
 20
237.195810361
 30
0.0
 11
0.0
 21
113.6168228544
 31
0.0
 40
0.3916673507
 41
-1.4355529804
 42
-1.4309822241
  0
ELLIPSE
  5
3A6
100
AcDbEntity
  8
0
100
AcDbEllipse
 62
7
  6
CONTINUOUS
 10
210.1324688734
 20
261.4510893872
 30
0.0
 11
0.0
 21
136.3401492307
 31
0.0
 40
0.3263895503
 41
-1.6101323129
 42
-1.6045105678
  0
ELLIPSE
  5
3A7
100
AcDbEntity
  8
0
100
AcDbEllipse
 62
7
  6
CONTINUOUS
 10
210.1324688734
 20
258.4723765646
 30
0.0
 11
0.0
 21
60.5957374573
 31
0.0
 40
0.7343750875
 41
-1.6270056963
 42
-1.6101323129
  0
ELLIPSE
  5
3A8
100
AcDbEntity
  8
0
100
AcDbEllipse
 62
7
  6
CONTINUOUS
 10
210.1324688734
 20
256.9830141269
 30
0.0
 11
44.5
 21
-0.0
 31
0.0
 40
0.7659569903
 41
-0.0787330137
 42
-0.0562093695
  0
ELLIPSE
  5
3A9
100
AcDbEntity
  8
0
100
AcDbEllipse
 62
7
  6
CONTINUOUS
 10
210.1324688734
 20
255.0170581977
 30
0.0
 11
44.5
 21
-0.0
 31
0.0
 40
0.2042553727
 41
-0.1069453174
 42
-0.0787330137
  0
ELLIPSE
  5
3AA
100
AcDbEntity
  8
0
100
AcDbEllipse
 62
7
  6
CONTINUOUS
 10
210.1324688734
 20
259.7149299531
 30
0.0
 11
44.5
 21
-0.0
 31
0.0
 40
0.2042553727
 41
0.0787330137
 42
0.1069453174
  0
ELLIPSE
  5
3AB
100
AcDbEntity
  8
0
100
AcDbEllipse
 62
7
  6
CONTINUOUS
 10
210.1324688734
 20
257.7489740239
 30
0.0
 11
44.5
 21
-0.0
 31
0.0
 40
0.7659569903
 41
0.0562093695
 42
0.0787330137
  0
ELLIPSE
  5
3AC
100
AcDbEntity
  8
0
100
AcDbEllipse
 62
7
  6
CONTINUOUS
 10
210.1324688734
 20
256.2596115862
 30
0.0
 11
0.0
 21
60.5957374573
 31
0.0
 40
0.7343750875
 41
-1.5314603407
 42
-1.5145869573
  0
ELLIPSE
  5
3AD
100
AcDbEntity
  8
0
100
AcDbEllipse
 62
7
  6
CONTINUOUS
 10
210.1324688734
 20
253.2808987637
 30
0.0
 11
0.0
 21
136.3401492307
 31
0.0
 40
0.3263895503
 41
-1.5370820858
 42
-1.5314603407
  0
ELLIPSE
  5
3AE
100
AcDbEntity
  8
0
100
AcDbEllipse
 62
7
  6
CONTINUOUS
 10
210.1324688734
 20
295.9192185959
 30
0.0
 11
0.0
 21
136.3405393033
 31
0.0
 40
0.3263886165
 41
-1.8672546126
 42
-1.8613856171
  0
ELLIPSE
  5
3AF
100
AcDbEntity
  8
0
100
AcDbEllipse
 62
7
  6
CONTINUOUS
 10
210.1324688734
 20
273.7915236746
 30
0.0
 11
-0.0
 21
60.5957374573
 31
0.0
 40
0.7343750875
 41
-1.8849259092
 42
-1.8672546126
  0
ELLIPSE
  5
3B0
100
AcDbEntity
  8
0
100
AcDbEllipse
 62
7
  6
CONTINUOUS
 10
210.1324688734
 20
265.6000378004
 30
0.0
 11
44.5
 21
0.0
 31
0.0
 40
0.7659575381
 41
-0.3378513444
 42
-0.3141295824
  0
ELLIPSE
  5
3B1
100
AcDbEntity
  8
0
100
AcDbEllipse
 62
7
  6
CONTINUOUS
 10
210.1324688734
 20
257.3149292707
 30
0.0
 11
44.5
 21
-0.0
 31
0.0
 40
0.2042552558
 41
-0.3677862006
 42
-0.3378513444
  0
ELLIPSE
  5
3B2
100
AcDbEntity
  8
0
100
AcDbEllipse
 62
7
  6
CONTINUOUS
 10
210.1324688734
 20
257.4170588801
 30
0.0
 11
44.5
 21
0.0
 31
0.0
 40
0.2042552558
 41
0.3378513444
 42
0.3677862006
  0
ELLIPSE
  5
3B3
100
AcDbEntity
  8
0
100
AcDbEllipse
 62
7
  6
CONTINUOUS
 10
210.1324688734
 20
249.1319503504
 30
0.0
 11
44.5
 21
-0.0
 31
0.0
 40
0.7659575381
 41
0.3141295824
 42
0.3378513444
  0
ELLIPSE
  5
3B4
100
AcDbEntity
  8
0
100
AcDbEllipse
 62
7
  6
CONTINUOUS
 10
210.1324688734
 20
240.9404644762
 30
0.0
 11
0.0
 21
60.5957374573
 31
0.0
 40
0.7343750875
 41
-1.274338041
 42
-1.2566667444
  0
ELLIPSE
  5
3B5
100
AcDbEntity
  8
0
100
AcDbEllipse
 62
7
  6
CONTINUOUS
 10
210.1324688734
 20
218.8127695549
 30
0.0
 11
0.0
 21
136.3405393033
 31
0.0
 40
0.3263886165
 41
-1.2802070364
 42
-1.274338041
  0
ELLIPSE
  5
3B6
100
AcDbEntity
  8
0
100
AcDbEllipse
 62
7
  6
CONTINUOUS
 10
210.1324688734
 20
254.5148867366
 30
0.0
 11
0.0
 21
181.7879058377
 31
0.0
 40
0.244790762
 41
-1.5089591616
 42
-1.5033294364
  0
ELLIPSE
  5
3B7
100
AcDbEntity
  8
0
100
AcDbEllipse
 62
7
  6
CONTINUOUS
 10
210.1324688734
 20
261.5362146026
 30
0.0
 11
0.0
 21
68.1700746153
 31
0.0
 40
0.6527791007
 41
-1.5202129714
 42
-1.5089591616
  0
ELLIPSE
  5
3B8
100
AcDbEntity
  8
0
100
AcDbEllipse
 62
7
  6
CONTINUOUS
 10
210.1324688734
 20
263.4511004749
 30
0.0
 11
44.5
 21
-0.0
 31
0.0
 40
0.6808512211
 41
0.033714241
 42
0.0505833553
  0
ELLIPSE
  5
3B9
100
AcDbEntity
  8
0
100
AcDbEllipse
 62
7
  6
CONTINUOUS
 10
210.1324688734
 20
264.0893980606
 30
0.0
 11
44.5
 21
-0.0
 31
0.0
 40
0.255319362
 41
0.0112362022
 42
0.033714241
  0
ELLIPSE
  5
3BA
100
AcDbEntity
  8
0
100
AcDbEllipse
 62
7
  6
CONTINUOUS
 10
210.1324688734
 20
272.6425904151
 30
0.0
 11
44.5
 21
-0.0
 31
0.0
 40
0.2042552558
 41
0.1979188211
 42
0.2266547548
  0
ELLIPSE
  5
3BB
100
AcDbEntity
  8
0
100
AcDbEllipse
 62
7
  6
CONTINUOUS
 10
210.1324688734
 20
267.7276955791
 30
0.0
 11
44.5
 21
-0.0
 31
0.0
 40
0.7659575381
 41
0.1750499286
 42
0.1979188211
  0
ELLIPSE
  5
3BC
100
AcDbEntity
  8
0
100
AcDbEllipse
 62
7
  6
CONTINUOUS
 10
210.1324688734
 20
263.1106762682
 30
0.0
 11
0.0
 21
60.5957374573
 31
0.0
 40
0.7343750875
 41
-1.4128368959
 42
-1.3957463982
  0
ELLIPSE
  5
3BD
100
AcDbEntity
  8
0
100
AcDbEllipse
 62
7
  6
CONTINUOUS
 10
210.1324688734
 20
251.1957636183
 30
0.0
 11
0.0
 21
136.3405393033
 31
0.0
 40
0.3263886165
 41
-1.4185231473
 42
-1.4128368959
  0
ELLIPSE
  5
3BE
100
AcDbEntity
  8
0
100
AcDbEllipse
 62
7
  6
CONTINUOUS
 10
210.1324688734
 20
291.5362245325
 30
0.0
 11
0.0
 21
136.3405393033
 31
0.0
 40
0.3263886165
 41
-1.7287557577
 42
-1.7230695063
  0
ELLIPSE
  5
3BF
100
AcDbEntity
  8
0
100
AcDbEllipse
 62
7
  6
CONTINUOUS
 10
210.1324688734
 20
279.6213118826
 30
0.0
 11
-0.0
 21
60.5957374573
 31
0.0
 40
0.7343750875
 41
-1.7458462554
 42
-1.7287557577
  0
ELLIPSE
  5
3C0
100
AcDbEntity
  8
0
100
AcDbEllipse
 62
7
  6
CONTINUOUS
 10
210.1324688734
 20
273.0255689316
 30
0.0
 11
44.5
 21
0.0
 31
0.0
 40
0.5106383587
 41
-0.1979188211
 42
-0.1750499286
  0
ELLIPSE
  5
3C1
100
AcDbEntity
  8
0
100
AcDbEllipse
 62
7
  6
CONTINUOUS
 10
210.1324688734
 20
245.7206045447
 30
0.0
 11
0.0
 21
116.1418442726
 31
0.0
 40
0.3831521729
 41
-1.4242044572
 42
-1.3728775057
  0
ELLIPSE
  5
3C2
100
AcDbEntity
  8
0
100
AcDbEllipse
 62
7
  6
CONTINUOUS
 10
210.1324688734
 20
255.3234383196
 30
0.0
 11
-0.0
 21
45.4468464344
 31
0.0
 40
0.9791658496
 41
-1.4976975366
 42
-1.4864266161
  0
ELLIPSE
  5
3C3
100
AcDbEntity
  8
0
100
AcDbEllipse
 62
7
  6
CONTINUOUS
 10
210.1324688734
 20
257.8766328324
 30
0.0
 11
44.5
 21
-0.0
 31
0.0
 40
0.3404254913
 41
0.0843697107
 42
0.1012967307
  0
ELLIPSE
  5
3C4
100
AcDbEntity
  8
0
100
AcDbEllipse
 62
7
  6
CONTINUOUS
 10
210.1324688734
 20
260.9404614579
 30
0.0
 11
44.5
 21
0.0
 31
0.0
 40
0.3404254913
 41
-0.3617725358
 42
-0.3438122292
  0
ELLIPSE
  5
3C5
100
AcDbEntity
  8
0
100
AcDbEllipse
 62
7
  6
CONTINUOUS
 10
210.1324688734
 20
271.1532190555
 30
0.0
 11
0.0
 21
45.4467814222
 31
0.0
 40
0.9791672503
 41
-1.914608556
 42
-1.9026992607
  0
ELLIPSE
  5
3C6
100
AcDbEntity
  8
0
100
AcDbEllipse
 62
7
  6
CONTINUOUS
 10
210.1324688734
 20
300.7702862303
 30
0.0
 11
0.0
 21
136.3405393033
 31
0.0
 40
0.3263886165
 41
-1.9026992607
 42
-1.8967630204
  0
ELLIPSE
  5
3C7
100
AcDbEntity
  8
0
100
AcDbEllipse
 62
7
  6
CONTINUOUS
 10
210.1324688734
 20
214.2170210391
 30
0.0
 11
0.0
 21
136.3405393033
 31
0.0
 40
0.3263886165
 41
-1.2448296331
 42
-1.2388933929
  0
ELLIPSE
  5
3C8
100
AcDbEntity
  8
0
100
AcDbEllipse
 62
7
  6
CONTINUOUS
 10
210.1324688734
 20
243.8340882138
 30
0.0
 11
0.0
 21
45.4467814222
 31
0.0
 40
0.9791672503
 41
-1.2388933929
 42
-1.2269840976
  0
ELLIPSE
  5
3C9
100
AcDbEntity
  8
0
100
AcDbEllipse
 62
7
  6
CONTINUOUS
 10
210.1324688734
 20
254.0468458114
 30
0.0
 11
44.5
 21
0.0
 31
0.0
 40
0.3404254913
 41
0.3438122292
 42
0.3617725358
  0
ELLIPSE
  5
3CA
100
AcDbEntity
  8
0
100
AcDbEllipse
 62
7
  6
CONTINUOUS
 10
210.1324688734
 20
243.7915711731
 30
0.0
 11
0.0
 21
224.6803957359
 31
0.0
 40
0.1958337302
 41
-1.4689051603
 42
-1.4683444591
  0
ELLIPSE
  5
3CB
100
AcDbEntity
  8
0
100
AcDbEllipse
 62
7
  6
CONTINUOUS
 10
210.1324688734
 20
257.8766328324
 30
0.0
 11
44.0
 21
-0.0
 31
0.0
 40
0.3404254913
 41
0.085330778
 42
0.1024518514
  0
ELLIPSE
  5
3CC
100
AcDbEntity
  8
0
100
AcDbEllipse
 62
7
  6
CONTINUOUS
 10
210.1324688734
 20
255.3234383196
 30
0.0
 11
-0.0
 21
44.9362077105
 31
0.0
 40
0.9791658496
 41
-1.4968653603
 42
-1.4854655488
  0
ELLIPSE
  5
3CD
100
AcDbEntity
  8
0
100
AcDbEllipse
 62
7
  6
CONTINUOUS
 10
210.1324688734
 20
248.6851633963
 30
0.0
 11
0.0
 21
134.8082374416
 31
0.0
 40
0.3263895503
 41
-1.5025615818
 42
-1.4968653603
  0
ELLIPSE
  5
3CE
100
AcDbEntity
  8
0
100
AcDbEllipse
 62
7
  6
CONTINUOUS
 10
210.1324688734
 20
266.302143873
 30
0.0
 11
0.0
 21
134.8082374416
 31
0.0
 40
0.3263895503
 41
-1.6447272933
 42
-1.6390310718
  0
ELLIPSE
  5
3CF
100
AcDbEntity
  8
0
100
AcDbEllipse
 62
7
  6
CONTINUOUS
 10
210.1324688734
 20
259.6638689497
 30
0.0
 11
-0.0
 21
44.9362077105
 31
0.0
 40
0.9791658496
 41
-1.6561271047
 42
-1.6447272933
  0
ELLIPSE
  5
3D0
100
AcDbEntity
  8
0
100
AcDbEllipse
 62
7
  6
CONTINUOUS
 10
210.1324688734
 20
257.110674437
 30
0.0
 11
44.0
 21
-0.0
 31
0.0
 40
0.3404254913
 41
-0.1024518514
 42
-0.085330778
  0
ELLIPSE
  5
3D1
100
AcDbEntity
  8
0
100
AcDbEllipse
 62
7
  6
CONTINUOUS
 10
210.1324688734
 20
254.0468458114
 30
0.0
 11
44.0
 21
-0.0
 31
0.0
 40
0.3404254913
 41
0.3478837529
 42
0.3660763706
  0
ELLIPSE
  5
3D2
100
AcDbEntity
  8
0
100
AcDbEllipse
 62
7
  6
CONTINUOUS
 10
210.1324688734
 20
243.8340882138
 30
0.0
 11
-0.0
 21
44.9361434287
 31
0.0
 40
0.9791672503
 41
-1.2349742309
 42
-1.2229125739
  0
ELLIPSE
  5
3D3
100
AcDbEntity
  8
0
100
AcDbEllipse
 62
7
  6
CONTINUOUS
 10
210.1324688734
 20
214.2170210391
 30
0.0
 11
0.0
 21
134.8086231314
 31
0.0
 40
0.3263886165
 41
-1.2409859386
 42
-1.2349742309
  0
ELLIPSE
  5
3D4
100
AcDbEntity
  8
0
100
AcDbEllipse
 62
7
  6
CONTINUOUS
 10
210.1324688734
 20
300.7702862303
 30
0.0
 11
0.0
 21
134.8086231314
 31
0.0
 40
0.3263886165
 41
-1.9066184227
 42
-1.900606715
  0
ELLIPSE
  5
3D5
100
AcDbEntity
  8
0
100
AcDbEllipse
 62
7
  6
CONTINUOUS
 10
210.1324688734
 20
271.1532190555
 30
0.0
 11
-0.0
 21
44.9361434287
 31
0.0
 40
0.9791672503
 41
-1.9186800797
 42
-1.9066184227
  0
ELLIPSE
  5
3D6
100
AcDbEntity
  8
0
100
AcDbEllipse
 62
7
  6
CONTINUOUS
 10
210.1324688734
 20
260.9404614579
 30
0.0
 11
44.0
 21
-0.0
 31
0.0
 40
0.3404254913
 41
-0.3660763706
 42
-0.3478837529
  0
ELLIPSE
  5
3D7
100
AcDbEntity
  8
0
100
AcDbEllipse
 62
7
  6
CONTINUOUS
 10
210.1324688734
 20
262.5830151808
 30
0.0
 11
44.5
 21
-0.0
 31
0.0
 40
0.2042553906
 41
0.0112362022
 42
0.0393359861
  0
ELLIPSE
  5
3D8
100
AcDbEntity
  8
0
100
AcDbEllipse
 62
7
  6
CONTINUOUS
 10
210.1324688734
 20
262.0468455084
 30
0.0
 11
44.5
 21
-0.0
 31
0.0
 40
0.5106380606
 41
0.0393359861
 42
0.0618371652
  0
ELLIPSE
  5
3D9
100
AcDbEntity
  8
0
100
AcDbEllipse
 62
7
  6
CONTINUOUS
 10
210.1324688734
 20
260.6425867037
 30
0.0
 11
0.0
 21
45.4468504131
 31
0.0
 40
0.9791657639
 41
-1.5089591616
 42
-1.4864266161
  0
ELLIPSE
  5
3DA
100
AcDbEntity
  8
0
100
AcDbEllipse
 62
7
  6
CONTINUOUS
 10
210.1324688734
 20
256.8128067121
 30
0.0
 11
0.0
 21
90.8935787589
 31
0.0
 40
0.4895835394
 41
-1.4864266161
 42
-1.4751449254
  0
ELLIPSE
  5
3DB
100
AcDbEntity
  8
0
100
AcDbEllipse
 62
7
  6
CONTINUOUS
 10
210.1324688734
 20
243.7915711731
 30
0.0
 11
0.0
 21
227.2335820511
 31
0.0
 40
0.1958337302
 41
-1.4751449254
 42
-1.4694995799
  0
ELLIPSE
  5
3DC
100
AcDbEntity
  8
0
100
AcDbEllipse
 62
7
  6
CONTINUOUS
 10
210.1324688734
 20
240.5681194256
 30
0.0
 11
0.0
 21
117.9574555133
 31
0.0
 40
0.3730158455
 41
-1.3821799351
 42
-1.3356816095
  0
ELLIPSE
  5
3DD
100
AcDbEntity
  8
0
100
AcDbEllipse
 62
7
  6
CONTINUOUS
 10
210.1324688734
 20
272.8979085099
 30
0.0
 11
44.5
 21
-0.0
 31
0.0
 40
0.3404254913
 41
-0.2208931195
 42
-0.2036519951
  0
ELLIPSE
  5
3DE
100
AcDbEntity
  8
0
100
AcDbEllipse
 62
7
  6
CONTINUOUS
 10
210.1324688734
 20
279.0255631334
 30
0.0
 11
0.0
 21
45.4467814222
 31
0.0
 40
0.9791672503
 41
-1.7744483219
 42
-1.7629885745
  0
ELLIPSE
  5
3DF
100
AcDbEntity
  8
0
100
AcDbEllipse
 62
7
  6
CONTINUOUS
 10
210.1324688734
 20
296.3872921669
 30
0.0
 11
0.0
 21
136.3405393033
 31
0.0
 40
0.3263886165
 41
-1.7629885745
 42
-1.7572683755
  0
ELLIPSE
  5
3E0
100
AcDbEntity
  8
0
100
AcDbEllipse
 62
7
  6
CONTINUOUS
 10
210.1324688734
 20
246.6000151024
 30
0.0
 11
0.0
 21
136.3405393033
 31
0.0
 40
0.3263886165
 41
-1.384324278
 42
-1.3786040791
  0
ELLIPSE
  5
3E1
100
AcDbEntity
  8
0
100
AcDbEllipse
 62
7
  6
CONTINUOUS
 10
210.1324688734
 20
263.9617441359
 30
0.0
 11
0.0
 21
45.4467814222
 31
0.0
 40
0.9791672503
 41
-1.3786040791
 42
-1.3671443317
  0
ELLIPSE
  5
3E2
100
AcDbEntity
  8
0
100
AcDbEllipse
 62
7
  6
CONTINUOUS
 10
210.1324688734
 20
270.0893987594
 30
0.0
 11
44.5
 21
-0.0
 31
0.0
 40
0.3404254913
 41
0.2036519951
 42
0.2208931195
  0
ELLIPSE
  5
3E3
100
AcDbEntity
  8
0
100
AcDbEllipse
 62
7
  6
CONTINUOUS
 10
210.1324688734
 20
270.0893987594
 30
0.0
 11
44.0
 21
0.0
 31
0.0
 40
0.3404254913
 41
0.2059993268
 42
0.2234456423
  0
ELLIPSE
  5
3E4
100
AcDbEntity
  8
0
100
AcDbEllipse
 62
7
  6
CONTINUOUS
 10
210.1324688734
 20
263.9617441359
 30
0.0
 11
-0.0
 21
44.9361434287
 31
0.0
 40
0.9791672503
 41
-1.3763923044
 42
-1.364797
  0
ELLIPSE
  5
3E5
100
AcDbEntity
  8
0
100
AcDbEllipse
 62
7
  6
CONTINUOUS
 10
210.1324688734
 20
246.6000151024
 30
0.0
 11
0.0
 21
134.8086231314
 31
0.0
 40
0.3263886165
 41
-1.3821799351
 42
-1.3763923044
  0
ELLIPSE
  5
3E6
100
AcDbEntity
  8
0
100
AcDbEllipse
 62
7
  6
CONTINUOUS
 10
210.1324688734
 20
296.3872921669
 30
0.0
 11
0.0
 21
134.8086231314
 31
0.0
 40
0.3263886165
 41
-1.7652003492
 42
-1.7594127185
  0
ELLIPSE
  5
3E7
100
AcDbEntity
  8
0
100
AcDbEllipse
 62
7
  6
CONTINUOUS
 10
210.1324688734
 20
279.0255631334
 30
0.0
 11
-0.0
 21
44.9361434287
 31
0.0
 40
0.9791672503
 41
-1.7767956536
 42
-1.7652003492
  0
ELLIPSE
  5
3E8
100
AcDbEntity
  8
0
100
AcDbEllipse
 62
7
  6
CONTINUOUS
 10
210.1324688734
 20
272.8979085099
 30
0.0
 11
44.0
 21
-0.0
 31
0.0
 40
0.3404254913
 41
-0.2234456423
 42
-0.2059993268
  0
ELLIPSE
  5
3E9
100
AcDbEntity
  8
0
100
AcDbEllipse
 62
7
  6
CONTINUOUS
 10
210.1324688734
 20
257.110674437
 30
0.0
 11
44.5
 21
0.0
 31
0.0
 40
0.3404254913
 41
-0.1012967307
 42
-0.0843697107
  0
ELLIPSE
  5
3EA
100
AcDbEntity
  8
0
100
AcDbEllipse
 62
7
  6
CONTINUOUS
 10
210.1324688734
 20
259.6638689497
 30
0.0
 11
0.0
 21
45.4468464344
 31
0.0
 40
0.9791658496
 41
-1.6551660375
 42
-1.643895117
  0
ELLIPSE
  5
3EB
100
AcDbEntity
  8
0
100
AcDbEllipse
 62
7
  6
CONTINUOUS
 10
210.1324688734
 20
266.302143873
 30
0.0
 11
0.0
 21
136.3401492307
 31
0.0
 40
0.3263895503
 41
-1.643895117
 42
-1.6382632172
  0
ELLIPSE
  5
3EC
100
AcDbEntity
  8
0
100
AcDbEllipse
 62
7
  6
CONTINUOUS
 10
210.1324688734
 20
248.6851633963
 30
0.0
 11
0.0
 21
136.3401492307
 31
0.0
 40
0.3263895503
 41
-1.5033294364
 42
-1.4976975366
  0
ELLIPSE
  5
3ED
100
AcDbEntity
  8
0
100
AcDbEllipse
 62
7
  6
CONTINUOUS
 10
210.1324688734
 20
240.5681194256
 30
0.0
 11
0.0
 21
119.2978811442
 31
0.0
 40
0.3730158455
 41
-1.384324278
 42
-1.3383722625
  0
ENDSEC
  0
SECTION
  2
OBJECTS
  0
DICTIONARY
  5
C
100
AcDbDictionary
280
0
281
1
  3
ACAD_GROUP
350
D
  3
ACAD_MLINESTYLE
350
17
  3
ACAD_LAYOUT
350
1A
  3
ACAD_PLOTSETTINGS
350
19
  3
ACAD_PLOTSTYLENAME
350
E
  0
DICTIONARY
  5
D
102
{ACAD_REACTORS
330
C
102
}
100
AcDbDictionary
280
0
281
1
  0
ACDBDICTIONARYWDFLT
  5
E
102
{ACAD_REACTORS
330
C
102
}
100
AcDbDictionary
281
1
  3
Normal
350
F
100
AcDbDictionaryWithDefault
340
F
  0
DICTIONARY
  5
17
102
{ACAD_REACTORS
330
C
102
}
100
AcDbDictionary
280
0
281
1
  3
Standard
350
18
  0
DICTIONARY
  5
19
102
{ACAD_REACTORS
330
C
102
}
100
AcDbDictionary
281
1
  0
DICTIONARY
  5
1A
102
{ACAD_REACTORS
330
C
102
}
100
AcDbDictionary
281
1
  3
Model
350
3EE
  3
Layout1
350
3EF
  0
ACDBPLACEHOLDER
  5
F
102
{ACAD_REACTORS
330
E
102
}
  0
MLINESTYLE
  5
18
102
{ACAD_REACTORS
330
17
102
}
100
AcDbMlineStyle
  2
STANDARD
 70
0
  3

 62
256
 51
90.0
 52
90.0
 71
2
 49
0.5
 62
256
  6
BYLAYER
 49
-0.5
 62
256
  6
BYLAYER
  0
LAYOUT
  5
3EE
102
{ACAD_REACTORS
330
1A
102
}
100
AcDbPlotSettings
  1

  2
none_device
  4
ISO_A2_(594.00_x_420.00_MM)
  6

 40
0.0
 41
0.0
 42
0.0
 43
0.0
 44
594.0
 45
420.0
 46
0.0
 47
0.0
 48
0.0
 49
0.0
140
0.0
141
0.0
142
1.0
143
1.0
 70
1024
 72
1
 73
0
 74
0
  7

 75
0
147
1.0
148
0.0
149
0.0
100
AcDbLayout
  1
Model
 70
0
 71
0
 10
0.0
 20
0.0
 11
594.0
 21
420.0
 12
0.0
 22
0.0
 32
0.0
 14
0.0
 24
0.0
 34
0.0
 15
0.0
 25
0.0
 35
0.0
146
0.0
 13
0.0
 23
0.0
 33
0.0
 16
1.0
 26
0.0
 36
0.0
 17
0.0
 27
1.0
 37
0.0
 76
0
330
20C
345
0
346
0
  0
LAYOUT
  5
3EF
102
{ACAD_REACTORS
330
1A
102
}
100
AcDbPlotSettings
  1

  2
none_device
  4
ISO_A2_(594.00_x_420.00_MM)
  6

 40
0.0
 41
0.0
 42
0.0
 43
0.0
 44
594.0
 45
420.0
 46
0.0
 47
0.0
 48
0.0
 49
0.0
140
0.0
141
0.0
142
1.0
143
1.0
 70
0
 72
1
 73
0
 74
0
  7

 75
0
147
1.0
148
0.0
149
0.0
100
AcDbLayout
  1
Layout1
 70
0
 71
1
 10
0.0
 20
0.0
 11
594.0
 21
420.0
 12
0.0
 22
0.0
 32
0.0
 14
0.0
 24
0.0
 34
0.0
 15
0.0
 25
0.0
 35
0.0
146
0.0
 13
0.0
 23
0.0
 33
0.0
 16
1.0
 26
0.0
 36
0.0
 17
0.0
 27
1.0
 37
0.0
 76
0
330
20D
345
0
346
0
  0
ENDSEC
  0
EOF
