999
DXF file: 001-m31395-p-40.dxf
999
Pro/ENGINEER 2011490 by Parametric Technology Corporation
  0
SECTION
  2
HEADER
  9
$ACADVER
  1
AC1015
  9
$DWGCODEPAGE
  3
ANSI_1252
  9
$EXTMAX
 10
594.0
 20
420.0
 30
0.0
  9
$EXTMIN
 10
0.0
 20
0.0
 30
0.0
  9
$LIMMIN
 10
0.0
 20
0.0
  9
$LIMMAX
 10
594.0
 20
420.0
  9
$VIEWCTR
 10
297.0
 20
210.0
  9
$VIEWSIZE
 40
420.0
  9
$CLAYER
  8
0
  9
$LTSCALE
 40
32.67
  9
$CELTYPE
  6
BYLAYER
  9
$DIMSCALE
 40
1.0
  9
$DIMASZ
 40
3.5
  9
$DIMEXO
 40
3.7125
  9
$DIMDLI
 40
22.572
  9
$DIMEXE
 40
10.692
  9
$DIMCEN
 40
5.346
  9
$DIMLFAC
 40
1.0
  9
$DIMBLK
  1
_FILLED
  9
$DIMTXT
 40
3.5
  9
$DIMTOL
 70
1
  9
$DIMLIM
 70
0
  9
$DIMTFAC
 40
1.0
  9
$DIMTP
 40
0.005
  9
$DIMTM
 40
0.005
  9
$PDMODE
 70
3
  9
$PDSIZE
 40
0.3125
  9
$HANDSEED
  5
3E4
  9
$TILEMODE
 70
1
  9
$MEASUREMENT
 70
1
  9
$INSUNITS
 70
4
  0
ENDSEC
  0
SECTION
  2
CLASSES
  0
CLASS
  1
ACDBDICTIONARYWDFLT
  2
AcDbDictionaryWithDefault
  3
AutoCAD 2000
 90
0
280
0
281
0
  0
CLASS
  1
ACDBPLACEHOLDER
  2
AcDbPlaceHolder
  3
AutoCAD 2000
 90
0
280
0
281
0
  0
CLASS
  1
LAYOUT
  2
AcDbLayout
  3
AutoCAD 2000
 90
0
280
0
281
0
  0
ENDSEC
  0
SECTION
  2
TABLES
  0
TABLE
  2
VPORT
  5
8
100
AcDbSymbolTable
 70
2
  0
VPORT
  5
1F4
100
AcDbSymbolTableRecord
100
AcDbViewportTableRecord
  2
*ACTIVE
 70
0
 10
0.0
 20
0.0
 11
1.0
 21
1.0
 12
297.0
 22
210.0
 13
0.0
 23
0.0
 14
1.0
 24
1.0
 15
0.0
 25
0.0
 16
0.0
 26
0.0
 36
1.0
 17
0.0
 27
0.0
 37
0.0
 40
420.0
 41
1.4142857143
 42
50.0
 43
0.0
 44
0.0
 50
0.0
 51
0.0
 71
0
 72
100
 73
1
 74
1
 75
0
 76
0
 77
0
 78
0
  0
ENDTAB
  0
TABLE
  2
LTYPE
  5
5
100
AcDbSymbolTable
 70
6
  0
LTYPE
  5
14
100
AcDbSymbolTableRecord
100
AcDbLinetypeTableRecord
  2
BYBLOCK
 70
0
  3

 72
65
 73
0
 40
0.0
  0
LTYPE
  5
15
100
AcDbSymbolTableRecord
100
AcDbLinetypeTableRecord
  2
BYLAYER
 70
0
  3

 72
65
 73
0
 40
0.0
  0
LTYPE
  5
16
100
AcDbSymbolTableRecord
100
AcDbLinetypeTableRecord
  2
CONTINUOUS
 70
64
  3
Solid line
 72
65
 73
0
 40
0.0
  0
LTYPE
  5
1F5
100
AcDbSymbolTableRecord
100
AcDbLinetypeTableRecord
  2
CENTER
 70
64
  3
____ _ ____ _ ____ _ ____ _ ____ _ ____ _ ____
 72
65
 73
4
 40
0.6
 49
0.375
 74
0
 49
-0.075
 74
0
 49
0.075
 74
0
 49
-0.075
 74
0
  0
LTYPE
  5
1F6
100
AcDbSymbolTableRecord
100
AcDbLinetypeTableRecord
  2
HIDDEN
 70
64
  3
- - - - - - - - - - - - - - - - - - - -
 72
65
 73
2
 40
0.2
 49
0.1
 74
0
 49
-0.1
 74
0
  0
LTYPE
  5
1F7
100
AcDbSymbolTableRecord
100
AcDbLinetypeTableRecord
  2
PHANTOM
 70
64
  3
_____ _ _ _____ _ _ _____ _ _ _____
 72
65
 73
6
 40
0.8
 49
0.45
 74
0
 49
-0.05
 74
0
 49
0.1
 74
0
 49
-0.05
 74
0
 49
0.1
 74
0
 49
-0.05
 74
0
  0
LTYPE
  5
1F8
100
AcDbSymbolTableRecord
100
AcDbLinetypeTableRecord
  2
DOT
 70
64
  3
. . . . . . . . . . . . . . . . . . . .
 72
65
 73
2
 40
0.2
 49
0.1
 74
0
 49
-0.1
 74
0
  0
LTYPE
  5
1F9
100
AcDbSymbolTableRecord
100
AcDbLinetypeTableRecord
  2
DASHED
 70
64
  3
- - - - - - - - - - - - - - - - - - - -
 72
65
 73
2
 40
0.2
 49
0.1
 74
0
 49
-0.1
 74
0
  0
ENDTAB
  0
TABLE
  2
LAYER
  5
2
100
AcDbSymbolTable
 70
36
  0
LAYER
  5
10
100
AcDbSymbolTableRecord
100
AcDbLayerTableRecord
  2
0
 70
0
 62
7
  6
CONTINUOUS
370
-3
390
F
  0
LAYER
  5
1FA
100
AcDbSymbolTableRecord
100
AcDbLayerTableRecord
  2
DEFAULT_1
 70
0
 62
7
  6
CENTER
370
-3
390
F
  0
LAYER
  5
1FB
100
AcDbSymbolTableRecord
100
AcDbLayerTableRecord
  2
DEFAULT_2
 70
0
 62
8
  6
HIDDEN
370
-3
390
F
  0
LAYER
  5
1FC
100
AcDbSymbolTableRecord
100
AcDbLayerTableRecord
  2
DEFAULT_3
 70
0
 62
7
  6
PHANTOM
370
-3
390
F
  0
LAYER
  5
1FD
100
AcDbSymbolTableRecord
100
AcDbLayerTableRecord
  2
AUSFORMSCHRAEGEN
 70
0
 62
7
  6
CONTINUOUS
370
-3
390
F
  0
LAYER
  5
1FE
100
AcDbSymbolTableRecord
100
AcDbLayerTableRecord
  2
BEZUGSACHSEN
 70
0
 62
7
  6
CONTINUOUS
370
-3
390
F
  0
LAYER
  5
1FF
100
AcDbSymbolTableRecord
100
AcDbLayerTableRecord
  2
BEZUGSEBENEN
 70
0
 62
7
  6
CONTINUOUS
370
-3
390
F
  0
LAYER
  5
200
100
AcDbSymbolTableRecord
100
AcDbLayerTableRecord
  2
BG_STARTBEZUEGE
 70
0
 62
7
  6
CONTINUOUS
370
-3
390
F
  0
LAYER
  5
201
100
AcDbSymbolTableRecord
100
AcDbLayerTableRecord
  2
FASEN
 70
0
 62
7
  6
CONTINUOUS
370
-3
390
F
  0
LAYER
  5
202
100
AcDbSymbolTableRecord
100
AcDbLayerTableRecord
  2
HILFEN
 70
0
 62
7
  6
CONTINUOUS
370
-3
390
F
  0
LAYER
  5
203
100
AcDbSymbolTableRecord
100
AcDbLayerTableRecord
  2
KONSTRUKTIONSELEMENTE
 70
0
 62
7
  6
CONTINUOUS
370
-3
390
F
  0
LAYER
  5
204
100
AcDbSymbolTableRecord
100
AcDbLayerTableRecord
  2
NORM
 70
0
 62
7
  6
CONTINUOUS
370
-3
390
F
  0
LAYER
  5
205
100
AcDbSymbolTableRecord
100
AcDbLayerTableRecord
  2
PLATZIERUNG
 70
0
 62
7
  6
CONTINUOUS
370
-3
390
F
  0
LAYER
  5
206
100
AcDbSymbolTableRecord
100
AcDbLayerTableRecord
  2
RUNDUNGEN
 70
0
 62
7
  6
CONTINUOUS
370
-3
390
F
  0
LAYER
  5
207
100
AcDbSymbolTableRecord
100
AcDbLayerTableRecord
  2
TEIL_STARTBEZUEGE
 70
0
 62
7
  6
CONTINUOUS
370
-3
390
F
  0
LAYER
  5
208
100
AcDbSymbolTableRecord
100
AcDbLayerTableRecord
  2
T_STARTBEZUEGE
 70
0
 62
7
  6
CONTINUOUS
370
-3
390
F
  0
LAYER
  5
209
100
AcDbSymbolTableRecord
100
AcDbLayerTableRecord
  2
ZEICHNUNGSBEMASSUNGEN
 70
0
 62
7
  6
CONTINUOUS
370
-3
390
F
  0
ENDTAB
  0
TABLE
  2
STYLE
  5
3
100
AcDbSymbolTable
 70
1
  0
STYLE
  5
11
100
AcDbSymbolTableRecord
100
AcDbTextStyleTableRecord
  2
STANDARD
 70
0
 40
0.0
 41
0.7
 50
0.0
 71
0
 42
0.2
  3
txt
  4

  0
STYLE
  5
20A
100
AcDbSymbolTableRecord
100
AcDbTextStyleTableRecord
  2
TEXTSTYLE_1
 70
0
 40
0.0
 41
0.8
 50
0.0
 71
0
 42
0.2
  3
gdt
  4

  0
ENDTAB
  0
TABLE
  2
VIEW
  5
6
100
AcDbSymbolTable
 70
0
  0
ENDTAB
  0
TABLE
  2
UCS
  5
7
100
AcDbSymbolTable
 70
0
  0
ENDTAB
  0
TABLE
  2
APPID
  5
9
100
AcDbSymbolTable
 70
1
  0
APPID
  5
20B
100
AcDbSymbolTableRecord
100
AcDbRegAppTableRecord
  2
ACAD
 70
0
  0
ENDTAB
  0
TABLE
  2
BLOCK_RECORD
  5
1
100
AcDbSymbolTable
 70
0
  0
BLOCK_RECORD
  5
20C
100
AcDbSymbolTableRecord
100
AcDbBlockTableRecord
  2
*Model_Space
  0
BLOCK_RECORD
  5
20D
100
AcDbSymbolTableRecord
100
AcDbBlockTableRecord
  2
*Paper_Space
  0
ENDTAB
  0
TABLE
  2
DIMSTYLE
  5
A
100
AcDbSymbolTable
 70
1
100
AcDbDimStyleTable
 71
0
  0
DIMSTYLE
105
20E
100
AcDbSymbolTableRecord
100
AcDbDimStyleTableRecord
  2
STANDARD
 70
0
  3

  4

 40
1.0
 41
3.5
 42
0.0625
 43
0.38
 44
0.18
 45
0.0
 46
0.0
 47
0.005
 48
0.005
140
3.5
141
0.09
142
0.0
143
25.4
144
1.0
145
0.0
146
1.0
147
0.09
 71
1.0
 72
0.0
 73
0
 74
0
 75
0
 76
0
 77
1
 78
8
170
0
171
2
172
0
173
0
174
0
175
0
176
0
177
0
178
5
270
2
271
3
272
3
273
2
274
2
275
0
280
0
281
0
282
0
283
1
284
8
285
0
286
0
287
3
288
0
340
11
  0
ENDTAB
  0
ENDSEC
  0
SECTION
  2
BLOCKS
  0
BLOCK
  5
20
100
AcDbEntity
  8
0
100
AcDbBlockBegin
  2
*Model_Space
 70
0
 10
0.0
 20
0.0
 30
0.0
  3
*Model_Space
  1

  0
ENDBLK
  5
21
100
AcDbEntity
  8
0
100
AcDbBlockEnd
  0
BLOCK
  5
1C
100
AcDbEntity
  8
0
100
AcDbBlockBegin
  2
*Paper_Space
 70
0
 10
0.0
 20
0.0
 30
0.0
  3
*Paper_Space
  1

  0
ENDBLK
  5
1D
100
AcDbEntity
  8
0
100
AcDbBlockEnd
  0
ENDSEC
  0
SECTION
  2
ENTITIES
  0
MTEXT
  5
20F
100
AcDbEntity
  8
0
100
AcDbMText
 62
5
  6
CONTINUOUS
  7
STANDARD
 71
2
 72
1
 10
197.0154791127
 20
105.5162679851
 30
0.0
 11
0.0
 21
1.0
 31
0.0
 44
0.9
  1
RUD WPP\PVIP-13 5t
 40
10.0
 41
63.8095238095
  0
MTEXT
  5
210
100
AcDbEntity
  8
0
100
AcDbMText
 62
5
  6
CONTINUOUS
  7
STANDARD
 71
2
 72
1
 10
373.4013367782
 20
255.6005746489
 30
0.0
 11
1.0
 21
0.0
 31
0.0
 44
0.9
  1
RUD\PWPP 5t
 40
10.0
 41
50.0
  0
LINE
  5
211
100
AcDbEntity
  8
0
100
AcDbLine
 62
7
  6
CONTINUOUS
 10
0.0
 20
0.0
 11
0.0
 21
420.0
  0
LINE
  5
212
100
AcDbEntity
  8
0
100
AcDbLine
 62
7
  6
CONTINUOUS
 10
0.0
 20
0.0
 11
594.0
 21
0.0
  0
LINE
  5
213
100
AcDbEntity
  8
0
100
AcDbLine
 62
7
  6
CONTINUOUS
 10
0.0
 20
420.0
 11
594.0
 21
420.0
  0
LINE
  5
214
100
AcDbEntity
  8
0
100
AcDbLine
 62
7
  6
CONTINUOUS
 10
594.0
 20
0.0
 11
594.0
 21
420.0
  0
LINE
  5
215
100
AcDbEntity
  8
FASEN
100
AcDbLine
 62
7
  6
CONTINUOUS
 10
164.2523522826
 20
204.417574961
 11
161.2523522826
 21
207.417574961
  0
LINE
  5
216
100
AcDbEntity
  8
FASEN
100
AcDbLine
 62
7
  6
CONTINUOUS
 10
253.2523522826
 20
204.417574961
 11
164.2523522826
 21
204.417574961
  0
LINE
  5
217
100
AcDbEntity
  8
FASEN
100
AcDbLine
 62
7
  6
CONTINUOUS
 10
256.2523522826
 20
207.417574961
 11
161.2523522826
 21
207.417574961
  0
LINE
  5
218
100
AcDbEntity
  8
FASEN
100
AcDbLine
 62
7
  6
CONTINUOUS
 10
161.2523522826
 20
220.917574961
 11
161.2523522826
 21
207.417574961
  0
LINE
  5
219
100
AcDbEntity
  8
0
100
AcDbLine
 62
7
  6
CONTINUOUS
 10
161.2523522826
 20
220.917574961
 11
161.2523522826
 21
207.417574961
  0
LINE
  5
21A
100
AcDbEntity
  8
0
100
AcDbLine
 62
7
  6
CONTINUOUS
 10
167.5023522826
 20
260.792574961
 11
167.5023522826
 21
221.417574961
  0
LINE
  5
21B
100
AcDbEntity
  8
FASEN
100
AcDbLine
 62
7
  6
CONTINUOUS
 10
161.2523522826
 20
220.917574961
 11
256.2523522826
 21
220.917574961
  0
LINE
  5
21C
100
AcDbEntity
  8
FASEN
100
AcDbLine
 62
7
  6
CONTINUOUS
 10
161.7523522826
 20
221.417574961
 11
255.7523522826
 21
221.417574961
  0
LINE
  5
21D
100
AcDbEntity
  8
0
100
AcDbLine
 62
7
  6
CONTINUOUS
 10
246.7729059346
 20
223.292574961
 11
247.494891887
 21
223.292574961
  0
LINE
  5
21E
100
AcDbEntity
  8
0
100
AcDbLine
 62
7
  6
CONTINUOUS
 10
249.303198066
 20
223.292574961
 11
249.7500179936
 21
223.292574961
  0
LINE
  5
21F
100
AcDbEntity
  8
0
100
AcDbLine
 62
7
  6
CONTINUOUS
 10
249.9930709354
 20
226.5478939901
 11
250.2431268596
 21
226.5478939901
  0
LINE
  5
220
100
AcDbEntity
  8
0
100
AcDbLine
 62
7
  6
CONTINUOUS
 10
250.1391991515
 20
227.3138516138
 11
249.7500179936
 21
227.3138516138
  0
LINE
  5
221
100
AcDbEntity
  8
0
100
AcDbLine
 62
7
  6
CONTINUOUS
 10
248.6271563574
 20
227.3138516138
 11
247.494891887
 21
227.3138516138
  0
LINE
  5
222
100
AcDbEntity
  8
0
100
AcDbLine
 62
7
  6
CONTINUOUS
 10
250.1979114353
 20
227.5053409527
 11
250.2431268596
 21
227.5053409527
  0
LINE
  5
223
100
AcDbEntity
  8
0
100
AcDbLine
 62
7
  6
CONTINUOUS
 10
250.1526466905
 20
228.4627876471
 11
249.7500179936
 21
228.4627876471
  0
LINE
  5
224
100
AcDbEntity
  8
0
100
AcDbLine
 62
7
  6
CONTINUOUS
 10
248.6807549517
 20
228.4627876471
 11
247.494891887
 21
228.4627876471
  0
LINE
  5
225
100
AcDbEntity
  8
0
100
AcDbLine
 62
7
  6
CONTINUOUS
 10
248.5769677378
 20
228.654276986
 11
248.8358588178
 21
228.654276986
  0
LINE
  5
226
100
AcDbEntity
  8
0
100
AcDbLine
 62
7
  6
CONTINUOUS
 10
249.9374812178
 20
228.654276986
 11
250.1878726173
 21
228.654276986
  0
LINE
  5
227
100
AcDbEntity
  8
0
100
AcDbLine
 62
7
  6
CONTINUOUS
 10
248.6763034273
 20
229.0372556637
 11
248.9345544995
 21
229.0372556637
  0
LINE
  5
228
100
AcDbEntity
  8
0
100
AcDbLine
 62
7
  6
CONTINUOUS
 10
249.9568252649
 20
229.0372556637
 11
250.2070998244
 21
229.0372556637
  0
LINE
  5
229
100
AcDbEntity
  8
0
100
AcDbLine
 62
7
  6
CONTINUOUS
 10
248.7245593784
 20
229.6117236803
 11
248.9825006804
 21
229.6117236803
  0
LINE
  5
22A
100
AcDbEntity
  8
0
100
AcDbLine
 62
7
  6
CONTINUOUS
 10
249.9652143678
 20
229.6117236803
 11
250.21543829
 21
229.6117236803
  0
LINE
  5
22B
100
AcDbEntity
  8
0
100
AcDbLine
 62
7
  6
CONTINUOUS
 10
248.7245593784
 20
230.1861922334
 11
248.9825006804
 21
230.1861922334
  0
LINE
  5
22C
100
AcDbEntity
  8
0
100
AcDbLine
 62
7
  6
CONTINUOUS
 10
249.9652143678
 20
230.1861922334
 11
250.21543829
 21
230.1861922334
  0
LINE
  5
22D
100
AcDbEntity
  8
0
100
AcDbLine
 62
7
  6
CONTINUOUS
 10
248.6763034273
 20
230.76066025
 11
248.9345544995
 21
230.76066025
  0
LINE
  5
22E
100
AcDbEntity
  8
0
100
AcDbLine
 62
7
  6
CONTINUOUS
 10
249.9568252649
 20
230.76066025
 11
250.2070998244
 21
230.76066025
  0
LINE
  5
22F
100
AcDbEntity
  8
0
100
AcDbLine
 62
7
  6
CONTINUOUS
 10
248.5769677378
 20
231.1436389278
 11
248.8358588178
 21
231.1436389278
  0
LINE
  5
230
100
AcDbEntity
  8
0
100
AcDbLine
 62
7
  6
CONTINUOUS
 10
249.9374812178
 20
231.1436389278
 11
250.1878726173
 21
231.1436389278
  0
LINE
  5
231
100
AcDbEntity
  8
0
100
AcDbLine
 62
7
  6
CONTINUOUS
 10
250.1526466905
 20
231.3351282667
 11
249.7500179936
 21
231.3351282667
  0
LINE
  5
232
100
AcDbEntity
  8
0
100
AcDbLine
 62
7
  6
CONTINUOUS
 10
248.6807549517
 20
231.3351282667
 11
247.494891887
 21
231.3351282667
  0
LINE
  5
233
100
AcDbEntity
  8
0
100
AcDbLine
 62
7
  6
CONTINUOUS
 10
246.7729059346
 20
232.292574961
 11
248.6271563574
 21
232.292574961
  0
LINE
  5
234
100
AcDbEntity
  8
0
100
AcDbLine
 62
7
  6
CONTINUOUS
 10
249.303198066
 20
232.292574961
 11
250.1391991515
 21
232.292574961
  0
LINE
  5
235
100
AcDbEntity
  8
0
100
AcDbLine
 62
7
  6
CONTINUOUS
 10
248.7718787666
 20
237.292574961
 11
249.292263173
 21
237.292574961
  0
LINE
  5
236
100
AcDbEntity
  8
0
100
AcDbLine
 62
7
  6
CONTINUOUS
 10
249.7892544836
 20
237.292574961
 11
250.2205253333
 21
237.292574961
  0
LINE
  5
237
100
AcDbEntity
  8
0
100
AcDbLine
 62
7
  6
CONTINUOUS
 10
250.1471744791
 20
237.4840643167
 11
250.2466572382
 21
237.4840643167
  0
LINE
  5
238
100
AcDbEntity
  8
0
100
AcDbLine
 62
7
  6
CONTINUOUS
 10
250.1362300806
 20
237.8670430447
 11
250.2523052188
 21
237.8670430447
  0
LINE
  5
239
100
AcDbEntity
  8
0
100
AcDbLine
 62
7
  6
CONTINUOUS
 10
250.1134085736
 20
238.6330004673
 11
250.2443978375
 21
238.6330004673
  0
LINE
  5
23A
100
AcDbEntity
  8
0
100
AcDbLine
 62
7
  6
CONTINUOUS
 10
250.0885076949
 20
239.3989579569
 11
250.2353589742
 21
239.3989579569
  0
LINE
  5
23B
100
AcDbEntity
  8
0
100
AcDbLine
 62
7
  6
CONTINUOUS
 10
250.0539955181
 20
240.3564046512
 11
250.2295674074
 21
240.3564046512
  0
LINE
  5
23C
100
AcDbEntity
  8
0
100
AcDbLine
 62
7
  6
CONTINUOUS
 10
249.8607740808
 20
241.3138516138
 11
249.292263173
 21
241.3138516138
  0
LINE
  5
23D
100
AcDbEntity
  8
0
100
AcDbLine
 62
7
  6
CONTINUOUS
 10
249.9109156911
 20
242.4627876471
 11
249.292263173
 21
242.4627876471
  0
LINE
  5
23E
100
AcDbEntity
  8
0
100
AcDbLine
 62
7
  6
CONTINUOUS
 10
249.727954759
 20
242.654276986
 11
249.9796187249
 21
242.654276986
  0
LINE
  5
23F
100
AcDbEntity
  8
0
100
AcDbLine
 62
7
  6
CONTINUOUS
 10
249.7696885564
 20
243.0372556637
 11
250.0210980232
 21
243.0372556637
  0
LINE
  5
240
100
AcDbEntity
  8
0
100
AcDbLine
 62
7
  6
CONTINUOUS
 10
249.7892544836
 20
243.6117236803
 11
250.0405448109
 21
243.6117236803
  0
LINE
  5
241
100
AcDbEntity
  8
0
100
AcDbLine
 62
7
  6
CONTINUOUS
 10
249.7892544836
 20
244.1861922334
 11
250.0405448109
 21
244.1861922334
  0
LINE
  5
242
100
AcDbEntity
  8
0
100
AcDbLine
 62
7
  6
CONTINUOUS
 10
189.7523522826
 20
281.5526958764
 11
189.7523522826
 21
287.912574961
  0
LINE
  5
243
100
AcDbEntity
  8
0
100
AcDbLine
 62
7
  6
CONTINUOUS
 10
189.7523522826
 20
290.3128049981
 11
189.7523522826
 21
297.8125747226
  0
LINE
  5
244
100
AcDbEntity
  8
RUNDUNGEN
100
AcDbLine
 62
7
  6
CONTINUOUS
 10
190.2523522826
 20
305.292574961
 11
190.2523522826
 21
268.7926112282
  0
LINE
  5
245
100
AcDbEntity
  8
0
100
AcDbLine
 62
7
  6
CONTINUOUS
 10
249.7696885564
 20
244.76066025
 11
250.0210980232
 21
244.76066025
  0
LINE
  5
246
100
AcDbEntity
  8
0
100
AcDbLine
 62
7
  6
CONTINUOUS
 10
249.727954759
 20
245.1436389278
 11
249.9796187249
 21
245.1436389278
  0
LINE
  5
247
100
AcDbEntity
  8
0
100
AcDbLine
 62
7
  6
CONTINUOUS
 10
249.9109156911
 20
245.3351282667
 11
249.292263173
 21
245.3351282667
  0
LINE
  5
248
100
AcDbEntity
  8
0
100
AcDbLine
 62
7
  6
CONTINUOUS
 10
248.7718787666
 20
246.292574961
 11
249.886279885
 21
246.292574961
  0
LINE
  5
249
100
AcDbEntity
  8
0
100
AcDbLine
 62
7
  6
CONTINUOUS
 10
249.9794292407
 20
246.292574961
 11
250.2515992659
 21
246.292574961
  0
LINE
  5
24A
100
AcDbEntity
  8
FASEN
100
AcDbLine
 62
7
  6
CONTINUOUS
 10
161.7523522827
 20
221.4175749611
 11
161.2523522827
 21
220.9175749611
  0
LINE
  5
24B
100
AcDbEntity
  8
RUNDUNGEN
100
AcDbLine
 62
7
  6
CONTINUOUS
 10
247.0023522826
 20
263.792574961
 11
232.2523514669
 21
263.792574961
  0
LINE
  5
24C
100
AcDbEntity
  8
RUNDUNGEN
100
AcDbLine
 62
7
  6
CONTINUOUS
 10
185.2523522826
 20
263.792574961
 11
170.5023522826
 21
263.792574961
  0
LINE
  5
24D
100
AcDbEntity
  8
FASEN
100
AcDbLine
 62
7
  6
CONTINUOUS
 10
255.7523522826
 20
221.4175749611
 11
256.2523522826
 21
220.9175749611
  0
LINE
  5
24E
100
AcDbEntity
  8
RUNDUNGEN
100
AcDbLine
 62
7
  6
CONTINUOUS
 10
227.2523522826
 20
268.7926437974
 11
227.2523522826
 21
305.292574961
  0
LINE
  5
24F
100
AcDbEntity
  8
0
100
AcDbLine
 62
7
  6
CONTINUOUS
 10
190.2523522826
 20
281.552574961
 11
189.7523522826
 21
281.552574961
  0
LINE
  5
250
100
AcDbEntity
  8
0
100
AcDbLine
 62
7
  6
CONTINUOUS
 10
190.2523522826
 20
281.8717355137
 11
189.7523522826
 21
281.8717355137
  0
LINE
  5
251
100
AcDbEntity
  8
0
100
AcDbLine
 62
7
  6
CONTINUOUS
 10
190.2523522826
 20
282.462574961
 11
189.7523522826
 21
282.462574961
  0
LINE
  5
252
100
AcDbEntity
  8
0
100
AcDbLine
 62
7
  6
CONTINUOUS
 10
190.2523522826
 20
282.8969992461
 11
189.7523522826
 21
282.8969992461
  0
LINE
  5
253
100
AcDbEntity
  8
0
100
AcDbLine
 62
7
  6
CONTINUOUS
 10
190.2523522826
 20
283.512574961
 11
189.7523522826
 21
283.512574961
  0
LINE
  5
254
100
AcDbEntity
  8
0
100
AcDbLine
 62
7
  6
CONTINUOUS
 10
190.2523522826
 20
287.912574961
 11
189.7523522826
 21
287.912574961
  0
LINE
  5
255
100
AcDbEntity
  8
0
100
AcDbLine
 62
7
  6
CONTINUOUS
 10
190.2523522826
 20
290.312574961
 11
189.7523522826
 21
290.312574961
  0
LINE
  5
256
100
AcDbEntity
  8
0
100
AcDbLine
 62
7
  6
CONTINUOUS
 10
190.2523522826
 20
294.712574961
 11
189.7523522826
 21
294.712574961
  0
LINE
  5
257
100
AcDbEntity
  8
0
100
AcDbLine
 62
7
  6
CONTINUOUS
 10
190.2523522826
 20
295.0625748418
 11
189.7523522826
 21
295.0625748418
  0
LINE
  5
258
100
AcDbEntity
  8
0
100
AcDbLine
 62
7
  6
CONTINUOUS
 10
190.2523522826
 20
296.062574961
 11
189.7523522826
 21
296.062574961
  0
LINE
  5
259
100
AcDbEntity
  8
0
100
AcDbLine
 62
7
  6
CONTINUOUS
 10
190.2523522826
 20
296.5625748418
 11
189.7523522826
 21
296.5625748418
  0
LINE
  5
25A
100
AcDbEntity
  8
0
100
AcDbLine
 62
7
  6
CONTINUOUS
 10
190.2523522826
 20
297.0625747226
 11
189.7523522826
 21
297.0625747226
  0
LINE
  5
25B
100
AcDbEntity
  8
0
100
AcDbLine
 62
7
  6
CONTINUOUS
 10
190.2523522826
 20
297.4375747226
 11
189.7523522826
 21
297.4375747226
  0
LINE
  5
25C
100
AcDbEntity
  8
0
100
AcDbLine
 62
7
  6
CONTINUOUS
 10
190.2523522826
 20
297.6875751994
 11
189.7523522826
 21
297.6875751994
  0
LINE
  5
25D
100
AcDbEntity
  8
0
100
AcDbLine
 62
7
  6
CONTINUOUS
 10
190.2523522826
 20
297.8125747226
 11
189.7523522826
 21
297.8125747226
  0
LINE
  5
25E
100
AcDbEntity
  8
0
100
AcDbLine
 62
7
  6
CONTINUOUS
 10
246.7729059346
 20
232.292574961
 11
246.7729059346
 21
223.292574961
  0
LINE
  5
25F
100
AcDbEntity
  8
0
100
AcDbLine
 62
7
  6
CONTINUOUS
 10
247.0439962797
 20
232.292574961
 11
247.0439962797
 21
223.292574961
  0
LINE
  5
260
100
AcDbEntity
  8
0
100
AcDbLine
 62
7
  6
CONTINUOUS
 10
247.494891887
 20
231.3351282667
 11
247.494891887
 21
228.4627876471
  0
LINE
  5
261
100
AcDbEntity
  8
0
100
AcDbLine
 62
7
  6
CONTINUOUS
 10
247.494891887
 20
227.3138516138
 11
247.494891887
 21
223.292574961
  0
LINE
  5
262
100
AcDbEntity
  8
0
100
AcDbLine
 62
7
  6
CONTINUOUS
 10
248.7245593784
 20
230.1861922334
 11
248.7245593784
 21
229.6117236803
  0
LINE
  5
263
100
AcDbEntity
  8
0
100
AcDbLine
 62
7
  6
CONTINUOUS
 10
248.7718787666
 20
246.292574961
 11
248.7718787666
 21
237.292574961
  0
LINE
  5
264
100
AcDbEntity
  8
0
100
AcDbLine
 62
7
  6
CONTINUOUS
 10
248.9825006804
 20
230.1861922334
 11
248.9825006804
 21
229.6117236803
  0
LINE
  5
265
100
AcDbEntity
  8
0
100
AcDbLine
 62
7
  6
CONTINUOUS
 10
249.0295170289
 20
246.292574961
 11
249.0295170289
 21
237.292574961
  0
LINE
  5
266
100
AcDbEntity
  8
0
100
AcDbLine
 62
7
  6
CONTINUOUS
 10
249.2507607762
 20
230.1861922334
 11
249.2507607762
 21
229.4202343415
  0
LINE
  5
267
100
AcDbEntity
  8
0
100
AcDbLine
 62
7
  6
CONTINUOUS
 10
249.292263173
 20
245.3351282667
 11
249.292263173
 21
242.4627876471
  0
LINE
  5
268
100
AcDbEntity
  8
0
100
AcDbLine
 62
7
  6
CONTINUOUS
 10
249.292263173
 20
241.3138516138
 11
249.292263173
 21
237.292574961
  0
LINE
  5
269
100
AcDbEntity
  8
0
100
AcDbLine
 62
7
  6
CONTINUOUS
 10
249.303198066
 20
232.292574961
 11
249.303198066
 21
223.292574961
  0
LINE
  5
26A
100
AcDbEntity
  8
0
100
AcDbLine
 62
7
  6
CONTINUOUS
 10
249.5574817855
 20
232.292574961
 11
249.5574817855
 21
223.292574961
  0
LINE
  5
26B
100
AcDbEntity
  8
0
100
AcDbLine
 62
7
  6
CONTINUOUS
 10
249.7500179936
 20
231.3351282667
 11
249.7500179936
 21
228.4627876471
  0
LINE
  5
26C
100
AcDbEntity
  8
0
100
AcDbLine
 62
7
  6
CONTINUOUS
 10
249.7500179936
 20
227.3138516138
 11
249.7500179936
 21
223.292574961
  0
LINE
  5
26D
100
AcDbEntity
  8
0
100
AcDbLine
 62
7
  6
CONTINUOUS
 10
249.7892544836
 20
244.1861922334
 11
249.7892544836
 21
243.6117236803
  0
LINE
  5
26E
100
AcDbEntity
  8
0
100
AcDbLine
 62
7
  6
CONTINUOUS
 10
249.9652143678
 20
230.1861922334
 11
249.9652143678
 21
229.6117236803
  0
LINE
  5
26F
100
AcDbEntity
  8
0
100
AcDbLine
 62
7
  6
CONTINUOUS
 10
249.9794292407
 20
246.292574961
 11
249.9794292407
 21
246.1395290872
  0
LINE
  5
270
100
AcDbEntity
  8
0
100
AcDbLine
 62
7
  6
CONTINUOUS
 10
250.0023522826
 20
260.792574961
 11
250.0023522826
 21
246.292574961
  0
LINE
  5
271
100
AcDbEntity
  8
0
100
AcDbLine
 62
7
  6
CONTINUOUS
 10
250.0023522826
 20
237.292574961
 11
250.0023522826
 21
232.292574961
  0
LINE
  5
272
100
AcDbEntity
  8
0
100
AcDbLine
 62
7
  6
CONTINUOUS
 10
250.0023522826
 20
227.3138516138
 11
250.0023522826
 21
221.417574961
  0
LINE
  5
273
100
AcDbEntity
  8
0
100
AcDbLine
 62
7
  6
CONTINUOUS
 10
250.0405448109
 20
244.1861922334
 11
250.0405448109
 21
243.6117236803
  0
LINE
  5
274
100
AcDbEntity
  8
0
100
AcDbLine
 62
7
  6
CONTINUOUS
 10
250.2523522678
 20
237.8351270878
 11
250.2523052188
 21
237.8670430447
  0
LINE
  5
275
100
AcDbEntity
  8
0
100
AcDbLine
 62
7
  6
CONTINUOUS
 10
250.1391991383
 20
244.1861922334
 11
250.1391991383
 21
243.4202343415
  0
LINE
  5
276
100
AcDbEntity
  8
0
100
AcDbLine
 62
7
  6
CONTINUOUS
 10
250.21543829
 20
230.1861922334
 11
250.21543829
 21
229.6117236803
  0
LINE
  5
277
100
AcDbEntity
  8
0
100
AcDbLine
 62
7
  6
CONTINUOUS
 10
250.2295674074
 20
246.292574961
 11
250.2295674074
 21
240.3564046512
  0
LINE
  5
278
100
AcDbEntity
  8
0
100
AcDbLine
 62
7
  6
CONTINUOUS
 10
250.2431268596
 20
227.5053409527
 11
250.2431268596
 21
226.5478939901
  0
LINE
  5
279
100
AcDbEntity
  8
0
100
AcDbLine
 62
7
  6
CONTINUOUS
 10
250.2476456958
 20
230.1861922334
 11
250.2476456958
 21
229.4202343415
  0
LINE
  5
27A
100
AcDbEntity
  8
0
100
AcDbLine
 62
7
  6
CONTINUOUS
 10
250.2515992659
 20
246.292574961
 11
250.2515992659
 21
240.3564046512
  0
LINE
  5
27B
100
AcDbEntity
  8
0
100
AcDbLine
 62
7
  6
CONTINUOUS
 10
250.2523052188
 20
239.5904472957
 11
250.2523522826
 21
238.6330004673
  0
LINE
  5
27C
100
AcDbEntity
  8
FASEN
100
AcDbLine
 62
7
  6
CONTINUOUS
 10
256.2523522826
 20
220.917574961
 11
256.2523522826
 21
207.417574961
  0
LINE
  5
27D
100
AcDbEntity
  8
0
100
AcDbLine
 62
7
  6
CONTINUOUS
 10
256.2523522826
 20
220.917574961
 11
256.2523522826
 21
207.417574961
  0
LINE
  5
27E
100
AcDbEntity
  8
FASEN
100
AcDbLine
 62
7
  6
CONTINUOUS
 10
253.2523522826
 20
204.417574961
 11
256.2523522826
 21
207.417574961
  0
LINE
  5
27F
100
AcDbEntity
  8
FASEN
100
AcDbLine
 62
7
  6
CONTINUOUS
 10
329.1408614771
 20
204.417574961
 11
326.1408614771
 21
207.417574961
  0
LINE
  5
280
100
AcDbEntity
  8
RUNDUNGEN
100
AcDbLine
 62
7
  6
CONTINUOUS
 10
347.969324561
 20
322.7209392432
 11
342.0927281477
 21
315.7174843554
  0
LINE
  5
281
100
AcDbEntity
  8
FASEN
100
AcDbLine
 62
7
  6
CONTINUOUS
 10
418.1406705211
 20
204.417574961
 11
329.141052433
 21
204.417574961
  0
LINE
  5
282
100
AcDbEntity
  8
FASEN
100
AcDbLine
 62
7
  6
CONTINUOUS
 10
421.1408614771
 20
207.417574961
 11
326.1408614771
 21
207.417574961
  0
LINE
  5
283
100
AcDbEntity
  8
0
100
AcDbLine
 62
7
  6
CONTINUOUS
 10
326.1408614771
 20
220.917574961
 11
326.1408614771
 21
207.417574961
  0
LINE
  5
284
100
AcDbEntity
  8
0
100
AcDbLine
 62
7
  6
CONTINUOUS
 10
332.3908614771
 20
279.9887273837
 11
332.3908614771
 21
221.417574961
  0
LINE
  5
285
100
AcDbEntity
  8
RUNDUNGEN
100
AcDbLine
 62
7
  6
CONTINUOUS
 10
332.7927852657
 20
281.4887273837
 11
340.9219503903
 21
295.5688544027
  0
LINE
  5
286
100
AcDbEntity
  8
0
100
AcDbLine
 62
7
  6
CONTINUOUS
 10
348.4644783918
 20
297.562574961
 11
347.9538401548
 21
297.0625747226
  0
LINE
  5
287
100
AcDbEntity
  8
0
100
AcDbLine
 62
7
  6
CONTINUOUS
 10
348.5921379511
 20
296.812574961
 11
348.9751166288
 21
297.0625747226
  0
LINE
  5
288
100
AcDbEntity
  8
0
100
AcDbLine
 62
7
  6
CONTINUOUS
 10
351.1453294937
 20
297.6875751994
 11
350.7623508159
 21
297.4375747226
  0
LINE
  5
289
100
AcDbEntity
  8
FASEN
100
AcDbLine
 62
7
  6
CONTINUOUS
 10
326.1408614771
 20
220.917574961
 11
421.1408614771
 21
220.917574961
  0
LINE
  5
28A
100
AcDbEntity
  8
FASEN
100
AcDbLine
 62
7
  6
CONTINUOUS
 10
326.6410631571
 20
221.417574961
 11
420.640659797
 21
221.417574961
  0
LINE
  5
28B
100
AcDbEntity
  8
0
100
AcDbLine
 62
7
  6
CONTINUOUS
 10
347.9538401548
 20
297.0625747226
 11
347.6985210363
 21
296.5625748418
  0
LINE
  5
28C
100
AcDbEntity
  8
0
100
AcDbLine
 62
7
  6
CONTINUOUS
 10
348.3368188326
 20
296.437574961
 11
348.5921379511
 21
296.812574961
  0
LINE
  5
28D
100
AcDbEntity
  8
0
100
AcDbLine
 62
7
  6
CONTINUOUS
 10
350.8900103752
 20
296.5625748418
 11
351.1453294937
 21
296.9375751994
  0
LINE
  5
28E
100
AcDbEntity
  8
0
100
AcDbLine
 62
7
  6
CONTINUOUS
 10
347.5240566576
 20
287.602574961
 11
347.0556652331
 21
287.0823735832
  0
LINE
  5
28F
100
AcDbEntity
  8
0
100
AcDbLine
 62
7
  6
CONTINUOUS
 10
352.6772444729
 20
294.3125748418
 11
352.421925265
 21
294.0625750802
  0
LINE
  5
290
100
AcDbEntity
  8
0
100
AcDbLine
 62
7
  6
CONTINUOUS
 10
352.5495849137
 20
293.437574961
 11
352.9325635914
 21
293.6875749014
  0
LINE
  5
291
100
AcDbEntity
  8
0
100
AcDbLine
 62
7
  6
CONTINUOUS
 10
351.1453294937
 20
296.9375751994
 11
351.6559679095
 21
297.187574961
  0
LINE
  5
292
100
AcDbEntity
  8
0
100
AcDbLine
 62
7
  6
CONTINUOUS
 10
352.421925265
 20
294.0625750802
 11
352.1666061465
 21
293.9375748418
  0
LINE
  5
293
100
AcDbEntity
  8
RUNDUNGEN
100
AcDbLine
 62
7
  6
CONTINUOUS
 10
341.3908614771
 20
297.3188544027
 11
341.3908614771
 21
313.7891215264
  0
LINE
  5
294
100
AcDbEntity
  8
0
100
AcDbLine
 62
7
  6
CONTINUOUS
 10
347.6985210363
 20
296.5625748418
 11
347.5708614771
 21
295.687574961
  0
LINE
  5
295
100
AcDbEntity
  8
0
100
AcDbLine
 62
7
  6
CONTINUOUS
 10
348.2091592733
 20
295.8125748418
 11
348.3368188326
 21
296.437574961
  0
LINE
  5
296
100
AcDbEntity
  8
0
100
AcDbLine
 62
7
  6
CONTINUOUS
 10
350.7623508159
 20
297.4375747226
 11
350.5070316974
 21
296.812574961
  0
LINE
  5
297
100
AcDbEntity
  8
0
100
AcDbLine
 62
7
  6
CONTINUOUS
 10
352.8049040322
 20
294.562574961
 11
352.6772444729
 21
294.3125748418
  0
LINE
  5
298
100
AcDbEntity
  8
0
100
AcDbLine
 62
7
  6
CONTINUOUS
 10
353.1878827546
 20
294.0625750802
 11
353.4432019066
 21
294.562574961
  0
LINE
  5
299
100
AcDbEntity
  8
0
100
AcDbLine
 62
7
  6
CONTINUOUS
 10
352.9325635914
 20
293.6875749014
 11
353.1878827546
 21
294.0625750802
  0
LINE
  5
29A
100
AcDbEntity
  8
0
100
AcDbLine
 62
7
  6
CONTINUOUS
 10
352.1666061465
 20
293.3125749014
 11
352.5495849137
 21
293.437574961
  0
LINE
  5
29B
100
AcDbEntity
  8
0
100
AcDbLine
 62
7
  6
CONTINUOUS
 10
347.5708614771
 20
295.687574961
 11
347.5708614771
 21
295.4375748418
  0
LINE
  5
29C
100
AcDbEntity
  8
0
100
AcDbLine
 62
7
  6
CONTINUOUS
 10
347.5708614771
 20
292.312574961
 11
347.5708614771
 21
291.562574961
  0
LINE
  5
29D
100
AcDbEntity
  8
0
100
AcDbLine
 62
7
  6
CONTINUOUS
 10
348.2091592733
 20
295.312574961
 11
348.2091592733
 21
295.8125748418
  0
LINE
  5
29E
100
AcDbEntity
  8
0
100
AcDbLine
 62
7
  6
CONTINUOUS
 10
350.7623508159
 20
295.8125748418
 11
350.8900103752
 21
296.5625748418
  0
LINE
  5
29F
100
AcDbEntity
  8
0
100
AcDbLine
 62
7
  6
CONTINUOUS
 10
352.9325635914
 20
295.1875750802
 11
352.8049040322
 21
294.562574961
  0
LINE
  5
2A0
100
AcDbEntity
  8
0
100
AcDbLine
 62
7
  6
CONTINUOUS
 10
353.4432019066
 20
294.562574961
 11
353.5708614771
 21
295.0625748418
  0
LINE
  5
2A1
100
AcDbEntity
  8
0
100
AcDbLine
 62
7
  6
CONTINUOUS
 10
352.9521471329
 20
281.8717355137
 11
353.3476796683
 21
282.462574961
  0
LINE
  5
2A2
100
AcDbEntity
  8
RUNDUNGEN
100
AcDbLine
 62
7
  6
CONTINUOUS
 10
365.9828185993
 20
295.0817331266
 11
363.6039650638
 21
292.9398037825
  0
LINE
  5
2A3
100
AcDbEntity
  8
0
100
AcDbLine
 62
7
  6
CONTINUOUS
 10
348.9751166288
 20
293.437574961
 11
348.9751166288
 21
294.0625750802
  0
LINE
  5
2A4
100
AcDbEntity
  8
0
100
AcDbLine
 62
7
  6
CONTINUOUS
 10
350.2517125789
 20
295.8125748418
 11
350.2517125789
 21
295.312574961
  0
LINE
  5
2A5
100
AcDbEntity
  8
0
100
AcDbLine
 62
7
  6
CONTINUOUS
 10
350.7623508159
 20
295.312574961
 11
350.7623508159
 21
295.8125748418
  0
LINE
  5
2A6
100
AcDbEntity
  8
0
100
AcDbLine
 62
7
  6
CONTINUOUS
 10
352.1666061465
 20
293.9375748418
 11
352.1666061465
 21
293.3125749014
  0
LINE
  5
2A7
100
AcDbEntity
  8
0
100
AcDbLine
 62
7
  6
CONTINUOUS
 10
352.9325635914
 20
295.9375750802
 11
352.9325635914
 21
295.1875750802
  0
LINE
  5
2A8
100
AcDbEntity
  8
0
100
AcDbLine
 62
7
  6
CONTINUOUS
 10
353.5708614771
 20
291.562574961
 11
353.5708614771
 21
292.312574961
  0
LINE
  5
2A9
100
AcDbEntity
  8
0
100
AcDbLine
 62
7
  6
CONTINUOUS
 10
353.5708614771
 20
295.0625748418
 11
353.5708614771
 21
296.062574961
  0
LINE
  5
2AA
100
AcDbEntity
  8
0
100
AcDbLine
 62
7
  6
CONTINUOUS
 10
347.5708614771
 20
295.4375748418
 11
347.6985210363
 21
294.562574961
  0
LINE
  5
2AB
100
AcDbEntity
  8
0
100
AcDbLine
 62
7
  6
CONTINUOUS
 10
348.3368188326
 20
294.6875748418
 11
348.2091592733
 21
295.312574961
  0
LINE
  5
2AC
100
AcDbEntity
  8
0
100
AcDbLine
 62
7
  6
CONTINUOUS
 10
349.9963934604
 20
296.5625748418
 11
350.2517125789
 21
295.8125748418
  0
LINE
  5
2AD
100
AcDbEntity
  8
0
100
AcDbLine
 62
7
  6
CONTINUOUS
 10
353.5708614771
 20
296.062574961
 11
353.4432019066
 21
296.5625748418
  0
LINE
  5
2AE
100
AcDbEntity
  8
0
100
AcDbLine
 62
7
  6
CONTINUOUS
 10
352.8049040322
 20
296.5625748418
 11
352.9325635914
 21
295.9375750802
  0
LINE
  5
2AF
100
AcDbEntity
  8
RUNDUNGEN
100
AcDbLine
 62
7
  6
CONTINUOUS
 10
367.1408614771
 20
297.6827400158
 11
367.1408614771
 21
317.5055172308
  0
LINE
  5
2B0
100
AcDbEntity
  8
0
100
AcDbLine
 62
7
  6
CONTINUOUS
 10
347.6985210363
 20
294.562574961
 11
347.9538401548
 21
294.0625750802
  0
LINE
  5
2B1
100
AcDbEntity
  8
FASEN
100
AcDbLine
 62
7
  6
CONTINUOUS
 10
326.6408614771
 20
221.417574961
 11
326.1408614771
 21
220.917574961
  0
LINE
  5
2B2
100
AcDbEntity
  8
RUNDUNGEN
100
AcDbLine
 62
7
  6
CONTINUOUS
 10
403.8205317867
 20
263.792574961
 11
343.4611911674
 21
263.792574961
  0
LINE
  5
2B3
100
AcDbEntity
  8
0
100
AcDbLine
 62
7
  6
CONTINUOUS
 10
347.0556652331
 20
287.0823735832
 11
347.779616075
 21
286.4305253173
  0
LINE
  5
2B4
100
AcDbEntity
  8
0
100
AcDbLine
 62
7
  6
CONTINUOUS
 10
348.2681670425
 20
286.932574961
 11
347.5240566576
 21
287.602574961
  0
LINE
  5
2B5
100
AcDbEntity
  8
0
100
AcDbLine
 62
7
  6
CONTINUOUS
 10
348.5921379511
 20
294.3125748418
 11
348.3368188326
 21
294.6875748418
  0
LINE
  5
2B6
100
AcDbEntity
  8
0
100
AcDbLine
 62
7
  6
CONTINUOUS
 10
352.6772444729
 20
296.812574961
 11
352.8049040322
 21
296.5625748418
  0
LINE
  5
2B7
100
AcDbEntity
  8
0
100
AcDbLine
 62
7
  6
CONTINUOUS
 10
353.4432019066
 20
296.5625748418
 11
353.1878827546
 21
297.0625747226
  0
LINE
  5
2B8
100
AcDbEntity
  8
0
100
AcDbLine
 62
7
  6
CONTINUOUS
 10
353.3476796683
 20
282.462574961
 11
352.698744419
 21
282.8969992461
  0
LINE
  5
2B9
100
AcDbEntity
  8
0
100
AcDbLine
 62
7
  6
CONTINUOUS
 10
352.2430205398
 20
282.362574961
 11
352.9521471329
 21
281.8717355137
  0
LINE
  5
2BA
100
AcDbEntity
  8
0
100
AcDbLine
 62
7
  6
CONTINUOUS
 10
347.5708614771
 20
291.562574961
 11
348.4644783918
 21
290.812574961
  0
LINE
  5
2BB
100
AcDbEntity
  8
0
100
AcDbLine
 62
7
  6
CONTINUOUS
 10
349.4857552234
 20
290.812574961
 11
348.5921379511
 21
291.562574961
  0
LINE
  5
2BC
100
AcDbEntity
  8
0
100
AcDbLine
 62
7
  6
CONTINUOUS
 10
347.9538401548
 20
294.0625750802
 11
348.4644783918
 21
293.5625750206
  0
LINE
  5
2BD
100
AcDbEntity
  8
FASEN
100
AcDbLine
 62
7
  6
CONTINUOUS
 10
420.6408614771
 20
221.417574961
 11
421.1408614771
 21
220.917574961
  0
LINE
  5
2BE
100
AcDbEntity
  8
0
100
AcDbLine
 62
7
  6
CONTINUOUS
 10
350.5070316974
 20
296.812574961
 11
350.1240530197
 21
297.3125751994
  0
LINE
  5
2BF
100
AcDbEntity
  8
0
100
AcDbLine
 62
7
  6
CONTINUOUS
 10
353.1878827546
 20
297.0625747226
 11
352.9325635914
 21
297.4375747226
  0
LINE
  5
2C0
100
AcDbEntity
  8
RUNDUNGEN
100
AcDbLine
 62
7
  6
CONTINUOUS
 10
380.1408614771
 20
297.6827400158
 11
380.1408614771
 21
317.5055172308
  0
LINE
  5
2C1
100
AcDbEntity
  8
0
100
AcDbLine
 62
7
  6
CONTINUOUS
 10
349.7410743419
 20
296.812574961
 11
349.9963934604
 21
296.5625748418
  0
LINE
  5
2C2
100
AcDbEntity
  8
0
100
AcDbLine
 62
7
  6
CONTINUOUS
 10
352.421925265
 20
297.0625747226
 11
352.6772444729
 21
296.812574961
  0
LINE
  5
2C3
100
AcDbEntity
  8
0
100
AcDbLine
 62
7
  6
CONTINUOUS
 10
348.9751166288
 20
294.0625750802
 11
348.5921379511
 21
294.3125748418
  0
LINE
  5
2C4
100
AcDbEntity
  8
0
100
AcDbLine
 62
7
  6
CONTINUOUS
 10
350.1240530197
 20
297.3125751994
 11
349.7410743419
 21
297.562574961
  0
LINE
  5
2C5
100
AcDbEntity
  8
0
100
AcDbLine
 62
7
  6
CONTINUOUS
 10
349.2304361049
 20
297.0625747226
 11
349.7410743419
 21
296.812574961
  0
LINE
  5
2C6
100
AcDbEntity
  8
0
100
AcDbLine
 62
7
  6
CONTINUOUS
 10
352.1666061465
 20
297.187574961
 11
352.421925265
 21
297.0625747226
  0
LINE
  5
2C7
100
AcDbEntity
  8
0
100
AcDbLine
 62
7
  6
CONTINUOUS
 10
352.9325635914
 20
297.4375747226
 11
352.5495849137
 21
297.6875751994
  0
LINE
  5
2C8
100
AcDbEntity
  8
0
100
AcDbLine
 62
7
  6
CONTINUOUS
 10
397.8308614771
 20
293.912574961
 11
397.8308614771
 21
291.5795322043
  0
LINE
  5
2C9
100
AcDbEntity
  8
0
100
AcDbLine
 62
7
  6
CONTINUOUS
 10
399.0395299334
 20
291.5776160948
 11
399.0395299334
 21
293.912574961
  0
LINE
  5
2CA
100
AcDbEntity
  8
0
100
AcDbLine
 62
7
  6
CONTINUOUS
 10
402.4194796818
 20
287.912574961
 11
401.2108112255
 21
287.912574961
  0
LINE
  5
2CB
100
AcDbEntity
  8
0
100
AcDbLine
 62
7
  6
CONTINUOUS
 10
395.6682486413
 20
287.912574961
 11
394.459580185
 21
287.912574961
  0
LINE
  5
2CC
100
AcDbEntity
  8
0
100
AcDbLine
 62
7
  6
CONTINUOUS
 10
348.4644783918
 20
293.5625750206
 11
348.9751166288
 21
293.437574961
  0
LINE
  5
2CD
100
AcDbEntity
  8
0
100
AcDbLine
 62
7
  6
CONTINUOUS
 10
352.5495849137
 20
297.6875751994
 11
352.1666061465
 21
297.8125747226
  0
LINE
  5
2CE
100
AcDbEntity
  8
0
100
AcDbLine
 62
7
  6
CONTINUOUS
 10
402.4390168245
 20
287.464910363
 11
402.4194796818
 21
287.912574961
  0
LINE
  5
2CF
100
AcDbEntity
  8
0
100
AcDbLine
 62
7
  6
CONTINUOUS
 10
402.4390168245
 20
294.264910363
 11
402.4194796818
 21
294.712574961
  0
LINE
  5
2D0
100
AcDbEntity
  8
0
100
AcDbLine
 62
7
  6
CONTINUOUS
 10
348.4644783918
 20
290.812574961
 11
349.4857552234
 21
290.812574961
  0
LINE
  5
2D1
100
AcDbEntity
  8
0
100
AcDbLine
 62
7
  6
CONTINUOUS
 10
348.5921379511
 20
291.562574961
 11
353.5708614771
 21
291.562574961
  0
LINE
  5
2D2
100
AcDbEntity
  8
0
100
AcDbLine
 62
7
  6
CONTINUOUS
 10
353.5708614771
 20
292.312574961
 11
347.5708614771
 21
292.312574961
  0
LINE
  5
2D3
100
AcDbEntity
  8
0
100
AcDbLine
 62
7
  6
CONTINUOUS
 10
399.0395299334
 20
293.912574961
 11
397.8308614771
 21
293.912574961
  0
LINE
  5
2D4
100
AcDbEntity
  8
0
100
AcDbLine
 62
7
  6
CONTINUOUS
 10
402.4194796818
 20
294.712574961
 11
401.2108112255
 21
294.712574961
  0
LINE
  5
2D5
100
AcDbEntity
  8
0
100
AcDbLine
 62
7
  6
CONTINUOUS
 10
395.6682486413
 20
294.712574961
 11
394.459580185
 21
294.712574961
  0
LINE
  5
2D6
100
AcDbEntity
  8
0
100
AcDbLine
 62
7
  6
CONTINUOUS
 10
349.7410743419
 20
297.562574961
 11
349.2304361049
 21
297.6875751994
  0
LINE
  5
2D7
100
AcDbEntity
  8
RUNDUNGEN
100
AcDbLine
 62
7
  6
CONTINUOUS
 10
383.6777430832
 20
292.9398171148
 11
381.2989043548
 21
295.0817331266
  0
LINE
  5
2D8
100
AcDbEntity
  8
RUNDUNGEN
100
AcDbLine
 62
7
  6
CONTINUOUS
 10
405.8908614771
 20
313.7891215264
 11
405.8908614771
 21
297.3188544027
  0
LINE
  5
2D9
100
AcDbEntity
  8
0
100
AcDbLine
 62
7
  6
CONTINUOUS
 10
350.2517125789
 20
295.312574961
 11
350.7623508159
 21
295.312574961
  0
LINE
  5
2DA
100
AcDbEntity
  8
0
100
AcDbLine
 62
7
  6
CONTINUOUS
 10
348.9751166288
 20
297.0625747226
 11
349.2304361049
 21
297.0625747226
  0
LINE
  5
2DB
100
AcDbEntity
  8
0
100
AcDbLine
 62
7
  6
CONTINUOUS
 10
351.6559679095
 20
297.187574961
 11
352.1666061465
 21
297.187574961
  0
LINE
  5
2DC
100
AcDbEntity
  8
BEZUGSACHSEN
100
AcDbLine
 62
7
  6
CONTINUOUS
 10
367.1329334465
 20
297.417574961
 11
380.14878951
 21
297.417574961
  0
LINE
  5
2DD
100
AcDbEntity
  8
0
100
AcDbLine
 62
7
  6
CONTINUOUS
 10
349.2304361049
 20
297.6875751994
 11
348.9751166288
 21
297.6875751994
  0
LINE
  5
2DE
100
AcDbEntity
  8
0
100
AcDbLine
 62
7
  6
CONTINUOUS
 10
352.1666061465
 20
297.8125747226
 11
351.6559679095
 21
297.8125747226
  0
LINE
  5
2DF
100
AcDbEntity
  8
0
100
AcDbLine
 62
7
  6
CONTINUOUS
 10
414.8908614771
 20
279.9887273837
 11
414.8908614771
 21
221.417574961
  0
LINE
  5
2E0
100
AcDbEntity
  8
0
100
AcDbLine
 62
7
  6
CONTINUOUS
 10
351.6559679095
 20
297.8125747226
 11
351.1453294937
 21
297.6875751994
  0
LINE
  5
2E1
100
AcDbEntity
  8
0
100
AcDbLine
 62
7
  6
CONTINUOUS
 10
348.9751166288
 20
297.6875751994
 11
348.4644783918
 21
297.562574961
  0
LINE
  5
2E2
100
AcDbEntity
  8
RUNDUNGEN
100
AcDbLine
 62
7
  6
CONTINUOUS
 10
406.3597725638
 20
295.5688544027
 11
414.4889376884
 21
281.4887273837
  0
LINE
  5
2E3
100
AcDbEntity
  8
0
100
AcDbLine
 62
7
  6
CONTINUOUS
 10
421.1408614771
 20
220.917574961
 11
421.1408614771
 21
207.417574961
  0
LINE
  5
2E4
100
AcDbEntity
  8
BEZUGSACHSEN
100
AcDbLine
 62
7
  6
CONTINUOUS
 10
367.1408614771
 20
313.167574961
 11
380.1408614771
 21
313.167574961
  0
LINE
  5
2E5
100
AcDbEntity
  8
0
100
AcDbLine
 62
7
  6
CONTINUOUS
 10
350.265512071
 20
323.792574961
 11
357.9963736299
 21
323.792574961
  0
LINE
  5
2E6
100
AcDbEntity
  8
0
100
AcDbLine
 62
7
  6
CONTINUOUS
 10
389.1085697753
 20
323.792574961
 11
397.0154242191
 21
323.792574961
  0
LINE
  5
2E7
100
AcDbEntity
  8
RUNDUNGEN
100
AcDbLine
 62
7
  6
CONTINUOUS
 10
399.3123988408
 20
322.7209387097
 11
405.1889948064
 21
315.7174843554
  0
LINE
  5
2E8
100
AcDbEntity
  8
FASEN
100
AcDbLine
 62
7
  6
CONTINUOUS
 10
418.1408614771
 20
204.417574961
 11
421.1408614771
 21
207.417574961
  0
LINE
  5
2E9
100
AcDbEntity
  8
RUNDUNGEN
100
AcDbLine
 62
7
  6
CONTINUOUS
 10
193.2523522826
 20
73.1277768273
 11
224.2523522826
 21
73.1277768273
  0
LINE
  5
2EA
100
AcDbEntity
  8
0
100
AcDbLine
 62
7
  6
CONTINUOUS
 10
190.2523522826
 20
76.579108371
 11
189.7523522826
 21
76.579108371
  0
LINE
  5
2EB
100
AcDbEntity
  8
0
100
AcDbLine
 62
7
  6
CONTINUOUS
 10
190.2523522826
 20
76.5991586226
 11
189.7523522826
 21
76.5991586226
  0
LINE
  5
2EC
100
AcDbEntity
  8
0
100
AcDbLine
 62
7
  6
CONTINUOUS
 10
190.2523522826
 20
77.8078270789
 11
189.7523522826
 21
77.8078270789
  0
LINE
  5
2ED
100
AcDbEntity
  8
0
100
AcDbLine
 62
7
  6
CONTINUOUS
 10
190.2523522826
 20
79.979108371
 11
189.7523522826
 21
79.979108371
  0
LINE
  5
2EE
100
AcDbEntity
  8
0
100
AcDbLine
 62
7
  6
CONTINUOUS
 10
190.2523522826
 20
81.1877768273
 11
189.7523522826
 21
81.1877768273
  0
LINE
  5
2EF
100
AcDbEntity
  8
0
100
AcDbLine
 62
7
  6
CONTINUOUS
 10
190.2523522826
 20
83.3503896631
 11
189.7523522826
 21
83.3503896631
  0
LWPOLYLINE
  5
2F0
100
AcDbEntity
  8
RUNDUNGEN
100
AcDbPolyline
 62
7
  6
CONTINUOUS
 90
14
 70
0
 10
190.252348999
 20
120.7148089475
 10
190.2524859544
 20
120.6850880791
 10
190.2592828511
 20
120.5087166903
 10
190.2757305336
 20
120.3373901022
 10
190.3009450752
 20
120.1719273265
 10
190.3340118544
 20
120.0128373908
 10
190.3739776972
 20
119.860557598
 10
190.4199852501
 20
119.7150945036
 10
190.4709661657
 20
119.5770651937
 10
190.5260692672
 20
119.4463028431
 10
190.5841583276
 20
119.3232824016
 10
190.6444838547
 20
119.2075571605
 10
190.7060189951
 20
119.0992638364
 10
190.7717686182
 20
118.992128853
  0
LINE
  5
2F1
100
AcDbEntity
  8
0
100
AcDbLine
 62
7
  6
CONTINUOUS
 10
189.7523522826
 20
76.5793673722
 11
189.7523522826
 21
77.8078270789
  0
LINE
  5
2F2
100
AcDbEntity
  8
0
100
AcDbLine
 62
7
  6
CONTINUOUS
 10
189.7523522826
 20
77.8538563622
 11
189.7523522826
 21
84.5788493698
  0
LINE
  5
2F3
100
AcDbEntity
  8
0
100
AcDbLine
 62
7
  6
CONTINUOUS
 10
189.7523522826
 20
125.4477768273
 11
189.7523522826
 21
131.9629730712
  0
LINE
  5
2F4
100
AcDbEntity
  8
0
100
AcDbLine
 62
7
  6
CONTINUOUS
 10
190.2523522826
 20
134.6277768273
 11
190.2523522826
 21
121.0222646745
  0
LINE
  5
2F5
100
AcDbEntity
  8
0
100
AcDbLine
 62
7
  6
CONTINUOUS
 10
190.2523522826
 20
89.910068529
 11
190.2523522826
 21
76.1277768273
  0
LINE
  5
2F6
100
AcDbEntity
  8
RUNDUNGEN
100
AcDbLine
 62
7
  6
CONTINUOUS
 10
190.2523522826
 20
70.4090378582
 11
190.2523522826
 21
92.2153301422
  0
LINE
  5
2F7
100
AcDbEntity
  8
RUNDUNGEN
100
AcDbLine
 62
7
  6
CONTINUOUS
 10
190.2523522826
 20
118.5402234688
 11
190.2523522826
 21
140.3465130121
  0
LINE
  5
2F8
100
AcDbEntity
  8
0
100
AcDbLine
 62
7
  6
CONTINUOUS
 10
190.2523522826
 20
84.5590581194
 11
189.7523522826
 21
84.5590581194
  0
LINE
  5
2F9
100
AcDbEntity
  8
0
100
AcDbLine
 62
7
  6
CONTINUOUS
 10
190.2523522826
 20
84.579108371
 11
189.7523522826
 21
84.579108371
  0
LINE
  5
2FA
100
AcDbEntity
  8
0
100
AcDbLine
 62
7
  6
CONTINUOUS
 10
246.7729059346
 20
89.3777768273
 11
247.0439962797
 21
89.3777768273
  0
LWPOLYLINE
  5
2FB
100
AcDbEntity
  8
RUNDUNGEN
100
AcDbPolyline
 62
7
  6
CONTINUOUS
 90
11
 70
0
 10
190.6622106815
 20
91.6096495272
 10
190.5948164331
 20
91.4893306409
 10
190.5304385487
 20
91.3627001548
 10
190.4695425917
 20
91.2281087375
 10
190.4131343903
 20
91.0844690889
 10
190.3626523872
 20
90.9314081237
 10
190.3194937638
 20
90.7680136469
 10
190.2855089333
 20
90.5945022592
 10
190.2625175409
 20
90.4106785946
 10
190.2525842859
 20
90.2171983453
 10
190.2523464565
 20
90.1853402766
  0
LINE
  5
2FC
100
AcDbEntity
  8
0
100
AcDbLine
 62
7
  6
CONTINUOUS
 10
248.3669013776
 20
93.8777768273
 11
248.6271563574
 21
93.8777768273
  0
LINE
  5
2FD
100
AcDbEntity
  8
0
100
AcDbLine
 62
7
  6
CONTINUOUS
 10
248.6271074233
 20
94.8152770061
 11
248.8856750647
 21
94.8152770061
  0
LINE
  5
2FE
100
AcDbEntity
  8
0
100
AcDbLine
 62
7
  6
CONTINUOUS
 10
248.7718787666
 20
95.3777768273
 11
249.0295170289
 21
95.3777768273
  0
LINE
  5
2FF
100
AcDbEntity
  8
BEZUGSACHSEN
100
AcDbLine
 62
7
  6
CONTINUOUS
 10
200.8773522826
 20
111.8777768273
 11
200.8773522826
 21
98.8777768273
  0
LINE
  5
300
100
AcDbEntity
  8
RUNDUNGEN
100
AcDbLine
 62
7
  6
CONTINUOUS
 10
190.7319987623
 20
91.724557556
 11
190.6622106815
 21
91.6096495272
  0
LINE
  5
301
100
AcDbEntity
  8
RUNDUNGEN
100
AcDbLine
 62
7
  6
CONTINUOUS
 10
190.7450042609
 20
91.7450915408
 11
190.7319987623
 21
91.724557556
  0
LINE
  5
302
100
AcDbEntity
  8
RUNDUNGEN
100
AcDbLine
 62
7
  6
CONTINUOUS
 10
192.5643728938
 20
93.9837372155
 11
192.5636001892
 21
93.9825271987
  0
LINE
  5
303
100
AcDbEntity
  8
RUNDUNGEN
100
AcDbLine
 62
7
  6
CONTINUOUS
 10
192.5649622056
 20
93.9845267264
 11
192.4140040793
 21
93.7545497042
  0
LINE
  5
304
100
AcDbEntity
  8
RUNDUNGEN
100
AcDbLine
 62
7
  6
CONTINUOUS
 10
190.8705635444
 20
91.9276327416
 11
190.7448700448
 21
91.7448761868
  0
LWPOLYLINE
  5
305
100
AcDbEntity
  8
RUNDUNGEN
100
AcDbPolyline
 62
7
  6
CONTINUOUS
 90
6
 70
0
 10
192.4140040793
 20
93.7545497042
 10
192.1874969294
 20
93.4328287057
 10
191.9483903602
 20
93.1211928562
 10
191.6968305558
 20
92.8216655293
 10
191.4329629879
 20
92.5360214606
 10
191.1331534884
 20
92.2381762922
  0
LINE
  5
306
100
AcDbEntity
  8
RUNDUNGEN
100
AcDbLine
 62
7
  6
CONTINUOUS
 10
190.9966466054
 20
92.086858626
 11
190.8705635444
 21
91.9276327416
  0
LINE
  5
307
100
AcDbEntity
  8
RUNDUNGEN
100
AcDbLine
 62
7
  6
CONTINUOUS
 10
191.1331534884
 20
92.2381762922
 11
190.9966466054
 21
92.086858626
  0
LINE
  5
308
100
AcDbEntity
  8
RUNDUNGEN
100
AcDbLine
 62
7
  6
CONTINUOUS
 10
218.7523522826
 20
98.8777768273
 11
198.7523522826
 21
98.8777768273
  0
LINE
  5
309
100
AcDbEntity
  8
0
100
AcDbLine
 62
7
  6
CONTINUOUS
 10
249.6340413377
 20
99.8777768273
 11
249.886279885
 21
99.8777768273
  0
LINE
  5
30A
100
AcDbEntity
  8
0
100
AcDbLine
 62
7
  6
CONTINUOUS
 10
249.7492557679
 20
100.8152770061
 11
250.0007897728
 21
100.8152770061
  0
LWPOLYLINE
  5
30B
100
AcDbEntity
  8
RUNDUNGEN
100
AcDbPolyline
 62
7
  6
CONTINUOUS
 90
4
 70
0
 10
190.7720881116
 20
118.9916219978
 10
190.8389923028
 20
118.8906279676
 10
191.0300874157
 20
118.6395925415
 10
191.2660811544
 20
118.3862266965
  0
LINE
  5
30C
100
AcDbEntity
  8
RUNDUNGEN
100
AcDbLine
 62
7
  6
CONTINUOUS
 10
192.424001942
 20
116.9861850413
 11
192.5644462376
 21
116.7718430595
  0
LINE
  5
30D
100
AcDbEntity
  8
RUNDUNGEN
100
AcDbLine
 62
7
  6
CONTINUOUS
 10
192.5645202137
 20
116.7717240943
 11
192.5646080885
 21
116.7715863996
  0
LINE
  5
30E
100
AcDbEntity
  8
RUNDUNGEN
100
AcDbLine
 62
7
  6
CONTINUOUS
 10
190.7720881116
 20
118.9916219978
 11
190.7717662953
 21
118.9921274218
  0
LWPOLYLINE
  5
30F
100
AcDbEntity
  8
RUNDUNGEN
100
AcDbPolyline
 62
7
  6
CONTINUOUS
 90
5
 70
0
 10
193.1689318517
 20
94.6366084214
 10
192.9977697387
 20
94.4955431813
 10
192.8397824896
 20
94.3398688773
 10
192.6962124228
 20
94.1708103185
 10
192.5633597051
 20
93.9821499251
  0
LINE
  5
310
100
AcDbEntity
  8
RUNDUNGEN
100
AcDbLine
 62
7
  6
CONTINUOUS
 10
224.1527809855
 20
115.9935987854
 11
224.3357711005
 21
116.11894427
  0
LINE
  5
311
100
AcDbEntity
  8
RUNDUNGEN
100
AcDbLine
 62
7
  6
CONTINUOUS
 10
193.3519219986
 20
94.7619538863
 11
193.1689318517
 21
94.6366084214
  0
LINE
  5
312
100
AcDbEntity
  8
RUNDUNGEN
100
AcDbLine
 62
7
  6
CONTINUOUS
 10
224.1520120856
 20
115.9931199345
 11
224.1527138096
 21
115.9935562158
  0
LINE
  5
313
100
AcDbEntity
  8
0
100
AcDbLine
 62
7
  6
CONTINUOUS
 10
249.8257907039
 20
101.5652768273
 11
250.0768588586
 21
101.5652768273
  0
LINE
  5
314
100
AcDbEntity
  8
0
100
AcDbLine
 62
7
  6
CONTINUOUS
 10
249.8741226725
 20
102.1277768273
 11
250.124897527
 21
102.1277768273
  0
LINE
  5
315
100
AcDbEntity
  8
0
100
AcDbLine
 62
7
  6
CONTINUOUS
 10
249.8885114696
 20
102.3152766485
 11
250.1391991383
 21
102.3152766485
  0
LINE
  5
316
100
AcDbEntity
  8
0
100
AcDbLine
 62
7
  6
CONTINUOUS
 10
249.9020409331
 20
102.5027770061
 11
250.152646678
 21
102.5027770061
  0
LINE
  5
317
100
AcDbEntity
  8
0
100
AcDbLine
 62
7
  6
CONTINUOUS
 10
249.9475810534
 20
103.2527764697
 11
250.1979114353
 21
103.2527764697
  0
LINE
  5
318
100
AcDbEntity
  8
0
100
AcDbLine
 62
7
  6
CONTINUOUS
 10
249.9794292407
 20
104.0027766485
 11
250.2295674074
 21
104.0027766485
  0
LINE
  5
319
100
AcDbEntity
  8
0
100
AcDbLine
 62
7
  6
CONTINUOUS
 10
250.0015947021
 20
105.1277771849
 11
250.2515992659
 21
105.1277771849
  0
LINE
  5
31A
100
AcDbEntity
  8
0
100
AcDbLine
 62
7
  6
CONTINUOUS
 10
250.0023049336
 20
105.3152764697
 11
250.2523052188
 21
105.3152764697
  0
LINE
  5
31B
100
AcDbEntity
  8
0
100
AcDbLine
 62
7
  6
CONTINUOUS
 10
250.0011685508
 20
105.6902771849
 11
250.2511756819
 21
105.6902771849
  0
LINE
  5
31C
100
AcDbEntity
  8
RUNDUNGEN
100
AcDbLine
 62
7
  6
CONTINUOUS
 10
191.2663156635
 20
118.3859997303
 11
191.2661876799
 21
118.3861235895
  0
LWPOLYLINE
  5
31D
100
AcDbEntity
  8
RUNDUNGEN
100
AcDbPolyline
 62
7
  6
CONTINUOUS
 90
6
 70
0
 10
191.2663049791
 20
118.3859862378
 10
191.4706229239
 20
118.1804644554
 10
191.7264407925
 20
117.9000648273
 10
191.9707451073
 20
117.6063659133
 10
192.2033212036
 20
117.3011175274
 10
192.424001942
 20
116.9861850413
  0
LWPOLYLINE
  5
31E
100
AcDbEntity
  8
RUNDUNGEN
100
AcDbPolyline
 62
7
  6
CONTINUOUS
 90
3
 70
0
 10
226.2384309184
 20
118.3860516416
 10
226.3559993136
 20
118.5056782223
 10
226.48978158
 20
118.6578084755
  0
LWPOLYLINE
  5
31F
100
AcDbEntity
  8
RUNDUNGEN
100
AcDbPolyline
 62
7
  6
CONTINUOUS
 90
5
 70
0
 10
224.3357711005
 20
116.11894427
 10
224.5069331803
 20
116.2600095264
 10
224.6649203957
 20
116.4156838437
 10
224.8084904283
 20
116.5847424123
 10
224.9413421666
 20
116.7734013318
  0
LINE
  5
320
100
AcDbEntity
  8
RUNDUNGEN
100
AcDbLine
 62
7
  6
CONTINUOUS
 10
193.3526905783
 20
94.7624325379
 11
193.3519889979
 21
94.761996346
  0
LINE
  5
321
100
AcDbEntity
  8
0
100
AcDbLine
 62
7
  6
CONTINUOUS
 10
249.9930709278
 20
106.2527771849
 11
250.2431268521
 21
106.2527771849
  0
LINE
  5
322
100
AcDbEntity
  8
0
100
AcDbLine
 62
7
  6
CONTINUOUS
 10
249.9703322933
 20
107.0027764697
 11
250.2205253333
 21
107.0027764697
  0
LINE
  5
323
100
AcDbEntity
  8
0
100
AcDbLine
 62
7
  6
CONTINUOUS
 10
249.9339243143
 20
107.7527768273
 11
250.1843372097
 21
107.7527768273
  0
LINE
  5
324
100
AcDbEntity
  8
0
100
AcDbLine
 62
7
  6
CONTINUOUS
 10
249.8838107149
 20
108.5027771849
 11
250.1345268601
 21
108.5027771849
  0
LINE
  5
325
100
AcDbEntity
  8
0
100
AcDbLine
 62
7
  6
CONTINUOUS
 10
249.8372015718
 20
109.0652771849
 11
250.0882004185
 21
109.0652771849
  0
LINE
  5
326
100
AcDbEntity
  8
0
100
AcDbLine
 62
7
  6
CONTINUOUS
 10
249.8018174892
 20
109.4402768273
 11
250.0530313781
 21
109.4402768273
  0
LINE
  5
327
100
AcDbEntity
  8
0
100
AcDbLine
 62
7
  6
CONTINUOUS
 10
249.7828287234
 20
109.6277771849
 11
250.0341581656
 21
109.6277771849
  0
LWPOLYLINE
  5
328
100
AcDbEntity
  8
RUNDUNGEN
100
AcDbPolyline
 62
7
  6
CONTINUOUS
 90
6
 70
0
 10
226.3603034226
 20
92.2498200158
 10
226.0665912196
 20
92.5413241511
 10
225.8028440005
 20
92.827384998
 10
225.5513330368
 20
93.1274173146
 10
225.3122617156
 20
93.4395632695
 10
225.0857929508
 20
93.7618140413
  0
LINE
  5
329
100
AcDbEntity
  8
BEZUGSACHSEN
100
AcDbLine
 62
7
  6
CONTINUOUS
 10
216.6273522826
 20
111.8777768273
 11
216.6273522826
 21
98.8777768273
  0
LWPOLYLINE
  5
32A
100
AcDbEntity
  8
RUNDUNGEN
100
AcDbPolyline
 62
7
  6
CONTINUOUS
 90
13
 70
0
 10
226.732973002
 20
118.9921864298
 10
226.799611207
 20
119.1008305567
 10
226.861519967
 20
119.209941029
 10
226.9221570928
 20
119.3265256624
 10
226.9804847742
 20
119.4504460828
 10
227.035753566
 20
119.582167486
 10
227.0868022188
 20
119.7211866057
 10
227.1327812291
 20
119.867677598
 10
227.172610145
 20
120.0210248174
 10
227.2054172297
 20
120.1812093972
 10
227.2302470071
 20
120.3477685392
 10
227.2461788222
 20
120.5201855527
 10
227.2523582155
 20
120.7146319784
  0
LINE
  5
32B
100
AcDbEntity
  8
RUNDUNGEN
100
AcDbLine
 62
7
  6
CONTINUOUS
 10
226.7329706302
 20
118.992187927
 11
226.7328949133
 21
118.9920689411
  0
LINE
  5
32C
100
AcDbEntity
  8
RUNDUNGEN
100
AcDbLine
 62
7
  6
CONTINUOUS
 10
224.9403266814
 20
116.7718104559
 11
224.9411021262
 21
116.7730247545
  0
LINE
  5
32D
100
AcDbEntity
  8
RUNDUNGEN
100
AcDbLine
 62
7
  6
CONTINUOUS
 10
224.9397368495
 20
116.7710201097
 11
225.0855752256
 21
116.9934076552
  0
LINE
  5
32E
100
AcDbEntity
  8
RUNDUNGEN
100
AcDbLine
 62
7
  6
CONTINUOUS
 10
226.6138693198
 20
118.8175114215
 11
226.7328949133
 21
118.9920689411
  0
LWPOLYLINE
  5
32F
100
AcDbEntity
  8
RUNDUNGEN
100
AcDbPolyline
 62
7
  6
CONTINUOUS
 90
6
 70
0
 10
225.0855752256
 20
116.9934076552
 10
225.3062844058
 20
117.3078206292
 10
225.5388883238
 20
117.6125661712
 10
225.7832382454
 20
117.9057704809
 10
226.0391860413
 20
118.1857897929
 10
226.2383996208
 20
118.385996111
  0
LINE
  5
330
100
AcDbEntity
  8
RUNDUNGEN
100
AcDbLine
 62
7
  6
CONTINUOUS
 10
226.48978158
 20
118.6578084755
 11
226.6138693198
 21
118.8175114215
  0
LINE
  5
331
100
AcDbEntity
  8
0
100
AcDbLine
 62
7
  6
CONTINUOUS
 10
249.6506636311
 20
110.7527771849
 11
249.9028002894
 21
110.7527771849
  0
LINE
  5
332
100
AcDbEntity
  8
RUNDUNGEN
100
AcDbLine
 62
7
  6
CONTINUOUS
 10
198.7523522826
 20
111.8777768273
 11
218.7523522826
 21
111.8777768273
  0
LINE
  5
333
100
AcDbEntity
  8
0
100
AcDbLine
 62
7
  6
CONTINUOUS
 10
249.4254007914
 20
112.2527768273
 11
249.6789252518
 21
112.2527768273
  0
LWPOLYLINE
  5
334
100
AcDbEntity
  8
RUNDUNGEN
100
AcDbPolyline
 62
7
  6
CONTINUOUS
 90
3
 70
0
 10
226.6294183535
 20
91.9339933269
 10
226.5002867764
 20
92.0960211011
 10
226.3603034226
 20
92.2498200158
  0
LINE
  5
335
100
AcDbEntity
  8
RUNDUNGEN
100
AcDbLine
 62
7
  6
CONTINUOUS
 10
225.0857929508
 20
93.7618140413
 11
224.9402606795
 21
93.9837109556
  0
LWPOLYLINE
  5
336
100
AcDbEntity
  8
RUNDUNGEN
100
AcDbPolyline
 62
7
  6
CONTINUOUS
 90
3
 70
0
 10
226.7598280118
 20
91.7448934228
 10
226.7472584232
 20
91.7644610742
 10
226.6294183535
 20
91.9339933269
  0
LINE
  5
337
100
AcDbEntity
  8
RUNDUNGEN
100
AcDbLine
 62
7
  6
CONTINUOUS
 10
224.9401867119
 20
93.9838299063
 11
224.9400939587
 21
93.9839752455
  0
LWPOLYLINE
  5
338
100
AcDbEntity
  8
RUNDUNGEN
100
AcDbPolyline
 62
7
  6
CONTINUOUS
 90
3
 70
0
 10
226.840561306
 20
91.6129513852
 10
226.7715740485
 20
91.7263547945
 10
226.7596814617
 20
91.7451216144
  0
LINE
  5
339
100
AcDbEntity
  8
RUNDUNGEN
100
AcDbLine
 62
7
  6
CONTINUOUS
 10
226.9074155262
 20
91.493942734
 11
226.840561306
 21
91.6129513852
  0
LINE
  5
33A
100
AcDbEntity
  8
0
100
AcDbLine
 62
7
  6
CONTINUOUS
 10
248.4029749133
 20
116.7527768273
 11
248.6629946603
 21
116.7527768273
  0
LINE
  5
33B
100
AcDbEntity
  8
0
100
AcDbLine
 62
7
  6
CONTINUOUS
 10
248.1219449416
 20
117.6902775426
 11
248.3838085533
 21
117.6902775426
  0
LINE
  5
33C
100
AcDbEntity
  8
0
100
AcDbLine
 62
7
  6
CONTINUOUS
 10
247.8794987892
 20
118.4402768273
 11
248.1429741837
 21
118.4402768273
  0
LINE
  5
33D
100
AcDbEntity
  8
0
100
AcDbLine
 62
7
  6
CONTINUOUS
 10
247.6210718847
 20
119.190276112
 11
247.8862872178
 21
119.190276112
  0
LWPOLYLINE
  5
33E
100
AcDbEntity
  8
RUNDUNGEN
100
AcDbPolyline
 62
7
  6
CONTINUOUS
 90
10
 70
0
 10
227.252358378
 20
90.1851327295
 10
227.2519157313
 20
90.2298990581
 10
227.2411260239
 20
90.4223165165
 10
227.2174489752
 20
90.6051924134
 10
227.1829345723
 20
90.7777907739
 10
227.1394053887
 20
90.9402449589
 10
227.0887054545
 20
91.0923438792
 10
227.0322437835
 20
91.2349762254
 10
226.9714627629
 20
91.3685080419
 10
226.9074155262
 20
91.493942734
  0
LINE
  5
33F
100
AcDbEntity
  8
RUNDUNGEN
100
AcDbLine
 62
7
  6
CONTINUOUS
 10
227.2523508562
 20
90.1851316545
 11
227.2523527276
 21
90.182123804
  0
LINE
  5
340
100
AcDbEntity
  8
0
100
AcDbLine
 62
7
  6
CONTINUOUS
 10
247.4857660716
 20
119.5652768273
 11
247.7519015589
 21
119.5652768273
  0
LINE
  5
341
100
AcDbEntity
  8
0
100
AcDbLine
 62
7
  6
CONTINUOUS
 10
247.4165721191
 20
119.752776112
 11
247.6831806268
 21
119.752776112
  0
LINE
  5
342
100
AcDbEntity
  8
0
100
AcDbLine
 62
7
  6
CONTINUOUS
 10
247.2750725773
 20
120.1277775426
 11
247.5426536336
 21
120.1277775426
  0
LINE
  5
343
100
AcDbEntity
  8
0
100
AcDbLine
 62
7
  6
CONTINUOUS
 10
246.9029075367
 20
121.065276112
 11
247.1730806228
 21
121.065276112
  0
LINE
  5
344
100
AcDbEntity
  8
0
100
AcDbLine
 62
7
  6
CONTINUOUS
 10
245.9880878064
 20
123.1277768273
 11
246.2648502
 21
123.1277768273
  0
LINE
  5
345
100
AcDbEntity
  8
RUNDUNGEN
100
AcDbLine
 62
7
  6
CONTINUOUS
 10
227.2523522826
 20
70.4090407801
 11
227.2523522826
 21
92.2153068107
  0
LINE
  5
346
100
AcDbEntity
  8
RUNDUNGEN
100
AcDbLine
 62
7
  6
CONTINUOUS
 10
227.2523522826
 20
118.540246516
 11
227.2523522826
 21
140.3465162857
  0
LINE
  5
347
100
AcDbEntity
  8
0
100
AcDbLine
 62
7
  6
CONTINUOUS
 10
190.2523522826
 20
125.4477768273
 11
189.7523522826
 21
125.4477768273
  0
LINE
  5
348
100
AcDbEntity
  8
0
100
AcDbLine
 62
7
  6
CONTINUOUS
 10
190.2523522826
 20
125.5754363977
 11
189.7523522826
 21
125.5754363977
  0
LINE
  5
349
100
AcDbEntity
  8
0
100
AcDbLine
 62
7
  6
CONTINUOUS
 10
190.2523522826
 20
125.8307555498
 11
189.7523522826
 21
125.8307555498
  0
LINE
  5
34A
100
AcDbEntity
  8
0
100
AcDbLine
 62
7
  6
CONTINUOUS
 10
190.2523522826
 20
126.086074713
 11
189.7523522826
 21
126.086074713
  0
LINE
  5
34B
100
AcDbEntity
  8
0
100
AcDbLine
 62
7
  6
CONTINUOUS
 10
190.2523522826
 20
126.4690533907
 11
189.7523522826
 21
126.4690533907
  0
LINE
  5
34C
100
AcDbEntity
  8
0
100
AcDbLine
 62
7
  6
CONTINUOUS
 10
190.2523522826
 20
126.8520321579
 11
189.7523522826
 21
126.8520321579
  0
LINE
  5
34D
100
AcDbEntity
  8
0
100
AcDbLine
 62
7
  6
CONTINUOUS
 10
190.2523522826
 20
127.3626703949
 11
189.7523522826
 21
127.3626703949
  0
LINE
  5
34E
100
AcDbEntity
  8
0
100
AcDbLine
 62
7
  6
CONTINUOUS
 10
190.2523522826
 20
127.8733088107
 11
189.7523522826
 21
127.8733088107
  0
LINE
  5
34F
100
AcDbEntity
  8
0
100
AcDbLine
 62
7
  6
CONTINUOUS
 10
190.2523522826
 20
128.2562874884
 11
189.7523522826
 21
128.2562874884
  0
LINE
  5
350
100
AcDbEntity
  8
0
100
AcDbLine
 62
7
  6
CONTINUOUS
 10
190.2523522826
 20
128.5116066069
 11
189.7523522826
 21
128.5116066069
  0
LINE
  5
351
100
AcDbEntity
  8
0
100
AcDbLine
 62
7
  6
CONTINUOUS
 10
190.2523522826
 20
128.8945852847
 11
189.7523522826
 21
128.8945852847
  0
LINE
  5
352
100
AcDbEntity
  8
0
100
AcDbLine
 62
7
  6
CONTINUOUS
 10
190.2523522826
 20
129.2775639624
 11
189.7523522826
 21
129.2775639624
  0
LINE
  5
353
100
AcDbEntity
  8
0
100
AcDbLine
 62
7
  6
CONTINUOUS
 10
190.2523522826
 20
129.7882021994
 11
189.7523522826
 21
129.7882021994
  0
LINE
  5
354
100
AcDbEntity
  8
0
100
AcDbLine
 62
7
  6
CONTINUOUS
 10
190.2523522826
 20
130.0435216756
 11
189.7523522826
 21
130.0435216756
  0
LINE
  5
355
100
AcDbEntity
  8
0
100
AcDbLine
 62
7
  6
CONTINUOUS
 10
190.2523522826
 20
130.5541599126
 11
189.7523522826
 21
130.5541599126
  0
LINE
  5
356
100
AcDbEntity
  8
0
100
AcDbLine
 62
7
  6
CONTINUOUS
 10
190.2523522826
 20
131.0647981496
 11
189.7523522826
 21
131.0647981496
  0
LINE
  5
357
100
AcDbEntity
  8
0
100
AcDbLine
 62
7
  6
CONTINUOUS
 10
190.2523522826
 20
131.3201172681
 11
189.7523522826
 21
131.3201172681
  0
LINE
  5
358
100
AcDbEntity
  8
0
100
AcDbLine
 62
7
  6
CONTINUOUS
 10
190.2523522826
 20
131.4477768273
 11
189.7523522826
 21
131.4477768273
  0
LINE
  5
359
100
AcDbEntity
  8
0
100
AcDbLine
 62
7
  6
CONTINUOUS
 10
190.2523522826
 20
131.4945816468
 11
189.7523522826
 21
131.4945816468
  0
LINE
  5
35A
100
AcDbEntity
  8
0
100
AcDbLine
 62
7
  6
CONTINUOUS
 10
190.2523522826
 20
131.9629730712
 11
189.7523522826
 21
131.9629730712
  0
LINE
  5
35B
100
AcDbEntity
  8
RUNDUNGEN
100
AcDbLine
 62
7
  6
CONTINUOUS
 10
193.2523522826
 20
137.6277768273
 11
224.2523522826
 21
137.6277768273
  0
ARC
  5
35C
100
AcDbEntity
  8
RUNDUNGEN
100
AcDbCircle
 62
7
  6
CONTINUOUS
 10
208.7523522826
 20
305.292574961
 40
18.5
100
AcDbArc
 50
0.0
 51
180.0
  0
ARC
  5
35D
100
AcDbEntity
  8
RUNDUNGEN
100
AcDbCircle
 62
7
  6
CONTINUOUS
 10
232.2523522826
 20
268.792574961
 40
5.0
100
AcDbArc
 50
179.9992111928
 51
269.9999906522
  0
ARC
  5
35E
100
AcDbEntity
  8
RUNDUNGEN
100
AcDbCircle
 62
7
  6
CONTINUOUS
 10
185.2523522826
 20
268.792574961
 40
5.0
100
AcDbArc
 50
270.0000182634
 51
0.0004155909
  0
ARC
  5
35F
100
AcDbEntity
  8
RUNDUNGEN
100
AcDbCircle
 62
7
  6
CONTINUOUS
 10
170.5023522826
 20
260.792574961
 40
3.0
100
AcDbArc
 50
90.0
 51
180.0
  0
ARC
  5
360
100
AcDbEntity
  8
RUNDUNGEN
100
AcDbCircle
 62
7
  6
CONTINUOUS
 10
247.0023522826
 20
260.792574961
 40
3.0
100
AcDbArc
 50
0.0
 51
90.0
  0
ARC
  5
361
100
AcDbEntity
  8
RUNDUNGEN
100
AcDbCircle
 62
7
  6
CONTINUOUS
 10
363.6408614771
 20
297.6827400158
 40
3.5
100
AcDbArc
 50
311.9999995005
 51
360.0
  0
ARC
  5
362
100
AcDbEntity
  8
RUNDUNGEN
100
AcDbCircle
 62
7
  6
CONTINUOUS
 10
337.8908614771
 20
297.3188544027
 40
3.5
100
AcDbArc
 50
330.0
 51
360.0
  0
ARC
  5
363
100
AcDbEntity
  8
0
100
AcDbCircle
 62
7
  6
CONTINUOUS
 10
350.1808614771
 20
284.582574961
 40
3.03
100
AcDbArc
 50
142.4188403032
 51
312.889025844
  0
ARC
  5
364
100
AcDbEntity
  8
0
100
AcDbCircle
 62
7
  6
CONTINUOUS
 10
350.1808614771
 20
284.582574961
 40
3.03
100
AcDbArc
 50
326.2
 51
129.142574669
  0
ARC
  5
365
100
AcDbEntity
  8
RUNDUNGEN
100
AcDbCircle
 62
7
  6
CONTINUOUS
 10
335.3908638957
 20
279.9887315729
 40
3.0
100
AcDbArc
 50
150.0000923838
 51
180.0000800066
  0
CIRCLE
  5
366
100
AcDbEntity
  8
0
100
AcDbCircle
 62
7
  6
CONTINUOUS
 10
350.1808614771
 20
284.582574961
 40
2.12
  0
ARC
  5
367
100
AcDbEntity
  8
RUNDUNGEN
100
AcDbCircle
 62
7
  6
CONTINUOUS
 10
350.2674565059
 20
320.7925747642
 40
3.0
100
AcDbArc
 50
90.0000035158
 51
139.9999999996
  0
ARC
  5
368
100
AcDbEntity
  8
RUNDUNGEN
100
AcDbCircle
 62
7
  6
CONTINUOUS
 10
357.9963736299
 20
320.792574961
 40
3.0
100
AcDbArc
 50
51.2605754021
 51
90.0
  0
ARC
  5
369
100
AcDbEntity
  8
RUNDUNGEN
100
AcDbCircle
 62
7
  6
CONTINUOUS
 10
344.3908614771
 20
313.7891215264
 40
3.0
100
AcDbArc
 50
140.0
 51
180.0
  0
ARC
  5
36A
100
AcDbEntity
  8
RUNDUNGEN
100
AcDbCircle
 62
7
  6
CONTINUOUS
 10
364.6408614771
 20
317.5055172308
 40
2.5
100
AcDbArc
 50
0.0
 51
68.4479111128
  0
ARC
  5
36B
100
AcDbEntity
  8
RUNDUNGEN
100
AcDbCircle
 62
7
  6
CONTINUOUS
 10
373.6408614771
 20
281.792574961
 40
15.0
100
AcDbArc
 50
131.9996778175
 51
48.0003982897
  0
ARC
  5
36C
100
AcDbEntity
  8
0
100
AcDbCircle
 62
7
  6
CONTINUOUS
 10
398.4395299334
 20
294.312574961
 40
4.0
100
AcDbArc
 50
174.2608295227
 51
359.3171996582
  0
ARC
  5
36D
100
AcDbEntity
  8
0
100
AcDbCircle
 62
7
  6
CONTINUOUS
 10
398.4395299334
 20
287.512574961
 40
4.0
100
AcDbArc
 50
174.2608295227
 51
359.3171996582
  0
ARC
  5
36E
100
AcDbEntity
  8
RUNDUNGEN
100
AcDbCircle
 62
7
  6
CONTINUOUS
 10
383.6408614771
 20
297.6827400158
 40
3.5
100
AcDbArc
 50
180.0
 51
227.999999999
  0
ARC
  5
36F
100
AcDbEntity
  8
RUNDUNGEN
100
AcDbCircle
 62
7
  6
CONTINUOUS
 10
409.3908614771
 20
297.3188544027
 40
3.5
100
AcDbArc
 50
180.0
 51
210.0
  0
ARC
  5
370
100
AcDbEntity
  8
RUNDUNGEN
100
AcDbCircle
 62
7
  6
CONTINUOUS
 10
411.8908590816
 20
279.9887315328
 40
3.0
100
AcDbArc
 50
359.9999207584
 51
29.9999084996
  0
ARC
  5
371
100
AcDbEntity
  8
0
100
AcDbCircle
 62
7
  6
CONTINUOUS
 10
398.4395299334
 20
294.312574961
 40
2.8
100
AcDbArc
 50
282.3736251162
 51
8.2132107017
  0
ARC
  5
372
100
AcDbEntity
  8
0
100
AcDbCircle
 62
7
  6
CONTINUOUS
 10
398.4395299334
 20
294.312574961
 40
2.8
100
AcDbArc
 50
171.7867892983
 51
257.4447123387
  0
ARC
  5
373
100
AcDbEntity
  8
0
100
AcDbCircle
 62
7
  6
CONTINUOUS
 10
398.4395299334
 20
287.512574961
 40
2.8
100
AcDbArc
 50
171.7867892983
 51
8.2132107017
  0
ARC
  5
374
100
AcDbEntity
  8
0
100
AcDbCircle
 62
7
  6
CONTINUOUS
 10
373.6408614771
 20
340.292574961
 40
22.0
100
AcDbArc
 50
291.5520888872
 51
309.1486876423
  0
ARC
  5
375
100
AcDbEntity
  8
0
100
AcDbCircle
 62
7
  6
CONTINUOUS
 10
373.6408614771
 20
340.292574961
 40
22.0
100
AcDbArc
 50
231.2605754021
 51
248.4479111128
  0
ARC
  5
376
100
AcDbEntity
  8
RUNDUNGEN
100
AcDbCircle
 62
7
  6
CONTINUOUS
 10
397.0142663448
 20
320.7925748874
 40
3.0
100
AcDbArc
 50
40.0000000001
 51
89.9999986847
  0
ARC
  5
377
100
AcDbEntity
  8
RUNDUNGEN
100
AcDbCircle
 62
7
  6
CONTINUOUS
 10
402.8908614771
 20
313.7891215264
 40
3.0
100
AcDbArc
 50
0.0
 51
40.0
  0
ARC
  5
378
100
AcDbEntity
  8
RUNDUNGEN
100
AcDbCircle
 62
7
  6
CONTINUOUS
 10
382.6408614771
 20
317.5055172308
 40
2.5
100
AcDbArc
 50
111.5520888872
 51
180.0
  0
ARC
  5
379
100
AcDbEntity
  8
RUNDUNGEN
100
AcDbCircle
 62
7
  6
CONTINUOUS
 10
389.1085697753
 20
321.292574961
 40
2.5
100
AcDbArc
 50
90.0
 51
129.1486876423
  0
ARC
  5
37A
100
AcDbEntity
  8
RUNDUNGEN
100
AcDbCircle
 62
7
  6
CONTINUOUS
 10
193.2523522826
 20
76.1277768273
 40
3.0
100
AcDbArc
 50
180.0
 51
270.0
  0
ARC
  5
37B
100
AcDbEntity
  8
RUNDUNGEN
100
AcDbCircle
 62
7
  6
CONTINUOUS
 10
193.2523522826
 20
70.4090407907
 40
3.0
100
AcDbArc
 50
180.0000449366
 51
246.0943170742
  0
ARC
  5
37C
100
AcDbEntity
  8
RUNDUNGEN
100
AcDbCircle
 62
7
  6
CONTINUOUS
 10
198.7523522826
 20
96.3777768273
 40
2.5
100
AcDbArc
 50
90.0
 51
143.1303313437
  0
ARC
  5
37D
100
AcDbEntity
  8
RUNDUNGEN
100
AcDbCircle
 62
7
  6
CONTINUOUS
 10
192.7523522826
 20
89.910068529
 40
2.5
100
AcDbArc
 50
140.8513123577
 51
180.0
  0
ARC
  5
37E
100
AcDbEntity
  8
RUNDUNGEN
100
AcDbCircle
 62
7
  6
CONTINUOUS
 10
194.6850441913
 20
92.6470107219
 40
2.4999999924
100
AcDbArc
 50
121.9275133047
 51
148.6930131171
  0
ARC
  5
37F
100
AcDbEntity
  8
0
100
AcDbCircle
 62
7
  6
CONTINUOUS
 10
173.7523522826
 20
105.3777768273
 40
22.0
100
AcDbArc
 50
320.8513123577
 51
328.6930277725
  0
ARC
  5
380
100
AcDbEntity
  8
0
100
AcDbCircle
 62
7
  6
CONTINUOUS
 10
173.7523522826
 20
105.3777768273
 40
22.0
100
AcDbArc
 50
31.3069722275
 51
38.7394245979
  0
ARC
  5
381
100
AcDbEntity
  8
RUNDUNGEN
100
AcDbCircle
 62
7
  6
CONTINUOUS
 10
173.7523522826
 20
105.3777768273
 40
22.0
100
AcDbArc
 50
320.8513123577
 51
328.6930277725
  0
ARC
  5
382
100
AcDbEntity
  8
RUNDUNGEN
100
AcDbCircle
 62
7
  6
CONTINUOUS
 10
173.7523522826
 20
105.3777768273
 40
22.0
100
AcDbArc
 50
31.3069722275
 51
38.7394245979
  0
ARC
  5
383
100
AcDbEntity
  8
RUNDUNGEN
100
AcDbCircle
 62
7
  6
CONTINUOUS
 10
186.7523522826
 20
105.3777768273
 40
12.5
100
AcDbArc
 50
36.8698882754
 51
58.1251784539
  0
ARC
  5
384
100
AcDbEntity
  8
RUNDUNGEN
100
AcDbCircle
 62
7
  6
CONTINUOUS
 10
186.7523522826
 20
105.3777768273
 40
12.5
100
AcDbArc
 50
301.8722481371
 51
323.1300565563
  0
ARC
  5
385
100
AcDbEntity
  8
RUNDUNGEN
100
AcDbCircle
 62
7
  6
CONTINUOUS
 10
193.2523522826
 20
121.0222646745
 40
3.0
100
AcDbArc
 50
180.0
 51
218.7394245979
  0
ARC
  5
386
100
AcDbEntity
  8
RUNDUNGEN
100
AcDbCircle
 62
7
  6
CONTINUOUS
 10
198.7523522826
 20
114.3777768273
 40
2.5
100
AcDbArc
 50
216.8698455564
 51
270.0
  0
ARC
  5
387
100
AcDbEntity
  8
RUNDUNGEN
100
AcDbCircle
 62
7
  6
CONTINUOUS
 10
194.6850445903
 20
118.1085424269
 40
2.5
100
AcDbArc
 50
211.3069722275
 51
238.0724728042
  0
ARC
  5
388
100
AcDbEntity
  8
RUNDUNGEN
100
AcDbCircle
 62
7
  6
CONTINUOUS
 10
194.6718743966
 20
118.1167393123
 40
2.4999998446
100
AcDbArc
 50
212.5502064668
 51
238.1317268081
  0
ARC
  5
389
100
AcDbEntity
  8
RUNDUNGEN
100
AcDbCircle
 62
7
  6
CONTINUOUS
 10
193.2523522826
 20
134.6277768273
 40
3.0
100
AcDbArc
 50
90.0
 51
180.0
  0
ARC
  5
38A
100
AcDbEntity
  8
RUNDUNGEN
100
AcDbCircle
 62
7
  6
CONTINUOUS
 10
193.2523522826
 20
140.3465128639
 40
3.0
100
AcDbArc
 50
113.9053769945
 51
179.9999971712
  0
ARC
  5
38B
100
AcDbEntity
  8
RUNDUNGEN
100
AcDbCircle
 62
7
  6
CONTINUOUS
 10
224.2523522826
 20
76.1277768273
 40
3.0
100
AcDbArc
 50
270.0
 51
360.0
  0
ARC
  5
38C
100
AcDbEntity
  8
RUNDUNGEN
100
AcDbCircle
 62
7
  6
CONTINUOUS
 10
224.2523522826
 20
70.4090407907
 40
3.0
100
AcDbArc
 50
293.9054283119
 51
359.9999997994
  0
ARC
  5
38D
100
AcDbEntity
  8
RUNDUNGEN
100
AcDbCircle
 62
7
  6
CONTINUOUS
 10
218.7523522826
 20
96.3777768273
 40
2.5
100
AcDbArc
 50
36.8699090534
 51
90.0
  0
ARC
  5
38E
100
AcDbEntity
  8
RUNDUNGEN
100
AcDbCircle
 62
7
  6
CONTINUOUS
 10
224.7523522826
 20
89.910068529
 40
2.5
100
AcDbArc
 50
0.0
 51
39.1486876423
  0
ARC
  5
38F
100
AcDbEntity
  8
RUNDUNGEN
100
AcDbCircle
 62
7
  6
CONTINUOUS
 10
222.8196599749
 20
92.6470112277
 40
2.5
100
AcDbArc
 50
31.3069722275
 51
58.0724728042
  0
ARC
  5
390
100
AcDbEntity
  8
RUNDUNGEN
100
AcDbCircle
 62
7
  6
CONTINUOUS
 10
222.8328344755
 20
92.6388117077
 40
2.4999998081
100
AcDbArc
 50
32.5504964493
 51
58.1317460926
  0
CIRCLE
  5
391
100
AcDbEntity
  8
FASEN
100
AcDbCircle
 62
7
  6
CONTINUOUS
 10
208.7523522826
 20
105.3777768273
 40
47.5
  0
CIRCLE
  5
392
100
AcDbEntity
  8
FASEN
100
AcDbCircle
 62
7
  6
CONTINUOUS
 10
208.7523522826
 20
105.3777768273
 40
47.0
  0
ARC
  5
393
100
AcDbEntity
  8
0
100
AcDbCircle
 62
7
  6
CONTINUOUS
 10
208.7523522826
 20
105.3777768273
 40
41.5
100
AcDbArc
 50
337.3225971215
 51
25.3223719953
  0
CIRCLE
  5
394
100
AcDbEntity
  8
RUNDUNGEN
100
AcDbCircle
 62
7
  6
CONTINUOUS
 10
208.7523522826
 20
105.3777768273
 40
41.25
  0
ARC
  5
395
100
AcDbEntity
  8
RUNDUNGEN
100
AcDbCircle
 62
7
  6
CONTINUOUS
 10
224.2523522826
 20
121.0222646745
 40
3.0
100
AcDbArc
 50
321.2605754021
 51
360.0
  0
ARC
  5
396
100
AcDbEntity
  8
RUNDUNGEN
100
AcDbCircle
 62
7
  6
CONTINUOUS
 10
218.7523522826
 20
114.3777768273
 40
2.5
100
AcDbArc
 50
270.0
 51
323.1304213557
  0
ARC
  5
397
100
AcDbEntity
  8
RUNDUNGEN
100
AcDbCircle
 62
7
  6
CONTINUOUS
 10
222.8196604205
 20
118.1085429936
 40
2.4999999916
100
AcDbArc
 50
301.9275116606
 51
328.6930113691
  0
ARC
  5
398
100
AcDbEntity
  8
RUNDUNGEN
100
AcDbCircle
 62
7
  6
CONTINUOUS
 10
224.2523522826
 20
140.3465128639
 40
3.0
100
AcDbArc
 50
0.0000517236
 51
66.0943149491
  0
ARC
  5
399
100
AcDbEntity
  8
RUNDUNGEN
100
AcDbCircle
 62
7
  6
CONTINUOUS
 10
224.2523522826
 20
134.6277768273
 40
3.0
100
AcDbArc
 50
0.0
 51
90.0
  0
ARC
  5
39A
100
AcDbEntity
  8
RUNDUNGEN
100
AcDbCircle
 62
7
  6
CONTINUOUS
 10
243.7523522826
 20
105.3777768273
 40
22.0
100
AcDbArc
 50
211.3069722275
 51
219.1486876423
  0
ARC
  5
39B
100
AcDbEntity
  8
RUNDUNGEN
100
AcDbCircle
 62
7
  6
CONTINUOUS
 10
243.7523522826
 20
105.3777768273
 40
22.0
100
AcDbArc
 50
141.2605754021
 51
148.6930277725
  0
ARC
  5
39C
100
AcDbEntity
  8
RUNDUNGEN
100
AcDbCircle
 62
7
  6
CONTINUOUS
 10
230.7523522826
 20
105.3777768273
 40
12.5
100
AcDbArc
 50
216.8698953643
 51
238.1275704689
  0
ARC
  5
39D
100
AcDbEntity
  8
RUNDUNGEN
100
AcDbCircle
 62
7
  6
CONTINUOUS
 10
230.7523522826
 20
105.3777768273
 40
12.5
100
AcDbArc
 50
121.8722583998
 51
143.1300385539
  0
ELLIPSE
  5
39E
100
AcDbEntity
  8
0
100
AcDbEllipse
 62
7
  6
CONTINUOUS
 10
208.7523522826
 20
231.3351229821
 30
0.0
 11
-0.0
 21
127.148678496
 31
0.0
 40
0.3263895503
 41
-1.590375891
 42
-1.5858571285
  0
ELLIPSE
  5
39F
100
AcDbEntity
  8
0
100
AcDbEllipse
 62
7
  6
CONTINUOUS
 10
208.7523522826
 20
229.9521491717
 30
0.0
 11
-0.0
 21
56.5106315613
 31
0.0
 40
0.7343750875
 41
-1.6039349219
 42
-1.590375891
  0
ELLIPSE
  5
3A0
100
AcDbEntity
  8
0
100
AcDbEllipse
 62
7
  6
CONTINUOUS
 10
208.7523522826
 20
229.132999831
 30
0.0
 11
41.5
 21
0.0
 31
0.0
 40
0.7659569903
 41
-0.0512272303
 42
-0.0331385951
  0
ELLIPSE
  5
3A1
100
AcDbEntity
  8
0
100
AcDbEllipse
 62
7
  6
CONTINUOUS
 10
208.7523522826
 20
227.9393836928
 30
0.0
 11
41.5
 21
0.0
 31
0.0
 40
0.2042553727
 41
-0.0738623235
 42
-0.0512272303
  0
ELLIPSE
  5
3A2
100
AcDbEntity
  8
0
100
AcDbEllipse
 62
7
  6
CONTINUOUS
 10
208.7523522826
 20
231.6670428821
 30
0.0
 11
41.5
 21
-0.0
 31
0.0
 40
0.2042553727
 41
0.0512272303
 42
0.0738623235
  0
ELLIPSE
  5
3A3
100
AcDbEntity
  8
0
100
AcDbEllipse
 62
7
  6
CONTINUOUS
 10
208.7523522826
 20
230.4734267439
 30
0.0
 11
41.5
 21
-0.0
 31
0.0
 40
0.7659569903
 41
0.0331385951
 42
0.0512272303
  0
ELLIPSE
  5
3A4
100
AcDbEntity
  8
0
100
AcDbEllipse
 62
7
  6
CONTINUOUS
 10
208.7523522826
 20
229.6542774032
 30
0.0
 11
-0.0
 21
56.5106315613
 31
0.0
 40
0.7343750875
 41
4.7319685446
 42
4.7455275755
  0
ELLIPSE
  5
3A5
100
AcDbEntity
  8
0
100
AcDbEllipse
 62
7
  6
CONTINUOUS
 10
208.7523522826
 20
228.2713035927
 30
0.0
 11
-0.0
 21
127.148678496
 31
0.0
 40
0.3263895503
 41
-1.5557355251
 42
-1.5512167626
  0
ELLIPSE
  5
3A6
100
AcDbEntity
  8
0
100
AcDbEllipse
 62
7
  6
CONTINUOUS
 10
208.7523522826
 20
257.1862155059
 30
0.0
 11
-0.0
 21
127.1490422717
 31
0.0
 40
0.3263886165
 41
-1.7955759824
 42
-1.7909437578
  0
ELLIPSE
  5
3A7
100
AcDbEntity
  8
0
100
AcDbEllipse
 62
7
  6
CONTINUOUS
 10
208.7523522826
 20
241.4415095042
 30
0.0
 11
0.0
 21
56.5106315613
 31
0.0
 40
0.7343750875
 41
-1.8095026013
 42
-1.7955759824
  0
ELLIPSE
  5
3A8
100
AcDbEntity
  8
0
100
AcDbEllipse
 62
7
  6
CONTINUOUS
 10
208.7523522826
 20
235.5957673121
 30
0.0
 11
41.5
 21
0.0
 31
0.0
 40
0.7659575381
 41
-0.257349327
 42
-0.2387062745
  0
ELLIPSE
  5
3A9
100
AcDbEntity
  8
0
100
AcDbEllipse
 62
7
  6
CONTINUOUS
 10
208.7523522826
 20
229.662787056
 30
0.0
 11
41.5
 21
-0.0
 31
0.0
 40
0.2042552558
 41
-0.2807833784
 42
-0.257349327
  0
ELLIPSE
  5
3AA
100
AcDbEntity
  8
0
100
AcDbEllipse
 62
7
  6
CONTINUOUS
 10
208.7523522826
 20
229.9436395189
 30
0.0
 11
41.5
 21
0.0
 31
0.0
 40
0.2042552558
 41
0.257349327
 42
0.2807833784
  0
ELLIPSE
  5
3AB
100
AcDbEntity
  8
0
100
AcDbEllipse
 62
7
  6
CONTINUOUS
 10
208.7523522826
 20
224.0106592627
 30
0.0
 11
41.5
 21
-0.0
 31
0.0
 40
0.7659575381
 41
0.2387062745
 42
0.257349327
  0
ELLIPSE
  5
3AC
100
AcDbEntity
  8
0
100
AcDbEllipse
 62
7
  6
CONTINUOUS
 10
208.7523522826
 20
218.1649170707
 30
0.0
 11
-0.0
 21
56.5106315613
 31
0.0
 40
0.7343750875
 41
-1.3460166712
 42
-1.3320900523
  0
ELLIPSE
  5
3AD
100
AcDbEntity
  8
0
100
AcDbEllipse
 62
7
  6
CONTINUOUS
 10
208.7523522826
 20
202.420211069
 30
0.0
 11
-0.0
 21
127.1490422717
 31
0.0
 40
0.3263886165
 41
-1.3506488958
 42
-1.3460166712
  0
ELLIPSE
  5
3AE
100
AcDbEntity
  8
0
100
AcDbEllipse
 62
7
  6
CONTINUOUS
 10
208.7523522826
 20
237.6244898977
 30
0.0
 11
41.5
 21
0.0
 31
0.0
 40
0.2042553906
 41
6.2440186763
 42
6.2666182843
  0
ELLIPSE
  5
3AF
100
AcDbEntity
  8
0
100
AcDbEllipse
 62
7
  6
CONTINUOUS
 10
208.7523522826
 20
237.8351279833
 30
0.0
 11
41.5
 21
-0.0
 31
0.0
 40
0.5106380606
 41
-0.0165670229
 42
-0.0000000423
  0
ELLIPSE
  5
3B0
100
AcDbEntity
  8
0
100
AcDbEllipse
 62
7
  6
CONTINUOUS
 10
208.7523522826
 20
239.3351257423
 30
0.0
 11
-0.0
 21
169.5325413992
 31
0.0
 40
0.244790762
 41
-1.5692902935
 42
-1.5647722026
  0
ELLIPSE
  5
3B1
100
AcDbEntity
  8
0
100
AcDbEllipse
 62
7
  6
CONTINUOUS
 10
208.7523522826
 20
245.1691710539
 30
0.0
 11
41.5
 21
0.0
 31
0.0
 40
0.2042552558
 41
0.1101624371
 42
0.1329211844
  0
ELLIPSE
  5
3B2
100
AcDbEntity
  8
0
100
AcDbEllipse
 62
7
  6
CONTINUOUS
 10
208.7523522826
 20
242.6064044915
 30
0.0
 11
41.5
 21
0.0
 31
0.0
 40
0.7659575381
 41
0.0919971844
 42
0.1101624371
  0
ELLIPSE
  5
3B3
100
AcDbEntity
  8
0
100
AcDbEllipse
 62
7
  6
CONTINUOUS
 10
208.7523522826
 20
240.3351288627
 30
0.0
 11
-0.0
 21
56.5106315613
 31
0.0
 40
0.7343750875
 41
-1.4924028033
 42
-1.4787991424
  0
ELLIPSE
  5
3B4
100
AcDbEntity
  8
0
100
AcDbEllipse
 62
7
  6
CONTINUOUS
 10
208.7523522826
 20
234.8032051324
 30
0.0
 11
-0.0
 21
127.1490422717
 31
0.0
 40
0.3263886165
 41
-1.496933999
 42
-1.4924028033
  0
ELLIPSE
  5
3B5
100
AcDbEntity
  8
0
100
AcDbEllipse
 62
7
  6
CONTINUOUS
 10
208.7523522826
 20
252.8032214425
 30
0.0
 11
-0.0
 21
127.1490422717
 31
0.0
 40
0.3263886165
 41
-1.6491898503
 42
-1.6446586546
  0
ELLIPSE
  5
3B6
100
AcDbEntity
  8
0
100
AcDbEllipse
 62
7
  6
CONTINUOUS
 10
208.7523522826
 20
247.2712977122
 30
0.0
 11
-0.0
 21
56.5106315613
 31
0.0
 40
0.7343750875
 41
-1.6627935112
 42
-1.6491898503
  0
ELLIPSE
  5
3B7
100
AcDbEntity
  8
0
100
AcDbEllipse
 62
7
  6
CONTINUOUS
 10
208.7523522826
 20
244.0266177121
 30
0.0
 11
41.5
 21
-0.0
 31
0.0
 40
0.5106383587
 41
-0.1101624371
 42
-0.0919971844
  0
ELLIPSE
  5
3B8
100
AcDbEntity
  8
0
100
AcDbEllipse
 62
7
  6
CONTINUOUS
 10
208.7523522826
 20
229.789029309
 30
0.0
 11
-0.0
 21
108.3120570183
 31
0.0
 40
0.3831521729
 41
-1.5014636889
 42
-1.4606338897
  0
ELLIPSE
  5
3B9
100
AcDbEntity
  8
0
100
AcDbEllipse
 62
7
  6
CONTINUOUS
 10
208.7523522826
 20
232.3138510787
 30
0.0
 11
41.5
 21
0.0
 31
0.0
 40
0.3404254913
 41
-0.2760843322
 42
-0.2620241569
  0
ELLIPSE
  5
3BA
100
AcDbEntity
  8
0
100
AcDbEllipse
 62
7
  6
CONTINUOUS
 10
208.7523522826
 20
239.632994029
 30
0.0
 11
0.0
 21
42.3829534612
 31
0.0
 40
0.9791672503
 41
-1.8328204837
 42
-1.8234765819
  0
ELLIPSE
  5
3BB
100
AcDbEntity
  8
0
100
AcDbEllipse
 62
7
  6
CONTINUOUS
 10
208.7523522826
 20
226.0665098234
 30
0.0
 11
-0.0
 21
110.5851145437
 31
0.0
 40
0.3730158455
 41
-1.4691059996
 42
-1.4324768978
  0
ELLIPSE
  5
3BC
100
AcDbEntity
  8
0
100
AcDbEllipse
 62
7
  6
CONTINUOUS
 10
208.7523522826
 20
260.8245162316
 30
0.0
 11
-0.0
 21
127.1490422717
 31
0.0
 40
0.3263886165
 41
-1.8234765819
 42
-1.8188131321
  0
ELLIPSE
  5
3BD
100
AcDbEntity
  8
0
100
AcDbEllipse
 62
7
  6
CONTINUOUS
 10
208.7523522826
 20
230.3564051008
 30
0.0
 11
41.25
 21
0.0
 31
0.0
 40
0.3404254913
 41
0.0560900035
 42
0.0697535122
  0
ELLIPSE
  5
3BE
100
AcDbEntity
  8
0
100
AcDbEllipse
 62
7
  6
CONTINUOUS
 10
208.7523522826
 20
228.7819351946
 30
0.0
 11
0.0
 21
42.1276947286
 31
0.0
 40
0.9791658496
 41
-1.5238093423
 42
-1.5147063233
  0
ELLIPSE
  5
3BF
100
AcDbEntity
  8
0
100
AcDbEllipse
 62
7
  6
CONTINUOUS
 10
208.7523522826
 20
224.8245020672
 30
0.0
 11
-0.0
 21
126.3827226015
 31
0.0
 40
0.3263895503
 41
-1.5283593568
 42
-1.5238093423
  0
ELLIPSE
  5
3C0
100
AcDbEntity
  8
0
100
AcDbEllipse
 62
7
  6
CONTINUOUS
 10
208.7523522826
 20
234.9734138465
 30
0.0
 11
-0.0
 21
126.3827226015
 31
0.0
 40
0.3263895503
 41
-1.6177833113
 42
-1.6132332968
  0
ELLIPSE
  5
3C1
100
AcDbEntity
  8
0
100
AcDbEllipse
 62
7
  6
CONTINUOUS
 10
208.7523522826
 20
231.0159807191
 30
0.0
 11
0.0
 21
42.1276947286
 31
0.0
 40
0.9791658496
 41
-1.6268863302
 42
-1.6177833113
  0
ELLIPSE
  5
3C2
100
AcDbEntity
  8
0
100
AcDbEllipse
 62
7
  6
CONTINUOUS
 10
208.7523522826
 20
229.4415108129
 30
0.0
 11
41.25
 21
0.0
 31
0.0
 40
0.3404254913
 41
-0.0697535122
 42
-0.0560900035
  0
ELLIPSE
  5
3C3
100
AcDbEntity
  8
0
100
AcDbEllipse
 62
7
  6
CONTINUOUS
 10
208.7523522826
 20
227.4840648351
 30
0.0
 11
41.25
 21
-0.0
 31
0.0
 40
0.3404254913
 41
0.2636499067
 42
0.2778018396
  0
ELLIPSE
  5
3C4
100
AcDbEntity
  8
0
100
AcDbEllipse
 62
7
  6
CONTINUOUS
 10
208.7523522826
 20
220.1649218847
 30
0.0
 11
0.0
 21
42.1276344644
 31
0.0
 40
0.9791672503
 41
-1.316550913
 42
-1.3071464201
  0
ELLIPSE
  5
3C5
100
AcDbEntity
  8
0
100
AcDbEllipse
 62
7
  6
CONTINUOUS
 10
208.7523522826
 20
198.9733996821
 30
0.0
 11
-0.0
 21
126.3830841857
 31
0.0
 40
0.3263886165
 41
-1.3212444923
 42
-1.316550913
  0
ELLIPSE
  5
3C6
100
AcDbEntity
  8
0
100
AcDbEllipse
 62
7
  6
CONTINUOUS
 10
208.7523522826
 20
260.8245162316
 30
0.0
 11
-0.0
 21
126.3830841857
 31
0.0
 40
0.3263886165
 41
-1.8250417406
 42
-1.8203481613
  0
ELLIPSE
  5
3C7
100
AcDbEntity
  8
0
100
AcDbEllipse
 62
7
  6
CONTINUOUS
 10
208.7523522826
 20
198.9733996821
 30
0.0
 11
-0.0
 21
127.1490422717
 31
0.0
 40
0.3263886165
 41
-1.3227795215
 42
-1.3181160717
  0
ELLIPSE
  5
3C8
100
AcDbEntity
  8
0
100
AcDbEllipse
 62
7
  6
CONTINUOUS
 10
208.7523522826
 20
220.1649218847
 30
0.0
 11
-0.0
 21
42.3829534612
 31
0.0
 40
0.9791672503
 41
-1.3181160717
 42
-1.3087721698
  0
ELLIPSE
  5
3C9
100
AcDbEntity
  8
0
100
AcDbEllipse
 62
7
  6
CONTINUOUS
 10
208.7523522826
 20
227.4840648351
 30
0.0
 11
41.5
 21
-0.0
 31
0.0
 40
0.3404254913
 41
0.2620241569
 42
0.2760843322
  0
ELLIPSE
  5
3CA
100
AcDbEntity
  8
0
100
AcDbEllipse
 62
7
  6
CONTINUOUS
 10
208.7523522826
 20
239.632994029
 30
0.0
 11
-0.0
 21
42.1276344644
 31
0.0
 40
0.9791672503
 41
-1.8344462335
 42
-1.8250417406
  0
ELLIPSE
  5
3CB
100
AcDbEntity
  8
0
100
AcDbEllipse
 62
7
  6
CONTINUOUS
 10
208.7523522826
 20
232.3138510787
 30
0.0
 11
41.25
 21
0.0
 31
0.0
 40
0.3404254913
 41
-0.2778018396
 42
-0.2636499067
  0
ELLIPSE
  5
3CC
100
AcDbEntity
  8
0
100
AcDbEllipse
 62
7
  6
CONTINUOUS
 10
208.7523522826
 20
243.5266177831
 30
0.0
 11
41.25
 21
0.0
 31
0.0
 40
0.3404254913
 41
0.1154075325
 42
0.1291465864
  0
ELLIPSE
  5
3CD
100
AcDbEntity
  8
0
100
AcDbEllipse
 62
7
  6
CONTINUOUS
 10
208.7523522826
 20
240.2925778068
 30
0.0
 11
0.0
 21
42.1276344644
 31
0.0
 40
0.9791672503
 41
-1.4645358641
 42
-1.4553887943
  0
ELLIPSE
  5
3CE
100
AcDbEntity
  8
0
100
AcDbEllipse
 62
7
  6
CONTINUOUS
 10
208.7523522826
 20
231.3563937455
 30
0.0
 11
-0.0
 21
126.3830841857
 31
0.0
 40
0.3263886165
 41
-1.4691059996
 42
-1.4645358641
  0
ELLIPSE
  5
3CF
100
AcDbEntity
  8
0
100
AcDbEllipse
 62
7
  6
CONTINUOUS
 10
208.7523522826
 20
256.4415221683
 30
0.0
 11
-0.0
 21
126.3830841857
 31
0.0
 40
0.3263886165
 41
-1.6770567895
 42
-1.672486654
  0
ELLIPSE
  5
3D0
100
AcDbEntity
  8
0
100
AcDbEllipse
 62
7
  6
CONTINUOUS
 10
208.7523522826
 20
247.5053381069
 30
0.0
 11
0.0
 21
42.1276344644
 31
0.0
 40
0.9791672503
 41
-1.6862038593
 42
-1.6770567895
  0
ELLIPSE
  5
3D1
100
AcDbEntity
  8
0
100
AcDbEllipse
 62
7
  6
CONTINUOUS
 10
208.7523522826
 20
244.2712981307
 30
0.0
 11
41.25
 21
0.0
 31
0.0
 40
0.3404254913
 41
-0.1291465864
 42
-0.1154075325
  0
ELLIPSE
  5
3D2
100
AcDbEntity
  8
0
100
AcDbEllipse
 62
7
  6
CONTINUOUS
 10
208.7523522826
 20
237.8032128334
 30
0.0
 11
0.0
 21
42.3830178009
 31
0.0
 40
0.9791657639
 41
-1.5692902935
 42
-1.5512167712
  0
ELLIPSE
  5
3D3
100
AcDbEntity
  8
0
100
AcDbEllipse
 62
7
  6
CONTINUOUS
 10
208.7523522826
 20
236.9734274283
 30
0.0
 11
-0.0
 21
84.7659217639
 31
0.0
 40
0.4895835394
 41
-1.5512167712
 42
-1.542177967
  0
ELLIPSE
  5
3D4
100
AcDbEntity
  8
0
100
AcDbEllipse
 62
7
  6
CONTINUOUS
 10
208.7523522826
 20
233.3351413714
 30
0.0
 11
-0.0
 21
211.91446416
 31
0.0
 40
0.1958337302
 41
-1.542177967
 42
-1.5376577274
  0
ELLIPSE
  5
3D5
100
AcDbEntity
  8
0
100
AcDbEllipse
 62
7
  6
CONTINUOUS
 10
208.7523522826
 20
229.4415108129
 30
0.0
 11
41.5
 21
-0.0
 31
0.0
 40
0.3404254913
 41
-0.0693326336
 42
-0.0557517603
  0
ELLIPSE
  5
3D6
100
AcDbEntity
  8
0
100
AcDbEllipse
 62
7
  6
CONTINUOUS
 10
208.7523522826
 20
231.0159807191
 30
0.0
 11
-0.0
 21
42.3830140906
 31
0.0
 40
0.9791658496
 41
-1.6265480871
 42
-1.6175000506
  0
ELLIPSE
  5
3D7
100
AcDbEntity
  8
0
100
AcDbEllipse
 62
7
  6
CONTINUOUS
 10
208.7523522826
 20
234.9734138465
 30
0.0
 11
-0.0
 21
127.148678496
 31
0.0
 40
0.3263895503
 41
-1.6175000506
 42
-1.6129775002
  0
ELLIPSE
  5
3D8
100
AcDbEntity
  8
0
100
AcDbEllipse
 62
7
  6
CONTINUOUS
 10
208.7523522826
 20
244.2712981307
 30
0.0
 11
41.5
 21
-0.0
 31
0.0
 40
0.3404254913
 41
-0.1283642802
 42
-0.1147092315
  0
ELLIPSE
  5
3D9
100
AcDbEntity
  8
0
100
AcDbEllipse
 62
7
  6
CONTINUOUS
 10
208.7523522826
 20
247.5053381069
 30
0.0
 11
0.0
 21
42.3829534612
 31
0.0
 40
0.9791672503
 41
-1.6855055583
 42
-1.676414268
  0
ELLIPSE
  5
3DA
100
AcDbEntity
  8
0
100
AcDbEllipse
 62
7
  6
CONTINUOUS
 10
208.7523522826
 20
256.4415221683
 30
0.0
 11
-0.0
 21
127.1490422717
 31
0.0
 40
0.3263886165
 41
-1.676414268
 42
-1.6718719606
  0
ELLIPSE
  5
3DB
100
AcDbEntity
  8
0
100
AcDbEllipse
 62
7
  6
CONTINUOUS
 10
208.7523522826
 20
231.3563937455
 30
0.0
 11
-0.0
 21
127.1490422717
 31
0.0
 40
0.3263886165
 41
-1.469720693
 42
-1.4651783856
  0
ELLIPSE
  5
3DC
100
AcDbEntity
  8
0
100
AcDbEllipse
 62
7
  6
CONTINUOUS
 10
208.7523522826
 20
240.2925778068
 30
0.0
 11
0.0
 21
42.3829534612
 31
0.0
 40
0.9791672503
 41
-1.4651783856
 42
-1.4560870953
  0
ELLIPSE
  5
3DD
100
AcDbEntity
  8
0
100
AcDbEllipse
 62
7
  6
CONTINUOUS
 10
208.7523522826
 20
243.5266177831
 30
0.0
 11
41.5
 21
0.0
 31
0.0
 40
0.3404254913
 41
0.1147092315
 42
0.1283642802
  0
ELLIPSE
  5
3DE
100
AcDbEntity
  8
0
100
AcDbEllipse
 62
7
  6
CONTINUOUS
 10
208.7523522826
 20
224.8245020672
 30
0.0
 11
-0.0
 21
127.148678496
 31
0.0
 40
0.3263895503
 41
-1.5286151533
 42
-1.524092603
  0
ELLIPSE
  5
3DF
100
AcDbEntity
  8
0
100
AcDbEllipse
 62
7
  6
CONTINUOUS
 10
208.7523522826
 20
228.7819351946
 30
0.0
 11
0.0
 21
42.3830140906
 31
0.0
 40
0.9791658496
 41
-1.524092603
 42
-1.5150445665
  0
ELLIPSE
  5
3E0
100
AcDbEntity
  8
0
100
AcDbEllipse
 62
7
  6
CONTINUOUS
 10
208.7523522826
 20
230.3564051008
 30
0.0
 11
41.5
 21
0.0
 31
0.0
 40
0.3404254913
 41
0.0557517603
 42
0.0693326336
  0
ELLIPSE
  5
3E1
100
AcDbEntity
  8
0
100
AcDbEllipse
 62
7
  6
CONTINUOUS
 10
208.7523522826
 20
226.0665098234
 30
0.0
 11
-0.0
 21
111.2553273592
 31
0.0
 40
0.3730158455
 41
-1.469720693
 42
-1.4333154535
  0
ENDSEC
  0
SECTION
  2
OBJECTS
  0
DICTIONARY
  5
C
100
AcDbDictionary
280
0
281
1
  3
ACAD_GROUP
350
D
  3
ACAD_MLINESTYLE
350
17
  3
ACAD_LAYOUT
350
1A
  3
ACAD_PLOTSETTINGS
350
19
  3
ACAD_PLOTSTYLENAME
350
E
  0
DICTIONARY
  5
D
102
{ACAD_REACTORS
330
C
102
}
100
AcDbDictionary
280
0
281
1
  0
ACDBDICTIONARYWDFLT
  5
E
102
{ACAD_REACTORS
330
C
102
}
100
AcDbDictionary
281
1
  3
Normal
350
F
100
AcDbDictionaryWithDefault
340
F
  0
DICTIONARY
  5
17
102
{ACAD_REACTORS
330
C
102
}
100
AcDbDictionary
280
0
281
1
  3
Standard
350
18
  0
DICTIONARY
  5
19
102
{ACAD_REACTORS
330
C
102
}
100
AcDbDictionary
281
1
  0
DICTIONARY
  5
1A
102
{ACAD_REACTORS
330
C
102
}
100
AcDbDictionary
281
1
  3
Model
350
3E2
  3
Layout1
350
3E3
  0
ACDBPLACEHOLDER
  5
F
102
{ACAD_REACTORS
330
E
102
}
  0
MLINESTYLE
  5
18
102
{ACAD_REACTORS
330
17
102
}
100
AcDbMlineStyle
  2
STANDARD
 70
0
  3

 62
256
 51
90.0
 52
90.0
 71
2
 49
0.5
 62
256
  6
BYLAYER
 49
-0.5
 62
256
  6
BYLAYER
  0
LAYOUT
  5
3E2
102
{ACAD_REACTORS
330
1A
102
}
100
AcDbPlotSettings
  1

  2
none_device
  4
ISO_A2_(594.00_x_420.00_MM)
  6

 40
0.0
 41
0.0
 42
0.0
 43
0.0
 44
594.0
 45
420.0
 46
0.0
 47
0.0
 48
0.0
 49
0.0
140
0.0
141
0.0
142
1.0
143
1.0
 70
1024
 72
1
 73
0
 74
0
  7

 75
0
147
1.0
148
0.0
149
0.0
100
AcDbLayout
  1
Model
 70
0
 71
0
 10
0.0
 20
0.0
 11
594.0
 21
420.0
 12
0.0
 22
0.0
 32
0.0
 14
0.0
 24
0.0
 34
0.0
 15
0.0
 25
0.0
 35
0.0
146
0.0
 13
0.0
 23
0.0
 33
0.0
 16
1.0
 26
0.0
 36
0.0
 17
0.0
 27
1.0
 37
0.0
 76
0
330
20C
345
0
346
0
  0
LAYOUT
  5
3E3
102
{ACAD_REACTORS
330
1A
102
}
100
AcDbPlotSettings
  1

  2
none_device
  4
ISO_A2_(594.00_x_420.00_MM)
  6

 40
0.0
 41
0.0
 42
0.0
 43
0.0
 44
594.0
 45
420.0
 46
0.0
 47
0.0
 48
0.0
 49
0.0
140
0.0
141
0.0
142
1.0
143
1.0
 70
0
 72
1
 73
0
 74
0
  7

 75
0
147
1.0
148
0.0
149
0.0
100
AcDbLayout
  1
Layout1
 70
0
 71
1
 10
0.0
 20
0.0
 11
594.0
 21
420.0
 12
0.0
 22
0.0
 32
0.0
 14
0.0
 24
0.0
 34
0.0
 15
0.0
 25
0.0
 35
0.0
146
0.0
 13
0.0
 23
0.0
 33
0.0
 16
1.0
 26
0.0
 36
0.0
 17
0.0
 27
1.0
 37
0.0
 76
0
330
20D
345
0
346
0
  0
ENDSEC
  0
EOF
