999
DXF file: 001-m31341-p-40.dxf
999
Pro/ENGINEER 2011490 by Parametric Technology Corporation
  0
SECTION
  2
HEADER
  9
$ACADVER
  1
AC1015
  9
$DWGCODEPAGE
  3
ANSI_1252
  9
$EXTMAX
 10
420.0
 20
297.0
 30
0.0
  9
$EXTMIN
 10
0.0
 20
0.0
 30
0.0
  9
$LIMMIN
 10
0.0
 20
0.0
  9
$LIMMAX
 10
420.0
 20
297.0
  9
$VIEWCTR
 10
210.0
 20
148.5
  9
$VIEWSIZE
 40
297.0
  9
$CLAYER
  8
0
  9
$LTSCALE
 40
23.1
  9
$CELTYPE
  6
BYLAYER
  9
$DIMSCALE
 40
1.0
  9
$DIMASZ
 40
3.5
  9
$DIMEXO
 40
2.625
  9
$DIMDLI
 40
15.96
  9
$DIMEXE
 40
7.56
  9
$DIMCEN
 40
3.78
  9
$DIMLFAC
 40
1.0
  9
$DIMBLK
  1
_FILLED
  9
$DIMTXT
 40
3.5
  9
$DIMTOL
 70
1
  9
$DIMLIM
 70
0
  9
$DIMTFAC
 40
1.0
  9
$DIMTP
 40
0.005
  9
$DIMTM
 40
0.005
  9
$PDMODE
 70
3
  9
$PDSIZE
 40
0.3125
  9
$HANDSEED
  5
3F6
  9
$TILEMODE
 70
1
  9
$MEASUREMENT
 70
1
  9
$INSUNITS
 70
4
  0
ENDSEC
  0
SECTION
  2
CLASSES
  0
CLASS
  1
ACDBDICTIONARYWDFLT
  2
AcDbDictionaryWithDefault
  3
AutoCAD 2000
 90
0
280
0
281
0
  0
CLASS
  1
ACDBPLACEHOLDER
  2
AcDbPlaceHolder
  3
AutoCAD 2000
 90
0
280
0
281
0
  0
CLASS
  1
LAYOUT
  2
AcDbLayout
  3
AutoCAD 2000
 90
0
280
0
281
0
  0
ENDSEC
  0
SECTION
  2
TABLES
  0
TABLE
  2
VPORT
  5
8
100
AcDbSymbolTable
 70
2
  0
VPORT
  5
1F4
100
AcDbSymbolTableRecord
100
AcDbViewportTableRecord
  2
*ACTIVE
 70
0
 10
0.0
 20
0.0
 11
1.0
 21
1.0
 12
210.0
 22
148.5
 13
0.0
 23
0.0
 14
1.0
 24
1.0
 15
0.0
 25
0.0
 16
0.0
 26
0.0
 36
1.0
 17
0.0
 27
0.0
 37
0.0
 40
297.0
 41
1.4141414141
 42
50.0
 43
0.0
 44
0.0
 50
0.0
 51
0.0
 71
0
 72
100
 73
1
 74
1
 75
0
 76
0
 77
0
 78
0
  0
ENDTAB
  0
TABLE
  2
LTYPE
  5
5
100
AcDbSymbolTable
 70
6
  0
LTYPE
  5
14
100
AcDbSymbolTableRecord
100
AcDbLinetypeTableRecord
  2
BYBLOCK
 70
0
  3

 72
65
 73
0
 40
0.0
  0
LTYPE
  5
15
100
AcDbSymbolTableRecord
100
AcDbLinetypeTableRecord
  2
BYLAYER
 70
0
  3

 72
65
 73
0
 40
0.0
  0
LTYPE
  5
16
100
AcDbSymbolTableRecord
100
AcDbLinetypeTableRecord
  2
CONTINUOUS
 70
64
  3
Solid line
 72
65
 73
0
 40
0.0
  0
LTYPE
  5
1F5
100
AcDbSymbolTableRecord
100
AcDbLinetypeTableRecord
  2
CENTER
 70
64
  3
____ _ ____ _ ____ _ ____ _ ____ _ ____ _ ____
 72
65
 73
4
 40
0.6
 49
0.375
 74
0
 49
-0.075
 74
0
 49
0.075
 74
0
 49
-0.075
 74
0
  0
LTYPE
  5
1F6
100
AcDbSymbolTableRecord
100
AcDbLinetypeTableRecord
  2
HIDDEN
 70
64
  3
- - - - - - - - - - - - - - - - - - - -
 72
65
 73
2
 40
0.2
 49
0.1
 74
0
 49
-0.1
 74
0
  0
LTYPE
  5
1F7
100
AcDbSymbolTableRecord
100
AcDbLinetypeTableRecord
  2
PHANTOM
 70
64
  3
_____ _ _ _____ _ _ _____ _ _ _____
 72
65
 73
6
 40
0.8
 49
0.45
 74
0
 49
-0.05
 74
0
 49
0.1
 74
0
 49
-0.05
 74
0
 49
0.1
 74
0
 49
-0.05
 74
0
  0
LTYPE
  5
1F8
100
AcDbSymbolTableRecord
100
AcDbLinetypeTableRecord
  2
DOT
 70
64
  3
. . . . . . . . . . . . . . . . . . . .
 72
65
 73
2
 40
0.2
 49
0.1
 74
0
 49
-0.1
 74
0
  0
LTYPE
  5
1F9
100
AcDbSymbolTableRecord
100
AcDbLinetypeTableRecord
  2
DASHED
 70
64
  3
- - - - - - - - - - - - - - - - - - - -
 72
65
 73
2
 40
0.2
 49
0.1
 74
0
 49
-0.1
 74
0
  0
ENDTAB
  0
TABLE
  2
LAYER
  5
2
100
AcDbSymbolTable
 70
36
  0
LAYER
  5
10
100
AcDbSymbolTableRecord
100
AcDbLayerTableRecord
  2
0
 70
0
 62
7
  6
CONTINUOUS
370
-3
390
F
  0
LAYER
  5
1FA
100
AcDbSymbolTableRecord
100
AcDbLayerTableRecord
  2
DEFAULT_1
 70
0
 62
7
  6
CENTER
370
-3
390
F
  0
LAYER
  5
1FB
100
AcDbSymbolTableRecord
100
AcDbLayerTableRecord
  2
DEFAULT_2
 70
0
 62
8
  6
HIDDEN
370
-3
390
F
  0
LAYER
  5
1FC
100
AcDbSymbolTableRecord
100
AcDbLayerTableRecord
  2
DEFAULT_3
 70
0
 62
7
  6
PHANTOM
370
-3
390
F
  0
LAYER
  5
1FD
100
AcDbSymbolTableRecord
100
AcDbLayerTableRecord
  2
AUSFORMSCHRAEGEN
 70
0
 62
7
  6
CONTINUOUS
370
-3
390
F
  0
LAYER
  5
1FE
100
AcDbSymbolTableRecord
100
AcDbLayerTableRecord
  2
BEZUGSACHSEN
 70
0
 62
7
  6
CONTINUOUS
370
-3
390
F
  0
LAYER
  5
1FF
100
AcDbSymbolTableRecord
100
AcDbLayerTableRecord
  2
BEZUGSEBENEN
 70
0
 62
7
  6
CONTINUOUS
370
-3
390
F
  0
LAYER
  5
200
100
AcDbSymbolTableRecord
100
AcDbLayerTableRecord
  2
BG_STARTBEZUEGE
 70
0
 62
7
  6
CONTINUOUS
370
-3
390
F
  0
LAYER
  5
201
100
AcDbSymbolTableRecord
100
AcDbLayerTableRecord
  2
FASEN
 70
0
 62
7
  6
CONTINUOUS
370
-3
390
F
  0
LAYER
  5
202
100
AcDbSymbolTableRecord
100
AcDbLayerTableRecord
  2
HILFEN
 70
0
 62
7
  6
CONTINUOUS
370
-3
390
F
  0
LAYER
  5
203
100
AcDbSymbolTableRecord
100
AcDbLayerTableRecord
  2
KONSTRUKTIONSELEMENTE
 70
0
 62
7
  6
CONTINUOUS
370
-3
390
F
  0
LAYER
  5
204
100
AcDbSymbolTableRecord
100
AcDbLayerTableRecord
  2
NORM
 70
0
 62
7
  6
CONTINUOUS
370
-3
390
F
  0
LAYER
  5
205
100
AcDbSymbolTableRecord
100
AcDbLayerTableRecord
  2
PLATZIERUNG
 70
0
 62
7
  6
CONTINUOUS
370
-3
390
F
  0
LAYER
  5
206
100
AcDbSymbolTableRecord
100
AcDbLayerTableRecord
  2
RUNDUNGEN
 70
0
 62
7
  6
CONTINUOUS
370
-3
390
F
  0
LAYER
  5
207
100
AcDbSymbolTableRecord
100
AcDbLayerTableRecord
  2
TEIL_STARTBEZUEGE
 70
0
 62
7
  6
CONTINUOUS
370
-3
390
F
  0
LAYER
  5
208
100
AcDbSymbolTableRecord
100
AcDbLayerTableRecord
  2
T_STARTBEZUEGE
 70
0
 62
7
  6
CONTINUOUS
370
-3
390
F
  0
LAYER
  5
209
100
AcDbSymbolTableRecord
100
AcDbLayerTableRecord
  2
ZEICHNUNGSBEMASSUNGEN
 70
0
 62
7
  6
CONTINUOUS
370
-3
390
F
  0
ENDTAB
  0
TABLE
  2
STYLE
  5
3
100
AcDbSymbolTable
 70
1
  0
STYLE
  5
11
100
AcDbSymbolTableRecord
100
AcDbTextStyleTableRecord
  2
STANDARD
 70
0
 40
0.0
 41
0.7
 50
0.0
 71
0
 42
0.2
  3
txt
  4

  0
STYLE
  5
20A
100
AcDbSymbolTableRecord
100
AcDbTextStyleTableRecord
  2
TEXTSTYLE_1
 70
0
 40
0.0
 41
0.8
 50
0.0
 71
0
 42
0.2
  3
gdt
  4

  0
ENDTAB
  0
TABLE
  2
VIEW
  5
6
100
AcDbSymbolTable
 70
0
  0
ENDTAB
  0
TABLE
  2
UCS
  5
7
100
AcDbSymbolTable
 70
0
  0
ENDTAB
  0
TABLE
  2
APPID
  5
9
100
AcDbSymbolTable
 70
1
  0
APPID
  5
20B
100
AcDbSymbolTableRecord
100
AcDbRegAppTableRecord
  2
ACAD
 70
0
  0
ENDTAB
  0
TABLE
  2
BLOCK_RECORD
  5
1
100
AcDbSymbolTable
 70
0
  0
BLOCK_RECORD
  5
20C
100
AcDbSymbolTableRecord
100
AcDbBlockTableRecord
  2
*Model_Space
  0
BLOCK_RECORD
  5
20D
100
AcDbSymbolTableRecord
100
AcDbBlockTableRecord
  2
*Paper_Space
  0
ENDTAB
  0
TABLE
  2
DIMSTYLE
  5
A
100
AcDbSymbolTable
 70
1
100
AcDbDimStyleTable
 71
0
  0
DIMSTYLE
105
20E
100
AcDbSymbolTableRecord
100
AcDbDimStyleTableRecord
  2
STANDARD
 70
0
  3

  4

 40
1.0
 41
3.5
 42
0.0625
 43
0.38
 44
0.18
 45
0.0
 46
0.0
 47
0.005
 48
0.005
140
3.5
141
0.09
142
0.0
143
25.4
144
1.0
145
0.0
146
1.0
147
0.09
 71
1.0
 72
0.0
 73
0
 74
0
 75
0
 76
0
 77
1
 78
8
170
0
171
2
172
0
173
0
174
0
175
0
176
0
177
0
178
5
270
2
271
3
272
3
273
2
274
2
275
0
280
0
281
0
282
0
283
1
284
8
285
0
286
0
287
3
288
0
340
11
  0
ENDTAB
  0
ENDSEC
  0
SECTION
  2
BLOCKS
  0
BLOCK
  5
20
100
AcDbEntity
  8
0
100
AcDbBlockBegin
  2
*Model_Space
 70
0
 10
0.0
 20
0.0
 30
0.0
  3
*Model_Space
  1

  0
ENDBLK
  5
21
100
AcDbEntity
  8
0
100
AcDbBlockEnd
  0
BLOCK
  5
1C
100
AcDbEntity
  8
0
100
AcDbBlockBegin
  2
*Paper_Space
 70
0
 10
0.0
 20
0.0
 30
0.0
  3
*Paper_Space
  1

  0
ENDBLK
  5
1D
100
AcDbEntity
  8
0
100
AcDbBlockEnd
  0
ENDSEC
  0
SECTION
  2
ENTITIES
  0
MTEXT
  5
20F
100
AcDbEntity
  8
0
100
AcDbMText
 62
5
  6
CONTINUOUS
  7
STANDARD
 71
2
 72
1
 10
139.1698413882
 20
67.9177095852
 30
0.0
 11
0.0
 21
1.0
 31
0.0
 44
0.9
  1
RUD WPP\PVIP 10 4t
 40
9.0
 41
58.9285714286
  0
MTEXT
  5
210
100
AcDbEntity
  8
0
100
AcDbMText
 62
5
  6
CONTINUOUS
  7
STANDARD
 71
2
 72
1
 10
294.7876034097
 20
205.536494652
 30
0.0
 11
1.0
 21
0.0
 31
0.0
 44
0.9
  1
RUD\PWPP 4t
 40
8.0
 41
40.5714285714
  0
LINE
  5
211
100
AcDbEntity
  8
0
100
AcDbLine
 62
7
  6
CONTINUOUS
 10
0.0
 20
0.0
 11
0.0
 21
297.0
  0
LINE
  5
212
100
AcDbEntity
  8
0
100
AcDbLine
 62
7
  6
CONTINUOUS
 10
0.0
 20
0.0
 11
420.0
 21
0.0
  0
LINE
  5
213
100
AcDbEntity
  8
0
100
AcDbLine
 62
7
  6
CONTINUOUS
 10
0.0
 20
297.0
 11
420.0
 21
297.0
  0
LINE
  5
214
100
AcDbEntity
  8
0
100
AcDbLine
 62
7
  6
CONTINUOUS
 10
420.0
 20
0.0
 11
420.0
 21
297.0
  0
LINE
  5
215
100
AcDbEntity
  8
FASEN
100
AcDbLine
 62
7
  6
CONTINUOUS
 10
113.5286808925
 20
164.1673801567
 11
110.5286808925
 21
167.1673801567
  0
LINE
  5
216
100
AcDbEntity
  8
FASEN
100
AcDbLine
 62
7
  6
CONTINUOUS
 10
187.5286808924
 20
164.1673801568
 11
113.5286808925
 21
164.1673801568
  0
LINE
  5
217
100
AcDbEntity
  8
FASEN
100
AcDbLine
 62
7
  6
CONTINUOUS
 10
190.5286808924
 20
167.1673801568
 11
110.5286808924
 21
167.1673801568
  0
LINE
  5
218
100
AcDbEntity
  8
FASEN
100
AcDbLine
 62
7
  6
CONTINUOUS
 10
110.5286808924
 20
167.1673801568
 11
110.5286808924
 21
176.6673801568
  0
LINE
  5
219
100
AcDbEntity
  8
KONSTRUKTIONSELEMENTE
100
AcDbLine
 62
7
  6
CONTINUOUS
 10
110.5286808924
 20
167.1673801568
 11
110.5286808924
 21
176.6673801568
  0
LINE
  5
21A
100
AcDbEntity
  8
0
100
AcDbLine
 62
7
  6
CONTINUOUS
 10
116.5286808924
 20
210.1673801568
 11
116.5286808924
 21
177.1673801568
  0
LINE
  5
21B
100
AcDbEntity
  8
FASEN
100
AcDbLine
 62
7
  6
CONTINUOUS
 10
110.5286808924
 20
176.6673801568
 11
190.5286808924
 21
176.6673801568
  0
LINE
  5
21C
100
AcDbEntity
  8
FASEN
100
AcDbLine
 62
7
  6
CONTINUOUS
 10
111.0286808925
 20
177.1673801568
 11
190.0286808924
 21
177.1673801568
  0
LINE
  5
21D
100
AcDbEntity
  8
0
100
AcDbLine
 62
7
  6
CONTINUOUS
 10
181.0409734972
 20
179.1673801568
 11
181.7586119482
 21
179.1673801568
  0
LINE
  5
21E
100
AcDbEntity
  8
0
100
AcDbLine
 62
7
  6
CONTINUOUS
 10
183.5816538818
 20
179.1673801568
 11
184.0491824316
 21
179.1673801568
  0
LINE
  5
21F
100
AcDbEntity
  8
0
100
AcDbLine
 62
7
  6
CONTINUOUS
 10
184.5286808924
 20
181.4014226672
 11
184.687318204
 21
181.4014226672
  0
LINE
  5
220
100
AcDbEntity
  8
0
100
AcDbLine
 62
7
  6
CONTINUOUS
 10
184.5157533429
 20
181.8801460144
 11
184.7786808039
 21
181.8801460144
  0
LINE
  5
221
100
AcDbEntity
  8
0
100
AcDbLine
 62
7
  6
CONTINUOUS
 10
184.5178651786
 20
182.5184440341
 11
184.0491824316
 21
182.5184440341
  0
LINE
  5
222
100
AcDbEntity
  8
0
100
AcDbLine
 62
7
  6
CONTINUOUS
 10
182.8783331317
 20
182.5184440341
 11
181.7586119482
 21
182.5184440341
  0
LINE
  5
223
100
AcDbEntity
  8
0
100
AcDbLine
 62
7
  6
CONTINUOUS
 10
184.6057419703
 20
182.6780184832
 11
184.7786808039
 21
182.6780184832
  0
LINE
  5
224
100
AcDbEntity
  8
0
100
AcDbLine
 62
7
  6
CONTINUOUS
 10
184.5368945499
 20
183.4758907285
 11
184.0491824316
 21
183.4758907285
  0
LINE
  5
225
100
AcDbEntity
  8
0
100
AcDbLine
 62
7
  6
CONTINUOUS
 10
182.932248715
 20
183.4758907285
 11
181.7586119482
 21
183.4758907285
  0
LINE
  5
226
100
AcDbEntity
  8
0
100
AcDbLine
 62
7
  6
CONTINUOUS
 10
182.8258846698
 20
183.6354651776
 11
183.0889614784
 21
183.6354651776
  0
LINE
  5
227
100
AcDbEntity
  8
0
100
AcDbLine
 62
7
  6
CONTINUOUS
 10
184.3382204202
 20
183.6354651776
 11
184.5896183881
 21
183.6354651776
  0
LINE
  5
228
100
AcDbEntity
  8
0
100
AcDbLine
 62
7
  6
CONTINUOUS
 10
182.927019488
 20
183.9546140757
 11
183.1892816792
 21
183.9546140757
  0
LINE
  5
229
100
AcDbEntity
  8
0
100
AcDbLine
 62
7
  6
CONTINUOUS
 10
184.3699781258
 20
183.9546140757
 11
184.621141913
 21
183.9546140757
  0
LINE
  5
22A
100
AcDbEntity
  8
0
100
AcDbLine
 62
7
  6
CONTINUOUS
 10
182.9763400208
 20
184.4333374229
 11
183.2382067666
 21
184.4333374229
  0
LINE
  5
22B
100
AcDbEntity
  8
0
100
AcDbLine
 62
7
  6
CONTINUOUS
 10
184.384764199
 20
184.4333374229
 11
184.6358191023
 21
184.4333374229
  0
LINE
  5
22C
100
AcDbEntity
  8
0
100
AcDbLine
 62
7
  6
CONTINUOUS
 10
182.9763400208
 20
184.9120612171
 11
183.2382067666
 21
184.9120612171
  0
LINE
  5
22D
100
AcDbEntity
  8
0
100
AcDbLine
 62
7
  6
CONTINUOUS
 10
184.384764199
 20
184.9120612171
 11
184.6358191023
 21
184.9120612171
  0
LINE
  5
22E
100
AcDbEntity
  8
0
100
AcDbLine
 62
7
  6
CONTINUOUS
 10
182.927019488
 20
185.3907845643
 11
183.1892816792
 21
185.3907845643
  0
LINE
  5
22F
100
AcDbEntity
  8
0
100
AcDbLine
 62
7
  6
CONTINUOUS
 10
184.3699781258
 20
185.3907845643
 11
184.621141913
 21
185.3907845643
  0
LINE
  5
230
100
AcDbEntity
  8
0
100
AcDbLine
 62
7
  6
CONTINUOUS
 10
182.8258846698
 20
185.7099334624
 11
183.0889614784
 21
185.7099334624
  0
LINE
  5
231
100
AcDbEntity
  8
0
100
AcDbLine
 62
7
  6
CONTINUOUS
 10
184.3382204202
 20
185.7099334624
 11
184.5896183881
 21
185.7099334624
  0
LINE
  5
232
100
AcDbEntity
  8
0
100
AcDbLine
 62
7
  6
CONTINUOUS
 10
184.5368945499
 20
185.8695079115
 11
184.0491824316
 21
185.8695079115
  0
LINE
  5
233
100
AcDbEntity
  8
0
100
AcDbLine
 62
7
  6
CONTINUOUS
 10
182.932248715
 20
185.8695079115
 11
181.7586119482
 21
185.8695079115
  0
LINE
  5
234
100
AcDbEntity
  8
0
100
AcDbLine
 62
7
  6
CONTINUOUS
 10
181.0409734972
 20
186.6673801568
 11
182.8783331317
 21
186.6673801568
  0
LINE
  5
235
100
AcDbEntity
  8
0
100
AcDbLine
 62
7
  6
CONTINUOUS
 10
183.5816538818
 20
186.6673801568
 11
184.5178651786
 21
186.6673801568
  0
LINE
  5
236
100
AcDbEntity
  8
0
100
AcDbLine
 62
7
  6
CONTINUOUS
 10
183.024834511
 20
190.1673801568
 11
183.5579647743
 21
190.1673801568
  0
LINE
  5
237
100
AcDbEntity
  8
0
100
AcDbLine
 62
7
  6
CONTINUOUS
 10
184.1354225435
 20
190.1673801568
 11
184.7772552214
 21
190.1673801568
  0
LINE
  5
238
100
AcDbEntity
  8
0
100
AcDbLine
 62
7
  6
CONTINUOUS
 10
184.5292682245
 20
190.3269546198
 11
184.7612123638
 21
190.3269546198
  0
LINE
  5
239
100
AcDbEntity
  8
0
100
AcDbLine
 62
7
  6
CONTINUOUS
 10
184.5140156085
 20
190.6461035598
 11
184.7355281224
 21
190.6461035598
  0
LINE
  5
23A
100
AcDbEntity
  8
0
100
AcDbLine
 62
7
  6
CONTINUOUS
 10
184.7786808924
 20
191.1248269629
 11
184.7772552214
 21
191.1248269629
  0
LINE
  5
23B
100
AcDbEntity
  8
0
100
AcDbLine
 62
7
  6
CONTINUOUS
 10
184.4827174161
 20
191.284401412
 11
184.6983946363
 21
191.284401412
  0
LINE
  5
23C
100
AcDbEntity
  8
0
100
AcDbLine
 62
7
  6
CONTINUOUS
 10
184.4496375724
 20
191.92269932
 11
184.6755231583
 21
191.92269932
  0
LINE
  5
23D
100
AcDbEntity
  8
0
100
AcDbLine
 62
7
  6
CONTINUOUS
 10
184.4121553736
 20
192.7205715653
 11
184.6630088177
 21
192.7205715653
  0
LINE
  5
23E
100
AcDbEntity
  8
0
100
AcDbLine
 62
7
  6
CONTINUOUS
 10
184.1742223502
 20
193.5184440341
 11
183.5579647743
 21
193.5184440341
  0
LINE
  5
23F
100
AcDbEntity
  8
0
100
AcDbLine
 62
7
  6
CONTINUOUS
 10
184.2322223847
 20
194.4758907285
 11
183.5579647743
 21
194.4758907285
  0
LINE
  5
240
100
AcDbEntity
  8
0
100
AcDbLine
 62
7
  6
CONTINUOUS
 10
184.0601492964
 20
194.6354651776
 11
184.3136164899
 21
194.6354651776
  0
LINE
  5
241
100
AcDbEntity
  8
0
100
AcDbLine
 62
7
  6
CONTINUOUS
 10
184.1110772297
 20
194.9546140757
 11
184.3641629158
 21
194.9546140757
  0
LINE
  5
242
100
AcDbEntity
  8
0
100
AcDbLine
 62
7
  6
CONTINUOUS
 10
184.1354225435
 20
195.4333374229
 11
184.3883262598
 21
195.4333374229
  0
LINE
  5
243
100
AcDbEntity
  8
0
100
AcDbLine
 62
7
  6
CONTINUOUS
 10
184.1354225435
 20
195.9120612171
 11
184.3883262598
 21
195.9120612171
  0
LINE
  5
244
100
AcDbEntity
  8
0
100
AcDbLine
 62
7
  6
CONTINUOUS
 10
184.1110772297
 20
196.3907845643
 11
184.3641629158
 21
196.3907845643
  0
LINE
  5
245
100
AcDbEntity
  8
0
100
AcDbLine
 62
7
  6
CONTINUOUS
 10
184.0601492964
 20
196.7099334624
 11
184.3136164899
 21
196.7099334624
  0
LINE
  5
246
100
AcDbEntity
  8
0
100
AcDbLine
 62
7
  6
CONTINUOUS
 10
135.0286808924
 20
223.0173801568
 11
135.0286808924
 21
227.1840467241
  0
LINE
  5
247
100
AcDbEntity
  8
0
100
AcDbLine
 62
7
  6
CONTINUOUS
 10
135.0286808924
 20
228.0173801568
 11
135.0286808924
 21
228.6423801568
  0
LINE
  5
248
100
AcDbEntity
  8
0
100
AcDbLine
 62
7
  6
CONTINUOUS
 10
135.0286808924
 20
229.4757132914
 11
135.0286808924
 21
233.3298801568
  0
LINE
  5
249
100
AcDbEntity
  8
0
100
AcDbLine
 62
7
  6
CONTINUOUS
 10
135.0286808924
 20
234.8106370075
 11
135.0286808924
 21
238.1103316171
  0
LINE
  5
24A
100
AcDbEntity
  8
0
100
AcDbLine
 62
7
  6
CONTINUOUS
 10
135.0286808924
 20
239.1632138875
 11
135.0286808924
 21
240.4132138875
  0
LINE
  5
24B
100
AcDbEntity
  8
0
100
AcDbLine
 62
7
  6
CONTINUOUS
 10
135.0286808924
 20
241.2465464261
 11
135.0286808924
 21
244.9965476182
  0
LINE
  5
24C
100
AcDbEntity
  8
RUNDUNGEN
100
AcDbLine
 62
7
  6
CONTINUOUS
 10
135.5286808924
 20
247.1673801568
 11
135.5286808924
 21
218.1674248353
  0
LINE
  5
24D
100
AcDbEntity
  8
0
100
AcDbLine
 62
7
  6
CONTINUOUS
 10
184.2322223847
 20
196.8695079115
 11
183.5579647743
 21
196.8695079115
  0
LINE
  5
24E
100
AcDbEntity
  8
0
100
AcDbLine
 62
7
  6
CONTINUOUS
 10
183.024834511
 20
197.6673801568
 11
184.2035973734
 21
197.6673801568
  0
LINE
  5
24F
100
AcDbEntity
  8
0
100
AcDbLine
 62
7
  6
CONTINUOUS
 10
184.4121553736
 20
197.6673801568
 11
184.7273194051
 21
197.6673801568
  0
LINE
  5
250
100
AcDbEntity
  8
FASEN
100
AcDbLine
 62
7
  6
CONTINUOUS
 10
111.0286808926
 20
177.1673801569
 11
110.5286808926
 21
176.6673801569
  0
LINE
  5
251
100
AcDbEntity
  8
RUNDUNGEN
100
AcDbLine
 62
7
  6
CONTINUOUS
 10
181.5286808924
 20
213.1673801568
 11
170.5286804371
 21
213.1673801568
  0
LINE
  5
252
100
AcDbEntity
  8
RUNDUNGEN
100
AcDbLine
 62
7
  6
CONTINUOUS
 10
130.5286808924
 20
213.1673801568
 11
119.5286808924
 21
213.1673801568
  0
LINE
  5
253
100
AcDbEntity
  8
FASEN
100
AcDbLine
 62
7
  6
CONTINUOUS
 10
190.0286808924
 20
177.1673801568
 11
190.5286808924
 21
176.6673801568
  0
LINE
  5
254
100
AcDbEntity
  8
0
100
AcDbLine
 62
7
  6
CONTINUOUS
 10
135.5286808924
 20
223.0173801568
 11
135.0286808924
 21
223.0173801568
  0
LINE
  5
255
100
AcDbEntity
  8
0
100
AcDbLine
 62
7
  6
CONTINUOUS
 10
135.5286808924
 20
224.6840468731
 11
135.0286808924
 21
224.6840468731
  0
LINE
  5
256
100
AcDbEntity
  8
0
100
AcDbLine
 62
7
  6
CONTINUOUS
 10
135.5286808924
 20
225.5173801568
 11
135.0286808924
 21
225.5173801568
  0
LINE
  5
257
100
AcDbEntity
  8
RUNDUNGEN
100
AcDbLine
 62
7
  6
CONTINUOUS
 10
165.5286808924
 20
218.1674600036
 11
165.5286808924
 21
247.1673801568
  0
LINE
  5
258
100
AcDbEntity
  8
0
100
AcDbLine
 62
7
  6
CONTINUOUS
 10
135.5286808924
 20
227.1840467241
 11
135.0286808924
 21
227.1840467241
  0
LINE
  5
259
100
AcDbEntity
  8
0
100
AcDbLine
 62
7
  6
CONTINUOUS
 10
135.5286808924
 20
228.0173801568
 11
135.0286808924
 21
228.0173801568
  0
LINE
  5
25A
100
AcDbEntity
  8
0
100
AcDbLine
 62
7
  6
CONTINUOUS
 10
135.5286808924
 20
228.6423801568
 11
135.0286808924
 21
228.6423801568
  0
LINE
  5
25B
100
AcDbEntity
  8
0
100
AcDbLine
 62
7
  6
CONTINUOUS
 10
135.5286808924
 20
229.4757132914
 11
135.0286808924
 21
229.4757132914
  0
LINE
  5
25C
100
AcDbEntity
  8
0
100
AcDbLine
 62
7
  6
CONTINUOUS
 10
135.5286808924
 20
229.7103316171
 11
135.0286808924
 21
229.7103316171
  0
LINE
  5
25D
100
AcDbEntity
  8
0
100
AcDbLine
 62
7
  6
CONTINUOUS
 10
135.5286808924
 20
233.0103316171
 11
135.0286808924
 21
233.0103316171
  0
LINE
  5
25E
100
AcDbEntity
  8
0
100
AcDbLine
 62
7
  6
CONTINUOUS
 10
135.5286808924
 20
233.2257138875
 11
135.0286808924
 21
233.2257138875
  0
LINE
  5
25F
100
AcDbEntity
  8
0
100
AcDbLine
 62
7
  6
CONTINUOUS
 10
135.5286808924
 20
233.3298801568
 11
135.0286808924
 21
233.3298801568
  0
LINE
  5
260
100
AcDbEntity
  8
0
100
AcDbLine
 62
7
  6
CONTINUOUS
 10
135.5286808924
 20
234.8103316171
 11
135.0286808924
 21
234.8103316171
  0
LINE
  5
261
100
AcDbEntity
  8
0
100
AcDbLine
 62
7
  6
CONTINUOUS
 10
135.5286808924
 20
238.1103316171
 11
135.0286808924
 21
238.1103316171
  0
LINE
  5
262
100
AcDbEntity
  8
0
100
AcDbLine
 62
7
  6
CONTINUOUS
 10
135.5286808924
 20
239.1632138875
 11
135.0286808924
 21
239.1632138875
  0
LINE
  5
263
100
AcDbEntity
  8
0
100
AcDbLine
 62
7
  6
CONTINUOUS
 10
135.5286808924
 20
239.7882138875
 11
135.0286808924
 21
239.7882138875
  0
LINE
  5
264
100
AcDbEntity
  8
0
100
AcDbLine
 62
7
  6
CONTINUOUS
 10
135.5286808924
 20
240.4132138875
 11
135.0286808924
 21
240.4132138875
  0
LINE
  5
265
100
AcDbEntity
  8
0
100
AcDbLine
 62
7
  6
CONTINUOUS
 10
135.5286808924
 20
241.2465464261
 11
135.0286808924
 21
241.2465464261
  0
LINE
  5
266
100
AcDbEntity
  8
0
100
AcDbLine
 62
7
  6
CONTINUOUS
 10
135.5286808924
 20
241.3507138875
 11
135.0286808924
 21
241.3507138875
  0
LINE
  5
267
100
AcDbEntity
  8
0
100
AcDbLine
 62
7
  6
CONTINUOUS
 10
135.5286808924
 20
241.4548801568
 11
135.0286808924
 21
241.4548801568
  0
LINE
  5
268
100
AcDbEntity
  8
0
100
AcDbLine
 62
7
  6
CONTINUOUS
 10
135.5286808924
 20
241.6632138875
 11
135.0286808924
 21
241.6632138875
  0
LINE
  5
269
100
AcDbEntity
  8
0
100
AcDbLine
 62
7
  6
CONTINUOUS
 10
135.5286808924
 20
241.9757138875
 11
135.0286808924
 21
241.9757138875
  0
LINE
  5
26A
100
AcDbEntity
  8
0
100
AcDbLine
 62
7
  6
CONTINUOUS
 10
135.5286808924
 20
242.4965464261
 11
135.0286808924
 21
242.4965464261
  0
LINE
  5
26B
100
AcDbEntity
  8
0
100
AcDbLine
 62
7
  6
CONTINUOUS
 10
135.5286808924
 20
243.1215476182
 11
135.0286808924
 21
243.1215476182
  0
LINE
  5
26C
100
AcDbEntity
  8
0
100
AcDbLine
 62
7
  6
CONTINUOUS
 10
181.0409734972
 20
186.6673801568
 11
181.0409734972
 21
179.1673801568
  0
LINE
  5
26D
100
AcDbEntity
  8
0
100
AcDbLine
 62
7
  6
CONTINUOUS
 10
181.3193044652
 20
186.6673801568
 11
181.3193044652
 21
179.1673801568
  0
LINE
  5
26E
100
AcDbEntity
  8
0
100
AcDbLine
 62
7
  6
CONTINUOUS
 10
181.7586119482
 20
185.8695079115
 11
181.7586119482
 21
183.4758907285
  0
LINE
  5
26F
100
AcDbEntity
  8
0
100
AcDbLine
 62
7
  6
CONTINUOUS
 10
181.7586119482
 20
182.5184440341
 11
181.7586119482
 21
179.1673801568
  0
LINE
  5
270
100
AcDbEntity
  8
0
100
AcDbLine
 62
7
  6
CONTINUOUS
 10
182.9763400208
 20
184.9120612171
 11
182.9763400208
 21
184.4333374229
  0
LINE
  5
271
100
AcDbEntity
  8
0
100
AcDbLine
 62
7
  6
CONTINUOUS
 10
183.024834511
 20
197.6673801568
 11
183.024834511
 21
190.1673801568
  0
LINE
  5
272
100
AcDbEntity
  8
0
100
AcDbLine
 62
7
  6
CONTINUOUS
 10
183.2382067666
 20
184.9120612171
 11
183.2382067666
 21
184.4333374229
  0
LINE
  5
273
100
AcDbEntity
  8
0
100
AcDbLine
 62
7
  6
CONTINUOUS
 10
183.2863135908
 20
197.6673801568
 11
183.2863135908
 21
190.1673801568
  0
LINE
  5
274
100
AcDbEntity
  8
0
100
AcDbLine
 62
7
  6
CONTINUOUS
 10
183.5146952878
 20
184.9120612171
 11
183.5146952878
 21
184.2737629738
  0
LINE
  5
275
100
AcDbEntity
  8
0
100
AcDbLine
 62
7
  6
CONTINUOUS
 10
183.5579647743
 20
196.8695079115
 11
183.5579647743
 21
194.4758907285
  0
LINE
  5
276
100
AcDbEntity
  8
0
100
AcDbLine
 62
7
  6
CONTINUOUS
 10
183.5579647743
 20
193.5184440341
 11
183.5579647743
 21
190.1673801568
  0
LINE
  5
277
100
AcDbEntity
  8
0
100
AcDbLine
 62
7
  6
CONTINUOUS
 10
183.5816538818
 20
186.6673801568
 11
183.5816538818
 21
179.1673801568
  0
LINE
  5
278
100
AcDbEntity
  8
0
100
AcDbLine
 62
7
  6
CONTINUOUS
 10
183.8387623009
 20
186.6673801568
 11
183.8387623009
 21
179.1673801568
  0
LINE
  5
279
100
AcDbEntity
  8
0
100
AcDbLine
 62
7
  6
CONTINUOUS
 10
184.0491824316
 20
185.8695079115
 11
184.0491824316
 21
183.4758907285
  0
LINE
  5
27A
100
AcDbEntity
  8
0
100
AcDbLine
 62
7
  6
CONTINUOUS
 10
184.0491824316
 20
182.5184440341
 11
184.0491824316
 21
179.1673801568
  0
LINE
  5
27B
100
AcDbEntity
  8
0
100
AcDbLine
 62
7
  6
CONTINUOUS
 10
184.1354225435
 20
195.9120612171
 11
184.1354225435
 21
195.4333374229
  0
LINE
  5
27C
100
AcDbEntity
  8
0
100
AcDbLine
 62
7
  6
CONTINUOUS
 10
184.384764199
 20
184.9120612171
 11
184.384764199
 21
184.4333374229
  0
LINE
  5
27D
100
AcDbEntity
  8
0
100
AcDbLine
 62
7
  6
CONTINUOUS
 10
184.3883262598
 20
195.9120612171
 11
184.3883262598
 21
195.4333374229
  0
LINE
  5
27E
100
AcDbEntity
  8
0
100
AcDbLine
 62
7
  6
CONTINUOUS
 10
184.4121553736
 20
197.6673801568
 11
184.4121553736
 21
197.1466301674
  0
LINE
  5
27F
100
AcDbEntity
  8
0
100
AcDbLine
 62
7
  6
CONTINUOUS
 10
184.4121553736
 20
194.0783758173
 11
184.4121553736
 21
192.7205715653
  0
LINE
  5
280
100
AcDbEntity
  8
0
100
AcDbLine
 62
7
  6
CONTINUOUS
 10
184.5157533429
 20
182.5184440341
 11
184.5157533429
 21
181.8801460144
  0
LINE
  5
281
100
AcDbEntity
  8
0
100
AcDbLine
 62
7
  6
CONTINUOUS
 10
184.5178651601
 20
195.9120612171
 11
184.5178651601
 21
195.2737629738
  0
LINE
  5
282
100
AcDbEntity
  8
0
100
AcDbLine
 62
7
  6
CONTINUOUS
 10
184.5286808924
 20
210.1673801568
 11
184.5286808924
 21
197.6673801568
  0
LINE
  5
283
100
AcDbEntity
  8
0
100
AcDbLine
 62
7
  6
CONTINUOUS
 10
184.5286808924
 20
190.1673801568
 11
184.5286808924
 21
186.6491539263
  0
LINE
  5
284
100
AcDbEntity
  8
0
100
AcDbLine
 62
7
  6
CONTINUOUS
 10
184.5286808924
 20
181.8801460144
 11
184.5286808924
 21
177.1673801568
  0
LINE
  5
285
100
AcDbEntity
  8
0
100
AcDbLine
 62
7
  6
CONTINUOUS
 10
184.6358191023
 20
184.9120612171
 11
184.6358191023
 21
184.4333374229
  0
LINE
  5
286
100
AcDbEntity
  8
0
100
AcDbLine
 62
7
  6
CONTINUOUS
 10
184.6630088177
 20
197.6673801568
 11
184.6630088177
 21
192.7205715653
  0
LINE
  5
287
100
AcDbEntity
  8
0
100
AcDbLine
 62
7
  6
CONTINUOUS
 10
184.687318204
 20
181.8801460144
 11
184.687318204
 21
181.4014226672
  0
LINE
  5
288
100
AcDbEntity
  8
0
100
AcDbLine
 62
7
  6
CONTINUOUS
 10
184.7087532308
 20
184.9120612171
 11
184.7087532308
 21
184.2737629738
  0
LINE
  5
289
100
AcDbEntity
  8
0
100
AcDbLine
 62
7
  6
CONTINUOUS
 10
184.7273194051
 20
197.6673801568
 11
184.7273194051
 21
192.7205715653
  0
LINE
  5
28A
100
AcDbEntity
  8
0
100
AcDbLine
 62
7
  6
CONTINUOUS
 10
184.76584774
 20
182.6780184832
 11
184.76584774
 21
181.8801460144
  0
LINE
  5
28B
100
AcDbEntity
  8
0
100
AcDbLine
 62
7
  6
CONTINUOUS
 10
184.7786808924
 20
191.1248269629
 11
184.7786808924
 21
190.3269546198
  0
LINE
  5
28C
100
AcDbEntity
  8
0
100
AcDbLine
 62
7
  6
CONTINUOUS
 10
184.7786808924
 20
182.6780184832
 11
184.7786808924
 21
181.8801460144
  0
LINE
  5
28D
100
AcDbEntity
  8
0
100
AcDbLine
 62
7
  6
CONTINUOUS
 10
135.5286808924
 20
243.7465476182
 11
135.0286808924
 21
243.7465476182
  0
LINE
  5
28E
100
AcDbEntity
  8
0
100
AcDbLine
 62
7
  6
CONTINUOUS
 10
135.5286808924
 20
244.2673801568
 11
135.0286808924
 21
244.2673801568
  0
LINE
  5
28F
100
AcDbEntity
  8
0
100
AcDbLine
 62
7
  6
CONTINUOUS
 10
135.5286808924
 20
244.5798801568
 11
135.0286808924
 21
244.5798801568
  0
LINE
  5
290
100
AcDbEntity
  8
0
100
AcDbLine
 62
7
  6
CONTINUOUS
 10
135.5286808924
 20
244.7882126954
 11
135.0286808924
 21
244.7882126954
  0
LINE
  5
291
100
AcDbEntity
  8
0
100
AcDbLine
 62
7
  6
CONTINUOUS
 10
135.5286808924
 20
244.8923801568
 11
135.0286808924
 21
244.8923801568
  0
LINE
  5
292
100
AcDbEntity
  8
0
100
AcDbLine
 62
7
  6
CONTINUOUS
 10
135.5286808924
 20
244.9965476182
 11
135.0286808924
 21
244.9965476182
  0
LINE
  5
293
100
AcDbEntity
  8
FASEN
100
AcDbLine
 62
7
  6
CONTINUOUS
 10
190.5286808924
 20
167.1673801568
 11
190.5286808924
 21
176.6673801568
  0
LINE
  5
294
100
AcDbEntity
  8
KONSTRUKTIONSELEMENTE
100
AcDbLine
 62
7
  6
CONTINUOUS
 10
190.5286808924
 20
167.1673801568
 11
190.5286808924
 21
176.6673801568
  0
LINE
  5
295
100
AcDbEntity
  8
FASEN
100
AcDbLine
 62
7
  6
CONTINUOUS
 10
187.5286808924
 20
164.1673801567
 11
190.5286808924
 21
167.1673801567
  0
LINE
  5
296
100
AcDbEntity
  8
FASEN
100
AcDbLine
 62
7
  6
CONTINUOUS
 10
257.2083673351
 20
164.1673801568
 11
254.2083673351
 21
167.1673801568
  0
LINE
  5
297
100
AcDbEntity
  8
RUNDUNGEN
100
AcDbLine
 62
7
  6
CONTINUOUS
 10
270.8538077389
 20
261.0959052927
 11
267.1441895626
 21
256.6749545039
  0
LINE
  5
298
100
AcDbEntity
  8
FASEN
100
AcDbLine
 62
7
  6
CONTINUOUS
 10
331.2083673351
 20
164.1673801568
 11
257.2083673351
 21
164.1673801568
  0
LINE
  5
299
100
AcDbEntity
  8
FASEN
100
AcDbLine
 62
7
  6
CONTINUOUS
 10
334.2083673351
 20
167.1673801568
 11
254.2083673351
 21
167.1673801568
  0
LINE
  5
29A
100
AcDbEntity
  8
KONSTRUKTIONSELEMENTE
100
AcDbLine
 62
7
  6
CONTINUOUS
 10
254.2083673351
 20
167.1673801568
 11
254.2083673351
 21
176.6673801568
  0
LINE
  5
29B
100
AcDbEntity
  8
0
100
AcDbLine
 62
7
  6
CONTINUOUS
 10
272.1830480973
 20
244.5798801568
 11
271.8638991992
 21
244.2673801568
  0
LINE
  5
29C
100
AcDbEntity
  8
0
100
AcDbLine
 62
7
  6
CONTINUOUS
 10
272.2894310634
 20
243.9548801568
 11
272.9277291577
 21
244.3715476182
  0
LINE
  5
29D
100
AcDbEntity
  8
0
100
AcDbLine
 62
7
  6
CONTINUOUS
 10
272.6085799615
 20
244.7882126954
 11
272.1830480973
 21
244.5798801568
  0
LINE
  5
29E
100
AcDbEntity
  8
0
100
AcDbLine
 62
7
  6
CONTINUOUS
 10
260.2083673351
 20
225.8635325795
 11
260.2083673351
 21
177.1673801568
  0
LINE
  5
29F
100
AcDbEntity
  8
RUNDUNGEN
100
AcDbLine
 62
7
  6
CONTINUOUS
 10
260.6102911237
 20
227.3635325795
 11
265.7394562483
 21
236.2475071757
  0
LINE
  5
2A0
100
AcDbEntity
  8
0
100
AcDbLine
 62
7
  6
CONTINUOUS
 10
271.8638991992
 20
244.2673801568
 11
271.5447503011
 21
243.7465476182
  0
LINE
  5
2A1
100
AcDbEntity
  8
0
100
AcDbLine
 62
7
  6
CONTINUOUS
 10
272.0766651313
 20
243.6423801568
 11
272.2894310634
 21
243.9548801568
  0
LINE
  5
2A2
100
AcDbEntity
  8
0
100
AcDbLine
 62
7
  6
CONTINUOUS
 10
275.6936864983
 20
241.6632138875
 11
276.0128354336
 21
241.9757138875
  0
LINE
  5
2A3
100
AcDbEntity
  8
0
100
AcDbLine
 62
7
  6
CONTINUOUS
 10
275.5873035322
 20
242.2882138875
 11
274.9490056615
 21
241.8715464261
  0
LINE
  5
2A4
100
AcDbEntity
  8
0
100
AcDbLine
 62
7
  6
CONTINUOUS
 10
275.2681545596
 20
241.4548801568
 11
275.6936864983
 21
241.6632138875
  0
LINE
  5
2A5
100
AcDbEntity
  8
0
100
AcDbLine
 62
7
  6
CONTINUOUS
 10
272.9277291577
 20
244.8923801568
 11
272.6085799615
 21
244.7882126954
  0
LINE
  5
2A6
100
AcDbEntity
  8
FASEN
100
AcDbLine
 62
7
  6
CONTINUOUS
 10
254.2083673351
 20
176.6673801568
 11
334.2083673351
 21
176.6673801568
  0
LINE
  5
2A7
100
AcDbEntity
  8
FASEN
100
AcDbLine
 62
7
  6
CONTINUOUS
 10
254.7085979048
 20
177.1673801568
 11
333.7081367653
 21
177.1673801568
  0
LINE
  5
2A8
100
AcDbEntity
  8
0
100
AcDbLine
 62
7
  6
CONTINUOUS
 10
276.0128354336
 20
241.9757138875
 11
276.3319843597
 21
242.4965464261
  0
LINE
  5
2A9
100
AcDbEntity
  8
0
100
AcDbLine
 62
7
  6
CONTINUOUS
 10
275.8000694643
 20
242.6007138875
 11
275.5873035322
 21
242.2882138875
  0
LINE
  5
2AA
100
AcDbEntity
  8
0
100
AcDbLine
 62
7
  6
CONTINUOUS
 10
271.8638991992
 20
232.9132132914
 11
271.5447503011
 21
232.4965470221
  0
LINE
  5
2AB
100
AcDbEntity
  8
0
100
AcDbLine
 62
7
  6
CONTINUOUS
 10
272.0766651313
 20
232.3923801568
 11
272.2894310634
 21
232.6007132914
  0
LINE
  5
2AC
100
AcDbEntity
  8
0
100
AcDbLine
 62
7
  6
CONTINUOUS
 10
272.2894310634
 20
233.2257138875
 11
271.8638991992
 21
232.9132132914
  0
LINE
  5
2AD
100
AcDbEntity
  8
0
100
AcDbLine
 62
7
  6
CONTINUOUS
 10
274.9490056615
 20
241.3507138875
 11
275.2681545596
 21
241.4548801568
  0
LINE
  5
2AE
100
AcDbEntity
  8
RUNDUNGEN
100
AcDbLine
 62
7
  6
CONTINUOUS
 10
266.2083673351
 20
237.9975071757
 11
266.2083673351
 21
254.1038040651
  0
LINE
  5
2AF
100
AcDbEntity
  8
0
100
AcDbLine
 62
7
  6
CONTINUOUS
 10
271.5447503011
 20
243.7465476182
 11
271.4383673351
 21
243.1215476182
  0
LINE
  5
2B0
100
AcDbEntity
  8
0
100
AcDbLine
 62
7
  6
CONTINUOUS
 10
271.9702821653
 20
243.1215476182
 11
272.0766651313
 21
243.6423801568
  0
LINE
  5
2B1
100
AcDbEntity
  8
0
100
AcDbLine
 62
7
  6
CONTINUOUS
 10
271.5447503011
 20
232.4965470221
 11
271.4383673351
 21
231.9757132914
  0
LINE
  5
2B2
100
AcDbEntity
  8
0
100
AcDbLine
 62
7
  6
CONTINUOUS
 10
271.9702821653
 20
232.0798801568
 11
272.0766651313
 21
232.3923801568
  0
LINE
  5
2B3
100
AcDbEntity
  8
0
100
AcDbLine
 62
7
  6
CONTINUOUS
 10
272.6085799615
 20
233.3298801568
 11
272.2894310634
 21
233.2257138875
  0
LINE
  5
2B4
100
AcDbEntity
  8
0
100
AcDbLine
 62
7
  6
CONTINUOUS
 10
272.2894310634
 20
232.6007132914
 11
272.6085799615
 21
232.7048801568
  0
LINE
  5
2B5
100
AcDbEntity
  8
0
100
AcDbLine
 62
7
  6
CONTINUOUS
 10
271.4383673351
 20
240.4132138875
 11
271.4383673351
 21
239.7882138875
  0
LINE
  5
2B6
100
AcDbEntity
  8
0
100
AcDbLine
 62
7
  6
CONTINUOUS
 10
271.4383673351
 20
231.9757132914
 11
271.4383673351
 21
229.4757132914
  0
LINE
  5
2B7
100
AcDbEntity
  8
0
100
AcDbLine
 62
7
  6
CONTINUOUS
 10
271.4383673351
 20
228.6423801568
 11
271.4383673351
 21
228.0173801568
  0
LINE
  5
2B8
100
AcDbEntity
  8
0
100
AcDbLine
 62
7
  6
CONTINUOUS
 10
271.4383673351
 20
227.1840467241
 11
271.4383673351
 21
226.5590467241
  0
LINE
  5
2B9
100
AcDbEntity
  8
0
100
AcDbLine
 62
7
  6
CONTINUOUS
 10
271.4383673351
 20
223.6423801568
 11
271.4383673351
 21
223.0173801568
  0
LINE
  5
2BA
100
AcDbEntity
  8
0
100
AcDbLine
 62
7
  6
CONTINUOUS
 10
271.9702821653
 20
230.1007132914
 11
271.9702821653
 21
232.0798801568
  0
LINE
  5
2BB
100
AcDbEntity
  8
0
100
AcDbLine
 62
7
  6
CONTINUOUS
 10
273.5660269539
 20
232.0798801568
 11
273.5660269539
 21
230.1007132914
  0
LINE
  5
2BC
100
AcDbEntity
  8
0
100
AcDbLine
 62
7
  6
CONTINUOUS
 10
276.3319843597
 20
242.4965464261
 11
276.4383673351
 21
243.1215476182
  0
LINE
  5
2BD
100
AcDbEntity
  8
0
100
AcDbLine
 62
7
  6
CONTINUOUS
 10
275.9064524303
 20
243.1215476182
 11
275.8000694643
 21
242.6007138875
  0
LINE
  5
2BE
100
AcDbEntity
  8
RUNDUNGEN
100
AcDbLine
 62
7
  6
CONTINUOUS
 10
288.3485149075
 20
240.2986570695
 11
285.6795998034
 21
237.9786045651
  0
LINE
  5
2BF
100
AcDbEntity
  8
0
100
AcDbLine
 62
7
  6
CONTINUOUS
 10
274.2043247502
 20
230.1007132914
 11
274.2043247502
 21
231.9757132914
  0
LINE
  5
2C0
100
AcDbEntity
  8
0
100
AcDbLine
 62
7
  6
CONTINUOUS
 10
276.4383673351
 20
224.6840468731
 11
276.4383673351
 21
225.5173801568
  0
LINE
  5
2C1
100
AcDbEntity
  8
0
100
AcDbLine
 62
7
  6
CONTINUOUS
 10
276.4383673351
 20
228.0173801568
 11
276.4383673351
 21
228.6423801568
  0
LINE
  5
2C2
100
AcDbEntity
  8
0
100
AcDbLine
 62
7
  6
CONTINUOUS
 10
276.4383673351
 20
229.4757132914
 11
276.4383673351
 21
230.1007132914
  0
LINE
  5
2C3
100
AcDbEntity
  8
0
100
AcDbLine
 62
7
  6
CONTINUOUS
 10
276.4383673351
 20
239.7882138875
 11
276.4383673351
 21
240.4132138875
  0
LINE
  5
2C4
100
AcDbEntity
  8
0
100
AcDbLine
 62
7
  6
CONTINUOUS
 10
275.8000694643
 20
225.1007134404
 11
271.4383673351
 21
223.6423801568
  0
LINE
  5
2C5
100
AcDbEntity
  8
0
100
AcDbLine
 62
7
  6
CONTINUOUS
 10
271.4383673351
 20
223.0173801568
 11
276.4383673351
 21
224.6840468731
  0
LINE
  5
2C6
100
AcDbEntity
  8
0
100
AcDbLine
 62
7
  6
CONTINUOUS
 10
271.4383673351
 20
243.1215476182
 11
271.5447503011
 21
242.4965464261
  0
LINE
  5
2C7
100
AcDbEntity
  8
0
100
AcDbLine
 62
7
  6
CONTINUOUS
 10
273.4596439879
 20
232.3923801568
 11
273.5660269539
 21
232.0798801568
  0
LINE
  5
2C8
100
AcDbEntity
  8
0
100
AcDbLine
 62
7
  6
CONTINUOUS
 10
274.2043247502
 20
231.9757132914
 11
274.0979417841
 21
232.4965470221
  0
LINE
  5
2C9
100
AcDbEntity
  8
0
100
AcDbLine
 62
7
  6
CONTINUOUS
 10
272.0766651313
 20
242.6007138875
 11
271.9702821653
 21
243.1215476182
  0
LINE
  5
2CA
100
AcDbEntity
  8
0
100
AcDbLine
 62
7
  6
CONTINUOUS
 10
276.4383673351
 20
243.1215476182
 11
276.3319843597
 21
243.7465476182
  0
LINE
  5
2CB
100
AcDbEntity
  8
0
100
AcDbLine
 62
7
  6
CONTINUOUS
 10
275.8000694643
 20
243.6423801568
 11
275.9064524303
 21
243.1215476182
  0
LINE
  5
2CC
100
AcDbEntity
  8
RUNDUNGEN
100
AcDbLine
 62
7
  6
CONTINUOUS
 10
289.2083673351
 20
242.1854310201
 11
289.2083673351
 21
256.8244499838
  0
LINE
  5
2CD
100
AcDbEntity
  8
0
100
AcDbLine
 62
7
  6
CONTINUOUS
 10
274.0979417841
 20
232.4965470221
 11
273.778792886
 21
232.9132132914
  0
LINE
  5
2CE
100
AcDbEntity
  8
0
100
AcDbLine
 62
7
  6
CONTINUOUS
 10
271.5447503011
 20
242.4965464261
 11
271.8638991992
 21
241.9757138875
  0
LINE
  5
2CF
100
AcDbEntity
  8
FASEN
100
AcDbLine
 62
7
  6
CONTINUOUS
 10
254.7083673351
 20
177.1673801568
 11
254.2083673351
 21
176.6673801568
  0
LINE
  5
2D0
100
AcDbEntity
  8
RUNDUNGEN
100
AcDbLine
 62
7
  6
CONTINUOUS
 10
317.8938058997
 20
213.1673801568
 11
270.5229287704
 21
213.1673801568
  0
LINE
  5
2D1
100
AcDbEntity
  8
0
100
AcDbLine
 62
7
  6
CONTINUOUS
 10
273.2468780558
 20
232.6007132914
 11
273.4596439879
 21
232.3923801568
  0
LINE
  5
2D2
100
AcDbEntity
  8
0
100
AcDbLine
 62
7
  6
CONTINUOUS
 10
272.2894310634
 20
242.2882138875
 11
272.0766651313
 21
242.6007138875
  0
LINE
  5
2D3
100
AcDbEntity
  8
0
100
AcDbLine
 62
7
  6
CONTINUOUS
 10
273.778792886
 20
232.9132132914
 11
273.3532610218
 21
233.2257138875
  0
LINE
  5
2D4
100
AcDbEntity
  8
FASEN
100
AcDbLine
 62
7
  6
CONTINUOUS
 10
333.7083673351
 20
177.1673801568
 11
334.2083673351
 21
176.6673801568
  0
LINE
  5
2D5
100
AcDbEntity
  8
0
100
AcDbLine
 62
7
  6
CONTINUOUS
 10
275.5873035322
 20
243.9548801568
 11
275.8000694643
 21
243.6423801568
  0
LINE
  5
2D6
100
AcDbEntity
  8
0
100
AcDbLine
 62
7
  6
CONTINUOUS
 10
276.3319843597
 20
243.7465476182
 11
276.0128354336
 21
244.2673801568
  0
LINE
  5
2D7
100
AcDbEntity
  8
RUNDUNGEN
100
AcDbLine
 62
7
  6
CONTINUOUS
 10
299.2083673351
 20
242.1854310201
 11
299.2083673351
 21
256.8244495079
  0
LINE
  5
2D8
100
AcDbEntity
  8
0
100
AcDbLine
 62
7
  6
CONTINUOUS
 10
276.4383673351
 20
225.5173801568
 11
271.4383673351
 21
227.1840467241
  0
LINE
  5
2D9
100
AcDbEntity
  8
0
100
AcDbLine
 62
7
  6
CONTINUOUS
 10
271.4383673351
 20
226.5590467241
 11
275.8000694643
 21
225.1007134404
  0
LINE
  5
2DA
100
AcDbEntity
  8
0
100
AcDbLine
 62
7
  6
CONTINUOUS
 10
271.4383673351
 20
239.7882138875
 11
272.1830480973
 21
239.1632138875
  0
LINE
  5
2DB
100
AcDbEntity
  8
0
100
AcDbLine
 62
7
  6
CONTINUOUS
 10
273.0341121237
 20
239.1632138875
 11
272.2894310634
 21
239.7882138875
  0
LINE
  5
2DC
100
AcDbEntity
  8
0
100
AcDbLine
 62
7
  6
CONTINUOUS
 10
271.8638991992
 20
241.9757138875
 11
272.1830480973
 21
241.6632138875
  0
LINE
  5
2DD
100
AcDbEntity
  8
0
100
AcDbLine
 62
7
  6
CONTINUOUS
 10
272.9277291577
 20
232.7048801568
 11
273.2468780558
 21
232.6007132914
  0
LINE
  5
2DE
100
AcDbEntity
  8
0
100
AcDbLine
 62
7
  6
CONTINUOUS
 10
273.3532610218
 20
233.2257138875
 11
273.0341121237
 21
233.3298801568
  0
LINE
  5
2DF
100
AcDbEntity
  8
0
100
AcDbLine
 62
7
  6
CONTINUOUS
 10
272.9277291577
 20
241.8715464261
 11
272.2894310634
 21
242.2882138875
  0
LINE
  5
2E0
100
AcDbEntity
  8
0
100
AcDbLine
 62
7
  6
CONTINUOUS
 10
276.0128354336
 20
244.2673801568
 11
275.6936864983
 21
244.5798801568
  0
LINE
  5
2E1
100
AcDbEntity
  8
0
100
AcDbLine
 62
7
  6
CONTINUOUS
 10
271.4383673351
 20
228.0173801568
 11
276.4383673351
 21
228.0173801568
  0
LINE
  5
2E2
100
AcDbEntity
  8
0
100
AcDbLine
 62
7
  6
CONTINUOUS
 10
276.4383673351
 20
228.6423801568
 11
271.4383673351
 21
228.6423801568
  0
LINE
  5
2E3
100
AcDbEntity
  8
0
100
AcDbLine
 62
7
  6
CONTINUOUS
 10
271.4383673351
 20
229.4757132914
 11
276.4383673351
 21
229.4757132914
  0
LINE
  5
2E4
100
AcDbEntity
  8
0
100
AcDbLine
 62
7
  6
CONTINUOUS
 10
276.4383673351
 20
230.1007132914
 11
274.2043247502
 21
230.1007132914
  0
LINE
  5
2E5
100
AcDbEntity
  8
0
100
AcDbLine
 62
7
  6
CONTINUOUS
 10
273.5660269539
 20
230.1007132914
 11
271.9702821653
 21
230.1007132914
  0
LINE
  5
2E6
100
AcDbEntity
  8
0
100
AcDbLine
 62
7
  6
CONTINUOUS
 10
272.1830480973
 20
241.6632138875
 11
272.6085799615
 21
241.4548801568
  0
LINE
  5
2E7
100
AcDbEntity
  8
0
100
AcDbLine
 62
7
  6
CONTINUOUS
 10
274.9490056615
 20
244.3715476182
 11
275.5873035322
 21
243.9548801568
  0
LINE
  5
2E8
100
AcDbEntity
  8
0
100
AcDbLine
 62
7
  6
CONTINUOUS
 10
314.5345721061
 20
237.5103316171
 11
314.5345721061
 21
235.7605495495
  0
LINE
  5
2E9
100
AcDbEntity
  8
0
100
AcDbLine
 62
7
  6
CONTINUOUS
 10
315.4410734483
 20
235.7591124674
 11
315.4410734483
 21
237.5103316171
  0
LINE
  5
2EA
100
AcDbEntity
  8
0
100
AcDbLine
 62
7
  6
CONTINUOUS
 10
272.6085799615
 20
232.7048801568
 11
272.9277291577
 21
232.7048801568
  0
LINE
  5
2EB
100
AcDbEntity
  8
0
100
AcDbLine
 62
7
  6
CONTINUOUS
 10
317.9760357596
 20
233.0103316171
 11
317.0695344174
 21
233.0103316171
  0
LINE
  5
2EC
100
AcDbEntity
  8
0
100
AcDbLine
 62
7
  6
CONTINUOUS
 10
312.9126124792
 20
233.0103316171
 11
312.006111137
 21
233.0103316171
  0
LINE
  5
2ED
100
AcDbEntity
  8
0
100
AcDbLine
 62
7
  6
CONTINUOUS
 10
273.0341121237
 20
233.3298801568
 11
272.6085799615
 21
233.3298801568
  0
LINE
  5
2EE
100
AcDbEntity
  8
0
100
AcDbLine
 62
7
  6
CONTINUOUS
 10
272.6085799615
 20
241.4548801568
 11
272.9277291577
 21
241.3507138875
  0
LINE
  5
2EF
100
AcDbEntity
  8
0
100
AcDbLine
 62
7
  6
CONTINUOUS
 10
275.6936864983
 20
244.5798801568
 11
275.2681545596
 21
244.7882126954
  0
LINE
  5
2F0
100
AcDbEntity
  8
0
100
AcDbLine
 62
7
  6
CONTINUOUS
 10
317.9894715171
 20
232.6220890415
 11
317.9760357596
 21
233.0103316171
  0
LINE
  5
2F1
100
AcDbEntity
  8
0
100
AcDbLine
 62
7
  6
CONTINUOUS
 10
317.9894715171
 20
237.7220890415
 11
317.9760357596
 21
238.1103316171
  0
LINE
  5
2F2
100
AcDbEntity
  8
0
100
AcDbLine
 62
7
  6
CONTINUOUS
 10
315.4410734483
 20
237.5103316171
 11
314.5345721061
 21
237.5103316171
  0
LINE
  5
2F3
100
AcDbEntity
  8
0
100
AcDbLine
 62
7
  6
CONTINUOUS
 10
317.9760357596
 20
238.1103316171
 11
317.0695344174
 21
238.1103316171
  0
LINE
  5
2F4
100
AcDbEntity
  8
0
100
AcDbLine
 62
7
  6
CONTINUOUS
 10
312.9126124792
 20
238.1103316171
 11
312.006111137
 21
238.1103316171
  0
LINE
  5
2F5
100
AcDbEntity
  8
0
100
AcDbLine
 62
7
  6
CONTINUOUS
 10
273.5660269539
 20
241.7673801568
 11
272.9277291577
 21
241.8715464261
  0
LINE
  5
2F6
100
AcDbEntity
  8
0
100
AcDbLine
 62
7
  6
CONTINUOUS
 10
272.9277291577
 20
241.3507138875
 11
273.4596439879
 21
241.2465464261
  0
LINE
  5
2F7
100
AcDbEntity
  8
0
100
AcDbLine
 62
7
  6
CONTINUOUS
 10
275.2681545596
 20
244.7882126954
 11
274.9490056615
 21
244.8923801568
  0
LINE
  5
2F8
100
AcDbEntity
  8
RUNDUNGEN
100
AcDbLine
 62
7
  6
CONTINUOUS
 10
302.7371332022
 20
237.9786060121
 11
300.0682197626
 21
240.2986570695
  0
LINE
  5
2F9
100
AcDbEntity
  8
RUNDUNGEN
100
AcDbLine
 62
7
  6
CONTINUOUS
 10
322.2083673351
 20
254.1038523499
 11
322.2083673351
 21
237.9975071757
  0
LINE
  5
2FA
100
AcDbEntity
  8
0
100
AcDbLine
 62
7
  6
CONTINUOUS
 10
272.1830480973
 20
239.1632138875
 11
273.0341121237
 21
239.1632138875
  0
LINE
  5
2FB
100
AcDbEntity
  8
0
100
AcDbLine
 62
7
  6
CONTINUOUS
 10
272.2894310634
 20
239.7882138875
 11
276.4383673351
 21
239.7882138875
  0
LINE
  5
2FC
100
AcDbEntity
  8
0
100
AcDbLine
 62
7
  6
CONTINUOUS
 10
276.4383673351
 20
240.4132138875
 11
271.4383673351
 21
240.4132138875
  0
LINE
  5
2FD
100
AcDbEntity
  8
BEZUGSACHSEN
100
AcDbLine
 62
7
  6
CONTINUOUS
 10
289.0009966433
 20
241.1673801568
 11
299.4157380809
 21
241.1673801568
  0
LINE
  5
2FE
100
AcDbEntity
  8
0
100
AcDbLine
 62
7
  6
CONTINUOUS
 10
273.4596439879
 20
241.2465464261
 11
274.4170906822
 21
241.2465464261
  0
LINE
  5
2FF
100
AcDbEntity
  8
0
100
AcDbLine
 62
7
  6
CONTINUOUS
 10
274.3107077162
 20
241.7673801568
 11
273.5660269539
 21
241.7673801568
  0
LINE
  5
300
100
AcDbEntity
  8
0
100
AcDbLine
 62
7
  6
CONTINUOUS
 10
274.3107077162
 20
244.4757126954
 11
274.9490056615
 21
244.3715476182
  0
LINE
  5
301
100
AcDbEntity
  8
0
100
AcDbLine
 62
7
  6
CONTINUOUS
 10
274.9490056615
 20
244.8923801568
 11
274.4170906822
 21
244.9965476182
  0
LINE
  5
302
100
AcDbEntity
  8
0
100
AcDbLine
 62
7
  6
CONTINUOUS
 10
328.2083673351
 20
225.8635325795
 11
328.2083673351
 21
177.1673801568
  0
LINE
  5
303
100
AcDbEntity
  8
0
100
AcDbLine
 62
7
  6
CONTINUOUS
 10
274.4170906822
 20
241.2465464261
 11
274.9490056615
 21
241.3507138875
  0
LINE
  5
304
100
AcDbEntity
  8
0
100
AcDbLine
 62
7
  6
CONTINUOUS
 10
274.9490056615
 20
241.8715464261
 11
274.3107077162
 21
241.7673801568
  0
LINE
  5
305
100
AcDbEntity
  8
0
100
AcDbLine
 62
7
  6
CONTINUOUS
 10
272.9277291577
 20
244.3715476182
 11
273.5660269539
 21
244.4757126954
  0
LINE
  5
306
100
AcDbEntity
  8
0
100
AcDbLine
 62
7
  6
CONTINUOUS
 10
273.5660269539
 20
244.4757126954
 11
274.3107077162
 21
244.4757126954
  0
LINE
  5
307
100
AcDbEntity
  8
0
100
AcDbLine
 62
7
  6
CONTINUOUS
 10
274.4170906822
 20
244.9965476182
 11
273.4596439879
 21
244.9965476182
  0
LINE
  5
308
100
AcDbEntity
  8
0
100
AcDbLine
 62
7
  6
CONTINUOUS
 10
273.4596439879
 20
244.9965476182
 11
272.9277291577
 21
244.8923801568
  0
LINE
  5
309
100
AcDbEntity
  8
RUNDUNGEN
100
AcDbLine
 62
7
  6
CONTINUOUS
 10
322.6772784218
 20
236.2475071757
 11
327.8064435464
 21
227.3635325795
  0
LINE
  5
30A
100
AcDbEntity
  8
KONSTRUKTIONSELEMENTE
100
AcDbLine
 62
7
  6
CONTINUOUS
 10
334.2083673351
 20
167.1673801568
 11
334.2083673351
 21
176.6673801568
  0
LINE
  5
30B
100
AcDbEntity
  8
BEZUGSACHSEN
100
AcDbLine
 62
7
  6
CONTINUOUS
 10
289.2083673351
 20
253.1673801568
 11
299.2083673351
 21
253.1673801568
  0
LINE
  5
30C
100
AcDbEntity
  8
0
100
AcDbLine
 62
7
  6
CONTINUOUS
 10
273.131078088
 20
262.1673801568
 11
280.6403903304
 21
262.1673801568
  0
LINE
  5
30D
100
AcDbEntity
  8
0
100
AcDbLine
 62
7
  6
CONTINUOUS
 10
307.7763443397
 20
262.1673801568
 11
315.2856567379
 21
262.1673801568
  0
LINE
  5
30E
100
AcDbEntity
  8
RUNDUNGEN
100
AcDbLine
 62
7
  6
CONTINUOUS
 10
317.5629268977
 20
261.0959053326
 11
321.2725451075
 21
256.6749545039
  0
LINE
  5
30F
100
AcDbEntity
  8
FASEN
100
AcDbLine
 62
7
  6
CONTINUOUS
 10
331.2083673351
 20
164.1673801568
 11
334.2083673351
 21
167.1673801568
  0
LINE
  5
310
100
AcDbEntity
  8
RUNDUNGEN
100
AcDbLine
 62
7
  6
CONTINUOUS
 10
138.5286808924
 20
39.6634682373
 11
162.5286808924
 21
39.6634682373
  0
LINE
  5
311
100
AcDbEntity
  8
0
100
AcDbLine
 62
7
  6
CONTINUOUS
 10
135.5286808924
 20
43.880762124
 11
135.0286808924
 21
43.880762124
  0
LINE
  5
312
100
AcDbEntity
  8
0
100
AcDbLine
 62
7
  6
CONTINUOUS
 10
135.5286808924
 20
43.8957998127
 11
135.0286808924
 21
43.8957998127
  0
LINE
  5
313
100
AcDbEntity
  8
0
100
AcDbLine
 62
7
  6
CONTINUOUS
 10
135.5286808924
 20
44.802301155
 11
135.0286808924
 21
44.802301155
  0
LINE
  5
314
100
AcDbEntity
  8
0
100
AcDbLine
 62
7
  6
CONTINUOUS
 10
135.5286808924
 20
46.430762124
 11
135.0286808924
 21
46.430762124
  0
LINE
  5
315
100
AcDbEntity
  8
0
100
AcDbLine
 62
7
  6
CONTINUOUS
 10
135.5286808924
 20
47.3372634663
 11
135.0286808924
 21
47.3372634663
  0
LINE
  5
316
100
AcDbEntity
  8
0
100
AcDbLine
 62
7
  6
CONTINUOUS
 10
135.5286808924
 20
48.9592230931
 11
135.0286808924
 21
48.9592230931
  0
LWPOLYLINE
  5
317
100
AcDbEntity
  8
RUNDUNGEN
100
AcDbPolyline
 62
7
  6
CONTINUOUS
 90
7
 70
0
 10
135.5286811204
 20
80.9156400151
 10
135.5312542746
 20
80.7850826832
 10
135.561465459
 20
80.4472455273
 10
135.6262115711
 20
80.1089325169
 10
135.7253970668
 20
79.7747684452
 10
135.8584859893
 20
79.448269802
 10
136.0244491189
 20
79.1329168147
  0
LINE
  5
318
100
AcDbEntity
  8
0
100
AcDbLine
 62
7
  6
CONTINUOUS
 10
135.0286808924
 20
43.8811425035
 11
135.0286808924
 21
44.802301155
  0
LINE
  5
319
100
AcDbEntity
  8
0
100
AcDbLine
 62
7
  6
CONTINUOUS
 10
135.0286808924
 20
44.8787586082
 11
135.0286808924
 21
49.8803817446
  0
LINE
  5
31A
100
AcDbEntity
  8
0
100
AcDbLine
 62
7
  6
CONTINUOUS
 10
135.0286808924
 20
85.4334682373
 11
135.0286808924
 21
90.4334682373
  0
LINE
  5
31B
100
AcDbEntity
  8
RUNDUNGEN
100
AcDbLine
 62
7
  6
CONTINUOUS
 10
135.5286808924
 20
39.0802447247
 11
135.5286808924
 21
55.8206500708
  0
LINE
  5
31C
100
AcDbEntity
  8
RUNDUNGEN
100
AcDbLine
 62
7
  6
CONTINUOUS
 10
135.5286808924
 20
79.5062871045
 11
135.5286808924
 21
96.2466800498
  0
LINE
  5
31D
100
AcDbEntity
  8
0
100
AcDbLine
 62
7
  6
CONTINUOUS
 10
135.5286808924
 20
49.8657244354
 11
135.0286808924
 21
49.8657244354
  0
LINE
  5
31E
100
AcDbEntity
  8
0
100
AcDbLine
 62
7
  6
CONTINUOUS
 10
135.5286808924
 20
49.880762124
 11
135.0286808924
 21
49.880762124
  0
LINE
  5
31F
100
AcDbEntity
  8
0
100
AcDbLine
 62
7
  6
CONTINUOUS
 10
181.0409734972
 20
52.6634682373
 11
181.3193044652
 21
52.6634682373
  0
LINE
  5
320
100
AcDbEntity
  8
0
100
AcDbLine
 62
7
  6
CONTINUOUS
 10
182.6135293415
 20
56.4134682373
 11
182.8783331317
 21
56.4134682373
  0
LWPOLYLINE
  5
321
100
AcDbEntity
  8
RUNDUNGEN
100
AcDbPolyline
 62
7
  6
CONTINUOUS
 90
7
 70
0
 10
136.0159624794
 20
56.1795493878
 10
135.8513282961
 20
55.8632060591
 10
135.7196897594
 20
55.535798241
 10
135.6220778453
 20
55.2008374222
 10
135.5590214653
 20
54.8618844536
 10
135.530590136
 20
54.5236178101
 10
135.5286810956
 20
54.4113391499
  0
LINE
  5
322
100
AcDbEntity
  8
0
100
AcDbLine
 62
7
  6
CONTINUOUS
 10
182.876869042
 20
57.1947183863
 11
183.1395345543
 21
57.1947183863
  0
LINE
  5
323
100
AcDbEntity
  8
0
100
AcDbLine
 62
7
  6
CONTINUOUS
 10
183.024834511
 20
57.6634682373
 11
183.2863135908
 21
57.6634682373
  0
LINE
  5
324
100
AcDbEntity
  8
BEZUGSACHSEN
100
AcDbLine
 62
7
  6
CONTINUOUS
 10
144.5286808924
 20
72.6634682373
 11
144.5286808924
 21
62.6634682373
  0
LINE
  5
325
100
AcDbEntity
  8
RUNDUNGEN
100
AcDbLine
 62
7
  6
CONTINUOUS
 10
137.170385844
 20
57.9296678343
 11
137.0734687983
 21
57.7540428788
  0
LWPOLYLINE
  5
326
100
AcDbEntity
  8
RUNDUNGEN
100
AcDbPolyline
 62
7
  6
CONTINUOUS
 90
6
 70
0
 10
137.0734687983
 20
57.7540428788
 10
136.9209434529
 20
57.493094073
 10
136.7633382788
 20
57.2418837027
 10
136.6009553337
 20
57.0011525592
 10
136.4341319534
 20
56.7715732947
 10
136.321927806
 20
56.6266475117
  0
LINE
  5
327
100
AcDbEntity
  8
RUNDUNGEN
100
AcDbLine
 62
7
  6
CONTINUOUS
 10
136.2118081666
 20
56.4810398663
 11
136.0159624794
 21
56.1795493878
  0
LINE
  5
328
100
AcDbEntity
  8
RUNDUNGEN
100
AcDbLine
 62
7
  6
CONTINUOUS
 10
136.3218782353
 20
56.6265875274
 11
136.2118081666
 21
56.4810398663
  0
LINE
  5
329
100
AcDbEntity
  8
RUNDUNGEN
100
AcDbLine
 62
7
  6
CONTINUOUS
 10
136.321927806
 20
56.6266475117
 11
136.3218797162
 21
56.6265869715
  0
LINE
  5
32A
100
AcDbEntity
  8
0
100
AcDbLine
 62
7
  6
CONTINUOUS
 10
183.949295788
 20
61.4134682373
 11
184.2035973734
 21
61.4134682373
  0
LINE
  5
32B
100
AcDbEntity
  8
0
100
AcDbLine
 62
7
  6
CONTINUOUS
 10
184.0859867299
 20
62.1947183863
 11
184.3392602289
 21
62.1947183863
  0
LINE
  5
32C
100
AcDbEntity
  8
RUNDUNGEN
100
AcDbLine
 62
7
  6
CONTINUOUS
 10
142.4659739365
 20
62.6634682373
 11
158.5913878484
 21
62.6634682373
  0
LINE
  5
32D
100
AcDbEntity
  8
0
100
AcDbLine
 62
7
  6
CONTINUOUS
 10
184.1818840972
 20
62.8197182373
 11
184.4344412576
 21
62.8197182373
  0
LINE
  5
32E
100
AcDbEntity
  8
0
100
AcDbLine
 62
7
  6
CONTINUOUS
 10
184.2460262061
 20
63.2884682373
 11
184.4981064837
 21
63.2884682373
  0
LINE
  5
32F
100
AcDbEntity
  8
0
100
AcDbLine
 62
7
  6
CONTINUOUS
 10
184.265932517
 20
63.4447180883
 11
184.5178651601
 21
63.4447180883
  0
LINE
  5
330
100
AcDbEntity
  8
0
100
AcDbLine
 62
7
  6
CONTINUOUS
 10
184.2851039103
 20
63.6009683863
 11
184.5368945321
 21
63.6009683863
  0
LINE
  5
331
100
AcDbEntity
  8
0
100
AcDbLine
 62
7
  6
CONTINUOUS
 10
184.3544638354
 20
64.2259679393
 11
184.6057419703
 21
64.2259679393
  0
LINE
  5
332
100
AcDbEntity
  8
RUNDUNGEN
100
AcDbLine
 62
7
  6
CONTINUOUS
 10
136.3219200881
 20
78.7002968877
 11
136.3218756927
 21
78.7003527775
  0
LWPOLYLINE
  5
333
100
AcDbEntity
  8
RUNDUNGEN
100
AcDbPolyline
 62
7
  6
CONTINUOUS
 90
5
 70
0
 10
136.321920039
 20
78.7002965311
 10
136.4388538905
 20
78.5490969868
 10
136.6055772136
 20
78.319173989
 10
136.7678803842
 20
78.0780622837
 10
136.925433702
 20
77.8264184817
  0
LINE
  5
334
100
AcDbEntity
  8
RUNDUNGEN
100
AcDbLine
 62
7
  6
CONTINUOUS
 10
136.2215199762
 20
78.8324588909
 11
136.3218756927
 21
78.7003527775
  0
LINE
  5
335
100
AcDbEntity
  8
RUNDUNGEN
100
AcDbLine
 62
7
  6
CONTINUOUS
 10
136.0244491189
 20
79.1329168147
 11
136.2215199762
 21
78.8324588909
  0
LWPOLYLINE
  5
336
100
AcDbEntity
  8
RUNDUNGEN
100
AcDbPolyline
 62
7
  6
CONTINUOUS
 90
3
 70
0
 10
136.925433702
 20
77.8264184817
 10
137.0779490651
 20
77.5649467766
 10
137.1702557591
 20
77.397509382
  0
LINE
  5
337
100
AcDbEntity
  8
0
100
AcDbLine
 62
7
  6
CONTINUOUS
 10
184.4121553736
 20
64.8509680883
 11
184.6630088177
 21
64.8509680883
  0
LINE
  5
338
100
AcDbEntity
  8
0
100
AcDbLine
 62
7
  6
CONTINUOUS
 10
184.4769411736
 20
65.7884685353
 11
184.7273194051
 21
65.7884685353
  0
LINE
  5
339
100
AcDbEntity
  8
0
100
AcDbLine
 62
7
  6
CONTINUOUS
 10
184.4852104179
 20
65.9447179393
 11
184.7355281224
 21
65.9447179393
  0
LINE
  5
33A
100
AcDbEntity
  8
0
100
AcDbLine
 62
7
  6
CONTINUOUS
 10
184.4995870001
 20
66.2572185353
 11
184.7497995442
 21
66.2572185353
  0
LINE
  5
33B
100
AcDbEntity
  8
0
100
AcDbLine
 62
7
  6
CONTINUOUS
 10
184.5157533511
 20
66.7259685353
 11
184.7658477482
 21
66.7259685353
  0
LINE
  5
33C
100
AcDbEntity
  8
0
100
AcDbLine
 62
7
  6
CONTINUOUS
 10
184.5272447381
 20
67.3509679393
 11
184.7772552214
 21
67.3509679393
  0
LINE
  5
33D
100
AcDbEntity
  8
0
100
AcDbLine
 62
7
  6
CONTINUOUS
 10
184.5272447408
 20
67.9759682373
 11
184.7772552241
 21
67.9759682373
  0
LINE
  5
33E
100
AcDbEntity
  8
RUNDUNGEN
100
AcDbLine
 62
7
  6
CONTINUOUS
 10
164.7354390301
 20
78.700293491
 11
164.7354816809
 21
78.7003471844
  0
LINE
  5
33F
100
AcDbEntity
  8
0
100
AcDbLine
 62
7
  6
CONTINUOUS
 10
184.5157533346
 20
68.6009685353
 11
184.7658477319
 21
68.6009685353
  0
LINE
  5
340
100
AcDbEntity
  8
0
100
AcDbLine
 62
7
  6
CONTINUOUS
 10
184.4995869754
 20
69.0697185353
 11
184.7497995197
 21
69.0697185353
  0
LINE
  5
341
100
AcDbEntity
  8
0
100
AcDbLine
 62
7
  6
CONTINUOUS
 10
184.485210433
 20
69.3822182373
 11
184.7355281374
 21
69.3822182373
  0
LINE
  5
342
100
AcDbEntity
  8
0
100
AcDbLine
 62
7
  6
CONTINUOUS
 10
184.4769411407
 20
69.5384685353
 11
184.7273193724
 21
69.5384685353
  0
LINE
  5
343
100
AcDbEntity
  8
0
100
AcDbLine
 62
7
  6
CONTINUOUS
 10
184.4121553612
 20
70.4759685353
 11
184.6630088055
 21
70.4759685353
  0
LINE
  5
344
100
AcDbEntity
  8
0
100
AcDbLine
 62
7
  6
CONTINUOUS
 10
184.2851038924
 20
71.7259682373
 11
184.5368945143
 21
71.7259682373
  0
LINE
  5
345
100
AcDbEntity
  8
RUNDUNGEN
100
AcDbLine
 62
7
  6
CONTINUOUS
 10
164.7354361144
 20
56.6266466604
 11
164.7354852689
 21
56.6265847798
  0
LINE
  5
346
100
AcDbEntity
  8
BEZUGSACHSEN
100
AcDbLine
 62
7
  6
CONTINUOUS
 10
156.5286808924
 20
72.6634682373
 11
156.5286808924
 21
62.6634682373
  0
LWPOLYLINE
  5
347
100
AcDbEntity
  8
RUNDUNGEN
100
AcDbPolyline
 62
7
  6
CONTINUOUS
 90
7
 70
0
 10
165.0413998714
 20
79.1473873828
 10
165.2060337331
 20
79.4637301966
 10
165.3376716249
 20
79.7911364552
 10
165.4352831925
 20
80.1260955355
 10
165.4983396906
 20
80.4650473567
 10
165.5267714661
 20
80.8033146943
 10
165.5286806349
 20
80.9155963482
  0
LINE
  5
348
100
AcDbEntity
  8
RUNDUNGEN
100
AcDbLine
 62
7
  6
CONTINUOUS
 10
163.8870927427
 20
77.3974851748
 11
163.9839726021
 21
77.5730335323
  0
LWPOLYLINE
  5
349
100
AcDbEntity
  8
RUNDUNGEN
100
AcDbPolyline
 62
7
  6
CONTINUOUS
 90
6
 70
0
 10
163.9839726021
 20
77.5730335323
 10
164.136551022
 20
77.8340618921
 10
164.2941677182
 20
78.0852750107
 10
164.4565325815
 20
78.3259646528
 10
164.6233168637
 20
78.5554754055
 10
164.7354390301
 20
78.700293491
  0
LINE
  5
34A
100
AcDbEntity
  8
RUNDUNGEN
100
AcDbLine
 62
7
  6
CONTINUOUS
 10
164.8455533142
 20
78.8458957296
 11
165.0413998714
 21
79.1473873828
  0
LINE
  5
34B
100
AcDbEntity
  8
RUNDUNGEN
100
AcDbLine
 62
7
  6
CONTINUOUS
 10
164.7354827015
 20
78.7003475922
 11
164.8455533142
 21
78.8458957296
  0
LINE
  5
34C
100
AcDbEntity
  8
RUNDUNGEN
100
AcDbLine
 62
7
  6
CONTINUOUS
 10
158.5913878484
 20
72.6634682373
 11
142.4659739365
 21
72.6634682373
  0
LINE
  5
34D
100
AcDbEntity
  8
0
100
AcDbLine
 62
7
  6
CONTINUOUS
 10
183.6189338947
 20
75.4759682373
 11
183.8757548833
 21
75.4759682373
  0
LWPOLYLINE
  5
34E
100
AcDbEntity
  8
RUNDUNGEN
100
AcDbPolyline
 62
7
  6
CONTINUOUS
 90
5
 70
0
 10
164.7354348763
 20
56.6266461389
 10
164.6184400547
 20
56.7779258123
 10
164.4516920836
 20
57.0078954113
 10
164.2893757598
 20
57.2490376639
 10
164.1318284506
 20
57.5006832651
  0
LINE
  5
34F
100
AcDbEntity
  8
RUNDUNGEN
100
AcDbLine
 62
7
  6
CONTINUOUS
 10
164.83584099
 20
56.4944788115
 11
164.7354852689
 21
56.6265847798
  0
LINE
  5
350
100
AcDbEntity
  8
RUNDUNGEN
100
AcDbLine
 62
7
  6
CONTINUOUS
 10
165.0329118699
 20
56.1940213206
 11
164.83584099
 21
56.4944788115
  0
LWPOLYLINE
  5
351
100
AcDbEntity
  8
RUNDUNGEN
100
AcDbPolyline
 62
7
  6
CONTINUOUS
 90
3
 70
0
 10
164.1318284506
 20
57.5006832651
 10
163.979351908
 20
57.7620966106
 10
163.8870189601
 20
57.9295879462
  0
LINE
  5
352
100
AcDbEntity
  8
0
100
AcDbLine
 62
7
  6
CONTINUOUS
 10
183.4246905394
 20
76.2572188333
 11
183.6830162152
 21
76.2572188333
  0
LINE
  5
353
100
AcDbEntity
  8
0
100
AcDbLine
 62
7
  6
CONTINUOUS
 10
183.2550410389
 20
76.8822182373
 11
183.5146953294
 21
76.8822182373
  0
LINE
  5
354
100
AcDbEntity
  8
0
100
AcDbLine
 62
7
  6
CONTINUOUS
 10
183.072506692
 20
77.5072176412
 11
183.3336057921
 21
77.5072176412
  0
LINE
  5
355
100
AcDbEntity
  8
0
100
AcDbLine
 62
7
  6
CONTINUOUS
 10
182.9763400675
 20
77.8197182373
 11
183.2382068129
 21
77.8197182373
  0
LINE
  5
356
100
AcDbEntity
  8
0
100
AcDbLine
 62
7
  6
CONTINUOUS
 10
182.9270196777
 20
77.9759676412
 11
183.1892818674
 21
77.9759676412
  0
LINE
  5
357
100
AcDbEntity
  8
0
100
AcDbLine
 62
7
  6
CONTINUOUS
 10
182.6135293415
 20
78.9134682373
 11
182.8783331317
 21
78.9134682373
  0
LWPOLYLINE
  5
358
100
AcDbEntity
  8
RUNDUNGEN
100
AcDbPolyline
 62
7
  6
CONTINUOUS
 90
7
 70
0
 10
165.5286805785
 20
54.4112975438
 10
165.526107411
 20
54.5418545505
 10
165.4958963194
 20
54.8796909658
 10
165.4311503009
 20
55.218003998
 10
165.3319647221
 20
55.5521685639
 10
165.1988753925
 20
55.8786680118
 10
165.0329118699
 20
56.1940213206
  0
LINE
  5
359
100
AcDbEntity
  8
RUNDUNGEN
100
AcDbLine
 62
7
  6
CONTINUOUS
 10
165.5286808924
 20
39.0802568354
 11
165.5286808924
 21
55.8206361883
  0
LINE
  5
35A
100
AcDbEntity
  8
RUNDUNGEN
100
AcDbLine
 62
7
  6
CONTINUOUS
 10
165.5286808925
 20
79.5061737996
 11
165.5286808924
 21
96.2466927381
  0
LINE
  5
35B
100
AcDbEntity
  8
0
100
AcDbLine
 62
7
  6
CONTINUOUS
 10
182.3288225446
 20
79.6947188333
 11
182.5959774591
 21
79.6947188333
  0
LINE
  5
35C
100
AcDbEntity
  8
0
100
AcDbLine
 62
7
  6
CONTINUOUS
 10
181.6242998185
 20
81.4134676412
 11
181.8974554364
 21
81.4134676412
  0
LINE
  5
35D
100
AcDbEntity
  8
0
100
AcDbLine
 62
7
  6
CONTINUOUS
 10
135.5286808924
 20
85.4334682373
 11
135.0286808924
 21
85.4334682373
  0
LINE
  5
35E
100
AcDbEntity
  8
0
100
AcDbLine
 62
7
  6
CONTINUOUS
 10
135.5286808924
 20
85.5398512126
 11
135.0286808924
 21
85.5398512126
  0
LINE
  5
35F
100
AcDbEntity
  8
0
100
AcDbLine
 62
7
  6
CONTINUOUS
 10
135.5286808924
 20
85.8590001387
 11
135.0286808924
 21
85.8590001387
  0
LINE
  5
360
100
AcDbEntity
  8
0
100
AcDbLine
 62
7
  6
CONTINUOUS
 10
135.5286808924
 20
86.1781490741
 11
135.0286808924
 21
86.1781490741
  0
LINE
  5
361
100
AcDbEntity
  8
0
100
AcDbLine
 62
7
  6
CONTINUOUS
 10
135.5286808924
 20
86.6036810128
 11
135.0286808924
 21
86.6036810128
  0
LINE
  5
362
100
AcDbEntity
  8
0
100
AcDbLine
 62
7
  6
CONTINUOUS
 10
135.5286808924
 20
86.9228299109
 11
135.0286808924
 21
86.9228299109
  0
LINE
  5
363
100
AcDbEntity
  8
0
100
AcDbLine
 62
7
  6
CONTINUOUS
 10
135.5286808924
 20
87.4547448901
 11
135.0286808924
 21
87.4547448901
  0
LINE
  5
364
100
AcDbEntity
  8
0
100
AcDbLine
 62
7
  6
CONTINUOUS
 10
135.5286808924
 20
88.4121915845
 11
135.0286808924
 21
88.4121915845
  0
LINE
  5
365
100
AcDbEntity
  8
0
100
AcDbLine
 62
7
  6
CONTINUOUS
 10
135.5286808924
 20
88.9441064147
 11
135.0286808924
 21
88.9441064147
  0
LINE
  5
366
100
AcDbEntity
  8
0
100
AcDbLine
 62
7
  6
CONTINUOUS
 10
135.5286808924
 20
89.2632556108
 11
135.0286808924
 21
89.2632556108
  0
LINE
  5
367
100
AcDbEntity
  8
0
100
AcDbLine
 62
7
  6
CONTINUOUS
 10
135.5286808924
 20
89.688787475
 11
135.0286808924
 21
89.688787475
  0
LINE
  5
368
100
AcDbEntity
  8
0
100
AcDbLine
 62
7
  6
CONTINUOUS
 10
135.5286808924
 20
90.0079363731
 11
135.0286808924
 21
90.0079363731
  0
LINE
  5
369
100
AcDbEntity
  8
0
100
AcDbLine
 62
7
  6
CONTINUOUS
 10
135.5286808924
 20
90.3270852712
 11
135.0286808924
 21
90.3270852712
  0
LINE
  5
36A
100
AcDbEntity
  8
0
100
AcDbLine
 62
7
  6
CONTINUOUS
 10
135.5286808924
 20
90.4334682373
 11
135.0286808924
 21
90.4334682373
  0
LINE
  5
36B
100
AcDbEntity
  8
RUNDUNGEN
100
AcDbLine
 62
7
  6
CONTINUOUS
 10
138.5286808924
 20
95.6634682373
 11
162.5286808924
 21
95.6634682373
  0
ARC
  5
36C
100
AcDbEntity
  8
RUNDUNGEN
100
AcDbCircle
 62
7
  6
CONTINUOUS
 10
130.5286808924
 20
218.1673801568
 40
5.0
100
AcDbArc
 50
270.0000503357
 51
0.0005119783
  0
ARC
  5
36D
100
AcDbEntity
  8
RUNDUNGEN
100
AcDbCircle
 62
7
  6
CONTINUOUS
 10
119.5286808924
 20
210.1673801568
 40
3.0
100
AcDbArc
 50
90.0
 51
180.0
  0
ARC
  5
36E
100
AcDbEntity
  8
RUNDUNGEN
100
AcDbCircle
 62
7
  6
CONTINUOUS
 10
170.5286808924
 20
218.1673801568
 40
5.0
100
AcDbArc
 50
179.9990850232
 51
269.9999947825
  0
ARC
  5
36F
100
AcDbEntity
  8
RUNDUNGEN
100
AcDbCircle
 62
7
  6
CONTINUOUS
 10
181.5286808924
 20
210.1673801568
 40
3.0
100
AcDbArc
 50
0.0
 51
90.0
  0
ARC
  5
370
100
AcDbEntity
  8
RUNDUNGEN
100
AcDbCircle
 62
7
  6
CONTINUOUS
 10
150.5286808924
 20
247.1673801568
 40
15.0
100
AcDbArc
 50
0.0
 51
180.0
  0
ARC
  5
371
100
AcDbEntity
  8
RUNDUNGEN
100
AcDbCircle
 62
7
  6
CONTINUOUS
 10
262.7083673351
 20
237.9975071757
 40
3.5
100
AcDbArc
 50
330.0
 51
360.0
  0
ARC
  5
372
100
AcDbEntity
  8
RUNDUNGEN
100
AcDbCircle
 62
7
  6
CONTINUOUS
 10
263.2083711319
 20
225.8635391558
 40
3.0
100
AcDbArc
 50
150.0001450288
 51
180.0001255984
  0
ARC
  5
373
100
AcDbEntity
  8
RUNDUNGEN
100
AcDbCircle
 62
7
  6
CONTINUOUS
 10
286.7083673351
 20
242.1854310201
 40
2.5
100
AcDbArc
 50
311.0
 51
360.0
  0
ARC
  5
374
100
AcDbEntity
  8
RUNDUNGEN
100
AcDbCircle
 62
7
  6
CONTINUOUS
 10
280.6403903304
 20
258.1673801568
 40
4.0
100
AcDbArc
 50
56.372243968
 51
90.0
  0
ARC
  5
375
100
AcDbEntity
  8
RUNDUNGEN
100
AcDbCircle
 62
7
  6
CONTINUOUS
 10
270.2083673351
 20
254.1038040651
 40
4.0
100
AcDbArc
 50
140.0
 51
179.9993231358
  0
ARC
  5
376
100
AcDbEntity
  8
RUNDUNGEN
100
AcDbCircle
 62
7
  6
CONTINUOUS
 10
273.1517780745
 20
259.1673482152
 40
3.0
100
AcDbArc
 50
90.0007820659
 51
140.0
  0
ARC
  5
377
100
AcDbEntity
  8
RUNDUNGEN
100
AcDbCircle
 62
7
  6
CONTINUOUS
 10
286.7083673351
 20
256.8245652516
 40
2.5
100
AcDbArc
 50
0.0
 51
70.9685590749
  0
ARC
  5
378
100
AcDbEntity
  8
RUNDUNGEN
100
AcDbCircle
 62
7
  6
CONTINUOUS
 10
294.2083673351
 20
228.1673801568
 40
13.0
100
AcDbArc
 50
131.0000009041
 51
49.0000088168
  0
ARC
  5
379
100
AcDbEntity
  8
RUNDUNGEN
100
AcDbCircle
 62
7
  6
CONTINUOUS
 10
325.7083673351
 20
237.9975071757
 40
3.5
100
AcDbArc
 50
180.0
 51
210.0
  0
ARC
  5
37A
100
AcDbEntity
  8
0
100
AcDbCircle
 62
7
  6
CONTINUOUS
 10
314.9910734483
 20
237.8103316171
 40
3.0
100
AcDbArc
 50
174.2608295227
 51
358.3142771166
  0
ARC
  5
37B
100
AcDbEntity
  8
0
100
AcDbCircle
 62
7
  6
CONTINUOUS
 10
314.9910734483
 20
232.7103316171
 40
3.0
100
AcDbArc
 50
174.2608295227
 51
358.3142771166
  0
ARC
  5
37C
100
AcDbEntity
  8
RUNDUNGEN
100
AcDbCircle
 62
7
  6
CONTINUOUS
 10
325.2083635787
 20
225.8635390857
 40
3.0
100
AcDbArc
 50
359.999875741
 51
29.9998565178
  0
ARC
  5
37D
100
AcDbEntity
  8
RUNDUNGEN
100
AcDbCircle
 62
7
  6
CONTINUOUS
 10
301.7083673351
 20
242.1854310201
 40
2.5
100
AcDbArc
 50
180.0
 51
229.0
  0
ARC
  5
37E
100
AcDbEntity
  8
0
100
AcDbCircle
 62
7
  6
CONTINUOUS
 10
314.9910734483
 20
237.8103316171
 40
2.1
100
AcDbArc
 50
282.3736251162
 51
8.2132107017
  0
ARC
  5
37F
100
AcDbEntity
  8
0
100
AcDbCircle
 62
7
  6
CONTINUOUS
 10
314.9910734483
 20
237.8103316171
 40
2.1
100
AcDbArc
 50
171.7867892983
 51
257.4447123387
  0
ARC
  5
380
100
AcDbEntity
  8
0
100
AcDbCircle
 62
7
  6
CONTINUOUS
 10
314.9910734483
 20
232.7103316171
 40
2.1
100
AcDbArc
 50
171.7867892983
 51
8.2132107017
  0
ARC
  5
381
100
AcDbEntity
  8
0
100
AcDbCircle
 62
7
  6
CONTINUOUS
 10
294.2083673351
 20
278.5673801568
 40
20.5
100
AcDbArc
 50
289.0314409251
 51
303.627756032
  0
ARC
  5
382
100
AcDbEntity
  8
0
100
AcDbCircle
 62
7
  6
CONTINUOUS
 10
294.2083673351
 20
278.5673801568
 40
20.5
100
AcDbArc
 50
236.372243968
 51
250.9685590749
  0
ARC
  5
383
100
AcDbEntity
  8
RUNDUNGEN
100
AcDbCircle
 62
7
  6
CONTINUOUS
 10
307.7763443397
 20
258.1673801568
 40
4.0
100
AcDbArc
 50
90.0
 51
123.627756032
  0
ARC
  5
384
100
AcDbEntity
  8
RUNDUNGEN
100
AcDbCircle
 62
7
  6
CONTINUOUS
 10
318.2083673351
 20
254.1038040651
 40
4.0
100
AcDbArc
 50
0.0006916283
 51
40.0
  0
ARC
  5
385
100
AcDbEntity
  8
RUNDUNGEN
100
AcDbCircle
 62
7
  6
CONTINUOUS
 10
315.2649567178
 20
259.1673480696
 40
3.0
100
AcDbArc
 50
40.0
 51
89.999214261
  0
ARC
  5
386
100
AcDbEntity
  8
RUNDUNGEN
100
AcDbCircle
 62
7
  6
CONTINUOUS
 10
301.7083673351
 20
256.8245652516
 40
2.5
100
AcDbArc
 50
109.0314409251
 51
180.0
  0
ARC
  5
387
100
AcDbEntity
  8
RUNDUNGEN
100
AcDbCircle
 62
7
  6
CONTINUOUS
 10
139.5286808924
 20
54.0954912326
 40
4.0
100
AcDbArc
 50
146.372243968
 51
180.0
  0
ARC
  5
388
100
AcDbEntity
  8
RUNDUNGEN
100
AcDbCircle
 62
7
  6
CONTINUOUS
 10
138.5286808924
 20
42.6634682373
 40
3.0
100
AcDbArc
 50
180.0
 51
270.0
  0
ARC
  5
389
100
AcDbEntity
  8
RUNDUNGEN
100
AcDbCircle
 62
7
  6
CONTINUOUS
 10
138.5286808924
 20
39.0802563814
 40
3.0
100
AcDbArc
 50
180.0002567035
 51
247.2255747682
  0
ARC
  5
38A
100
AcDbEntity
  8
RUNDUNGEN
100
AcDbCircle
 62
7
  6
CONTINUOUS
 10
139.7095262162
 20
57.3956152114
 40
2.5
100
AcDbArc
 50
123.0503005002
 51
153.4852483237
  0
ARC
  5
38B
100
AcDbEntity
  8
RUNDUNGEN
100
AcDbCircle
 62
7
  6
CONTINUOUS
 10
142.4659739365
 20
60.6634682373
 40
2.0
100
AcDbArc
 50
90.0
 51
143.4342630678
  0
ARC
  5
38C
100
AcDbEntity
  8
0
100
AcDbCircle
 62
7
  6
CONTINUOUS
 10
119.1286808924
 20
67.6634682373
 40
20.5
100
AcDbArc
 50
326.372243968
 51
333.4852368273
  0
ARC
  5
38D
100
AcDbEntity
  8
0
100
AcDbCircle
 62
7
  6
CONTINUOUS
 10
119.1286808924
 20
67.6634682373
 40
20.5
100
AcDbArc
 50
26.5147631727
 51
33.627756032
  0
ARC
  5
38E
100
AcDbEntity
  8
RUNDUNGEN
100
AcDbCircle
 62
7
  6
CONTINUOUS
 10
119.1286808924
 20
67.6634682373
 40
20.5
100
AcDbArc
 50
326.372243968
 51
333.4852368273
  0
ARC
  5
38F
100
AcDbEntity
  8
RUNDUNGEN
100
AcDbCircle
 62
7
  6
CONTINUOUS
 10
119.1286808924
 20
67.6634682373
 40
20.5
100
AcDbArc
 50
26.5147631727
 51
33.627756032
  0
ARC
  5
390
100
AcDbEntity
  8
RUNDUNGEN
100
AcDbCircle
 62
7
  6
CONTINUOUS
 10
133.0286808924
 20
67.6634682373
 40
9.75
100
AcDbArc
 50
36.5657369322
 51
56.9496976744
  0
ARC
  5
391
100
AcDbEntity
  8
RUNDUNGEN
100
AcDbCircle
 62
7
  6
CONTINUOUS
 10
133.0286808924
 20
67.6634682373
 40
9.75
100
AcDbArc
 50
303.0503023256
 51
323.4342630678
  0
ARC
  5
392
100
AcDbEntity
  8
RUNDUNGEN
100
AcDbCircle
 62
7
  6
CONTINUOUS
 10
139.5286808924
 20
81.231445242
 40
4.0
100
AcDbArc
 50
180.0
 51
213.6277560321
  0
ARC
  5
393
100
AcDbEntity
  8
RUNDUNGEN
100
AcDbCircle
 62
7
  6
CONTINUOUS
 10
139.7095262162
 20
77.9313212631
 40
2.5
100
AcDbArc
 50
206.5147531771
 51
236.9497024185
  0
ARC
  5
394
100
AcDbEntity
  8
RUNDUNGEN
100
AcDbCircle
 62
7
  6
CONTINUOUS
 10
142.4659739365
 20
74.6634682373
 40
2.0
100
AcDbArc
 50
216.5657369322
 51
270.0
  0
ARC
  5
395
100
AcDbEntity
  8
RUNDUNGEN
100
AcDbCircle
 62
7
  6
CONTINUOUS
 10
138.5286808924
 20
92.6634682373
 40
3.0
100
AcDbArc
 50
90.0
 51
180.0
  0
ARC
  5
396
100
AcDbEntity
  8
RUNDUNGEN
100
AcDbCircle
 62
7
  6
CONTINUOUS
 10
138.5286808924
 20
96.2466800932
 40
3.0
100
AcDbArc
 50
112.7737374794
 51
180.0000008318
  0
ARC
  5
397
100
AcDbEntity
  8
RUNDUNGEN
100
AcDbCircle
 62
7
  6
CONTINUOUS
 10
161.5286808924
 20
54.0954912326
 40
4.0
100
AcDbArc
 50
0.0
 51
33.6277560321
  0
ARC
  5
398
100
AcDbEntity
  8
RUNDUNGEN
100
AcDbCircle
 62
7
  6
CONTINUOUS
 10
162.5286808924
 20
39.0802563814
 40
3.0
100
AcDbArc
 50
292.7738285743
 51
0.0000086729
  0
ARC
  5
399
100
AcDbEntity
  8
RUNDUNGEN
100
AcDbCircle
 62
7
  6
CONTINUOUS
 10
162.5286808924
 20
42.6634682373
 40
3.0
100
AcDbArc
 50
270.0
 51
360.0
  0
ARC
  5
39A
100
AcDbEntity
  8
RUNDUNGEN
100
AcDbCircle
 62
7
  6
CONTINUOUS
 10
161.3478355687
 20
57.3956152114
 40
2.5
100
AcDbArc
 50
26.5147518671
 51
56.9497031841
  0
ARC
  5
39B
100
AcDbEntity
  8
RUNDUNGEN
100
AcDbCircle
 62
7
  6
CONTINUOUS
 10
158.5913878484
 20
60.6634682373
 40
2.0
100
AcDbArc
 50
36.5657369322
 51
90.0
  0
CIRCLE
  5
39C
100
AcDbEntity
  8
FASEN
100
AcDbCircle
 62
7
  6
CONTINUOUS
 10
150.5286808924
 20
67.6634682373
 40
40.0
  0
CIRCLE
  5
39D
100
AcDbEntity
  8
FASEN
100
AcDbCircle
 62
7
  6
CONTINUOUS
 10
150.5286808924
 20
67.6634682373
 40
39.5
  0
ARC
  5
39E
100
AcDbEntity
  8
0
100
AcDbCircle
 62
7
  6
CONTINUOUS
 10
150.5286808924
 20
67.6634682373
 40
34.25
100
AcDbArc
 50
334.0264485215
 51
23.6694716835
  0
CIRCLE
  5
39F
100
AcDbEntity
  8
RUNDUNGEN
100
AcDbCircle
 62
7
  6
CONTINUOUS
 10
150.5286808924
 20
67.6634682373
 40
34.0
  0
ARC
  5
3A0
100
AcDbEntity
  8
RUNDUNGEN
100
AcDbCircle
 62
7
  6
CONTINUOUS
 10
161.5286808924
 20
81.231445242
 40
4.0
100
AcDbArc
 50
326.372243968
 51
360.0
  0
ARC
  5
3A1
100
AcDbEntity
  8
RUNDUNGEN
100
AcDbCircle
 62
7
  6
CONTINUOUS
 10
161.3478355687
 20
77.9313212631
 40
2.5
100
AcDbArc
 50
303.0502999378
 51
333.4852459565
  0
ARC
  5
3A2
100
AcDbEntity
  8
RUNDUNGEN
100
AcDbCircle
 62
7
  6
CONTINUOUS
 10
158.5913878484
 20
74.6634682373
 40
2.0
100
AcDbArc
 50
270.0
 51
323.4342630678
  0
ARC
  5
3A3
100
AcDbEntity
  8
RUNDUNGEN
100
AcDbCircle
 62
7
  6
CONTINUOUS
 10
162.5286808924
 20
92.6634682373
 40
3.0
100
AcDbArc
 50
0.0
 51
90.0
  0
ARC
  5
3A4
100
AcDbEntity
  8
RUNDUNGEN
100
AcDbCircle
 62
7
  6
CONTINUOUS
 10
162.5286808924
 20
96.2466800932
 40
3.0
100
AcDbArc
 50
0.0002727126
 51
67.2255845963
  0
ARC
  5
3A5
100
AcDbEntity
  8
0
100
AcDbCircle
 62
7
  6
CONTINUOUS
 10
181.9286808924
 20
67.6634682373
 40
20.5
100
AcDbArc
 50
206.5147631727
 51
213.627756032
  0
ARC
  5
3A6
100
AcDbEntity
  8
0
100
AcDbCircle
 62
7
  6
CONTINUOUS
 10
181.9286808924
 20
67.6634682373
 40
20.5
100
AcDbArc
 50
146.372243968
 51
153.4852368273
  0
ARC
  5
3A7
100
AcDbEntity
  8
RUNDUNGEN
100
AcDbCircle
 62
7
  6
CONTINUOUS
 10
181.9286808924
 20
67.6634682373
 40
20.5
100
AcDbArc
 50
146.372243968
 51
153.4852368273
  0
ARC
  5
3A8
100
AcDbEntity
  8
RUNDUNGEN
100
AcDbCircle
 62
7
  6
CONTINUOUS
 10
181.9286808924
 20
67.6634682373
 40
20.5
100
AcDbArc
 50
206.5147631727
 51
213.627756032
  0
ARC
  5
3A9
100
AcDbEntity
  8
RUNDUNGEN
100
AcDbCircle
 62
7
  6
CONTINUOUS
 10
168.0286808924
 20
67.6634682373
 40
9.75
100
AcDbArc
 50
123.0503029378
 51
143.4342630678
  0
ARC
  5
3AA
100
AcDbEntity
  8
RUNDUNGEN
100
AcDbCircle
 62
7
  6
CONTINUOUS
 10
168.0286808924
 20
67.6634682373
 40
9.75
100
AcDbArc
 50
216.5657369322
 51
236.9496976744
  0
ELLIPSE
  5
3AB
100
AcDbEntity
  8
0
100
AcDbEllipse
 62
7
  6
CONTINUOUS
 10
150.5286808924
 20
179.4865298887
 30
0.0
 11
0.0
 21
39.3510632217
 31
0.0
 40
0.8703703838
 41
-1.4893320042
 42
-1.4819540146
  0
ELLIPSE
  5
3AC
100
AcDbEntity
  8
0
100
AcDbEllipse
 62
7
  6
CONTINUOUS
 10
150.5286808924
 20
190.9758761381
 30
0.0
 11
-0.0
 21
104.9359575539
 31
0.0
 40
0.3263895503
 41
-1.6392805039
 42
-1.6347084333
  0
ELLIPSE
  5
3AD
100
AcDbEntity
  8
0
100
AcDbEllipse
 62
7
  6
CONTINUOUS
 10
150.5286808924
 20
186.9865286079
 30
0.0
 11
-0.0
 21
46.6382923126
 31
0.0
 40
0.7343750875
 41
-1.6530056842
 42
-1.6392805039
  0
ELLIPSE
  5
3AE
100
AcDbEntity
  8
0
100
AcDbEllipse
 62
7
  6
CONTINUOUS
 10
150.5286808924
 20
185.3109958655
 30
0.0
 11
34.25
 21
-0.0
 31
0.0
 40
0.7659569903
 41
-0.1005342388
 42
-0.0822093574
  0
ELLIPSE
  5
3AF
100
AcDbEntity
  8
0
100
AcDbEllipse
 62
7
  6
CONTINUOUS
 10
150.5286808924
 20
183.3801463878
 30
0.0
 11
34.25
 21
0.0
 31
0.0
 40
0.2042553727
 41
-0.1234888
 42
-0.1005342388
  0
ELLIPSE
  5
3B0
100
AcDbEntity
  8
0
100
AcDbEllipse
 62
7
  6
CONTINUOUS
 10
150.5286808924
 20
185.8056778031
 30
0.0
 11
34.25
 21
0.0
 31
0.0
 40
0.2042553727
 41
0.1005342388
 42
0.1234888
  0
ELLIPSE
  5
3B1
100
AcDbEntity
  8
0
100
AcDbEllipse
 62
7
  6
CONTINUOUS
 10
150.5286808924
 20
183.8748283254
 30
0.0
 11
34.25
 21
-0.0
 31
0.0
 40
0.7659569903
 41
0.0822093574
 42
0.1005342388
  0
ELLIPSE
  5
3B2
100
AcDbEntity
  8
0
100
AcDbEllipse
 62
7
  6
CONTINUOUS
 10
150.5286808924
 20
182.199295583
 30
0.0
 11
-0.0
 21
46.6382923126
 31
0.0
 40
0.7343750875
 41
-1.5023121497
 42
-1.4885869694
  0
ELLIPSE
  5
3B3
100
AcDbEntity
  8
0
100
AcDbEllipse
 62
7
  6
CONTINUOUS
 10
150.5286808924
 20
178.2099480528
 30
0.0
 11
0.0
 21
104.9359575539
 31
0.0
 40
0.3263895503
 41
-1.5068842203
 42
-1.5023121497
  0
ELLIPSE
  5
3B4
100
AcDbEntity
  8
0
100
AcDbEllipse
 62
7
  6
CONTINUOUS
 10
150.5286808924
 20
212.5184678506
 30
0.0
 11
-0.0
 21
104.9362577784
 31
0.0
 40
0.3263886165
 41
-1.8480576838
 42
-1.843317675
  0
ELLIPSE
  5
3B5
100
AcDbEntity
  8
0
100
AcDbEllipse
 62
7
  6
CONTINUOUS
 10
150.5286808924
 20
196.5609955516
 30
0.0
 11
0.0
 21
46.6382923126
 31
0.0
 40
0.7343750875
 41
-1.8623166757
 42
-1.8480576838
  0
ELLIPSE
  5
3B6
100
AcDbEntity
  8
0
100
AcDbEllipse
 62
7
  6
CONTINUOUS
 10
150.5286808924
 20
190.6966363462
 30
0.0
 11
34.25
 21
-0.0
 31
0.0
 40
0.7659575381
 41
-0.3106283027
 42
-0.2915203489
  0
ELLIPSE
  5
3B7
100
AcDbEntity
  8
0
100
AcDbEllipse
 62
7
  6
CONTINUOUS
 10
150.5286808924
 20
184.8163156623
 30
0.0
 11
34.25
 21
-0.0
 31
0.0
 40
0.2042552558
 41
-0.334680224
 42
-0.3106283027
  0
ELLIPSE
  5
3B8
100
AcDbEntity
  8
0
100
AcDbEllipse
 62
7
  6
CONTINUOUS
 10
150.5286808924
 20
184.3695085286
 30
0.0
 11
34.25
 21
-0.0
 31
0.0
 40
0.2042552558
 41
0.3106283027
 42
0.334680224
  0
ELLIPSE
  5
3B9
100
AcDbEntity
  8
0
100
AcDbEllipse
 62
7
  6
CONTINUOUS
 10
150.5286808924
 20
178.4891878447
 30
0.0
 11
34.25
 21
0.0
 31
0.0
 40
0.7659575381
 41
0.2915203489
 42
0.3106283027
  0
ELLIPSE
  5
3BA
100
AcDbEntity
  8
0
100
AcDbEllipse
 62
7
  6
CONTINUOUS
 10
150.5286808924
 20
172.6248286393
 30
0.0
 11
-0.0
 21
46.6382923126
 31
0.0
 40
0.7343750875
 41
-1.2935349698
 42
-1.2792759779
  0
ELLIPSE
  5
3BB
100
AcDbEntity
  8
0
100
AcDbEllipse
 62
7
  6
CONTINUOUS
 10
150.5286808924
 20
156.6673563403
 30
0.0
 11
0.0
 21
104.9362577784
 31
0.0
 40
0.3263886165
 41
-1.2982749786
 42
-1.2935349698
  0
ELLIPSE
  5
3BC
100
AcDbEntity
  8
0
100
AcDbEllipse
 62
7
  6
CONTINUOUS
 10
150.5286808924
 20
185.0609700087
 30
0.0
 11
-0.0
 21
139.9154106728
 31
0.0
 40
0.244790762
 41
-1.5205927502
 42
-1.5160244285
  0
ELLIPSE
  5
3BD
100
AcDbEntity
  8
0
100
AcDbEllipse
 62
7
  6
CONTINUOUS
 10
150.5286808924
 20
189.449299925
 30
0.0
 11
-0.0
 21
52.467978777
 31
0.0
 40
0.6527791007
 41
-1.5297263966
 42
-1.5205927502
  0
ELLIPSE
  5
3BE
100
AcDbEntity
  8
0
100
AcDbEllipse
 62
7
  6
CONTINUOUS
 10
150.5286808924
 20
190.6461035951
 30
0.0
 11
34.25
 21
0.0
 31
0.0
 40
0.6808512211
 41
0.0273756733
 42
0.0410699302
  0
ELLIPSE
  5
3BF
100
AcDbEntity
  8
0
100
AcDbEllipse
 62
7
  6
CONTINUOUS
 10
150.5286808924
 20
191.0450395862
 30
0.0
 11
34.25
 21
0.0
 31
0.0
 40
0.255319362
 41
0.0091242229
 42
0.0273756733
  0
ELLIPSE
  5
3C0
100
AcDbEntity
  8
0
100
AcDbEllipse
 62
7
  6
CONTINUOUS
 10
150.5286808924
 20
196.3907848078
 30
0.0
 11
34.25
 21
0.0
 31
0.0
 40
0.2042552558
 41
0.1603579035
 42
0.1835099969
  0
ELLIPSE
  5
3C1
100
AcDbEntity
  8
0
100
AcDbEllipse
 62
7
  6
CONTINUOUS
 10
150.5286808924
 20
193.3189755353
 30
0.0
 11
34.25
 21
0.0
 31
0.0
 40
0.7659575381
 41
0.1418990764
 42
0.1603579035
  0
ELLIPSE
  5
3C2
100
AcDbEntity
  8
0
100
AcDbEllipse
 62
7
  6
CONTINUOUS
 10
150.5286808924
 20
190.4333384659
 30
0.0
 11
-0.0
 21
46.6382923126
 31
0.0
 40
0.7343750875
 41
-1.4427091477
 42
-1.4288972504
  0
ELLIPSE
  5
3C3
100
AcDbEntity
  8
0
100
AcDbEllipse
 62
7
  6
CONTINUOUS
 10
150.5286808924
 20
182.9865180597
 30
0.0
 11
-0.0
 21
104.9362577784
 31
0.0
 40
0.3263886165
 41
-1.4473075224
 42
-1.4427091477
  0
ELLIPSE
  5
3C4
100
AcDbEntity
  8
0
100
AcDbEllipse
 62
7
  6
CONTINUOUS
 10
150.5286808924
 20
208.1993061312
 30
0.0
 11
-0.0
 21
104.9362577784
 31
0.0
 40
0.3263886165
 41
-1.6988835059
 42
-1.6942851312
  0
ELLIPSE
  5
3C5
100
AcDbEntity
  8
0
100
AcDbEllipse
 62
7
  6
CONTINUOUS
 10
150.5286808924
 20
200.7524857249
 30
0.0
 11
-0.0
 21
46.6382923126
 31
0.0
 40
0.7343750875
 41
-1.7126954031
 42
-1.6988835059
  0
ELLIPSE
  5
3C6
100
AcDbEntity
  8
0
100
AcDbEllipse
 62
7
  6
CONTINUOUS
 10
150.5286808924
 20
196.6301463805
 30
0.0
 11
34.25
 21
0.0
 31
0.0
 40
0.5106383587
 41
-0.1603579035
 42
-0.1418990764
  0
ELLIPSE
  5
3C7
100
AcDbEntity
  8
0
100
AcDbEllipse
 62
7
  6
CONTINUOUS
 10
150.5286808924
 20
179.5645436388
 30
0.0
 11
-0.0
 21
89.3900711536
 31
0.0
 40
0.3831521729
 41
-1.4519032872
 42
-1.4104384233
  0
ELLIPSE
  5
3C8
100
AcDbEntity
  8
0
100
AcDbEllipse
 62
7
  6
CONTINUOUS
 10
150.5286808924
 20
184.4865294544
 30
0.0
 11
34.0
 21
-0.0
 31
0.0
 40
0.3404254913
 41
0.1058963305
 42
0.1197714375
  0
ELLIPSE
  5
3C9
100
AcDbEntity
  8
0
100
AcDbEllipse
 62
7
  6
CONTINUOUS
 10
150.5286808924
 20
182.0397179381
 30
0.0
 11
0.0
 21
34.7234332308
 31
0.0
 40
0.9791658496
 41
-1.4741385362
 42
-1.4648999963
  0
ELLIPSE
  5
3CA
100
AcDbEntity
  8
0
100
AcDbEllipse
 62
7
  6
CONTINUOUS
 10
150.5286808924
 20
175.3376134483
 30
0.0
 11
-0.0
 21
104.1700016594
 31
0.0
 40
0.3263895503
 41
-1.4787546682
 42
-1.4741385362
  0
ELLIPSE
  5
3CB
100
AcDbEntity
  8
0
100
AcDbEllipse
 62
7
  6
CONTINUOUS
 10
150.5286808924
 20
194.0077851917
 30
0.0
 11
-0.0
 21
104.1700016594
 31
0.0
 40
0.3263895503
 41
-1.6674541174
 42
-1.6628379854
  0
ELLIPSE
  5
3CC
100
AcDbEntity
  8
0
100
AcDbEllipse
 62
7
  6
CONTINUOUS
 10
150.5286808924
 20
187.3056807018
 30
0.0
 11
0.0
 21
34.7234332308
 31
0.0
 40
0.9791658496
 41
-1.6766926573
 42
-1.6674541174
  0
ELLIPSE
  5
3CD
100
AcDbEntity
  8
0
100
AcDbEllipse
 62
7
  6
CONTINUOUS
 10
150.5286808924
 20
184.8588691856
 30
0.0
 11
34.0
 21
0.0
 31
0.0
 40
0.3404254913
 41
-0.1197714375
 42
-0.1058963305
  0
ELLIPSE
  5
3CE
100
AcDbEntity
  8
0
100
AcDbEllipse
 62
7
  6
CONTINUOUS
 10
150.5286808924
 20
182.0929125663
 30
0.0
 11
34.0
 21
-0.0
 31
0.0
 40
0.3404254913
 41
0.3178237085
 42
0.3323726791
  0
ELLIPSE
  5
3CF
100
AcDbEntity
  8
0
100
AcDbEllipse
 62
7
  6
CONTINUOUS
 10
150.5286808924
 20
174.8588759482
 30
0.0
 11
-0.0
 21
34.7233835586
 31
0.0
 40
0.9791672503
 41
-1.2626331824
 42
-1.2529726183
  0
ELLIPSE
  5
3D0
100
AcDbEntity
  8
0
100
AcDbEllipse
 62
7
  6
CONTINUOUS
 10
150.5286808924
 20
153.7950135179
 30
0.0
 11
-0.0
 21
104.1702996924
 31
0.0
 40
0.3263886165
 41
-1.2674522785
 42
-1.2626331824
  0
ELLIPSE
  5
3D1
100
AcDbEntity
  8
0
100
AcDbEllipse
 62
7
  6
CONTINUOUS
 10
150.5286808924
 20
215.5503851221
 30
0.0
 11
-0.0
 21
104.1702996924
 31
0.0
 40
0.3263886165
 41
-1.8789594712
 42
-1.874140375
  0
ELLIPSE
  5
3D2
100
AcDbEntity
  8
0
100
AcDbEllipse
 62
7
  6
CONTINUOUS
 10
150.5286808924
 20
194.4865226918
 30
0.0
 11
-0.0
 21
34.7233835586
 31
0.0
 40
0.9791672503
 41
-1.8886200353
 42
-1.8789594712
  0
ELLIPSE
  5
3D3
100
AcDbEntity
  8
0
100
AcDbEllipse
 62
7
  6
CONTINUOUS
 10
150.5286808924
 20
187.2524860737
 30
0.0
 11
34.0
 21
-0.0
 31
0.0
 40
0.3404254913
 41
-0.3323726791
 42
-0.3178237085
  0
ELLIPSE
  5
3D4
100
AcDbEntity
  8
0
100
AcDbEllipse
 62
7
  6
CONTINUOUS
 10
150.5286808924
 20
176.3442404393
 30
0.0
 11
-0.0
 21
91.1489428967
 31
0.0
 40
0.3730158455
 41
-1.4185544924
 42
-1.3812441418
  0
ELLIPSE
  5
3D5
100
AcDbEntity
  8
0
100
AcDbEllipse
 62
7
  6
CONTINUOUS
 10
150.5286808924
 20
194.7950400229
 30
0.0
 11
34.0
 21
-0.0
 31
0.0
 40
0.3404254913
 41
0.16620534
 42
0.1802016334
  0
ELLIPSE
  5
3D6
100
AcDbEntity
  8
0
100
AcDbEllipse
 62
7
  6
CONTINUOUS
 10
150.5286808924
 20
190.9652558833
 30
0.0
 11
0.0
 21
34.7233835586
 31
0.0
 40
0.9791672503
 41
-1.4139034558
 42
-1.4045909868
  0
ELLIPSE
  5
3D7
100
AcDbEntity
  8
0
100
AcDbEllipse
 62
7
  6
CONTINUOUS
 10
150.5286808924
 20
180.1141752373
 30
0.0
 11
-0.0
 21
104.1702996924
 31
0.0
 40
0.3263886165
 41
-1.4185544924
 42
-1.4139034558
  0
ELLIPSE
  5
3D8
100
AcDbEntity
  8
0
100
AcDbEllipse
 62
7
  6
CONTINUOUS
 10
150.5286808924
 20
211.2312234026
 30
0.0
 11
-0.0
 21
104.1702996924
 31
0.0
 40
0.3263886165
 41
-1.7276891978
 42
-1.7230381612
  0
ELLIPSE
  5
3D9
100
AcDbEntity
  8
0
100
AcDbEllipse
 62
7
  6
CONTINUOUS
 10
150.5286808924
 20
200.3801427567
 30
0.0
 11
-0.0
 21
34.7233835586
 31
0.0
 40
0.9791672503
 41
-1.7370016668
 42
-1.7276891978
  0
ELLIPSE
  5
3DA
100
AcDbEntity
  8
0
100
AcDbEllipse
 62
7
  6
CONTINUOUS
 10
150.5286808924
 20
196.550358617
 30
0.0
 11
34.0
 21
0.0
 31
0.0
 40
0.3404254913
 41
-0.1802016334
 42
-0.16620534
  0
ELLIPSE
  5
3DB
100
AcDbEntity
  8
0
100
AcDbEllipse
 62
7
  6
CONTINUOUS
 10
150.5286808924
 20
187.2524860737
 30
0.0
 11
34.25
 21
-0.0
 31
0.0
 40
0.3404254913
 41
-0.3298542231
 42
-0.3154233704
  0
ELLIPSE
  5
3DC
100
AcDbEntity
  8
0
100
AcDbEllipse
 62
7
  6
CONTINUOUS
 10
150.5286808924
 20
194.4865226918
 30
0.0
 11
-0.0
 21
34.9787025553
 31
0.0
 40
0.9791672503
 41
-1.8862196972
 42
-1.8766369454
  0
ELLIPSE
  5
3DD
100
AcDbEntity
  8
0
100
AcDbEllipse
 62
7
  6
CONTINUOUS
 10
150.5286808924
 20
215.5503851221
 30
0.0
 11
-0.0
 21
104.9362577784
 31
0.0
 40
0.3263886165
 41
-1.8766369454
 42
-1.871856488
  0
ELLIPSE
  5
3DE
100
AcDbEntity
  8
0
100
AcDbEllipse
 62
7
  6
CONTINUOUS
 10
150.5286808924
 20
153.7950135179
 30
0.0
 11
-0.0
 21
104.9362577784
 31
0.0
 40
0.3263886165
 41
-1.2697361656
 42
-1.2649557082
  0
ELLIPSE
  5
3DF
100
AcDbEntity
  8
0
100
AcDbEllipse
 62
7
  6
CONTINUOUS
 10
150.5286808924
 20
174.8588759482
 30
0.0
 11
-0.0
 21
34.9787025553
 31
0.0
 40
0.9791672503
 41
-1.2649557082
 42
-1.2553729564
  0
ELLIPSE
  5
3E0
100
AcDbEntity
  8
0
100
AcDbEllipse
 62
7
  6
CONTINUOUS
 10
150.5286808924
 20
182.0929125663
 30
0.0
 11
34.25
 21
-0.0
 31
0.0
 40
0.3404254913
 41
0.3154233704
 42
0.3298542231
  0
ELLIPSE
  5
3E1
100
AcDbEntity
  8
0
100
AcDbEllipse
 62
7
  6
CONTINUOUS
 10
150.5286808924
 20
190.1035502863
 30
0.0
 11
34.25
 21
-0.0
 31
0.0
 40
0.2042553906
 41
0.0091242229
 42
0.0319397368
  0
ELLIPSE
  5
3E2
100
AcDbEntity
  8
0
100
AcDbEllipse
 62
7
  6
CONTINUOUS
 10
150.5286808924
 20
189.7684442411
 30
0.0
 11
34.25
 21
0.0
 31
0.0
 40
0.5106380606
 41
0.0319397368
 42
0.0502035766
  0
ELLIPSE
  5
3E3
100
AcDbEntity
  8
0
100
AcDbEllipse
 62
7
  6
CONTINUOUS
 10
150.5286808924
 20
188.8907824881
 30
0.0
 11
0.0
 21
34.978755655
 31
0.0
 40
0.9791657639
 41
-1.5205927502
 42
-1.5023121584
  0
ELLIPSE
  5
3E4
100
AcDbEntity
  8
0
100
AcDbEllipse
 62
7
  6
CONTINUOUS
 10
150.5286808924
 20
186.4971699934
 30
0.0
 11
0.0
 21
69.9574173594
 31
0.0
 40
0.4895835394
 41
-1.5023121584
 42
-1.4931636302
  0
ELLIPSE
  5
3E5
100
AcDbEntity
  8
0
100
AcDbEllipse
 62
7
  6
CONTINUOUS
 10
150.5286808924
 20
178.3588977815
 30
0.0
 11
-0.0
 21
174.8932625899
 31
0.0
 40
0.1958337302
 41
-1.4931636302
 42
-1.4885869651
  0
ELLIPSE
  5
3E6
100
AcDbEntity
  8
0
100
AcDbEllipse
 62
7
  6
CONTINUOUS
 10
150.5286808924
 20
196.550358617
 30
0.0
 11
34.25
 21
-0.0
 31
0.0
 40
0.3404254913
 41
-0.1788720288
 42
-0.1649809919
  0
ELLIPSE
  5
3E7
100
AcDbEntity
  8
0
100
AcDbEllipse
 62
7
  6
CONTINUOUS
 10
150.5286808924
 20
200.3801427567
 30
0.0
 11
0.0
 21
34.9787025553
 31
0.0
 40
0.9791672503
 41
-1.7357773187
 42
-1.7265346096
  0
ELLIPSE
  5
3E8
100
AcDbEntity
  8
0
100
AcDbEllipse
 62
7
  6
CONTINUOUS
 10
150.5286808924
 20
211.2312234026
 30
0.0
 11
-0.0
 21
104.9362577784
 31
0.0
 40
0.3263886165
 41
-1.7265346096
 42
-1.7219183372
  0
ELLIPSE
  5
3E9
100
AcDbEntity
  8
0
100
AcDbEllipse
 62
7
  6
CONTINUOUS
 10
150.5286808924
 20
180.1141752373
 30
0.0
 11
-0.0
 21
104.9362577784
 31
0.0
 40
0.3263886165
 41
-1.4196743164
 42
-1.415058044
  0
ELLIPSE
  5
3EA
100
AcDbEntity
  8
0
100
AcDbEllipse
 62
7
  6
CONTINUOUS
 10
150.5286808924
 20
190.9652558833
 30
0.0
 11
0.0
 21
34.9787025553
 31
0.0
 40
0.9791672503
 41
-1.415058044
 42
-1.4058153349
  0
ELLIPSE
  5
3EB
100
AcDbEntity
  8
0
100
AcDbEllipse
 62
7
  6
CONTINUOUS
 10
150.5286808924
 20
194.7950400229
 30
0.0
 11
34.25
 21
0.0
 31
0.0
 40
0.3404254913
 41
0.1649809919
 42
0.1788720288
  0
ELLIPSE
  5
3EC
100
AcDbEntity
  8
0
100
AcDbEllipse
 62
7
  6
CONTINUOUS
 10
150.5286808924
 20
184.8588691856
 30
0.0
 11
34.25
 21
-0.0
 31
0.0
 40
0.3404254913
 41
-0.1188930352
 42
-0.1051204941
  0
ELLIPSE
  5
3ED
100
AcDbEntity
  8
0
100
AcDbEllipse
 62
7
  6
CONTINUOUS
 10
150.5286808924
 20
187.3056807018
 30
0.0
 11
-0.0
 21
34.9787525928
 31
0.0
 40
0.9791658496
 41
-1.6759168209
 42
-1.6667464048
  0
ELLIPSE
  5
3EE
100
AcDbEntity
  8
0
100
AcDbEllipse
 62
7
  6
CONTINUOUS
 10
150.5286808924
 20
194.0077851917
 30
0.0
 11
-0.0
 21
104.9359575539
 31
0.0
 40
0.3263895503
 41
-1.6667464048
 42
-1.6621642657
  0
ELLIPSE
  5
3EF
100
AcDbEntity
  8
0
100
AcDbEllipse
 62
7
  6
CONTINUOUS
 10
150.5286808924
 20
175.3376134483
 30
0.0
 11
-0.0
 21
104.9359575539
 31
0.0
 40
0.3263895503
 41
-1.4794283878
 42
-1.4748462488
  0
ELLIPSE
  5
3F0
100
AcDbEntity
  8
0
100
AcDbEllipse
 62
7
  6
CONTINUOUS
 10
150.5286808924
 20
182.0397179381
 30
0.0
 11
-0.0
 21
34.9787525928
 31
0.0
 40
0.9791658496
 41
-1.4748462488
 42
-1.4656758327
  0
ELLIPSE
  5
3F1
100
AcDbEntity
  8
0
100
AcDbEllipse
 62
7
  6
CONTINUOUS
 10
150.5286808924
 20
184.4865294544
 30
0.0
 11
34.25
 21
-0.0
 31
0.0
 40
0.3404254913
 41
0.1051204941
 42
0.1188930352
  0
ELLIPSE
  5
3F2
100
AcDbEntity
  8
0
100
AcDbEllipse
 62
7
  6
CONTINUOUS
 10
150.5286808924
 20
178.3588977815
 30
0.0
 11
-0.0
 21
173.6166694323
 31
0.0
 40
0.1958337302
 41
-1.4889644505
 42
-1.4879811038
  0
ELLIPSE
  5
3F3
100
AcDbEntity
  8
0
100
AcDbEllipse
 62
7
  6
CONTINUOUS
 10
150.5286808924
 20
176.3442404393
 30
0.0
 11
-0.0
 21
91.8191557121
 31
0.0
 40
0.3730158455
 41
-1.4196743164
 42
-1.3826443593
  0
ENDSEC
  0
SECTION
  2
OBJECTS
  0
DICTIONARY
  5
C
100
AcDbDictionary
280
0
281
1
  3
ACAD_GROUP
350
D
  3
ACAD_MLINESTYLE
350
17
  3
ACAD_LAYOUT
350
1A
  3
ACAD_PLOTSETTINGS
350
19
  3
ACAD_PLOTSTYLENAME
350
E
  0
DICTIONARY
  5
D
102
{ACAD_REACTORS
330
C
102
}
100
AcDbDictionary
280
0
281
1
  0
ACDBDICTIONARYWDFLT
  5
E
102
{ACAD_REACTORS
330
C
102
}
100
AcDbDictionary
281
1
  3
Normal
350
F
100
AcDbDictionaryWithDefault
340
F
  0
DICTIONARY
  5
17
102
{ACAD_REACTORS
330
C
102
}
100
AcDbDictionary
280
0
281
1
  3
Standard
350
18
  0
DICTIONARY
  5
19
102
{ACAD_REACTORS
330
C
102
}
100
AcDbDictionary
281
1
  0
DICTIONARY
  5
1A
102
{ACAD_REACTORS
330
C
102
}
100
AcDbDictionary
281
1
  3
Model
350
3F4
  3
Layout1
350
3F5
  0
ACDBPLACEHOLDER
  5
F
102
{ACAD_REACTORS
330
E
102
}
  0
MLINESTYLE
  5
18
102
{ACAD_REACTORS
330
17
102
}
100
AcDbMlineStyle
  2
STANDARD
 70
0
  3

 62
256
 51
90.0
 52
90.0
 71
2
 49
0.5
 62
256
  6
BYLAYER
 49
-0.5
 62
256
  6
BYLAYER
  0
LAYOUT
  5
3F4
102
{ACAD_REACTORS
330
1A
102
}
100
AcDbPlotSettings
  1

  2
none_device
  4
ISO_A3_(420.00_x_297.00_MM)
  6

 40
0.0
 41
0.0
 42
0.0
 43
0.0
 44
420.0
 45
297.0
 46
0.0
 47
0.0
 48
0.0
 49
0.0
140
0.0
141
0.0
142
1.0
143
1.0
 70
1024
 72
1
 73
0
 74
0
  7

 75
0
147
1.0
148
0.0
149
0.0
100
AcDbLayout
  1
Model
 70
0
 71
0
 10
0.0
 20
0.0
 11
420.0
 21
297.0
 12
0.0
 22
0.0
 32
0.0
 14
0.0
 24
0.0
 34
0.0
 15
0.0
 25
0.0
 35
0.0
146
0.0
 13
0.0
 23
0.0
 33
0.0
 16
1.0
 26
0.0
 36
0.0
 17
0.0
 27
1.0
 37
0.0
 76
0
330
20C
345
0
346
0
  0
LAYOUT
  5
3F5
102
{ACAD_REACTORS
330
1A
102
}
100
AcDbPlotSettings
  1

  2
none_device
  4
ISO_A3_(420.00_x_297.00_MM)
  6

 40
0.0
 41
0.0
 42
0.0
 43
0.0
 44
420.0
 45
297.0
 46
0.0
 47
0.0
 48
0.0
 49
0.0
140
0.0
141
0.0
142
1.0
143
1.0
 70
0
 72
1
 73
0
 74
0
  7

 75
0
147
1.0
148
0.0
149
0.0
100
AcDbLayout
  1
Layout1
 70
0
 71
1
 10
0.0
 20
0.0
 11
420.0
 21
297.0
 12
0.0
 22
0.0
 32
0.0
 14
0.0
 24
0.0
 34
0.0
 15
0.0
 25
0.0
 35
0.0
146
0.0
 13
0.0
 23
0.0
 33
0.0
 16
1.0
 26
0.0
 36
0.0
 17
0.0
 27
1.0
 37
0.0
 76
0
330
20D
345
0
346
0
  0
ENDSEC
  0
EOF
