999
DXF file: 001-m31347-p-40.dxf
999
Pro/ENGINEER 2011490 by Parametric Technology Corporation
  0
SECTION
  2
HEADER
  9
$ACADVER
  1
AC1015
  9
$DWGCODEPAGE
  3
ANSI_1252
  9
$EXTMAX
 10
297.0
 20
210.0
 30
0.0
  9
$EXTMIN
 10
0.0
 20
0.0
 30
0.0
  9
$LIMMIN
 10
0.0
 20
0.0
  9
$LIMMAX
 10
297.0
 20
210.0
  9
$VIEWCTR
 10
148.5
 20
105.0
  9
$VIEWSIZE
 40
210.0
  9
$CLAYER
  8
0
  9
$LTSCALE
 40
16.335
  9
$CELTYPE
  6
BYLAYER
  9
$DIMSCALE
 40
1.0
  9
$DIMASZ
 40
3.5
  9
$DIMEXO
 40
1.85625
  9
$DIMDLI
 40
11.286
  9
$DIMEXE
 40
5.346
  9
$DIMCEN
 40
2.673
  9
$DIMLFAC
 40
1.0
  9
$DIMBLK
  1
_FILLED
  9
$DIMTXT
 40
3.5
  9
$DIMTOL
 70
1
  9
$DIMLIM
 70
0
  9
$DIMTFAC
 40
1.0
  9
$DIMTP
 40
0.005
  9
$DIMTM
 40
0.005
  9
$PDMODE
 70
3
  9
$PDSIZE
 40
0.3125
  9
$HANDSEED
  5
447
  9
$TILEMODE
 70
1
  9
$MEASUREMENT
 70
1
  9
$INSUNITS
 70
4
  0
ENDSEC
  0
SECTION
  2
CLASSES
  0
CLASS
  1
ACDBDICTIONARYWDFLT
  2
AcDbDictionaryWithDefault
  3
AutoCAD 2000
 90
0
280
0
281
0
  0
CLASS
  1
ACDBPLACEHOLDER
  2
AcDbPlaceHolder
  3
AutoCAD 2000
 90
0
280
0
281
0
  0
CLASS
  1
LAYOUT
  2
AcDbLayout
  3
AutoCAD 2000
 90
0
280
0
281
0
  0
ENDSEC
  0
SECTION
  2
TABLES
  0
TABLE
  2
VPORT
  5
8
100
AcDbSymbolTable
 70
2
  0
VPORT
  5
1F4
100
AcDbSymbolTableRecord
100
AcDbViewportTableRecord
  2
*ACTIVE
 70
0
 10
0.0
 20
0.0
 11
1.0
 21
1.0
 12
148.5
 22
105.0
 13
0.0
 23
0.0
 14
1.0
 24
1.0
 15
0.0
 25
0.0
 16
0.0
 26
0.0
 36
1.0
 17
0.0
 27
0.0
 37
0.0
 40
210.0
 41
1.4142857143
 42
50.0
 43
0.0
 44
0.0
 50
0.0
 51
0.0
 71
0
 72
100
 73
1
 74
1
 75
0
 76
0
 77
0
 78
0
  0
ENDTAB
  0
TABLE
  2
LTYPE
  5
5
100
AcDbSymbolTable
 70
6
  0
LTYPE
  5
14
100
AcDbSymbolTableRecord
100
AcDbLinetypeTableRecord
  2
BYBLOCK
 70
0
  3

 72
65
 73
0
 40
0.0
  0
LTYPE
  5
15
100
AcDbSymbolTableRecord
100
AcDbLinetypeTableRecord
  2
BYLAYER
 70
0
  3

 72
65
 73
0
 40
0.0
  0
LTYPE
  5
16
100
AcDbSymbolTableRecord
100
AcDbLinetypeTableRecord
  2
CONTINUOUS
 70
64
  3
Solid line
 72
65
 73
0
 40
0.0
  0
LTYPE
  5
1F5
100
AcDbSymbolTableRecord
100
AcDbLinetypeTableRecord
  2
CENTER
 70
64
  3
____ _ ____ _ ____ _ ____ _ ____ _ ____ _ ____
 72
65
 73
4
 40
0.6
 49
0.375
 74
0
 49
-0.075
 74
0
 49
0.075
 74
0
 49
-0.075
 74
0
  0
LTYPE
  5
1F6
100
AcDbSymbolTableRecord
100
AcDbLinetypeTableRecord
  2
HIDDEN
 70
64
  3
- - - - - - - - - - - - - - - - - - - -
 72
65
 73
2
 40
0.2
 49
0.1
 74
0
 49
-0.1
 74
0
  0
LTYPE
  5
1F7
100
AcDbSymbolTableRecord
100
AcDbLinetypeTableRecord
  2
PHANTOM
 70
64
  3
_____ _ _ _____ _ _ _____ _ _ _____
 72
65
 73
6
 40
0.8
 49
0.45
 74
0
 49
-0.05
 74
0
 49
0.1
 74
0
 49
-0.05
 74
0
 49
0.1
 74
0
 49
-0.05
 74
0
  0
LTYPE
  5
1F8
100
AcDbSymbolTableRecord
100
AcDbLinetypeTableRecord
  2
DOT
 70
64
  3
. . . . . . . . . . . . . . . . . . . .
 72
65
 73
2
 40
0.2
 49
0.1
 74
0
 49
-0.1
 74
0
  0
LTYPE
  5
1F9
100
AcDbSymbolTableRecord
100
AcDbLinetypeTableRecord
  2
DASHED
 70
64
  3
- - - - - - - - - - - - - - - - - - - -
 72
65
 73
2
 40
0.2
 49
0.1
 74
0
 49
-0.1
 74
0
  0
ENDTAB
  0
TABLE
  2
LAYER
  5
2
100
AcDbSymbolTable
 70
36
  0
LAYER
  5
10
100
AcDbSymbolTableRecord
100
AcDbLayerTableRecord
  2
0
 70
0
 62
7
  6
CONTINUOUS
370
-3
390
F
  0
LAYER
  5
1FA
100
AcDbSymbolTableRecord
100
AcDbLayerTableRecord
  2
DEFAULT_1
 70
0
 62
7
  6
CENTER
370
-3
390
F
  0
LAYER
  5
1FB
100
AcDbSymbolTableRecord
100
AcDbLayerTableRecord
  2
DEFAULT_2
 70
0
 62
8
  6
HIDDEN
370
-3
390
F
  0
LAYER
  5
1FC
100
AcDbSymbolTableRecord
100
AcDbLayerTableRecord
  2
DEFAULT_3
 70
0
 62
7
  6
PHANTOM
370
-3
390
F
  0
LAYER
  5
1FD
100
AcDbSymbolTableRecord
100
AcDbLayerTableRecord
  2
AUSFORMSCHRAEGEN
 70
0
 62
7
  6
CONTINUOUS
370
-3
390
F
  0
LAYER
  5
1FE
100
AcDbSymbolTableRecord
100
AcDbLayerTableRecord
  2
BEZUGSACHSEN
 70
0
 62
7
  6
CONTINUOUS
370
-3
390
F
  0
LAYER
  5
1FF
100
AcDbSymbolTableRecord
100
AcDbLayerTableRecord
  2
BEZUGSEBENEN
 70
0
 62
7
  6
CONTINUOUS
370
-3
390
F
  0
LAYER
  5
200
100
AcDbSymbolTableRecord
100
AcDbLayerTableRecord
  2
BG_STARTBEZUEGE
 70
0
 62
7
  6
CONTINUOUS
370
-3
390
F
  0
LAYER
  5
201
100
AcDbSymbolTableRecord
100
AcDbLayerTableRecord
  2
FASEN
 70
0
 62
7
  6
CONTINUOUS
370
-3
390
F
  0
LAYER
  5
202
100
AcDbSymbolTableRecord
100
AcDbLayerTableRecord
  2
HILFEN
 70
0
 62
7
  6
CONTINUOUS
370
-3
390
F
  0
LAYER
  5
203
100
AcDbSymbolTableRecord
100
AcDbLayerTableRecord
  2
KONSTRUKTIONSELEMENTE
 70
0
 62
7
  6
CONTINUOUS
370
-3
390
F
  0
LAYER
  5
204
100
AcDbSymbolTableRecord
100
AcDbLayerTableRecord
  2
NORM
 70
0
 62
7
  6
CONTINUOUS
370
-3
390
F
  0
LAYER
  5
205
100
AcDbSymbolTableRecord
100
AcDbLayerTableRecord
  2
PLATZIERUNG
 70
0
 62
7
  6
CONTINUOUS
370
-3
390
F
  0
LAYER
  5
206
100
AcDbSymbolTableRecord
100
AcDbLayerTableRecord
  2
RUNDUNGEN
 70
0
 62
7
  6
CONTINUOUS
370
-3
390
F
  0
LAYER
  5
207
100
AcDbSymbolTableRecord
100
AcDbLayerTableRecord
  2
TEIL_STARTBEZUEGE
 70
0
 62
7
  6
CONTINUOUS
370
-3
390
F
  0
LAYER
  5
208
100
AcDbSymbolTableRecord
100
AcDbLayerTableRecord
  2
T_STARTBEZUEGE
 70
0
 62
7
  6
CONTINUOUS
370
-3
390
F
  0
LAYER
  5
209
100
AcDbSymbolTableRecord
100
AcDbLayerTableRecord
  2
ZEICHNUNGSBEMASSUNGEN
 70
0
 62
7
  6
CONTINUOUS
370
-3
390
F
  0
ENDTAB
  0
TABLE
  2
STYLE
  5
3
100
AcDbSymbolTable
 70
1
  0
STYLE
  5
11
100
AcDbSymbolTableRecord
100
AcDbTextStyleTableRecord
  2
STANDARD
 70
0
 40
0.0
 41
0.7
 50
0.0
 71
0
 42
0.2
  3
txt
  4

  0
STYLE
  5
20A
100
AcDbSymbolTableRecord
100
AcDbTextStyleTableRecord
  2
TEXTSTYLE_1
 70
0
 40
0.0
 41
0.8
 50
0.0
 71
0
 42
0.2
  3
gdt
  4

  0
ENDTAB
  0
TABLE
  2
VIEW
  5
6
100
AcDbSymbolTable
 70
0
  0
ENDTAB
  0
TABLE
  2
UCS
  5
7
100
AcDbSymbolTable
 70
0
  0
ENDTAB
  0
TABLE
  2
APPID
  5
9
100
AcDbSymbolTable
 70
1
  0
APPID
  5
20B
100
AcDbSymbolTableRecord
100
AcDbRegAppTableRecord
  2
ACAD
 70
0
  0
ENDTAB
  0
TABLE
  2
BLOCK_RECORD
  5
1
100
AcDbSymbolTable
 70
0
  0
BLOCK_RECORD
  5
20C
100
AcDbSymbolTableRecord
100
AcDbBlockTableRecord
  2
*Model_Space
  0
BLOCK_RECORD
  5
20D
100
AcDbSymbolTableRecord
100
AcDbBlockTableRecord
  2
*Paper_Space
  0
ENDTAB
  0
TABLE
  2
DIMSTYLE
  5
A
100
AcDbSymbolTable
 70
1
100
AcDbDimStyleTable
 71
0
  0
DIMSTYLE
105
20E
100
AcDbSymbolTableRecord
100
AcDbDimStyleTableRecord
  2
STANDARD
 70
0
  3

  4

 40
1.0
 41
3.5
 42
0.0625
 43
0.38
 44
0.18
 45
0.0
 46
0.0
 47
0.005
 48
0.005
140
3.5
141
0.09
142
0.0
143
25.4
144
1.0
145
0.0
146
1.0
147
0.09
 71
1.0
 72
0.0
 73
0
 74
0
 75
0
 76
0
 77
1
 78
8
170
0
171
2
172
0
173
0
174
0
175
0
176
0
177
0
178
5
270
2
271
3
272
3
273
2
274
2
275
0
280
0
281
0
282
0
283
1
284
8
285
0
286
0
287
3
288
0
340
11
  0
ENDTAB
  0
ENDSEC
  0
SECTION
  2
BLOCKS
  0
BLOCK
  5
20
100
AcDbEntity
  8
0
100
AcDbBlockBegin
  2
*Model_Space
 70
0
 10
0.0
 20
0.0
 30
0.0
  3
*Model_Space
  1

  0
ENDBLK
  5
21
100
AcDbEntity
  8
0
100
AcDbBlockEnd
  0
BLOCK
  5
1C
100
AcDbEntity
  8
0
100
AcDbBlockBegin
  2
*Paper_Space
 70
0
 10
0.0
 20
0.0
 30
0.0
  3
*Paper_Space
  1

  0
ENDBLK
  5
1D
100
AcDbEntity
  8
0
100
AcDbBlockEnd
  0
ENDSEC
  0
SECTION
  2
ENTITIES
  0
MTEXT
  5
20F
100
AcDbEntity
  8
0
100
AcDbMText
 62
5
  6
CONTINUOUS
  7
STANDARD
 71
2
 72
1
 10
88.9619639593
 20
38.5084974013
 30
0.0
 11
0.0
 21
1.0
 31
0.0
 44
0.9
  1
RUD WPP\PVIP-8 2,5t 
 40
6.0
 41
47.8571428571
  0
MTEXT
  5
210
100
AcDbEntity
  8
0
100
AcDbMText
 62
5
  6
CONTINUOUS
  7
STANDARD
 71
2
 72
1
 10
209.4571432613
 20
150.0652346505
 30
0.0
 11
1.0
 21
0.0
 31
0.0
 44
0.9
  1
RUD\PWPP 2,5t
 40
7.0
 41
44.5
  0
LINE
  5
211
100
AcDbEntity
  8
0
100
AcDbLine
 62
7
  6
CONTINUOUS
 10
0.0
 20
0.0
 11
0.0
 21
210.0
  0
LINE
  5
212
100
AcDbEntity
  8
0
100
AcDbLine
 62
7
  6
CONTINUOUS
 10
0.0
 20
0.0
 11
297.0
 21
0.0
  0
LINE
  5
213
100
AcDbEntity
  8
0
100
AcDbLine
 62
7
  6
CONTINUOUS
 10
0.0
 20
210.0
 11
297.0
 21
210.0
  0
LINE
  5
214
100
AcDbEntity
  8
0
100
AcDbLine
 62
7
  6
CONTINUOUS
 10
297.0
 20
0.0
 11
297.0
 21
210.0
  0
LINE
  5
215
100
AcDbEntity
  8
FASEN
100
AcDbLine
 62
7
  6
CONTINUOUS
 10
68.5372631175
 20
116.9587180526
 11
65.5372631175
 21
119.9587180526
  0
LINE
  5
216
100
AcDbEntity
  8
FASEN
100
AcDbLine
 62
7
  6
CONTINUOUS
 10
122.5372631173
 20
116.9587180527
 11
68.5372631174
 21
116.9587180527
  0
LINE
  5
217
100
AcDbEntity
  8
FASEN
100
AcDbLine
 62
7
  6
CONTINUOUS
 10
125.5372631173
 20
119.9587180527
 11
65.5372631173
 21
119.9587180527
  0
LINE
  5
218
100
AcDbEntity
  8
FASEN
100
AcDbLine
 62
7
  6
CONTINUOUS
 10
65.5372631173
 20
127.4587180527
 11
65.5372631173
 21
119.9587180527
  0
LINE
  5
219
100
AcDbEntity
  8
KONSTRUKTIONSELEMENTE
100
AcDbLine
 62
7
  6
CONTINUOUS
 10
65.5372631173
 20
127.4587180527
 11
65.5372631173
 21
119.9587180527
  0
LINE
  5
21A
100
AcDbEntity
  8
0
100
AcDbLine
 62
7
  6
CONTINUOUS
 10
69.0372631173
 20
152.3587180527
 11
69.0372631173
 21
127.9587180527
  0
LINE
  5
21B
100
AcDbEntity
  8
FASEN
100
AcDbLine
 62
7
  6
CONTINUOUS
 10
65.5372631173
 20
127.4587180527
 11
125.5372631173
 21
127.4587180527
  0
LINE
  5
21C
100
AcDbEntity
  8
FASEN
100
AcDbLine
 62
7
  6
CONTINUOUS
 10
66.0372631174
 20
127.9587180527
 11
125.0372631173
 21
127.9587180527
  0
LINE
  5
21D
100
AcDbEntity
  8
0
100
AcDbLine
 62
7
  6
CONTINUOUS
 10
122.0372631173
 20
130.0289308208
 11
122.1041009984
 21
130.0289308208
  0
LINE
  5
21E
100
AcDbEntity
  8
0
100
AcDbLine
 62
7
  6
CONTINUOUS
 10
114.9859134561
 20
130.8587180527
 11
116.0348811192
 21
130.8587180527
  0
LINE
  5
21F
100
AcDbEntity
  8
0
100
AcDbLine
 62
7
  6
CONTINUOUS
 10
119.2119587001
 20
130.8587180527
 11
119.878405468
 21
130.8587180527
  0
LINE
  5
220
100
AcDbEntity
  8
0
100
AcDbLine
 62
7
  6
CONTINUOUS
 10
121.8853601889
 20
130.8587180527
 11
122.2872406173
 21
130.8587180527
  0
LINE
  5
221
100
AcDbEntity
  8
0
100
AcDbLine
 62
7
  6
CONTINUOUS
 10
122.2872626212
 20
131.5502074289
 11
122.2299587474
 21
131.5502074289
  0
LINE
  5
222
100
AcDbEntity
  8
0
100
AcDbLine
 62
7
  6
CONTINUOUS
 10
121.8853601889
 20
131.5502074289
 11
122.1367879119
 21
131.5502074289
  0
LINE
  5
223
100
AcDbEntity
  8
0
100
AcDbLine
 62
7
  6
CONTINUOUS
 10
121.3919501924
 20
133.209781796
 11
121.9989755764
 21
133.209781796
  0
LINE
  5
224
100
AcDbEntity
  8
0
100
AcDbLine
 62
7
  6
CONTINUOUS
 10
120.8479690723
 20
133.7629734131
 11
119.878405468
 21
133.7629734131
  0
LINE
  5
225
100
AcDbEntity
  8
0
100
AcDbLine
 62
7
  6
CONTINUOUS
 10
117.8531767217
 20
133.7629734131
 11
116.0348811192
 21
133.7629734131
  0
LINE
  5
226
100
AcDbEntity
  8
0
100
AcDbLine
 62
7
  6
CONTINUOUS
 10
121.3919501924
 20
133.901271269
 11
121.9989755764
 21
133.901271269
  0
LINE
  5
227
100
AcDbEntity
  8
0
100
AcDbLine
 62
7
  6
CONTINUOUS
 10
120.8938777121
 20
134.5927605482
 11
119.878405468
 21
134.5927605482
  0
LINE
  5
228
100
AcDbEntity
  8
0
100
AcDbLine
 62
7
  6
CONTINUOUS
 10
117.9420940745
 20
134.5927605482
 11
116.0348811192
 21
134.5927605482
  0
LINE
  5
229
100
AcDbEntity
  8
0
100
AcDbLine
 62
7
  6
CONTINUOUS
 10
117.9062876875
 20
134.7310584041
 11
118.201899894
 21
134.7310584041
  0
LINE
  5
22A
100
AcDbEntity
  8
0
100
AcDbLine
 62
7
  6
CONTINUOUS
 10
120.7643030055
 20
134.7310584041
 11
121.0267911929
 21
134.7310584041
  0
LINE
  5
22B
100
AcDbEntity
  8
0
100
AcDbLine
 62
7
  6
CONTINUOUS
 10
118.0760318004
 20
135.0076541158
 11
118.3694464065
 21
135.0076541158
  0
LINE
  5
22C
100
AcDbEntity
  8
0
100
AcDbLine
 62
7
  6
CONTINUOUS
 10
120.8498209876
 20
135.0076541158
 11
121.1114314506
 21
135.0076541158
  0
LINE
  5
22D
100
AcDbEntity
  8
0
100
AcDbLine
 62
7
  6
CONTINUOUS
 10
122.0372631173
 20
135.0076541158
 11
122.2700911801
 21
135.0076541158
  0
LINE
  5
22E
100
AcDbEntity
  8
0
100
AcDbLine
 62
7
  6
CONTINUOUS
 10
118.1592102505
 20
135.4225476834
 11
118.451559792
 21
135.4225476834
  0
LINE
  5
22F
100
AcDbEntity
  8
0
100
AcDbLine
 62
7
  6
CONTINUOUS
 10
120.891387066
 20
135.4225476834
 11
121.152573016
 21
135.4225476834
  0
LINE
  5
230
100
AcDbEntity
  8
0
100
AcDbLine
 62
7
  6
CONTINUOUS
 10
122.0372631173
 20
135.5608455392
 11
122.2590080187
 21
135.5608455392
  0
LINE
  5
231
100
AcDbEntity
  8
0
100
AcDbLine
 62
7
  6
CONTINUOUS
 10
118.1592102505
 20
135.8374416383
 11
118.451559792
 21
135.8374416383
  0
LINE
  5
232
100
AcDbEntity
  8
0
100
AcDbLine
 62
7
  6
CONTINUOUS
 10
120.891387066
 20
135.8374416383
 11
121.152573016
 21
135.8374416383
  0
LINE
  5
233
100
AcDbEntity
  8
0
100
AcDbLine
 62
7
  6
CONTINUOUS
 10
121.8995704603
 20
135.8374416383
 11
122.2590080187
 21
135.8374416383
  0
LINE
  5
234
100
AcDbEntity
  8
0
100
AcDbLine
 62
7
  6
CONTINUOUS
 10
118.0760318004
 20
136.2523352059
 11
118.3694464065
 21
136.2523352059
  0
LINE
  5
235
100
AcDbEntity
  8
0
100
AcDbLine
 62
7
  6
CONTINUOUS
 10
120.8498209876
 20
136.2523352059
 11
121.1114314506
 21
136.2523352059
  0
LINE
  5
236
100
AcDbEntity
  8
0
100
AcDbLine
 62
7
  6
CONTINUOUS
 10
122.2299587474
 20
136.2523352059
 11
122.2700911801
 21
136.2523352059
  0
LINE
  5
237
100
AcDbEntity
  8
0
100
AcDbLine
 62
7
  6
CONTINUOUS
 10
121.9130776782
 20
136.3906330618
 11
122.1642436775
 21
136.3906330618
  0
LINE
  5
238
100
AcDbEntity
  8
0
100
AcDbLine
 62
7
  6
CONTINUOUS
 10
117.9062876875
 20
136.5289309176
 11
118.201899894
 21
136.5289309176
  0
LINE
  5
239
100
AcDbEntity
  8
0
100
AcDbLine
 62
7
  6
CONTINUOUS
 10
120.7643030055
 20
136.5289309176
 11
121.0267911929
 21
136.5289309176
  0
LINE
  5
23A
100
AcDbEntity
  8
0
100
AcDbLine
 62
7
  6
CONTINUOUS
 10
122.2534910685
 20
136.5289309176
 11
122.2815653782
 21
136.5289309176
  0
LINE
  5
23B
100
AcDbEntity
  8
0
100
AcDbLine
 62
7
  6
CONTINUOUS
 10
122.2869710597
 20
136.6672287735
 11
122.2819870336
 21
136.6672287735
  0
LINE
  5
23C
100
AcDbEntity
  8
0
100
AcDbLine
 62
7
  6
CONTINUOUS
 10
120.8938777121
 20
136.6672287735
 11
119.878405468
 21
136.6672287735
  0
LINE
  5
23D
100
AcDbEntity
  8
0
100
AcDbLine
 62
7
  6
CONTINUOUS
 10
117.9420940745
 20
136.6672287735
 11
116.0348811192
 21
136.6672287735
  0
LINE
  5
23E
100
AcDbEntity
  8
0
100
AcDbLine
 62
7
  6
CONTINUOUS
 10
121.9600985169
 20
136.9438244852
 11
122.2108217579
 21
136.9438244852
  0
LINE
  5
23F
100
AcDbEntity
  8
0
100
AcDbLine
 62
7
  6
CONTINUOUS
 10
121.9959491675
 20
137.2204201969
 11
122.2463358736
 21
137.2204201969
  0
LINE
  5
240
100
AcDbEntity
  8
0
100
AcDbLine
 62
7
  6
CONTINUOUS
 10
114.9859134561
 20
137.3587180527
 11
117.8531767217
 21
137.3587180527
  0
LINE
  5
241
100
AcDbEntity
  8
0
100
AcDbLine
 62
7
  6
CONTINUOUS
 10
119.2119587001
 20
137.3587180527
 11
120.8479690723
 21
137.3587180527
  0
LINE
  5
242
100
AcDbEntity
  8
0
100
AcDbLine
 62
7
  6
CONTINUOUS
 10
122.0319375527
 20
137.3587180527
 11
122.2819873342
 21
137.3587180527
  0
LINE
  5
243
100
AcDbEntity
  8
0
100
AcDbLine
 62
7
  6
CONTINUOUS
 10
82.5372631173
 20
163.6587180527
 11
82.5372631173
 21
166.9920513066
  0
LINE
  5
244
100
AcDbEntity
  8
0
100
AcDbLine
 62
7
  6
CONTINUOUS
 10
82.5372631173
 20
167.6587180527
 11
82.5372631173
 21
168.1587180527
  0
LINE
  5
245
100
AcDbEntity
  8
0
100
AcDbLine
 62
7
  6
CONTINUOUS
 10
82.5372631173
 20
168.8253845605
 11
82.5372631173
 21
171.9087180527
  0
LINE
  5
246
100
AcDbEntity
  8
0
100
AcDbLine
 62
7
  6
CONTINUOUS
 10
82.5372631173
 20
173.2686270065
 11
82.5372631173
 21
176.0186270065
  0
LINE
  5
247
100
AcDbEntity
  8
0
100
AcDbLine
 62
7
  6
CONTINUOUS
 10
82.5372631173
 20
176.5753850373
 11
82.5372631173
 21
179.5753850373
  0
LINE
  5
248
100
AcDbEntity
  8
0
100
AcDbLine
 62
7
  6
CONTINUOUS
 10
120.0780455009
 20
140.3587180527
 11
120.6600086629
 21
140.3587180527
  0
LINE
  5
249
100
AcDbEntity
  8
0
100
AcDbLine
 62
7
  6
CONTINUOUS
 10
121.3942897734
 20
140.3587180527
 11
121.8431477675
 21
140.3587180527
  0
LINE
  5
24A
100
AcDbEntity
  8
0
100
AcDbLine
 62
7
  6
CONTINUOUS
 10
121.9886647527
 20
140.3587180527
 11
122.2661537368
 21
140.3587180527
  0
LINE
  5
24B
100
AcDbEntity
  8
0
100
AcDbLine
 62
7
  6
CONTINUOUS
 10
121.9388899315
 20
140.4970159207
 11
122.1898126846
 21
140.4970159207
  0
LINE
  5
24C
100
AcDbEntity
  8
0
100
AcDbLine
 62
7
  6
CONTINUOUS
 10
121.8864782866
 20
140.7736116687
 11
122.1378954413
 21
140.7736116687
  0
LINE
  5
24D
100
AcDbEntity
  8
0
100
AcDbLine
 62
7
  6
CONTINUOUS
 10
122.2661537368
 20
141.1885052847
 11
122.2391197658
 21
141.1885052847
  0
LINE
  5
24E
100
AcDbEntity
  8
0
100
AcDbLine
 62
7
  6
CONTINUOUS
 10
121.8228025018
 20
141.3268031406
 11
122.0748229285
 21
141.3268031406
  0
LINE
  5
24F
100
AcDbEntity
  8
0
100
AcDbLine
 62
7
  6
CONTINUOUS
 10
122.2010569287
 20
141.3268031406
 11
122.2821922238
 21
141.3268031406
  0
LINE
  5
250
100
AcDbEntity
  8
0
100
AcDbLine
 62
7
  6
CONTINUOUS
 10
122.1652441144
 20
141.6033989491
 11
122.2870177091
 21
141.6033989491
  0
LINE
  5
251
100
AcDbEntity
  8
0
100
AcDbLine
 62
7
  6
CONTINUOUS
 10
121.7867154278
 20
141.8799946608
 11
122.0390790287
 21
141.8799946608
  0
LINE
  5
252
100
AcDbEntity
  8
0
100
AcDbLine
 62
7
  6
CONTINUOUS
 10
122.1378954413
 20
142.0182925167
 11
122.2868067758
 21
142.0182925167
  0
LINE
  5
253
100
AcDbEntity
  8
0
100
AcDbLine
 62
7
  6
CONTINUOUS
 10
121.7676046134
 20
142.5714839401
 11
122.0201503277
 21
142.5714839401
  0
LINE
  5
254
100
AcDbEntity
  8
0
100
AcDbLine
 62
7
  6
CONTINUOUS
 10
122.1231760303
 20
142.5714839401
 11
122.2856729842
 21
142.5714839401
  0
LINE
  5
255
100
AcDbEntity
  8
0
100
AcDbLine
 62
7
  6
CONTINUOUS
 10
121.3859291649
 20
143.2629734131
 11
120.6600086629
 21
143.2629734131
  0
LINE
  5
256
100
AcDbEntity
  8
RUNDUNGEN
100
AcDbLine
 62
7
  6
CONTINUOUS
 10
83.0372631173
 20
182.8587180527
 11
83.0372631173
 21
159.8587180527
  0
LINE
  5
257
100
AcDbEntity
  8
0
100
AcDbLine
 62
7
  6
CONTINUOUS
 10
121.4565568117
 20
144.0927605482
 11
120.6600086629
 21
144.0927605482
  0
LINE
  5
258
100
AcDbEntity
  8
0
100
AcDbLine
 62
7
  6
CONTINUOUS
 10
121.2997667926
 20
144.2310584041
 11
121.5568537294
 21
144.2310584041
  0
LINE
  5
259
100
AcDbEntity
  8
0
100
AcDbLine
 62
7
  6
CONTINUOUS
 10
121.3635306322
 20
144.5076541158
 11
121.619989082
 21
144.5076541158
  0
LINE
  5
25A
100
AcDbEntity
  8
0
100
AcDbLine
 62
7
  6
CONTINUOUS
 10
121.3942897734
 20
144.9225476833
 11
121.6504461384
 21
144.9225476833
  0
LINE
  5
25B
100
AcDbEntity
  8
0
100
AcDbLine
 62
7
  6
CONTINUOUS
 10
121.3942897734
 20
145.3374416383
 11
121.6504461384
 21
145.3374416383
  0
LINE
  5
25C
100
AcDbEntity
  8
0
100
AcDbLine
 62
7
  6
CONTINUOUS
 10
121.3635306322
 20
145.7523352059
 11
121.619989082
 21
145.7523352059
  0
LINE
  5
25D
100
AcDbEntity
  8
0
100
AcDbLine
 62
7
  6
CONTINUOUS
 10
121.2997667926
 20
146.0289309176
 11
121.5568537294
 21
146.0289309176
  0
LINE
  5
25E
100
AcDbEntity
  8
0
100
AcDbLine
 62
7
  6
CONTINUOUS
 10
121.4565568117
 20
146.1672287735
 11
120.6600086629
 21
146.1672287735
  0
LINE
  5
25F
100
AcDbEntity
  8
0
100
AcDbLine
 62
7
  6
CONTINUOUS
 10
120.0780455009
 20
146.8587180527
 11
121.4216213284
 21
146.8587180527
  0
LINE
  5
260
100
AcDbEntity
  8
0
100
AcDbLine
 62
7
  6
CONTINUOUS
 10
121.7676046134
 20
146.8587180527
 11
122.2856729842
 21
146.8587180527
  0
LINE
  5
261
100
AcDbEntity
  8
FASEN
100
AcDbLine
 62
7
  6
CONTINUOUS
 10
66.0372631177
 20
127.9587180531
 11
65.5372631177
 21
127.4587180531
  0
LINE
  5
262
100
AcDbEntity
  8
RUNDUNGEN
100
AcDbLine
 62
7
  6
CONTINUOUS
 10
119.5372631173
 20
154.8587180527
 11
113.0371020899
 21
154.8587180527
  0
LINE
  5
263
100
AcDbEntity
  8
RUNDUNGEN
100
AcDbLine
 62
7
  6
CONTINUOUS
 10
78.0374027518
 20
154.8587180527
 11
71.5372631173
 21
154.8587180527
  0
LINE
  5
264
100
AcDbEntity
  8
FASEN
100
AcDbLine
 62
7
  6
CONTINUOUS
 10
125.0372631171
 20
127.9587180529
 11
125.5372631171
 21
127.4587180529
  0
LINE
  5
265
100
AcDbEntity
  8
0
100
AcDbLine
 62
7
  6
CONTINUOUS
 10
83.0372631173
 20
163.6587180527
 11
82.5372631173
 21
163.6587180527
  0
LINE
  5
266
100
AcDbEntity
  8
0
100
AcDbLine
 62
7
  6
CONTINUOUS
 10
83.0372631173
 20
164.9920514258
 11
82.5372631173
 21
164.9920514258
  0
LINE
  5
267
100
AcDbEntity
  8
0
100
AcDbLine
 62
7
  6
CONTINUOUS
 10
83.0372631173
 20
165.6587180527
 11
82.5372631173
 21
165.6587180527
  0
LINE
  5
268
100
AcDbEntity
  8
RUNDUNGEN
100
AcDbLine
 62
7
  6
CONTINUOUS
 10
108.0372631173
 20
159.8587180527
 11
108.0372631173
 21
182.8587180527
  0
LINE
  5
269
100
AcDbEntity
  8
0
100
AcDbLine
 62
7
  6
CONTINUOUS
 10
83.0372631173
 20
166.9920513066
 11
82.5372631173
 21
166.9920513066
  0
LINE
  5
26A
100
AcDbEntity
  8
0
100
AcDbLine
 62
7
  6
CONTINUOUS
 10
83.0372631173
 20
167.6587180527
 11
82.5372631173
 21
167.6587180527
  0
LINE
  5
26B
100
AcDbEntity
  8
0
100
AcDbLine
 62
7
  6
CONTINUOUS
 10
83.0372631173
 20
168.1587180527
 11
82.5372631173
 21
168.1587180527
  0
LINE
  5
26C
100
AcDbEntity
  8
0
100
AcDbLine
 62
7
  6
CONTINUOUS
 10
83.0372631173
 20
168.8253845605
 11
82.5372631173
 21
168.8253845605
  0
LINE
  5
26D
100
AcDbEntity
  8
0
100
AcDbLine
 62
7
  6
CONTINUOUS
 10
83.0372631173
 20
169.0186270065
 11
82.5372631173
 21
169.0186270065
  0
LINE
  5
26E
100
AcDbEntity
  8
0
100
AcDbLine
 62
7
  6
CONTINUOUS
 10
83.0372631173
 20
171.7686270065
 11
82.5372631173
 21
171.7686270065
  0
LINE
  5
26F
100
AcDbEntity
  8
0
100
AcDbLine
 62
7
  6
CONTINUOUS
 10
83.0372631173
 20
171.8253850373
 11
82.5372631173
 21
171.8253850373
  0
LINE
  5
270
100
AcDbEntity
  8
0
100
AcDbLine
 62
7
  6
CONTINUOUS
 10
83.0372631173
 20
171.9087180527
 11
82.5372631173
 21
171.9087180527
  0
LINE
  5
271
100
AcDbEntity
  8
0
100
AcDbLine
 62
7
  6
CONTINUOUS
 10
114.9859134561
 20
137.3587180527
 11
114.9859134561
 21
130.8587180527
  0
LINE
  5
272
100
AcDbEntity
  8
0
100
AcDbLine
 62
7
  6
CONTINUOUS
 10
115.3252013626
 20
137.3587180527
 11
115.3252013626
 21
130.8587180527
  0
LINE
  5
273
100
AcDbEntity
  8
0
100
AcDbLine
 62
7
  6
CONTINUOUS
 10
83.0372631173
 20
173.2686270065
 11
82.5372631173
 21
173.2686270065
  0
LINE
  5
274
100
AcDbEntity
  8
0
100
AcDbLine
 62
7
  6
CONTINUOUS
 10
83.0372631173
 20
176.0186270065
 11
82.5372631173
 21
176.0186270065
  0
LINE
  5
275
100
AcDbEntity
  8
0
100
AcDbLine
 62
7
  6
CONTINUOUS
 10
116.0348811192
 20
136.6672287735
 11
116.0348811192
 21
134.5927605482
  0
LINE
  5
276
100
AcDbEntity
  8
0
100
AcDbLine
 62
7
  6
CONTINUOUS
 10
116.0348811192
 20
133.7629734131
 11
116.0348811192
 21
130.8587180527
  0
LINE
  5
277
100
AcDbEntity
  8
0
100
AcDbLine
 62
7
  6
CONTINUOUS
 10
118.1592102505
 20
135.8374416383
 11
118.1592102505
 21
135.4225476834
  0
LINE
  5
278
100
AcDbEntity
  8
0
100
AcDbLine
 62
7
  6
CONTINUOUS
 10
118.451559792
 20
135.8374416383
 11
118.451559792
 21
135.4225476834
  0
LINE
  5
279
100
AcDbEntity
  8
0
100
AcDbLine
 62
7
  6
CONTINUOUS
 10
118.9217285051
 20
135.8374416383
 11
118.9217285051
 21
135.2842498275
  0
LINE
  5
27A
100
AcDbEntity
  8
0
100
AcDbLine
 62
7
  6
CONTINUOUS
 10
83.0372631173
 20
176.5753850373
 11
82.5372631173
 21
176.5753850373
  0
LINE
  5
27B
100
AcDbEntity
  8
0
100
AcDbLine
 62
7
  6
CONTINUOUS
 10
83.0372631173
 20
176.7420510682
 11
82.5372631173
 21
176.7420510682
  0
LINE
  5
27C
100
AcDbEntity
  8
0
100
AcDbLine
 62
7
  6
CONTINUOUS
 10
83.0372631173
 20
176.9920510682
 11
82.5372631173
 21
176.9920510682
  0
LINE
  5
27D
100
AcDbEntity
  8
0
100
AcDbLine
 62
7
  6
CONTINUOUS
 10
83.0372631173
 20
177.4087180527
 11
82.5372631173
 21
177.4087180527
  0
LINE
  5
27E
100
AcDbEntity
  8
0
100
AcDbLine
 62
7
  6
CONTINUOUS
 10
83.0372631173
 20
177.8253850373
 11
82.5372631173
 21
177.8253850373
  0
LINE
  5
27F
100
AcDbEntity
  8
0
100
AcDbLine
 62
7
  6
CONTINUOUS
 10
83.0372631173
 20
178.3253850373
 11
82.5372631173
 21
178.3253850373
  0
LINE
  5
280
100
AcDbEntity
  8
0
100
AcDbLine
 62
7
  6
CONTINUOUS
 10
83.0372631173
 20
178.7420510682
 11
82.5372631173
 21
178.7420510682
  0
LINE
  5
281
100
AcDbEntity
  8
0
100
AcDbLine
 62
7
  6
CONTINUOUS
 10
83.0372631173
 20
179.1587180527
 11
82.5372631173
 21
179.1587180527
  0
LINE
  5
282
100
AcDbEntity
  8
0
100
AcDbLine
 62
7
  6
CONTINUOUS
 10
83.0372631173
 20
179.4087180527
 11
82.5372631173
 21
179.4087180527
  0
LINE
  5
283
100
AcDbEntity
  8
0
100
AcDbLine
 62
7
  6
CONTINUOUS
 10
83.0372631173
 20
179.5753850373
 11
82.5372631173
 21
179.5753850373
  0
LINE
  5
284
100
AcDbEntity
  8
0
100
AcDbLine
 62
7
  6
CONTINUOUS
 10
122.2872630929
 20
136.6416961421
 11
122.2869710597
 21
136.6672287735
  0
LINE
  5
285
100
AcDbEntity
  8
0
100
AcDbLine
 62
7
  6
CONTINUOUS
 10
119.2119587001
 20
137.3587180527
 11
119.2119587001
 21
130.8587180527
  0
LINE
  5
286
100
AcDbEntity
  8
0
100
AcDbLine
 62
7
  6
CONTINUOUS
 10
119.4914633949
 20
137.3587180527
 11
119.4914633949
 21
130.8587180527
  0
LINE
  5
287
100
AcDbEntity
  8
0
100
AcDbLine
 62
7
  6
CONTINUOUS
 10
119.878405468
 20
136.6672287735
 11
119.878405468
 21
134.5927605482
  0
LINE
  5
288
100
AcDbEntity
  8
0
100
AcDbLine
 62
7
  6
CONTINUOUS
 10
119.878405468
 20
133.7629734131
 11
119.878405468
 21
130.8587180527
  0
LINE
  5
289
100
AcDbEntity
  8
0
100
AcDbLine
 62
7
  6
CONTINUOUS
 10
120.0780455009
 20
146.8587180527
 11
120.0780455009
 21
140.3587180527
  0
LINE
  5
28A
100
AcDbEntity
  8
0
100
AcDbLine
 62
7
  6
CONTINUOUS
 10
120.3477951551
 20
146.8587180527
 11
120.3477951551
 21
140.3587180527
  0
LINE
  5
28B
100
AcDbEntity
  8
0
100
AcDbLine
 62
7
  6
CONTINUOUS
 10
120.6600086629
 20
146.1672287735
 11
120.6600086629
 21
144.0927605482
  0
LINE
  5
28C
100
AcDbEntity
  8
0
100
AcDbLine
 62
7
  6
CONTINUOUS
 10
120.6600086629
 20
143.2629734131
 11
120.6600086629
 21
140.3587180527
  0
LINE
  5
28D
100
AcDbEntity
  8
0
100
AcDbLine
 62
7
  6
CONTINUOUS
 10
120.891387066
 20
135.8374416383
 11
120.891387066
 21
135.4225476834
  0
LINE
  5
28E
100
AcDbEntity
  8
0
100
AcDbLine
 62
7
  6
CONTINUOUS
 10
121.152573016
 20
135.8374416383
 11
121.152573016
 21
135.4225476834
  0
LINE
  5
28F
100
AcDbEntity
  8
0
100
AcDbLine
 62
7
  6
CONTINUOUS
 10
121.3831522721
 20
135.8374416383
 11
121.3831522721
 21
135.2842498275
  0
LINE
  5
290
100
AcDbEntity
  8
0
100
AcDbLine
 62
7
  6
CONTINUOUS
 10
121.3919501924
 20
133.901271269
 11
121.3919501924
 21
133.209781796
  0
LINE
  5
291
100
AcDbEntity
  8
0
100
AcDbLine
 62
7
  6
CONTINUOUS
 10
121.3942897734
 20
145.3374416383
 11
121.3942897734
 21
144.9225476833
  0
LINE
  5
292
100
AcDbEntity
  8
0
100
AcDbLine
 62
7
  6
CONTINUOUS
 10
121.6481295095
 20
133.901271269
 11
121.6481295095
 21
133.209781796
  0
LINE
  5
293
100
AcDbEntity
  8
0
100
AcDbLine
 62
7
  6
CONTINUOUS
 10
121.6504461384
 20
145.3374416383
 11
121.6504461384
 21
144.9225476833
  0
LINE
  5
294
100
AcDbEntity
  8
0
100
AcDbLine
 62
7
  6
CONTINUOUS
 10
121.7676046134
 20
146.8587180527
 11
121.7676046134
 21
145.9183278301
  0
LINE
  5
295
100
AcDbEntity
  8
0
100
AcDbLine
 62
7
  6
CONTINUOUS
 10
121.7676046134
 20
144.2033636357
 11
121.7676046134
 21
142.5714839401
  0
LINE
  5
296
100
AcDbEntity
  8
0
100
AcDbLine
 62
7
  6
CONTINUOUS
 10
121.817798821
 20
145.3374416383
 11
121.817798821
 21
144.7842498275
  0
LINE
  5
297
100
AcDbEntity
  8
0
100
AcDbLine
 62
7
  6
CONTINUOUS
 10
121.8853601889
 20
131.5502074289
 11
121.8853601889
 21
130.8587180527
  0
LINE
  5
298
100
AcDbEntity
  8
0
100
AcDbLine
 62
7
  6
CONTINUOUS
 10
121.9989755764
 20
133.901271269
 11
121.9989755764
 21
133.209781796
  0
LINE
  5
299
100
AcDbEntity
  8
0
100
AcDbLine
 62
7
  6
CONTINUOUS
 10
122.0201503277
 20
146.8587180527
 11
122.0201503277
 21
142.5714839401
  0
LINE
  5
29A
100
AcDbEntity
  8
0
100
AcDbLine
 62
7
  6
CONTINUOUS
 10
122.0372631173
 20
152.3587180527
 11
122.0372631173
 21
146.8587180527
  0
LINE
  5
29B
100
AcDbEntity
  8
0
100
AcDbLine
 62
7
  6
CONTINUOUS
 10
122.0372631173
 20
140.3587180527
 11
122.0372631173
 21
137.3587180527
  0
LINE
  5
29C
100
AcDbEntity
  8
0
100
AcDbLine
 62
7
  6
CONTINUOUS
 10
122.0372631173
 20
135.8374416383
 11
122.0372631173
 21
134.1337521953
  0
LINE
  5
29D
100
AcDbEntity
  8
0
100
AcDbLine
 62
7
  6
CONTINUOUS
 10
122.0372631173
 20
130.8587180527
 11
122.0372631173
 21
127.9587180527
  0
LINE
  5
29E
100
AcDbEntity
  8
0
100
AcDbLine
 62
7
  6
CONTINUOUS
 10
122.1231760303
 20
146.8587180527
 11
122.1231760303
 21
142.5714839401
  0
LINE
  5
29F
100
AcDbEntity
  8
0
100
AcDbLine
 62
7
  6
CONTINUOUS
 10
122.1367879119
 20
131.5502074289
 11
122.1367879119
 21
130.8587180527
  0
LINE
  5
2A0
100
AcDbEntity
  8
0
100
AcDbLine
 62
7
  6
CONTINUOUS
 10
122.2590080187
 20
135.5608455392
 11
122.2590080187
 21
135.8374416383
  0
LINE
  5
2A1
100
AcDbEntity
  8
0
100
AcDbLine
 62
7
  6
CONTINUOUS
 10
122.2856729842
 20
146.8587180527
 11
122.2856729842
 21
142.5714839401
  0
LINE
  5
2A2
100
AcDbEntity
  8
0
100
AcDbLine
 62
7
  6
CONTINUOUS
 10
122.2872631173
 20
141.3268031406
 11
122.2872631173
 21
140.693824383
  0
LINE
  5
2A3
100
AcDbEntity
  8
0
100
AcDbLine
 62
7
  6
CONTINUOUS
 10
122.2872631173
 20
137.3587180527
 11
122.2872631173
 21
136.6672287735
  0
LINE
  5
2A4
100
AcDbEntity
  8
0
100
AcDbLine
 62
7
  6
CONTINUOUS
 10
122.2872631173
 20
131.5502074289
 11
122.2872631173
 21
130.8587180527
  0
LINE
  5
2A5
100
AcDbEntity
  8
FASEN
100
AcDbLine
 62
7
  6
CONTINUOUS
 10
125.5372631173
 20
127.4587180527
 11
125.5372631173
 21
119.9587180527
  0
LINE
  5
2A6
100
AcDbEntity
  8
KONSTRUKTIONSELEMENTE
100
AcDbLine
 62
7
  6
CONTINUOUS
 10
125.5372631173
 20
127.4587180527
 11
125.5372631173
 21
119.9587180527
  0
LINE
  5
2A7
100
AcDbEntity
  8
FASEN
100
AcDbLine
 62
7
  6
CONTINUOUS
 10
122.5372631172
 20
116.9587180527
 11
125.5372631172
 21
119.9587180527
  0
LINE
  5
2A8
100
AcDbEntity
  8
FASEN
100
AcDbLine
 62
7
  6
CONTINUOUS
 10
182.6672023616
 20
116.9587180527
 11
179.6672023616
 21
119.9587180527
  0
LINE
  5
2A9
100
AcDbEntity
  8
RUNDUNGEN
100
AcDbLine
 62
7
  6
CONTINUOUS
 10
190.4180383265
 20
194.4658991225
 11
187.6030245891
 21
191.1110963877
  0
LINE
  5
2AA
100
AcDbEntity
  8
FASEN
100
AcDbLine
 62
7
  6
CONTINUOUS
 10
236.6668859154
 20
116.9587180527
 11
182.6675188077
 21
116.9587180527
  0
LINE
  5
2AB
100
AcDbEntity
  8
FASEN
100
AcDbLine
 62
7
  6
CONTINUOUS
 10
239.6672023616
 20
119.9587180527
 11
179.6672023616
 21
119.9587180527
  0
LINE
  5
2AC
100
AcDbEntity
  8
KONSTRUKTIONSELEMENTE
100
AcDbLine
 62
7
  6
CONTINUOUS
 10
179.6672023616
 20
127.4587180527
 11
179.6672023616
 21
119.9587180527
  0
LINE
  5
2AD
100
AcDbEntity
  8
RUNDUNGEN
100
AcDbLine
 62
7
  6
CONTINUOUS
 10
183.5691261502
 20
171.0548704754
 11
186.1982912748
 21
175.6087180527
  0
LINE
  5
2AE
100
AcDbEntity
  8
0
100
AcDbLine
 62
7
  6
CONTINUOUS
 10
183.1672023616
 20
169.5548704754
 11
183.1672023616
 21
127.9587180527
  0
LINE
  5
2AF
100
AcDbEntity
  8
0
100
AcDbLine
 62
7
  6
CONTINUOUS
 10
191.6476278529
 20
179.0753850373
 11
191.3923087344
 21
178.6587180527
  0
LINE
  5
2B0
100
AcDbEntity
  8
0
100
AcDbLine
 62
7
  6
CONTINUOUS
 10
191.8178405986
 20
178.5753850373
 11
192.0731597171
 21
178.9087180527
  0
LINE
  5
2B1
100
AcDbEntity
  8
0
100
AcDbLine
 62
7
  6
CONTINUOUS
 10
193.6050746665
 20
179.4087180527
 11
193.349755548
 21
179.0753850373
  0
LINE
  5
2B2
100
AcDbEntity
  8
0
100
AcDbLine
 62
7
  6
CONTINUOUS
 10
193.0093300567
 20
177.5753850373
 11
192.7540109382
 21
177.2420510682
  0
LINE
  5
2B3
100
AcDbEntity
  8
0
100
AcDbLine
 62
7
  6
CONTINUOUS
 10
191.9029469714
 20
179.3253850373
 11
191.6476278529
 21
179.0753850373
  0
LINE
  5
2B4
100
AcDbEntity
  8
0
100
AcDbLine
 62
7
  6
CONTINUOUS
 10
192.9242236838
 20
176.8253850373
 11
193.1795428023
 21
177.0753850373
  0
LINE
  5
2B5
100
AcDbEntity
  8
0
100
AcDbLine
 62
7
  6
CONTINUOUS
 10
193.6901810393
 20
178.9087180527
 11
194.0306066499
 21
179.1587180527
  0
LINE
  5
2B6
100
AcDbEntity
  8
0
100
AcDbLine
 62
7
  6
CONTINUOUS
 10
194.6263513193
 20
177.2420510682
 11
194.2859257684
 21
176.9920510682
  0
LINE
  5
2B7
100
AcDbEntity
  8
0
100
AcDbLine
 62
7
  6
CONTINUOUS
 10
192.0731597171
 20
178.9087180527
 11
192.328479074
 21
179.0753850373
  0
LINE
  5
2B8
100
AcDbEntity
  8
0
100
AcDbLine
 62
7
  6
CONTINUOUS
 10
192.7540109382
 20
177.2420510682
 11
192.4986918197
 21
177.0753850373
  0
LINE
  5
2B9
100
AcDbEntity
  8
0
100
AcDbLine
 62
7
  6
CONTINUOUS
 10
192.5837981925
 20
176.6587180527
 11
192.9242236838
 21
176.8253850373
  0
LINE
  5
2BA
100
AcDbEntity
  8
0
100
AcDbLine
 62
7
  6
CONTINUOUS
 10
192.328479074
 20
179.4920510682
 11
191.9029469714
 21
179.3253850373
  0
LINE
  5
2BB
100
AcDbEntity
  8
0
100
AcDbLine
 62
7
  6
CONTINUOUS
 10
194.0306066499
 20
179.5753850373
 11
193.6050746665
 21
179.4087180527
  0
LINE
  5
2BC
100
AcDbEntity
  8
FASEN
100
AcDbLine
 62
7
  6
CONTINUOUS
 10
179.6672023616
 20
127.4587180527
 11
239.6672023616
 21
127.4587180527
  0
LINE
  5
2BD
100
AcDbEntity
  8
FASEN
100
AcDbLine
 62
7
  6
CONTINUOUS
 10
180.167548121
 20
127.9587180527
 11
239.1668566022
 21
127.9587180527
  0
LINE
  5
2BE
100
AcDbEntity
  8
RUNDUNGEN
100
AcDbLine
 62
7
  6
CONTINUOUS
 10
186.6672023616
 20
177.3587180527
 11
186.6672023616
 21
188.5399581416
  0
LINE
  5
2BF
100
AcDbEntity
  8
0
100
AcDbLine
 62
7
  6
CONTINUOUS
 10
191.7327342258
 20
178.2420510682
 11
191.8178405986
 21
178.5753850373
  0
LINE
  5
2C0
100
AcDbEntity
  8
0
100
AcDbLine
 62
7
  6
CONTINUOUS
 10
193.349755548
 20
179.0753850373
 11
193.2646491752
 21
178.9087180527
  0
LINE
  5
2C1
100
AcDbEntity
  8
0
100
AcDbLine
 62
7
  6
CONTINUOUS
 10
193.5199682937
 20
178.5753850373
 11
193.6901810393
 21
178.9087180527
  0
LINE
  5
2C2
100
AcDbEntity
  8
0
100
AcDbLine
 62
7
  6
CONTINUOUS
 10
193.1795428023
 20
177.0753850373
 11
193.2646491752
 21
177.2420510682
  0
LINE
  5
2C3
100
AcDbEntity
  8
0
100
AcDbLine
 62
7
  6
CONTINUOUS
 10
194.796564065
 20
177.5753850373
 11
194.6263513193
 21
177.2420510682
  0
LINE
  5
2C4
100
AcDbEntity
  8
0
100
AcDbLine
 62
7
  6
CONTINUOUS
 10
194.9667768405
 20
176.9920510682
 11
195.2220959813
 21
177.4087180527
  0
LINE
  5
2C5
100
AcDbEntity
  8
0
100
AcDbLine
 62
7
  6
CONTINUOUS
 10
191.6476278529
 20
171.5753845605
 11
191.3923087344
 21
171.242051545
  0
LINE
  5
2C6
100
AcDbEntity
  8
0
100
AcDbLine
 62
7
  6
CONTINUOUS
 10
194.7114576922
 20
176.7420510682
 11
194.9667768405
 21
176.9920510682
  0
LINE
  5
2C7
100
AcDbEntity
  8
0
100
AcDbLine
 62
7
  6
CONTINUOUS
 10
191.8178405986
 20
171.1587180527
 11
191.9880533443
 21
171.3253845605
  0
LINE
  5
2C8
100
AcDbEntity
  8
0
100
AcDbLine
 62
7
  6
CONTINUOUS
 10
191.9880533443
 20
171.8253850373
 11
191.6476278529
 21
171.5753845605
  0
LINE
  5
2C9
100
AcDbEntity
  8
0
100
AcDbLine
 62
7
  6
CONTINUOUS
 10
194.2859257684
 20
176.5753850373
 11
194.7114576922
 21
176.7420510682
  0
LINE
  5
2CA
100
AcDbEntity
  8
0
100
AcDbLine
 62
7
  6
CONTINUOUS
 10
191.3923087344
 20
178.6587180527
 11
191.3072023616
 21
178.2420510682
  0
LINE
  5
2CB
100
AcDbEntity
  8
0
100
AcDbLine
 62
7
  6
CONTINUOUS
 10
191.3923087344
 20
171.242051545
 11
191.3072023616
 21
170.8253845605
  0
LINE
  5
2CC
100
AcDbEntity
  8
0
100
AcDbLine
 62
7
  6
CONTINUOUS
 10
193.0944364295
 20
177.9087180527
 11
193.0093300567
 21
177.5753850373
  0
LINE
  5
2CD
100
AcDbEntity
  8
0
100
AcDbLine
 62
7
  6
CONTINUOUS
 10
193.4348619208
 20
178.2420510682
 11
193.5199682937
 21
178.5753850373
  0
LINE
  5
2CE
100
AcDbEntity
  8
0
100
AcDbLine
 62
7
  6
CONTINUOUS
 10
194.8816704378
 20
177.9087180527
 11
194.796564065
 21
177.5753850373
  0
LINE
  5
2CF
100
AcDbEntity
  8
0
100
AcDbLine
 62
7
  6
CONTINUOUS
 10
191.7327342258
 20
170.9087180527
 11
191.8178405986
 21
171.1587180527
  0
LINE
  5
2D0
100
AcDbEntity
  8
0
100
AcDbLine
 62
7
  6
CONTINUOUS
 10
192.2433724628
 20
171.9087180527
 11
191.9880533443
 21
171.8253850373
  0
LINE
  5
2D1
100
AcDbEntity
  8
0
100
AcDbLine
 62
7
  6
CONTINUOUS
 10
191.9880533443
 20
171.3253845605
 11
192.2433724628
 21
171.4087180527
  0
LINE
  5
2D2
100
AcDbEntity
  8
0
100
AcDbLine
 62
7
  6
CONTINUOUS
 10
191.3072023616
 20
178.2420510682
 11
191.3072023616
 21
177.9087180527
  0
LINE
  5
2D3
100
AcDbEntity
  8
0
100
AcDbLine
 62
7
  6
CONTINUOUS
 10
191.3072023616
 20
170.8253845605
 11
191.3072023616
 21
168.8253845605
  0
LINE
  5
2D4
100
AcDbEntity
  8
0
100
AcDbLine
 62
7
  6
CONTINUOUS
 10
191.3072023616
 20
168.1587180527
 11
191.3072023616
 21
167.6587180527
  0
LINE
  5
2D5
100
AcDbEntity
  8
0
100
AcDbLine
 62
7
  6
CONTINUOUS
 10
191.3072023616
 20
166.9920513066
 11
191.3072023616
 21
166.4920513066
  0
LINE
  5
2D6
100
AcDbEntity
  8
0
100
AcDbLine
 62
7
  6
CONTINUOUS
 10
191.3072023616
 20
164.1587180527
 11
191.3072023616
 21
163.6587180527
  0
LINE
  5
2D7
100
AcDbEntity
  8
0
100
AcDbLine
 62
7
  6
CONTINUOUS
 10
191.7327342258
 20
169.3253845605
 11
191.7327342258
 21
170.9087180527
  0
LINE
  5
2D8
100
AcDbEntity
  8
0
100
AcDbLine
 62
7
  6
CONTINUOUS
 10
191.7327342258
 20
177.9087180527
 11
191.7327342258
 21
178.2420510682
  0
LINE
  5
2D9
100
AcDbEntity
  8
0
100
AcDbLine
 62
7
  6
CONTINUOUS
 10
193.0093300567
 20
170.9087180527
 11
193.0093300567
 21
169.3253845605
  0
LINE
  5
2DA
100
AcDbEntity
  8
0
100
AcDbLine
 62
7
  6
CONTINUOUS
 10
193.0944364295
 20
178.2420510682
 11
193.0944364295
 21
177.9087180527
  0
LINE
  5
2DB
100
AcDbEntity
  8
0
100
AcDbLine
 62
7
  6
CONTINUOUS
 10
193.4348619208
 20
177.9087180527
 11
193.4348619208
 21
178.2420510682
  0
LINE
  5
2DC
100
AcDbEntity
  8
0
100
AcDbLine
 62
7
  6
CONTINUOUS
 10
193.5199682937
 20
169.3253845605
 11
193.5199682937
 21
170.8253845605
  0
LINE
  5
2DD
100
AcDbEntity
  8
0
100
AcDbLine
 62
7
  6
CONTINUOUS
 10
195.2220959813
 20
177.4087180527
 11
195.3072023616
 21
177.8253850373
  0
LINE
  5
2DE
100
AcDbEntity
  8
RUNDUNGEN
100
AcDbLine
 62
7
  6
CONTINUOUS
 10
205.1534920125
 20
176.7905003494
 11
202.2357541068
 21
173.5500241163
  0
LINE
  5
2DF
100
AcDbEntity
  8
0
100
AcDbLine
 62
7
  6
CONTINUOUS
 10
194.8816704378
 20
178.2420510682
 11
194.8816704378
 21
177.9087180527
  0
LINE
  5
2E0
100
AcDbEntity
  8
0
100
AcDbLine
 62
7
  6
CONTINUOUS
 10
195.3072023616
 20
164.9920514258
 11
195.3072023616
 21
165.6587180527
  0
LINE
  5
2E1
100
AcDbEntity
  8
0
100
AcDbLine
 62
7
  6
CONTINUOUS
 10
195.3072023616
 20
167.6587180527
 11
195.3072023616
 21
168.1587180527
  0
LINE
  5
2E2
100
AcDbEntity
  8
0
100
AcDbLine
 62
7
  6
CONTINUOUS
 10
195.3072023616
 20
168.8253845605
 11
195.3072023616
 21
169.3253845605
  0
LINE
  5
2E3
100
AcDbEntity
  8
0
100
AcDbLine
 62
7
  6
CONTINUOUS
 10
195.3072023616
 20
177.8253850373
 11
195.3072023616
 21
178.3253850373
  0
LINE
  5
2E4
100
AcDbEntity
  8
0
100
AcDbLine
 62
7
  6
CONTINUOUS
 10
194.796564065
 20
165.3253846797
 11
191.3072023616
 21
164.1587180527
  0
LINE
  5
2E5
100
AcDbEntity
  8
0
100
AcDbLine
 62
7
  6
CONTINUOUS
 10
191.3072023616
 20
163.6587180527
 11
195.3072023616
 21
164.9920514258
  0
LINE
  5
2E6
100
AcDbEntity
  8
0
100
AcDbLine
 62
7
  6
CONTINUOUS
 10
191.3072023616
 20
177.9087180527
 11
191.3923087344
 21
177.4920510682
  0
LINE
  5
2E7
100
AcDbEntity
  8
0
100
AcDbLine
 62
7
  6
CONTINUOUS
 10
193.5199682937
 20
170.8253845605
 11
193.4348619208
 21
171.242051545
  0
LINE
  5
2E8
100
AcDbEntity
  8
0
100
AcDbLine
 62
7
  6
CONTINUOUS
 10
192.9242236838
 20
171.1587180527
 11
193.0093300567
 21
170.9087180527
  0
LINE
  5
2E9
100
AcDbEntity
  8
0
100
AcDbLine
 62
7
  6
CONTINUOUS
 10
191.8178405986
 20
177.5753850373
 11
191.7327342258
 21
177.9087180527
  0
LINE
  5
2EA
100
AcDbEntity
  8
0
100
AcDbLine
 62
7
  6
CONTINUOUS
 10
193.0093300567
 20
178.5753850373
 11
193.0944364295
 21
178.2420510682
  0
LINE
  5
2EB
100
AcDbEntity
  8
0
100
AcDbLine
 62
7
  6
CONTINUOUS
 10
193.5199682937
 20
177.5753850373
 11
193.4348619208
 21
177.9087180527
  0
LINE
  5
2EC
100
AcDbEntity
  8
0
100
AcDbLine
 62
7
  6
CONTINUOUS
 10
195.3072023616
 20
178.3253850373
 11
195.2220959813
 21
178.7420510682
  0
LINE
  5
2ED
100
AcDbEntity
  8
0
100
AcDbLine
 62
7
  6
CONTINUOUS
 10
194.796564065
 20
178.5753850373
 11
194.8816704378
 21
178.2420510682
  0
LINE
  5
2EE
100
AcDbEntity
  8
RUNDUNGEN
100
AcDbLine
 62
7
  6
CONTINUOUS
 10
205.6672023616
 20
178.1287615621
 11
205.6672023616
 21
190.8837336973
  0
LINE
  5
2EF
100
AcDbEntity
  8
0
100
AcDbLine
 62
7
  6
CONTINUOUS
 10
193.4348619208
 20
171.242051545
 11
193.1795428023
 21
171.5753845605
  0
LINE
  5
2F0
100
AcDbEntity
  8
0
100
AcDbLine
 62
7
  6
CONTINUOUS
 10
191.3923087344
 20
177.4920510682
 11
191.6476278529
 21
177.0753850373
  0
LINE
  5
2F1
100
AcDbEntity
  8
0
100
AcDbLine
 62
7
  6
CONTINUOUS
 10
193.2646491752
 20
177.2420510682
 11
193.349755548
 21
177.0753850373
  0
LINE
  5
2F2
100
AcDbEntity
  8
0
100
AcDbLine
 62
7
  6
CONTINUOUS
 10
193.6901810393
 20
177.2420510682
 11
193.5199682937
 21
177.5753850373
  0
LINE
  5
2F3
100
AcDbEntity
  8
0
100
AcDbLine
 62
7
  6
CONTINUOUS
 10
193.2646491752
 20
178.9087180527
 11
193.1795428023
 21
179.0753850373
  0
LINE
  5
2F4
100
AcDbEntity
  8
0
100
AcDbLine
 62
7
  6
CONTINUOUS
 10
194.6263513193
 20
178.9087180527
 11
194.796564065
 21
178.5753850373
  0
LINE
  5
2F5
100
AcDbEntity
  8
FASEN
100
AcDbLine
 62
7
  6
CONTINUOUS
 10
180.1672023616
 20
127.9587180527
 11
179.6672023616
 21
127.4587180527
  0
LINE
  5
2F6
100
AcDbEntity
  8
RUNDUNGEN
100
AcDbLine
 62
7
  6
CONTINUOUS
 10
226.0914433236
 20
154.8587180527
 11
193.2429565527
 21
154.8587180527
  0
LINE
  5
2F7
100
AcDbEntity
  8
0
100
AcDbLine
 62
7
  6
CONTINUOUS
 10
192.7540109382
 20
171.3253845605
 11
192.9242236838
 21
171.1587180527
  0
LINE
  5
2F8
100
AcDbEntity
  8
0
100
AcDbLine
 62
7
  6
CONTINUOUS
 10
192.0731597171
 20
177.2420510682
 11
191.8178405986
 21
177.5753850373
  0
LINE
  5
2F9
100
AcDbEntity
  8
0
100
AcDbLine
 62
7
  6
CONTINUOUS
 10
193.349755548
 20
177.0753850373
 11
193.6050746665
 21
176.7420510682
  0
LINE
  5
2FA
100
AcDbEntity
  8
0
100
AcDbLine
 62
7
  6
CONTINUOUS
 10
192.7540109382
 20
178.9087180527
 11
193.0093300567
 21
178.5753850373
  0
LINE
  5
2FB
100
AcDbEntity
  8
0
100
AcDbLine
 62
7
  6
CONTINUOUS
 10
195.2220959813
 20
178.7420510682
 11
194.9667768405
 21
179.1587180527
  0
LINE
  5
2FC
100
AcDbEntity
  8
0
100
AcDbLine
 62
7
  6
CONTINUOUS
 10
193.1795428023
 20
171.5753845605
 11
192.839117311
 21
171.8253850373
  0
LINE
  5
2FD
100
AcDbEntity
  8
0
100
AcDbLine
 62
7
  6
CONTINUOUS
 10
191.6476278529
 20
177.0753850373
 11
191.9029469714
 21
176.8253850373
  0
LINE
  5
2FE
100
AcDbEntity
  8
FASEN
100
AcDbLine
 62
7
  6
CONTINUOUS
 10
239.1672023616
 20
127.9587180527
 11
239.6672023616
 21
127.4587180527
  0
LINE
  5
2FF
100
AcDbEntity
  8
RUNDUNGEN
100
AcDbLine
 62
7
  6
CONTINUOUS
 10
213.6672023616
 20
178.1287615621
 11
213.6672023616
 21
190.8837336973
  0
LINE
  5
300
100
AcDbEntity
  8
0
100
AcDbLine
 62
7
  6
CONTINUOUS
 10
195.3072023616
 20
165.6587180527
 11
191.3072023616
 21
166.9920513066
  0
LINE
  5
301
100
AcDbEntity
  8
0
100
AcDbLine
 62
7
  6
CONTINUOUS
 10
191.3072023616
 20
166.4920513066
 11
194.796564065
 21
165.3253846797
  0
LINE
  5
302
100
AcDbEntity
  8
0
100
AcDbLine
 62
7
  6
CONTINUOUS
 10
193.1795428023
 20
179.0753850373
 11
192.9242236838
 21
179.3253850373
  0
LINE
  5
303
100
AcDbEntity
  8
0
100
AcDbLine
 62
7
  6
CONTINUOUS
 10
194.9667768405
 20
179.1587180527
 11
194.7114576922
 21
179.4087180527
  0
LINE
  5
304
100
AcDbEntity
  8
0
100
AcDbLine
 62
7
  6
CONTINUOUS
 10
192.4986918197
 20
171.4087180527
 11
192.7540109382
 21
171.3253845605
  0
LINE
  5
305
100
AcDbEntity
  8
0
100
AcDbLine
 62
7
  6
CONTINUOUS
 10
192.839117311
 20
171.8253850373
 11
192.5837981925
 21
171.9087180527
  0
LINE
  5
306
100
AcDbEntity
  8
0
100
AcDbLine
 62
7
  6
CONTINUOUS
 10
192.328479074
 20
177.0753850373
 11
192.0731597171
 21
177.2420510682
  0
LINE
  5
307
100
AcDbEntity
  8
0
100
AcDbLine
 62
7
  6
CONTINUOUS
 10
192.4986918197
 20
179.0753850373
 11
192.7540109382
 21
178.9087180527
  0
LINE
  5
308
100
AcDbEntity
  8
0
100
AcDbLine
 62
7
  6
CONTINUOUS
 10
194.0306066499
 20
176.9920510682
 11
193.6901810393
 21
177.2420510682
  0
LINE
  5
309
100
AcDbEntity
  8
0
100
AcDbLine
 62
7
  6
CONTINUOUS
 10
194.2859257684
 20
179.1587180527
 11
194.6263513193
 21
178.9087180527
  0
LINE
  5
30A
100
AcDbEntity
  8
0
100
AcDbLine
 62
7
  6
CONTINUOUS
 10
191.3072023616
 20
167.6587180527
 11
195.3072023616
 21
167.6587180527
  0
LINE
  5
30B
100
AcDbEntity
  8
0
100
AcDbLine
 62
7
  6
CONTINUOUS
 10
195.3072023616
 20
168.1587180527
 11
191.3072023616
 21
168.1587180527
  0
LINE
  5
30C
100
AcDbEntity
  8
0
100
AcDbLine
 62
7
  6
CONTINUOUS
 10
191.3072023616
 20
168.8253845605
 11
195.3072023616
 21
168.8253845605
  0
LINE
  5
30D
100
AcDbEntity
  8
0
100
AcDbLine
 62
7
  6
CONTINUOUS
 10
195.3072023616
 20
169.3253845605
 11
193.5199682937
 21
169.3253845605
  0
LINE
  5
30E
100
AcDbEntity
  8
0
100
AcDbLine
 62
7
  6
CONTINUOUS
 10
193.0093300567
 20
169.3253845605
 11
191.7327342258
 21
169.3253845605
  0
LINE
  5
30F
100
AcDbEntity
  8
0
100
AcDbLine
 62
7
  6
CONTINUOUS
 10
191.9029469714
 20
176.8253850373
 11
192.328479074
 21
176.6587180527
  0
LINE
  5
310
100
AcDbEntity
  8
0
100
AcDbLine
 62
7
  6
CONTINUOUS
 10
193.6050746665
 20
176.7420510682
 11
194.0306066499
 21
176.5753850373
  0
LINE
  5
311
100
AcDbEntity
  8
0
100
AcDbLine
 62
7
  6
CONTINUOUS
 10
192.9242236838
 20
179.3253850373
 11
192.5837981925
 21
179.4920510682
  0
LINE
  5
312
100
AcDbEntity
  8
0
100
AcDbLine
 62
7
  6
CONTINUOUS
 10
225.2463512753
 20
171.4935150506
 11
225.2637394435
 21
171.7686270065
  0
LINE
  5
313
100
AcDbEntity
  8
0
100
AcDbLine
 62
7
  6
CONTINUOUS
 10
192.2433724628
 20
171.4087180527
 11
192.4986918197
 21
171.4087180527
  0
LINE
  5
314
100
AcDbEntity
  8
0
100
AcDbLine
 62
7
  6
CONTINUOUS
 10
229.4832588438
 20
171.7686270065
 11
228.7278410586
 21
171.7686270065
  0
LINE
  5
315
100
AcDbEntity
  8
0
100
AcDbLine
 62
7
  6
CONTINUOUS
 10
225.2637394435
 20
171.7686270065
 11
224.5083216583
 21
171.7686270065
  0
LINE
  5
316
100
AcDbEntity
  8
0
100
AcDbLine
 62
7
  6
CONTINUOUS
 10
192.5837981925
 20
171.9087180527
 11
192.2433724628
 21
171.9087180527
  0
LINE
  5
317
100
AcDbEntity
  8
0
100
AcDbLine
 62
7
  6
CONTINUOUS
 10
194.7114576922
 20
179.4087180527
 11
194.2859257684
 21
179.5753850373
  0
LINE
  5
318
100
AcDbEntity
  8
0
100
AcDbLine
 62
7
  6
CONTINUOUS
 10
226.6203724659
 20
175.5186270065
 11
226.6203724659
 21
174.0593694231
  0
LINE
  5
319
100
AcDbEntity
  8
0
100
AcDbLine
 62
7
  6
CONTINUOUS
 10
227.3757902511
 20
174.0603822934
 11
227.3757902511
 21
175.5186270065
  0
LINE
  5
31A
100
AcDbEntity
  8
0
100
AcDbLine
 62
7
  6
CONTINUOUS
 10
227.3757902511
 20
175.5186270065
 11
226.6203724659
 21
175.5186270065
  0
LINE
  5
31B
100
AcDbEntity
  8
0
100
AcDbLine
 62
7
  6
CONTINUOUS
 10
229.4832588438
 20
176.0186270065
 11
228.7278410586
 21
176.0186270065
  0
LINE
  5
31C
100
AcDbEntity
  8
0
100
AcDbLine
 62
7
  6
CONTINUOUS
 10
225.2637394435
 20
176.0186270065
 11
224.5083216583
 21
176.0186270065
  0
LINE
  5
31D
100
AcDbEntity
  8
RUNDUNGEN
100
AcDbLine
 62
7
  6
CONTINUOUS
 10
217.0986506164
 20
173.5500241163
 11
214.1809127106
 21
176.7905003494
  0
LINE
  5
31E
100
AcDbEntity
  8
0
100
AcDbLine
 62
7
  6
CONTINUOUS
 10
229.4934009688
 20
171.4176268441
 11
229.4832588438
 21
171.7686270065
  0
LINE
  5
31F
100
AcDbEntity
  8
0
100
AcDbLine
 62
7
  6
CONTINUOUS
 10
229.4934009688
 20
175.6676268441
 11
229.4832588438
 21
176.0186270065
  0
LINE
  5
320
100
AcDbEntity
  8
RUNDUNGEN
100
AcDbLine
 62
7
  6
CONTINUOUS
 10
232.6672023616
 20
188.5399604628
 11
232.6672023616
 21
177.3587180527
  0
LINE
  5
321
100
AcDbEntity
  8
0
100
AcDbLine
 62
7
  6
CONTINUOUS
 10
194.0306066499
 20
176.5753850373
 11
194.2859257684
 21
176.5753850373
  0
LINE
  5
322
100
AcDbEntity
  8
0
100
AcDbLine
 62
7
  6
CONTINUOUS
 10
192.328479074
 20
176.6587180527
 11
192.5837981925
 21
176.6587180527
  0
LINE
  5
323
100
AcDbEntity
  8
0
100
AcDbLine
 62
7
  6
CONTINUOUS
 10
194.2859257684
 20
176.9920510682
 11
194.0306066499
 21
176.9920510682
  0
LINE
  5
324
100
AcDbEntity
  8
0
100
AcDbLine
 62
7
  6
CONTINUOUS
 10
192.4986918197
 20
177.0753850373
 11
192.328479074
 21
177.0753850373
  0
LINE
  5
325
100
AcDbEntity
  8
BEZUGSACHSEN
100
AcDbLine
 62
7
  6
CONTINUOUS
 10
205.6614920752
 20
177.9587180527
 11
213.672912648
 21
177.9587180527
  0
LINE
  5
326
100
AcDbEntity
  8
0
100
AcDbLine
 62
7
  6
CONTINUOUS
 10
192.328479074
 20
179.0753850373
 11
192.4986918197
 21
179.0753850373
  0
LINE
  5
327
100
AcDbEntity
  8
0
100
AcDbLine
 62
7
  6
CONTINUOUS
 10
194.0306066499
 20
179.1587180527
 11
194.2859257684
 21
179.1587180527
  0
LINE
  5
328
100
AcDbEntity
  8
0
100
AcDbLine
 62
7
  6
CONTINUOUS
 10
192.5837981925
 20
179.4920510682
 11
192.328479074
 21
179.4920510682
  0
LINE
  5
329
100
AcDbEntity
  8
0
100
AcDbLine
 62
7
  6
CONTINUOUS
 10
194.2859257684
 20
179.5753850373
 11
194.0306066499
 21
179.5753850373
  0
LINE
  5
32A
100
AcDbEntity
  8
0
100
AcDbLine
 62
7
  6
CONTINUOUS
 10
236.1672023616
 20
169.5548704754
 11
236.1672023616
 21
127.9587180527
  0
LINE
  5
32B
100
AcDbEntity
  8
KONSTRUKTIONSELEMENTE
100
AcDbLine
 62
7
  6
CONTINUOUS
 10
239.6672023616
 20
127.4587180527
 11
239.6672023616
 21
119.9587180527
  0
LINE
  5
32C
100
AcDbEntity
  8
RUNDUNGEN
100
AcDbLine
 62
7
  6
CONTINUOUS
 10
235.7652785729
 20
171.0548704754
 11
233.1361134483
 21
175.6087180527
  0
LINE
  5
32D
100
AcDbEntity
  8
BEZUGSACHSEN
100
AcDbLine
 62
7
  6
CONTINUOUS
 10
205.6672023616
 20
187.7587180527
 11
213.6672023616
 21
187.7587180527
  0
LINE
  5
32E
100
AcDbEntity
  8
0
100
AcDbLine
 62
7
  6
CONTINUOUS
 10
192.3109673469
 20
195.3587180527
 11
197.9092263453
 21
195.3587180527
  0
LINE
  5
32F
100
AcDbEntity
  8
0
100
AcDbLine
 62
7
  6
CONTINUOUS
 10
221.4251783779
 20
195.3587180527
 11
227.0234373582
 21
195.3587180527
  0
LINE
  5
330
100
AcDbEntity
  8
RUNDUNGEN
100
AcDbLine
 62
7
  6
CONTINUOUS
 10
228.9163663307
 20
194.4658992011
 11
231.7315473972
 21
191.1108970514
  0
LINE
  5
331
100
AcDbEntity
  8
FASEN
100
AcDbLine
 62
7
  6
CONTINUOUS
 10
236.6672023616
 20
116.9587180527
 11
239.6672023616
 21
119.9587180527
  0
LINE
  5
332
100
AcDbEntity
  8
RUNDUNGEN
100
AcDbLine
 62
7
  6
CONTINUOUS
 10
85.5372631173
 20
13.1080773263
 11
105.5372631173
 21
13.1080773263
  0
LINE
  5
333
100
AcDbEntity
  8
0
100
AcDbLine
 62
7
  6
CONTINUOUS
 10
83.0372631173
 20
16.2794894368
 11
82.5372631173
 21
16.2794894368
  0
LINE
  5
334
100
AcDbEntity
  8
0
100
AcDbLine
 62
7
  6
CONTINUOUS
 10
83.0372631173
 20
16.292020844
 11
82.5372631173
 21
16.292020844
  0
LINE
  5
335
100
AcDbEntity
  8
0
100
AcDbLine
 62
7
  6
CONTINUOUS
 10
83.0372631173
 20
17.0474386292
 11
82.5372631173
 21
17.0474386292
  0
LINE
  5
336
100
AcDbEntity
  8
0
100
AcDbLine
 62
7
  6
CONTINUOUS
 10
114.9859134561
 20
18.1080773263
 11
115.3252013626
 21
18.1080773263
  0
LINE
  5
337
100
AcDbEntity
  8
0
100
AcDbLine
 62
7
  6
CONTINUOUS
 10
83.0372631173
 20
18.3994894368
 11
82.5372631173
 21
18.3994894368
  0
LINE
  5
338
100
AcDbEntity
  8
0
100
AcDbLine
 62
7
  6
CONTINUOUS
 10
83.0372631173
 20
19.154907222
 11
82.5372631173
 21
19.154907222
  0
LINE
  5
339
100
AcDbEntity
  8
0
100
AcDbLine
 62
7
  6
CONTINUOUS
 10
83.0372631173
 20
20.5115402444
 11
82.5372631173
 21
20.5115402444
  0
LINE
  5
33A
100
AcDbEntity
  8
0
100
AcDbLine
 62
7
  6
CONTINUOUS
 10
83.0372631173
 20
21.2669580296
 11
82.5372631173
 21
21.2669580296
  0
LINE
  5
33B
100
AcDbEntity
  8
0
100
AcDbLine
 62
7
  6
CONTINUOUS
 10
83.0372631173
 20
21.2794894368
 11
82.5372631173
 21
21.2794894368
  0
LINE
  5
33C
100
AcDbEntity
  8
0
100
AcDbLine
 62
7
  6
CONTINUOUS
 10
117.5528825726
 20
21.3580773263
 11
117.8531767217
 21
21.3580773263
  0
LINE
  5
33D
100
AcDbEntity
  8
0
100
AcDbLine
 62
7
  6
CONTINUOUS
 10
117.9917286003
 20
22.0351607888
 11
118.2862305692
 21
22.0351607888
  0
LWPOLYLINE
  5
33E
100
AcDbEntity
  8
RUNDUNGEN
100
AcDbPolyline
 62
7
  6
CONTINUOUS
 90
5
 70
0
 10
83.0372514224
 20
47.2996153127
 10
83.0389891007
 20
47.2151339898
 10
83.0645315458
 20
46.9590422282
 10
83.1197778043
 20
46.7088920116
 10
83.2039969639
 20
46.4662947808
  0
LINE
  5
33F
100
AcDbEntity
  8
0
100
AcDbLine
 62
7
  6
CONTINUOUS
 10
82.5372631173
 20
16.2799406147
 11
82.5372631173
 21
17.0474386292
  0
LINE
  5
340
100
AcDbEntity
  8
0
100
AcDbLine
 62
7
  6
CONTINUOUS
 10
82.5372631173
 20
17.1106885513
 11
82.5372631173
 21
21.279038259
  0
LINE
  5
341
100
AcDbEntity
  8
0
100
AcDbLine
 62
7
  6
CONTINUOUS
 10
82.5372631173
 20
50.4680773263
 11
82.5372631173
 21
54.4680773263
  0
LINE
  5
342
100
AcDbEntity
  8
RUNDUNGEN
100
AcDbLine
 62
7
  6
CONTINUOUS
 10
83.0372631173
 20
14.2906421493
 11
83.0372631173
 21
26.3612553781
  0
LINE
  5
343
100
AcDbEntity
  8
RUNDUNGEN
100
AcDbLine
 62
7
  6
CONTINUOUS
 10
83.0372631173
 20
45.8548996037
 11
83.0372631173
 21
57.9255046729
  0
LINE
  5
344
100
AcDbEntity
  8
0
100
AcDbLine
 62
7
  6
CONTINUOUS
 10
118.322242236
 20
22.5768273263
 11
118.6125263539
 21
22.5768273263
  0
LINE
  5
345
100
AcDbEntity
  8
0
100
AcDbLine
 62
7
  6
CONTINUOUS
 10
118.5586526279
 20
22.9830773263
 11
118.8459927052
 21
22.9830773263
  0
LINE
  5
346
100
AcDbEntity
  8
0
100
AcDbLine
 62
7
  6
CONTINUOUS
 10
118.6353306008
 20
23.1184938638
 11
118.9217285051
 21
23.1184938638
  0
LINE
  5
347
100
AcDbEntity
  8
0
100
AcDbLine
 62
7
  6
CONTINUOUS
 10
119.2119587001
 20
24.2018273263
 11
119.4914633949
 21
24.2018273263
  0
LINE
  5
348
100
AcDbEntity
  8
0
100
AcDbLine
 62
7
  6
CONTINUOUS
 10
120.0780455009
 20
26.1080773263
 11
120.3477951551
 21
26.1080773263
  0
LWPOLYLINE
  5
349
100
AcDbEntity
  8
RUNDUNGEN
100
AcDbPolyline
 62
7
  6
CONTINUOUS
 90
6
 70
0
 10
83.3141970527
 20
25.9782829784
 10
83.2022235713
 20
25.7455614854
 10
83.1187959484
 20
25.5037832372
 10
83.0641320031
 20
25.2546055548
 10
83.0389364859
 20
24.9996984063
 10
83.0372513682
 20
24.9165178809
  0
LINE
  5
34A
100
AcDbEntity
  8
RUNDUNGEN
100
AcDbLine
 62
7
  6
CONTINUOUS
 10
84.7262502508
 20
28.012480414
 11
84.5924339094
 21
27.7415472412
  0
LWPOLYLINE
  5
34B
100
AcDbEntity
  8
RUNDUNGEN
100
AcDbPolyline
 62
7
  6
CONTINUOUS
 90
6
 70
0
 10
84.5924339094
 20
27.7415472412
 10
84.4108852303
 20
27.4127730729
 10
84.226587337
 20
27.1204560271
 10
84.0431080088
 20
26.8675337409
 10
83.864752299
 20
26.6560004443
 10
83.6215500022
 20
26.4063287035
  0
LINE
  5
34C
100
AcDbEntity
  8
0
100
AcDbLine
 62
7
  6
CONTINUOUS
 10
121.1631777351
 20
29.3580773263
 11
121.4216213284
 21
29.3580773263
  0
LINE
  5
34D
100
AcDbEntity
  8
0
100
AcDbLine
 62
7
  6
CONTINUOUS
 10
121.3320239173
 20
30.0351607888
 11
121.5887925298
 21
30.0351607888
  0
LINE
  5
34E
100
AcDbEntity
  8
0
100
AcDbLine
 62
7
  6
CONTINUOUS
 10
121.4535760001
 20
30.5768273263
 11
121.7091521099
 21
30.5768273263
  0
LINE
  5
34F
100
AcDbEntity
  8
RUNDUNGEN
100
AcDbLine
 62
7
  6
CONTINUOUS
 10
84.4146366511
 20
44.7970115216
 11
84.5962046196
 21
44.4673186623
  0
LINE
  5
350
100
AcDbEntity
  8
RUNDUNGEN
100
AcDbLine
 62
7
  6
CONTINUOUS
 10
84.5962046196
 20
44.4673186623
 11
84.7261572611
 21
44.2038716804
  0
LINE
  5
351
100
AcDbEntity
  8
RUNDUNGEN
100
AcDbLine
 62
7
  6
CONTINUOUS
 10
83.2039969639
 20
46.4662947808
 11
83.3169798859
 21
46.2328699559
  0
LINE
  5
352
100
AcDbEntity
  8
BEZUGSACHSEN
100
AcDbLine
 62
7
  6
CONTINUOUS
 10
90.6372631173
 20
40.1080773263
 11
90.6372631173
 21
32.1080773263
  0
LINE
  5
353
100
AcDbEntity
  8
RUNDUNGEN
100
AcDbLine
 62
7
  6
CONTINUOUS
 10
83.4540509066
 20
26.1991490738
 11
83.3141970527
 21
25.9782829784
  0
LINE
  5
354
100
AcDbEntity
  8
RUNDUNGEN
100
AcDbLine
 62
7
  6
CONTINUOUS
 10
83.6215500022
 20
26.4063287035
 11
83.4540509066
 21
26.1991490738
  0
LINE
  5
355
100
AcDbEntity
  8
0
100
AcDbLine
 62
7
  6
CONTINUOUS
 10
121.5369626348
 20
30.9830773263
 11
121.7917270235
 21
30.9830773263
  0
LINE
  5
356
100
AcDbEntity
  8
0
100
AcDbLine
 62
7
  6
CONTINUOUS
 10
121.563289646
 20
31.1184938638
 11
121.817798821
 21
31.1184938638
  0
LINE
  5
357
100
AcDbEntity
  8
0
100
AcDbLine
 62
7
  6
CONTINUOUS
 10
121.5888862381
 20
31.2539107888
 11
121.8431477675
 21
31.2539107888
  0
LINE
  5
358
100
AcDbEntity
  8
RUNDUNGEN
100
AcDbLine
 62
7
  6
CONTINUOUS
 10
102.0375068431
 20
32.1080773263
 11
89.0370198869
 21
32.1080773263
  0
LINE
  5
359
100
AcDbEntity
  8
0
100
AcDbLine
 62
7
  6
CONTINUOUS
 10
121.7462258261
 20
32.1914111762
 11
121.9989755764
 21
32.1914111762
  0
LINE
  5
35A
100
AcDbEntity
  8
0
100
AcDbLine
 62
7
  6
CONTINUOUS
 10
121.7676046134
 20
32.3372438638
 11
122.0201503277
 21
32.3372438638
  0
LINE
  5
35B
100
AcDbEntity
  8
0
100
AcDbLine
 62
7
  6
CONTINUOUS
 10
121.871618348
 20
33.1497442512
 11
122.1231760303
 21
33.1497442512
  0
LINE
  5
35C
100
AcDbEntity
  8
0
100
AcDbLine
 62
7
  6
CONTINUOUS
 10
121.8864782866
 20
33.2851604013
 11
122.1378954413
 21
33.2851604013
  0
LINE
  5
35D
100
AcDbEntity
  8
0
100
AcDbLine
 62
7
  6
CONTINUOUS
 10
121.9140876415
 20
33.5559942512
 11
122.1652441144
 21
33.5559942512
  0
LINE
  5
35E
100
AcDbEntity
  8
RUNDUNGEN
100
AcDbLine
 62
7
  6
CONTINUOUS
 10
83.4580766792
 20
46.0114084633
 11
83.6271204252
 21
45.8037168273
  0
LINE
  5
35F
100
AcDbEntity
  8
RUNDUNGEN
100
AcDbLine
 62
7
  6
CONTINUOUS
 10
83.3169798859
 20
46.2328699559
 11
83.4580766792
 21
46.0114084633
  0
LINE
  5
360
100
AcDbEntity
  8
RUNDUNGEN
100
AcDbLine
 62
7
  6
CONTINUOUS
 10
83.734083647
 20
26.521861789
 11
83.7330876441
 21
26.5209058814
  0
LINE
  5
361
100
AcDbEntity
  8
0
100
AcDbLine
 62
7
  6
CONTINUOUS
 10
121.9502409959
 20
33.9622442512
 11
122.2010569287
 21
33.9622442512
  0
LINE
  5
362
100
AcDbEntity
  8
0
100
AcDbLine
 62
7
  6
CONTINUOUS
 10
121.9886647527
 20
34.5039104013
 11
122.2391197658
 21
34.5039104013
  0
LINE
  5
363
100
AcDbEntity
  8
0
100
AcDbLine
 62
7
  6
CONTINUOUS
 10
122.0159544322
 20
35.0455773263
 11
122.2661537368
 21
35.0455773263
  0
LINE
  5
364
100
AcDbEntity
  8
0
100
AcDbLine
 62
7
  6
CONTINUOUS
 10
122.0321443759
 20
35.5872442512
 11
122.2821922238
 21
35.5872442512
  0
LINE
  5
365
100
AcDbEntity
  8
0
100
AcDbLine
 62
7
  6
CONTINUOUS
 10
122.0370153939
 20
35.9934942512
 11
122.2870177091
 21
35.9934942512
  0
LINE
  5
366
100
AcDbEntity
  8
0
100
AcDbLine
 62
7
  6
CONTINUOUS
 10
122.0368024706
 20
36.2643273263
 11
122.2868067758
 21
36.2643273263
  0
LINE
  5
367
100
AcDbEntity
  8
0
100
AcDbLine
 62
7
  6
CONTINUOUS
 10
122.035657982
 20
36.3997442512
 11
122.2856729842
 21
36.3997442512
  0
LINE
  5
368
100
AcDbEntity
  8
RUNDUNGEN
100
AcDbLine
 62
7
  6
CONTINUOUS
 10
83.7340451196
 20
45.6942893864
 11
83.7329584552
 21
45.695332372
  0
LWPOLYLINE
  5
369
100
AcDbEntity
  8
RUNDUNGEN
100
AcDbPolyline
 62
7
  6
CONTINUOUS
 90
5
 70
0
 10
83.6271204252
 20
45.8037168273
 10
83.8682152366
 20
45.556361147
 10
84.0467183949
 20
45.3439946487
 10
84.2302895062
 20
45.0902135649
 10
84.4146366511
 20
44.7970115216
  0
LINE
  5
36A
100
AcDbEntity
  8
RUNDUNGEN
100
AcDbLine
 62
7
  6
CONTINUOUS
 10
107.4529781943
 20
45.809828377
 11
107.6204768436
 21
46.017007987
  0
LINE
  5
36B
100
AcDbEntity
  8
RUNDUNGEN
100
AcDbLine
 62
7
  6
CONTINUOUS
 10
107.3404429
 20
45.6942931288
 11
107.3414394536
 21
45.6952495653
  0
LINE
  5
36C
100
AcDbEntity
  8
0
100
AcDbLine
 62
7
  6
CONTINUOUS
 10
122.0142496415
 20
37.2122442512
 11
122.264464905
 21
37.2122442512
  0
LINE
  5
36D
100
AcDbEntity
  8
0
100
AcDbLine
 62
7
  6
CONTINUOUS
 10
122.0021060399
 20
37.4726611762
 11
122.2524350411
 21
37.4726611762
  0
LINE
  5
36E
100
AcDbEntity
  8
0
100
AcDbLine
 62
7
  6
CONTINUOUS
 10
121.9686121358
 20
38.0143273263
 11
122.2192553769
 21
38.0143273263
  0
LINE
  5
36F
100
AcDbEntity
  8
0
100
AcDbLine
 62
7
  6
CONTINUOUS
 10
121.9584969896
 20
38.1497434764
 11
122.2092352853
 21
38.1497434764
  0
LINE
  5
370
100
AcDbEntity
  8
0
100
AcDbLine
 62
7
  6
CONTINUOUS
 10
121.9468228211
 20
38.2955773263
 11
122.1976709115
 21
38.2955773263
  0
LINE
  5
371
100
AcDbEntity
  8
RUNDUNGEN
100
AcDbLine
 62
7
  6
CONTINUOUS
 10
107.3404832131
 20
26.5218632825
 11
107.3415700706
 21
26.5208201085
  0
LWPOLYLINE
  5
372
100
AcDbEntity
  8
RUNDUNGEN
100
AcDbPolyline
 62
7
  6
CONTINUOUS
 90
5
 70
0
 10
107.4474082354
 20
26.4124351414
 10
107.2062935628
 20
26.6598125988
 10
107.0277770054
 20
26.8721998809
 10
106.8442013496
 20
27.1259934359
 10
106.6598583123
 20
27.4191963111
  0
LINE
  5
373
100
AcDbEntity
  8
RUNDUNGEN
100
AcDbLine
 62
7
  6
CONTINUOUS
 10
107.6164513733
 20
26.2047435453
 11
107.4474082354
 21
26.4124351414
  0
LINE
  5
374
100
AcDbEntity
  8
BEZUGSACHSEN
100
AcDbLine
 62
7
  6
CONTINUOUS
 10
100.4372631173
 20
40.1080773263
 11
100.4372631173
 21
32.1080773263
  0
LWPOLYLINE
  5
375
100
AcDbEntity
  8
RUNDUNGEN
100
AcDbPolyline
 62
7
  6
CONTINUOUS
 90
6
 70
0
 10
106.4820844632
 20
44.4745921352
 10
106.663628951
 20
44.8033611459
 10
106.8479251895
 20
45.0956784875
 10
107.0314060375
 20
45.3486052832
 10
107.2097667341
 20
45.5601463238
 10
107.4529781943
 20
45.809828377
  0
LINE
  5
376
100
AcDbEntity
  8
RUNDUNGEN
100
AcDbLine
 62
7
  6
CONTINUOUS
 10
107.6204768436
 20
46.017007987
 11
107.7603301866
 21
46.2378737274
  0
LINE
  5
377
100
AcDbEntity
  8
RUNDUNGEN
100
AcDbLine
 62
7
  6
CONTINUOUS
 10
89.0372631173
 20
40.1080773263
 11
102.0372631132
 21
40.1080773263
  0
LINE
  5
378
100
AcDbEntity
  8
0
100
AcDbLine
 62
7
  6
CONTINUOUS
 10
121.4734076602
 20
41.5455773263
 11
121.728790254
 21
41.5455773263
  0
LINE
  5
379
100
AcDbEntity
  8
RUNDUNGEN
100
AcDbLine
 62
7
  6
CONTINUOUS
 10
107.7575475842
 20
25.9832823161
 11
107.6164513733
 21
26.2047435453
  0
LWPOLYLINE
  5
37A
100
AcDbEntity
  8
RUNDUNGEN
100
AcDbPolyline
 62
7
  6
CONTINUOUS
 90
3
 70
0
 10
106.6598583123
 20
27.4191963111
 10
106.4783022186
 20
27.7488736094
 10
106.3483729249
 20
28.0122745404
  0
LWPOLYLINE
  5
37B
100
AcDbEntity
  8
RUNDUNGEN
100
AcDbPolyline
 62
7
  6
CONTINUOUS
 90
6
 70
0
 10
107.7603301866
 20
46.2378737274
 10
107.8723031993
 20
46.4705946349
 10
107.9557304417
 20
46.7123721051
 10
108.0103941882
 20
46.9615490525
 10
108.0355896861
 20
47.2164557077
 10
108.0372748208
 20
47.2996378075
  0
LINE
  5
37C
100
AcDbEntity
  8
RUNDUNGEN
100
AcDbLine
 62
7
  6
CONTINUOUS
 10
106.3482798041
 20
44.2036825019
 11
106.4820844632
 21
44.4745921352
  0
LINE
  5
37D
100
AcDbEntity
  8
0
100
AcDbLine
 62
7
  6
CONTINUOUS
 10
121.3221785592
 20
42.2226611762
 11
121.5790442458
 21
42.2226611762
  0
LINE
  5
37E
100
AcDbEntity
  8
0
100
AcDbLine
 62
7
  6
CONTINUOUS
 10
121.1876887656
 20
42.7643273263
 11
121.4458878577
 21
42.7643273263
  0
LINE
  5
37F
100
AcDbEntity
  8
0
100
AcDbLine
 62
7
  6
CONTINUOUS
 10
121.0409883961
 20
43.3059934764
 11
121.3006577519
 21
43.3059934764
  0
LINE
  5
380
100
AcDbEntity
  8
0
100
AcDbLine
 62
7
  6
CONTINUOUS
 10
120.9629936562
 20
43.5768273263
 11
121.2234514962
 21
43.5768273263
  0
LINE
  5
381
100
AcDbEntity
  8
0
100
AcDbLine
 62
7
  6
CONTINUOUS
 10
120.9228231301
 20
43.7122434764
 11
121.1836889338
 21
43.7122434764
  0
LINE
  5
382
100
AcDbEntity
  8
RUNDUNGEN
100
AcDbLine
 62
7
  6
CONTINUOUS
 10
107.8705299962
 20
25.7498579412
 11
107.7575475842
 21
25.9832823161
  0
LINE
  5
383
100
AcDbEntity
  8
0
100
AcDbLine
 62
7
  6
CONTINUOUS
 10
119.9527725382
 20
46.4101596265
 11
120.2238910823
 21
46.4101596265
  0
LINE
  5
384
100
AcDbEntity
  8
0
100
AcDbLine
 62
7
  6
CONTINUOUS
 10
119.8367160188
 20
46.6809950261
 11
120.1091151296
 21
46.6809950261
  0
LINE
  5
385
100
AcDbEntity
  8
0
100
AcDbLine
 62
7
  6
CONTINUOUS
 10
119.3360411519
 20
47.7643273263
 11
119.6141054339
 21
47.7643273263
  0
LWPOLYLINE
  5
386
100
AcDbEntity
  8
RUNDUNGEN
100
AcDbPolyline
 62
7
  6
CONTINUOUS
 90
5
 70
0
 10
108.0372748282
 20
24.9165383744
 10
108.0355371456
 20
25.001020651
 10
108.0099947815
 20
25.257111756
 10
107.9547487602
 20
25.5072613084
 10
107.8705299962
 20
25.7498579412
  0
LINE
  5
387
100
AcDbEntity
  8
0
100
AcDbLine
 62
7
  6
CONTINUOUS
 10
108.0372631173
 20
24.35010131
 11
108.0372631173
 21
15.6080773263
  0
LINE
  5
388
100
AcDbEntity
  8
RUNDUNGEN
100
AcDbLine
 62
7
  6
CONTINUOUS
 10
108.0372631173
 20
14.2906507492
 11
108.0372631173
 21
26.3612404272
  0
LINE
  5
389
100
AcDbEntity
  8
RUNDUNGEN
100
AcDbLine
 62
7
  6
CONTINUOUS
 10
108.0372631173
 20
45.8549124937
 11
108.0372631173
 21
57.9255104306
  0
LINE
  5
38A
100
AcDbEntity
  8
0
100
AcDbLine
 62
7
  6
CONTINUOUS
 10
118.7741528149
 20
48.8476596265
 11
119.0588604869
 21
48.8476596265
  0
LINE
  5
38B
100
AcDbEntity
  8
0
100
AcDbLine
 62
7
  6
CONTINUOUS
 10
118.3899003357
 20
49.5247450261
 11
118.6793357953
 21
49.5247450261
  0
LINE
  5
38C
100
AcDbEntity
  8
0
100
AcDbLine
 62
7
  6
CONTINUOUS
 10
83.0372631173
 20
50.4680773263
 11
82.5372631173
 21
50.4680773263
  0
LINE
  5
38D
100
AcDbEntity
  8
0
100
AcDbLine
 62
7
  6
CONTINUOUS
 10
83.0372631173
 20
50.5531837066
 11
82.5372631173
 21
50.5531837066
  0
LINE
  5
38E
100
AcDbEntity
  8
0
100
AcDbLine
 62
7
  6
CONTINUOUS
 10
83.0372631173
 20
50.8085028474
 11
82.5372631173
 21
50.8085028474
  0
LINE
  5
38F
100
AcDbEntity
  8
0
100
AcDbLine
 62
7
  6
CONTINUOUS
 10
117.4473911621
 20
51.0143273263
 11
117.7491115532
 21
51.0143273263
  0
LINE
  5
390
100
AcDbEntity
  8
0
100
AcDbLine
 62
7
  6
CONTINUOUS
 10
83.0372631173
 20
51.0638219957
 11
82.5372631173
 21
51.0638219957
  0
LINE
  5
391
100
AcDbEntity
  8
0
100
AcDbLine
 62
7
  6
CONTINUOUS
 10
83.0372631173
 20
51.4893539195
 11
82.5372631173
 21
51.4893539195
  0
LINE
  5
392
100
AcDbEntity
  8
0
100
AcDbLine
 62
7
  6
CONTINUOUS
 10
83.0372631173
 20
51.744673038
 11
82.5372631173
 21
51.744673038
  0
LINE
  5
393
100
AcDbEntity
  8
0
100
AcDbLine
 62
7
  6
CONTINUOUS
 10
83.0372631173
 20
52.1702050214
 11
82.5372631173
 21
52.1702050214
  0
LINE
  5
394
100
AcDbEntity
  8
0
100
AcDbLine
 62
7
  6
CONTINUOUS
 10
83.0372631173
 20
52.4255241399
 11
82.5372631173
 21
52.4255241399
  0
LINE
  5
395
100
AcDbEntity
  8
0
100
AcDbLine
 62
7
  6
CONTINUOUS
 10
83.0372631173
 20
52.5106305127
 11
82.5372631173
 21
52.5106305127
  0
LINE
  5
396
100
AcDbEntity
  8
0
100
AcDbLine
 62
7
  6
CONTINUOUS
 10
83.0372631173
 20
52.5957368855
 11
82.5372631173
 21
52.5957368855
  0
LINE
  5
397
100
AcDbEntity
  8
0
100
AcDbLine
 62
7
  6
CONTINUOUS
 10
83.0372631173
 20
52.851056004
 11
82.5372631173
 21
52.851056004
  0
LINE
  5
398
100
AcDbEntity
  8
0
100
AcDbLine
 62
7
  6
CONTINUOUS
 10
83.0372631173
 20
53.1914814954
 11
82.5372631173
 21
53.1914814954
  0
LINE
  5
399
100
AcDbEntity
  8
0
100
AcDbLine
 62
7
  6
CONTINUOUS
 10
83.0372631173
 20
53.4468006139
 11
82.5372631173
 21
53.4468006139
  0
LINE
  5
39A
100
AcDbEntity
  8
0
100
AcDbLine
 62
7
  6
CONTINUOUS
 10
83.0372631173
 20
53.8723327164
 11
82.5372631173
 21
53.8723327164
  0
LINE
  5
39B
100
AcDbEntity
  8
0
100
AcDbLine
 62
7
  6
CONTINUOUS
 10
83.0372631173
 20
54.1276518349
 11
82.5372631173
 21
54.1276518349
  0
LINE
  5
39C
100
AcDbEntity
  8
0
100
AcDbLine
 62
7
  6
CONTINUOUS
 10
83.0372631173
 20
54.3829709534
 11
82.5372631173
 21
54.3829709534
  0
LINE
  5
39D
100
AcDbEntity
  8
0
100
AcDbLine
 62
7
  6
CONTINUOUS
 10
83.0372631173
 20
54.4680773263
 11
82.5372631173
 21
54.4680773263
  0
LINE
  5
39E
100
AcDbEntity
  8
RUNDUNGEN
100
AcDbLine
 62
7
  6
CONTINUOUS
 10
85.5372631173
 20
59.1080773263
 11
105.5372631173
 21
59.1080773263
  0
ARC
  5
39F
100
AcDbEntity
  8
RUNDUNGEN
100
AcDbCircle
 62
7
  6
CONTINUOUS
 10
78.0372631173
 20
159.8587180527
 40
5.0
100
AcDbArc
 50
270.0016448559
 51
360.0
  0
ARC
  5
3A0
100
AcDbEntity
  8
RUNDUNGEN
100
AcDbCircle
 62
7
  6
CONTINUOUS
 10
71.5372631173
 20
152.3587180527
 40
2.5
100
AcDbArc
 50
90.0
 51
180.0
  0
ARC
  5
3A1
100
AcDbEntity
  8
RUNDUNGEN
100
AcDbCircle
 62
7
  6
CONTINUOUS
 10
113.0372631173
 20
159.8587180527
 40
5.0
100
AcDbArc
 50
180.0
 51
269.9981547614
  0
ARC
  5
3A2
100
AcDbEntity
  8
RUNDUNGEN
100
AcDbCircle
 62
7
  6
CONTINUOUS
 10
119.5372631173
 20
152.3587180527
 40
2.5
100
AcDbArc
 50
0.0
 51
90.0
  0
ARC
  5
3A3
100
AcDbEntity
  8
RUNDUNGEN
100
AcDbCircle
 62
7
  6
CONTINUOUS
 10
95.5372631173
 20
182.8587180527
 40
12.5
100
AcDbArc
 50
0.0
 51
180.0
  0
ARC
  5
3A4
100
AcDbEntity
  8
RUNDUNGEN
100
AcDbCircle
 62
7
  6
CONTINUOUS
 10
190.6672023616
 20
188.539945949
 40
4.0
100
AcDbArc
 50
140.0
 51
179.9998253539
  0
ARC
  5
3A5
100
AcDbEntity
  8
RUNDUNGEN
100
AcDbCircle
 62
7
  6
CONTINUOUS
 10
183.1672023616
 20
177.3587180527
 40
3.5
100
AcDbArc
 50
330.0
 51
360.0
  0
ARC
  5
3A6
100
AcDbEntity
  8
RUNDUNGEN
100
AcDbCircle
 62
7
  6
CONTINUOUS
 10
186.167207101
 20
169.5548786843
 40
3.0
100
AcDbArc
 50
150.0001810322
 51
180.0001567782
  0
ARC
  5
3A7
100
AcDbEntity
  8
RUNDUNGEN
100
AcDbCircle
 62
7
  6
CONTINUOUS
 10
203.6672023616
 20
178.1287615621
 40
2.0
100
AcDbArc
 50
318.0
 51
359.999997951
  0
ARC
  5
3A8
100
AcDbEntity
  8
RUNDUNGEN
100
AcDbCircle
 62
7
  6
CONTINUOUS
 10
197.9092263453
 20
192.8587180527
 40
2.5
100
AcDbArc
 50
56.8465915844
 51
90.0
  0
ARC
  5
3A9
100
AcDbEntity
  8
RUNDUNGEN
100
AcDbCircle
 62
7
  6
CONTINUOUS
 10
192.3329343867
 20
192.8586738145
 40
2.5
100
AcDbArc
 50
90.0013321064
 51
140.0
  0
ARC
  5
3AA
100
AcDbEntity
  8
RUNDUNGEN
100
AcDbCircle
 62
7
  6
CONTINUOUS
 10
203.8672023616
 20
190.8837336973
 40
1.8
100
AcDbArc
 50
0.0
 51
73.8086483614
  0
ARC
  5
3AB
100
AcDbEntity
  8
RUNDUNGEN
100
AcDbCircle
 62
7
  6
CONTINUOUS
 10
209.6672023616
 20
166.8587180527
 40
10.0
100
AcDbArc
 50
138.0
 51
42.0
  0
ARC
  5
3AC
100
AcDbEntity
  8
RUNDUNGEN
100
AcDbCircle
 62
7
  6
CONTINUOUS
 10
215.6672023616
 20
178.1287615621
 40
2.0
100
AcDbArc
 50
180.0
 51
222.0
  0
ARC
  5
3AD
100
AcDbEntity
  8
RUNDUNGEN
100
AcDbCircle
 62
7
  6
CONTINUOUS
 10
236.1672023616
 20
177.3587180527
 40
3.5
100
AcDbArc
 50
180.0
 51
210.0
  0
ARC
  5
3AE
100
AcDbEntity
  8
RUNDUNGEN
100
AcDbCircle
 62
7
  6
CONTINUOUS
 10
233.1671975856
 20
169.5548787477
 40
3.0
100
AcDbArc
 50
359.9998420128
 51
29.9998175717
  0
ARC
  5
3AF
100
AcDbEntity
  8
0
100
AcDbCircle
 62
7
  6
CONTINUOUS
 10
226.9957902511
 20
175.7686270065
 40
2.5
100
AcDbArc
 50
174.2608295227
 51
357.6842941627
  0
ARC
  5
3B0
100
AcDbEntity
  8
0
100
AcDbCircle
 62
7
  6
CONTINUOUS
 10
226.9957902511
 20
171.5186270065
 40
2.5
100
AcDbArc
 50
174.2608295227
 51
357.6842941627
  0
ARC
  5
3B1
100
AcDbEntity
  8
0
100
AcDbCircle
 62
7
  6
CONTINUOUS
 10
226.9957902511
 20
175.7686270065
 40
1.75
100
AcDbArc
 50
282.5412744583
 51
8.2132107017
  0
ARC
  5
3B2
100
AcDbEntity
  8
0
100
AcDbCircle
 62
7
  6
CONTINUOUS
 10
226.9957902511
 20
175.7686270065
 40
1.75
100
AcDbArc
 50
171.7867892983
 51
257.6123707416
  0
ARC
  5
3B3
100
AcDbEntity
  8
0
100
AcDbCircle
 62
7
  6
CONTINUOUS
 10
226.9957902511
 20
171.5186270065
 40
1.75
100
AcDbArc
 50
180.8223838046
 51
8.2132107017
  0
ARC
  5
3B4
100
AcDbEntity
  8
RUNDUNGEN
100
AcDbCircle
 62
7
  6
CONTINUOUS
 10
228.6672023616
 20
188.539945949
 40
4.0
100
AcDbArc
 50
0.0002078953
 51
39.9962726921
  0
ARC
  5
3B5
100
AcDbEntity
  8
0
100
AcDbCircle
 62
7
  6
CONTINUOUS
 10
209.6672023616
 20
210.8587180527
 40
19.0
100
AcDbArc
 50
286.1913516386
 51
303.1534084156
  0
ARC
  5
3B6
100
AcDbEntity
  8
0
100
AcDbCircle
 62
7
  6
CONTINUOUS
 10
209.6672023616
 20
210.8587180527
 40
19.0
100
AcDbArc
 50
236.8465915844
 51
253.8086483614
  0
ARC
  5
3B7
100
AcDbEntity
  8
RUNDUNGEN
100
AcDbCircle
 62
7
  6
CONTINUOUS
 10
221.4251783779
 20
192.8587180527
 40
2.5
100
AcDbArc
 50
90.0
 51
123.1534084156
  0
ARC
  5
3B8
100
AcDbEntity
  8
RUNDUNGEN
100
AcDbCircle
 62
7
  6
CONTINUOUS
 10
227.0014705588
 20
192.8586735496
 40
2.5
100
AcDbArc
 50
40.0
 51
89.9986596165
  0
ARC
  5
3B9
100
AcDbEntity
  8
RUNDUNGEN
100
AcDbCircle
 62
7
  6
CONTINUOUS
 10
215.4672023616
 20
190.8837336973
 40
1.8
100
AcDbArc
 50
106.1913516386
 51
180.0
  0
ARC
  5
3BA
100
AcDbEntity
  8
0
100
AcDbCircle
 62
7
  6
CONTINUOUS
 10
67.5372631173
 20
36.1080773263
 40
19.0
100
AcDbArc
 50
326.8465915844
 51
337.4998012636
  0
ARC
  5
3BB
100
AcDbEntity
  8
0
100
AcDbCircle
 62
7
  6
CONTINUOUS
 10
67.5372631173
 20
36.1080773263
 40
19.0
100
AcDbArc
 50
22.5001987364
 51
33.1534084156
  0
ARC
  5
3BC
100
AcDbEntity
  8
RUNDUNGEN
100
AcDbCircle
 62
7
  6
CONTINUOUS
 10
67.5372631173
 20
36.1080773263
 40
19.0
100
AcDbArc
 50
22.5001987364
 51
33.1534084156
  0
ARC
  5
3BD
100
AcDbEntity
  8
RUNDUNGEN
100
AcDbCircle
 62
7
  6
CONTINUOUS
 10
67.5372631173
 20
36.1080773263
 40
19.0
100
AcDbArc
 50
326.8465915844
 51
337.4998012636
  0
ARC
  5
3BE
100
AcDbEntity
  8
RUNDUNGEN
100
AcDbCircle
 62
7
  6
CONTINUOUS
 10
85.5372631173
 20
24.35010131
 40
2.5
100
AcDbArc
 50
146.8465915844
 51
180.0
  0
ARC
  5
3BF
100
AcDbEntity
  8
RUNDUNGEN
100
AcDbCircle
 62
7
  6
CONTINUOUS
 10
85.5372631173
 20
15.6080773263
 40
2.5
100
AcDbArc
 50
180.0
 51
270.0
  0
ARC
  5
3C0
100
AcDbEntity
  8
RUNDUNGEN
100
AcDbCircle
 62
7
  6
CONTINUOUS
 10
85.5372199459
 20
14.2906606345
 40
2.4999856095
100
AcDbArc
 50
180.0001727517
 51
245.3749659526
  0
ARC
  5
3C1
100
AcDbEntity
  8
RUNDUNGEN
100
AcDbCircle
 62
7
  6
CONTINUOUS
 10
81.0372631173
 20
36.1080773263
 40
8.0
100
AcDbArc
 50
305.6853347127
 51
323.1299654866
  0
ARC
  5
3C2
100
AcDbEntity
  8
RUNDUNGEN
100
AcDbCircle
 62
7
  6
CONTINUOUS
 10
81.0372631173
 20
36.1080773263
 40
8.0
100
AcDbArc
 50
36.8700324566
 51
54.3146652873
  0
ARC
  5
3C3
100
AcDbEntity
  8
RUNDUNGEN
100
AcDbCircle
 62
7
  6
CONTINUOUS
 10
89.0372631173
 20
30.1080773263
 40
2.0
100
AcDbArc
 50
90.0069682051
 51
143.1300236191
  0
ARC
  5
3C4
100
AcDbEntity
  8
RUNDUNGEN
100
AcDbCircle
 62
7
  6
CONTINUOUS
 10
86.753929784
 20
28.148195278
 40
1.8
100
AcDbArc
 50
125.6853347127
 51
157.4998635246
  0
ARC
  5
3C5
100
AcDbEntity
  8
RUNDUNGEN
100
AcDbCircle
 62
7
  6
CONTINUOUS
 10
85.5372631173
 20
47.8660533426
 40
2.5
100
AcDbArc
 50
180.0
 51
213.1534084157
  0
ARC
  5
3C6
100
AcDbEntity
  8
RUNDUNGEN
100
AcDbCircle
 62
7
  6
CONTINUOUS
 10
85.5372631173
 20
56.6080773263
 40
2.5
100
AcDbArc
 50
90.0
 51
180.0
  0
ARC
  5
3C7
100
AcDbEntity
  8
RUNDUNGEN
100
AcDbCircle
 62
7
  6
CONTINUOUS
 10
85.5372631173
 20
57.9255024361
 40
2.5
100
AcDbArc
 50
114.6237019276
 51
179.9999487353
  0
ARC
  5
3C8
100
AcDbEntity
  8
RUNDUNGEN
100
AcDbCircle
 62
7
  6
CONTINUOUS
 10
89.0372631173
 20
42.1080773263
 40
2.0
100
AcDbArc
 50
216.8693584021
 51
269.9930176024
  0
ARC
  5
3C9
100
AcDbEntity
  8
RUNDUNGEN
100
AcDbCircle
 62
7
  6
CONTINUOUS
 10
86.753929784
 20
44.0679593745
 40
1.8
100
AcDbArc
 50
202.5001224707
 51
234.3146652873
  0
ARC
  5
3CA
100
AcDbEntity
  8
RUNDUNGEN
100
AcDbCircle
 62
7
  6
CONTINUOUS
 10
105.5372631173
 20
24.35010131
 40
2.5
100
AcDbArc
 50
0.0
 51
33.1534084157
  0
ARC
  5
3CB
100
AcDbEntity
  8
RUNDUNGEN
100
AcDbCircle
 62
7
  6
CONTINUOUS
 10
105.5372631173
 20
15.6080773263
 40
2.5
100
AcDbArc
 50
270.0
 51
360.0
  0
ARC
  5
3CC
100
AcDbEntity
  8
RUNDUNGEN
100
AcDbCircle
 62
7
  6
CONTINUOUS
 10
105.5372631173
 20
14.2906537561
 40
2.5
100
AcDbArc
 50
294.6237416071
 51
359.9999310867
  0
CIRCLE
  5
3CD
100
AcDbEntity
  8
FASEN
100
AcDbCircle
 62
7
  6
CONTINUOUS
 10
95.5372631173
 20
36.1080773263
 40
30.0
  0
CIRCLE
  5
3CE
100
AcDbEntity
  8
FASEN
100
AcDbCircle
 62
7
  6
CONTINUOUS
 10
95.5372631173
 20
36.1080773263
 40
29.5
  0
ARC
  5
3CF
100
AcDbEntity
  8
0
100
AcDbCircle
 62
7
  6
CONTINUOUS
 10
95.5372631173
 20
36.1080773263
 40
26.75
100
AcDbArc
 50
25.8328784155
 51
33.8653457931
  0
ARC
  5
3D0
100
AcDbEntity
  8
0
100
AcDbCircle
 62
7
  6
CONTINUOUS
 10
95.5372631173
 20
36.1080773263
 40
26.75
100
AcDbArc
 50
317.7089324571
 51
330.9487402983
  0
ARC
  5
3D1
100
AcDbEntity
  8
0
100
AcDbCircle
 62
7
  6
CONTINUOUS
 10
95.5372631173
 20
36.1080773263
 40
26.75
100
AcDbArc
 50
4.690640396
 51
23.2815206619
  0
ARC
  5
3D2
100
AcDbEntity
  8
0
100
AcDbCircle
 62
7
  6
CONTINUOUS
 10
95.5372631173
 20
36.1080773263
 40
26.75
100
AcDbArc
 50
333.5706816676
 51
351.5806321782
  0
ARC
  5
3D3
100
AcDbEntity
  8
0
100
AcDbCircle
 62
7
  6
CONTINUOUS
 10
95.5372631173
 20
36.1080773263
 40
26.75
100
AcDbArc
 50
351.896266877
 51
4.3772981717
  0
CIRCLE
  5
3D4
100
AcDbEntity
  8
RUNDUNGEN
100
AcDbCircle
 62
7
  6
CONTINUOUS
 10
95.5372631173
 20
36.1080773263
 40
26.5
  0
ARC
  5
3D5
100
AcDbEntity
  8
RUNDUNGEN
100
AcDbCircle
 62
7
  6
CONTINUOUS
 10
102.0372631173
 20
30.1080773263
 40
2.0
100
AcDbArc
 50
36.8692744805
 51
89.9930176024
  0
ARC
  5
3D6
100
AcDbEntity
  8
RUNDUNGEN
100
AcDbCircle
 62
7
  6
CONTINUOUS
 10
104.3205964507
 20
28.148195278
 40
1.8
100
AcDbArc
 50
22.5001232247
 51
54.3146652873
  0
ARC
  5
3D7
100
AcDbEntity
  8
RUNDUNGEN
100
AcDbCircle
 62
7
  6
CONTINUOUS
 10
123.5372631173
 20
36.1080773263
 40
19.0
100
AcDbArc
 50
202.5001987364
 51
213.1534084156
  0
ARC
  5
3D8
100
AcDbEntity
  8
RUNDUNGEN
100
AcDbCircle
 62
7
  6
CONTINUOUS
 10
123.5372631173
 20
36.1080773263
 40
19.0
100
AcDbArc
 50
146.8465915844
 51
157.4998012636
  0
ARC
  5
3D9
100
AcDbEntity
  8
RUNDUNGEN
100
AcDbCircle
 62
7
  6
CONTINUOUS
 10
110.0372631173
 20
36.1080773263
 40
8.0
100
AcDbArc
 50
216.870053437
 51
234.3146652873
  0
ARC
  5
3DA
100
AcDbEntity
  8
RUNDUNGEN
100
AcDbCircle
 62
7
  6
CONTINUOUS
 10
110.0372631173
 20
36.1080773263
 40
8.0
100
AcDbArc
 50
125.6853347127
 51
143.1299444396
  0
ARC
  5
3DB
100
AcDbEntity
  8
RUNDUNGEN
100
AcDbCircle
 62
7
  6
CONTINUOUS
 10
105.5372631173
 20
56.6080773263
 40
2.5
100
AcDbArc
 50
0.0
 51
90.0
  0
ARC
  5
3DC
100
AcDbEntity
  8
RUNDUNGEN
100
AcDbCircle
 62
7
  6
CONTINUOUS
 10
105.5372631173
 20
47.8660533426
 40
2.5
100
AcDbArc
 50
326.8465915844
 51
360.0
  0
ARC
  5
3DD
100
AcDbEntity
  8
RUNDUNGEN
100
AcDbCircle
 62
7
  6
CONTINUOUS
 10
105.5372909107
 20
57.9254961334
 40
2.4999907355
100
AcDbArc
 50
0.0001242696
 51
65.3749792201
  0
ARC
  5
3DE
100
AcDbEntity
  8
RUNDUNGEN
100
AcDbCircle
 62
7
  6
CONTINUOUS
 10
102.0372631173
 20
42.1080773263
 40
2.0
100
AcDbArc
 50
270.0069682051
 51
323.1300514331
  0
ARC
  5
3DF
100
AcDbEntity
  8
RUNDUNGEN
100
AcDbCircle
 62
7
  6
CONTINUOUS
 10
104.3205964507
 20
44.0679593745
 40
1.8
100
AcDbArc
 50
305.6853347127
 51
337.4998630115
  0
ELLIPSE
  5
3E0
100
AcDbEntity
  8
0
100
AcDbEllipse
 62
7
  6
CONTINUOUS
 10
95.5372631173
 20
133.122973589
 30
0.0
 11
26.75
 21
-0.0
 31
0.0
 40
0.8987235201
 41
-0.0654673159
 42
-0.000001512
  0
ELLIPSE
  5
3E1
100
AcDbEntity
  8
0
100
AcDbEllipse
 62
7
  6
CONTINUOUS
 10
95.5372631173
 20
140.6938244718
 30
0.0
 11
26.75
 21
-0.0
 31
0.0
 40
0.5106380606
 41
-0.0144086079
 42
-0.0000000737
  0
ELLIPSE
  5
3E2
100
AcDbEntity
  8
0
100
AcDbEllipse
 62
7
  6
CONTINUOUS
 10
95.5372631173
 20
136.9048177493
 30
0.0
 11
26.75
 21
-0.0
 31
0.0
 40
0.6808509827
 41
6.2473520748
 42
6.2625451931
  0
ELLIPSE
  5
3E3
100
AcDbEntity
  8
0
100
AcDbEllipse
 62
7
  6
CONTINUOUS
 10
95.5372631173
 20
136.6416968811
 30
0.0
 11
26.75
 21
-0.0
 31
0.0
 40
0.204255139
 41
6.2625451931
 42
6.2831851719
  0
ELLIPSE
  5
3E4
100
AcDbEntity
  8
0
100
AcDbEllipse
 62
7
  6
CONTINUOUS
 10
95.5372631173
 20
136.8033987606
 30
0.0
 11
26.75
 21
-0.0
 31
0.0
 40
0.204255139
 41
-0.0502547956
 42
-0.0249246797
  0
ELLIPSE
  5
3E5
100
AcDbEntity
  8
0
100
AcDbEllipse
 62
7
  6
CONTINUOUS
 10
95.5372631173
 20
137.4438244256
 30
0.0
 11
26.75
 21
-0.0
 31
0.0
 40
0.6808509827
 41
-0.0654673159
 42
-0.0502547956
  0
ELLIPSE
  5
3E6
100
AcDbEntity
  8
0
100
AcDbEllipse
 62
7
  6
CONTINUOUS
 10
95.5372631173
 20
138.9331808368
 30
0.0
 11
0.0
 21
40.9786403587
 31
0.0
 40
0.6527791007
 41
-1.6464135596
 42
-1.6362636427
  0
ELLIPSE
  5
3E7
100
AcDbEntity
  8
0
100
AcDbEllipse
 62
7
  6
CONTINUOUS
 10
95.5372631173
 20
124.1778669434
 30
0.0
 11
0.0
 21
50.0851067901
 31
0.0
 40
0.5340909047
 41
-1.4537065296
 42
-1.4371375905
  0
ELLIPSE
  5
3E8
100
AcDbEntity
  8
0
100
AcDbEllipse
 62
7
  6
CONTINUOUS
 10
95.5372631173
 20
133.0501990184
 30
0.0
 11
0.0
 21
54.6384997883
 31
0.0
 40
0.4895815241
 41
-1.5349630944
 42
-1.524830005
  0
ELLIPSE
  5
3E9
100
AcDbEntity
  8
0
100
AcDbEllipse
 62
7
  6
CONTINUOUS
 10
95.5372631173
 20
137.7204265289
 30
0.0
 11
0.0
 21
40.9788748412
 31
0.0
 40
0.6527753654
 41
4.6664226586
 42
4.676555748
  0
ELLIPSE
  5
3EA
100
AcDbEntity
  8
0
100
AcDbEllipse
 62
7
  6
CONTINUOUS
 10
95.5372631173
 20
156.4118657943
 30
0.0
 11
0.0
 21
81.9572807173
 31
0.0
 40
0.3263895503
 41
-1.8367716985
 42
-1.8315286082
  0
ELLIPSE
  5
3EB
100
AcDbEntity
  8
0
100
AcDbEllipse
 62
7
  6
CONTINUOUS
 10
95.5372631173
 20
144.4438232037
 30
0.0
 11
0.0
 21
36.4255275726
 31
0.0
 40
0.7343750875
 41
-1.8525466512
 42
-1.8367716985
  0
ELLIPSE
  5
3EC
100
AcDbEntity
  8
0
100
AcDbEllipse
 62
7
  6
CONTINUOUS
 10
95.5372631173
 20
140.0129699516
 30
0.0
 11
26.75
 21
0.0
 31
0.0
 40
0.7659569903
 41
-0.3028970435
 42
-0.2817503244
  0
ELLIPSE
  5
3ED
100
AcDbEntity
  8
0
100
AcDbEllipse
 62
7
  6
CONTINUOUS
 10
95.5372631173
 20
135.5310589832
 30
0.0
 11
26.75
 21
0.0
 31
0.0
 40
0.2042553727
 41
-0.3295297655
 42
-0.3028970435
  0
ELLIPSE
  5
3EE
100
AcDbEntity
  8
0
100
AcDbEllipse
 62
7
  6
CONTINUOUS
 10
95.5372631173
 20
135.5906324827
 30
0.0
 11
26.75
 21
-0.0
 31
0.0
 40
0.2042553727
 41
0.3028970435
 42
0.3295297655
  0
ELLIPSE
  5
3EF
100
AcDbEntity
  8
0
100
AcDbEllipse
 62
7
  6
CONTINUOUS
 10
95.5372631173
 20
131.1087215142
 30
0.0
 11
26.75
 21
-0.0
 31
0.0
 40
0.7659569903
 41
0.2817503244
 42
0.3028970435
  0
ELLIPSE
  5
3F0
100
AcDbEntity
  8
0
100
AcDbEllipse
 62
7
  6
CONTINUOUS
 10
95.5372631173
 20
126.6778682622
 30
0.0
 11
-0.0
 21
36.4255275726
 31
0.0
 40
0.7343750875
 41
-1.3048209551
 42
-1.2890460024
  0
ELLIPSE
  5
3F1
100
AcDbEntity
  8
0
100
AcDbEllipse
 62
7
  6
CONTINUOUS
 10
95.5372631173
 20
114.7098256716
 30
0.0
 11
0.0
 21
81.9572807173
 31
0.0
 40
0.3263895503
 41
-1.3100640454
 42
-1.3048209551
  0
ELLIPSE
  5
3F2
100
AcDbEntity
  8
0
100
AcDbEllipse
 62
7
  6
CONTINUOUS
 10
95.5372631173
 20
175.0821557736
 30
0.0
 11
0.0
 21
81.9575151992
 31
0.0
 40
0.3263886165
 41
-2.0836367128
 42
-2.0778364604
  0
ELLIPSE
  5
3F3
100
AcDbEntity
  8
0
100
AcDbEllipse
 62
7
  6
CONTINUOUS
 10
95.5372631173
 20
152.7416945549
 30
0.0
 11
0.0
 21
36.4255275726
 31
0.0
 40
0.7343750875
 41
-2.1011530838
 42
-2.0836367128
  0
ELLIPSE
  5
3F4
100
AcDbEntity
  8
0
100
AcDbEllipse
 62
7
  6
CONTINUOUS
 10
95.5372631173
 20
144.6805277742
 30
0.0
 11
26.75
 21
0.0
 31
0.0
 40
0.7659575381
 41
-0.5539967092
 42
-0.530356757
  0
ELLIPSE
  5
3F5
100
AcDbEntity
  8
0
100
AcDbEllipse
 62
7
  6
CONTINUOUS
 10
95.5372631173
 20
136.7757384368
 30
0.0
 11
26.75
 21
-0.0
 31
0.0
 40
0.2042552558
 41
-0.5840437217
 42
-0.5539967092
  0
ELLIPSE
  5
3F6
100
AcDbEntity
  8
0
100
AcDbEllipse
 62
7
  6
CONTINUOUS
 10
95.5372631173
 20
134.3459530291
 30
0.0
 11
26.75
 21
-0.0
 31
0.0
 40
0.2042552558
 41
0.5539967092
 42
0.5840437217
  0
ELLIPSE
  5
3F7
100
AcDbEntity
  8
0
100
AcDbEllipse
 62
7
  6
CONTINUOUS
 10
95.5372631173
 20
126.4411636917
 30
0.0
 11
26.75
 21
-0.0
 31
0.0
 40
0.7659575381
 41
0.530356757
 42
0.5539967092
  0
ELLIPSE
  5
3F8
100
AcDbEntity
  8
0
100
AcDbEllipse
 62
7
  6
CONTINUOUS
 10
95.5372631173
 20
118.3799969109
 30
0.0
 11
0.0
 21
36.4255275726
 31
0.0
 40
0.7343750875
 41
-1.0579559408
 42
-1.0404395698
  0
ELLIPSE
  5
3F9
100
AcDbEntity
  8
0
100
AcDbEllipse
 62
7
  6
CONTINUOUS
 10
95.5372631173
 20
96.0395356923
 30
0.0
 11
0.0
 21
81.9575151992
 31
0.0
 40
0.3263886165
 41
-1.0637561931
 42
-1.0579559408
  0
ELLIPSE
  5
3FA
100
AcDbEntity
  8
0
100
AcDbEllipse
 62
7
  6
CONTINUOUS
 10
95.5372631173
 20
127.6896876241
 30
0.0
 11
0.0
 21
69.8156030178
 31
0.0
 40
0.3831521729
 41
-1.3883211907
 42
-1.3417745852
  0
ELLIPSE
  5
3FB
100
AcDbEntity
  8
0
100
AcDbEllipse
 62
7
  6
CONTINUOUS
 10
95.5372631173
 20
146.6406332583
 30
0.0
 11
26.75
 21
0.0
 31
0.0
 40
0.5106383587
 41
-0.2290217416
 42
-0.2082782847
  0
ELLIPSE
  5
3FC
100
AcDbEntity
  8
0
100
AcDbEllipse
 62
7
  6
CONTINUOUS
 10
95.5372631173
 20
151.3480788323
 30
0.0
 11
0.0
 21
36.4255275726
 31
0.0
 40
0.7343750875
 41
-1.7790746115
 42
-1.7635769907
  0
ELLIPSE
  5
3FD
100
AcDbEntity
  8
0
100
AcDbEllipse
 62
7
  6
CONTINUOUS
 10
95.5372631173
 20
160.0714970224
 30
0.0
 11
0.0
 21
81.9575151992
 31
0.0
 40
0.3263886165
 41
-1.7635769907
 42
-1.7584217137
  0
ELLIPSE
  5
3FE
100
AcDbEntity
  8
0
100
AcDbEllipse
 62
7
  6
CONTINUOUS
 10
95.5372631173
 20
130.0501944434
 30
0.0
 11
0.0
 21
81.9575151992
 31
0.0
 40
0.3263886165
 41
-1.3831709399
 42
-1.3780156629
  0
ELLIPSE
  5
3FF
100
AcDbEntity
  8
0
100
AcDbEllipse
 62
7
  6
CONTINUOUS
 10
95.5372631173
 20
138.7736126336
 30
0.0
 11
0.0
 21
36.4255275726
 31
0.0
 40
0.7343750875
 41
-1.3780156629
 42
-1.3625180421
  0
ELLIPSE
  5
400
100
AcDbEntity
  8
0
100
AcDbEllipse
 62
7
  6
CONTINUOUS
 10
95.5372631173
 20
142.0688239966
 30
0.0
 11
26.75
 21
-0.0
 31
0.0
 40
0.7659575381
 41
0.2082782847
 42
0.2290217416
  0
ELLIPSE
  5
401
100
AcDbEntity
  8
0
100
AcDbEllipse
 62
7
  6
CONTINUOUS
 10
95.5372631173
 20
145.4799950758
 30
0.0
 11
26.75
 21
-0.0
 31
0.0
 40
0.2042552558
 41
0.2290217416
 42
0.2550940834
  0
ELLIPSE
  5
402
100
AcDbEntity
  8
0
100
AcDbEllipse
 62
7
  6
CONTINUOUS
 10
95.5372631173
 20
140.5757394052
 30
0.0
 11
26.75
 21
-0.0
 31
0.0
 40
0.2042553906
 41
-0.0397300775
 42
-0.0144086079
  0
ELLIPSE
  5
403
100
AcDbEntity
  8
0
100
AcDbEllipse
 62
7
  6
CONTINUOUS
 10
95.5372631173
 20
141.3799959379
 30
0.0
 11
0.0
 21
109.2763742898
 31
0.0
 40
0.2447921628
 41
-1.5649551721
 42
-1.5598926743
  0
ELLIPSE
  5
404
100
AcDbEntity
  8
0
100
AcDbEllipse
 62
7
  6
CONTINUOUS
 10
95.5372631173
 20
140.7789304089
 30
0.0
 11
26.75
 21
-0.0
 31
0.0
 40
0.255319362
 41
0.0600048593
 42
0.080304342
  0
ELLIPSE
  5
405
100
AcDbEntity
  8
0
100
AcDbEllipse
 62
7
  6
CONTINUOUS
 10
95.5372631173
 20
139.8658100712
 30
0.0
 11
26.75
 21
-0.0
 31
0.0
 40
0.6808512211
 41
0.080304342
 42
0.0955503019
  0
ELLIPSE
  5
406
100
AcDbEntity
  8
0
100
AcDbEllipse
 62
7
  6
CONTINUOUS
 10
95.5372631173
 20
137.6938327997
 30
0.0
 11
0.0
 21
40.9786403587
 31
0.0
 40
0.6527791007
 41
-1.4752460249
 42
-1.4650698623
  0
ELLIPSE
  5
407
100
AcDbEntity
  8
0
100
AcDbEllipse
 62
7
  6
CONTINUOUS
 10
95.5372631173
 20
130.4863339517
 30
0.0
 11
0.0
 21
109.2769995766
 31
0.0
 40
0.244790762
 41
-1.4650698623
 42
-1.4599777527
  0
ELLIPSE
  5
408
100
AcDbEntity
  8
0
100
AcDbEllipse
 62
7
  6
CONTINUOUS
 10
95.5372631173
 20
123.3162031537
 30
0.0
 11
0.0
 21
135.3188747046
 31
0.0
 40
0.1958337302
 41
-1.4331768092
 42
-1.4280160944
  0
ELLIPSE
  5
409
100
AcDbEntity
  8
0
100
AcDbEllipse
 62
7
  6
CONTINUOUS
 10
95.5372631173
 20
134.4544661356
 30
0.0
 11
0.0
 21
54.127636789
 31
0.0
 40
0.4895835394
 41
-1.443487311
 42
-1.4331768092
  0
ELLIPSE
  5
40A
100
AcDbEntity
  8
0
100
AcDbEllipse
 62
7
  6
CONTINUOUS
 10
95.5372631173
 20
146.858756853
 30
0.0
 11
0.0
 21
109.2769995766
 31
0.0
 40
0.244790762
 41
-1.6718247796
 42
-1.6667378382
  0
ELLIPSE
  5
40B
100
AcDbEntity
  8
0
100
AcDbEllipse
 62
7
  6
CONTINUOUS
 10
95.5372631173
 20
139.0076565222
 30
0.0
 11
0.0
 21
27.3191717331
 31
0.0
 40
0.9791658496
 41
-1.6667378382
 42
-1.6464135596
  0
ELLIPSE
  5
40C
100
AcDbEntity
  8
0
100
AcDbEllipse
 62
7
  6
CONTINUOUS
 10
95.5372631173
 20
137.9757375513
 30
0.0
 11
26.75
 21
-0.0
 31
0.0
 40
0.510637263
 41
-0.0756172328
 42
-0.0553241489
  0
ELLIPSE
  5
40D
100
AcDbEntity
  8
0
100
AcDbEllipse
 62
7
  6
CONTINUOUS
 10
95.5372631173
 20
137.8906300234
 30
0.0
 11
0.0
 21
27.0638547404
 31
0.0
 40
0.9791657639
 41
-1.4640686563
 42
-1.443487311
  0
ELLIPSE
  5
40E
100
AcDbEntity
  8
0
100
AcDbEllipse
 62
7
  6
CONTINUOUS
 10
95.5372631173
 20
137.4362256845
 30
0.0
 11
26.75
 21
-0.0
 31
0.0
 40
0.1458967187
 41
-0.0553241489
 42
-0.0198611188
  0
ELLIPSE
  5
40F
100
AcDbEntity
  8
0
100
AcDbEllipse
 62
7
  6
CONTINUOUS
 10
95.5372631173
 20
139.332122845
 30
0.0
 11
26.5
 21
-0.0
 31
0.0
 40
0.5106380606
 41
0.0861915854
 42
0.1067276705
  0
ELLIPSE
  5
410
100
AcDbEntity
  8
0
100
AcDbEllipse
 62
7
  6
CONTINUOUS
 10
95.5372631173
 20
140.0310583109
 30
0.0
 11
26.5
 21
-0.0
 31
0.0
 40
0.2042553906
 41
6.3437569401
 42
6.3693768926
  0
ELLIPSE
  5
411
100
AcDbEntity
  8
0
100
AcDbEllipse
 62
7
  6
CONTINUOUS
 10
95.5372631173
 20
134.1337937312
 30
0.0
 11
26.75
 21
0.0
 31
0.0
 40
0.9118538228
 41
6.1770672301
 42
6.3190185396
  0
ELLIPSE
  5
412
100
AcDbEntity
  8
0
100
AcDbEllipse
 62
7
  6
CONTINUOUS
 10
95.5372631173
 20
124.8041952821
 30
0.0
 11
0.0
 21
71.0425584342
 31
0.0
 40
0.3730158455
 41
-1.3500616373
 42
-1.3079532331
  0
ELLIPSE
  5
413
100
AcDbEntity
  8
0
100
AcDbEllipse
 62
7
  6
CONTINUOUS
 10
95.5372631173
 20
141.7789306148
 30
0.0
 11
0.0
 21
40.9787575996
 31
0.0
 40
0.6527772331
 41
-1.5750798193
 42
-1.5649551721
  0
ELLIPSE
  5
414
100
AcDbEntity
  8
0
100
AcDbEllipse
 62
7
  6
CONTINUOUS
 10
95.5372631173
 20
137.4934693344
 30
0.0
 11
26.75
 21
0.0
 31
0.0
 40
0.3404254913
 41
-0.3241844423
 42
-0.3082052024
  0
ELLIPSE
  5
415
100
AcDbEntity
  8
0
100
AcDbEllipse
 62
7
  6
CONTINUOUS
 10
95.5372631173
 20
143.0182990983
 30
0.0
 11
0.0
 21
27.3191717331
 31
0.0
 40
0.9791658496
 41
-1.8790015292
 42
-1.8683939722
  0
ELLIPSE
  5
416
100
AcDbEntity
  8
0
100
AcDbEllipse
 62
7
  6
CONTINUOUS
 10
95.5372631173
 20
159.0395203074
 30
0.0
 11
0.0
 21
81.9572807173
 31
0.0
 40
0.3263895503
 41
-1.8683939722
 42
-1.8631031736
  0
ELLIPSE
  5
417
100
AcDbEntity
  8
0
100
AcDbEllipse
 62
7
  6
CONTINUOUS
 10
95.5372631173
 20
112.2204690143
 30
0.0
 11
0.0
 21
81.9572807173
 31
0.0
 40
0.3263895503
 41
-1.27848948
 42
-1.2731986814
  0
ELLIPSE
  5
418
100
AcDbEntity
  8
0
100
AcDbEllipse
 62
7
  6
CONTINUOUS
 10
95.5372631173
 20
128.2416902234
 30
0.0
 11
-0.0
 21
27.3191717331
 31
0.0
 40
0.9791658496
 41
-1.2731986814
 42
-1.2625911244
  0
ELLIPSE
  5
419
100
AcDbEntity
  8
0
100
AcDbEllipse
 62
7
  6
CONTINUOUS
 10
95.5372631173
 20
133.7665199873
 30
0.0
 11
26.75
 21
-0.0
 31
0.0
 40
0.3404254913
 41
0.3082052024
 42
0.3241844423
  0
ELLIPSE
  5
41A
100
AcDbEntity
  8
0
100
AcDbEllipse
 62
7
  6
CONTINUOUS
 10
95.5372631173
 20
133.7665199873
 30
0.0
 11
26.5
 21
-0.0
 31
0.0
 40
0.3404254913
 41
0.3112099429
 42
0.3273563253
  0
ELLIPSE
  5
41B
100
AcDbEntity
  8
0
100
AcDbEllipse
 62
7
  6
CONTINUOUS
 10
95.5372631173
 20
128.2416902234
 30
0.0
 11
-0.0
 21
27.0638523711
 31
0.0
 40
0.9791658496
 41
-1.2703039398
 42
-1.2595863839
  0
ELLIPSE
  5
41C
100
AcDbEntity
  8
0
100
AcDbEllipse
 62
7
  6
CONTINUOUS
 10
95.5372631173
 20
112.2204690143
 30
0.0
 11
0.0
 21
81.1913248228
 31
0.0
 40
0.3263895503
 41
-1.2756493305
 42
-1.2703039398
  0
ELLIPSE
  5
41D
100
AcDbEntity
  8
0
100
AcDbEllipse
 62
7
  6
CONTINUOUS
 10
95.5372631173
 20
159.0395203074
 30
0.0
 11
0.0
 21
81.1913248228
 31
0.0
 40
0.3263895503
 41
-1.8712887137
 42
-1.8659433231
  0
ELLIPSE
  5
41E
100
AcDbEntity
  8
0
100
AcDbEllipse
 62
7
  6
CONTINUOUS
 10
95.5372631173
 20
143.0182990983
 30
0.0
 11
-0.0
 21
27.0638523711
 31
0.0
 40
0.9791658496
 41
-1.8820062697
 42
-1.8712887137
  0
ELLIPSE
  5
41F
100
AcDbEntity
  8
0
100
AcDbEllipse
 62
7
  6
CONTINUOUS
 10
95.5372631173
 20
137.4934693344
 30
0.0
 11
26.5
 21
-0.0
 31
0.0
 40
0.3404254913
 41
-0.3273563253
 42
-0.3112099429
  0
ELLIPSE
  5
420
100
AcDbEntity
  8
0
100
AcDbEllipse
 62
7
  6
CONTINUOUS
 10
95.5372631173
 20
131.6920520176
 30
0.0
 11
26.5
 21
-0.0
 31
0.0
 40
0.3404254913
 41
6.8490708518
 42
6.8673391288
  0
ELLIPSE
  5
421
100
AcDbEntity
  8
0
100
AcDbEllipse
 62
7
  6
CONTINUOUS
 10
95.5372631173
 20
122.0183011369
 30
0.0
 11
-0.0
 21
27.0638136559
 31
0.0
 40
0.9791672503
 41
-1.0169723937
 42
-1.0049107822
  0
ELLIPSE
  5
422
100
AcDbEntity
  8
0
100
AcDbEllipse
 62
7
  6
CONTINUOUS
 10
95.5372631173
 20
93.5501719129
 30
0.0
 11
0.0
 21
81.1915571132
 31
0.0
 40
0.3263886165
 41
-1.0229694701
 42
-1.0169723937
  0
ELLIPSE
  5
423
100
AcDbEntity
  8
0
100
AcDbEllipse
 62
7
  6
CONTINUOUS
 10
95.5372631173
 20
139.5679373041
 30
0.0
 11
26.75
 21
-0.0
 31
0.0
 40
0.3404254913
 41
-0.5779876452
 42
-0.5599604078
  0
ELLIPSE
  5
424
100
AcDbEntity
  8
0
100
AcDbEllipse
 62
7
  6
CONTINUOUS
 10
95.5372631173
 20
149.2416881848
 30
0.0
 11
0.0
 21
27.3191326527
 31
0.0
 40
0.9791672503
 41
-2.1307567346
 42
-2.1188512756
  0
ELLIPSE
  5
425
100
AcDbEntity
  8
0
100
AcDbEllipse
 62
7
  6
CONTINUOUS
 10
95.5372631173
 20
177.7098174088
 30
0.0
 11
0.0
 21
81.9575151992
 31
0.0
 40
0.3263886165
 41
-2.1188512756
 42
-2.1129309887
  0
ELLIPSE
  5
426
100
AcDbEntity
  8
0
100
AcDbEllipse
 62
7
  6
CONTINUOUS
 10
95.5372631173
 20
177.7098174088
 30
0.0
 11
0.0
 21
81.1915571132
 31
0.0
 40
0.3263886165
 41
-2.1246202599
 42
-2.1186231835
  0
ELLIPSE
  5
427
100
AcDbEntity
  8
0
100
AcDbEllipse
 62
7
  6
CONTINUOUS
 10
95.5372631173
 20
149.2416881848
 30
0.0
 11
0.0
 21
27.0638136559
 31
0.0
 40
0.9791672503
 41
-2.1366818714
 42
-2.1246202599
  0
ELLIPSE
  5
428
100
AcDbEntity
  8
0
100
AcDbEllipse
 62
7
  6
CONTINUOUS
 10
95.5372631173
 20
139.5679373041
 30
0.0
 11
26.5
 21
-0.0
 31
0.0
 40
0.3404254913
 41
-0.5841538216
 42
-0.5658855446
  0
ELLIPSE
  5
429
100
AcDbEntity
  8
0
100
AcDbEllipse
 62
7
  6
CONTINUOUS
 10
95.5372631173
 20
143.9154559483
 30
0.0
 11
26.5
 21
-0.0
 31
0.0
 40
0.3404254913
 41
0.236474531
 42
0.2522743083
  0
ELLIPSE
  5
42A
100
AcDbEntity
  8
0
100
AcDbEllipse
 62
7
  6
CONTINUOUS
 10
95.5372631173
 20
139.688509033
 30
0.0
 11
-0.0
 21
27.0638136559
 31
0.0
 40
0.9791672503
 41
-1.3448214052
 42
-1.3343217958
  0
ELLIPSE
  5
42B
100
AcDbEntity
  8
0
100
AcDbEllipse
 62
7
  6
CONTINUOUS
 10
95.5372631173
 20
127.560830664
 30
0.0
 11
0.0
 21
81.1915571132
 31
0.0
 40
0.3263886165
 41
-1.3500616373
 42
-1.3448214052
  0
ELLIPSE
  5
42C
100
AcDbEntity
  8
0
100
AcDbEllipse
 62
7
  6
CONTINUOUS
 10
95.5372631173
 20
162.6991586577
 30
0.0
 11
0.0
 21
81.1915571132
 31
0.0
 40
0.3263886165
 41
-1.7967712484
 42
-1.7915310163
  0
ELLIPSE
  5
42D
100
AcDbEntity
  8
0
100
AcDbEllipse
 62
7
  6
CONTINUOUS
 10
95.5372631173
 20
150.5714802887
 30
0.0
 11
-0.0
 21
27.0638136559
 31
0.0
 40
0.9791672503
 41
-1.8072708578
 42
-1.7967712484
  0
ELLIPSE
  5
42E
100
AcDbEntity
  8
0
100
AcDbEllipse
 62
7
  6
CONTINUOUS
 10
95.5372631173
 20
146.3445333734
 30
0.0
 11
26.5
 21
-0.0
 31
0.0
 40
0.3404254913
 41
-0.2522743083
 42
-0.236474531
  0
ELLIPSE
  5
42F
100
AcDbEntity
  8
0
100
AcDbEllipse
 62
7
  6
CONTINUOUS
 10
95.5372631173
 20
93.5501719129
 30
0.0
 11
0.0
 21
81.9575151992
 31
0.0
 40
0.3263886165
 41
-1.0286616649
 42
-1.022741378
  0
ELLIPSE
  5
430
100
AcDbEntity
  8
0
100
AcDbEllipse
 62
7
  6
CONTINUOUS
 10
95.5372631173
 20
122.0183011369
 30
0.0
 11
-0.0
 21
27.3191326527
 31
0.0
 40
0.9791672503
 41
-1.022741378
 42
-1.010835919
  0
ELLIPSE
  5
431
100
AcDbEntity
  8
0
100
AcDbEllipse
 62
7
  6
CONTINUOUS
 10
95.5372631173
 20
131.6920520176
 30
0.0
 11
26.75
 21
0.0
 31
0.0
 40
0.3404254913
 41
0.5599604078
 42
0.5779876452
  0
ELLIPSE
  5
432
100
AcDbEntity
  8
0
100
AcDbEllipse
 62
7
  6
CONTINUOUS
 10
95.5372631173
 20
124.8041952821
 30
0.0
 11
0.0
 21
71.7127712496
 31
0.0
 40
0.3730158455
 41
-1.3521582575
 42
-1.3104670411
  0
ELLIPSE
  5
433
100
AcDbEntity
  8
0
100
AcDbEllipse
 62
7
  6
CONTINUOUS
 10
95.5372631173
 20
134.1337937312
 30
0.0
 11
26.5
 21
0.0
 31
0.0
 40
0.9118538228
 41
6.1760622873
 42
6.2831851944
  0
ELLIPSE
  5
434
100
AcDbEntity
  8
0
100
AcDbEllipse
 62
7
  6
CONTINUOUS
 10
95.5372631173
 20
143.9154559483
 30
0.0
 11
26.75
 21
-0.0
 31
0.0
 40
0.3404254913
 41
0.2342229595
 42
0.2498660262
  0
ELLIPSE
  5
435
100
AcDbEntity
  8
0
100
AcDbEllipse
 62
7
  6
CONTINUOUS
 10
95.5372631173
 20
137.4362256845
 30
0.0
 11
26.5
 21
-0.0
 31
0.0
 40
0.1458967187
 41
-0.0558466155
 42
-0.0200485128
  0
ELLIPSE
  5
436
100
AcDbEntity
  8
0
100
AcDbEllipse
 62
7
  6
CONTINUOUS
 10
95.5372631173
 20
139.688509033
 30
0.0
 11
0.0
 21
27.3191326527
 31
0.0
 40
0.9791672503
 41
-1.3469694894
 42
-1.3365733673
  0
ELLIPSE
  5
437
100
AcDbEntity
  8
0
100
AcDbEllipse
 62
7
  6
CONTINUOUS
 10
95.5372631173
 20
127.560830664
 30
0.0
 11
0.0
 21
81.9575151992
 31
0.0
 40
0.3263886165
 41
-1.3521582575
 42
-1.3469694894
  0
ELLIPSE
  5
438
100
AcDbEntity
  8
0
100
AcDbEllipse
 62
7
  6
CONTINUOUS
 10
95.5372631173
 20
162.6991586577
 30
0.0
 11
0.0
 21
81.9575151992
 31
0.0
 40
0.3263886165
 41
-1.7946231641
 42
-1.789434396
  0
ELLIPSE
  5
439
100
AcDbEntity
  8
0
100
AcDbEllipse
 62
7
  6
CONTINUOUS
 10
95.5372631173
 20
150.5714802887
 30
0.0
 11
0.0
 21
27.3191326527
 31
0.0
 40
0.9791672503
 41
-1.8050192863
 42
-1.7946231641
  0
ELLIPSE
  5
43A
100
AcDbEntity
  8
0
100
AcDbEllipse
 62
7
  6
CONTINUOUS
 10
95.5372631173
 20
146.3445333734
 30
0.0
 11
26.75
 21
0.0
 31
0.0
 40
0.3404254913
 41
-0.2498660262
 42
-0.2342229595
  0
ELLIPSE
  5
43B
100
AcDbEntity
  8
0
100
AcDbEllipse
 62
7
  6
CONTINUOUS
 10
95.5372631173
 20
137.9757375513
 30
0.0
 11
26.5
 21
-0.0
 31
0.0
 40
0.510637263
 41
-0.0763319852
 42
-0.0558466155
  0
ELLIPSE
  5
43C
100
AcDbEntity
  8
0
100
AcDbEllipse
 62
7
  6
CONTINUOUS
 10
95.5372631173
 20
139.0076565222
 30
0.0
 11
-0.0
 21
27.0638523711
 31
0.0
 40
0.9791658496
 41
-1.667645774
 42
-1.647128312
  0
ELLIPSE
  5
43D
100
AcDbEntity
  8
0
100
AcDbEllipse
 62
7
  6
CONTINUOUS
 10
95.5372631173
 20
140.0310583109
 30
0.0
 11
26.75
 21
-0.0
 31
0.0
 40
0.2042553906
 41
0.0600048593
 42
0.085384084
  0
ELLIPSE
  5
43E
100
AcDbEntity
  8
0
100
AcDbEllipse
 62
7
  6
CONTINUOUS
 10
95.5372631173
 20
146.858756853
 30
0.0
 11
0.0
 21
108.2557192067
 31
0.0
 40
0.244790762
 41
-1.6727811807
 42
-1.667645774
  0
ELLIPSE
  5
43F
100
AcDbEntity
  8
0
100
AcDbEllipse
 62
7
  6
CONTINUOUS
 10
95.5372631173
 20
141.6814129757
 30
0.0
 11
26.75
 21
0.0
 31
0.0
 40
0.6808512211
 41
-0.0194716257
 42
-0.0042834925
  0
ELLIPSE
  5
440
100
AcDbEntity
  8
0
100
AcDbEllipse
 62
7
  6
CONTINUOUS
 10
95.5372631173
 20
141.4597817188
 30
0.0
 11
26.75
 21
0.0
 31
0.0
 40
0.2553189968
 41
-0.0397300775
 42
-0.0194716257
  0
ELLIPSE
  5
441
100
AcDbEntity
  8
0
100
AcDbEllipse
 62
7
  6
CONTINUOUS
 10
95.5372631173
 20
139.332122845
 30
0.0
 11
26.75
 21
0.0
 31
0.0
 40
0.5106380606
 41
0.085384084
 42
0.1057264645
  0
ELLIPSE
  5
442
100
AcDbEntity
  8
0
100
AcDbEllipse
 62
7
  6
CONTINUOUS
 10
95.5372631173
 20
137.8906300234
 30
0.0
 11
-0.0
 21
27.3191741247
 31
0.0
 40
0.9791657639
 41
-1.4650698623
 42
-1.4446834935
  0
ELLIPSE
  5
443
100
AcDbEntity
  8
0
100
AcDbEllipse
 62
7
  6
CONTINUOUS
 10
95.5372631173
 20
134.4544661356
 30
0.0
 11
0.0
 21
54.6382748719
 31
0.0
 40
0.4895835394
 41
-1.4446834935
 42
-1.4344710389
  0
ELLIPSE
  5
444
100
AcDbEntity
  8
0
100
AcDbEllipse
 62
7
  6
CONTINUOUS
 10
95.5372631173
 20
123.3162031537
 30
0.0
 11
0.0
 21
136.5954678622
 31
0.0
 40
0.1958337302
 41
-1.4344710389
 42
-1.4293595021
  0
ENDSEC
  0
SECTION
  2
OBJECTS
  0
DICTIONARY
  5
C
100
AcDbDictionary
280
0
281
1
  3
ACAD_GROUP
350
D
  3
ACAD_MLINESTYLE
350
17
  3
ACAD_LAYOUT
350
1A
  3
ACAD_PLOTSETTINGS
350
19
  3
ACAD_PLOTSTYLENAME
350
E
  0
DICTIONARY
  5
D
102
{ACAD_REACTORS
330
C
102
}
100
AcDbDictionary
280
0
281
1
  0
ACDBDICTIONARYWDFLT
  5
E
102
{ACAD_REACTORS
330
C
102
}
100
AcDbDictionary
281
1
  3
Normal
350
F
100
AcDbDictionaryWithDefault
340
F
  0
DICTIONARY
  5
17
102
{ACAD_REACTORS
330
C
102
}
100
AcDbDictionary
280
0
281
1
  3
Standard
350
18
  0
DICTIONARY
  5
19
102
{ACAD_REACTORS
330
C
102
}
100
AcDbDictionary
281
1
  0
DICTIONARY
  5
1A
102
{ACAD_REACTORS
330
C
102
}
100
AcDbDictionary
281
1
  3
Model
350
445
  3
Layout1
350
446
  0
ACDBPLACEHOLDER
  5
F
102
{ACAD_REACTORS
330
E
102
}
  0
MLINESTYLE
  5
18
102
{ACAD_REACTORS
330
17
102
}
100
AcDbMlineStyle
  2
STANDARD
 70
0
  3

 62
256
 51
90.0
 52
90.0
 71
2
 49
0.5
 62
256
  6
BYLAYER
 49
-0.5
 62
256
  6
BYLAYER
  0
LAYOUT
  5
445
102
{ACAD_REACTORS
330
1A
102
}
100
AcDbPlotSettings
  1

  2
none_device
  4
ISO_A4_(297.00_x_210.00_MM)
  6

 40
0.0
 41
0.0
 42
0.0
 43
0.0
 44
297.0
 45
210.0
 46
0.0
 47
0.0
 48
0.0
 49
0.0
140
0.0
141
0.0
142
1.0
143
1.0
 70
1024
 72
1
 73
0
 74
0
  7

 75
0
147
1.0
148
0.0
149
0.0
100
AcDbLayout
  1
Model
 70
0
 71
0
 10
0.0
 20
0.0
 11
297.0
 21
210.0
 12
0.0
 22
0.0
 32
0.0
 14
0.0
 24
0.0
 34
0.0
 15
0.0
 25
0.0
 35
0.0
146
0.0
 13
0.0
 23
0.0
 33
0.0
 16
1.0
 26
0.0
 36
0.0
 17
0.0
 27
1.0
 37
0.0
 76
0
330
20C
345
0
346
0
  0
LAYOUT
  5
446
102
{ACAD_REACTORS
330
1A
102
}
100
AcDbPlotSettings
  1

  2
none_device
  4
ISO_A4_(297.00_x_210.00_MM)
  6

 40
0.0
 41
0.0
 42
0.0
 43
0.0
 44
297.0
 45
210.0
 46
0.0
 47
0.0
 48
0.0
 49
0.0
140
0.0
141
0.0
142
1.0
143
1.0
 70
0
 72
1
 73
0
 74
0
  7

 75
0
147
1.0
148
0.0
149
0.0
100
AcDbLayout
  1
Layout1
 70
0
 71
1
 10
0.0
 20
0.0
 11
297.0
 21
210.0
 12
0.0
 22
0.0
 32
0.0
 14
0.0
 24
0.0
 34
0.0
 15
0.0
 25
0.0
 35
0.0
146
0.0
 13
0.0
 23
0.0
 33
0.0
 16
1.0
 26
0.0
 36
0.0
 17
0.0
 27
1.0
 37
0.0
 76
0
330
20D
345
0
346
0
  0
ENDSEC
  0
EOF
