999
DXF file: 001-m31452-p-40.dxf
999
Pro/ENGINEER 2011490 by Parametric Technology Corporation
  0
SECTION
  2
HEADER
  9
$ACADVER
  1
AC1015
  9
$DWGCODEPAGE
  3
ANSI_1252
  9
$EXTMAX
 10
297.0
 20
210.0
 30
0.0
  9
$EXTMIN
 10
0.0
 20
0.0
 30
0.0
  9
$LIMMIN
 10
0.0
 20
0.0
  9
$LIMMAX
 10
297.0
 20
210.0
  9
$VIEWCTR
 10
148.5
 20
105.0
  9
$VIEWSIZE
 40
210.0
  9
$CLAYER
  8
0
  9
$LTSCALE
 40
16.335
  9
$CELTYPE
  6
BYLAYER
  9
$DIMSCALE
 40
1.0
  9
$DIMASZ
 40
3.5
  9
$DIMEXO
 40
1.85625
  9
$DIMDLI
 40
11.286
  9
$DIMEXE
 40
5.346
  9
$DIMCEN
 40
2.673
  9
$DIMLFAC
 40
1.0
  9
$DIMBLK
  1
_FILLED
  9
$DIMTXT
 40
3.5
  9
$DIMTOL
 70
1
  9
$DIMLIM
 70
0
  9
$DIMTFAC
 40
1.0
  9
$DIMTP
 40
0.005
  9
$DIMTM
 40
0.005
  9
$PDMODE
 70
3
  9
$PDSIZE
 40
0.3125
  9
$HANDSEED
  5
421
  9
$TILEMODE
 70
1
  9
$MEASUREMENT
 70
1
  9
$INSUNITS
 70
4
  0
ENDSEC
  0
SECTION
  2
CLASSES
  0
CLASS
  1
ACDBDICTIONARYWDFLT
  2
AcDbDictionaryWithDefault
  3
AutoCAD 2000
 90
0
280
0
281
0
  0
CLASS
  1
ACDBPLACEHOLDER
  2
AcDbPlaceHolder
  3
AutoCAD 2000
 90
0
280
0
281
0
  0
CLASS
  1
LAYOUT
  2
AcDbLayout
  3
AutoCAD 2000
 90
0
280
0
281
0
  0
ENDSEC
  0
SECTION
  2
TABLES
  0
TABLE
  2
VPORT
  5
8
100
AcDbSymbolTable
 70
2
  0
VPORT
  5
1F4
100
AcDbSymbolTableRecord
100
AcDbViewportTableRecord
  2
*ACTIVE
 70
0
 10
0.0
 20
0.0
 11
1.0
 21
1.0
 12
148.5
 22
105.0
 13
0.0
 23
0.0
 14
1.0
 24
1.0
 15
0.0
 25
0.0
 16
0.0
 26
0.0
 36
1.0
 17
0.0
 27
0.0
 37
0.0
 40
210.0
 41
1.4142857143
 42
50.0
 43
0.0
 44
0.0
 50
0.0
 51
0.0
 71
0
 72
100
 73
1
 74
1
 75
0
 76
0
 77
0
 78
0
  0
ENDTAB
  0
TABLE
  2
LTYPE
  5
5
100
AcDbSymbolTable
 70
6
  0
LTYPE
  5
14
100
AcDbSymbolTableRecord
100
AcDbLinetypeTableRecord
  2
BYBLOCK
 70
0
  3

 72
65
 73
0
 40
0.0
  0
LTYPE
  5
15
100
AcDbSymbolTableRecord
100
AcDbLinetypeTableRecord
  2
BYLAYER
 70
0
  3

 72
65
 73
0
 40
0.0
  0
LTYPE
  5
16
100
AcDbSymbolTableRecord
100
AcDbLinetypeTableRecord
  2
CONTINUOUS
 70
64
  3
Solid line
 72
65
 73
0
 40
0.0
  0
LTYPE
  5
1F5
100
AcDbSymbolTableRecord
100
AcDbLinetypeTableRecord
  2
CENTER
 70
64
  3
____ _ ____ _ ____ _ ____ _ ____ _ ____ _ ____
 72
65
 73
4
 40
0.6
 49
0.375
 74
0
 49
-0.075
 74
0
 49
0.075
 74
0
 49
-0.075
 74
0
  0
LTYPE
  5
1F6
100
AcDbSymbolTableRecord
100
AcDbLinetypeTableRecord
  2
HIDDEN
 70
64
  3
- - - - - - - - - - - - - - - - - - - -
 72
65
 73
2
 40
0.2
 49
0.1
 74
0
 49
-0.1
 74
0
  0
LTYPE
  5
1F7
100
AcDbSymbolTableRecord
100
AcDbLinetypeTableRecord
  2
PHANTOM
 70
64
  3
_____ _ _ _____ _ _ _____ _ _ _____
 72
65
 73
6
 40
0.8
 49
0.45
 74
0
 49
-0.05
 74
0
 49
0.1
 74
0
 49
-0.05
 74
0
 49
0.1
 74
0
 49
-0.05
 74
0
  0
LTYPE
  5
1F8
100
AcDbSymbolTableRecord
100
AcDbLinetypeTableRecord
  2
DOT
 70
64
  3
. . . . . . . . . . . . . . . . . . . .
 72
65
 73
2
 40
0.2
 49
0.1
 74
0
 49
-0.1
 74
0
  0
LTYPE
  5
1F9
100
AcDbSymbolTableRecord
100
AcDbLinetypeTableRecord
  2
DASHED
 70
64
  3
- - - - - - - - - - - - - - - - - - - -
 72
65
 73
2
 40
0.2
 49
0.1
 74
0
 49
-0.1
 74
0
  0
ENDTAB
  0
TABLE
  2
LAYER
  5
2
100
AcDbSymbolTable
 70
36
  0
LAYER
  5
10
100
AcDbSymbolTableRecord
100
AcDbLayerTableRecord
  2
0
 70
0
 62
7
  6
CONTINUOUS
370
-3
390
F
  0
LAYER
  5
1FA
100
AcDbSymbolTableRecord
100
AcDbLayerTableRecord
  2
DEFAULT_1
 70
0
 62
7
  6
CENTER
370
-3
390
F
  0
LAYER
  5
1FB
100
AcDbSymbolTableRecord
100
AcDbLayerTableRecord
  2
DEFAULT_2
 70
0
 62
8
  6
HIDDEN
370
-3
390
F
  0
LAYER
  5
1FC
100
AcDbSymbolTableRecord
100
AcDbLayerTableRecord
  2
DEFAULT_3
 70
0
 62
7
  6
PHANTOM
370
-3
390
F
  0
LAYER
  5
1FD
100
AcDbSymbolTableRecord
100
AcDbLayerTableRecord
  2
AUSFORMSCHRAEGEN
 70
0
 62
7
  6
CONTINUOUS
370
-3
390
F
  0
LAYER
  5
1FE
100
AcDbSymbolTableRecord
100
AcDbLayerTableRecord
  2
BEZUGSACHSEN
 70
0
 62
7
  6
CONTINUOUS
370
-3
390
F
  0
LAYER
  5
1FF
100
AcDbSymbolTableRecord
100
AcDbLayerTableRecord
  2
BEZUGSEBENEN
 70
0
 62
7
  6
CONTINUOUS
370
-3
390
F
  0
LAYER
  5
200
100
AcDbSymbolTableRecord
100
AcDbLayerTableRecord
  2
BG_STARTBEZUEGE
 70
0
 62
7
  6
CONTINUOUS
370
-3
390
F
  0
LAYER
  5
201
100
AcDbSymbolTableRecord
100
AcDbLayerTableRecord
  2
FASEN
 70
0
 62
7
  6
CONTINUOUS
370
-3
390
F
  0
LAYER
  5
202
100
AcDbSymbolTableRecord
100
AcDbLayerTableRecord
  2
HILFEN
 70
0
 62
7
  6
CONTINUOUS
370
-3
390
F
  0
LAYER
  5
203
100
AcDbSymbolTableRecord
100
AcDbLayerTableRecord
  2
KONSTRUKTIONSELEMENTE
 70
0
 62
7
  6
CONTINUOUS
370
-3
390
F
  0
LAYER
  5
204
100
AcDbSymbolTableRecord
100
AcDbLayerTableRecord
  2
NORM
 70
0
 62
7
  6
CONTINUOUS
370
-3
390
F
  0
LAYER
  5
205
100
AcDbSymbolTableRecord
100
AcDbLayerTableRecord
  2
PLATZIERUNG
 70
0
 62
7
  6
CONTINUOUS
370
-3
390
F
  0
LAYER
  5
206
100
AcDbSymbolTableRecord
100
AcDbLayerTableRecord
  2
RUNDUNGEN
 70
0
 62
7
  6
CONTINUOUS
370
-3
390
F
  0
LAYER
  5
207
100
AcDbSymbolTableRecord
100
AcDbLayerTableRecord
  2
TEIL_STARTBEZUEGE
 70
0
 62
7
  6
CONTINUOUS
370
-3
390
F
  0
LAYER
  5
208
100
AcDbSymbolTableRecord
100
AcDbLayerTableRecord
  2
T_STARTBEZUEGE
 70
0
 62
7
  6
CONTINUOUS
370
-3
390
F
  0
LAYER
  5
209
100
AcDbSymbolTableRecord
100
AcDbLayerTableRecord
  2
ZEICHNUNGSBEMASSUNGEN
 70
0
 62
7
  6
CONTINUOUS
370
-3
390
F
  0
ENDTAB
  0
TABLE
  2
STYLE
  5
3
100
AcDbSymbolTable
 70
1
  0
STYLE
  5
11
100
AcDbSymbolTableRecord
100
AcDbTextStyleTableRecord
  2
STANDARD
 70
0
 40
0.0
 41
0.7
 50
0.0
 71
0
 42
0.2
  3
txt
  4

  0
STYLE
  5
20A
100
AcDbSymbolTableRecord
100
AcDbTextStyleTableRecord
  2
TEXTSTYLE_1
 70
0
 40
0.0
 41
0.8
 50
0.0
 71
0
 42
0.2
  3
gdt
  4

  0
ENDTAB
  0
TABLE
  2
VIEW
  5
6
100
AcDbSymbolTable
 70
0
  0
ENDTAB
  0
TABLE
  2
UCS
  5
7
100
AcDbSymbolTable
 70
0
  0
ENDTAB
  0
TABLE
  2
APPID
  5
9
100
AcDbSymbolTable
 70
1
  0
APPID
  5
20B
100
AcDbSymbolTableRecord
100
AcDbRegAppTableRecord
  2
ACAD
 70
0
  0
ENDTAB
  0
TABLE
  2
BLOCK_RECORD
  5
1
100
AcDbSymbolTable
 70
0
  0
BLOCK_RECORD
  5
20C
100
AcDbSymbolTableRecord
100
AcDbBlockTableRecord
  2
*Model_Space
  0
BLOCK_RECORD
  5
20D
100
AcDbSymbolTableRecord
100
AcDbBlockTableRecord
  2
*Paper_Space
  0
ENDTAB
  0
TABLE
  2
DIMSTYLE
  5
A
100
AcDbSymbolTable
 70
1
100
AcDbDimStyleTable
 71
0
  0
DIMSTYLE
105
20E
100
AcDbSymbolTableRecord
100
AcDbDimStyleTableRecord
  2
STANDARD
 70
0
  3

  4

 40
1.0
 41
3.5
 42
0.0625
 43
0.38
 44
0.18
 45
0.0
 46
0.0
 47
0.005
 48
0.005
140
3.5
141
0.09
142
0.0
143
25.4
144
1.0
145
0.0
146
1.0
147
0.09
 71
1.0
 72
0.0
 73
0
 74
0
 75
0
 76
0
 77
1
 78
8
170
0
171
2
172
0
173
0
174
0
175
0
176
0
177
0
178
5
270
2
271
3
272
3
273
2
274
2
275
0
280
0
281
0
282
0
283
1
284
8
285
0
286
0
287
3
288
0
340
11
  0
ENDTAB
  0
ENDSEC
  0
SECTION
  2
BLOCKS
  0
BLOCK
  5
20
100
AcDbEntity
  8
0
100
AcDbBlockBegin
  2
*Model_Space
 70
0
 10
0.0
 20
0.0
 30
0.0
  3
*Model_Space
  1

  0
ENDBLK
  5
21
100
AcDbEntity
  8
0
100
AcDbBlockEnd
  0
BLOCK
  5
1C
100
AcDbEntity
  8
0
100
AcDbBlockBegin
  2
*Paper_Space
 70
0
 10
0.0
 20
0.0
 30
0.0
  3
*Paper_Space
  1

  0
ENDBLK
  5
1D
100
AcDbEntity
  8
0
100
AcDbBlockEnd
  0
ENDSEC
  0
SECTION
  2
ENTITIES
  0
MTEXT
  5
20F
100
AcDbEntity
  8
0
100
AcDbMText
 62
5
  6
CONTINUOUS
  7
STANDARD
 71
2
 72
1
 10
104.0468891917
 20
56.1340207128
 30
0.0
 11
0.0
 21
1.0
 31
0.0
 44
0.9
  1
RUD WPP\PVIP-6 1,5t
 40
5.0
 41
34.880952381
  0
MTEXT
  5
210
100
AcDbEntity
  8
0
100
AcDbMText
 62
5
  6
CONTINUOUS
  7
STANDARD
 71
2
 72
1
 10
217.7618369958
 20
142.2105581589
 30
0.0
 11
1.0
 21
0.0
 31
0.0
 44
0.9
  1
RUD\PWPP 1,5t
 40
5.0
 41
30.7142857143
  0
LINE
  5
211
100
AcDbEntity
  8
0
100
AcDbLine
 62
7
  6
CONTINUOUS
 10
0.0
 20
0.0
 11
0.0
 21
210.0
  0
LINE
  5
212
100
AcDbEntity
  8
0
100
AcDbLine
 62
7
  6
CONTINUOUS
 10
0.0
 20
0.0
 11
297.0
 21
0.0
  0
LINE
  5
213
100
AcDbEntity
  8
0
100
AcDbLine
 62
7
  6
CONTINUOUS
 10
0.0
 20
210.0
 11
297.0
 21
210.0
  0
LINE
  5
214
100
AcDbEntity
  8
0
100
AcDbLine
 62
7
  6
CONTINUOUS
 10
297.0
 20
0.0
 11
297.0
 21
210.0
  0
LINE
  5
215
100
AcDbEntity
  8
FASEN
100
AcDbLine
 62
7
  6
CONTINUOUS
 10
87.6910033412
 20
117.3126154864
 11
87.1910033412
 21
117.8126154864
  0
LINE
  5
216
100
AcDbEntity
  8
FASEN
100
AcDbLine
 62
7
  6
CONTINUOUS
 10
132.6910033401
 20
117.3126154873
 11
87.6910033404
 21
117.3126154873
  0
LINE
  5
217
100
AcDbEntity
  8
FASEN
100
AcDbLine
 62
7
  6
CONTINUOUS
 10
133.1910033402
 20
117.8126154873
 11
87.1910033402
 21
117.8126154873
  0
LINE
  5
218
100
AcDbEntity
  8
FASEN
100
AcDbLine
 62
7
  6
CONTINUOUS
 10
87.1910033402
 20
125.8126154873
 11
87.1910033402
 21
117.8126154873
  0
LINE
  5
219
100
AcDbEntity
  8
BEZUGSACHSEN
100
AcDbLine
 62
7
  6
CONTINUOUS
 10
87.1910033402
 20
125.8126154873
 11
87.1910033402
 21
117.8126154873
  0
LINE
  5
21A
100
AcDbEntity
  8
FASEN
100
AcDbLine
 62
7
  6
CONTINUOUS
 10
87.1910033402
 20
125.8126154873
 11
133.1910033402
 21
125.8126154873
  0
LINE
  5
21B
100
AcDbEntity
  8
FASEN
100
AcDbLine
 62
7
  6
CONTINUOUS
 10
87.6910033404
 20
126.3126154873
 11
132.6910033401
 21
126.3126154873
  0
LINE
  5
21C
100
AcDbEntity
  8
0
100
AcDbLine
 62
7
  6
CONTINUOUS
 10
125.8773827823
 20
127.8126154873
 11
126.7269490344
 21
127.8126154873
  0
LINE
  5
21D
100
AcDbEntity
  8
0
100
AcDbLine
 62
7
  6
CONTINUOUS
 10
128.8838328478
 20
127.8126154873
 11
129.3836940062
 21
127.8126154873
  0
LINE
  5
21E
100
AcDbEntity
  8
0
100
AcDbLine
 62
7
  6
CONTINUOUS
 10
129.9410033402
 20
127.8126154873
 11
130.0010387421
 21
127.8126154873
  0
LINE
  5
21F
100
AcDbEntity
  8
0
100
AcDbLine
 62
7
  6
CONTINUOUS
 10
90.4410033402
 20
145.0126154873
 11
90.4410033402
 21
126.3126154873
  0
LINE
  5
220
100
AcDbEntity
  8
0
100
AcDbLine
 62
7
  6
CONTINUOUS
 10
129.9267576962
 20
129.9828281734
 11
130.1910031606
 21
129.9828281734
  0
LINE
  5
221
100
AcDbEntity
  8
0
100
AcDbLine
 62
7
  6
CONTINUOUS
 10
129.9041810394
 20
130.4934665892
 11
129.3836940062
 21
130.4934665892
  0
LINE
  5
222
100
AcDbEntity
  8
0
100
AcDbLine
 62
7
  6
CONTINUOUS
 10
128.0515744397
 20
130.4934665892
 11
126.7269490344
 21
130.4934665892
  0
LINE
  5
223
100
AcDbEntity
  8
0
100
AcDbLine
 62
7
  6
CONTINUOUS
 10
130.0010386428
 20
130.6211261485
 11
130.1910031606
 21
130.6211261485
  0
LINE
  5
224
100
AcDbEntity
  8
0
100
AcDbLine
 62
7
  6
CONTINUOUS
 10
129.9251742514
 20
131.2594239447
 11
129.3836940062
 21
131.2594239447
  0
LINE
  5
225
100
AcDbEntity
  8
0
100
AcDbLine
 62
7
  6
CONTINUOUS
 10
128.1140157233
 20
131.2594239447
 11
126.7269490344
 21
131.2594239447
  0
LINE
  5
226
100
AcDbEntity
  8
0
100
AcDbLine
 62
7
  6
CONTINUOUS
 10
128.0182997694
 20
131.387083504
 11
128.2948702745
 21
131.387083504
  0
LINE
  5
227
100
AcDbEntity
  8
0
100
AcDbLine
 62
7
  6
CONTINUOUS
 10
129.7306265805
 20
131.387083504
 11
129.9832840671
 21
131.387083504
  0
LINE
  5
228
100
AcDbEntity
  8
0
100
AcDbLine
 62
7
  6
CONTINUOUS
 10
128.1353617852
 20
131.6424026225
 11
128.4101553512
 21
131.6424026225
  0
LINE
  5
229
100
AcDbEntity
  8
0
100
AcDbLine
 62
7
  6
CONTINUOUS
 10
129.7657798396
 20
131.6424026225
 11
130.0179893694
 21
131.6424026225
  0
LINE
  5
22A
100
AcDbEntity
  8
0
100
AcDbLine
 62
7
  6
CONTINUOUS
 10
128.1923053227
 20
132.0253813002
 11
128.4662426837
 21
132.0253813002
  0
LINE
  5
22B
100
AcDbEntity
  8
0
100
AcDbLine
 62
7
  6
CONTINUOUS
 10
129.7821365691
 20
132.0253813002
 11
130.0341382032
 21
132.0253813002
  0
LINE
  5
22C
100
AcDbEntity
  8
0
100
AcDbLine
 62
7
  6
CONTINUOUS
 10
128.1923053227
 20
132.4083603356
 11
128.4662426837
 21
132.4083603356
  0
LINE
  5
22D
100
AcDbEntity
  8
0
100
AcDbLine
 62
7
  6
CONTINUOUS
 10
129.7821365691
 20
132.4083603356
 11
130.0341382032
 21
132.4083603356
  0
LINE
  5
22E
100
AcDbEntity
  8
0
100
AcDbLine
 62
7
  6
CONTINUOUS
 10
128.1353617852
 20
132.7913390133
 11
128.4101553512
 21
132.7913390133
  0
LINE
  5
22F
100
AcDbEntity
  8
0
100
AcDbLine
 62
7
  6
CONTINUOUS
 10
129.7657798396
 20
132.7913390133
 11
130.0179893694
 21
132.7913390133
  0
LINE
  5
230
100
AcDbEntity
  8
0
100
AcDbLine
 62
7
  6
CONTINUOUS
 10
128.0182997694
 20
133.0466581318
 11
128.2948702745
 21
133.0466581318
  0
LINE
  5
231
100
AcDbEntity
  8
0
100
AcDbLine
 62
7
  6
CONTINUOUS
 10
129.7306265805
 20
133.0466581318
 11
129.9832840671
 21
133.0466581318
  0
LINE
  5
232
100
AcDbEntity
  8
0
100
AcDbLine
 62
7
  6
CONTINUOUS
 10
129.9251742514
 20
133.1743176911
 11
129.3836940062
 21
133.1743176911
  0
LINE
  5
233
100
AcDbEntity
  8
0
100
AcDbLine
 62
7
  6
CONTINUOUS
 10
128.1140157233
 20
133.1743176911
 11
126.7269490344
 21
133.1743176911
  0
LINE
  5
234
100
AcDbEntity
  8
0
100
AcDbLine
 62
7
  6
CONTINUOUS
 10
125.8773827823
 20
133.8126154873
 11
128.0515744397
 21
133.8126154873
  0
LINE
  5
235
100
AcDbEntity
  8
0
100
AcDbLine
 62
7
  6
CONTINUOUS
 10
128.8838328478
 20
133.8126154873
 11
129.9041810394
 21
133.8126154873
  0
LINE
  5
236
100
AcDbEntity
  8
0
100
AcDbLine
 62
7
  6
CONTINUOUS
 10
129.9410033402
 20
133.8126154873
 11
130.0010387421
 21
133.8126154873
  0
LINE
  5
237
100
AcDbEntity
  8
0
100
AcDbLine
 62
7
  6
CONTINUOUS
 10
128.24820412
 20
134.8126154873
 11
128.8306787666
 21
134.8126154873
  0
LINE
  5
238
100
AcDbEntity
  8
0
100
AcDbLine
 62
7
  6
CONTINUOUS
 10
129.5054247402
 20
134.8126154873
 11
129.9251742317
 21
134.8126154873
  0
LINE
  5
239
100
AcDbEntity
  8
0
100
AcDbLine
 62
7
  6
CONTINUOUS
 10
129.9394209953
 20
134.8126154873
 11
130.1894407762
 21
134.8126154873
  0
LINE
  5
23A
100
AcDbEntity
  8
0
100
AcDbLine
 62
7
  6
CONTINUOUS
 10
129.9216109082
 20
134.9402750578
 11
130.1718535474
 21
134.9402750578
  0
LINE
  5
23B
100
AcDbEntity
  8
0
100
AcDbLine
 62
7
  6
CONTINUOUS
 10
129.8930812597
 20
135.1955942098
 11
130.1436817154
 21
135.1955942098
  0
LINE
  5
23C
100
AcDbEntity
  8
0
100
AcDbLine
 62
7
  6
CONTINUOUS
 10
130.1910033402
 20
135.5785729323
 11
130.1894407762
 21
135.5785729323
  0
LINE
  5
23D
100
AcDbEntity
  8
0
100
AcDbLine
 62
7
  6
CONTINUOUS
 10
129.8653724366
 20
135.7062324915
 11
130.1029187653
 21
135.7062324915
  0
LINE
  5
23E
100
AcDbEntity
  8
0
100
AcDbLine
 62
7
  6
CONTINUOUS
 10
129.8263509436
 20
136.2168708179
 11
130.0777923095
 21
136.2168708179
  0
LINE
  5
23F
100
AcDbEntity
  8
0
100
AcDbLine
 62
7
  6
CONTINUOUS
 10
129.8124201969
 20
136.8551686142
 11
130.0640378207
 21
136.8551686142
  0
LINE
  5
240
100
AcDbEntity
  8
0
100
AcDbLine
 62
7
  6
CONTINUOUS
 10
129.5232141395
 20
137.4934665892
 11
128.8306787666
 21
137.4934665892
  0
LINE
  5
241
100
AcDbEntity
  8
0
100
AcDbLine
 62
7
  6
CONTINUOUS
 10
129.5877652823
 20
138.2594239447
 11
128.8306787666
 21
138.2594239447
  0
LINE
  5
242
100
AcDbEntity
  8
0
100
AcDbLine
 62
7
  6
CONTINUOUS
 10
129.421512926
 20
138.387083504
 11
129.6781785826
 21
138.387083504
  0
LINE
  5
243
100
AcDbEntity
  8
0
100
AcDbLine
 62
7
  6
CONTINUOUS
 10
100.6910033402
 20
153.3326154873
 11
100.6910033402
 21
155.8326154277
  0
LINE
  5
244
100
AcDbEntity
  8
0
100
AcDbLine
 62
7
  6
CONTINUOUS
 10
100.6910033402
 20
156.3326154873
 11
100.6910033402
 21
159.5201154873
  0
LINE
  5
245
100
AcDbEntity
  8
0
100
AcDbLine
 62
7
  6
CONTINUOUS
 10
100.6910033402
 20
160.0423227488
 11
100.6910033402
 21
162.2419264545
  0
LINE
  5
246
100
AcDbEntity
  8
0
100
AcDbLine
 62
7
  6
CONTINUOUS
 10
100.6910033402
 20
163.0201157258
 11
100.6910033402
 21
165.2701157258
  0
LINE
  5
247
100
AcDbEntity
  8
RUNDUNGEN
100
AcDbLine
 62
7
  6
CONTINUOUS
 10
101.1910033402
 20
152.0126154873
 11
101.1910033402
 21
170.5126154873
  0
LINE
  5
248
100
AcDbEntity
  8
0
100
AcDbLine
 62
7
  6
CONTINUOUS
 10
129.4783048622
 20
138.6424026225
 11
129.7342246714
 21
138.6424026225
  0
LINE
  5
249
100
AcDbEntity
  8
0
100
AcDbLine
 62
7
  6
CONTINUOUS
 10
129.5054247402
 20
139.0253813002
 11
129.7609899017
 21
139.0253813002
  0
LINE
  5
24A
100
AcDbEntity
  8
0
100
AcDbLine
 62
7
  6
CONTINUOUS
 10
129.5054247402
 20
139.4083603356
 11
129.7609899017
 21
139.4083603356
  0
LINE
  5
24B
100
AcDbEntity
  8
0
100
AcDbLine
 62
7
  6
CONTINUOUS
 10
129.4783048622
 20
139.7913390133
 11
129.7342246714
 21
139.7913390133
  0
LINE
  5
24C
100
AcDbEntity
  8
0
100
AcDbLine
 62
7
  6
CONTINUOUS
 10
129.421512926
 20
140.0466581318
 11
129.6781785826
 21
140.0466581318
  0
LINE
  5
24D
100
AcDbEntity
  8
0
100
AcDbLine
 62
7
  6
CONTINUOUS
 10
129.5877652823
 20
140.1743176911
 11
128.8306787666
 21
140.1743176911
  0
LINE
  5
24E
100
AcDbEntity
  8
0
100
AcDbLine
 62
7
  6
CONTINUOUS
 10
128.24820412
 20
140.8126154873
 11
129.5559200713
 21
140.8126154873
  0
LINE
  5
24F
100
AcDbEntity
  8
0
100
AcDbLine
 62
7
  6
CONTINUOUS
 10
129.8124201969
 20
140.8126154873
 11
130.1346740333
 21
140.8126154873
  0
LINE
  5
250
100
AcDbEntity
  8
FASEN
100
AcDbLine
 62
7
  6
CONTINUOUS
 10
87.6910033412
 20
126.3126154883
 11
87.1910033412
 21
125.8126154883
  0
LINE
  5
251
100
AcDbEntity
  8
RUNDUNGEN
100
AcDbLine
 62
7
  6
CONTINUOUS
 10
127.9410033402
 20
147.0126154873
 11
124.1910005121
 21
147.0126154873
  0
LINE
  5
252
100
AcDbEntity
  8
RUNDUNGEN
100
AcDbLine
 62
7
  6
CONTINUOUS
 10
96.1910345103
 20
147.0126154873
 11
92.4410033402
 21
147.0126154873
  0
LINE
  5
253
100
AcDbEntity
  8
FASEN
100
AcDbLine
 62
7
  6
CONTINUOUS
 10
132.6910033397
 20
126.3126154879
 11
133.1910033397
 21
125.8126154879
  0
LINE
  5
254
100
AcDbEntity
  8
0
100
AcDbLine
 62
7
  6
CONTINUOUS
 10
101.1910033402
 20
153.3326154873
 11
100.6910033402
 21
153.3326154873
  0
LINE
  5
255
100
AcDbEntity
  8
0
100
AcDbLine
 62
7
  6
CONTINUOUS
 10
101.1910033402
 20
154.3326155172
 11
100.6910033402
 21
154.3326155172
  0
LINE
  5
256
100
AcDbEntity
  8
0
100
AcDbLine
 62
7
  6
CONTINUOUS
 10
101.1910033402
 20
154.8326154873
 11
100.6910033402
 21
154.8326154873
  0
LINE
  5
257
100
AcDbEntity
  8
0
100
AcDbLine
 62
7
  6
CONTINUOUS
 10
101.1910033402
 20
155.8326154277
 11
100.6910033402
 21
155.8326154277
  0
LINE
  5
258
100
AcDbEntity
  8
0
100
AcDbLine
 62
7
  6
CONTINUOUS
 10
101.1910039962
 20
156.3326154873
 11
100.6910033402
 21
156.3326154873
  0
LINE
  5
259
100
AcDbEntity
  8
RUNDUNGEN
100
AcDbLine
 62
7
  6
CONTINUOUS
 10
121.0429690416
 20
148.1280599156
 11
120.9734687421
 21
148.185410605
  0
LINE
  5
25A
100
AcDbEntity
  8
RUNDUNGEN
100
AcDbLine
 62
7
  6
CONTINUOUS
 10
119.1910033402
 20
152.0126154873
 11
119.1910033402
 21
170.5126154873
  0
LINE
  5
25B
100
AcDbEntity
  8
0
100
AcDbLine
 62
7
  6
CONTINUOUS
 10
101.1910033402
 20
156.6419264545
 11
100.6910033402
 21
156.6419264545
  0
LINE
  5
25C
100
AcDbEntity
  8
0
100
AcDbLine
 62
7
  6
CONTINUOUS
 10
101.1910033402
 20
158.8419264545
 11
100.6910033402
 21
158.8419264545
  0
LINE
  5
25D
100
AcDbEntity
  8
0
100
AcDbLine
 62
7
  6
CONTINUOUS
 10
101.1910033402
 20
159.0201156066
 11
100.6910033402
 21
159.0201156066
  0
LINE
  5
25E
100
AcDbEntity
  8
0
100
AcDbLine
 62
7
  6
CONTINUOUS
 10
101.1910033402
 20
159.2701153681
 11
100.6910033402
 21
159.2701153681
  0
LINE
  5
25F
100
AcDbEntity
  8
0
100
AcDbLine
 62
7
  6
CONTINUOUS
 10
101.1910033402
 20
159.4576157258
 11
100.6910033402
 21
159.4576157258
  0
LINE
  5
260
100
AcDbEntity
  8
0
100
AcDbLine
 62
7
  6
CONTINUOUS
 10
101.1910033402
 20
159.5201154873
 11
100.6910033402
 21
159.5201154873
  0
LINE
  5
261
100
AcDbEntity
  8
0
100
AcDbLine
 62
7
  6
CONTINUOUS
 10
101.1910033402
 20
160.0419264545
 11
100.6910033402
 21
160.0419264545
  0
LINE
  5
262
100
AcDbEntity
  8
0
100
AcDbLine
 62
7
  6
CONTINUOUS
 10
125.8773827823
 20
133.8126154873
 11
125.8773827823
 21
127.8126154873
  0
LINE
  5
263
100
AcDbEntity
  8
0
100
AcDbLine
 62
7
  6
CONTINUOUS
 10
101.1910033402
 20
162.2419264545
 11
100.6910033402
 21
162.2419264545
  0
LINE
  5
264
100
AcDbEntity
  8
0
100
AcDbLine
 62
7
  6
CONTINUOUS
 10
101.1910033402
 20
163.0201157258
 11
100.6910033402
 21
163.0201157258
  0
LINE
  5
265
100
AcDbEntity
  8
0
100
AcDbLine
 62
7
  6
CONTINUOUS
 10
101.1910033402
 20
163.0826154873
 11
100.6910033402
 21
163.0826154873
  0
LINE
  5
266
100
AcDbEntity
  8
0
100
AcDbLine
 62
7
  6
CONTINUOUS
 10
101.1910033402
 20
163.2076157258
 11
100.6910033402
 21
163.2076157258
  0
LINE
  5
267
100
AcDbEntity
  8
0
100
AcDbLine
 62
7
  6
CONTINUOUS
 10
101.1910033402
 20
163.3951157258
 11
100.6910033402
 21
163.3951157258
  0
LINE
  5
268
100
AcDbEntity
  8
0
100
AcDbLine
 62
7
  6
CONTINUOUS
 10
101.1910033402
 20
163.7076152489
 11
100.6910033402
 21
163.7076152489
  0
LINE
  5
269
100
AcDbEntity
  8
0
100
AcDbLine
 62
7
  6
CONTINUOUS
 10
101.1910033402
 20
164.0201154873
 11
100.6910033402
 21
164.0201154873
  0
LINE
  5
26A
100
AcDbEntity
  8
0
100
AcDbLine
 62
7
  6
CONTINUOUS
 10
126.1910033402
 20
133.8126154873
 11
126.1910033402
 21
127.8126154873
  0
LINE
  5
26B
100
AcDbEntity
  8
0
100
AcDbLine
 62
7
  6
CONTINUOUS
 10
126.7269490344
 20
133.1743176911
 11
126.7269490344
 21
131.2594239447
  0
LINE
  5
26C
100
AcDbEntity
  8
0
100
AcDbLine
 62
7
  6
CONTINUOUS
 10
126.7269490344
 20
130.4934665892
 11
126.7269490344
 21
127.8126154873
  0
LINE
  5
26D
100
AcDbEntity
  8
0
100
AcDbLine
 62
7
  6
CONTINUOUS
 10
128.1923053227
 20
132.4083603356
 11
128.1923053227
 21
132.0253813002
  0
LINE
  5
26E
100
AcDbEntity
  8
0
100
AcDbLine
 62
7
  6
CONTINUOUS
 10
128.24820412
 20
140.8126154873
 11
128.24820412
 21
134.8126154873
  0
LINE
  5
26F
100
AcDbEntity
  8
0
100
AcDbLine
 62
7
  6
CONTINUOUS
 10
128.4662426837
 20
132.4083603356
 11
128.4662426837
 21
132.0253813002
  0
LINE
  5
270
100
AcDbEntity
  8
0
100
AcDbLine
 62
7
  6
CONTINUOUS
 10
128.52130612
 20
140.8126154873
 11
128.52130612
 21
134.8126154873
  0
LINE
  5
271
100
AcDbEntity
  8
0
100
AcDbLine
 62
7
  6
CONTINUOUS
 10
101.1910033402
 20
164.3326157258
 11
100.6910033402
 21
164.3326157258
  0
LINE
  5
272
100
AcDbEntity
  8
0
100
AcDbLine
 62
7
  6
CONTINUOUS
 10
101.1910033402
 20
164.6451152489
 11
100.6910033402
 21
164.6451152489
  0
LINE
  5
273
100
AcDbEntity
  8
0
100
AcDbLine
 62
7
  6
CONTINUOUS
 10
101.1910033402
 20
164.9576154873
 11
100.6910033402
 21
164.9576154873
  0
LINE
  5
274
100
AcDbEntity
  8
0
100
AcDbLine
 62
7
  6
CONTINUOUS
 10
101.1910033402
 20
165.1451154873
 11
100.6910033402
 21
165.1451154873
  0
LINE
  5
275
100
AcDbEntity
  8
0
100
AcDbLine
 62
7
  6
CONTINUOUS
 10
101.1910033402
 20
165.2701157258
 11
100.6910033402
 21
165.2701157258
  0
LINE
  5
276
100
AcDbEntity
  8
0
100
AcDbLine
 62
7
  6
CONTINUOUS
 10
128.7815755004
 20
132.4083603356
 11
128.7815755004
 21
131.897721741
  0
LINE
  5
277
100
AcDbEntity
  8
0
100
AcDbLine
 62
7
  6
CONTINUOUS
 10
128.8306787666
 20
140.1743176911
 11
128.8306787666
 21
138.2594239447
  0
LINE
  5
278
100
AcDbEntity
  8
0
100
AcDbLine
 62
7
  6
CONTINUOUS
 10
128.8306787666
 20
137.4934665892
 11
128.8306787666
 21
134.8126154873
  0
LINE
  5
279
100
AcDbEntity
  8
0
100
AcDbLine
 62
7
  6
CONTINUOUS
 10
128.8838328478
 20
133.8126154873
 11
128.8838328478
 21
127.8126154873
  0
LINE
  5
27A
100
AcDbEntity
  8
0
100
AcDbLine
 62
7
  6
CONTINUOUS
 10
129.1477798331
 20
133.8126154873
 11
129.1477798331
 21
127.8126154873
  0
LINE
  5
27B
100
AcDbEntity
  8
0
100
AcDbLine
 62
7
  6
CONTINUOUS
 10
129.3836940062
 20
133.1743176911
 11
129.3836940062
 21
131.2594239447
  0
LINE
  5
27C
100
AcDbEntity
  8
0
100
AcDbLine
 62
7
  6
CONTINUOUS
 10
129.3836940062
 20
130.4934665892
 11
129.3836940062
 21
127.8126154873
  0
LINE
  5
27D
100
AcDbEntity
  8
0
100
AcDbLine
 62
7
  6
CONTINUOUS
 10
129.5054247402
 20
139.4083603356
 11
129.5054247402
 21
139.0253813002
  0
LINE
  5
27E
100
AcDbEntity
  8
0
100
AcDbLine
 62
7
  6
CONTINUOUS
 10
129.7609899017
 20
139.4083603356
 11
129.7609899017
 21
139.0253813002
  0
LINE
  5
27F
100
AcDbEntity
  8
0
100
AcDbLine
 62
7
  6
CONTINUOUS
 10
129.7821365691
 20
132.4083603356
 11
129.7821365691
 21
132.0253813002
  0
LINE
  5
280
100
AcDbEntity
  8
0
100
AcDbLine
 62
7
  6
CONTINUOUS
 10
129.8124201969
 20
140.8126154873
 11
129.8124201969
 21
140.3019772503
  0
LINE
  5
281
100
AcDbEntity
  8
0
100
AcDbLine
 62
7
  6
CONTINUOUS
 10
129.8124201969
 20
138.0041048262
 11
129.8124201969
 21
136.8551686142
  0
LINE
  5
282
100
AcDbEntity
  8
0
100
AcDbLine
 62
7
  6
CONTINUOUS
 10
129.904181019
 20
139.4083603356
 11
129.904181019
 21
138.897721741
  0
LINE
  5
283
100
AcDbEntity
  8
0
100
AcDbLine
 62
7
  6
CONTINUOUS
 10
129.9267576962
 20
130.5210566986
 11
129.9267576962
 21
129.9828281734
  0
LINE
  5
284
100
AcDbEntity
  8
0
100
AcDbLine
 62
7
  6
CONTINUOUS
 10
129.9410033402
 20
145.0126154873
 11
129.9410033402
 21
140.8126154873
  0
LINE
  5
285
100
AcDbEntity
  8
0
100
AcDbLine
 62
7
  6
CONTINUOUS
 10
129.9410033402
 20
134.8126154873
 11
129.9410033402
 21
133.7669453246
  0
LINE
  5
286
100
AcDbEntity
  8
0
100
AcDbLine
 62
7
  6
CONTINUOUS
 10
129.9410033402
 20
129.9828281734
 11
129.9410033402
 21
126.3126154873
  0
LINE
  5
287
100
AcDbEntity
  8
0
100
AcDbLine
 62
7
  6
CONTINUOUS
 10
130.0010387421
 20
127.8126154873
 11
130.0010387421
 21
129.9828281734
  0
LINE
  5
288
100
AcDbEntity
  8
0
100
AcDbLine
 62
7
  6
CONTINUOUS
 10
130.0341382032
 20
132.4083603356
 11
130.0341382032
 21
132.0253813002
  0
LINE
  5
289
100
AcDbEntity
  8
0
100
AcDbLine
 62
7
  6
CONTINUOUS
 10
130.0640378207
 20
140.8126154873
 11
130.0640378207
 21
136.8551686142
  0
LINE
  5
28A
100
AcDbEntity
  8
0
100
AcDbLine
 62
7
  6
CONTINUOUS
 10
130.1142937521
 20
132.4083603356
 11
130.1142937521
 21
131.897721741
  0
LINE
  5
28B
100
AcDbEntity
  8
0
100
AcDbLine
 62
7
  6
CONTINUOUS
 10
130.1346740333
 20
140.8126154873
 11
130.1346740333
 21
136.8551686142
  0
LINE
  5
28C
100
AcDbEntity
  8
0
100
AcDbLine
 62
7
  6
CONTINUOUS
 10
130.1769358929
 20
130.6211261485
 11
130.1769358929
 21
129.9828281734
  0
LINE
  5
28D
100
AcDbEntity
  8
0
100
AcDbLine
 62
7
  6
CONTINUOUS
 10
130.1910033402
 20
135.5785729323
 11
130.1910033402
 21
134.8126154873
  0
LINE
  5
28E
100
AcDbEntity
  8
0
100
AcDbLine
 62
7
  6
CONTINUOUS
 10
130.1910033402
 20
130.6211261485
 11
130.1910033402
 21
129.9828281734
  0
LINE
  5
28F
100
AcDbEntity
  8
FASEN
100
AcDbLine
 62
7
  6
CONTINUOUS
 10
133.1910033402
 20
125.8126154873
 11
133.1910033402
 21
117.8126154873
  0
LINE
  5
290
100
AcDbEntity
  8
BEZUGSACHSEN
100
AcDbLine
 62
7
  6
CONTINUOUS
 10
133.1910033402
 20
125.8126154873
 11
133.1910033402
 21
117.8126154873
  0
LINE
  5
291
100
AcDbEntity
  8
FASEN
100
AcDbLine
 62
7
  6
CONTINUOUS
 10
132.6910033397
 20
117.3126154868
 11
133.1910033397
 21
117.8126154868
  0
LINE
  5
292
100
AcDbEntity
  8
FASEN
100
AcDbLine
 62
7
  6
CONTINUOUS
 10
194.9655788295
 20
117.3126154873
 11
194.4655788295
 21
117.8126154873
  0
LINE
  5
293
100
AcDbEntity
  8
FASEN
100
AcDbLine
 62
7
  6
CONTINUOUS
 10
239.9651857241
 20
117.3126154873
 11
194.9659719349
 21
117.3126154873
  0
LINE
  5
294
100
AcDbEntity
  8
FASEN
100
AcDbLine
 62
7
  6
CONTINUOUS
 10
240.4655788295
 20
117.8126154873
 11
194.4655788295
 21
117.8126154873
  0
LINE
  5
295
100
AcDbEntity
  8
RUNDUNGEN
100
AcDbLine
 62
7
  6
CONTINUOUS
 10
203.796903695
 20
179.0126154876
 11
202.8004479577
 21
177.2867035231
  0
LINE
  5
296
100
AcDbEntity
  8
BEZUGSACHSEN
100
AcDbLine
 62
7
  6
CONTINUOUS
 10
194.4655788295
 20
125.8126154873
 11
194.4655788295
 21
117.8126154873
  0
LINE
  5
297
100
AcDbEntity
  8
RUNDUNGEN
100
AcDbLine
 62
7
  6
CONTINUOUS
 10
201.9966677427
 20
162.9276789968
 11
197.8495534257
 21
155.7446662949
  0
LINE
  5
298
100
AcDbEntity
  8
0
100
AcDbLine
 62
7
  6
CONTINUOUS
 10
204.9762170665
 20
165.0826157258
 11
204.720897948
 21
164.8951157258
  0
LINE
  5
299
100
AcDbEntity
  8
0
100
AcDbLine
 62
7
  6
CONTINUOUS
 10
204.9762170665
 20
164.7076157258
 11
205.1677064054
 21
164.8326152489
  0
LINE
  5
29A
100
AcDbEntity
  8
FASEN
100
AcDbLine
 62
7
  6
CONTINUOUS
 10
194.4655788295
 20
125.8126154873
 11
240.4655788295
 21
125.8126154873
  0
LINE
  5
29B
100
AcDbEntity
  8
FASEN
100
AcDbLine
 62
7
  6
CONTINUOUS
 10
194.9659719349
 20
126.3126154873
 11
239.9651857241
 21
126.3126154873
  0
LINE
  5
29C
100
AcDbEntity
  8
0
100
AcDbLine
 62
7
  6
CONTINUOUS
 10
197.7155788295
 20
155.2446662949
 11
197.7155788295
 21
126.3126154873
  0
LINE
  5
29D
100
AcDbEntity
  8
0
100
AcDbLine
 62
7
  6
CONTINUOUS
 10
204.720897948
 20
164.8951157258
 11
204.5294086091
 21
164.5826154873
  0
LINE
  5
29E
100
AcDbEntity
  8
0
100
AcDbLine
 62
7
  6
CONTINUOUS
 10
205.8060043804
 20
164.9576154873
 11
205.6145150415
 21
164.6451152489
  0
LINE
  5
29F
100
AcDbEntity
  8
0
100
AcDbLine
 62
7
  6
CONTINUOUS
 10
204.8485575072
 20
164.5201157258
 11
204.9762170665
 21
164.7076157258
  0
LINE
  5
2A0
100
AcDbEntity
  8
0
100
AcDbLine
 62
7
  6
CONTINUOUS
 10
205.9336639397
 20
164.5826154873
 11
206.0613234989
 21
164.7701154873
  0
LINE
  5
2A1
100
AcDbEntity
  8
0
100
AcDbLine
 62
7
  6
CONTINUOUS
 10
205.9974937193
 20
165.1451154873
 11
205.8060043804
 21
164.9576154873
  0
LINE
  5
2A2
100
AcDbEntity
  8
0
100
AcDbLine
 62
7
  6
CONTINUOUS
 10
206.0613234989
 20
164.7701154873
 11
206.1889830582
 21
164.8951157258
  0
LINE
  5
2A3
100
AcDbEntity
  8
0
100
AcDbLine
 62
7
  6
CONTINUOUS
 10
206.9549405478
 20
163.2076157258
 11
207.2102596886
 21
163.3951157258
  0
LINE
  5
2A4
100
AcDbEntity
  8
0
100
AcDbLine
 62
7
  6
CONTINUOUS
 10
206.9549405478
 20
163.5826157258
 11
206.7634511642
 21
163.4576154873
  0
LINE
  5
2A5
100
AcDbEntity
  8
0
100
AcDbLine
 62
7
  6
CONTINUOUS
 10
206.3166426174
 20
165.2701157258
 11
205.9974937193
 21
165.1451154873
  0
LINE
  5
2A6
100
AcDbEntity
  8
0
100
AcDbLine
 62
7
  6
CONTINUOUS
 10
205.1677064054
 20
165.1451154873
 11
204.9762170665
 21
165.0826157258
  0
LINE
  5
2A7
100
AcDbEntity
  8
0
100
AcDbLine
 62
7
  6
CONTINUOUS
 10
206.1889830582
 20
164.8951157258
 11
206.3804724864
 21
164.9576154873
  0
LINE
  5
2A8
100
AcDbEntity
  8
0
100
AcDbLine
 62
7
  6
CONTINUOUS
 10
204.5294086091
 20
164.5826154873
 11
204.4655788295
 21
164.2701152489
  0
LINE
  5
2A9
100
AcDbEntity
  8
0
100
AcDbLine
 62
7
  6
CONTINUOUS
 10
204.7847277276
 20
164.3326157258
 11
204.8485575072
 21
164.5201157258
  0
LINE
  5
2AA
100
AcDbEntity
  8
0
100
AcDbLine
 62
7
  6
CONTINUOUS
 10
205.86983416
 20
164.3951154873
 11
205.9336639397
 21
164.5826154873
  0
LINE
  5
2AB
100
AcDbEntity
  8
0
100
AcDbLine
 62
7
  6
CONTINUOUS
 10
204.7847277276
 20
158.7701154873
 11
204.8485575072
 21
158.9576154873
  0
LINE
  5
2AC
100
AcDbEntity
  8
0
100
AcDbLine
 62
7
  6
CONTINUOUS
 10
207.2102596886
 20
163.3951157258
 11
207.4017490443
 21
163.7076152489
  0
LINE
  5
2AD
100
AcDbEntity
  8
0
100
AcDbLine
 62
7
  6
CONTINUOUS
 10
207.082600107
 20
163.7701157258
 11
206.9549405478
 21
163.5826157258
  0
LINE
  5
2AE
100
AcDbEntity
  8
0
100
AcDbLine
 62
7
  6
CONTINUOUS
 10
204.720897948
 20
159.2701153681
 11
204.5294086091
 21
159.0201156066
  0
LINE
  5
2AF
100
AcDbEntity
  8
0
100
AcDbLine
 62
7
  6
CONTINUOUS
 10
204.8485575072
 20
158.9576154873
 11
204.9762170665
 21
159.0826153681
  0
LINE
  5
2B0
100
AcDbEntity
  8
0
100
AcDbLine
 62
7
  6
CONTINUOUS
 10
204.9762170665
 20
159.4576157258
 11
204.720897948
 21
159.2701153681
  0
LINE
  5
2B1
100
AcDbEntity
  8
0
100
AcDbLine
 62
7
  6
CONTINUOUS
 10
206.6357916049
 20
163.0826154873
 11
206.9549405478
 21
163.2076157258
  0
LINE
  5
2B2
100
AcDbEntity
  8
0
100
AcDbLine
 62
7
  6
CONTINUOUS
 10
206.7634511642
 20
163.4576154873
 11
206.5719618253
 21
163.3951157258
  0
LINE
  5
2B3
100
AcDbEntity
  8
RUNDUNGEN
100
AcDbLine
 62
7
  6
CONTINUOUS
 10
202.4655788295
 20
176.036820198
 11
202.4655788295
 21
164.6776789968
  0
LINE
  5
2B4
100
AcDbEntity
  8
0
100
AcDbLine
 62
7
  6
CONTINUOUS
 10
204.4655788295
 20
164.2701152489
 11
204.4655788295
 21
164.0201154873
  0
LINE
  5
2B5
100
AcDbEntity
  8
0
100
AcDbLine
 62
7
  6
CONTINUOUS
 10
204.4655788295
 20
158.7076153681
 11
204.4655788295
 21
157.2076153681
  0
LINE
  5
2B6
100
AcDbEntity
  8
0
100
AcDbLine
 62
7
  6
CONTINUOUS
 10
204.4655788295
 20
156.7076154873
 11
204.4655788295
 21
156.3326154873
  0
LINE
  5
2B7
100
AcDbEntity
  8
0
100
AcDbLine
 62
7
  6
CONTINUOUS
 10
204.4655788295
 20
155.8326154277
 11
204.4655788295
 21
155.4576154277
  0
LINE
  5
2B8
100
AcDbEntity
  8
0
100
AcDbLine
 62
7
  6
CONTINUOUS
 10
204.4655788295
 20
153.7076154873
 11
204.4655788295
 21
153.3326154873
  0
LINE
  5
2B9
100
AcDbEntity
  8
0
100
AcDbLine
 62
7
  6
CONTINUOUS
 10
204.7847277276
 20
157.5826153681
 11
204.7847277276
 21
158.7701154873
  0
LINE
  5
2BA
100
AcDbEntity
  8
0
100
AcDbLine
 62
7
  6
CONTINUOUS
 10
204.7847277276
 20
163.9576157258
 11
204.7847277276
 21
164.3326157258
  0
LINE
  5
2BB
100
AcDbEntity
  8
0
100
AcDbLine
 62
7
  6
CONTINUOUS
 10
205.6145150415
 20
164.6451152489
 11
205.5506852619
 21
164.3326157258
  0
LINE
  5
2BC
100
AcDbEntity
  8
0
100
AcDbLine
 62
7
  6
CONTINUOUS
 10
204.5294086091
 20
159.0201156066
 11
204.4655788295
 21
158.7076153681
  0
LINE
  5
2BD
100
AcDbEntity
  8
0
100
AcDbLine
 62
7
  6
CONTINUOUS
 10
207.4017490443
 20
163.7076152489
 11
207.4655788295
 21
164.0201154873
  0
LINE
  5
2BE
100
AcDbEntity
  8
0
100
AcDbLine
 62
7
  6
CONTINUOUS
 10
207.1464298867
 20
163.9576157258
 11
207.082600107
 21
163.7701157258
  0
LINE
  5
2BF
100
AcDbEntity
  8
RUNDUNGEN
100
AcDbLine
 62
7
  6
CONTINUOUS
 10
213.9518684804
 20
164.5660571991
 11
211.5205250112
 21
161.8657767143
  0
LINE
  5
2C0
100
AcDbEntity
  8
0
100
AcDbLine
 62
7
  6
CONTINUOUS
 10
205.1677064054
 20
159.5201154873
 11
204.9762170665
 21
159.4576157258
  0
LINE
  5
2C1
100
AcDbEntity
  8
0
100
AcDbLine
 62
7
  6
CONTINUOUS
 10
204.9762170665
 20
159.0826153681
 11
205.1677064054
 21
159.1451154873
  0
LINE
  5
2C2
100
AcDbEntity
  8
0
100
AcDbLine
 62
7
  6
CONTINUOUS
 10
205.1677064054
 20
164.8326152489
 11
205.1677064054
 21
165.1451154873
  0
LINE
  5
2C3
100
AcDbEntity
  8
0
100
AcDbLine
 62
7
  6
CONTINUOUS
 10
205.5506852619
 20
164.3326157258
 11
205.5506852619
 21
164.0201154873
  0
LINE
  5
2C4
100
AcDbEntity
  8
0
100
AcDbLine
 62
7
  6
CONTINUOUS
 10
205.7421746008
 20
158.7701154873
 11
205.7421746008
 21
157.5826153681
  0
LINE
  5
2C5
100
AcDbEntity
  8
0
100
AcDbLine
 62
7
  6
CONTINUOUS
 10
205.86983416
 20
163.9576157258
 11
205.86983416
 21
164.3951154873
  0
LINE
  5
2C6
100
AcDbEntity
  8
0
100
AcDbLine
 62
7
  6
CONTINUOUS
 10
206.1251532785
 20
157.5826153681
 11
206.1251532785
 21
158.7076153681
  0
LINE
  5
2C7
100
AcDbEntity
  8
0
100
AcDbLine
 62
7
  6
CONTINUOUS
 10
207.1464298867
 20
164.3951154873
 11
207.1464298867
 21
163.9576157258
  0
LINE
  5
2C8
100
AcDbEntity
  8
0
100
AcDbLine
 62
7
  6
CONTINUOUS
 10
207.4655788295
 20
154.3326155172
 11
207.4655788295
 21
154.8326154873
  0
LINE
  5
2C9
100
AcDbEntity
  8
0
100
AcDbLine
 62
7
  6
CONTINUOUS
 10
207.4655788295
 20
156.3326154873
 11
207.4655788295
 21
156.7076154873
  0
LINE
  5
2CA
100
AcDbEntity
  8
0
100
AcDbLine
 62
7
  6
CONTINUOUS
 10
207.4655788295
 20
157.2076153681
 11
207.4655788295
 21
157.5826153681
  0
LINE
  5
2CB
100
AcDbEntity
  8
0
100
AcDbLine
 62
7
  6
CONTINUOUS
 10
207.4655788295
 20
164.0201154873
 11
207.4655788295
 21
164.3326157258
  0
LINE
  5
2CC
100
AcDbEntity
  8
0
100
AcDbLine
 62
7
  6
CONTINUOUS
 10
207.082600107
 20
154.5826154575
 11
204.4655788295
 21
153.7076154873
  0
LINE
  5
2CD
100
AcDbEntity
  8
0
100
AcDbLine
 62
7
  6
CONTINUOUS
 10
204.4655788295
 20
153.3326154873
 11
207.4655788295
 21
154.3326155172
  0
LINE
  5
2CE
100
AcDbEntity
  8
0
100
AcDbLine
 62
7
  6
CONTINUOUS
 10
205.6783448212
 20
158.9576154873
 11
205.7421746008
 21
158.7701154873
  0
LINE
  5
2CF
100
AcDbEntity
  8
0
100
AcDbLine
 62
7
  6
CONTINUOUS
 10
204.4655788295
 20
164.0201154873
 11
204.5294086091
 21
163.7076152489
  0
LINE
  5
2D0
100
AcDbEntity
  8
0
100
AcDbLine
 62
7
  6
CONTINUOUS
 10
206.1251532785
 20
158.7076153681
 11
206.0613234989
 21
159.0201156066
  0
LINE
  5
2D1
100
AcDbEntity
  8
0
100
AcDbLine
 62
7
  6
CONTINUOUS
 10
205.5506852619
 20
164.0201154873
 11
205.6145150415
 21
163.7076152489
  0
LINE
  5
2D2
100
AcDbEntity
  8
0
100
AcDbLine
 62
7
  6
CONTINUOUS
 10
204.8485575072
 20
163.7701157258
 11
204.7847277276
 21
163.9576157258
  0
LINE
  5
2D3
100
AcDbEntity
  8
0
100
AcDbLine
 62
7
  6
CONTINUOUS
 10
205.9336639397
 20
163.7701157258
 11
205.86983416
 21
163.9576157258
  0
LINE
  5
2D4
100
AcDbEntity
  8
0
100
AcDbLine
 62
7
  6
CONTINUOUS
 10
207.4655788295
 20
164.3326157258
 11
207.4017490443
 21
164.6451152489
  0
LINE
  5
2D5
100
AcDbEntity
  8
RUNDUNGEN
100
AcDbLine
 62
7
  6
CONTINUOUS
 10
214.0350645831
 20
174.117443482
 11
214.0370105212
 21
166.3809942711
  0
LINE
  5
2D6
100
AcDbEntity
  8
RUNDUNGEN
100
AcDbLine
 62
7
  6
CONTINUOUS
 10
214.4655788295
 20
165.9043184118
 11
214.4655788295
 21
176.0883302017
  0
LINE
  5
2D7
100
AcDbEntity
  8
0
100
AcDbLine
 62
7
  6
CONTINUOUS
 10
206.0613234989
 20
159.0201156066
 11
205.86983416
 21
159.2701153681
  0
LINE
  5
2D8
100
AcDbEntity
  8
0
100
AcDbLine
 62
7
  6
CONTINUOUS
 10
204.5294086091
 20
163.7076152489
 11
204.720897948
 21
163.3951157258
  0
LINE
  5
2D9
100
AcDbEntity
  8
0
100
AcDbLine
 62
7
  6
CONTINUOUS
 10
207.082600107
 20
164.5826154873
 11
207.1464298867
 21
164.3951154873
  0
LINE
  5
2DA
100
AcDbEntity
  8
FASEN
100
AcDbLine
 62
7
  6
CONTINUOUS
 10
194.9655788295
 20
126.3126154873
 11
194.4655788295
 21
125.8126154873
  0
LINE
  5
2DB
100
AcDbEntity
  8
RUNDUNGEN
100
AcDbLine
 62
7
  6
CONTINUOUS
 10
228.3772028965
 20
147.0126154873
 11
206.5539549384
 21
147.0126154873
  0
LINE
  5
2DC
100
AcDbEntity
  8
0
100
AcDbLine
 62
7
  6
CONTINUOUS
 10
205.5506852619
 20
159.0826153681
 11
205.6783448212
 21
158.9576154873
  0
LINE
  5
2DD
100
AcDbEntity
  8
FASEN
100
AcDbLine
 62
7
  6
CONTINUOUS
 10
239.9655788295
 20
126.3126154873
 11
240.4655788295
 21
125.8126154873
  0
LINE
  5
2DE
100
AcDbEntity
  8
0
100
AcDbLine
 62
7
  6
CONTINUOUS
 10
204.9762170665
 20
163.5826157258
 11
204.8485575072
 21
163.7701157258
  0
LINE
  5
2DF
100
AcDbEntity
  8
0
100
AcDbLine
 62
7
  6
CONTINUOUS
 10
205.6145150415
 20
163.7076152489
 11
205.86983416
 21
163.3326152489
  0
LINE
  5
2E0
100
AcDbEntity
  8
0
100
AcDbLine
 62
7
  6
CONTINUOUS
 10
206.0613234989
 20
163.5826157258
 11
205.9336639397
 21
163.7701157258
  0
LINE
  5
2E1
100
AcDbEntity
  8
0
100
AcDbLine
 62
7
  6
CONTINUOUS
 10
207.4017490443
 20
164.6451152489
 11
207.2102596886
 21
164.9576154873
  0
LINE
  5
2E2
100
AcDbEntity
  8
0
100
AcDbLine
 62
7
  6
CONTINUOUS
 10
204.4655788295
 20
155.4576154277
 11
207.082600107
 21
154.5826154575
  0
LINE
  5
2E3
100
AcDbEntity
  8
0
100
AcDbLine
 62
7
  6
CONTINUOUS
 10
205.86983416
 20
159.2701153681
 11
205.6145150415
 21
159.4576157258
  0
LINE
  5
2E4
100
AcDbEntity
  8
0
100
AcDbLine
 62
7
  6
CONTINUOUS
 10
206.1889830582
 20
163.4576154873
 11
206.0613234989
 21
163.5826157258
  0
LINE
  5
2E5
100
AcDbEntity
  8
0
100
AcDbLine
 62
7
  6
CONTINUOUS
 10
206.9549405478
 20
164.7701154873
 11
207.082600107
 21
164.5826154873
  0
LINE
  5
2E6
100
AcDbEntity
  8
RUNDUNGEN
100
AcDbLine
 62
7
  6
CONTINUOUS
 10
220.4655788295
 20
165.9043184118
 11
220.4655788295
 21
176.0881723424
  0
LINE
  5
2E7
100
AcDbEntity
  8
0
100
AcDbLine
 62
7
  6
CONTINUOUS
 10
207.4655788295
 20
154.8326154873
 11
204.4655788295
 21
155.8326154277
  0
LINE
  5
2E8
100
AcDbEntity
  8
0
100
AcDbLine
 62
7
  6
CONTINUOUS
 10
204.720897948
 20
163.3951157258
 11
204.9762170665
 21
163.2076157258
  0
LINE
  5
2E9
100
AcDbEntity
  8
0
100
AcDbLine
 62
7
  6
CONTINUOUS
 10
204.4655788295
 20
156.3326154873
 11
207.4655788295
 21
156.3326154873
  0
LINE
  5
2EA
100
AcDbEntity
  8
0
100
AcDbLine
 62
7
  6
CONTINUOUS
 10
205.359195923
 20
159.1451154873
 11
205.5506852619
 21
159.0826153681
  0
LINE
  5
2EB
100
AcDbEntity
  8
0
100
AcDbLine
 62
7
  6
CONTINUOUS
 10
205.6145150415
 20
159.4576157258
 11
205.4230257027
 21
159.5201154873
  0
LINE
  5
2EC
100
AcDbEntity
  8
0
100
AcDbLine
 62
7
  6
CONTINUOUS
 10
205.1677064054
 20
163.4576154873
 11
204.9762170665
 21
163.5826157258
  0
LINE
  5
2ED
100
AcDbEntity
  8
0
100
AcDbLine
 62
7
  6
CONTINUOUS
 10
206.7634511642
 20
164.8951157258
 11
206.9549405478
 21
164.7701154873
  0
LINE
  5
2EE
100
AcDbEntity
  8
0
100
AcDbLine
 62
7
  6
CONTINUOUS
 10
207.2102596886
 20
164.9576154873
 11
206.9549405478
 21
165.1451154873
  0
LINE
  5
2EF
100
AcDbEntity
  8
0
100
AcDbLine
 62
7
  6
CONTINUOUS
 10
207.4655788295
 20
156.7076154873
 11
204.4655788295
 21
156.7076154873
  0
LINE
  5
2F0
100
AcDbEntity
  8
0
100
AcDbLine
 62
7
  6
CONTINUOUS
 10
204.4655788295
 20
157.2076153681
 11
207.4655788295
 21
157.2076153681
  0
LINE
  5
2F1
100
AcDbEntity
  8
0
100
AcDbLine
 62
7
  6
CONTINUOUS
 10
207.4655788295
 20
157.5826153681
 11
206.1251532785
 21
157.5826153681
  0
LINE
  5
2F2
100
AcDbEntity
  8
0
100
AcDbLine
 62
7
  6
CONTINUOUS
 10
205.7421746008
 20
157.5826153681
 11
204.7847277276
 21
157.5826153681
  0
LINE
  5
2F3
100
AcDbEntity
  8
0
100
AcDbLine
 62
7
  6
CONTINUOUS
 10
232.4360882204
 20
158.8419264545
 11
231.8317539922
 21
158.8419264545
  0
LINE
  5
2F4
100
AcDbEntity
  8
0
100
AcDbLine
 62
7
  6
CONTINUOUS
 10
229.0604727001
 20
158.8419264545
 11
228.4561384719
 21
158.8419264545
  0
LINE
  5
2F5
100
AcDbEntity
  8
0
100
AcDbLine
 62
7
  6
CONTINUOUS
 10
205.359195923
 20
163.3951157258
 11
205.1677064054
 21
163.4576154873
  0
LINE
  5
2F6
100
AcDbEntity
  8
0
100
AcDbLine
 62
7
  6
CONTINUOUS
 10
204.9762170665
 20
163.2076157258
 11
205.2953661434
 21
163.0826154873
  0
LINE
  5
2F7
100
AcDbEntity
  8
0
100
AcDbLine
 62
7
  6
CONTINUOUS
 10
230.141779118
 20
161.8419264545
 11
230.141779118
 21
160.6754050761
  0
LINE
  5
2F8
100
AcDbEntity
  8
0
100
AcDbLine
 62
7
  6
CONTINUOUS
 10
229.0472108951
 20
158.5991778415
 11
229.0604727001
 21
158.8419264545
  0
LINE
  5
2F9
100
AcDbEntity
  8
0
100
AcDbLine
 62
7
  6
CONTINUOUS
 10
205.1677064054
 20
159.1451154873
 11
205.359195923
 21
159.1451154873
  0
LINE
  5
2FA
100
AcDbEntity
  8
0
100
AcDbLine
 62
7
  6
CONTINUOUS
 10
205.4230257027
 20
159.5201154873
 11
205.1677064054
 21
159.5201154873
  0
LINE
  5
2FB
100
AcDbEntity
  8
0
100
AcDbLine
 62
7
  6
CONTINUOUS
 10
205.2953661434
 20
163.0826154873
 11
205.7421746008
 21
163.0201157258
  0
LINE
  5
2FC
100
AcDbEntity
  8
0
100
AcDbLine
 62
7
  6
CONTINUOUS
 10
205.7421746008
 20
163.3326152489
 11
205.359195923
 21
163.3951157258
  0
LINE
  5
2FD
100
AcDbEntity
  8
0
100
AcDbLine
 62
7
  6
CONTINUOUS
 10
206.3804724864
 20
163.3951157258
 11
206.1889830582
 21
163.4576154873
  0
LINE
  5
2FE
100
AcDbEntity
  8
0
100
AcDbLine
 62
7
  6
CONTINUOUS
 10
206.5719618253
 20
164.9576154873
 11
206.7634511642
 21
164.8951157258
  0
LINE
  5
2FF
100
AcDbEntity
  8
0
100
AcDbLine
 62
7
  6
CONTINUOUS
 10
206.9549405478
 20
165.1451154873
 11
206.6357916049
 21
165.2701157258
  0
LINE
  5
300
100
AcDbEntity
  8
0
100
AcDbLine
 62
7
  6
CONTINUOUS
 10
232.4428621243
 20
158.5350559554
 11
232.4360882204
 21
158.8419264545
  0
LINE
  5
301
100
AcDbEntity
  8
0
100
AcDbLine
 62
7
  6
CONTINUOUS
 10
232.4428621243
 20
161.9350559554
 11
232.4360882204
 21
162.2419264545
  0
LINE
  5
302
100
AcDbEntity
  8
0
100
AcDbLine
 62
7
  6
CONTINUOUS
 10
230.7461133462
 20
160.6744470214
 11
230.7461133462
 21
161.8419264545
  0
LINE
  5
303
100
AcDbEntity
  8
0
100
AcDbLine
 62
7
  6
CONTINUOUS
 10
230.7461133462
 20
161.8419264545
 11
230.141779118
 21
161.8419264545
  0
LINE
  5
304
100
AcDbEntity
  8
0
100
AcDbLine
 62
7
  6
CONTINUOUS
 10
232.4360882204
 20
162.2419264545
 11
231.8317539922
 21
162.2419264545
  0
LINE
  5
305
100
AcDbEntity
  8
0
100
AcDbLine
 62
7
  6
CONTINUOUS
 10
229.0604727001
 20
162.2419264545
 11
228.4561384719
 21
162.2419264545
  0
LINE
  5
306
100
AcDbEntity
  8
0
100
AcDbLine
 62
7
  6
CONTINUOUS
 10
205.7421746008
 20
163.0201157258
 11
206.1889830582
 21
163.0201157258
  0
LINE
  5
307
100
AcDbEntity
  8
0
100
AcDbLine
 62
7
  6
CONTINUOUS
 10
205.86983416
 20
163.3326152489
 11
205.7421746008
 21
163.3326152489
  0
LINE
  5
308
100
AcDbEntity
  8
0
100
AcDbLine
 62
7
  6
CONTINUOUS
 10
206.5719618253
 20
163.3951157258
 11
206.3804724864
 21
163.3951157258
  0
LINE
  5
309
100
AcDbEntity
  8
RUNDUNGEN
100
AcDbLine
 62
7
  6
CONTINUOUS
 10
223.410606986
 20
161.8658052146
 11
220.9792891785
 21
164.5660571991
  0
LINE
  5
30A
100
AcDbEntity
  8
RUNDUNGEN
100
AcDbLine
 62
7
  6
CONTINUOUS
 10
233.4455788295
 20
164.6776789968
 11
233.4455788295
 21
176.036820198
  0
LINE
  5
30B
100
AcDbEntity
  8
0
100
AcDbLine
 62
7
  6
CONTINUOUS
 10
206.1889830582
 20
163.0201157258
 11
206.6357916049
 21
163.0826154873
  0
LINE
  5
30C
100
AcDbEntity
  8
0
100
AcDbLine
 62
7
  6
CONTINUOUS
 10
206.3804724864
 20
164.9576154873
 11
206.5719618253
 21
164.9576154873
  0
LINE
  5
30D
100
AcDbEntity
  8
0
100
AcDbLine
 62
7
  6
CONTINUOUS
 10
206.6357916049
 20
165.2701157258
 11
206.3166426174
 21
165.2701157258
  0
LINE
  5
30E
100
AcDbEntity
  8
BEZUGSACHSEN
100
AcDbLine
 62
7
  6
CONTINUOUS
 10
214.4655788295
 20
166.3126154873
 11
220.4655788295
 21
166.3126154873
  0
LINE
  5
30F
100
AcDbEntity
  8
0
100
AcDbLine
 62
7
  6
CONTINUOUS
 10
237.2155788295
 20
156.9420760863
 11
237.2155788295
 21
126.3126154873
  0
LINE
  5
310
100
AcDbEntity
  8
BEZUGSACHSEN
100
AcDbLine
 62
7
  6
CONTINUOUS
 10
240.4655788295
 20
125.8126154873
 11
240.4655788295
 21
117.8126154873
  0
LINE
  5
311
100
AcDbEntity
  8
RUNDUNGEN
100
AcDbLine
 62
7
  6
CONTINUOUS
 10
237.0816042333
 20
157.4420760863
 11
233.9144899162
 21
162.9276789968
  0
LINE
  5
312
100
AcDbEntity
  8
BEZUGSACHSEN
100
AcDbLine
 62
7
  6
CONTINUOUS
 10
214.4655788295
 20
173.7126154873
 11
220.4655788295
 21
173.7126154873
  0
LINE
  5
313
100
AcDbEntity
  8
RUNDUNGEN
100
AcDbLine
 62
7
  6
CONTINUOUS
 10
233.1106423389
 20
177.286820198
 11
232.114253964
 21
179.0126154876
  0
LINE
  5
314
100
AcDbEntity
  8
0
100
AcDbLine
 62
7
  6
CONTINUOUS
 10
204.6629178166
 20
179.5126154873
 11
208.4101936913
 21
179.5126154873
  0
LINE
  5
315
100
AcDbEntity
  8
0
100
AcDbLine
 62
7
  6
CONTINUOUS
 10
226.5209639676
 20
179.5126154873
 11
231.2482398788
 21
179.5126154873
  0
LINE
  5
316
100
AcDbEntity
  8
FASEN
100
AcDbLine
 62
7
  6
CONTINUOUS
 10
239.9655788295
 20
117.3126154873
 11
240.4655788295
 21
117.8126154873
  0
LINE
  5
317
100
AcDbEntity
  8
RUNDUNGEN
100
AcDbLine
 62
7
  6
CONTINUOUS
 10
102.1910033402
 20
40.014464332
 11
118.1910033402
 21
40.014464332
  0
LINE
  5
318
100
AcDbEntity
  8
0
100
AcDbLine
 62
7
  6
CONTINUOUS
 10
101.1910033402
 20
41.0139298154
 11
100.6910033402
 21
41.0139298154
  0
LINE
  5
319
100
AcDbEntity
  8
0
100
AcDbLine
 62
7
  6
CONTINUOUS
 10
101.1910033402
 20
41.0239549411
 11
100.6910033402
 21
41.0239549411
  0
LINE
  5
31A
100
AcDbEntity
  8
0
100
AcDbLine
 62
7
  6
CONTINUOUS
 10
101.1910033402
 20
41.6282891693
 11
100.6910033402
 21
41.6282891693
  0
LINE
  5
31B
100
AcDbEntity
  8
0
100
AcDbLine
 62
7
  6
CONTINUOUS
 10
101.1910033402
 20
42.7139298154
 11
100.6910033402
 21
42.7139298154
  0
LINE
  5
31C
100
AcDbEntity
  8
0
100
AcDbLine
 62
7
  6
CONTINUOUS
 10
101.1910033402
 20
43.3182640435
 11
100.6910033402
 21
43.3182640435
  0
LINE
  5
31D
100
AcDbEntity
  8
0
100
AcDbLine
 62
7
  6
CONTINUOUS
 10
125.8773827823
 20
43.994464332
 11
126.1910033402
 21
43.994464332
  0
LINE
  5
31E
100
AcDbEntity
  8
0
100
AcDbLine
 62
7
  6
CONTINUOUS
 10
101.1910033402
 20
44.3995704614
 11
100.6910033402
 21
44.3995704614
  0
LINE
  5
31F
100
AcDbEntity
  8
0
100
AcDbLine
 62
7
  6
CONTINUOUS
 10
101.1910033402
 20
45.0039046896
 11
100.6910033402
 21
45.0039046896
  0
LINE
  5
320
100
AcDbEntity
  8
0
100
AcDbLine
 62
7
  6
CONTINUOUS
 10
101.1910033402
 20
45.0139298154
 11
100.6910033402
 21
45.0139298154
  0
LWPOLYLINE
  5
321
100
AcDbEntity
  8
RUNDUNGEN
100
AcDbPolyline
 62
7
  6
CONTINUOUS
 90
7
 70
0
 10
101.1910011938
 20
64.3628264319
 10
101.1928082443
 20
64.2875771697
 10
101.2016684742
 20
64.1778957972
 10
101.2165092419
 20
64.0755135862
 10
101.2361053821
 20
63.9793421523
 10
101.2594297601
 20
63.8887234227
 10
101.2686039434
 20
63.8572223463
  0
LINE
  5
322
100
AcDbEntity
  8
0
100
AcDbLine
 62
7
  6
CONTINUOUS
 10
100.6910033402
 20
41.0239549411
 11
100.6910033402
 21
41.6282891693
  0
LINE
  5
323
100
AcDbEntity
  8
0
100
AcDbLine
 62
7
  6
CONTINUOUS
 10
100.6910033402
 20
41.6511802943
 11
100.6910033402
 21
45.0039046896
  0
LINE
  5
324
100
AcDbEntity
  8
0
100
AcDbLine
 62
7
  6
CONTINUOUS
 10
100.6910033402
 20
65.994464332
 11
100.6910033402
 21
68.994464332
  0
LINE
  5
325
100
AcDbEntity
  8
RUNDUNGEN
100
AcDbLine
 62
7
  6
CONTINUOUS
 10
101.1910033402
 20
39.6830419538
 11
101.1910033402
 21
47.6251631138
  0
LINE
  5
326
100
AcDbEntity
  8
RUNDUNGEN
100
AcDbLine
 62
7
  6
CONTINUOUS
 10
101.1910055891
 20
64.362789245
 11
101.1910033402
 21
72.3058867102
  0
LINE
  5
327
100
AcDbEntity
  8
0
100
AcDbLine
 62
7
  6
CONTINUOUS
 10
127.771176832
 20
46.994464332
 11
128.0515744397
 21
46.994464332
  0
LINE
  5
328
100
AcDbEntity
  8
0
100
AcDbLine
 62
7
  6
CONTINUOUS
 10
128.0773634226
 20
47.6194644512
 11
128.3530345316
 21
47.6194644512
  0
LWPOLYLINE
  5
329
100
AcDbEntity
  8
RUNDUNGEN
100
AcDbPolyline
 62
7
  6
CONTINUOUS
 90
6
 70
0
 10
101.2571211752
 20
48.0919708463
 10
101.2338555985
 20
47.9997572162
 10
101.2146925909
 20
47.902882217
 10
101.2004742998
 20
47.80025803
 10
101.192317875
 20
47.6901885412
 10
101.1910032636
 20
47.6247236135
  0
LINE
  5
32A
100
AcDbEntity
  8
RUNDUNGEN
100
AcDbLine
 62
7
  6
CONTINUOUS
 10
101.2685434977
 20
48.1315073123
 11
101.2571211752
 21
48.0919708463
  0
LINE
  5
32B
100
AcDbEntity
  8
RUNDUNGEN
100
AcDbLine
 62
7
  6
CONTINUOUS
 10
101.2685365103
 20
48.1315093808
 11
101.2686241943
 21
48.1318018263
  0
LINE
  5
32C
100
AcDbEntity
  8
0
100
AcDbLine
 62
7
  6
CONTINUOUS
 10
128.24820412
 20
47.994464332
 11
128.52130612
 21
47.994464332
  0
LINE
  5
32D
100
AcDbEntity
  8
RUNDUNGEN
100
AcDbLine
 62
7
  6
CONTINUOUS
 10
101.2686460837
 20
63.8570684512
 11
101.2686002316
 21
63.8572212245
  0
LINE
  5
32E
100
AcDbEntity
  8
RUNDUNGEN
100
AcDbLine
 62
7
  6
CONTINUOUS
 10
101.3279740475
 20
48.2997244408
 11
101.2686241943
 21
48.1318018263
  0
LINE
  5
32F
100
AcDbEntity
  8
RUNDUNGEN
100
AcDbLine
 62
7
  6
CONTINUOUS
 10
102.1113189686
 20
49.7348529356
 11
102.0753845149
 21
49.6539010513
  0
LWPOLYLINE
  5
330
100
AcDbEntity
  8
RUNDUNGEN
100
AcDbPolyline
 62
7
  6
CONTINUOUS
 90
3
 70
0
 10
102.0753845149
 20
49.6539010513
 10
102.0400147079
 20
49.5761151037
 10
102.0031951296
 20
49.4970708173
  0
LINE
  5
331
100
AcDbEntity
  8
RUNDUNGEN
100
AcDbLine
 62
7
  6
CONTINUOUS
 10
102.0031951296
 20
49.4970708173
 11
101.9711543374
 21
49.4297758668
  0
LWPOLYLINE
  5
332
100
AcDbEntity
  8
RUNDUNGEN
100
AcDbPolyline
 62
7
  6
CONTINUOUS
 90
3
 70
0
 10
101.9711296177
 20
49.4297300145
 10
101.9253568385
 20
49.3363931699
 10
101.8367222961
 20
49.165719075
  0
LINE
  5
333
100
AcDbEntity
  8
0
100
AcDbLine
 62
7
  6
CONTINUOUS
 10
129.2976121445
 20
50.994464332
 11
129.5559200713
 21
50.994464332
  0
LINE
  5
334
100
AcDbEntity
  8
0
100
AcDbLine
 62
7
  6
CONTINUOUS
 10
129.4503355208
 20
51.6194644512
 11
129.7066221119
 21
51.6194644512
  0
LWPOLYLINE
  5
335
100
AcDbEntity
  8
RUNDUNGEN
100
AcDbPolyline
 62
7
  6
CONTINUOUS
 90
3
 70
0
 10
101.8405842825
 20
62.8160450711
 10
101.929196054
 20
62.6448489763
 10
101.9711258424
 20
62.5592079063
  0
LWPOLYLINE
  5
336
100
AcDbEntity
  8
RUNDUNGEN
100
AcDbPolyline
 62
7
  6
CONTINUOUS
 90
4
 70
0
 10
101.9711258424
 20
62.5592079063
 10
102.0067140516
 20
62.4843841329
 10
102.0434535899
 20
62.4053332646
 10
102.0794012604
 20
62.3260940547
  0
LWPOLYLINE
  5
337
100
AcDbEntity
  8
RUNDUNGEN
100
AcDbPolyline
 62
7
  6
CONTINUOUS
 90
4
 70
0
 10
101.331556135
 20
63.6805001354
 10
101.4106264999
 20
63.5139572791
 10
101.5061957324
 20
63.3557005613
 10
101.5753890475
 20
63.2560143859
  0
LINE
  5
338
100
AcDbEntity
  8
RUNDUNGEN
100
AcDbLine
 62
7
  6
CONTINUOUS
 10
102.111319498
 20
62.2540745337
 11
102.0794012604
 21
62.3260940547
  0
LINE
  5
339
100
AcDbEntity
  8
RUNDUNGEN
100
AcDbLine
 62
7
  6
CONTINUOUS
 10
101.2686460837
 20
63.8570684512
 11
101.331556135
 21
63.6805001354
  0
LINE
  5
33A
100
AcDbEntity
  8
BEZUGSACHSEN
100
AcDbLine
 62
7
  6
CONTINUOUS
 10
106.4910033402
 20
58.994464332
 11
106.4910033402
 21
52.994464332
  0
LWPOLYLINE
  5
33B
100
AcDbEntity
  8
RUNDUNGEN
100
AcDbPolyline
 62
7
  6
CONTINUOUS
 90
5
 70
0
 10
101.8367222961
 20
49.165719075
 10
101.7478022933
 20
49.007091196
 10
101.659214413
 20
48.8608867518
 10
101.5716344017
 20
48.7274103069
 10
101.5317557043
 20
48.6701576025
  0
LWPOLYLINE
  5
33C
100
AcDbEntity
  8
RUNDUNGEN
100
AcDbPolyline
 62
7
  6
CONTINUOUS
 90
4
 70
0
 10
101.531089655
 20
48.6691975266
 10
101.4961353322
 20
48.6181432118
 10
101.4041434814
 20
48.4628063287
 10
101.3279740475
 20
48.2997244408
  0
LINE
  5
33D
100
AcDbEntity
  8
RUNDUNGEN
100
AcDbLine
 62
7
  6
CONTINUOUS
 10
101.531290295
 20
48.6694802951
 11
101.5317470444
 21
48.6701235096
  0
LINE
  5
33E
100
AcDbEntity
  8
0
100
AcDbLine
 62
7
  6
CONTINUOUS
 10
129.5571303407
 20
52.119464332
 11
129.8120220447
 21
52.119464332
  0
LINE
  5
33F
100
AcDbEntity
  8
0
100
AcDbLine
 62
7
  6
CONTINUOUS
 10
129.6284028577
 20
52.494464332
 11
129.8823720077
 21
52.494464332
  0
LINE
  5
340
100
AcDbEntity
  8
0
100
AcDbLine
 62
7
  6
CONTINUOUS
 10
129.6504965041
 20
52.6194642128
 11
129.904181019
 21
52.6194642128
  0
LINE
  5
341
100
AcDbEntity
  8
0
100
AcDbLine
 62
7
  6
CONTINUOUS
 10
129.6717630989
 20
52.7444644512
 11
129.9251742317
 21
52.7444644512
  0
LINE
  5
342
100
AcDbEntity
  8
RUNDUNGEN
100
AcDbLine
 62
7
  6
CONTINUOUS
 10
114.4464406937
 20
52.994464332
 11
105.9355659868
 21
52.994464332
  0
LINE
  5
343
100
AcDbEntity
  8
0
100
AcDbLine
 62
7
  6
CONTINUOUS
 10
129.7486105223
 20
53.2444640936
 11
130.0010386428
 21
53.2444640936
  0
LINE
  5
344
100
AcDbEntity
  8
0
100
AcDbLine
 62
7
  6
CONTINUOUS
 10
129.8124201969
 20
53.7444642128
 11
130.0640378207
 21
53.7444642128
  0
LINE
  5
345
100
AcDbEntity
  8
RUNDUNGEN
100
AcDbLine
 62
7
  6
CONTINUOUS
 10
101.5317450604
 20
63.3187900736
 11
101.531448775
 21
63.319207299
  0
LINE
  5
346
100
AcDbEntity
  8
RUNDUNGEN
100
AcDbLine
 62
7
  6
CONTINUOUS
 10
105.1135608062
 20
59.4249785784
 11
105.1149163528
 21
59.4230326403
  0
LWPOLYLINE
  5
347
100
AcDbEntity
  8
RUNDUNGEN
100
AcDbPolyline
 62
7
  6
CONTINUOUS
 90
4
 70
0
 10
101.5753890475
 20
63.2560143859
 10
101.6630410971
 20
63.1219641546
 10
101.7516613504
 20
62.9752100671
 10
101.8405842825
 20
62.8160450711
  0
LINE
  5
348
100
AcDbEntity
  8
RUNDUNGEN
100
AcDbLine
 62
7
  6
CONTINUOUS
 10
117.378375996
 20
61.2943841749
 11
117.3782510927
 21
61.2943178801
  0
LINE
  5
349
100
AcDbEntity
  8
0
100
AcDbLine
 62
7
  6
CONTINUOUS
 10
129.8839589517
 20
54.4944645705
 11
130.1346740333
 21
54.4944645705
  0
LINE
  5
34A
100
AcDbEntity
  8
0
100
AcDbLine
 62
7
  6
CONTINUOUS
 10
129.8930812597
 20
54.6194640936
 11
130.1436817154
 21
54.6194640936
  0
LINE
  5
34B
100
AcDbEntity
  8
0
100
AcDbLine
 62
7
  6
CONTINUOUS
 10
129.9089361816
 20
54.8694645705
 11
130.1593376608
 21
54.8694645705
  0
LINE
  5
34C
100
AcDbEntity
  8
0
100
AcDbLine
 62
7
  6
CONTINUOUS
 10
129.9267577053
 20
55.2444645705
 11
130.1769359018
 21
55.2444645705
  0
LINE
  5
34D
100
AcDbEntity
  8
0
100
AcDbLine
 62
7
  6
CONTINUOUS
 10
129.9394209953
 20
55.7444640936
 11
130.1894407762
 21
55.7444640936
  0
LINE
  5
34E
100
AcDbEntity
  8
0
100
AcDbLine
 62
7
  6
CONTINUOUS
 10
129.9394209984
 20
56.244464332
 11
130.1894407792
 21
56.244464332
  0
LINE
  5
34F
100
AcDbEntity
  8
RUNDUNGEN
100
AcDbLine
 62
7
  6
CONTINUOUS
 10
117.3782506894
 20
50.6946120816
 11
117.3783827393
 21
50.6945419933
  0
LINE
  5
350
100
AcDbEntity
  8
RUNDUNGEN
100
AcDbLine
 62
7
  6
CONTINUOUS
 10
115.2670821721
 20
59.4230209278
 11
115.2683874232
 21
59.4248947035
  0
LINE
  5
351
100
AcDbEntity
  8
RUNDUNGEN
100
AcDbLine
 62
7
  6
CONTINUOUS
 10
103.0036291759
 20
50.6945437956
 11
103.003755666
 21
50.6946109326
  0
LINE
  5
352
100
AcDbEntity
  8
0
100
AcDbLine
 62
7
  6
CONTINUOUS
 10
129.9267576872
 20
56.7444645705
 11
130.176935884
 21
56.7444645705
  0
LINE
  5
353
100
AcDbEntity
  8
0
100
AcDbLine
 62
7
  6
CONTINUOUS
 10
129.9089361544
 20
57.1194645705
 11
130.1593376339
 21
57.1194645705
  0
LINE
  5
354
100
AcDbEntity
  8
0
100
AcDbLine
 62
7
  6
CONTINUOUS
 10
129.8930812763
 20
57.369464332
 11
130.1436817319
 21
57.369464332
  0
LINE
  5
355
100
AcDbEntity
  8
0
100
AcDbLine
 62
7
  6
CONTINUOUS
 10
129.8839589154
 20
57.4944645705
 11
130.1346739975
 21
57.4944645705
  0
LINE
  5
356
100
AcDbEntity
  8
0
100
AcDbLine
 62
7
  6
CONTINUOUS
 10
129.8124201832
 20
58.2444645705
 11
130.0640378072
 21
58.2444645705
  0
LINE
  5
357
100
AcDbEntity
  8
RUNDUNGEN
100
AcDbLine
 62
7
  6
CONTINUOUS
 10
103.0037560518
 20
61.2943164622
 11
103.0036272547
 21
61.2943848238
  0
LINE
  5
358
100
AcDbEntity
  8
BEZUGSACHSEN
100
AcDbLine
 62
7
  6
CONTINUOUS
 10
113.8910033402
 20
58.994464332
 11
113.8910033402
 21
52.994464332
  0
LINE
  5
359
100
AcDbEntity
  8
RUNDUNGEN
100
AcDbLine
 62
7
  6
CONTINUOUS
 10
118.3788100868
 20
62.4918547328
 11
118.410852335
 21
62.5591527377
  0
LWPOLYLINE
  5
35A
100
AcDbEntity
  8
RUNDUNGEN
100
AcDbPolyline
 62
7
  6
CONTINUOUS
 90
3
 70
0
 10
118.4108763211
 20
62.559197428
 10
118.4566684804
 20
62.6525726071
 10
118.5453135379
 20
62.8232619944
  0
LWPOLYLINE
  5
35B
100
AcDbEntity
  8
RUNDUNGEN
100
AcDbPolyline
 62
7
  6
CONTINUOUS
 90
5
 70
0
 10
118.5453135379
 20
62.8232619944
 10
118.6342394712
 20
62.9818950914
 10
118.7228273158
 20
63.1280960595
 10
118.8103965469
 20
63.2615542375
 10
118.8502540603
 20
63.318775947
  0
LWPOLYLINE
  5
35C
100
AcDbEntity
  8
RUNDUNGEN
100
AcDbPolyline
 62
7
  6
CONTINUOUS
 90
4
 70
0
 10
118.850919267
 20
63.3197349875
 10
118.8858717284
 20
63.3707866101
 10
118.9778640014
 20
63.526124132
 10
119.0540336013
 20
63.6892068018
  0
LINE
  5
35D
100
AcDbEntity
  8
RUNDUNGEN
100
AcDbLine
 62
7
  6
CONTINUOUS
 10
118.8507183215
 20
63.3194517882
 11
118.850262678
 21
63.318810128
  0
LINE
  5
35E
100
AcDbEntity
  8
0
100
AcDbLine
 62
7
  6
CONTINUOUS
 10
129.7486106229
 20
58.7444638552
 11
130.0010387421
 21
58.7444638552
  0
LINE
  5
35F
100
AcDbEntity
  8
RUNDUNGEN
100
AcDbLine
 62
7
  6
CONTINUOUS
 10
105.9355659868
 20
58.994464332
 11
114.4464406937
 21
58.994464332
  0
LINE
  5
360
100
AcDbEntity
  8
0
100
AcDbLine
 62
7
  6
CONTINUOUS
 10
129.671763079
 20
59.244464332
 11
129.9251742121
 21
59.244464332
  0
LINE
  5
361
100
AcDbEntity
  8
RUNDUNGEN
100
AcDbLine
 62
7
  6
CONTINUOUS
 10
118.8502625109
 20
48.6701381185
 11
118.8505366832
 21
48.6697520363
  0
LWPOLYLINE
  5
362
100
AcDbEntity
  8
RUNDUNGEN
100
AcDbPolyline
 62
7
  6
CONTINUOUS
 90
4
 70
0
 10
118.8066222582
 20
48.7329071945
 10
118.7189727759
 20
48.8669531727
 10
118.6303525609
 20
49.0137072017
 10
118.5414283543
 20
49.1728739457
  0
LWPOLYLINE
  5
363
100
AcDbEntity
  8
RUNDUNGEN
100
AcDbPolyline
 62
7
  6
CONTINUOUS
 90
3
 70
0
 10
118.5414283543
 20
49.1728739457
 10
118.4528140125
 20
49.3440740842
 10
118.4108801804
 20
49.4297229782
  0
LWPOLYLINE
  5
364
100
AcDbEntity
  8
RUNDUNGEN
100
AcDbPolyline
 62
7
  6
CONTINUOUS
 90
4
 70
0
 10
118.4108801804
 20
49.4297229782
 10
118.3752922
 20
49.5045452542
 10
118.3385526518
 20
49.5835960968
 10
118.3026050597
 20
49.6628351075
  0
LWPOLYLINE
  5
365
100
AcDbEntity
  8
RUNDUNGEN
100
AcDbPolyline
 62
7
  6
CONTINUOUS
 90
6
 70
0
 10
119.1248679172
 20
63.8968948957
 10
119.1481360567
 20
63.9891054854
 10
119.1673042687
 20
64.0859889641
 10
119.1815278949
 20
64.1886272816
 10
119.1896873491
 20
64.2987097806
 10
119.1910032725
 20
64.3642304242
  0
LINE
  5
366
100
AcDbEntity
  8
RUNDUNGEN
100
AcDbLine
 62
7
  6
CONTINUOUS
 10
119.1134620668
 20
63.8574172572
 11
119.1248679172
 21
63.8968948957
  0
LINE
  5
367
100
AcDbEntity
  8
RUNDUNGEN
100
AcDbLine
 62
7
  6
CONTINUOUS
 10
119.1134689227
 20
63.8574152326
 11
119.1133832552
 21
63.8571295186
  0
LINE
  5
368
100
AcDbEntity
  8
RUNDUNGEN
100
AcDbLine
 62
7
  6
CONTINUOUS
 10
119.0540336013
 20
63.6892068018
 11
119.1133832552
 21
63.8571295186
  0
LINE
  5
369
100
AcDbEntity
  8
RUNDUNGEN
100
AcDbLine
 62
7
  6
CONTINUOUS
 10
118.2706877819
 20
62.2540758633
 11
118.3066221059
 21
62.3350276298
  0
LWPOLYLINE
  5
36A
100
AcDbEntity
  8
RUNDUNGEN
100
AcDbPolyline
 62
7
  6
CONTINUOUS
 90
3
 70
0
 10
118.3066221059
 20
62.3350276298
 10
118.3419902597
 20
62.412809918
 10
118.3788100868
 20
62.4918547328
  0
LINE
  5
36B
100
AcDbEntity
  8
0
100
AcDbLine
 62
7
  6
CONTINUOUS
 10
128.9259973354
 20
62.244464332
 11
129.1893585322
 21
62.244464332
  0
LWPOLYLINE
  5
36C
100
AcDbEntity
  8
RUNDUNGEN
100
AcDbPolyline
 62
7
  6
CONTINUOUS
 90
4
 70
0
 10
119.0504472254
 20
48.3084391891
 10
118.9713809623
 20
48.4749705939
 10
118.8758197048
 20
48.6332153563
 10
118.8066222582
 20
48.7329071945
  0
LINE
  5
36D
100
AcDbEntity
  8
RUNDUNGEN
100
AcDbLine
 62
7
  6
CONTINUOUS
 10
118.270687225
 20
49.7348540759
 11
118.3026050597
 21
49.6628351075
  0
LINE
  5
36E
100
AcDbEntity
  8
RUNDUNGEN
100
AcDbLine
 62
7
  6
CONTINUOUS
 10
119.1133607274
 20
48.1318584187
 11
119.0504472254
 21
48.3084391891
  0
LINE
  5
36F
100
AcDbEntity
  8
RUNDUNGEN
100
AcDbLine
 62
7
  6
CONTINUOUS
 10
119.1133607274
 20
48.1318584187
 11
119.1134470481
 21
48.1315706497
  0
LWPOLYLINE
  5
370
100
AcDbEntity
  8
RUNDUNGEN
100
AcDbPolyline
 62
7
  6
CONTINUOUS
 90
7
 70
0
 10
119.1910033972
 20
47.624477059
 10
119.189260531
 20
47.7000422297
 10
119.1806427711
 20
47.8083434442
 10
119.1661881592
 20
47.9094565166
 10
119.1469805197
 20
48.0049003107
 10
119.1238571297
 20
48.0956540137
 10
119.113444524
 20
48.1315698954
  0
LINE
  5
371
100
AcDbEntity
  8
0
100
AcDbLine
 62
7
  6
CONTINUOUS
 10
128.7057776689
 20
62.8694648089
 11
128.9722271673
 21
62.8694648089
  0
LINE
  5
372
100
AcDbEntity
  8
0
100
AcDbLine
 62
7
  6
CONTINUOUS
 10
128.5123535907
 20
63.369464332
 11
128.7815755477
 21
63.369464332
  0
LINE
  5
373
100
AcDbEntity
  8
0
100
AcDbLine
 62
7
  6
CONTINUOUS
 10
128.303067897
 20
63.8694638552
 11
128.5753549064
 21
63.8694638552
  0
LINE
  5
374
100
AcDbEntity
  8
0
100
AcDbLine
 62
7
  6
CONTINUOUS
 10
128.1923053765
 20
64.119464332
 11
128.4662427367
 21
64.119464332
  0
LINE
  5
375
100
AcDbEntity
  8
0
100
AcDbLine
 62
7
  6
CONTINUOUS
 10
128.1353620044
 20
64.2444638552
 11
128.4101555671
 21
64.2444638552
  0
LINE
  5
376
100
AcDbEntity
  8
0
100
AcDbLine
 62
7
  6
CONTINUOUS
 10
119.1910033402
 20
69.994464332
 11
119.1910033402
 21
65.0498494702
  0
LINE
  5
377
100
AcDbEntity
  8
RUNDUNGEN
100
AcDbLine
 62
7
  6
CONTINUOUS
 10
119.1910033402
 20
39.6830419538
 11
119.1910033402
 21
47.6251662345
  0
LINE
  5
378
100
AcDbEntity
  8
RUNDUNGEN
100
AcDbLine
 62
7
  6
CONTINUOUS
 10
119.1910033402
 20
64.3640902528
 11
119.1910033402
 21
72.3058867102
  0
LINE
  5
379
100
AcDbEntity
  8
0
100
AcDbLine
 62
7
  6
CONTINUOUS
 10
101.1910033402
 20
65.994464332
 11
100.6910033402
 21
65.994464332
  0
LINE
  5
37A
100
AcDbEntity
  8
0
100
AcDbLine
 62
7
  6
CONTINUOUS
 10
101.1910033402
 20
66.0582941172
 11
100.6910033402
 21
66.0582941172
  0
LINE
  5
37B
100
AcDbEntity
  8
0
100
AcDbLine
 62
7
  6
CONTINUOUS
 10
101.1910033402
 20
66.2497834729
 11
100.6910033402
 21
66.2497834729
  0
LINE
  5
37C
100
AcDbEntity
  8
0
100
AcDbLine
 62
7
  6
CONTINUOUS
 10
101.1910033402
 20
66.5051026137
 11
100.6910033402
 21
66.5051026137
  0
LINE
  5
37D
100
AcDbEntity
  8
0
100
AcDbLine
 62
7
  6
CONTINUOUS
 10
101.1910033402
 20
66.8242515566
 11
100.6910033402
 21
66.8242515566
  0
LINE
  5
37E
100
AcDbEntity
  8
0
100
AcDbLine
 62
7
  6
CONTINUOUS
 10
126.5096081945
 20
67.1194648089
 11
126.8113031086
 21
67.1194648089
  0
LINE
  5
37F
100
AcDbEntity
  8
0
100
AcDbLine
 62
7
  6
CONTINUOUS
 10
101.1910033402
 20
67.1434005441
 11
100.6910033402
 21
67.1434005441
  0
LINE
  5
380
100
AcDbEntity
  8
0
100
AcDbLine
 62
7
  6
CONTINUOUS
 10
126.33633969
 20
67.3694638552
 11
126.6412126352
 21
67.3694638552
  0
LINE
  5
381
100
AcDbEntity
  8
0
100
AcDbLine
 62
7
  6
CONTINUOUS
 10
101.1910033402
 20
67.4625494422
 11
100.6910033402
 21
67.4625494422
  0
LINE
  5
382
100
AcDbEntity
  8
0
100
AcDbLine
 62
7
  6
CONTINUOUS
 10
101.1910033402
 20
67.6540387811
 11
100.6910033402
 21
67.6540387811
  0
LINE
  5
383
100
AcDbEntity
  8
0
100
AcDbLine
 62
7
  6
CONTINUOUS
 10
101.1910033402
 20
67.84552812
 11
100.6910033402
 21
67.84552812
  0
LINE
  5
384
100
AcDbEntity
  8
0
100
AcDbLine
 62
7
  6
CONTINUOUS
 10
101.1910033402
 20
67.9093578996
 11
100.6910033402
 21
67.9093578996
  0
LINE
  5
385
100
AcDbEntity
  8
0
100
AcDbLine
 62
7
  6
CONTINUOUS
 10
101.1910033402
 20
68.1008472385
 11
100.6910033402
 21
68.1008472385
  0
LINE
  5
386
100
AcDbEntity
  8
0
100
AcDbLine
 62
7
  6
CONTINUOUS
 10
101.1910033402
 20
68.2923367562
 11
100.6910033402
 21
68.2923367562
  0
LINE
  5
387
100
AcDbEntity
  8
0
100
AcDbLine
 62
7
  6
CONTINUOUS
 10
125.5832700674
 20
68.369464332
 11
125.9027624715
 21
68.369464332
  0
LINE
  5
388
100
AcDbEntity
  8
0
100
AcDbLine
 62
7
  6
CONTINUOUS
 10
101.1910033402
 20
68.483826095
 11
100.6910033402
 21
68.483826095
  0
LINE
  5
389
100
AcDbEntity
  8
0
100
AcDbLine
 62
7
  6
CONTINUOUS
 10
101.1910033402
 20
68.7391452135
 11
100.6910033402
 21
68.7391452135
  0
LINE
  5
38A
100
AcDbEntity
  8
0
100
AcDbLine
 62
7
  6
CONTINUOUS
 10
101.1910033402
 20
68.9306345524
 11
100.6910033402
 21
68.9306345524
  0
LINE
  5
38B
100
AcDbEntity
  8
0
100
AcDbLine
 62
7
  6
CONTINUOUS
 10
101.1910033402
 20
68.994464332
 11
100.6910033402
 21
68.994464332
  0
LINE
  5
38C
100
AcDbEntity
  8
0
100
AcDbLine
 62
7
  6
CONTINUOUS
 10
124.7227582415
 20
69.3694633784
 11
125.0607511697
 21
69.3694633784
  0
LINE
  5
38D
100
AcDbEntity
  8
0
100
AcDbLine
 62
7
  6
CONTINUOUS
 10
124.1216340976
 20
69.9944652857
 11
124.4738592625
 21
69.9944652857
  0
LINE
  5
38E
100
AcDbEntity
  8
RUNDUNGEN
100
AcDbLine
 62
7
  6
CONTINUOUS
 10
102.1910033402
 20
70.994464332
 11
118.1910033402
 21
70.994464332
  0
LINE
  5
38F
100
AcDbEntity
  8
0
100
AcDbLine
 62
7
  6
CONTINUOUS
 10
122.5874494035
 20
71.369464332
 11
122.9819913787
 21
71.369464332
  0
ARC
  5
390
100
AcDbEntity
  8
RUNDUNGEN
100
AcDbCircle
 62
7
  6
CONTINUOUS
 10
96.1910033402
 20
152.0126154873
 40
5.0
100
AcDbArc
 50
270.0003558636
 51
360.0
  0
ARC
  5
391
100
AcDbEntity
  8
RUNDUNGEN
100
AcDbCircle
 62
7
  6
CONTINUOUS
 10
92.4410033402
 20
145.0126154873
 40
2.0
100
AcDbArc
 50
90.0
 51
180.0
  0
ARC
  5
392
100
AcDbEntity
  8
RUNDUNGEN
100
AcDbCircle
 62
7
  6
CONTINUOUS
 10
124.1910033402
 20
152.0126154873
 40
5.0
100
AcDbArc
 50
180.0
 51
269.9999675918
  0
ARC
  5
393
100
AcDbEntity
  8
RUNDUNGEN
100
AcDbCircle
 62
7
  6
CONTINUOUS
 10
127.9410033402
 20
145.0126154873
 40
2.0
100
AcDbArc
 50
0.0
 51
90.0
  0
ARC
  5
394
100
AcDbEntity
  8
RUNDUNGEN
100
AcDbCircle
 62
7
  6
CONTINUOUS
 10
110.1910033402
 20
170.5126154873
 40
9.0
100
AcDbArc
 50
0.0
 51
180.0
  0
ARC
  5
395
100
AcDbEntity
  8
RUNDUNGEN
100
AcDbCircle
 62
7
  6
CONTINUOUS
 10
217.4655788295
 20
156.5126154873
 40
8.0
100
AcDbArc
 50
137.9988784384
 51
42.0013962293
  0
ARC
  5
396
100
AcDbEntity
  8
RUNDUNGEN
100
AcDbCircle
 62
7
  6
CONTINUOUS
 10
198.9655788295
 20
164.6776789968
 40
3.5
100
AcDbArc
 50
330.0
 51
360.0
  0
ARC
  5
397
100
AcDbEntity
  8
RUNDUNGEN
100
AcDbCircle
 62
7
  6
CONTINUOUS
 10
204.9655788295
 20
176.036820198
 40
2.5
100
AcDbArc
 50
150.0030876611
 51
179.9990290171
  0
ARC
  5
398
100
AcDbEntity
  8
RUNDUNGEN
100
AcDbCircle
 62
7
  6
CONTINUOUS
 10
212.4655788295
 20
176.0883302017
 40
2.0
100
AcDbArc
 50
0.0
 51
76.8634412131
  0
ARC
  5
399
100
AcDbEntity
  8
RUNDUNGEN
100
AcDbCircle
 62
7
  6
CONTINUOUS
 10
212.4655788295
 20
165.9043184118
 40
2.0
100
AcDbArc
 50
318.0
 51
360.0
  0
ARC
  5
39A
100
AcDbEntity
  8
RUNDUNGEN
100
AcDbCircle
 62
7
  6
CONTINUOUS
 10
198.715587078
 20
155.2446805818
 40
1.0
100
AcDbArc
 50
150.0009452138
 51
180.0008185712
  0
ARC
  5
39B
100
AcDbEntity
  8
0
100
AcDbCircle
 62
7
  6
CONTINUOUS
 10
217.4655788295
 20
197.5126154873
 40
20.0
100
AcDbArc
 50
283.1365587869
 51
294.909152737
  0
ARC
  5
39C
100
AcDbEntity
  8
0
100
AcDbCircle
 62
7
  6
CONTINUOUS
 10
217.4655788295
 20
197.5126154873
 40
20.0
100
AcDbArc
 50
245.090847263
 51
256.8634412131
  0
ARC
  5
39D
100
AcDbEntity
  8
RUNDUNGEN
100
AcDbCircle
 62
7
  6
CONTINUOUS
 10
208.4101936913
 20
178.0126154873
 40
1.5
100
AcDbArc
 50
65.0908472631
 51
90.0
  0
ARC
  5
39E
100
AcDbEntity
  8
RUNDUNGEN
100
AcDbCircle
 62
7
  6
CONTINUOUS
 10
204.6629290986
 20
178.5126154873
 40
1.0
100
AcDbArc
 50
90.0000000006
 51
150.0
  0
ARC
  5
39F
100
AcDbEntity
  8
RUNDUNGEN
100
AcDbCircle
 62
7
  6
CONTINUOUS
 10
236.9455788295
 20
164.6776789968
 40
3.5
100
AcDbArc
 50
180.0
 51
210.0
  0
ARC
  5
3A0
100
AcDbEntity
  8
RUNDUNGEN
100
AcDbCircle
 62
7
  6
CONTINUOUS
 10
230.9455788295
 20
176.036820198
 40
2.5
100
AcDbArc
 50
359.9999173245
 51
30.0
  0
ARC
  5
3A1
100
AcDbEntity
  8
RUNDUNGEN
100
AcDbCircle
 62
7
  6
CONTINUOUS
 10
222.4655788295
 20
176.0883302017
 40
2.0
100
AcDbArc
 50
103.1365587869
 51
180.0
  0
ARC
  5
3A2
100
AcDbEntity
  8
0
100
AcDbCircle
 62
7
  6
CONTINUOUS
 10
230.4461133462
 20
162.0419264545
 40
2.0
100
AcDbArc
 50
174.2608295227
 51
356.9363238298
  0
ARC
  5
3A3
100
AcDbEntity
  8
0
100
AcDbCircle
 62
7
  6
CONTINUOUS
 10
230.4461133462
 20
158.6419264545
 40
2.0
100
AcDbArc
 50
174.2608295227
 51
356.9363238298
  0
ARC
  5
3A4
100
AcDbEntity
  8
RUNDUNGEN
100
AcDbCircle
 62
7
  6
CONTINUOUS
 10
222.4655788295
 20
165.9043184118
 40
2.0
100
AcDbArc
 50
180.0
 51
222.0
  0
ARC
  5
3A5
100
AcDbEntity
  8
0
100
AcDbCircle
 62
7
  6
CONTINUOUS
 10
230.4461133462
 20
162.0419264545
 40
1.4
100
AcDbArc
 50
282.3736251162
 51
8.2132107017
  0
ARC
  5
3A6
100
AcDbEntity
  8
0
100
AcDbCircle
 62
7
  6
CONTINUOUS
 10
230.4461133462
 20
162.0419264545
 40
1.4
100
AcDbArc
 50
171.7867892983
 51
257.4447123387
  0
ARC
  5
3A7
100
AcDbEntity
  8
0
100
AcDbCircle
 62
7
  6
CONTINUOUS
 10
230.4461133462
 20
158.6419264545
 40
1.4
100
AcDbArc
 50
181.7503387136
 51
8.2132107017
  0
ARC
  5
3A8
100
AcDbEntity
  8
RUNDUNGEN
100
AcDbCircle
 62
7
  6
CONTINUOUS
 10
236.2155304095
 20
156.9421599523
 40
1.0
100
AcDbArc
 50
359.9951951704
 51
29.9944514745
  0
ARC
  5
3A9
100
AcDbEntity
  8
RUNDUNGEN
100
AcDbCircle
 62
7
  6
CONTINUOUS
 10
226.5209639676
 20
178.0126154873
 40
1.5
100
AcDbArc
 50
90.0
 51
114.9091527369
  0
ARC
  5
3AA
100
AcDbEntity
  8
RUNDUNGEN
100
AcDbCircle
 62
7
  6
CONTINUOUS
 10
231.2482285603
 20
178.5126154873
 40
1.0
100
AcDbArc
 50
30.0
 51
89.9999999995
  0
ARC
  5
3AB
100
AcDbEntity
  8
RUNDUNGEN
100
AcDbCircle
 62
7
  6
CONTINUOUS
 10
103.1910033402
 20
39.6830419538
 40
2.0
100
AcDbArc
 50
180.0
 51
246.7726241047
  0
ARC
  5
3AC
100
AcDbEntity
  8
RUNDUNGEN
100
AcDbCircle
 62
7
  6
CONTINUOUS
 10
104.0439438912
 20
48.9834114453
 40
1.9999999845
100
AcDbArc
 50
118.7910727894
 51
161.4165915854
  0
ARC
  5
3AD
100
AcDbEntity
  8
RUNDUNGEN
100
AcDbCircle
 62
7
  6
CONTINUOUS
 10
103.9408227402
 20
48.9285743794
 40
1.9992447963
100
AcDbArc
 50
117.9547633064
 51
156.2164871285
  0
ARC
  5
3AE
100
AcDbEntity
  8
RUNDUNGEN
100
AcDbCircle
 62
7
  6
CONTINUOUS
 10
102.6910033402
 20
46.9390791939
 40
1.5
100
AcDbArc
 50
155.0908472631
 51
180.0
  0
ARC
  5
3AF
100
AcDbEntity
  8
RUNDUNGEN
100
AcDbCircle
 62
7
  6
CONTINUOUS
 10
102.1910033402
 20
41.014464332
 40
1.0
100
AcDbArc
 50
180.0
 51
270.0
  0
ARC
  5
3B0
100
AcDbEntity
  8
RUNDUNGEN
100
AcDbCircle
 62
7
  6
CONTINUOUS
 10
105.9355659868
 20
51.994464332
 40
1.0
100
AcDbArc
 50
90.0
 51
145.150095421
  0
ARC
  5
3B1
100
AcDbEntity
  8
0
100
AcDbCircle
 62
7
  6
CONTINUOUS
 10
83.1910033402
 20
55.994464332
 40
20.0
100
AcDbArc
 50
335.090847263
 51
341.4166327144
  0
ARC
  5
3B2
100
AcDbEntity
  8
0
100
AcDbCircle
 62
7
  6
CONTINUOUS
 10
83.1910033402
 20
55.994464332
 40
20.0
100
AcDbArc
 50
18.5833672856
 51
24.9091527369
  0
ARC
  5
3B3
100
AcDbEntity
  8
RUNDUNGEN
100
AcDbCircle
 62
7
  6
CONTINUOUS
 10
83.1910033402
 20
55.994464332
 40
20.0
100
AcDbArc
 50
335.090847263
 51
341.4166327144
  0
ARC
  5
3B4
100
AcDbEntity
  8
RUNDUNGEN
100
AcDbCircle
 62
7
  6
CONTINUOUS
 10
83.1910033402
 20
55.994464332
 40
20.0
100
AcDbArc
 50
18.5833672856
 51
24.909152737
  0
ARC
  5
3B5
100
AcDbEntity
  8
RUNDUNGEN
100
AcDbCircle
 62
7
  6
CONTINUOUS
 10
100.1910033402
 20
55.994464332
 40
6.0
100
AcDbArc
 50
34.8725147689
 51
62.0445627885
  0
ARC
  5
3B6
100
AcDbEntity
  8
RUNDUNGEN
100
AcDbCircle
 62
7
  6
CONTINUOUS
 10
100.1910033402
 20
55.994464332
 40
6.0
100
AcDbArc
 50
297.9555526836
 51
325.150095421
  0
ARC
  5
3B7
100
AcDbEntity
  8
RUNDUNGEN
100
AcDbCircle
 62
7
  6
CONTINUOUS
 10
104.0439445167
 20
63.0055159144
 40
2.0
100
AcDbArc
 50
198.5833672856
 51
241.2088935109
  0
ARC
  5
3B8
100
AcDbEntity
  8
RUNDUNGEN
100
AcDbCircle
 62
7
  6
CONTINUOUS
 10
103.940823396
 20
63.060352937
 40
1.9992448534
100
AcDbArc
 50
203.7835074029
 51
242.0451644683
  0
ARC
  5
3B9
100
AcDbEntity
  8
RUNDUNGEN
100
AcDbCircle
 62
7
  6
CONTINUOUS
 10
105.9355659868
 20
59.994464332
 40
1.0
100
AcDbArc
 50
214.5786948864
 51
270.0018508594
  0
ARC
  5
3BA
100
AcDbEntity
  8
RUNDUNGEN
100
AcDbCircle
 62
7
  6
CONTINUOUS
 10
103.1910033402
 20
72.3058867102
 40
2.0
100
AcDbArc
 50
113.2248924501
 51
180.0
  0
ARC
  5
3BB
100
AcDbEntity
  8
RUNDUNGEN
100
AcDbCircle
 62
7
  6
CONTINUOUS
 10
102.6910033402
 20
65.0498494702
 40
1.5
100
AcDbArc
 50
180.0
 51
204.9091527382
  0
ARC
  5
3BC
100
AcDbEntity
  8
RUNDUNGEN
100
AcDbCircle
 62
7
  6
CONTINUOUS
 10
102.1910033402
 20
69.994464332
 40
1.0
100
AcDbArc
 50
90.0
 51
180.0
  0
ARC
  5
3BD
100
AcDbEntity
  8
RUNDUNGEN
100
AcDbCircle
 62
7
  6
CONTINUOUS
 10
117.1910033402
 20
39.6830419538
 40
2.0
100
AcDbArc
 50
293.2270472543
 51
360.0
  0
ARC
  5
3BE
100
AcDbEntity
  8
RUNDUNGEN
100
AcDbCircle
 62
7
  6
CONTINUOUS
 10
116.3380621638
 20
48.9834127497
 40
2.0
100
AcDbArc
 50
18.5833672856
 51
61.2088935109
  0
ARC
  5
3BF
100
AcDbEntity
  8
RUNDUNGEN
100
AcDbCircle
 62
7
  6
CONTINUOUS
 10
116.4411833609
 20
48.9285755997
 40
1.9992448518
100
AcDbArc
 50
23.7835097047
 51
62.0450587242
  0
ARC
  5
3C0
100
AcDbEntity
  8
RUNDUNGEN
100
AcDbCircle
 62
7
  6
CONTINUOUS
 10
117.6910033402
 20
46.9390791939
 40
1.5
100
AcDbArc
 50
0.0
 51
24.909152737
  0
ARC
  5
3C1
100
AcDbEntity
  8
RUNDUNGEN
100
AcDbCircle
 62
7
  6
CONTINUOUS
 10
118.1910033402
 20
41.014464332
 40
1.0
100
AcDbArc
 50
270.0
 51
360.0
  0
ARC
  5
3C2
100
AcDbEntity
  8
RUNDUNGEN
100
AcDbCircle
 62
7
  6
CONTINUOUS
 10
114.4464406937
 20
51.994464332
 40
1.0
100
AcDbArc
 50
34.849904579
 51
90.0
  0
CIRCLE
  5
3C3
100
AcDbEntity
  8
FASEN
100
AcDbCircle
 62
7
  6
CONTINUOUS
 10
110.1910033402
 20
55.994464332
 40
23.0
  0
CIRCLE
  5
3C4
100
AcDbEntity
  8
FASEN
100
AcDbCircle
 62
7
  6
CONTINUOUS
 10
110.1910033402
 20
55.994464332
 40
22.5
  0
ARC
  5
3C5
100
AcDbEntity
  8
0
100
AcDbCircle
 62
7
  6
CONTINUOUS
 10
110.1910033402
 20
55.994464332
 40
20.0
100
AcDbArc
 50
38.2249102016
 51
50.2417722628
  0
ARC
  5
3C6
100
AcDbEntity
  8
0
100
AcDbCircle
 62
7
  6
CONTINUOUS
 10
110.1910033402
 20
55.994464332
 40
20.0
100
AcDbArc
 50
323.1301023542
 51
34.6631037125
  0
CIRCLE
  5
3C7
100
AcDbEntity
  8
RUNDUNGEN
100
AcDbCircle
 62
7
  6
CONTINUOUS
 10
110.1910033402
 20
55.994464332
 40
19.75
  0
ARC
  5
3C8
100
AcDbEntity
  8
RUNDUNGEN
100
AcDbCircle
 62
7
  6
CONTINUOUS
 10
114.4464406937
 20
59.994464332
 40
1.0
100
AcDbArc
 50
269.9981653606
 51
325.4095925601
  0
ARC
  5
3C9
100
AcDbEntity
  8
RUNDUNGEN
100
AcDbCircle
 62
7
  6
CONTINUOUS
 10
120.1910033402
 20
55.994464332
 40
6.0
100
AcDbArc
 50
117.9555532773
 51
145.1284614819
  0
ARC
  5
3CA
100
AcDbEntity
  8
RUNDUNGEN
100
AcDbCircle
 62
7
  6
CONTINUOUS
 10
120.1910033402
 20
55.994464332
 40
6.0
100
AcDbArc
 50
214.849904579
 51
242.0445627616
  0
ARC
  5
3CB
100
AcDbEntity
  8
RUNDUNGEN
100
AcDbCircle
 62
7
  6
CONTINUOUS
 10
116.3380628798
 20
63.0055174204
 40
1.9999999826
100
AcDbArc
 50
298.7910677326
 51
341.4165852833
  0
ARC
  5
3CC
100
AcDbEntity
  8
RUNDUNGEN
100
AcDbCircle
 62
7
  6
CONTINUOUS
 10
116.4411840131
 20
63.0603544341
 40
1.9992447997
100
AcDbArc
 50
297.9547110294
 51
336.21648671
  0
ARC
  5
3CD
100
AcDbEntity
  8
RUNDUNGEN
100
AcDbCircle
 62
7
  6
CONTINUOUS
 10
117.1910319769
 20
72.3058838821
 40
1.9999918181
100
AcDbArc
 50
0.0000810222
 51
66.7743345796
  0
ARC
  5
3CE
100
AcDbEntity
  8
RUNDUNGEN
100
AcDbCircle
 62
7
  6
CONTINUOUS
 10
117.6910033402
 20
65.0498494702
 40
1.5
100
AcDbArc
 50
335.090847263
 51
360.0
  0
ARC
  5
3CF
100
AcDbEntity
  8
RUNDUNGEN
100
AcDbCircle
 62
7
  6
CONTINUOUS
 10
118.1910033402
 20
69.994464332
 40
1.0
100
AcDbArc
 50
0.0
 51
90.0
  0
ARC
  5
3D0
100
AcDbEntity
  8
0
100
AcDbCircle
 62
7
  6
CONTINUOUS
 10
137.1910033402
 20
55.994464332
 40
20.0
100
AcDbArc
 50
198.5833672856
 51
204.909152737
  0
ARC
  5
3D1
100
AcDbEntity
  8
0
100
AcDbCircle
 62
7
  6
CONTINUOUS
 10
137.1910033402
 20
55.994464332
 40
20.0
100
AcDbArc
 50
155.090847263
 51
161.4166327144
  0
ARC
  5
3D2
100
AcDbEntity
  8
RUNDUNGEN
100
AcDbCircle
 62
7
  6
CONTINUOUS
 10
137.1910033402
 20
55.994464332
 40
20.0
100
AcDbArc
 50
198.5833672856
 51
204.9091527369
  0
ARC
  5
3D3
100
AcDbEntity
  8
RUNDUNGEN
100
AcDbCircle
 62
7
  6
CONTINUOUS
 10
137.1910033402
 20
55.994464332
 40
20.0
100
AcDbArc
 50
155.090847263
 51
161.4166327144
  0
ELLIPSE
  5
3D4
100
AcDbEntity
  8
0
100
AcDbEllipse
 62
7
  6
CONTINUOUS
 10
110.1910033402
 20
130.5360207014
 30
0.0
 11
0.0
 21
23.8297843933
 31
0.0
 40
0.8392858143
 41
4.8352874542
 42
4.8503259527
  0
ELLIPSE
  5
3D5
100
AcDbEntity
  8
0
100
AcDbEllipse
 62
7
  6
CONTINUOUS
 10
110.1910033402
 20
137.2594122724
 30
0.0
 11
0.0
 21
61.2764715643
 31
0.0
 40
0.3263895503
 41
-1.6646842019
 42
-1.6584083549
  0
ELLIPSE
  5
3D6
100
AcDbEntity
  8
0
100
AcDbEllipse
 62
7
  6
CONTINUOUS
 10
110.1910033402
 20
134.0679342482
 30
0.0
 11
-0.0
 21
27.2340393066
 31
0.0
 40
0.7343750875
 41
-1.6835349933
 42
-1.6646842019
  0
ELLIPSE
  5
3D7
100
AcDbEntity
  8
0
100
AcDbEllipse
 62
7
  6
CONTINUOUS
 10
110.1910033402
 20
132.7275080543
 30
0.0
 11
20.0
 21
0.0
 31
0.0
 40
0.7659569903
 41
-0.1379370085
 42
-0.1127386665
  0
ELLIPSE
  5
3D8
100
AcDbEntity
  8
0
100
AcDbEllipse
 62
7
  6
CONTINUOUS
 10
110.1910033402
 20
131.1828284721
 30
0.0
 11
20.0
 21
0.0
 31
0.0
 40
0.2042553727
 41
-0.1695613439
 42
-0.1379370085
  0
ELLIPSE
  5
3D9
100
AcDbEntity
  8
0
100
AcDbEllipse
 62
7
  6
CONTINUOUS
 10
110.1910033402
 20
133.1232536044
 30
0.0
 11
20.0
 21
-0.0
 31
0.0
 40
0.2042553727
 41
0.1379370085
 42
0.1695613439
  0
ELLIPSE
  5
3DA
100
AcDbEntity
  8
0
100
AcDbEllipse
 62
7
  6
CONTINUOUS
 10
110.1910033402
 20
131.5785740223
 30
0.0
 11
20.0
 21
-0.0
 31
0.0
 40
0.7659569903
 41
0.1127386665
 42
0.1379370085
  0
ELLIPSE
  5
3DB
100
AcDbEntity
  8
0
100
AcDbEllipse
 62
7
  6
CONTINUOUS
 10
110.1910033402
 20
130.2381478284
 30
0.0
 11
-0.0
 21
27.2340393066
 31
0.0
 40
0.7343750875
 41
-1.4769084517
 42
-1.4580576603
  0
ELLIPSE
  5
3DC
100
AcDbEntity
  8
0
100
AcDbEllipse
 62
7
  6
CONTINUOUS
 10
110.1910033402
 20
127.0466698042
 30
0.0
 11
0.0
 21
61.2764715643
 31
0.0
 40
0.3263895503
 41
-1.4831842987
 42
-1.4769084517
  0
ELLIPSE
  5
3DD
100
AcDbEntity
  8
0
100
AcDbEllipse
 62
7
  6
CONTINUOUS
 10
110.1910033402
 20
154.4934856424
 30
0.0
 11
0.0
 21
61.2766468779
 31
0.0
 40
0.3263886165
 41
-1.9551931013
 42
-1.948460227
  0
ELLIPSE
  5
3DE
100
AcDbEntity
  8
0
100
AcDbEllipse
 62
7
  6
CONTINUOUS
 10
110.1910033402
 20
141.7275078032
 30
0.0
 11
0.0
 21
27.2340393066
 31
0.0
 40
0.7343750875
 41
-1.975503929
 42
-1.9551931013
  0
ELLIPSE
  5
3DF
100
AcDbEntity
  8
0
100
AcDbEllipse
 62
7
  6
CONTINUOUS
 10
110.1910033402
 20
137.0360204389
 30
0.0
 11
20.0
 21
-0.0
 31
0.0
 40
0.7659575381
 41
-0.4320683779
 42
-0.4047076022
  0
ELLIPSE
  5
3E0
100
AcDbEntity
  8
0
100
AcDbEllipse
 62
7
  6
CONTINUOUS
 10
110.1910033402
 20
132.3317638918
 30
0.0
 11
20.0
 21
-0.0
 31
0.0
 40
0.2042552558
 41
-0.466765339
 42
-0.4320683779
  0
ELLIPSE
  5
3E1
100
AcDbEntity
  8
0
100
AcDbEllipse
 62
7
  6
CONTINUOUS
 10
110.1910033402
 20
131.9743181848
 30
0.0
 11
20.0
 21
-0.0
 31
0.0
 40
0.2042552558
 41
0.4320683779
 42
0.466765339
  0
ELLIPSE
  5
3E2
100
AcDbEntity
  8
0
100
AcDbEllipse
 62
7
  6
CONTINUOUS
 10
110.1910033402
 20
127.2700616377
 30
0.0
 11
20.0
 21
0.0
 31
0.0
 40
0.7659575381
 41
0.4047076022
 42
0.4320683779
  0
ELLIPSE
  5
3E3
100
AcDbEntity
  8
0
100
AcDbEllipse
 62
7
  6
CONTINUOUS
 10
110.1910033402
 20
122.5785742734
 30
0.0
 11
-0.0
 21
27.2340393066
 31
0.0
 40
0.7343750875
 41
-1.1863995523
 42
-1.1660887246
  0
ELLIPSE
  5
3E4
100
AcDbEntity
  8
0
100
AcDbEllipse
 62
7
  6
CONTINUOUS
 10
110.1910033402
 20
109.8125964341
 30
0.0
 11
0.0
 21
61.2766468779
 31
0.0
 40
0.3263886165
 41
-1.1931324266
 42
-1.1863995523
  0
ELLIPSE
  5
3E5
100
AcDbEntity
  8
0
100
AcDbEllipse
 62
7
  6
CONTINUOUS
 10
110.1910033402
 20
130.7274873689
 30
0.0
 11
0.0
 21
81.70242959
 31
0.0
 40
0.244790762
 41
-1.5019920408
 42
-1.4957258477
  0
ELLIPSE
  5
3E6
100
AcDbEntity
  8
0
100
AcDbEllipse
 62
7
  6
CONTINUOUS
 10
110.1910033402
 20
134.2381513019
 30
0.0
 11
0.0
 21
30.6382357822
 31
0.0
 40
0.6527791007
 41
-1.5145166333
 42
-1.5019920408
  0
ELLIPSE
  5
3E7
100
AcDbEntity
  8
0
100
AcDbEllipse
 62
7
  6
CONTINUOUS
 10
110.1910033402
 20
135.195594238
 30
0.0
 11
20.0
 21
0.0
 31
0.0
 40
0.6808512211
 41
0.0375087827
 42
0.0562796935
  0
ELLIPSE
  5
3E8
100
AcDbEntity
  8
0
100
AcDbEllipse
 62
7
  6
CONTINUOUS
 10
110.1910033402
 20
135.5147431831
 30
0.0
 11
20.0
 21
-0.0
 31
0.0
 40
0.2553189968
 41
0.0125003255
 42
0.0375087827
  0
ELLIPSE
  5
3E9
100
AcDbEntity
  8
0
100
AcDbEllipse
 62
7
  6
CONTINUOUS
 10
110.1910033402
 20
139.7913392081
 30
0.0
 11
20.0
 21
-0.0
 31
0.0
 40
0.2042552558
 41
0.2205332548
 42
0.2526802551
  0
ELLIPSE
  5
3EA
100
AcDbEntity
  8
0
100
AcDbEllipse
 62
7
  6
CONTINUOUS
 10
110.1910033402
 20
137.3338917901
 30
0.0
 11
20.0
 21
0.0
 31
0.0
 40
0.7659575381
 41
0.1949831456
 42
0.2205332548
  0
ELLIPSE
  5
3EB
100
AcDbEntity
  8
0
100
AcDbEllipse
 62
7
  6
CONTINUOUS
 10
110.1910033402
 20
135.0253821347
 30
0.0
 11
-0.0
 21
27.2340393066
 31
0.0
 40
0.7343750875
 41
-1.3948905586
 42
-1.3758131812
  0
ELLIPSE
  5
3EC
100
AcDbEntity
  8
0
100
AcDbEllipse
 62
7
  6
CONTINUOUS
 10
110.1910033402
 20
129.0679258097
 30
0.0
 11
0.0
 21
61.2766468779
 31
0.0
 40
0.3263886165
 41
-1.4012349769
 42
-1.3948905586
  0
ELLIPSE
  5
3ED
100
AcDbEntity
  8
0
100
AcDbEllipse
 62
7
  6
CONTINUOUS
 10
110.1910033402
 20
149.2381562669
 30
0.0
 11
0.0
 21
61.2766468779
 31
0.0
 40
0.3263886165
 41
-1.746702095
 42
-1.7403576767
  0
ELLIPSE
  5
3EE
100
AcDbEntity
  8
0
100
AcDbEllipse
 62
7
  6
CONTINUOUS
 10
110.1910033402
 20
143.2806999419
 30
0.0
 11
0.0
 21
27.2340393066
 31
0.0
 40
0.7343750875
 41
-1.7657794724
 42
-1.746702095
  0
ELLIPSE
  5
3EF
100
AcDbEntity
  8
0
100
AcDbEllipse
 62
7
  6
CONTINUOUS
 10
110.1910033402
 20
139.9828284664
 30
0.0
 11
20.0
 21
-0.0
 31
0.0
 40
0.5106383587
 41
-0.2205332548
 42
-0.1949831456
  0
ELLIPSE
  5
3F0
100
AcDbEntity
  8
0
100
AcDbEllipse
 62
7
  6
CONTINUOUS
 10
110.1910033402
 20
126.3303462729
 30
0.0
 11
0.0
 21
52.1985816956
 31
0.0
 40
0.3831521729
 41
-1.4075725293
 42
-1.350263072
  0
ELLIPSE
  5
3F1
100
AcDbEntity
  8
0
100
AcDbEllipse
 62
7
  6
CONTINUOUS
 10
110.1910033402
 20
125.3658295871
 30
0.0
 11
0.0
 21
100.8508594497
 31
0.0
 40
0.1958337302
 41
-1.4625035236
 42
-1.4566243888
  0
ELLIPSE
  5
3F2
100
AcDbEntity
  8
0
100
AcDbEllipse
 62
7
  6
CONTINUOUS
 10
110.1910033402
 20
132.0679349254
 30
0.0
 11
19.75
 21
-0.0
 31
0.0
 40
0.3404254913
 41
0.1460886891
 42
0.1653088211
  0
ELLIPSE
  5
3F3
100
AcDbEntity
  8
0
100
AcDbEllipse
 62
7
  6
CONTINUOUS
 10
110.1910033402
 20
130.1104857124
 30
0.0
 11
-0.0
 21
20.1702295973
 31
0.0
 40
0.9791658496
 41
-1.4374904675
 42
-1.4247076377
  0
ELLIPSE
  5
3F4
100
AcDbEntity
  8
0
100
AcDbEllipse
 62
7
  6
CONTINUOUS
 10
110.1910033402
 20
124.7488021205
 30
0.0
 11
0.0
 21
60.5105156698
 31
0.0
 40
0.3263895503
 41
-1.4438735601
 42
-1.4374904675
  0
ELLIPSE
  5
3F5
100
AcDbEntity
  8
0
100
AcDbEllipse
 62
7
  6
CONTINUOUS
 10
110.1910033402
 20
139.6849395153
 30
0.0
 11
0.0
 21
60.5105156698
 31
0.0
 40
0.3263895503
 41
-1.7041021861
 42
-1.6977190935
  0
ELLIPSE
  5
3F6
100
AcDbEntity
  8
0
100
AcDbEllipse
 62
7
  6
CONTINUOUS
 10
110.1910033402
 20
132.3658067104
 30
0.0
 11
20.0
 21
-0.0
 31
0.0
 40
0.3404254913
 41
-0.1632237914
 42
-0.1442497255
  0
ELLIPSE
  5
3F7
100
AcDbEntity
  8
0
100
AcDbEllipse
 62
7
  6
CONTINUOUS
 10
110.1910033402
 20
134.3232559234
 30
0.0
 11
-0.0
 21
20.4255489593
 31
0.0
 40
0.9791658496
 41
-1.7150460523
 42
-1.7024261093
  0
ELLIPSE
  5
3F8
100
AcDbEntity
  8
0
100
AcDbEllipse
 62
7
  6
CONTINUOUS
 10
110.1910033402
 20
139.6849395153
 30
0.0
 11
0.0
 21
61.2764715643
 31
0.0
 40
0.3263895503
 41
-1.7024261093
 42
-1.6961241459
  0
ELLIPSE
  5
3F9
100
AcDbEntity
  8
0
100
AcDbEllipse
 62
7
  6
CONTINUOUS
 10
110.1910033402
 20
124.7488021205
 30
0.0
 11
0.0
 21
61.2764715643
 31
0.0
 40
0.3263895503
 41
-1.4454685076
 42
-1.4391665443
  0
ELLIPSE
  5
3FA
100
AcDbEntity
  8
0
100
AcDbEllipse
 62
7
  6
CONTINUOUS
 10
110.1910033402
 20
134.3232559234
 30
0.0
 11
0.0
 21
20.1702295973
 31
0.0
 40
0.9791658496
 41
-1.7168850159
 42
-1.7041021861
  0
ELLIPSE
  5
3FB
100
AcDbEntity
  8
0
100
AcDbEllipse
 62
7
  6
CONTINUOUS
 10
110.1910033402
 20
132.3658067104
 30
0.0
 11
19.75
 21
-0.0
 31
0.0
 40
0.3404254913
 41
-0.1653088211
 42
-0.1460886891
  0
ELLIPSE
  5
3FC
100
AcDbEntity
  8
0
100
AcDbEllipse
 62
7
  6
CONTINUOUS
 10
110.1910033402
 20
130.1530414149
 30
0.0
 11
19.75
 21
-0.0
 31
0.0
 40
0.3404254913
 41
6.7280987518
 42
6.7492420547
  0
ELLIPSE
  5
3FD
100
AcDbEntity
  8
0
100
AcDbEllipse
 62
7
  6
CONTINUOUS
 10
110.1910033402
 20
124.3658121205
 30
0.0
 11
0.0
 21
20.1702007436
 31
0.0
 40
0.9791672503
 41
-1.1398602086
 42
-1.1258828822
  0
ELLIPSE
  5
3FE
100
AcDbEntity
  8
0
100
AcDbEllipse
 62
7
  6
CONTINUOUS
 10
110.1910033402
 20
107.5147221762
 30
0.0
 11
0.0
 21
60.5106887919
 31
0.0
 40
0.3263886165
 41
-1.1468151164
 42
-1.1398602086
  0
ELLIPSE
  5
3FF
100
AcDbEntity
  8
0
100
AcDbEllipse
 62
7
  6
CONTINUOUS
 10
110.1910033402
 20
130.1104857124
 30
0.0
 11
-0.0
 21
20.4255489593
 31
0.0
 40
0.9791658496
 41
-1.4391665443
 42
-1.4265466013
  0
ELLIPSE
  5
400
100
AcDbEntity
  8
0
100
AcDbEllipse
 62
7
  6
CONTINUOUS
 10
110.1910033402
 20
132.0679349254
 30
0.0
 11
20.0
 21
0.0
 31
0.0
 40
0.3404254913
 41
0.1442497255
 42
0.1632237914
  0
ELLIPSE
  5
401
100
AcDbEntity
  8
0
100
AcDbEllipse
 62
7
  6
CONTINUOUS
 10
110.1910033402
 20
156.9190194596
 30
0.0
 11
0.0
 21
60.5106887919
 31
0.0
 40
0.3263886165
 41
-2.0017324449
 42
-1.9947775372
  0
ELLIPSE
  5
402
100
AcDbEntity
  8
0
100
AcDbEllipse
 62
7
  6
CONTINUOUS
 10
110.1910033402
 20
140.0679295154
 30
0.0
 11
0.0
 21
20.1702007436
 31
0.0
 40
0.9791672503
 41
-2.0157097714
 42
-2.0017324449
  0
ELLIPSE
  5
403
100
AcDbEntity
  8
0
100
AcDbEllipse
 62
7
  6
CONTINUOUS
 10
110.1910033402
 20
134.2807002209
 30
0.0
 11
19.75
 21
-0.0
 31
0.0
 40
0.3404254913
 41
-0.4660567476
 42
-0.4449134446
  0
ELLIPSE
  5
404
100
AcDbEntity
  8
0
100
AcDbEllipse
 62
7
  6
CONTINUOUS
 10
110.1910033402
 20
134.4934667548
 30
0.0
 11
19.75
 21
-0.0
 31
0.0
 40
0.5106380606
 41
0.0443183037
 42
0.0581343681
  0
ELLIPSE
  5
405
100
AcDbEntity
  8
0
100
AcDbEllipse
 62
7
  6
CONTINUOUS
 10
110.1910033402
 20
134.761551591
 30
0.0
 11
19.75
 21
-0.0
 31
0.0
 40
0.2042553906
 41
6.2958438852
 42
6.3275036109
  0
ELLIPSE
  5
406
100
AcDbEntity
  8
0
100
AcDbEllipse
 62
7
  6
CONTINUOUS
 10
110.1910033402
 20
134.2807002209
 30
0.0
 11
20.0
 21
0.0
 31
0.0
 40
0.3404254913
 41
-0.4597789302
 42
-0.4389618922
  0
ELLIPSE
  5
407
100
AcDbEntity
  8
0
100
AcDbEllipse
 62
7
  6
CONTINUOUS
 10
110.1910033402
 20
140.0679295154
 30
0.0
 11
-0.0
 21
20.4255197403
 31
0.0
 40
0.9791672503
 41
-2.009758219
 42
-1.9959930541
  0
ELLIPSE
  5
408
100
AcDbEntity
  8
0
100
AcDbEllipse
 62
7
  6
CONTINUOUS
 10
110.1910033402
 20
156.9190194596
 30
0.0
 11
0.0
 21
61.2766468779
 31
0.0
 40
0.3263886165
 41
-1.9959930541
 42
-1.9891427198
  0
ELLIPSE
  5
409
100
AcDbEntity
  8
0
100
AcDbEllipse
 62
7
  6
CONTINUOUS
 10
110.1910033402
 20
107.5147221762
 30
0.0
 11
0.0
 21
61.2766468779
 31
0.0
 40
0.3263886165
 41
-1.1524499338
 42
-1.1455995994
  0
ELLIPSE
  5
40A
100
AcDbEntity
  8
0
100
AcDbEllipse
 62
7
  6
CONTINUOUS
 10
110.1910033402
 20
124.3658121205
 30
0.0
 11
-0.0
 21
20.4255197403
 31
0.0
 40
0.9791672503
 41
-1.1455995994
 42
-1.1318344346
  0
ELLIPSE
  5
40B
100
AcDbEntity
  8
0
100
AcDbEllipse
 62
7
  6
CONTINUOUS
 10
110.1910033402
 20
130.1530414149
 30
0.0
 11
20.0
 21
-0.0
 31
0.0
 40
0.3404254913
 41
0.4389618922
 42
0.4597789302
  0
ELLIPSE
  5
40C
100
AcDbEntity
  8
0
100
AcDbEllipse
 62
7
  6
CONTINUOUS
 10
110.1910033402
 20
138.5147433803
 30
0.0
 11
19.75
 21
-0.0
 31
0.0
 40
0.3404254913
 41
0.2298670857
 42
0.2494132931
  0
ELLIPSE
  5
40D
100
AcDbEntity
  8
0
100
AcDbEllipse
 62
7
  6
CONTINUOUS
 10
110.1910033402
 20
135.4509160685
 30
0.0
 11
0.0
 21
20.1702007436
 31
0.0
 40
0.9791672503
 41
-1.3539100727
 42
-1.3409292411
  0
ELLIPSE
  5
40E
100
AcDbEntity
  8
0
100
AcDbEllipse
 62
7
  6
CONTINUOUS
 10
110.1910033402
 20
126.7700515518
 30
0.0
 11
0.0
 21
60.5106887919
 31
0.0
 40
0.3263886165
 41
-1.3603864387
 42
-1.3539100727
  0
ELLIPSE
  5
40F
100
AcDbEntity
  8
0
100
AcDbEllipse
 62
7
  6
CONTINUOUS
 10
110.1910033402
 20
151.663690084
 30
0.0
 11
0.0
 21
60.5106887919
 31
0.0
 40
0.3263886165
 41
-1.7876825809
 42
-1.7812062149
  0
ELLIPSE
  5
410
100
AcDbEntity
  8
0
100
AcDbEllipse
 62
7
  6
CONTINUOUS
 10
110.1910033402
 20
142.9828255673
 30
0.0
 11
0.0
 21
20.1702007436
 31
0.0
 40
0.9791672503
 41
-1.8006634125
 42
-1.7876825809
  0
ELLIPSE
  5
411
100
AcDbEntity
  8
0
100
AcDbEllipse
 62
7
  6
CONTINUOUS
 10
110.1910033402
 20
139.9189982556
 30
0.0
 11
19.75
 21
-0.0
 31
0.0
 40
0.3404254913
 41
-0.2494132931
 42
-0.2298670857
  0
ELLIPSE
  5
412
100
AcDbEntity
  8
0
100
AcDbEllipse
 62
7
  6
CONTINUOUS
 10
110.1910033402
 20
134.761551591
 30
0.0
 11
20.0
 21
-0.0
 31
0.0
 40
0.2042553906
 41
0.0125003375
 42
0.0437639687
  0
ELLIPSE
  5
413
100
AcDbEntity
  8
0
100
AcDbEllipse
 62
7
  6
CONTINUOUS
 10
110.1910033402
 20
134.4934667548
 30
0.0
 11
20.0
 21
0.0
 31
0.0
 40
0.5106380606
 41
0.0437639687
 42
0.068804286
  0
ELLIPSE
  5
414
100
AcDbEntity
  8
0
100
AcDbEllipse
 62
7
  6
CONTINUOUS
 10
110.1910033402
 20
133.7913373524
 30
0.0
 11
0.0
 21
20.4255507474
 31
0.0
 40
0.9791657639
 41
-1.5019920408
 42
-1.4769084637
  0
ELLIPSE
  5
415
100
AcDbEntity
  8
0
100
AcDbEllipse
 62
7
  6
CONTINUOUS
 10
110.1910033402
 20
131.8764473566
 30
0.0
 11
0.0
 21
40.8510466332
 31
0.0
 40
0.4895835394
 41
-1.4769084637
 42
-1.4643453999
  0
ELLIPSE
  5
416
100
AcDbEntity
  8
0
100
AcDbEllipse
 62
7
  6
CONTINUOUS
 10
110.1910033402
 20
125.3658295871
 30
0.0
 11
0.0
 21
102.1274526072
 31
0.0
 40
0.1958337302
 41
-1.4643453999
 42
-1.4580576543
  0
ELLIPSE
  5
417
100
AcDbEntity
  8
0
100
AcDbEllipse
 62
7
  6
CONTINUOUS
 10
110.1910033402
 20
123.7541037134
 30
0.0
 11
0.0
 21
52.9468124179
 31
0.0
 40
0.3730158455
 41
-1.3603864387
 42
-1.3082984464
  0
ELLIPSE
  5
418
100
AcDbEntity
  8
0
100
AcDbEllipse
 62
7
  6
CONTINUOUS
 10
110.1910033402
 20
139.9189982556
 30
0.0
 11
20.0
 21
-0.0
 31
0.0
 40
0.3404254913
 41
-0.2462306146
 42
-0.2269430423
  0
ELLIPSE
  5
419
100
AcDbEntity
  8
0
100
AcDbEllipse
 62
7
  6
CONTINUOUS
 10
110.1910033402
 20
142.9828255673
 30
0.0
 11
-0.0
 21
20.4255197403
 31
0.0
 40
0.9791672503
 41
-1.7977393691
 42
-1.7849290099
  0
ELLIPSE
  5
41A
100
AcDbEntity
  8
0
100
AcDbEllipse
 62
7
  6
CONTINUOUS
 10
110.1910033402
 20
151.663690084
 30
0.0
 11
0.0
 21
61.2766468779
 31
0.0
 40
0.3263886165
 41
-1.7849290099
 42
-1.7785373349
  0
ELLIPSE
  5
41B
100
AcDbEntity
  8
0
100
AcDbEllipse
 62
7
  6
CONTINUOUS
 10
110.1910033402
 20
126.7700515518
 30
0.0
 11
0.0
 21
61.2766468779
 31
0.0
 40
0.3263886165
 41
-1.3630553187
 42
-1.3566636437
  0
ELLIPSE
  5
41C
100
AcDbEntity
  8
0
100
AcDbEllipse
 62
7
  6
CONTINUOUS
 10
110.1910033402
 20
135.4509160685
 30
0.0
 11
-0.0
 21
20.4255197403
 31
0.0
 40
0.9791672503
 41
-1.3566636437
 42
-1.3438532845
  0
ELLIPSE
  5
41D
100
AcDbEntity
  8
0
100
AcDbEllipse
 62
7
  6
CONTINUOUS
 10
110.1910033402
 20
138.5147433803
 30
0.0
 11
20.0
 21
-0.0
 31
0.0
 40
0.3404254913
 41
0.2269430423
 42
0.2462306146
  0
ELLIPSE
  5
41E
100
AcDbEntity
  8
0
100
AcDbEllipse
 62
7
  6
CONTINUOUS
 10
110.1910033402
 20
123.7541037134
 30
0.0
 11
0.0
 21
53.6170252333
 31
0.0
 40
0.3730158455
 41
-1.3630553187
 42
-1.3116556632
  0
ENDSEC
  0
SECTION
  2
OBJECTS
  0
DICTIONARY
  5
C
100
AcDbDictionary
280
0
281
1
  3
ACAD_GROUP
350
D
  3
ACAD_MLINESTYLE
350
17
  3
ACAD_LAYOUT
350
1A
  3
ACAD_PLOTSETTINGS
350
19
  3
ACAD_PLOTSTYLENAME
350
E
  0
DICTIONARY
  5
D
102
{ACAD_REACTORS
330
C
102
}
100
AcDbDictionary
280
0
281
1
  0
ACDBDICTIONARYWDFLT
  5
E
102
{ACAD_REACTORS
330
C
102
}
100
AcDbDictionary
281
1
  3
Normal
350
F
100
AcDbDictionaryWithDefault
340
F
  0
DICTIONARY
  5
17
102
{ACAD_REACTORS
330
C
102
}
100
AcDbDictionary
280
0
281
1
  3
Standard
350
18
  0
DICTIONARY
  5
19
102
{ACAD_REACTORS
330
C
102
}
100
AcDbDictionary
281
1
  0
DICTIONARY
  5
1A
102
{ACAD_REACTORS
330
C
102
}
100
AcDbDictionary
281
1
  3
Model
350
41F
  3
Layout1
350
420
  0
ACDBPLACEHOLDER
  5
F
102
{ACAD_REACTORS
330
E
102
}
  0
MLINESTYLE
  5
18
102
{ACAD_REACTORS
330
17
102
}
100
AcDbMlineStyle
  2
STANDARD
 70
0
  3

 62
256
 51
90.0
 52
90.0
 71
2
 49
0.5
 62
256
  6
BYLAYER
 49
-0.5
 62
256
  6
BYLAYER
  0
LAYOUT
  5
41F
102
{ACAD_REACTORS
330
1A
102
}
100
AcDbPlotSettings
  1

  2
none_device
  4
ISO_A4_(297.00_x_210.00_MM)
  6

 40
0.0
 41
0.0
 42
0.0
 43
0.0
 44
297.0
 45
210.0
 46
0.0
 47
0.0
 48
0.0
 49
0.0
140
0.0
141
0.0
142
1.0
143
1.0
 70
1024
 72
1
 73
0
 74
0
  7

 75
0
147
1.0
148
0.0
149
0.0
100
AcDbLayout
  1
Model
 70
0
 71
0
 10
0.0
 20
0.0
 11
297.0
 21
210.0
 12
0.0
 22
0.0
 32
0.0
 14
0.0
 24
0.0
 34
0.0
 15
0.0
 25
0.0
 35
0.0
146
0.0
 13
0.0
 23
0.0
 33
0.0
 16
1.0
 26
0.0
 36
0.0
 17
0.0
 27
1.0
 37
0.0
 76
0
330
20C
345
0
346
0
  0
LAYOUT
  5
420
102
{ACAD_REACTORS
330
1A
102
}
100
AcDbPlotSettings
  1

  2
none_device
  4
ISO_A4_(297.00_x_210.00_MM)
  6

 40
0.0
 41
0.0
 42
0.0
 43
0.0
 44
297.0
 45
210.0
 46
0.0
 47
0.0
 48
0.0
 49
0.0
140
0.0
141
0.0
142
1.0
143
1.0
 70
0
 72
1
 73
0
 74
0
  7

 75
0
147
1.0
148
0.0
149
0.0
100
AcDbLayout
  1
Layout1
 70
0
 71
1
 10
0.0
 20
0.0
 11
297.0
 21
210.0
 12
0.0
 22
0.0
 32
0.0
 14
0.0
 24
0.0
 34
0.0
 15
0.0
 25
0.0
 35
0.0
146
0.0
 13
0.0
 23
0.0
 33
0.0
 16
1.0
 26
0.0
 36
0.0
 17
0.0
 27
1.0
 37
0.0
 76
0
330
20D
345
0
346
0
  0
ENDSEC
  0
EOF
