999
DXF file: 001-m31453-p-40.dxf
999
Pro/ENGINEER 2011490 by Parametric Technology Corporation
  0
SECTION
  2
HEADER
  9
$ACADVER
  1
AC1015
  9
$DWGCODEPAGE
  3
ANSI_1252
  9
$EXTMAX
 10
297.0
 20
210.0
 30
0.0
  9
$EXTMIN
 10
0.0
 20
0.0
 30
0.0
  9
$LIMMIN
 10
0.0
 20
0.0
  9
$LIMMAX
 10
297.0
 20
210.0
  9
$VIEWCTR
 10
148.5
 20
105.0
  9
$VIEWSIZE
 40
210.0
  9
$CLAYER
  8
0
  9
$LTSCALE
 40
16.335
  9
$CELTYPE
  6
BYLAYER
  9
$DIMSCALE
 40
1.0
  9
$DIMASZ
 40
3.5
  9
$DIMEXO
 40
1.85625
  9
$DIMDLI
 40
11.286
  9
$DIMEXE
 40
5.346
  9
$DIMCEN
 40
2.673
  9
$DIMLFAC
 40
1.0
  9
$DIMBLK
  1
_FILLED
  9
$DIMTXT
 40
3.5
  9
$DIMTOL
 70
1
  9
$DIMLIM
 70
0
  9
$DIMTFAC
 40
1.0
  9
$DIMTP
 40
0.005
  9
$DIMTM
 40
0.005
  9
$PDMODE
 70
3
  9
$PDSIZE
 40
0.3125
  9
$HANDSEED
  5
428
  9
$TILEMODE
 70
1
  9
$MEASUREMENT
 70
1
  9
$INSUNITS
 70
4
  0
ENDSEC
  0
SECTION
  2
CLASSES
  0
CLASS
  1
ACDBDICTIONARYWDFLT
  2
AcDbDictionaryWithDefault
  3
AutoCAD 2000
 90
0
280
0
281
0
  0
CLASS
  1
ACDBPLACEHOLDER
  2
AcDbPlaceHolder
  3
AutoCAD 2000
 90
0
280
0
281
0
  0
CLASS
  1
LAYOUT
  2
AcDbLayout
  3
AutoCAD 2000
 90
0
280
0
281
0
  0
ENDSEC
  0
SECTION
  2
TABLES
  0
TABLE
  2
VPORT
  5
8
100
AcDbSymbolTable
 70
2
  0
VPORT
  5
1F4
100
AcDbSymbolTableRecord
100
AcDbViewportTableRecord
  2
*ACTIVE
 70
0
 10
0.0
 20
0.0
 11
1.0
 21
1.0
 12
148.5
 22
105.0
 13
0.0
 23
0.0
 14
1.0
 24
1.0
 15
0.0
 25
0.0
 16
0.0
 26
0.0
 36
1.0
 17
0.0
 27
0.0
 37
0.0
 40
210.0
 41
1.4142857143
 42
50.0
 43
0.0
 44
0.0
 50
0.0
 51
0.0
 71
0
 72
100
 73
1
 74
1
 75
0
 76
0
 77
0
 78
0
  0
ENDTAB
  0
TABLE
  2
LTYPE
  5
5
100
AcDbSymbolTable
 70
6
  0
LTYPE
  5
14
100
AcDbSymbolTableRecord
100
AcDbLinetypeTableRecord
  2
BYBLOCK
 70
0
  3

 72
65
 73
0
 40
0.0
  0
LTYPE
  5
15
100
AcDbSymbolTableRecord
100
AcDbLinetypeTableRecord
  2
BYLAYER
 70
0
  3

 72
65
 73
0
 40
0.0
  0
LTYPE
  5
16
100
AcDbSymbolTableRecord
100
AcDbLinetypeTableRecord
  2
CONTINUOUS
 70
64
  3
Solid line
 72
65
 73
0
 40
0.0
  0
LTYPE
  5
1F5
100
AcDbSymbolTableRecord
100
AcDbLinetypeTableRecord
  2
CENTER
 70
64
  3
____ _ ____ _ ____ _ ____ _ ____ _ ____ _ ____
 72
65
 73
4
 40
0.6
 49
0.375
 74
0
 49
-0.075
 74
0
 49
0.075
 74
0
 49
-0.075
 74
0
  0
LTYPE
  5
1F6
100
AcDbSymbolTableRecord
100
AcDbLinetypeTableRecord
  2
HIDDEN
 70
64
  3
- - - - - - - - - - - - - - - - - - - -
 72
65
 73
2
 40
0.2
 49
0.1
 74
0
 49
-0.1
 74
0
  0
LTYPE
  5
1F7
100
AcDbSymbolTableRecord
100
AcDbLinetypeTableRecord
  2
PHANTOM
 70
64
  3
_____ _ _ _____ _ _ _____ _ _ _____
 72
65
 73
6
 40
0.8
 49
0.45
 74
0
 49
-0.05
 74
0
 49
0.1
 74
0
 49
-0.05
 74
0
 49
0.1
 74
0
 49
-0.05
 74
0
  0
LTYPE
  5
1F8
100
AcDbSymbolTableRecord
100
AcDbLinetypeTableRecord
  2
DOT
 70
64
  3
. . . . . . . . . . . . . . . . . . . .
 72
65
 73
2
 40
0.2
 49
0.1
 74
0
 49
-0.1
 74
0
  0
LTYPE
  5
1F9
100
AcDbSymbolTableRecord
100
AcDbLinetypeTableRecord
  2
DASHED
 70
64
  3
- - - - - - - - - - - - - - - - - - - -
 72
65
 73
2
 40
0.2
 49
0.1
 74
0
 49
-0.1
 74
0
  0
ENDTAB
  0
TABLE
  2
LAYER
  5
2
100
AcDbSymbolTable
 70
36
  0
LAYER
  5
10
100
AcDbSymbolTableRecord
100
AcDbLayerTableRecord
  2
0
 70
0
 62
7
  6
CONTINUOUS
370
-3
390
F
  0
LAYER
  5
1FA
100
AcDbSymbolTableRecord
100
AcDbLayerTableRecord
  2
DEFAULT_1
 70
0
 62
7
  6
CENTER
370
-3
390
F
  0
LAYER
  5
1FB
100
AcDbSymbolTableRecord
100
AcDbLayerTableRecord
  2
DEFAULT_2
 70
0
 62
8
  6
HIDDEN
370
-3
390
F
  0
LAYER
  5
1FC
100
AcDbSymbolTableRecord
100
AcDbLayerTableRecord
  2
DEFAULT_3
 70
0
 62
7
  6
PHANTOM
370
-3
390
F
  0
LAYER
  5
1FD
100
AcDbSymbolTableRecord
100
AcDbLayerTableRecord
  2
AUSFORMSCHRAEGEN
 70
0
 62
7
  6
CONTINUOUS
370
-3
390
F
  0
LAYER
  5
1FE
100
AcDbSymbolTableRecord
100
AcDbLayerTableRecord
  2
BEZUGSACHSEN
 70
0
 62
7
  6
CONTINUOUS
370
-3
390
F
  0
LAYER
  5
1FF
100
AcDbSymbolTableRecord
100
AcDbLayerTableRecord
  2
BEZUGSEBENEN
 70
0
 62
7
  6
CONTINUOUS
370
-3
390
F
  0
LAYER
  5
200
100
AcDbSymbolTableRecord
100
AcDbLayerTableRecord
  2
BG_STARTBEZUEGE
 70
0
 62
7
  6
CONTINUOUS
370
-3
390
F
  0
LAYER
  5
201
100
AcDbSymbolTableRecord
100
AcDbLayerTableRecord
  2
FASEN
 70
0
 62
7
  6
CONTINUOUS
370
-3
390
F
  0
LAYER
  5
202
100
AcDbSymbolTableRecord
100
AcDbLayerTableRecord
  2
HILFEN
 70
0
 62
7
  6
CONTINUOUS
370
-3
390
F
  0
LAYER
  5
203
100
AcDbSymbolTableRecord
100
AcDbLayerTableRecord
  2
KONSTRUKTIONSELEMENTE
 70
0
 62
7
  6
CONTINUOUS
370
-3
390
F
  0
LAYER
  5
204
100
AcDbSymbolTableRecord
100
AcDbLayerTableRecord
  2
KURVEN
 70
0
 62
7
  6
CONTINUOUS
370
-3
390
F
  0
LAYER
  5
205
100
AcDbSymbolTableRecord
100
AcDbLayerTableRecord
  2
NORM
 70
0
 62
7
  6
CONTINUOUS
370
-3
390
F
  0
LAYER
  5
206
100
AcDbSymbolTableRecord
100
AcDbLayerTableRecord
  2
PLATZIERUNG
 70
0
 62
7
  6
CONTINUOUS
370
-3
390
F
  0
LAYER
  5
207
100
AcDbSymbolTableRecord
100
AcDbLayerTableRecord
  2
RUNDUNGEN
 70
0
 62
7
  6
CONTINUOUS
370
-3
390
F
  0
LAYER
  5
208
100
AcDbSymbolTableRecord
100
AcDbLayerTableRecord
  2
TEIL_STARTBEZUEGE
 70
0
 62
7
  6
CONTINUOUS
370
-3
390
F
  0
LAYER
  5
209
100
AcDbSymbolTableRecord
100
AcDbLayerTableRecord
  2
T_STARTBEZUEGE
 70
0
 62
7
  6
CONTINUOUS
370
-3
390
F
  0
LAYER
  5
20A
100
AcDbSymbolTableRecord
100
AcDbLayerTableRecord
  2
ZEICHNUNGSBEMASSUNGEN
 70
0
 62
7
  6
CONTINUOUS
370
-3
390
F
  0
ENDTAB
  0
TABLE
  2
STYLE
  5
3
100
AcDbSymbolTable
 70
1
  0
STYLE
  5
11
100
AcDbSymbolTableRecord
100
AcDbTextStyleTableRecord
  2
STANDARD
 70
0
 40
0.0
 41
0.7
 50
0.0
 71
0
 42
0.2
  3
txt
  4

  0
STYLE
  5
20B
100
AcDbSymbolTableRecord
100
AcDbTextStyleTableRecord
  2
TEXTSTYLE_1
 70
0
 40
0.0
 41
0.8
 50
0.0
 71
0
 42
0.2
  3
gdt
  4

  0
ENDTAB
  0
TABLE
  2
VIEW
  5
6
100
AcDbSymbolTable
 70
0
  0
ENDTAB
  0
TABLE
  2
UCS
  5
7
100
AcDbSymbolTable
 70
0
  0
ENDTAB
  0
TABLE
  2
APPID
  5
9
100
AcDbSymbolTable
 70
1
  0
APPID
  5
20C
100
AcDbSymbolTableRecord
100
AcDbRegAppTableRecord
  2
ACAD
 70
0
  0
ENDTAB
  0
TABLE
  2
BLOCK_RECORD
  5
1
100
AcDbSymbolTable
 70
0
  0
BLOCK_RECORD
  5
20D
100
AcDbSymbolTableRecord
100
AcDbBlockTableRecord
  2
*Model_Space
  0
BLOCK_RECORD
  5
20E
100
AcDbSymbolTableRecord
100
AcDbBlockTableRecord
  2
*Paper_Space
  0
ENDTAB
  0
TABLE
  2
DIMSTYLE
  5
A
100
AcDbSymbolTable
 70
1
100
AcDbDimStyleTable
 71
0
  0
DIMSTYLE
105
20F
100
AcDbSymbolTableRecord
100
AcDbDimStyleTableRecord
  2
STANDARD
 70
0
  3

  4

 40
1.0
 41
3.5
 42
0.0625
 43
0.38
 44
0.18
 45
0.0
 46
0.0
 47
0.005
 48
0.005
140
3.5
141
0.09
142
0.0
143
25.4
144
1.0
145
0.0
146
1.0
147
0.09
 71
1.0
 72
0.0
 73
0
 74
0
 75
0
 76
0
 77
1
 78
8
170
0
171
2
172
0
173
0
174
0
175
0
176
0
177
0
178
5
270
2
271
3
272
3
273
2
274
2
275
0
280
0
281
0
282
0
283
1
284
8
285
0
286
0
287
3
288
0
340
11
  0
ENDTAB
  0
ENDSEC
  0
SECTION
  2
BLOCKS
  0
BLOCK
  5
20
100
AcDbEntity
  8
0
100
AcDbBlockBegin
  2
*Model_Space
 70
0
 10
0.0
 20
0.0
 30
0.0
  3
*Model_Space
  1

  0
ENDBLK
  5
21
100
AcDbEntity
  8
0
100
AcDbBlockEnd
  0
BLOCK
  5
1C
100
AcDbEntity
  8
0
100
AcDbBlockBegin
  2
*Paper_Space
 70
0
 10
0.0
 20
0.0
 30
0.0
  3
*Paper_Space
  1

  0
ENDBLK
  5
1D
100
AcDbEntity
  8
0
100
AcDbBlockEnd
  0
ENDSEC
  0
SECTION
  2
ENTITIES
  0
MTEXT
  5
210
100
AcDbEntity
  8
0
100
AcDbMText
 62
5
  6
CONTINUOUS
  7
STANDARD
 71
2
 72
1
 10
98.9009334087
 20
50.105197564
 30
0.0
 11
0.0
 21
1.0
 31
0.0
 44
0.9
  1
RUD WPP\PVIP 4 0,63t
 40
4.0
 41
32.1904761905
  0
MTEXT
  5
211
100
AcDbEntity
  8
0
100
AcDbMText
 62
5
  6
CONTINUOUS
  7
STANDARD
 71
2
 72
1
 10
200.2577996475
 20
138.2139223266
 30
0.0
 11
1.0
 21
0.0
 31
0.0
 44
0.9
  1
RUD\PWPP 0,63t
 40
4.0
 41
28.5714285714
  0
LINE
  5
212
100
AcDbEntity
  8
0
100
AcDbLine
 62
7
  6
CONTINUOUS
 10
0.0
 20
0.0
 11
0.0
 21
210.0
  0
LINE
  5
213
100
AcDbEntity
  8
0
100
AcDbLine
 62
7
  6
CONTINUOUS
 10
0.0
 20
0.0
 11
297.0
 21
0.0
  0
LINE
  5
214
100
AcDbEntity
  8
0
100
AcDbLine
 62
7
  6
CONTINUOUS
 10
0.0
 20
210.0
 11
297.0
 21
210.0
  0
LINE
  5
215
100
AcDbEntity
  8
0
100
AcDbLine
 62
7
  6
CONTINUOUS
 10
297.0
 20
0.0
 11
297.0
 21
210.0
  0
LINE
  5
216
100
AcDbEntity
  8
FASEN
100
AcDbLine
 62
7
  6
CONTINUOUS
 10
84.1061978859
 20
115.9402648486
 11
83.606197886
 21
116.4402648485
  0
LINE
  5
217
100
AcDbEntity
  8
FASEN
100
AcDbLine
 62
7
  6
CONTINUOUS
 10
123.1061978842
 20
115.9402648501
 11
84.1061978848
 21
115.9402648501
  0
LINE
  5
218
100
AcDbEntity
  8
FASEN
100
AcDbLine
 62
7
  6
CONTINUOUS
 10
123.6061978845
 20
116.4402648501
 11
83.6061978845
 21
116.4402648501
  0
LINE
  5
219
100
AcDbEntity
  8
FASEN
100
AcDbLine
 62
7
  6
CONTINUOUS
 10
83.6061978845
 20
123.9402648501
 11
83.6061978845
 21
116.4402648501
  0
LINE
  5
21A
100
AcDbEntity
  8
0
100
AcDbLine
 62
7
  6
CONTINUOUS
 10
83.6061978845
 20
123.9402648501
 11
83.6061978845
 21
116.4402648501
  0
LINE
  5
21B
100
AcDbEntity
  8
0
100
AcDbLine
 62
7
  6
CONTINUOUS
 10
86.6061978845
 20
140.3402648501
 11
86.6061978845
 21
124.4402648501
  0
LINE
  5
21C
100
AcDbEntity
  8
FASEN
100
AcDbLine
 62
7
  6
CONTINUOUS
 10
83.6061978845
 20
123.9402648501
 11
123.6061978845
 21
123.9402648501
  0
LINE
  5
21D
100
AcDbEntity
  8
FASEN
100
AcDbLine
 62
7
  6
CONTINUOUS
 10
84.1061978848
 20
124.4402648501
 11
123.1061978842
 21
124.4402648501
  0
LINE
  5
21E
100
AcDbEntity
  8
0
100
AcDbLine
 62
7
  6
CONTINUOUS
 10
120.6061978845
 20
125.8296265534
 11
120.8561978845
 21
125.8296265534
  0
LINE
  5
21F
100
AcDbEntity
  8
0
100
AcDbLine
 62
7
  6
CONTINUOUS
 10
114.5606490346
 20
126.3402648501
 11
115.4936913124
 21
126.3402648501
  0
LINE
  5
220
100
AcDbEntity
  8
0
100
AcDbLine
 62
7
  6
CONTINUOUS
 10
117.8693497101
 20
126.3402648501
 11
118.4722666318
 21
126.3402648501
  0
LINE
  5
221
100
AcDbEntity
  8
0
100
AcDbLine
 62
7
  6
CONTINUOUS
 10
120.4675606461
 20
126.3402648501
 11
120.7195860405
 21
126.3402648501
  0
LINE
  5
222
100
AcDbEntity
  8
0
100
AcDbLine
 62
7
  6
CONTINUOUS
 10
120.3957448466
 20
126.4253712303
 11
120.6488322816
 21
126.4253712303
  0
LINE
  5
223
100
AcDbEntity
  8
0
100
AcDbLine
 62
7
  6
CONTINUOUS
 10
120.3242437486
 20
126.6806903712
 11
120.578397433
 21
126.6806903712
  0
LINE
  5
224
100
AcDbEntity
  8
0
100
AcDbLine
 62
7
  6
CONTINUOUS
 10
120.8108484185
 20
126.7657967738
 11
120.848949985
 21
126.7657967738
  0
LINE
  5
225
100
AcDbEntity
  8
0
100
AcDbLine
 62
7
  6
CONTINUOUS
 10
120.6616630066
 20
126.8509031467
 11
120.7672001862
 21
126.8509031467
  0
LINE
  5
226
100
AcDbEntity
  8
0
100
AcDbLine
 62
7
  6
CONTINUOUS
 10
120.2761976148
 20
126.9360095195
 11
120.531072803
 21
126.9360095195
  0
LINE
  5
227
100
AcDbEntity
  8
0
100
AcDbLine
 62
7
  6
CONTINUOUS
 10
120.6219177935
 20
127.0211158923
 11
120.7908567405
 21
127.0211158923
  0
LINE
  5
228
100
AcDbEntity
  8
0
100
AcDbLine
 62
7
  6
CONTINUOUS
 10
120.2420026441
 20
127.2764350704
 11
120.4973938161
 21
127.2764350704
  0
LINE
  5
229
100
AcDbEntity
  8
0
100
AcDbLine
 62
7
  6
CONTINUOUS
 10
120.2242520576
 20
127.5317541889
 11
120.4799118947
 21
127.5317541889
  0
LINE
  5
22A
100
AcDbEntity
  8
0
100
AcDbLine
 62
7
  6
CONTINUOUS
 10
120.5661179358
 20
127.5317541889
 11
120.8167001475
 21
127.5317541889
  0
LINE
  5
22B
100
AcDbEntity
  8
0
100
AcDbLine
 62
7
  6
CONTINUOUS
 10
119.6919058266
 20
127.7870733074
 11
120.3030456402
 21
127.7870733074
  0
LINE
  5
22C
100
AcDbEntity
  8
0
100
AcDbLine
 62
7
  6
CONTINUOUS
 10
120.3030456402
 20
127.9572861723
 11
120.4619996519
 21
127.9572861723
  0
LINE
  5
22D
100
AcDbEntity
  8
0
100
AcDbLine
 62
7
  6
CONTINUOUS
 10
120.5716448157
 20
128.0423925451
 11
120.8221465826
 21
128.0423925451
  0
LINE
  5
22E
100
AcDbEntity
  8
0
100
AcDbLine
 62
7
  6
CONTINUOUS
 10
119.258673727
 20
128.127498918
 11
118.4722666318
 21
128.127498918
  0
LINE
  5
22F
100
AcDbEntity
  8
0
100
AcDbLine
 62
7
  6
CONTINUOUS
 10
116.8938801504
 20
128.127498918
 11
115.4936913124
 21
128.127498918
  0
LINE
  5
230
100
AcDbEntity
  8
0
100
AcDbLine
 62
7
  6
CONTINUOUS
 10
119.6919058266
 20
128.2126052908
 11
120.3030456402
 21
128.2126052908
  0
LINE
  5
231
100
AcDbEntity
  8
0
100
AcDbLine
 62
7
  6
CONTINUOUS
 10
119.2970038283
 20
128.638137155
 11
118.4722666318
 21
128.638137155
  0
LINE
  5
232
100
AcDbEntity
  8
0
100
AcDbLine
 62
7
  6
CONTINUOUS
 10
116.9624281593
 20
128.638137155
 11
115.4936913124
 21
128.638137155
  0
LINE
  5
233
100
AcDbEntity
  8
0
100
AcDbLine
 62
7
  6
CONTINUOUS
 10
120.5716448157
 20
128.638137155
 11
120.8221465826
 21
128.638137155
  0
LINE
  5
234
100
AcDbEntity
  8
0
100
AcDbLine
 62
7
  6
CONTINUOUS
 10
116.8433509215
 20
128.7232435278
 11
117.1629202216
 21
128.7232435278
  0
LINE
  5
235
100
AcDbEntity
  8
0
100
AcDbLine
 62
7
  6
CONTINUOUS
 10
119.1355161058
 20
128.7232435278
 11
119.4087997089
 21
128.7232435278
  0
LINE
  5
236
100
AcDbEntity
  8
0
100
AcDbLine
 62
7
  6
CONTINUOUS
 10
120.2060639449
 20
128.7232435278
 11
120.4619996519
 21
128.7232435278
  0
LINE
  5
237
100
AcDbEntity
  8
0
100
AcDbLine
 62
7
  6
CONTINUOUS
 10
116.9759398416
 20
128.8934562735
 11
117.2924135776
 21
128.8934562735
  0
LINE
  5
238
100
AcDbEntity
  8
0
100
AcDbLine
 62
7
  6
CONTINUOUS
 10
119.2086816611
 20
128.8934562735
 11
119.4807057509
 21
128.8934562735
  0
LINE
  5
239
100
AcDbEntity
  8
0
100
AcDbLine
 62
7
  6
CONTINUOUS
 10
117.0409682174
 20
129.148775392
 11
117.3559452967
 21
129.148775392
  0
LINE
  5
23A
100
AcDbEntity
  8
0
100
AcDbLine
 62
7
  6
CONTINUOUS
 10
119.2444700932
 20
129.148775392
 11
119.5158822834
 21
129.148775392
  0
LINE
  5
23B
100
AcDbEntity
  8
0
100
AcDbLine
 62
7
  6
CONTINUOUS
 10
120.2242520576
 20
129.148775392
 11
120.4799118947
 21
129.148775392
  0
LINE
  5
23C
100
AcDbEntity
  8
0
100
AcDbLine
 62
7
  6
CONTINUOUS
 10
120.5661179358
 20
129.148775392
 11
120.8167001475
 21
129.148775392
  0
LINE
  5
23D
100
AcDbEntity
  8
0
100
AcDbLine
 62
7
  6
CONTINUOUS
 10
117.0409682174
 20
129.4040947489
 11
117.3559452967
 21
129.4040947489
  0
LINE
  5
23E
100
AcDbEntity
  8
0
100
AcDbLine
 62
7
  6
CONTINUOUS
 10
119.2444700932
 20
129.4040947489
 11
119.5158822834
 21
129.4040947489
  0
LINE
  5
23F
100
AcDbEntity
  8
0
100
AcDbLine
 62
7
  6
CONTINUOUS
 10
120.2420026441
 20
129.4040947489
 11
120.4973938161
 21
129.4040947489
  0
LINE
  5
240
100
AcDbEntity
  8
0
100
AcDbLine
 62
7
  6
CONTINUOUS
 10
116.9759398416
 20
129.6594138674
 11
117.2924135776
 21
129.6594138674
  0
LINE
  5
241
100
AcDbEntity
  8
0
100
AcDbLine
 62
7
  6
CONTINUOUS
 10
119.2086816611
 20
129.6594138674
 11
119.4807057509
 21
129.6594138674
  0
LINE
  5
242
100
AcDbEntity
  8
0
100
AcDbLine
 62
7
  6
CONTINUOUS
 10
120.6219177935
 20
129.6594138674
 11
120.7908567405
 21
129.6594138674
  0
LINE
  5
243
100
AcDbEntity
  8
0
100
AcDbLine
 62
7
  6
CONTINUOUS
 10
120.2761976148
 20
129.7445202402
 11
120.531072803
 21
129.7445202402
  0
LINE
  5
244
100
AcDbEntity
  8
0
100
AcDbLine
 62
7
  6
CONTINUOUS
 10
116.8433509215
 20
129.8296266131
 11
117.1629202216
 21
129.8296266131
  0
LINE
  5
245
100
AcDbEntity
  8
0
100
AcDbLine
 62
7
  6
CONTINUOUS
 10
119.1355161058
 20
129.8296266131
 11
119.4087997089
 21
129.8296266131
  0
LINE
  5
246
100
AcDbEntity
  8
0
100
AcDbLine
 62
7
  6
CONTINUOUS
 10
120.6616630066
 20
129.8296266131
 11
120.7672001862
 21
129.8296266131
  0
LINE
  5
247
100
AcDbEntity
  8
0
100
AcDbLine
 62
7
  6
CONTINUOUS
 10
119.2970038283
 20
129.9147329859
 11
118.4722666318
 21
129.9147329859
  0
LINE
  5
248
100
AcDbEntity
  8
0
100
AcDbLine
 62
7
  6
CONTINUOUS
 10
116.9624281593
 20
129.9147329859
 11
115.4936913124
 21
129.9147329859
  0
LINE
  5
249
100
AcDbEntity
  8
0
100
AcDbLine
 62
7
  6
CONTINUOUS
 10
120.3242437486
 20
129.9998393587
 11
120.578397433
 21
129.9998393587
  0
LINE
  5
24A
100
AcDbEntity
  8
0
100
AcDbLine
 62
7
  6
CONTINUOUS
 10
120.3957448466
 20
130.2551584772
 11
120.6488322816
 21
130.2551584772
  0
LINE
  5
24B
100
AcDbEntity
  8
0
100
AcDbLine
 62
7
  6
CONTINUOUS
 10
114.5606490346
 20
130.3402648501
 11
116.8938801504
 21
130.3402648501
  0
LINE
  5
24C
100
AcDbEntity
  8
0
100
AcDbLine
 62
7
  6
CONTINUOUS
 10
117.8693497101
 20
130.3402648501
 11
119.258673727
 21
130.3402648501
  0
LINE
  5
24D
100
AcDbEntity
  8
0
100
AcDbLine
 62
7
  6
CONTINUOUS
 10
120.4675606461
 20
130.3402648501
 11
120.7195860405
 21
130.3402648501
  0
LINE
  5
24E
100
AcDbEntity
  8
0
100
AcDbLine
 62
7
  6
CONTINUOUS
 10
96.6061978845
 20
148.3002648501
 11
96.6061978845
 21
149.966931477
  0
LINE
  5
24F
100
AcDbEntity
  8
0
100
AcDbLine
 62
7
  6
CONTINUOUS
 10
96.6061978845
 20
150.2170981754
 11
96.6061978845
 21
152.4252648501
  0
LINE
  5
250
100
AcDbEntity
  8
0
100
AcDbLine
 62
7
  6
CONTINUOUS
 10
96.6061978845
 20
152.7670981754
 11
96.6061978845
 21
154.4164374367
  0
LINE
  5
251
100
AcDbEntity
  8
0
100
AcDbLine
 62
7
  6
CONTINUOUS
 10
96.6061978845
 20
154.7585983423
 11
96.6061978845
 21
156.4252648501
  0
LINE
  5
252
100
AcDbEntity
  8
RUNDUNGEN
100
AcDbLine
 62
7
  6
CONTINUOUS
 10
97.1061978845
 20
145.8402648577
 11
97.1061978845
 21
158.3402648501
  0
LINE
  5
253
100
AcDbEntity
  8
0
100
AcDbLine
 62
7
  6
CONTINUOUS
 10
119.8542746937
 20
132.3402648501
 11
120.2589003678
 21
132.3402648501
  0
LINE
  5
254
100
AcDbEntity
  8
0
100
AcDbLine
 62
7
  6
CONTINUOUS
 10
120.433548295
 20
132.3402648501
 11
120.8553927142
 21
132.3402648501
  0
LINE
  5
255
100
AcDbEntity
  8
0
100
AcDbLine
 62
7
  6
CONTINUOUS
 10
120.7584977064
 20
132.4253712303
 11
120.8543861951
 21
132.4253712303
  0
LINE
  5
256
100
AcDbEntity
  8
0
100
AcDbLine
 62
7
  6
CONTINUOUS
 10
120.7474973639
 20
132.5955839984
 11
120.8463319337
 21
132.5955839984
  0
LINE
  5
257
100
AcDbEntity
  8
0
100
AcDbLine
 62
7
  6
CONTINUOUS
 10
120.7323841771
 20
132.9360095195
 11
120.8318247965
 21
132.9360095195
  0
LINE
  5
258
100
AcDbEntity
  8
0
100
AcDbLine
 62
7
  6
CONTINUOUS
 10
120.7162693876
 20
133.2764350704
 11
120.8221465676
 21
133.2764350704
  0
LINE
  5
259
100
AcDbEntity
  8
0
100
AcDbLine
 62
7
  6
CONTINUOUS
 10
120.6944991435
 20
133.7019669346
 11
120.8167001637
 21
133.7019669346
  0
LINE
  5
25A
100
AcDbEntity
  8
0
100
AcDbLine
 62
7
  6
CONTINUOUS
 10
120.578397368
 20
134.127498918
 11
120.2589003678
 21
134.127498918
  0
LINE
  5
25B
100
AcDbEntity
  8
0
100
AcDbLine
 62
7
  6
CONTINUOUS
 10
120.6078317792
 20
134.638137155
 11
120.2589003678
 21
134.638137155
  0
LINE
  5
25C
100
AcDbEntity
  8
0
100
AcDbLine
 62
7
  6
CONTINUOUS
 10
120.3957448845
 20
134.7232435278
 11
120.6488323189
 21
134.7232435278
  0
LINE
  5
25D
100
AcDbEntity
  8
0
100
AcDbLine
 62
7
  6
CONTINUOUS
 10
120.4213696053
 20
134.8934562735
 11
120.6740770732
 21
134.8934562735
  0
LINE
  5
25E
100
AcDbEntity
  8
0
100
AcDbLine
 62
7
  6
CONTINUOUS
 10
120.433548295
 20
135.148775392
 11
120.6860755725
 21
135.148775392
  0
LINE
  5
25F
100
AcDbEntity
  8
0
100
AcDbLine
 62
7
  6
CONTINUOUS
 10
120.433548295
 20
135.4040947489
 11
120.6860755725
 21
135.4040947489
  0
LINE
  5
260
100
AcDbEntity
  8
0
100
AcDbLine
 62
7
  6
CONTINUOUS
 10
120.4213696053
 20
135.6594138674
 11
120.6740770732
 21
135.6594138674
  0
LINE
  5
261
100
AcDbEntity
  8
0
100
AcDbLine
 62
7
  6
CONTINUOUS
 10
120.3957448845
 20
135.8296266131
 11
120.6488323189
 21
135.8296266131
  0
LINE
  5
262
100
AcDbEntity
  8
0
100
AcDbLine
 62
7
  6
CONTINUOUS
 10
120.6078317792
 20
135.9147329859
 11
120.2589003678
 21
135.9147329859
  0
LINE
  5
263
100
AcDbEntity
  8
0
100
AcDbLine
 62
7
  6
CONTINUOUS
 10
119.8542746937
 20
136.3402648501
 11
120.843310629
 21
136.3402648501
  0
LINE
  5
264
100
AcDbEntity
  8
FASEN
100
AcDbLine
 62
7
  6
CONTINUOUS
 10
84.1061978859
 20
124.4402648515
 11
83.606197886
 21
123.9402648516
  0
LINE
  5
265
100
AcDbEntity
  8
RUNDUNGEN
100
AcDbLine
 62
7
  6
CONTINUOUS
 10
119.1057850044
 20
141.8402648501
 11
114.106090789
 21
141.8402648501
  0
LINE
  5
266
100
AcDbEntity
  8
RUNDUNGEN
100
AcDbLine
 62
7
  6
CONTINUOUS
 10
93.106277986
 20
141.8402648501
 11
88.1061978845
 21
141.8402648501
  0
LINE
  5
267
100
AcDbEntity
  8
FASEN
100
AcDbLine
 62
7
  6
CONTINUOUS
 10
123.1061978837
 20
124.4402648508
 11
123.6061978837
 21
123.9402648509
  0
LINE
  5
268
100
AcDbEntity
  8
RUNDUNGEN
100
AcDbLine
 62
7
  6
CONTINUOUS
 10
110.1061978845
 20
145.8402648501
 11
110.1061978845
 21
158.3402648501
  0
LINE
  5
269
100
AcDbEntity
  8
0
100
AcDbLine
 62
7
  6
CONTINUOUS
 10
97.1061978845
 20
148.3002648501
 11
96.6061978845
 21
148.3002648501
  0
LINE
  5
26A
100
AcDbEntity
  8
0
100
AcDbLine
 62
7
  6
CONTINUOUS
 10
97.1061978845
 20
148.9669315366
 11
96.6061978845
 21
148.9669315366
  0
LINE
  5
26B
100
AcDbEntity
  8
0
100
AcDbLine
 62
7
  6
CONTINUOUS
 10
97.1061978845
 20
149.3002648501
 11
96.6061978845
 21
149.3002648501
  0
LINE
  5
26C
100
AcDbEntity
  8
0
100
AcDbLine
 62
7
  6
CONTINUOUS
 10
97.1061978845
 20
149.966931477
 11
96.6061978845
 21
149.966931477
  0
LINE
  5
26D
100
AcDbEntity
  8
0
100
AcDbLine
 62
7
  6
CONTINUOUS
 10
97.1061978845
 20
150.2164374367
 11
96.6061978845
 21
150.2164374367
  0
LINE
  5
26E
100
AcDbEntity
  8
0
100
AcDbLine
 62
7
  6
CONTINUOUS
 10
114.5606490346
 20
130.3402648501
 11
114.5606490346
 21
126.3402648501
  0
LINE
  5
26F
100
AcDbEntity
  8
0
100
AcDbLine
 62
7
  6
CONTINUOUS
 10
114.9447383549
 20
130.3402648501
 11
114.9447383549
 21
126.3402648501
  0
LINE
  5
270
100
AcDbEntity
  8
0
100
AcDbLine
 62
7
  6
CONTINUOUS
 10
115.4936913124
 20
129.9147329859
 11
115.4936913124
 21
128.638137155
  0
LINE
  5
271
100
AcDbEntity
  8
0
100
AcDbLine
 62
7
  6
CONTINUOUS
 10
115.4936913124
 20
128.127498918
 11
115.4936913124
 21
126.3402648501
  0
LINE
  5
272
100
AcDbEntity
  8
0
100
AcDbLine
 62
7
  6
CONTINUOUS
 10
97.1061978845
 20
151.8664374367
 11
96.6061978845
 21
151.8664374367
  0
LINE
  5
273
100
AcDbEntity
  8
0
100
AcDbLine
 62
7
  6
CONTINUOUS
 10
97.1061978845
 20
151.8835981039
 11
96.6061978845
 21
151.8835981039
  0
LINE
  5
274
100
AcDbEntity
  8
0
100
AcDbLine
 62
7
  6
CONTINUOUS
 10
97.1061978845
 20
152.0919315962
 11
96.6061978845
 21
152.0919315962
  0
LINE
  5
275
100
AcDbEntity
  8
0
100
AcDbLine
 62
7
  6
CONTINUOUS
 10
97.1061978845
 20
152.2585981039
 11
96.6061978845
 21
152.2585981039
  0
LINE
  5
276
100
AcDbEntity
  8
0
100
AcDbLine
 62
7
  6
CONTINUOUS
 10
97.1061978845
 20
152.3835983423
 11
96.6061978845
 21
152.3835983423
  0
LINE
  5
277
100
AcDbEntity
  8
0
100
AcDbLine
 62
7
  6
CONTINUOUS
 10
97.1061978845
 20
152.4252648501
 11
96.6061978845
 21
152.4252648501
  0
LINE
  5
278
100
AcDbEntity
  8
0
100
AcDbLine
 62
7
  6
CONTINUOUS
 10
97.1061978845
 20
152.7664374367
 11
96.6061978845
 21
152.7664374367
  0
LINE
  5
279
100
AcDbEntity
  8
0
100
AcDbLine
 62
7
  6
CONTINUOUS
 10
117.0409682174
 20
129.4040947489
 11
117.0409682174
 21
129.148775392
  0
LINE
  5
27A
100
AcDbEntity
  8
0
100
AcDbLine
 62
7
  6
CONTINUOUS
 10
117.3559452967
 20
129.4040947489
 11
117.3559452967
 21
129.148775392
  0
LINE
  5
27B
100
AcDbEntity
  8
0
100
AcDbLine
 62
7
  6
CONTINUOUS
 10
117.7208080685
 20
129.4040947489
 11
117.7208080685
 21
129.0636690191
  0
LINE
  5
27C
100
AcDbEntity
  8
0
100
AcDbLine
 62
7
  6
CONTINUOUS
 10
117.8693497101
 20
130.3402648501
 11
117.8693497101
 21
126.3402648501
  0
LINE
  5
27D
100
AcDbEntity
  8
0
100
AcDbLine
 62
7
  6
CONTINUOUS
 10
118.166417663
 20
130.3402648501
 11
118.166417663
 21
126.3402648501
  0
LINE
  5
27E
100
AcDbEntity
  8
0
100
AcDbLine
 62
7
  6
CONTINUOUS
 10
118.4722666318
 20
129.9147329859
 11
118.4722666318
 21
128.638137155
  0
LINE
  5
27F
100
AcDbEntity
  8
0
100
AcDbLine
 62
7
  6
CONTINUOUS
 10
118.4722666318
 20
128.127498918
 11
118.4722666318
 21
126.3402648501
  0
LINE
  5
280
100
AcDbEntity
  8
0
100
AcDbLine
 62
7
  6
CONTINUOUS
 10
97.1061978845
 20
154.4164374367
 11
96.6061978845
 21
154.4164374367
  0
LINE
  5
281
100
AcDbEntity
  8
0
100
AcDbLine
 62
7
  6
CONTINUOUS
 10
97.1061978845
 20
154.7585983423
 11
96.6061978845
 21
154.7585983423
  0
LINE
  5
282
100
AcDbEntity
  8
0
100
AcDbLine
 62
7
  6
CONTINUOUS
 10
119.2444700932
 20
129.4040947489
 11
119.2444700932
 21
129.148775392
  0
LINE
  5
283
100
AcDbEntity
  8
0
100
AcDbLine
 62
7
  6
CONTINUOUS
 10
119.5158822834
 20
129.4040947489
 11
119.5158822834
 21
129.148775392
  0
LINE
  5
284
100
AcDbEntity
  8
0
100
AcDbLine
 62
7
  6
CONTINUOUS
 10
119.6919058266
 20
128.2126052908
 11
119.6919058266
 21
127.7870733074
  0
LINE
  5
285
100
AcDbEntity
  8
0
100
AcDbLine
 62
7
  6
CONTINUOUS
 10
119.71627933
 20
129.4040947489
 11
119.71627933
 21
129.0636690191
  0
LINE
  5
286
100
AcDbEntity
  8
0
100
AcDbLine
 62
7
  6
CONTINUOUS
 10
119.8542746937
 20
136.3402648501
 11
119.8542746937
 21
132.3402648501
  0
LINE
  5
287
100
AcDbEntity
  8
0
100
AcDbLine
 62
7
  6
CONTINUOUS
 10
119.9558920712
 20
128.2126052908
 11
119.9558920712
 21
127.7870733074
  0
LINE
  5
288
100
AcDbEntity
  8
0
100
AcDbLine
 62
7
  6
CONTINUOUS
 10
120.1156648656
 20
136.3402648501
 11
120.1156648656
 21
132.3402648501
  0
LINE
  5
289
100
AcDbEntity
  8
0
100
AcDbLine
 62
7
  6
CONTINUOUS
 10
120.2060639449
 20
128.2126052908
 11
120.2060639449
 21
128.7232435278
  0
LINE
  5
28A
100
AcDbEntity
  8
0
100
AcDbLine
 62
7
  6
CONTINUOUS
 10
120.2589003678
 20
135.9147329859
 11
120.2589003678
 21
134.638137155
  0
LINE
  5
28B
100
AcDbEntity
  8
0
100
AcDbLine
 62
7
  6
CONTINUOUS
 10
120.2589003678
 20
134.127498918
 11
120.2589003678
 21
132.3402648501
  0
LINE
  5
28C
100
AcDbEntity
  8
0
100
AcDbLine
 62
7
  6
CONTINUOUS
 10
120.3030456402
 20
128.2126052908
 11
120.3030456402
 21
127.7870733074
  0
LINE
  5
28D
100
AcDbEntity
  8
0
100
AcDbLine
 62
7
  6
CONTINUOUS
 10
120.433548295
 20
135.4040947489
 11
120.433548295
 21
135.148775392
  0
LINE
  5
28E
100
AcDbEntity
  8
0
100
AcDbLine
 62
7
  6
CONTINUOUS
 10
120.4619996519
 20
127.9572861723
 11
120.4619996519
 21
128.7232435278
  0
LINE
  5
28F
100
AcDbEntity
  8
0
100
AcDbLine
 62
7
  6
CONTINUOUS
 10
120.5472722306
 20
128.638137155
 11
120.5472722306
 21
128.0423925451
  0
LINE
  5
290
100
AcDbEntity
  8
0
100
AcDbLine
 62
7
  6
CONTINUOUS
 10
120.5716448157
 20
128.638137155
 11
120.5716448157
 21
128.0423925451
  0
LINE
  5
291
100
AcDbEntity
  8
0
100
AcDbLine
 62
7
  6
CONTINUOUS
 10
120.6061978845
 20
140.3402648501
 11
120.6061978845
 21
136.3402648501
  0
LINE
  5
292
100
AcDbEntity
  8
0
100
AcDbLine
 62
7
  6
CONTINUOUS
 10
120.6061978845
 20
132.3402648501
 11
120.6061978845
 21
130.3402648501
  0
LINE
  5
293
100
AcDbEntity
  8
0
100
AcDbLine
 62
7
  6
CONTINUOUS
 10
120.6061978845
 20
126.3402648501
 11
120.6061978845
 21
124.4402648501
  0
LINE
  5
294
100
AcDbEntity
  8
0
100
AcDbLine
 62
7
  6
CONTINUOUS
 10
120.6860755725
 20
135.4040947489
 11
120.6860755725
 21
135.148775392
  0
LINE
  5
295
100
AcDbEntity
  8
0
100
AcDbLine
 62
7
  6
CONTINUOUS
 10
97.1061978845
 20
155.7585983423
 11
96.6061978845
 21
155.7585983423
  0
LINE
  5
296
100
AcDbEntity
  8
0
100
AcDbLine
 62
7
  6
CONTINUOUS
 10
97.1061978845
 20
156.0085983423
 11
96.6061978845
 21
156.0085983423
  0
LINE
  5
297
100
AcDbEntity
  8
0
100
AcDbLine
 62
7
  6
CONTINUOUS
 10
97.1061978845
 20
156.4252648501
 11
96.6061978845
 21
156.4252648501
  0
LINE
  5
298
100
AcDbEntity
  8
0
100
AcDbLine
 62
7
  6
CONTINUOUS
 10
120.7493857031
 20
135.4040947489
 11
120.7493857031
 21
135.0636690191
  0
LINE
  5
299
100
AcDbEntity
  8
0
100
AcDbLine
 62
7
  6
CONTINUOUS
 10
120.8167001637
 20
136.3402648501
 11
120.8167001637
 21
133.7019669346
  0
LINE
  5
29A
100
AcDbEntity
  8
0
100
AcDbLine
 62
7
  6
CONTINUOUS
 10
120.8221465826
 20
128.638137155
 11
120.8221465826
 21
128.0423925451
  0
LINE
  5
29B
100
AcDbEntity
  8
0
100
AcDbLine
 62
7
  6
CONTINUOUS
 10
120.843310629
 20
136.3402648501
 11
120.843310629
 21
133.7019669346
  0
LINE
  5
29C
100
AcDbEntity
  8
0
100
AcDbLine
 62
7
  6
CONTINUOUS
 10
120.8433106105
 20
128.7232435278
 11
120.8433106105
 21
127.9572861723
  0
LINE
  5
29D
100
AcDbEntity
  8
0
100
AcDbLine
 62
7
  6
CONTINUOUS
 10
120.8561978845
 20
132.8934563331
 11
120.8561978845
 21
132.5955839984
  0
LINE
  5
29E
100
AcDbEntity
  8
FASEN
100
AcDbLine
 62
7
  6
CONTINUOUS
 10
123.6061978845
 20
123.9402648501
 11
123.6061978845
 21
116.4402648501
  0
LINE
  5
29F
100
AcDbEntity
  8
0
100
AcDbLine
 62
7
  6
CONTINUOUS
 10
123.6061978845
 20
123.9402648501
 11
123.6061978845
 21
116.4402648501
  0
LINE
  5
2A0
100
AcDbEntity
  8
FASEN
100
AcDbLine
 62
7
  6
CONTINUOUS
 10
123.1061978837
 20
115.9402648493
 11
123.6061978837
 21
116.4402648492
  0
LINE
  5
2A1
100
AcDbEntity
  8
FASEN
100
AcDbLine
 62
7
  6
CONTINUOUS
 10
180.4146085525
 20
115.9402648501
 11
179.9146085525
 21
116.4402648501
  0
LINE
  5
2A2
100
AcDbEntity
  8
RUNDUNGEN
100
AcDbLine
 62
7
  6
CONTINUOUS
 10
188.0048717675
 20
164.4830524597
 11
187.4994974447
 21
163.8807707949
  0
LINE
  5
2A3
100
AcDbEntity
  8
FASEN
100
AcDbLine
 62
7
  6
CONTINUOUS
 10
219.4146085525
 20
115.9402648501
 11
180.4146085525
 21
115.9402648501
  0
LINE
  5
2A4
100
AcDbEntity
  8
FASEN
100
AcDbLine
 62
7
  6
CONTINUOUS
 10
219.9146085525
 20
116.4402648501
 11
179.9146085525
 21
116.4402648501
  0
LINE
  5
2A5
100
AcDbEntity
  8
0
100
AcDbLine
 62
7
  6
CONTINUOUS
 10
179.9146085525
 20
123.94026485
 11
179.9146085525
 21
116.4402648501
  0
LINE
  5
2A6
100
AcDbEntity
  8
RUNDUNGEN
100
AcDbLine
 62
7
  6
CONTINUOUS
 10
186.4456974657
 20
154.4562902538
 11
183.0485831487
 21
148.5723156576
  0
LINE
  5
2A7
100
AcDbEntity
  8
0
100
AcDbLine
 62
7
  6
CONTINUOUS
 10
182.9146085525
 20
148.0723156576
 11
182.9146085525
 21
124.4402648501
  0
LINE
  5
2A8
100
AcDbEntity
  8
0
100
AcDbLine
 62
7
  6
CONTINUOUS
 10
189.2798212981
 20
152.2585981039
 11
189.1521617389
 21
152.0919315962
  0
LINE
  5
2A9
100
AcDbEntity
  8
0
100
AcDbLine
 62
7
  6
CONTINUOUS
 10
189.364927671
 20
152.0502648501
 11
189.4500340438
 21
152.1335981039
  0
LINE
  5
2AA
100
AcDbEntity
  8
0
100
AcDbLine
 62
7
  6
CONTINUOUS
 10
189.4500340438
 20
152.3835983423
 11
189.2798212981
 21
152.2585981039
  0
LINE
  5
2AB
100
AcDbEntity
  8
0
100
AcDbLine
 62
7
  6
CONTINUOUS
 10
189.577693603
 20
152.4252648501
 11
189.4500340438
 21
152.3835983423
  0
LINE
  5
2AC
100
AcDbEntity
  8
FASEN
100
AcDbLine
 62
7
  6
CONTINUOUS
 10
179.9146085525
 20
123.94026485
 11
219.9146085525
 21
123.9402648501
  0
LINE
  5
2AD
100
AcDbEntity
  8
FASEN
100
AcDbLine
 62
7
  6
CONTINUOUS
 10
180.4146085525
 20
124.4402648501
 11
219.4146085525
 21
124.4402648501
  0
LINE
  5
2AE
100
AcDbEntity
  8
RUNDUNGEN
100
AcDbLine
 62
7
  6
CONTINUOUS
 10
186.9146085525
 20
162.2738017707
 11
186.9146085525
 21
156.2062902538
  0
LINE
  5
2AF
100
AcDbEntity
  8
0
100
AcDbLine
 62
7
  6
CONTINUOUS
 10
189.1521617389
 20
152.0919315962
 11
189.1096085525
 21
151.8835981039
  0
LINE
  5
2B0
100
AcDbEntity
  8
0
100
AcDbLine
 62
7
  6
CONTINUOUS
 10
189.3223744845
 20
151.9252648501
 11
189.364927671
 21
152.0502648501
  0
LINE
  5
2B1
100
AcDbEntity
  8
RUNDUNGEN
100
AcDbLine
 62
7
  6
CONTINUOUS
 10
197.5293257907
 20
156.4052375375
 11
195.0841661979
 21
153.6896126931
  0
LINE
  5
2B2
100
AcDbEntity
  8
0
100
AcDbLine
 62
7
  6
CONTINUOUS
 10
189.4500340438
 20
152.1335981039
 11
189.577693603
 21
152.1752648501
  0
LINE
  5
2B3
100
AcDbEntity
  8
0
100
AcDbLine
 62
7
  6
CONTINUOUS
 10
189.1096085525
 20
156.0085983423
 11
189.1096085525
 21
155.7585983423
  0
LINE
  5
2B4
100
AcDbEntity
  8
0
100
AcDbLine
 62
7
  6
CONTINUOUS
 10
189.1096085525
 20
151.8835981039
 11
189.1096085525
 21
150.8835981039
  0
LINE
  5
2B5
100
AcDbEntity
  8
0
100
AcDbLine
 62
7
  6
CONTINUOUS
 10
189.1096085525
 20
150.5502648501
 11
189.1096085525
 21
150.3002648501
  0
LINE
  5
2B6
100
AcDbEntity
  8
0
100
AcDbLine
 62
7
  6
CONTINUOUS
 10
189.1096085525
 20
149.966931477
 11
189.1096085525
 21
149.716931477
  0
LINE
  5
2B7
100
AcDbEntity
  8
0
100
AcDbLine
 62
7
  6
CONTINUOUS
 10
189.1096085525
 20
148.5502648501
 11
189.1096085525
 21
148.3002648501
  0
LINE
  5
2B8
100
AcDbEntity
  8
0
100
AcDbLine
 62
7
  6
CONTINUOUS
 10
189.3223744845
 20
151.1335981039
 11
189.3223744845
 21
151.9252648501
  0
LINE
  5
2B9
100
AcDbEntity
  8
0
100
AcDbLine
 62
7
  6
CONTINUOUS
 10
190.8542894042
 20
149.1335981635
 11
189.1096085525
 21
148.5502648501
  0
LINE
  5
2BA
100
AcDbEntity
  8
0
100
AcDbLine
 62
7
  6
CONTINUOUS
 10
189.1096085525
 20
148.3002648501
 11
191.1096085525
 21
148.9669315366
  0
LINE
  5
2BB
100
AcDbEntity
  8
0
100
AcDbLine
 62
7
  6
CONTINUOUS
 10
189.9606724
 20
151.9252648501
 11
189.9606724
 21
151.1335981039
  0
LINE
  5
2BC
100
AcDbEntity
  8
0
100
AcDbLine
 62
7
  6
CONTINUOUS
 10
190.2159915185
 20
151.1335981039
 11
190.2159915185
 21
151.8835981039
  0
LINE
  5
2BD
100
AcDbEntity
  8
0
100
AcDbLine
 62
7
  6
CONTINUOUS
 10
190.2585447049
 20
156.4252648501
 11
190.2585447049
 21
156.0085983423
  0
LINE
  5
2BE
100
AcDbEntity
  8
0
100
AcDbLine
 62
7
  6
CONTINUOUS
 10
190.2585447049
 20
155.7585983423
 11
190.2585447049
 21
155.0502648501
  0
LINE
  5
2BF
100
AcDbEntity
  8
0
100
AcDbLine
 62
7
  6
CONTINUOUS
 10
190.513863883
 20
154.7585983423
 11
190.513863883
 21
155.7585983423
  0
LINE
  5
2C0
100
AcDbEntity
  8
0
100
AcDbLine
 62
7
  6
CONTINUOUS
 10
190.513863883
 20
156.0085983423
 11
190.513863883
 21
156.4252648501
  0
LINE
  5
2C1
100
AcDbEntity
  8
0
100
AcDbLine
 62
7
  6
CONTINUOUS
 10
191.1096085525
 20
148.9669315366
 11
191.1096085525
 21
149.3002648501
  0
LINE
  5
2C2
100
AcDbEntity
  8
0
100
AcDbLine
 62
7
  6
CONTINUOUS
 10
191.1096085525
 20
150.3002648501
 11
191.1096085525
 21
150.5502648501
  0
LINE
  5
2C3
100
AcDbEntity
  8
0
100
AcDbLine
 62
7
  6
CONTINUOUS
 10
191.1096085525
 20
150.8835981039
 11
191.1096085525
 21
151.1335981039
  0
LINE
  5
2C4
100
AcDbEntity
  8
0
100
AcDbLine
 62
7
  6
CONTINUOUS
 10
191.1096085525
 20
155.7585983423
 11
191.1096085525
 21
156.0085983423
  0
LINE
  5
2C5
100
AcDbEntity
  8
0
100
AcDbLine
 62
7
  6
CONTINUOUS
 10
190.2159915185
 20
151.8835981039
 11
190.1734383321
 21
152.0919315962
  0
LINE
  5
2C6
100
AcDbEntity
  8
0
100
AcDbLine
 62
7
  6
CONTINUOUS
 10
189.9181192136
 20
152.0502648501
 11
189.9606724
 21
151.9252648501
  0
LINE
  5
2C7
100
AcDbEntity
  8
RUNDUNGEN
100
AcDbLine
 62
7
  6
CONTINUOUS
 10
197.9146085525
 20
157.4089334471
 11
197.9146085525
 21
162.6894243003
  0
LINE
  5
2C8
100
AcDbEntity
  8
FASEN
100
AcDbLine
 62
7
  6
CONTINUOUS
 10
180.4146085525
 20
124.4402648501
 11
179.9146085525
 21
123.94026485
  0
LINE
  5
2C9
100
AcDbEntity
  8
0
100
AcDbLine
 62
7
  6
CONTINUOUS
 10
190.1734383321
 20
152.0919315962
 11
190.0457787728
 21
152.2585981039
  0
LINE
  5
2CA
100
AcDbEntity
  8
RUNDUNGEN
100
AcDbLine
 62
7
  6
CONTINUOUS
 10
201.9146085525
 20
157.4089334471
 11
201.9146085525
 21
162.6908801532
  0
LINE
  5
2CB
100
AcDbEntity
  8
RUNDUNGEN
100
AcDbLine
 62
7
  6
CONTINUOUS
 10
211.3164514528
 20
141.8402648501
 11
188.5127645796
 21
141.8402648501
  0
LINE
  5
2CC
100
AcDbEntity
  8
0
100
AcDbLine
 62
7
  6
CONTINUOUS
 10
189.8330128408
 20
152.1335981039
 11
189.9181192136
 21
152.0502648501
  0
LINE
  5
2CD
100
AcDbEntity
  8
0
100
AcDbLine
 62
7
  6
CONTINUOUS
 10
190.0457787728
 20
152.2585981039
 11
189.8755660272
 21
152.3835983423
  0
LINE
  5
2CE
100
AcDbEntity
  8
FASEN
100
AcDbLine
 62
7
  6
CONTINUOUS
 10
219.4146085525
 20
124.4402648501
 11
219.9146085525
 21
123.9402648501
  0
LINE
  5
2CF
100
AcDbEntity
  8
0
100
AcDbLine
 62
7
  6
CONTINUOUS
 10
191.1096085525
 20
149.3002648501
 11
189.1096085525
 21
149.966931477
  0
LINE
  5
2D0
100
AcDbEntity
  8
0
100
AcDbLine
 62
7
  6
CONTINUOUS
 10
189.1096085525
 20
149.716931477
 11
190.8542894042
 21
149.1335981635
  0
LINE
  5
2D1
100
AcDbEntity
  8
0
100
AcDbLine
 62
7
  6
CONTINUOUS
 10
189.1096085525
 20
155.7585983423
 11
190.2585447049
 21
154.7585983423
  0
LINE
  5
2D2
100
AcDbEntity
  8
0
100
AcDbLine
 62
7
  6
CONTINUOUS
 10
190.2585447049
 20
155.0502648501
 11
189.4500340438
 21
155.7585983423
  0
LINE
  5
2D3
100
AcDbEntity
  8
0
100
AcDbLine
 62
7
  6
CONTINUOUS
 10
208.9256991236
 20
151.6634533451
 11
208.934624467
 21
151.8664374367
  0
LINE
  5
2D4
100
AcDbEntity
  8
0
100
AcDbLine
 62
7
  6
CONTINUOUS
 10
189.7053532815
 20
152.1752648501
 11
189.8330128408
 21
152.1335981039
  0
LINE
  5
2D5
100
AcDbEntity
  8
0
100
AcDbLine
 62
7
  6
CONTINUOUS
 10
189.8755660272
 20
152.3835983423
 11
189.7479064679
 21
152.4252648501
  0
LINE
  5
2D6
100
AcDbEntity
  8
0
100
AcDbLine
 62
7
  6
CONTINUOUS
 10
209.7506042804
 20
154.1164374367
 11
209.7506042804
 21
153.2404456542
  0
LINE
  5
2D7
100
AcDbEntity
  8
0
100
AcDbLine
 62
7
  6
CONTINUOUS
 10
210.2038549516
 20
153.2419375587
 11
210.2038549516
 21
154.1164374367
  0
LINE
  5
2D8
100
AcDbEntity
  8
0
100
AcDbLine
 62
7
  6
CONTINUOUS
 10
189.1096085525
 20
150.3002648501
 11
191.1096085525
 21
150.3002648501
  0
LINE
  5
2D9
100
AcDbEntity
  8
0
100
AcDbLine
 62
7
  6
CONTINUOUS
 10
191.1096085525
 20
150.5502648501
 11
189.1096085525
 21
150.5502648501
  0
LINE
  5
2DA
100
AcDbEntity
  8
0
100
AcDbLine
 62
7
  6
CONTINUOUS
 10
189.1096085525
 20
150.8835981039
 11
191.1096085525
 21
150.8835981039
  0
LINE
  5
2DB
100
AcDbEntity
  8
0
100
AcDbLine
 62
7
  6
CONTINUOUS
 10
191.1096085525
 20
151.1335981039
 11
190.2159915185
 21
151.1335981039
  0
LINE
  5
2DC
100
AcDbEntity
  8
0
100
AcDbLine
 62
7
  6
CONTINUOUS
 10
189.9606724
 20
151.1335981039
 11
189.3223744845
 21
151.1335981039
  0
LINE
  5
2DD
100
AcDbEntity
  8
0
100
AcDbLine
 62
7
  6
CONTINUOUS
 10
211.4663361072
 20
151.8664374367
 11
211.0130854361
 21
151.8664374367
  0
LINE
  5
2DE
100
AcDbEntity
  8
0
100
AcDbLine
 62
7
  6
CONTINUOUS
 10
208.934624467
 20
151.8664374367
 11
208.4813737959
 21
151.8664374367
  0
LINE
  5
2DF
100
AcDbEntity
  8
0
100
AcDbLine
 62
7
  6
CONTINUOUS
 10
189.577693603
 20
152.1752648501
 11
189.7053532815
 21
152.1752648501
  0
LINE
  5
2E0
100
AcDbEntity
  8
0
100
AcDbLine
 62
7
  6
CONTINUOUS
 10
189.7479064679
 20
152.4252648501
 11
189.577693603
 21
152.4252648501
  0
LINE
  5
2E1
100
AcDbEntity
  8
RUNDUNGEN
100
AcDbLine
 62
7
  6
CONTINUOUS
 10
204.7450510018
 20
153.6896125878
 11
202.2998913142
 21
156.4052375375
  0
LINE
  5
2E2
100
AcDbEntity
  8
RUNDUNGEN
100
AcDbLine
 62
7
  6
CONTINUOUS
 10
212.9146085525
 20
156.2062902538
 11
212.9146085525
 21
162.2738017707
  0
LINE
  5
2E3
100
AcDbEntity
  8
0
100
AcDbLine
 62
7
  6
CONTINUOUS
 10
210.2038549516
 20
154.1164374367
 11
209.7506042804
 21
154.1164374367
  0
LINE
  5
2E4
100
AcDbEntity
  8
0
100
AcDbLine
 62
7
  6
CONTINUOUS
 10
211.4663361072
 20
154.4164374367
 11
211.0130854361
 21
154.4164374367
  0
LINE
  5
2E5
100
AcDbEntity
  8
0
100
AcDbLine
 62
7
  6
CONTINUOUS
 10
208.934624467
 20
154.4164374367
 11
208.4813737959
 21
154.4164374367
  0
LINE
  5
2E6
100
AcDbEntity
  8
0
100
AcDbLine
 62
7
  6
CONTINUOUS
 10
190.2585447049
 20
154.7585983423
 11
190.513863883
 21
154.7585983423
  0
LINE
  5
2E7
100
AcDbEntity
  8
0
100
AcDbLine
 62
7
  6
CONTINUOUS
 10
216.9146085525
 20
148.0723156576
 11
216.9146085525
 21
124.4402648501
  0
LINE
  5
2E8
100
AcDbEntity
  8
0
100
AcDbLine
 62
7
  6
CONTINUOUS
 10
189.4500340438
 20
155.7585983423
 11
190.2585447049
 21
155.7585983423
  0
LINE
  5
2E9
100
AcDbEntity
  8
0
100
AcDbLine
 62
7
  6
CONTINUOUS
 10
190.513863883
 20
155.7585983423
 11
191.1096085525
 21
155.7585983423
  0
LINE
  5
2EA
100
AcDbEntity
  8
0
100
AcDbLine
 62
7
  6
CONTINUOUS
 10
191.1096085525
 20
156.0085983423
 11
190.513863883
 21
156.0085983423
  0
LINE
  5
2EB
100
AcDbEntity
  8
0
100
AcDbLine
 62
7
  6
CONTINUOUS
 10
190.2585447049
 20
156.0085983423
 11
189.1096085525
 21
156.0085983423
  0
LINE
  5
2EC
100
AcDbEntity
  8
0
100
AcDbLine
 62
7
  6
CONTINUOUS
 10
190.513863883
 20
156.4252648501
 11
190.2585447049
 21
156.4252648501
  0
LINE
  5
2ED
100
AcDbEntity
  8
BEZUGSACHSEN
100
AcDbLine
 62
7
  6
CONTINUOUS
 10
197.8457470571
 20
156.9402648501
 11
201.9834701325
 21
156.9402648501
  0
LINE
  5
2EE
100
AcDbEntity
  8
RUNDUNGEN
100
AcDbLine
 62
7
  6
CONTINUOUS
 10
216.7806339562
 20
148.5723156576
 11
213.3835196392
 21
154.4562902538
  0
LINE
  5
2EF
100
AcDbEntity
  8
0
100
AcDbLine
 62
7
  6
CONTINUOUS
 10
219.9146085525
 20
123.9402648501
 11
219.9146085525
 21
116.4402648501
  0
LINE
  5
2F0
100
AcDbEntity
  8
BEZUGSACHSEN
100
AcDbLine
 62
7
  6
CONTINUOUS
 10
197.9146085525
 20
161.7402648501
 11
201.9146085525
 21
161.7402648501
  0
LINE
  5
2F1
100
AcDbEntity
  8
0
100
AcDbLine
 62
7
  6
CONTINUOUS
 10
188.7709146672
 20
164.8402648501
 11
193.729950114
 21
164.8402648501
  0
LINE
  5
2F2
100
AcDbEntity
  8
0
100
AcDbLine
 62
7
  6
CONTINUOUS
 10
206.0992669909
 20
164.8402648501
 11
211.058302238
 21
164.8402648501
  0
LINE
  5
2F3
100
AcDbEntity
  8
RUNDUNGEN
100
AcDbLine
 62
7
  6
CONTINUOUS
 10
212.3297163383
 20
163.8807747539
 11
211.8243453374
 21
164.4830524597
  0
LINE
  5
2F4
100
AcDbEntity
  8
FASEN
100
AcDbLine
 62
7
  6
CONTINUOUS
 10
219.4146085525
 20
115.9402648501
 11
219.9146085525
 21
116.4402648501
  0
LINE
  5
2F5
100
AcDbEntity
  8
RUNDUNGEN
100
AcDbLine
 62
7
  6
CONTINUOUS
 10
98.1061978845
 20
37.0663090678
 11
109.1061978845
 21
37.0663090678
  0
LINE
  5
2F6
100
AcDbEntity
  8
0
100
AcDbLine
 62
7
  6
CONTINUOUS
 10
114.5606490346
 20
37.0663090678
 11
114.9447383549
 21
37.0663090678
  0
LINE
  5
2F7
100
AcDbEntity
  8
0
100
AcDbLine
 62
7
  6
CONTINUOUS
 10
97.1061978845
 20
38.5145815131
 11
96.6061978845
 21
38.5145815131
  0
LINE
  5
2F8
100
AcDbEntity
  8
0
100
AcDbLine
 62
7
  6
CONTINUOUS
 10
97.1061978845
 20
38.9678321842
 11
96.6061978845
 21
38.9678321842
  0
LINE
  5
2F9
100
AcDbEntity
  8
0
100
AcDbLine
 62
7
  6
CONTINUOUS
 10
116.5676792813
 20
39.0663090678
 11
116.8938801504
 21
39.0663090678
  0
LINE
  5
2FA
100
AcDbEntity
  8
0
100
AcDbLine
 62
7
  6
CONTINUOUS
 10
116.9100716526
 20
39.482975814
 11
117.228075774
 21
39.482975814
  0
LINE
  5
2FB
100
AcDbEntity
  8
0
100
AcDbLine
 62
7
  6
CONTINUOUS
 10
97.1061978845
 20
39.7770626687
 11
96.6061978845
 21
39.7770626687
  0
LINE
  5
2FC
100
AcDbEntity
  8
0
100
AcDbLine
 62
7
  6
CONTINUOUS
 10
117.1685538745
 20
39.8163090678
 11
117.48063481
 21
39.8163090678
  0
LINE
  5
2FD
100
AcDbEntity
  8
0
100
AcDbLine
 62
7
  6
CONTINUOUS
 10
117.3539249693
 20
40.0663090678
 11
117.6618906813
 21
40.0663090678
  0
LINE
  5
2FE
100
AcDbEntity
  8
0
100
AcDbLine
 62
7
  6
CONTINUOUS
 10
117.4141564825
 20
40.1496423217
 11
117.7208080685
 21
40.1496423217
  0
LINE
  5
2FF
100
AcDbEntity
  8
0
100
AcDbLine
 62
7
  6
CONTINUOUS
 10
97.1061978845
 20
40.2303133399
 11
96.6061978845
 21
40.2303133399
  0
LINE
  5
300
100
AcDbEntity
  8
0
100
AcDbLine
 62
7
  6
CONTINUOUS
 10
117.8693497101
 20
40.8163090678
 11
118.166417663
 21
40.8163090678
  0
LINE
  5
301
100
AcDbEntity
  8
0
100
AcDbLine
 62
7
  6
CONTINUOUS
 10
97.1061978845
 20
41.0462931533
 11
96.6061978845
 21
41.0462931533
  0
LINE
  5
302
100
AcDbEntity
  8
0
100
AcDbLine
 62
7
  6
CONTINUOUS
 10
97.1061978845
 20
41.4995438244
 11
96.6061978845
 21
41.4995438244
  0
LINE
  5
303
100
AcDbEntity
  8
0
100
AcDbLine
 62
7
  6
CONTINUOUS
 10
96.6061978845
 20
38.5145815131
 11
96.6061978845
 21
41.4995438244
  0
LINE
  5
304
100
AcDbEntity
  8
0
100
AcDbLine
 62
7
  6
CONTINUOUS
 10
96.6061978845
 20
58.8713090678
 11
96.6061978845
 21
60.8713090678
  0
LINE
  5
305
100
AcDbEntity
  8
RUNDUNGEN
100
AcDbLine
 62
7
  6
CONTINUOUS
 10
97.1061978845
 20
35.3949204598
 11
97.1061978845
 21
43.9376951319
  0
LINE
  5
306
100
AcDbEntity
  8
RUNDUNGEN
100
AcDbLine
 62
7
  6
CONTINUOUS
 10
97.1061978845
 20
56.1949169864
 11
97.1061978845
 21
64.7376978649
  0
LINE
  5
307
100
AcDbEntity
  8
0
100
AcDbLine
 62
7
  6
CONTINUOUS
 10
118.9827221991
 20
42.8163090678
 11
119.258673727
 21
42.8163090678
  0
LINE
  5
308
100
AcDbEntity
  8
0
100
AcDbLine
 62
7
  6
CONTINUOUS
 10
119.1723648302
 20
43.2329755756
 11
119.4450126565
 21
43.2329755756
  0
LINE
  5
309
100
AcDbEntity
  8
0
100
AcDbLine
 62
7
  6
CONTINUOUS
 10
119.3144759569
 20
43.5663090678
 11
119.5846990657
 21
43.5663090678
  0
LINE
  5
30A
100
AcDbEntity
  8
0
100
AcDbLine
 62
7
  6
CONTINUOUS
 10
119.4156096382
 20
43.8163090678
 11
119.6841330753
 21
43.8163090678
  0
LINE
  5
30B
100
AcDbEntity
  8
0
100
AcDbLine
 62
7
  6
CONTINUOUS
 10
119.4483007809
 20
43.8996425601
 11
119.71627933
 21
43.8996425601
  0
LINE
  5
30C
100
AcDbEntity
  8
0
100
AcDbLine
 62
7
  6
CONTINUOUS
 10
119.6919058266
 20
44.5663090678
 11
119.9558920712
 21
44.5663090678
  0
LINE
  5
30D
100
AcDbEntity
  8
RUNDUNGEN
100
AcDbLine
 62
7
  6
CONTINUOUS
 10
97.6188312509
 20
45.2995592111
 11
97.6073663032
 21
45.2732652479
  0
LINE
  5
30E
100
AcDbEntity
  8
0
100
AcDbLine
 62
7
  6
CONTINUOUS
 10
119.8542746937
 20
45.0663090678
 11
120.1156648656
 21
45.0663090678
  0
LINE
  5
30F
100
AcDbEntity
  8
BEZUGSACHSEN
100
AcDbLine
 62
7
  6
CONTINUOUS
 10
101.2061978845
 20
52.0663090678
 11
101.2061978845
 21
48.0663090678
  0
LWPOLYLINE
  5
310
100
AcDbEntity
  8
RUNDUNGEN
100
AcDbPolyline
 62
7
  6
CONTINUOUS
 90
4
 70
0
 10
97.6073663032
 20
45.2732652479
 10
97.5598538575
 20
45.1681607212
 10
97.5099535446
 20
45.0637221931
 10
97.4576967299
 20
44.9599674506
  0
LINE
  5
311
100
AcDbEntity
  8
0
100
AcDbLine
 62
7
  6
CONTINUOUS
 10
97.7494671152
 20
45.6134952551
 11
97.2728645511
 21
44.5688349003
  0
LINE
  5
312
100
AcDbEntity
  8
RUNDUNGEN
100
AcDbLine
 62
7
  6
CONTINUOUS
 10
97.4576967299
 20
44.9599674506
 11
97.4031165941
 21
44.8569169111
  0
LWPOLYLINE
  5
313
100
AcDbEntity
  8
RUNDUNGEN
100
AcDbPolyline
 62
7
  6
CONTINUOUS
 90
3
 70
0
 10
97.4031165941
 20
44.8569169111
 10
97.3825622657
 20
44.8193882586
 10
97.3528591632
 20
44.7664436156
  0
LINE
  5
314
100
AcDbEntity
  8
RUNDUNGEN
100
AcDbLine
 62
7
  6
CONTINUOUS
 10
97.3528591632
 20
44.7664436156
 11
97.3229584588
 21
44.7146570356
  0
LINE
  5
315
100
AcDbEntity
  8
RUNDUNGEN
100
AcDbLine
 62
7
  6
CONTINUOUS
 10
97.3229584588
 20
44.7146570356
 11
97.3145946922
 21
44.7004366815
  0
LINE
  5
316
100
AcDbEntity
  8
0
100
AcDbLine
 62
7
  6
CONTINUOUS
 10
120.3393984151
 20
47.0663090678
 11
120.5933253638
 21
47.0663090678
  0
LINE
  5
317
100
AcDbEntity
  8
0
100
AcDbLine
 62
7
  6
CONTINUOUS
 10
120.4087687979
 20
47.482975814
 11
120.6616629705
 21
47.482975814
  0
LINE
  5
318
100
AcDbEntity
  8
0
100
AcDbLine
 62
7
  6
CONTINUOUS
 10
120.4566429824
 20
47.8163090678
 11
120.708829261
 21
47.8163090678
  0
LINE
  5
319
100
AcDbEntity
  8
RUNDUNGEN
100
AcDbLine
 62
7
  6
CONTINUOUS
 10
106.7977758996
 20
48.0663090678
 11
100.9146198694
 21
48.0663090678
  0
LINE
  5
31A
100
AcDbEntity
  8
0
100
AcDbLine
 62
7
  6
CONTINUOUS
 10
120.4881409006
 20
48.0663090678
 11
120.7398635751
 21
48.0663090678
  0
LINE
  5
31B
100
AcDbEntity
  8
0
100
AcDbLine
 62
7
  6
CONTINUOUS
 10
120.4978049301
 20
48.1496423217
 11
120.7493857031
 21
48.1496423217
  0
LINE
  5
31C
100
AcDbEntity
  8
0
100
AcDbLine
 62
7
  6
CONTINUOUS
 10
120.5070525723
 20
48.232975814
 11
120.7584977064
 21
48.232975814
  0
LINE
  5
31D
100
AcDbEntity
  8
0
100
AcDbLine
 62
7
  6
CONTINUOUS
 10
120.5243012404
 20
48.3996420833
 11
120.7754937688
 21
48.3996420833
  0
LWPOLYLINE
  5
31E
100
AcDbEntity
  8
RUNDUNGEN
100
AcDbPolyline
 62
7
  6
CONTINUOUS
 90
3
 70
0
 10
97.3152685679
 20
55.4310442181
 10
97.3272375586
 20
55.4106411418
 10
97.3571242497
 20
55.3586651426
  0
LINE
  5
31F
100
AcDbEntity
  8
RUNDUNGEN
100
AcDbLine
 62
7
  6
CONTINUOUS
 10
97.3571242497
 20
55.3586651426
 11
97.3868122732
 21
55.3055295608
  0
LINE
  5
320
100
AcDbEntity
  8
RUNDUNGEN
100
AcDbLine
 62
7
  6
CONTINUOUS
 10
97.3868122732
 20
55.3055295608
 11
97.4069809963
 21
55.2685685589
  0
LINE
  5
321
100
AcDbEntity
  8
RUNDUNGEN
100
AcDbLine
 62
7
  6
CONTINUOUS
 10
97.4069809963
 20
55.2685685589
 11
97.4613792281
 21
55.1655105753
  0
LWPOLYLINE
  5
322
100
AcDbEntity
  8
RUNDUNGEN
100
AcDbPolyline
 62
7
  6
CONTINUOUS
 90
3
 70
0
 10
97.4613792281
 20
55.1655105753
 10
97.5134544701
 20
55.0617487589
 10
97.5631738121
 20
54.9573029556
  0
LINE
  5
323
100
AcDbEntity
  8
0
100
AcDbLine
 62
7
  6
CONTINUOUS
 10
97.2728645511
 20
55.5637832353
 11
97.7494671152
 21
54.5191228805
  0
LWPOLYLINE
  5
324
100
AcDbEntity
  8
RUNDUNGEN
100
AcDbPolyline
 62
7
  6
CONTINUOUS
 90
3
 70
0
 10
97.5631738121
 20
54.9573029556
 10
97.6105057744
 20
54.8521909157
 10
97.6188312359
 20
54.8330589465
  0
LINE
  5
325
100
AcDbEntity
  8
0
100
AcDbLine
 62
7
  6
CONTINUOUS
 10
120.5601797176
 20
48.8163090678
 11
120.8108484185
 21
48.8163090678
  0
LINE
  5
326
100
AcDbEntity
  8
0
100
AcDbLine
 62
7
  6
CONTINUOUS
 10
120.5661179522
 20
48.8996423217
 11
120.8167001637
 21
48.8996423217
  0
LINE
  5
327
100
AcDbEntity
  8
0
100
AcDbLine
 62
7
  6
CONTINUOUS
 10
120.5931209657
 20
49.3996425601
 11
120.843310629
 21
49.3996425601
  0
LINE
  5
328
100
AcDbEntity
  8
0
100
AcDbLine
 62
7
  6
CONTINUOUS
 10
120.5961867614
 20
49.4829755756
 11
120.8463319337
 21
49.4829755756
  0
LINE
  5
329
100
AcDbEntity
  8
0
100
AcDbLine
 62
7
  6
CONTINUOUS
 10
120.6010909121
 20
49.6496425601
 11
120.851164948
 21
49.6496425601
  0
LINE
  5
32A
100
AcDbEntity
  8
0
100
AcDbLine
 62
7
  6
CONTINUOUS
 10
120.6053808729
 20
49.8996425601
 11
120.8553927142
 21
49.8996425601
  0
LINE
  5
32B
100
AcDbEntity
  8
0
100
AcDbLine
 62
7
  6
CONTINUOUS
 10
120.6053808729
 20
50.2329755756
 11
120.8553927142
 21
50.2329755756
  0
LINE
  5
32C
100
AcDbEntity
  8
0
100
AcDbLine
 62
7
  6
CONTINUOUS
 10
120.5988433524
 20
50.5663090678
 11
120.848949985
 21
50.5663090678
  0
LINE
  5
32D
100
AcDbEntity
  8
0
100
AcDbLine
 62
7
  6
CONTINUOUS
 10
120.5857607555
 20
50.8996425601
 11
120.8360572945
 21
50.8996425601
  0
LINE
  5
32E
100
AcDbEntity
  8
0
100
AcDbLine
 62
7
  6
CONTINUOUS
 10
120.5716447853
 20
51.1496425601
 11
120.8221465526
 21
51.1496425601
  0
LINE
  5
32F
100
AcDbEntity
  8
0
100
AcDbLine
 62
7
  6
CONTINUOUS
 10
120.5601797176
 20
51.3163090678
 11
120.8108484185
 21
51.3163090678
  0
LINE
  5
330
100
AcDbEntity
  8
0
100
AcDbLine
 62
7
  6
CONTINUOUS
 10
120.5538296305
 20
51.3996425601
 11
120.8045908849
 21
51.3996425601
  0
LINE
  5
331
100
AcDbEntity
  8
0
100
AcDbLine
 62
7
  6
CONTINUOUS
 10
120.5070525465
 20
51.8996425601
 11
120.7584976809
 21
51.8996425601
  0
LINE
  5
332
100
AcDbEntity
  8
RUNDUNGEN
100
AcDbLine
 62
7
  6
CONTINUOUS
 10
100.9146198694
 20
52.0663090678
 11
106.7977758998
 21
52.0663090678
  0
LINE
  5
333
100
AcDbEntity
  8
0
100
AcDbLine
 62
7
  6
CONTINUOUS
 10
120.4780597718
 20
52.1496420833
 11
120.7299306419
 21
52.1496420833
  0
LINE
  5
334
100
AcDbEntity
  8
BEZUGSACHSEN
100
AcDbLine
 62
7
  6
CONTINUOUS
 10
106.0061978845
 20
52.0663090678
 11
106.0061978845
 21
48.0663090678
  0
LINE
  5
335
100
AcDbEntity
  8
RUNDUNGEN
100
AcDbLine
 62
7
  6
CONTINUOUS
 10
109.5935771933
 20
54.8330882254
 11
109.6050252328
 21
54.8593432074
  0
LWPOLYLINE
  5
336
100
AcDbEntity
  8
RUNDUNGEN
100
AcDbPolyline
 62
7
  6
CONTINUOUS
 90
5
 70
0
 10
109.6050252328
 20
54.8593432074
 10
109.6525349708
 20
54.9644424607
 10
109.7024340473
 20
55.0688792678
 10
109.7546911894
 20
55.1726355545
 10
109.8092740514
 20
55.2756918119
  0
LWPOLYLINE
  5
337
100
AcDbEntity
  8
RUNDUNGEN
100
AcDbPolyline
 62
7
  6
CONTINUOUS
 90
3
 70
0
 10
109.8092740514
 20
55.2756918119
 10
109.8298372384
 20
55.31323668
 10
109.859540851
 20
55.3661819738
  0
LINE
  5
338
100
AcDbEntity
  8
RUNDUNGEN
100
AcDbLine
 62
7
  6
CONTINUOUS
 10
109.859540851
 20
55.3661819738
 11
109.8894414133
 21
55.4179680955
  0
LINE
  5
339
100
AcDbEntity
  8
RUNDUNGEN
100
AcDbLine
 62
7
  6
CONTINUOUS
 10
109.8894414133
 20
55.4179680955
 11
109.8978010828
 21
55.4321814553
  0
LINE
  5
33A
100
AcDbEntity
  8
0
100
AcDbLine
 62
7
  6
CONTINUOUS
 10
120.4213696053
 20
52.5663090678
 11
120.6740770732
 21
52.5663090678
  0
LWPOLYLINE
  5
33B
100
AcDbEntity
  8
RUNDUNGEN
100
AcDbPolyline
 62
7
  6
CONTINUOUS
 90
3
 70
0
 10
109.8971268259
 20
44.7015739373
 10
109.8851555161
 20
44.7219816025
 10
109.8552687282
 20
44.7739579169
  0
LINE
  5
33C
100
AcDbEntity
  8
RUNDUNGEN
100
AcDbLine
 62
7
  6
CONTINUOUS
 10
109.8552687282
 20
44.7739579169
 11
109.8255810359
 21
44.8270930942
  0
LINE
  5
33D
100
AcDbEntity
  8
RUNDUNGEN
100
AcDbLine
 62
7
  6
CONTINUOUS
 10
109.8255810359
 20
44.8270930942
 11
109.8054079002
 21
44.8640622243
  0
LINE
  5
33E
100
AcDbEntity
  8
RUNDUNGEN
100
AcDbLine
 62
7
  6
CONTINUOUS
 10
109.8054079002
 20
44.8640622243
 11
109.751006243
 21
44.9671275262
  0
LWPOLYLINE
  5
33F
100
AcDbEntity
  8
RUNDUNGEN
100
AcDbPolyline
 62
7
  6
CONTINUOUS
 90
3
 70
0
 10
109.751006243
 20
44.9671275262
 10
109.6989304764
 20
45.0708915268
 10
109.6492128226
 20
45.1753349318
  0
LWPOLYLINE
  5
340
100
AcDbEntity
  8
RUNDUNGEN
100
AcDbPolyline
 62
7
  6
CONTINUOUS
 90
3
 70
0
 10
109.6492128226
 20
45.1753349318
 10
109.6018845363
 20
45.2804397021
 10
109.5935769279
 20
45.2995305149
  0
LINE
  5
341
100
AcDbEntity
  8
0
100
AcDbLine
 62
7
  6
CONTINUOUS
 10
119.9997941952
 20
54.5663090678
 11
120.2589003678
 21
54.5663090678
  0
LINE
  5
342
100
AcDbEntity
  8
0
100
AcDbLine
 62
7
  6
CONTINUOUS
 10
119.879685088
 20
54.9829760524
 11
120.1406735569
 21
54.9829760524
  0
LINE
  5
343
100
AcDbEntity
  8
0
100
AcDbLine
 62
7
  6
CONTINUOUS
 10
119.7752269215
 20
55.3163090678
 11
120.0378746096
 21
55.3163090678
  0
LINE
  5
344
100
AcDbEntity
  8
0
100
AcDbLine
 62
7
  6
CONTINUOUS
 10
119.6631712119
 20
55.6496420833
 11
119.927622223
 21
55.6496420833
  0
LINE
  5
345
100
AcDbEntity
  8
0
100
AcDbLine
 62
7
  6
CONTINUOUS
 10
119.6042446402
 20
55.8163090678
 11
119.8696538518
 21
55.8163090678
  0
LINE
  5
346
100
AcDbEntity
  8
0
100
AcDbLine
 62
7
  6
CONTINUOUS
 10
119.5740476436
 20
55.8996420833
 11
119.83995056
 21
55.8996420833
  0
LINE
  5
347
100
AcDbEntity
  8
RUNDUNGEN
100
AcDbLine
 62
7
  6
CONTINUOUS
 10
110.1061978845
 20
35.3949202708
 11
110.1061978845
 21
43.9377000675
  0
LINE
  5
348
100
AcDbEntity
  8
RUNDUNGEN
100
AcDbLine
 62
7
  6
CONTINUOUS
 10
110.1061978845
 20
56.1949240046
 11
110.1061978845
 21
64.737709819
  0
LINE
  5
349
100
AcDbEntity
  8
0
100
AcDbLine
 62
7
  6
CONTINUOUS
 10
119.4804867763
 20
56.149643037
 11
119.7479309953
 21
56.149643037
  0
LINE
  5
34A
100
AcDbEntity
  8
0
100
AcDbLine
 62
7
  6
CONTINUOUS
 10
119.2444702965
 20
56.7329750987
 11
119.5158824832
 21
56.7329750987
  0
LINE
  5
34B
100
AcDbEntity
  8
0
100
AcDbLine
 62
7
  6
CONTINUOUS
 10
119.1723646209
 20
56.899643037
 11
119.4450124508
 21
56.899643037
  0
LINE
  5
34C
100
AcDbEntity
  8
0
100
AcDbLine
 62
7
  6
CONTINUOUS
 10
118.9030297455
 20
57.4829750987
 11
119.1803933689
 21
57.4829750987
  0
LINE
  5
34D
100
AcDbEntity
  8
0
100
AcDbLine
 62
7
  6
CONTINUOUS
 10
118.7368786358
 20
57.8163090678
 11
119.0172328919
 21
57.8163090678
  0
LINE
  5
34E
100
AcDbEntity
  8
0
100
AcDbLine
 62
7
  6
CONTINUOUS
 10
118.5614548847
 20
58.149643037
 11
118.8450368148
 21
58.149643037
  0
LINE
  5
34F
100
AcDbEntity
  8
0
100
AcDbLine
 62
7
  6
CONTINUOUS
 10
118.5161129057
 20
58.2329750987
 11
118.8005411062
 21
58.2329750987
  0
LINE
  5
350
100
AcDbEntity
  8
0
100
AcDbLine
 62
7
  6
CONTINUOUS
 10
118.4701643807
 20
58.3163090678
 11
118.755455292
 21
58.3163090678
  0
LINE
  5
351
100
AcDbEntity
  8
0
100
AcDbLine
 62
7
  6
CONTINUOUS
 10
97.1061978845
 20
58.8713090678
 11
96.6061978845
 21
58.8713090678
  0
LINE
  5
352
100
AcDbEntity
  8
0
100
AcDbLine
 62
7
  6
CONTINUOUS
 10
118.0800732084
 20
58.9829750987
 11
118.3729025573
 21
58.9829750987
  0
LINE
  5
353
100
AcDbEntity
  8
0
100
AcDbLine
 62
7
  6
CONTINUOUS
 10
97.1061978845
 20
59.4670537373
 11
96.6061978845
 21
59.4670537373
  0
LINE
  5
354
100
AcDbEntity
  8
0
100
AcDbLine
 62
7
  6
CONTINUOUS
 10
117.6475550139
 20
59.649643037
 11
117.9492174423
 21
59.649643037
  0
LINE
  5
355
100
AcDbEntity
  8
0
100
AcDbLine
 62
7
  6
CONTINUOUS
 10
97.1061978845
 20
59.7223729154
 11
96.6061978845
 21
59.7223729154
  0
LINE
  5
356
100
AcDbEntity
  8
0
100
AcDbLine
 62
7
  6
CONTINUOUS
 10
117.3539249693
 20
60.0663090678
 11
117.6618906813
 21
60.0663090678
  0
LINE
  5
357
100
AcDbEntity
  8
0
100
AcDbLine
 62
7
  6
CONTINUOUS
 10
97.1061978845
 20
60.8713090678
 11
96.6061978845
 21
60.8713090678
  0
LINE
  5
358
100
AcDbEntity
  8
0
100
AcDbLine
 62
7
  6
CONTINUOUS
 10
116.6379438446
 20
60.9829750987
 11
116.9624287439
 21
60.9829750987
  0
LINE
  5
359
100
AcDbEntity
  8
RUNDUNGEN
100
AcDbLine
 62
7
  6
CONTINUOUS
 10
98.1061978845
 20
63.0663090678
 11
109.1061978845
 21
63.0663090678
  0
ARC
  5
35A
100
AcDbEntity
  8
RUNDUNGEN
100
AcDbCircle
 62
7
  6
CONTINUOUS
 10
103.6061978845
 20
158.3402648501
 40
6.5
100
AcDbArc
 50
0.0
 51
180.0
  0
ARC
  5
35B
100
AcDbEntity
  8
RUNDUNGEN
100
AcDbCircle
 62
7
  6
CONTINUOUS
 10
114.1061978845
 20
145.8402648501
 40
4.0
100
AcDbArc
 50
180.0
 51
269.9984659712
  0
ARC
  5
35C
100
AcDbEntity
  8
RUNDUNGEN
100
AcDbCircle
 62
7
  6
CONTINUOUS
 10
93.1061978845
 20
145.8402648501
 40
4.0
100
AcDbArc
 50
270.0011473704
 51
360.0
  0
ARC
  5
35D
100
AcDbEntity
  8
RUNDUNGEN
100
AcDbCircle
 62
7
  6
CONTINUOUS
 10
88.1061978845
 20
140.3402648501
 40
1.5
100
AcDbArc
 50
90.0
 51
180.0
  0
ARC
  5
35E
100
AcDbEntity
  8
RUNDUNGEN
100
AcDbCircle
 62
7
  6
CONTINUOUS
 10
119.1061978845
 20
140.3402648501
 40
1.5
100
AcDbArc
 50
0.0
 51
90.0
  0
ARC
  5
35F
100
AcDbEntity
  8
RUNDUNGEN
100
AcDbCircle
 62
7
  6
CONTINUOUS
 10
183.4146085525
 20
156.2062902538
 40
3.5
100
AcDbArc
 50
330.0
 51
360.0
  0
ARC
  5
360
100
AcDbEntity
  8
RUNDUNGEN
100
AcDbCircle
 62
7
  6
CONTINUOUS
 10
196.4146085525
 20
157.4089334471
 40
1.5
100
AcDbArc
 50
318.0
 51
360.0
  0
ARC
  5
361
100
AcDbEntity
  8
RUNDUNGEN
100
AcDbCircle
 62
7
  6
CONTINUOUS
 10
183.9146174271
 20
148.0723310289
 40
1.0
100
AcDbArc
 50
150.0010169546
 51
180.0008806989
  0
ARC
  5
362
100
AcDbEntity
  8
RUNDUNGEN
100
AcDbCircle
 62
7
  6
CONTINUOUS
 10
189.4146085525
 20
162.2738017707
 40
2.5
100
AcDbArc
 50
140.0
 51
179.9993956533
  0
ARC
  5
363
100
AcDbEntity
  8
RUNDUNGEN
100
AcDbCircle
 62
7
  6
CONTINUOUS
 10
193.729950114
 20
163.3402648501
 40
1.5
100
AcDbArc
 50
62.7339555493
 51
90.0
  0
ARC
  5
364
100
AcDbEntity
  8
RUNDUNGEN
100
AcDbCircle
 62
7
  6
CONTINUOUS
 10
188.7709162106
 20
163.8402648501
 40
1.0
100
AcDbArc
 50
90.0
 51
140.0
  0
ARC
  5
365
100
AcDbEntity
  8
RUNDUNGEN
100
AcDbCircle
 62
7
  6
CONTINUOUS
 10
196.9146085525
 20
162.6911542094
 40
1.0
100
AcDbArc
 50
0.0
 51
76.6576362029
  0
ARC
  5
366
100
AcDbEntity
  8
RUNDUNGEN
100
AcDbCircle
 62
7
  6
CONTINUOUS
 10
199.9146085525
 20
149.3402648501
 40
6.5
100
AcDbArc
 50
138.0000130275
 51
41.9999857237
  0
ARC
  5
367
100
AcDbEntity
  8
RUNDUNGEN
100
AcDbCircle
 62
7
  6
CONTINUOUS
 10
216.4146085525
 20
156.2062902538
 40
3.5
100
AcDbArc
 50
180.0
 51
210.0
  0
ARC
  5
368
100
AcDbEntity
  8
0
100
AcDbCircle
 62
7
  6
CONTINUOUS
 10
209.9738549516
 20
154.2664374367
 40
1.5
100
AcDbArc
 50
174.2608295227
 51
5.7391704773
  0
ARC
  5
369
100
AcDbEntity
  8
0
100
AcDbCircle
 62
7
  6
CONTINUOUS
 10
209.9738549516
 20
151.7164374367
 40
1.5
100
AcDbArc
 50
174.2608295227
 51
5.7391704773
  0
ARC
  5
36A
100
AcDbEntity
  8
RUNDUNGEN
100
AcDbCircle
 62
7
  6
CONTINUOUS
 10
203.4146085525
 20
157.4089334471
 40
1.5
100
AcDbArc
 50
180.0
 51
222.0
  0
ARC
  5
36B
100
AcDbEntity
  8
0
100
AcDbCircle
 62
7
  6
CONTINUOUS
 10
209.9738549516
 20
154.2664374367
 40
1.05
100
AcDbArc
 50
282.6531012477
 51
8.2132107017
  0
ARC
  5
36C
100
AcDbEntity
  8
0
100
AcDbCircle
 62
7
  6
CONTINUOUS
 10
209.9738549516
 20
154.2664374367
 40
1.05
100
AcDbArc
 50
171.7867892983
 51
257.7240830835
  0
ARC
  5
36D
100
AcDbEntity
  8
0
100
AcDbCircle
 62
7
  6
CONTINUOUS
 10
209.9738549516
 20
151.7164374367
 40
1.05
100
AcDbArc
 50
182.8938283409
 51
8.2132107017
  0
ARC
  5
36E
100
AcDbEntity
  8
RUNDUNGEN
100
AcDbCircle
 62
7
  6
CONTINUOUS
 10
215.9145457536
 20
148.0724244284
 40
1.0
100
AcDbArc
 50
359.993768506
 51
29.9928037816
  0
ARC
  5
36F
100
AcDbEntity
  8
0
100
AcDbCircle
 62
7
  6
CONTINUOUS
 10
199.9146085525
 20
175.3402648501
 40
12.0
100
AcDbArc
 50
283.3423637971
 51
297.2660444507
  0
ARC
  5
370
100
AcDbEntity
  8
0
100
AcDbCircle
 62
7
  6
CONTINUOUS
 10
199.9146085525
 20
175.3402648501
 40
12.0
100
AcDbArc
 50
242.7339555493
 51
256.6576362029
  0
ARC
  5
371
100
AcDbEntity
  8
RUNDUNGEN
100
AcDbCircle
 62
7
  6
CONTINUOUS
 10
210.4146085525
 20
162.2738017707
 40
2.5
100
AcDbArc
 50
359.9998064356
 51
40.0001184437
  0
ARC
  5
372
100
AcDbEntity
  8
RUNDUNGEN
100
AcDbCircle
 62
7
  6
CONTINUOUS
 10
206.0992669909
 20
163.3402648501
 40
1.5
100
AcDbArc
 50
90.0
 51
117.2660444507
  0
ARC
  5
373
100
AcDbEntity
  8
RUNDUNGEN
100
AcDbCircle
 62
7
  6
CONTINUOUS
 10
211.0583008943
 20
163.84026485
 40
1.0
100
AcDbArc
 50
40.0
 51
89.9999999999
  0
ARC
  5
374
100
AcDbEntity
  8
RUNDUNGEN
100
AcDbCircle
 62
7
  6
CONTINUOUS
 10
202.9146085525
 20
162.6911542094
 40
1.0
100
AcDbArc
 50
103.3423637971
 51
180.0
  0
ARC
  5
375
100
AcDbEntity
  8
RUNDUNGEN
100
AcDbCircle
 62
7
  6
CONTINUOUS
 10
98.6061442354
 20
35.3949079667
 40
1.4999853684
100
AcDbArc
 50
179.9999866315
 51
251.180116958
  0
ARC
  5
376
100
AcDbEntity
  8
RUNDUNGEN
100
AcDbCircle
 62
7
  6
CONTINUOUS
 10
98.1061978845
 20
38.0663090678
 40
1.0
100
AcDbArc
 50
180.0
 51
270.0
  0
ARC
  5
377
100
AcDbEntity
  8
RUNDUNGEN
100
AcDbCircle
 62
7
  6
CONTINUOUS
 10
98.6189390691
 20
43.9354194521
 40
1.5128141156
100
AcDbArc
 50
161.7640016114
 51
177.2409396931
  0
ARC
  5
378
100
AcDbEntity
  8
RUNDUNGEN
100
AcDbCircle
 62
7
  6
CONTINUOUS
 10
98.6061978845
 20
43.8816506294
 40
1.5
100
AcDbArc
 50
152.7339555493
 51
180.0
  0
ARC
  5
379
100
AcDbEntity
  8
RUNDUNGEN
100
AcDbCircle
 62
7
  6
CONTINUOUS
 10
98.6036490551
 20
43.9390232516
 40
1.4971649093
100
AcDbArc
 50
149.3260167424
 51
161.7118812221
  0
ARC
  5
37A
100
AcDbEntity
  8
RUNDUNGEN
100
AcDbCircle
 62
7
  6
CONTINUOUS
 10
98.5960016787
 20
43.9373414504
 40
1.4898110204
100
AcDbArc
 50
177.272308471
 51
177.8522626409
  0
ARC
  5
37B
100
AcDbEntity
  8
RUNDUNGEN
100
AcDbCircle
 62
7
  6
CONTINUOUS
 10
98.5868174397
 20
43.9376430278
 40
1.4806219318
100
AcDbArc
 50
177.8506054041
 51
179.9979060391
  0
ARC
  5
37C
100
AcDbEntity
  8
RUNDUNGEN
100
AcDbCircle
 62
7
  6
CONTINUOUS
 10
98.6780728845
 20
45.2424274374
 40
1.0
100
AcDbArc
 50
113.2437018405
 51
158.218538781
  0
ARC
  5
37D
100
AcDbEntity
  8
RUNDUNGEN
100
AcDbCircle
 62
7
  6
CONTINUOUS
 10
100.9146198694
 20
47.0663090678
 40
1.0
100
AcDbArc
 50
90.0
 51
145.1503746043
  0
ARC
  5
37E
100
AcDbEntity
  8
RUNDUNGEN
100
AcDbCircle
 62
7
  6
CONTINUOUS
 10
86.6061978845
 20
50.0663090678
 40
12.0
100
AcDbArc
 50
21.7814874452
 51
27.2660444507
  0
ARC
  5
37F
100
AcDbEntity
  8
RUNDUNGEN
100
AcDbCircle
 62
7
  6
CONTINUOUS
 10
86.6061978845
 20
50.0663090678
 40
12.0
100
AcDbArc
 50
332.7339555493
 51
338.2185125548
  0
ARC
  5
380
100
AcDbEntity
  8
RUNDUNGEN
100
AcDbCircle
 62
7
  6
CONTINUOUS
 10
96.6061978845
 20
50.0663090678
 40
4.25
100
AcDbArc
 50
293.2437018405
 51
325.1500297308
  0
ARC
  5
381
100
AcDbEntity
  8
RUNDUNGEN
100
AcDbCircle
 62
7
  6
CONTINUOUS
 10
96.6061978845
 20
50.0663090678
 40
4.25
100
AcDbArc
 50
34.8498593313
 51
66.7562981595
  0
ARC
  5
382
100
AcDbEntity
  8
RUNDUNGEN
100
AcDbCircle
 62
7
  6
CONTINUOUS
 10
98.6189411779
 20
56.1971882639
 40
1.5128135129
100
AcDbArc
 50
182.7599158803
 51
198.236091943
  0
ARC
  5
383
100
AcDbEntity
  8
RUNDUNGEN
100
AcDbCircle
 62
7
  6
CONTINUOUS
 10
98.6061978845
 20
56.2509675063
 40
1.5
100
AcDbArc
 50
180.0
 51
207.2660444537
  0
ARC
  5
384
100
AcDbEntity
  8
RUNDUNGEN
100
AcDbCircle
 62
7
  6
CONTINUOUS
 10
98.6036517089
 20
56.1935844743
 40
1.4971648294
100
AcDbArc
 50
198.2882071439
 51
210.6733631426
  0
ARC
  5
385
100
AcDbEntity
  8
RUNDUNGEN
100
AcDbCircle
 62
7
  6
CONTINUOUS
 10
98.5959997565
 20
56.1952659358
 40
1.4898063631
100
AcDbArc
 50
182.1461823641
 51
182.7285550138
  0
ARC
  5
386
100
AcDbEntity
  8
RUNDUNGEN
100
AcDbCircle
 62
7
  6
CONTINUOUS
 10
98.5868137595
 20
56.1949644323
 40
1.4806155194
100
AcDbArc
 50
180.0026274083
 51
182.1478353615
  0
ARC
  5
387
100
AcDbEntity
  8
RUNDUNGEN
100
AcDbCircle
 62
7
  6
CONTINUOUS
 10
98.6780728845
 20
54.8901906983
 40
1.0
100
AcDbArc
 50
201.7812864027
 51
246.7562981596
  0
ARC
  5
388
100
AcDbEntity
  8
RUNDUNGEN
100
AcDbCircle
 62
7
  6
CONTINUOUS
 10
100.9146198694
 20
53.0663090678
 40
1.0
100
AcDbArc
 50
214.850096882
 51
270.0
  0
ARC
  5
389
100
AcDbEntity
  8
RUNDUNGEN
100
AcDbCircle
 62
7
  6
CONTINUOUS
 10
98.6061978845
 20
64.737709819
 40
1.5
100
AcDbArc
 50
108.8196295078
 51
180.0
  0
ARC
  5
38A
100
AcDbEntity
  8
RUNDUNGEN
100
AcDbCircle
 62
7
  6
CONTINUOUS
 10
98.1061978845
 20
62.0663090678
 40
1.0
100
AcDbArc
 50
90.0
 51
180.0
  0
ARC
  5
38B
100
AcDbEntity
  8
RUNDUNGEN
100
AcDbCircle
 62
7
  6
CONTINUOUS
 10
108.5934544587
 20
43.935429233
 40
1.512813669
100
AcDbArc
 50
2.7603375489
 51
18.2357609146
  0
ARC
  5
38C
100
AcDbEntity
  8
RUNDUNGEN
100
AcDbCircle
 62
7
  6
CONTINUOUS
 10
108.6061978845
 20
35.3949083167
 40
1.5
100
AcDbArc
 50
288.8196331525
 51
360.0
  0
ARC
  5
38D
100
AcDbEntity
  8
RUNDUNGEN
100
AcDbCircle
 62
7
  6
CONTINUOUS
 10
108.6061978845
 20
43.8816506294
 40
1.5
100
AcDbArc
 50
0.0
 51
27.2660444545
  0
ARC
  5
38E
100
AcDbEntity
  8
RUNDUNGEN
100
AcDbCircle
 62
7
  6
CONTINUOUS
 10
108.608743864
 20
43.9390329054
 40
1.4971650748
100
AcDbArc
 50
18.2878761439
 51
30.673479743
  0
ARC
  5
38F
100
AcDbEntity
  8
RUNDUNGEN
100
AcDbCircle
 62
7
  6
CONTINUOUS
 10
108.6163937087
 20
43.9373513709
 40
1.4898086911
100
AcDbArc
 50
2.145713632
 51
2.7289865264
  0
ARC
  5
390
100
AcDbEntity
  8
RUNDUNGEN
100
AcDbCircle
 62
7
  6
CONTINUOUS
 10
108.6255824395
 20
43.9376529129
 40
1.4806151137
100
AcDbArc
 50
0.0022077105
 51
2.1473661934
  0
ARC
  5
391
100
AcDbEntity
  8
RUNDUNGEN
100
AcDbCircle
 62
7
  6
CONTINUOUS
 10
109.1061978845
 20
38.0663090678
 40
1.0
100
AcDbArc
 50
270.0
 51
360.0
  0
ARC
  5
392
100
AcDbEntity
  8
RUNDUNGEN
100
AcDbCircle
 62
7
  6
CONTINUOUS
 10
108.4121189371
 20
45.5602643915
 40
1.0
100
AcDbArc
 50
20.2805987045
 51
59.1255945924
  0
ARC
  5
393
100
AcDbEntity
  8
RUNDUNGEN
100
AcDbCircle
 62
7
  6
CONTINUOUS
 10
106.7977758996
 20
47.0663090678
 40
1.0
100
AcDbArc
 50
34.8604365792
 51
90.0
  0
CIRCLE
  5
394
100
AcDbEntity
  8
FASEN
100
AcDbCircle
 62
7
  6
CONTINUOUS
 10
103.6061978845
 20
50.0663090678
 40
20.0
  0
CIRCLE
  5
395
100
AcDbEntity
  8
FASEN
100
AcDbCircle
 62
7
  6
CONTINUOUS
 10
103.6061978845
 20
50.0663090678
 40
19.5
  0
ARC
  5
396
100
AcDbEntity
  8
0
100
AcDbCircle
 62
7
  6
CONTINUOUS
 10
103.6061978845
 20
50.0663090678
 40
17.25
100
AcDbArc
 50
31.1250856063
 51
39.2607199174
  0
ARC
  5
397
100
AcDbEntity
  8
0
100
AcDbCircle
 62
7
  6
CONTINUOUS
 10
103.6061978845
 20
50.0663090678
 40
17.25
100
AcDbArc
 50
327.5725066183
 51
339.0539998895
  0
ARC
  5
398
100
AcDbEntity
  8
0
100
AcDbCircle
 62
7
  6
CONTINUOUS
 10
103.6061978845
 20
50.0663090678
 40
17.25
100
AcDbArc
 50
311.094787995
 51
324.9088248461
  0
ARC
  5
399
100
AcDbEntity
  8
0
100
AcDbCircle
 62
7
  6
CONTINUOUS
 10
103.6061978845
 20
50.0663090678
 40
17.25
100
AcDbArc
 50
341.4071774506
 51
28.5718781423
  0
CIRCLE
  5
39A
100
AcDbEntity
  8
RUNDUNGEN
100
AcDbCircle
 62
7
  6
CONTINUOUS
 10
103.6061978845
 20
50.0663090678
 40
17.0
  0
ARC
  5
39B
100
AcDbEntity
  8
RUNDUNGEN
100
AcDbCircle
 62
7
  6
CONTINUOUS
 10
106.7977758996
 20
53.0663090678
 40
1.0
100
AcDbArc
 50
270.0
 51
325.1399941868
  0
ARC
  5
39C
100
AcDbEntity
  8
RUNDUNGEN
100
AcDbCircle
 62
7
  6
CONTINUOUS
 10
111.1061978845
 20
50.0663090678
 40
4.25
100
AcDbArc
 50
214.8474264105
 51
239.1255945924
  0
ARC
  5
39D
100
AcDbEntity
  8
RUNDUNGEN
100
AcDbCircle
 62
7
  6
CONTINUOUS
 10
111.1061978845
 20
50.0663090678
 40
4.25
100
AcDbArc
 50
120.8744054076
 51
145.1524722286
  0
ARC
  5
39E
100
AcDbEntity
  8
RUNDUNGEN
100
AcDbCircle
 62
7
  6
CONTINUOUS
 10
108.5934567343
 20
56.1971991466
 40
1.5128141151
100
AcDbArc
 50
341.7640982673
 51
357.2408470198
  0
ARC
  5
39F
100
AcDbEntity
  8
RUNDUNGEN
100
AcDbCircle
 62
7
  6
CONTINUOUS
 10
108.6061978845
 20
56.2509675063
 40
1.5
100
AcDbArc
 50
332.7339555493
 51
360.0
  0
ARC
  5
3A0
100
AcDbEntity
  8
RUNDUNGEN
100
AcDbCircle
 62
7
  6
CONTINUOUS
 10
108.6087466608
 20
56.1935954007
 40
1.4971650063
100
AcDbArc
 50
329.3259705155
 51
341.7119779964
  0
ARC
  5
3A1
100
AcDbEntity
  8
RUNDUNGEN
100
AcDbCircle
 62
7
  6
CONTINUOUS
 10
108.6163935037
 20
56.1952772007
 40
1.4898116413
100
AcDbArc
 50
357.2722134902
 51
357.8523418659
  0
ARC
  5
3A2
100
AcDbEntity
  8
RUNDUNGEN
100
AcDbCircle
 62
7
  6
CONTINUOUS
 10
108.625578312
 20
56.1949756133
 40
1.4806219834
100
AcDbArc
 50
357.8506846843
 51
359.9979958687
  0
ARC
  5
3A3
100
AcDbEntity
  8
RUNDUNGEN
100
AcDbCircle
 62
7
  6
CONTINUOUS
 10
108.4121189371
 20
54.5723537442
 40
1.0
100
AcDbArc
 50
300.8744054076
 51
339.7193540039
  0
ARC
  5
3A4
100
AcDbEntity
  8
RUNDUNGEN
100
AcDbCircle
 62
7
  6
CONTINUOUS
 10
108.6062343719
 20
64.7377090814
 40
1.4999900489
100
AcDbArc
 50
0.0000281736
 51
71.1803883162
  0
ARC
  5
3A5
100
AcDbEntity
  8
RUNDUNGEN
100
AcDbCircle
 62
7
  6
CONTINUOUS
 10
109.1061978845
 20
62.0663090678
 40
1.0
100
AcDbArc
 50
0.0
 51
90.0
  0
ARC
  5
3A6
100
AcDbEntity
  8
RUNDUNGEN
100
AcDbCircle
 62
7
  6
CONTINUOUS
 10
120.6061978845
 20
50.0663090678
 40
12.0
100
AcDbArc
 50
152.7339555493
 51
159.7193540039
  0
ARC
  5
3A7
100
AcDbEntity
  8
RUNDUNGEN
100
AcDbCircle
 62
7
  6
CONTINUOUS
 10
120.6061978845
 20
50.0663090678
 40
12.0
100
AcDbArc
 50
200.2806459961
 51
207.2660444507
  0
ELLIPSE
  5
3A8
100
AcDbEntity
  8
0
100
AcDbEllipse
 62
7
  6
CONTINUOUS
 10
103.6061978845
 20
132.8934563331
 30
0.0
 11
17.25
 21
0.0
 31
0.0
 40
0.255319362
 41
0.0
 42
0.0096619769
  0
ELLIPSE
  5
3A9
100
AcDbEntity
  8
0
100
AcDbEllipse
 62
7
  6
CONTINUOUS
 10
103.6061978845
 20
125.8296265534
 30
0.0
 11
0.0
 21
32.2978726029
 31
0.0
 40
0.5340909047
 41
-1.5707963268
 42
-1.5418067593
  0
ELLIPSE
  5
3AA
100
AcDbEntity
  8
0
100
AcDbEllipse
 62
7
  6
CONTINUOUS
 10
103.6061978845
 20
108.1274206834
 30
0.0
 11
-0.0
 21
105.7025429584
 31
0.0
 40
0.1631938033
 41
-1.3861744009
 42
-1.3812577075
  0
ELLIPSE
  5
3AB
100
AcDbEntity
  8
0
100
AcDbEllipse
 62
7
  6
CONTINUOUS
 10
103.6061978845
 20
122.6806991369
 30
0.0
 11
-0.0
 21
26.4254814467
 31
0.0
 40
0.6527790245
 41
4.877387823
 42
4.8970109063
  0
ELLIPSE
  5
3AC
100
AcDbEntity
  8
0
100
AcDbEllipse
 62
7
  6
CONTINUOUS
 10
103.6061978845
 20
125.0920383245
 30
0.0
 11
17.25
 21
0.0
 31
0.0
 40
0.6808509827
 41
0.1503239486
 42
0.1649988426
  0
ELLIPSE
  5
3AD
100
AcDbEntity
  8
0
100
AcDbEllipse
 62
7
  6
CONTINUOUS
 10
103.6061978845
 20
126.3232428949
 30
0.0
 11
17.25
 21
-0.0
 31
0.0
 40
0.2042556065
 41
6.4091218187
 42
6.4335092558
  0
ELLIPSE
  5
3AE
100
AcDbEntity
  8
0
100
AcDbEllipse
 62
7
  6
CONTINUOUS
 10
103.6061978845
 20
130.3572868648
 30
0.0
 11
17.25
 21
0.0
 31
0.0
 40
0.2042556065
 41
-0.1503239486
 42
-0.1259365116
  0
ELLIPSE
  5
3AF
100
AcDbEntity
  8
0
100
AcDbEllipse
 62
7
  6
CONTINUOUS
 10
103.6061978845
 20
131.5884914352
 30
0.0
 11
17.25
 21
-0.0
 31
0.0
 40
0.6808509827
 41
-0.1649988426
 42
-0.1503239486
  0
ELLIPSE
  5
3B0
100
AcDbEntity
  8
0
100
AcDbEllipse
 62
7
  6
CONTINUOUS
 10
103.6061978845
 20
133.9998321428
 30
0.0
 11
0.0
 21
26.4254907003
 31
0.0
 40
0.6527787959
 41
-1.7554182527
 42
-1.7357951694
  0
ELLIPSE
  5
3B1
100
AcDbEntity
  8
0
100
AcDbEllipse
 62
7
  6
CONTINUOUS
 10
103.6061978845
 20
148.5531043675
 30
0.0
 11
-0.0
 21
105.702518282
 31
0.0
 40
0.1631938414
 41
-1.7603349461
 42
-1.7554182527
  0
ELLIPSE
  5
3B2
100
AcDbEntity
  8
0
100
AcDbEllipse
 62
7
  6
CONTINUOUS
 10
103.6061978845
 20
129.9714705137
 30
0.0
 11
17.25
 21
0.0
 31
0.0
 40
0.1702127457
 41
0.0967693348
 42
0.1259365116
  0
ELLIPSE
  5
3B3
100
AcDbEntity
  8
0
100
AcDbEllipse
 62
7
  6
CONTINUOUS
 10
103.6061978845
 20
129.2338825876
 30
0.0
 11
17.25
 21
0.0
 31
0.0
 40
0.6127654169
 41
0.0725273363
 42
0.0967693348
  0
ELLIPSE
  5
3B4
100
AcDbEntity
  8
0
100
AcDbEllipse
 62
7
  6
CONTINUOUS
 10
103.6061978845
 20
128.7232437662
 30
0.0
 11
0.0
 21
17.6170191765
 31
0.0
 40
0.9791667834
 41
4.770392514
 42
4.7849163167
  0
ELLIPSE
  5
3B5
100
AcDbEntity
  8
0
100
AcDbEllipse
 62
7
  6
CONTINUOUS
 10
103.6061978845
 20
127.7019711881
 30
0.0
 11
-0.0
 21
35.2339711495
 31
0.0
 40
0.4895843255
 41
4.7607169509
 42
4.770392514
  0
ELLIPSE
  5
3B6
100
AcDbEntity
  8
0
100
AcDbEllipse
 62
7
  6
CONTINUOUS
 10
103.6061978845
 20
126.850892414
 30
0.0
 11
-0.0
 21
52.8513084938
 31
0.0
 40
0.3263873779
 41
-1.527304356
 42
-1.5224683563
  0
ELLIPSE
  5
3B7
100
AcDbEntity
  8
0
100
AcDbEllipse
 62
7
  6
CONTINUOUS
 10
103.6061978845
 20
125.3189740049
 30
0.0
 11
-0.0
 21
88.0854319017
 31
0.0
 40
0.1958326096
 41
-1.5321393382
 42
-1.527304356
  0
ELLIPSE
  5
3B8
100
AcDbEntity
  8
0
100
AcDbEllipse
 62
7
  6
CONTINUOUS
 10
103.6061978845
 20
131.3615566488
 30
0.0
 11
-0.0
 21
88.0854565781
 31
0.0
 40
0.1958325548
 41
-1.6142882976
 42
-1.6094533154
  0
ELLIPSE
  5
3B9
100
AcDbEntity
  8
0
100
AcDbEllipse
 62
7
  6
CONTINUOUS
 10
103.6061978845
 20
129.8296350211
 30
0.0
 11
-0.0
 21
52.851259141
 31
0.0
 40
0.3263876827
 41
-1.6191242973
 42
-1.6142882976
  0
ELLIPSE
  5
3BA
100
AcDbEntity
  8
0
100
AcDbEllipse
 62
7
  6
CONTINUOUS
 10
103.6061978845
 20
128.9785589293
 30
0.0
 11
0.0
 21
35.2339773186
 31
0.0
 40
0.4895842398
 41
-1.6287998604
 42
-1.6191242973
  0
ELLIPSE
  5
3BB
100
AcDbEntity
  8
0
100
AcDbEllipse
 62
7
  6
CONTINUOUS
 10
103.6061978845
 20
127.9572861127
 30
0.0
 11
0.0
 21
17.6170212328
 31
0.0
 40
0.9791666691
 41
-1.6433236631
 42
-1.6287998604
  0
ELLIPSE
  5
3BC
100
AcDbEntity
  8
0
100
AcDbEllipse
 62
7
  6
CONTINUOUS
 10
103.6061978845
 20
127.4466472094
 30
0.0
 11
17.25
 21
0.0
 31
0.0
 40
0.6127654705
 41
-0.0967693348
 42
-0.0725273363
  0
ELLIPSE
  5
3BD
100
AcDbEntity
  8
0
100
AcDbEllipse
 62
7
  6
CONTINUOUS
 10
103.6061978845
 20
126.7090592187
 30
0.0
 11
17.25
 21
-0.0
 31
0.0
 40
0.1702127606
 41
-0.1259365116
 42
-0.0967693348
  0
ELLIPSE
  5
3BE
100
AcDbEntity
  8
0
100
AcDbEllipse
 62
7
  6
CONTINUOUS
 10
103.6061978845
 20
147.9572472645
 30
0.0
 11
-0.0
 21
52.8509567242
 31
0.0
 40
0.3263895503
 41
-1.9415509026
 42
-1.9363729938
  0
ELLIPSE
  5
3BF
100
AcDbEntity
  8
0
100
AcDbEllipse
 62
7
  6
CONTINUOUS
 10
103.6061978845
 20
137.318987184
 30
0.0
 11
-0.0
 21
23.489358902
 31
0.0
 40
0.7343750875
 41
-1.9571480781
 42
-1.9415509026
  0
ELLIPSE
  5
3C0
100
AcDbEntity
  8
0
100
AcDbEllipse
 62
7
  6
CONTINUOUS
 10
103.6061978845
 20
133.446644846
 30
0.0
 11
17.25
 21
0.0
 31
0.0
 40
0.7659569903
 41
-0.4073039459
 42
-0.3863517513
  0
ELLIPSE
  5
3C1
100
AcDbEntity
  8
0
100
AcDbEllipse
 62
7
  6
CONTINUOUS
 10
103.6061978845
 20
129.6083503702
 30
0.0
 11
17.25
 21
-0.0
 31
0.0
 40
0.2042553727
 41
-0.4337647347
 42
-0.4073039459
  0
ELLIPSE
  5
3C2
100
AcDbEntity
  8
0
100
AcDbEllipse
 62
7
  6
CONTINUOUS
 10
103.6061978845
 20
128.8594133979
 30
0.0
 11
17.25
 21
0.0
 31
0.0
 40
0.2042553727
 41
0.4073039459
 42
0.4337647347
  0
ELLIPSE
  5
3C3
100
AcDbEntity
  8
0
100
AcDbEllipse
 62
7
  6
CONTINUOUS
 10
103.6061978845
 20
125.021118922
 30
0.0
 11
17.25
 21
-0.0
 31
0.0
 40
0.7659569903
 41
0.3863517513
 42
0.4073039459
  0
ELLIPSE
  5
3C4
100
AcDbEntity
  8
0
100
AcDbEllipse
 62
7
  6
CONTINUOUS
 10
103.6061978845
 20
121.1487765841
 30
0.0
 11
0.0
 21
23.489358902
 31
0.0
 40
0.7343750875
 41
-1.200041751
 42
-1.1844445755
  0
ELLIPSE
  5
3C5
100
AcDbEntity
  8
0
100
AcDbEllipse
 62
7
  6
CONTINUOUS
 10
103.6061978845
 20
110.5105165035
 30
0.0
 11
0.0
 21
52.8509567242
 31
0.0
 40
0.3263895503
 41
-1.2052196597
 42
-1.200041751
  0
ELLIPSE
  5
3C6
100
AcDbEntity
  8
0
100
AcDbEllipse
 62
7
  6
CONTINUOUS
 10
103.6061978845
 20
159.4466733396
 30
0.0
 11
-0.0
 21
52.8511079322
 31
0.0
 40
0.3263886165
 41
-2.1891692447
 42
-2.1832528716
  0
ELLIPSE
  5
3C7
100
AcDbEntity
  8
0
100
AcDbEllipse
 62
7
  6
CONTINUOUS
 10
103.6061978845
 20
142.425369554
 30
0.0
 11
-0.0
 21
23.489358902
 31
0.0
 40
0.7343750875
 41
-2.2070705811
 42
-2.1891692447
  0
ELLIPSE
  5
3C8
100
AcDbEntity
  8
0
100
AcDbEllipse
 62
7
  6
CONTINUOUS
 10
103.6061978845
 20
136.318989175
 30
0.0
 11
17.25
 21
0.0
 31
0.0
 40
0.7659575381
 41
-0.6605187342
 42
-0.6362742543
  0
ELLIPSE
  5
3C9
100
AcDbEntity
  8
0
100
AcDbEllipse
 62
7
  6
CONTINUOUS
 10
103.6061978845
 20
130.3743067322
 30
0.0
 11
17.25
 21
0.0
 31
0.0
 40
0.2042552558
 41
-0.691484194
 42
-0.6605187342
  0
ELLIPSE
  5
3CA
100
AcDbEntity
  8
0
100
AcDbEllipse
 62
7
  6
CONTINUOUS
 10
103.6061978845
 20
128.0934570358
 30
0.0
 11
17.25
 21
-0.0
 31
0.0
 40
0.2042552558
 41
0.6605187342
 42
0.691484194
  0
ELLIPSE
  5
3CB
100
AcDbEntity
  8
0
100
AcDbEllipse
 62
7
  6
CONTINUOUS
 10
103.6061978845
 20
122.148774593
 30
0.0
 11
17.25
 21
0.0
 31
0.0
 40
0.7659575381
 41
0.6362742543
 42
0.6605187342
  0
ELLIPSE
  5
3CC
100
AcDbEntity
  8
0
100
AcDbEllipse
 62
7
  6
CONTINUOUS
 10
103.6061978845
 20
116.0423942141
 30
0.0
 11
-0.0
 21
23.489358902
 31
0.0
 40
0.7343750875
 41
-0.9524234089
 42
-0.9345220725
  0
ELLIPSE
  5
3CD
100
AcDbEntity
  8
0
100
AcDbEllipse
 62
7
  6
CONTINUOUS
 10
103.6061978845
 20
99.0210904284
 30
0.0
 11
-0.0
 21
52.8511079322
 31
0.0
 40
0.3263886165
 41
-0.958339782
 42
-0.9524234089
  0
ELLIPSE
  5
3CE
100
AcDbEntity
  8
0
100
AcDbEllipse
 62
7
  6
CONTINUOUS
 10
103.6061978845
 20
130.9785532642
 30
0.0
 11
-0.0
 21
70.4683455213
 31
0.0
 40
0.244790762
 41
-1.536973444
 42
-1.5321393658
  0
ELLIPSE
  5
3CF
100
AcDbEntity
  8
0
100
AcDbEllipse
 62
7
  6
CONTINUOUS
 10
103.6061978845
 20
132.4679259895
 30
0.0
 11
0.0
 21
26.4254783621
 31
0.0
 40
0.6527791007
 41
-1.5466393972
 42
-1.536973444
  0
ELLIPSE
  5
3D0
100
AcDbEntity
  8
0
100
AcDbEllipse
 62
7
  6
CONTINUOUS
 10
103.6061978845
 20
132.8225344242
 30
0.0
 11
17.25
 21
0.0
 31
0.0
 40
0.6808512211
 41
6.292847284
 42
6.3073422368
  0
ELLIPSE
  5
3D1
100
AcDbEntity
  8
0
100
AcDbEllipse
 62
7
  6
CONTINUOUS
 10
103.6061978845
 20
135.7274990825
 30
0.0
 11
17.25
 21
0.0
 31
0.0
 40
0.2042552558
 41
0.1503239626
 42
0.1748018834
  0
ELLIPSE
  5
3D2
100
AcDbEntity
  8
0
100
AcDbEllipse
 62
7
  6
CONTINUOUS
 10
103.6061978845
 20
134.276434898
 30
0.0
 11
17.25
 21
-0.0
 31
0.0
 40
0.7659575381
 41
0.1308074961
 42
0.1503239626
  0
ELLIPSE
  5
3D3
100
AcDbEntity
  8
0
100
AcDbEllipse
 62
7
  6
CONTINUOUS
 10
103.6061978845
 20
132.9360099367
 30
0.0
 11
0.0
 21
23.489358902
 31
0.0
 40
0.7343750875
 41
4.8285923529
 42
4.8431964765
  0
ELLIPSE
  5
3D4
100
AcDbEntity
  8
0
100
AcDbEllipse
 62
7
  6
CONTINUOUS
 10
103.6061978845
 20
129.5317491796
 30
0.0
 11
-0.0
 21
52.8511079322
 31
0.0
 40
0.3263886165
 41
-1.4594553078
 42
-1.4545929543
  0
ELLIPSE
  5
3D5
100
AcDbEntity
  8
0
100
AcDbEllipse
 62
7
  6
CONTINUOUS
 10
103.6061978845
 20
140.9360145884
 30
0.0
 11
-0.0
 21
52.8511079322
 31
0.0
 40
0.3263886165
 41
-1.6869996993
 42
-1.6821373458
  0
ELLIPSE
  5
3D6
100
AcDbEntity
  8
0
100
AcDbEllipse
 62
7
  6
CONTINUOUS
 10
103.6061978845
 20
137.5317538313
 30
0.0
 11
-0.0
 21
23.489358902
 31
0.0
 40
0.7343750875
 41
-1.7016038229
 42
-1.6869996993
  0
ELLIPSE
  5
3D7
100
AcDbEntity
  8
0
100
AcDbEllipse
 62
7
  6
CONTINUOUS
 10
103.6061978845
 20
135.6168607165
 30
0.0
 11
17.25
 21
0.0
 31
0.0
 40
0.5106383587
 41
-0.1503239626
 42
-0.1308074961
  0
ELLIPSE
  5
3D8
100
AcDbEntity
  8
0
100
AcDbEllipse
 62
7
  6
CONTINUOUS
 10
103.6061978845
 20
127.5553950687
 30
0.0
 11
-0.0
 21
45.0212767124
 31
0.0
 40
0.3831521729
 41
4.8188702738
 42
4.862712943
  0
ELLIPSE
  5
3D9
100
AcDbEntity
  8
0
100
AcDbEllipse
 62
7
  6
CONTINUOUS
 10
103.6061978845
 20
130.7090591864
 30
0.0
 11
17.25
 21
0.0
 31
0.0
 40
0.1702127457
 41
-0.1552118342
 42
-0.1259365116
  0
ELLIPSE
  5
3DA
100
AcDbEntity
  8
0
100
AcDbEllipse
 62
7
  6
CONTINUOUS
 10
103.6061978845
 20
134.9218252758
 30
0.0
 11
17.0
 21
0.0
 31
0.0
 40
0.3404254913
 41
0.1575132709
 42
0.1724216907
  0
ELLIPSE
  5
3DB
100
AcDbEntity
  8
0
100
AcDbEllipse
 62
7
  6
CONTINUOUS
 10
103.6061978845
 20
133.1062238998
 30
0.0
 11
-0.0
 21
17.3616917793
 31
0.0
 40
0.9791672503
 41
-1.4232022211
 42
-1.4132830559
  0
ELLIPSE
  5
3DC
100
AcDbEntity
  8
0
100
AcDbEllipse
 62
7
  6
CONTINUOUS
 10
103.6061978845
 20
127.9998330076
 30
0.0
 11
0.0
 21
52.0851498462
 31
0.0
 40
0.3263886165
 41
-1.4281562542
 42
-1.4232022211
  0
ELLIPSE
  5
3DD
100
AcDbEntity
  8
0
100
AcDbEllipse
 62
7
  6
CONTINUOUS
 10
103.6061978845
 20
142.5530371332
 30
0.0
 11
-0.0
 21
52.0851498462
 31
0.0
 40
0.3263886165
 41
-1.7183904325
 42
-1.7134363994
  0
ELLIPSE
  5
3DE
100
AcDbEntity
  8
0
100
AcDbEllipse
 62
7
  6
CONTINUOUS
 10
103.6061978845
 20
137.446646241
 30
0.0
 11
0.0
 21
17.3616917793
 31
0.0
 40
0.9791672503
 41
-1.7283095977
 42
-1.7183904325
  0
ELLIPSE
  5
3DF
100
AcDbEntity
  8
0
100
AcDbEllipse
 62
7
  6
CONTINUOUS
 10
103.6061978845
 20
135.6310448651
 30
0.0
 11
17.0
 21
-0.0
 31
0.0
 40
0.3404254913
 41
-0.1724216907
 42
-0.1575132709
  0
ELLIPSE
  5
3E0
100
AcDbEntity
  8
0
100
AcDbEllipse
 62
7
  6
CONTINUOUS
 10
103.6061978845
 20
109.2340201277
 30
0.0
 11
-0.0
 21
88.0844485277
 31
0.0
 40
0.1958347959
 41
-1.3615431249
 42
-1.3566018266
  0
ELLIPSE
  5
3E1
100
AcDbEntity
  8
0
100
AcDbEllipse
 62
7
  6
CONTINUOUS
 10
103.6061978845
 20
116.5529911867
 30
0.0
 11
0.0
 21
52.851259141
 31
0.0
 40
0.3263876827
 41
-1.366479187
 42
-1.3615431249
  0
ELLIPSE
  5
3E2
100
AcDbEntity
  8
0
100
AcDbEllipse
 62
7
  6
CONTINUOUS
 10
103.6061978845
 20
120.1275121362
 30
0.0
 11
-0.0
 21
35.2339773186
 31
0.0
 40
0.4895842398
 41
4.9068489351
 42
4.9167061202
  0
ELLIPSE
  5
3E3
100
AcDbEntity
  8
0
100
AcDbEllipse
 62
7
  6
CONTINUOUS
 10
103.6061978845
 20
123.5317545334
 30
0.0
 11
-0.0
 21
17.6170212328
 31
0.0
 40
0.9791666691
 41
-1.3910866401
 42
-1.3763363721
  0
ELLIPSE
  5
3E4
100
AcDbEntity
  8
0
100
AcDbEllipse
 62
7
  6
CONTINUOUS
 10
103.6061978845
 20
124.7913260407
 30
0.0
 11
17.25
 21
-0.0
 31
0.0
 40
0.6127668731
 41
0.1552118342
 42
0.1797096866
  0
ELLIPSE
  5
3E5
100
AcDbEntity
  8
0
100
AcDbEllipse
 62
7
  6
CONTINUOUS
 10
103.6061978845
 20
125.9714704814
 30
0.0
 11
17.25
 21
-0.0
 31
0.0
 40
0.1702127606
 41
0.1259365116
 42
0.1552118342
  0
ELLIPSE
  5
3E6
100
AcDbEntity
  8
0
100
AcDbEllipse
 62
7
  6
CONTINUOUS
 10
103.6061978845
 20
131.0778531221
 30
0.0
 11
17.25
 21
0.0
 31
0.0
 40
0.3404254913
 41
-0.4284472765
 42
-0.4125712715
  0
ELLIPSE
  5
3E7
100
AcDbEntity
  8
0
100
AcDbEllipse
 62
7
  6
CONTINUOUS
 10
103.6061978845
 20
135.7870790472
 30
0.0
 11
-0.0
 21
17.6170359774
 31
0.0
 40
0.9791658496
 41
-1.9833675983
 42
-1.9728448599
  0
ELLIPSE
  5
3E8
100
AcDbEntity
  8
0
100
AcDbEllipse
 62
7
  6
CONTINUOUS
 10
103.6061978845
 20
149.5742654264
 30
0.0
 11
-0.0
 21
52.8509567242
 31
0.0
 40
0.3263895503
 41
-1.9728448599
 42
-1.9676011651
  0
ELLIPSE
  5
3E9
100
AcDbEntity
  8
0
100
AcDbEllipse
 62
7
  6
CONTINUOUS
 10
103.6061978845
 20
108.9786047144
 30
0.0
 11
0.0
 21
52.8509567242
 31
0.0
 40
0.3263895503
 41
-1.1739914885
 42
-1.1687477937
  0
ELLIPSE
  5
3EA
100
AcDbEntity
  8
0
100
AcDbEllipse
 62
7
  6
CONTINUOUS
 10
103.6061978845
 20
122.7657910936
 30
0.0
 11
0.0
 21
17.6170359774
 31
0.0
 40
0.9791658496
 41
-1.1687477937
 42
-1.1582250553
  0
ELLIPSE
  5
3EB
100
AcDbEntity
  8
0
100
AcDbEllipse
 62
7
  6
CONTINUOUS
 10
103.6061978845
 20
127.4750170188
 30
0.0
 11
17.25
 21
-0.0
 31
0.0
 40
0.3404254913
 41
0.4125712715
 42
0.4284472765
  0
ELLIPSE
  5
3EC
100
AcDbEntity
  8
0
100
AcDbEllipse
 62
7
  6
CONTINUOUS
 10
103.6061978845
 20
130.7090591864
 30
0.0
 11
17.0
 21
0.0
 31
0.0
 40
0.1702127457
 41
-0.1575132851
 42
-0.1277985931
  0
ELLIPSE
  5
3ED
100
AcDbEntity
  8
0
100
AcDbEllipse
 62
7
  6
CONTINUOUS
 10
103.6061978845
 20
131.8892035238
 30
0.0
 11
17.0
 21
0.0
 31
0.0
 40
0.6127668194
 41
-0.1823819505
 42
-0.1575132851
  0
ELLIPSE
  5
3EE
100
AcDbEntity
  8
0
100
AcDbEllipse
 62
7
  6
CONTINUOUS
 10
103.6061978845
 20
133.1487748289
 30
0.0
 11
0.0
 21
17.361700058
 31
0.0
 40
0.9791667834
 41
-1.7681534173
 42
-1.7531782773
  0
ELLIPSE
  5
3EF
100
AcDbEntity
  8
0
100
AcDbEllipse
 62
7
  6
CONTINUOUS
 10
103.6061978845
 20
136.5530164314
 30
0.0
 11
-0.0
 21
34.7233338865
 31
0.0
 40
0.4895843255
 41
-1.7781616183
 42
-1.7681534173
  0
ELLIPSE
  5
3F0
100
AcDbEntity
  8
0
100
AcDbEllipse
 62
7
  6
CONTINUOUS
 10
103.6061978845
 20
140.1275486462
 30
0.0
 11
-0.0
 21
52.0853475012
 31
0.0
 40
0.3263873779
 41
-1.7831735383
 42
-1.7781616183
  0
ELLIPSE
  5
3F1
100
AcDbEntity
  8
0
100
AcDbEllipse
 62
7
  6
CONTINUOUS
 10
103.6061978845
 20
147.4465043272
 30
0.0
 11
-0.0
 21
86.8078379987
 31
0.0
 40
0.1958348508
 41
-1.7881909382
 42
-1.7831735383
  0
ELLIPSE
  5
3F2
100
AcDbEntity
  8
0
100
AcDbEllipse
 62
7
  6
CONTINUOUS
 10
103.6061978845
 20
109.2340201277
 30
0.0
 11
-0.0
 21
86.8078623172
 31
0.0
 40
0.1958347959
 41
-1.3584191152
 42
-1.3554093345
  0
ELLIPSE
  5
3F3
100
AcDbEntity
  8
0
100
AcDbEllipse
 62
7
  6
CONTINUOUS
 10
103.6061978845
 20
116.5529911867
 30
0.0
 11
-0.0
 21
52.0852988636
 31
0.0
 40
0.3263876827
 41
-1.3634310353
 42
-1.3584191152
  0
ELLIPSE
  5
3F4
100
AcDbEntity
  8
0
100
AcDbEllipse
 62
7
  6
CONTINUOUS
 10
103.6061978845
 20
120.1275121362
 30
0.0
 11
-0.0
 21
34.7233399661
 31
0.0
 40
0.4895842398
 41
-1.3734392363
 42
-1.3634310353
  0
ELLIPSE
  5
3F5
100
AcDbEntity
  8
0
100
AcDbEllipse
 62
7
  6
CONTINUOUS
 10
103.6061978845
 20
123.5317545334
 30
0.0
 11
-0.0
 21
17.3617020845
 31
0.0
 40
0.9791666691
 41
-1.3884143763
 42
-1.3734392363
  0
ELLIPSE
  5
3F6
100
AcDbEntity
  8
0
100
AcDbEllipse
 62
7
  6
CONTINUOUS
 10
103.6061978845
 20
124.7913260407
 30
0.0
 11
17.0
 21
0.0
 31
0.0
 40
0.6127668731
 41
0.1575132851
 42
0.1823819505
  0
ELLIPSE
  5
3F7
100
AcDbEntity
  8
0
100
AcDbEllipse
 62
7
  6
CONTINUOUS
 10
103.6061978845
 20
132.3544487957
 30
0.0
 11
17.25
 21
0.0
 31
0.0
 40
0.3404254913
 41
-0.6852288828
 42
-0.6666510023
  0
ELLIPSE
  5
3F8
100
AcDbEntity
  8
0
100
AcDbEllipse
 62
7
  6
CONTINUOUS
 10
103.6061978845
 20
139.6168541371
 30
0.0
 11
0.0
 21
17.617010776
 31
0.0
 40
0.9791672503
 41
-2.237447329
 42
-2.225211889
  0
ELLIPSE
  5
3F9
100
AcDbEntity
  8
0
100
AcDbEllipse
 62
7
  6
CONTINUOUS
 10
103.6061978845
 20
161.0636958844
 30
0.0
 11
-0.0
 21
52.8511079322
 31
0.0
 40
0.3263886165
 41
-2.225211889
 42
-2.2191371617
  0
ELLIPSE
  5
3FA
100
AcDbEntity
  8
0
100
AcDbEllipse
 62
7
  6
CONTINUOUS
 10
103.6061978845
 20
97.4891742565
 30
0.0
 11
-0.0
 21
52.8511079322
 31
0.0
 40
0.3263886165
 41
-0.9224554919
 42
-0.9163807645
  0
ELLIPSE
  5
3FB
100
AcDbEntity
  8
0
100
AcDbEllipse
 62
7
  6
CONTINUOUS
 10
103.6061978845
 20
118.9360160037
 30
0.0
 11
0.0
 21
17.617010776
 31
0.0
 40
0.9791672503
 41
-0.9163807645
 42
-0.9041453245
  0
ELLIPSE
  5
3FC
100
AcDbEntity
  8
0
100
AcDbEllipse
 62
7
  6
CONTINUOUS
 10
103.6061978845
 20
126.1984213451
 30
0.0
 11
17.25
 21
-0.0
 31
0.0
 40
0.3404254913
 41
0.6666510023
 42
0.6852288828
  0
ELLIPSE
  5
3FD
100
AcDbEntity
  8
0
100
AcDbEllipse
 62
7
  6
CONTINUOUS
 10
103.6061978845
 20
132.3743073827
 30
0.0
 11
17.25
 21
-0.0
 31
0.0
 40
0.2042553906
 41
6.2735233303
 42
6.2976785682
  0
ELLIPSE
  5
3FE
100
AcDbEntity
  8
0
100
AcDbEllipse
 62
7
  6
CONTINUOUS
 10
103.6061978845
 20
125.8615407546
 30
0.0
 11
-0.0
 21
45.5744714483
 31
0.0
 40
0.3730158455
 41
-1.4281562542
 42
-1.3884143549
  0
ELLIPSE
  5
3FF
100
AcDbEntity
  8
0
100
AcDbEllipse
 62
7
  6
CONTINUOUS
 10
103.6061978845
 20
127.2083496398
 30
0.0
 11
17.25
 21
-0.0
 31
0.0
 40
0.204255139
 41
-0.1259365116
 42
-0.1016241049
  0
ELLIPSE
  5
400
100
AcDbEntity
  8
0
100
AcDbEllipse
 62
7
  6
CONTINUOUS
 10
103.6061978845
 20
128.0423923663
 30
0.0
 11
17.25
 21
0.0
 31
0.0
 40
0.6808509827
 41
-0.1016241049
 42
-0.0870664823
  0
ELLIPSE
  5
401
100
AcDbEntity
  8
0
100
AcDbEllipse
 62
7
  6
CONTINUOUS
 10
103.6061978845
 20
129.3189904185
 30
0.0
 11
0.0
 21
26.4255570506
 31
0.0
 40
0.6527771569
 41
-1.6578628091
 42
-1.638480863
  0
ELLIPSE
  5
402
100
AcDbEntity
  8
0
100
AcDbEllipse
 62
7
  6
CONTINUOUS
 10
103.6061978845
 20
134.6806385821
 30
0.0
 11
-0.0
 21
105.701333298
 31
0.0
 40
0.1631956709
 41
-1.638480863
 42
-1.6336395968
  0
ELLIPSE
  5
403
100
AcDbEntity
  8
0
100
AcDbEllipse
 62
7
  6
CONTINUOUS
 10
103.6061978845
 20
121.9998926677
 30
0.0
 11
-0.0
 21
105.7013086219
 31
0.0
 40
0.163195709
 41
-1.5079530568
 42
-1.5031117906
  0
ELLIPSE
  5
404
100
AcDbEntity
  8
0
100
AcDbEllipse
 62
7
  6
CONTINUOUS
 10
103.6061978845
 20
127.3615385366
 30
0.0
 11
-0.0
 21
26.4255663043
 31
0.0
 40
0.6527769283
 41
4.7800735166
 42
4.7994554627
  0
ELLIPSE
  5
405
100
AcDbEntity
  8
0
100
AcDbEllipse
 62
7
  6
CONTINUOUS
 10
103.6061978845
 20
132.2977117152
 30
0.0
 11
17.25
 21
0.0
 31
0.0
 40
0.5106380606
 41
6.2976785682
 42
6.31700819
  0
ELLIPSE
  5
406
100
AcDbEntity
  8
0
100
AcDbEllipse
 62
7
  6
CONTINUOUS
 10
103.6061978845
 20
128.6381373934
 30
0.0
 11
17.25
 21
-0.0
 31
0.0
 40
0.6808509827
 41
6.3702517895
 42
6.384809412
  0
ELLIPSE
  5
407
100
AcDbEntity
  8
0
100
AcDbEllipse
 62
7
  6
CONTINUOUS
 10
103.6061978845
 20
129.4721801199
 30
0.0
 11
17.25
 21
0.0
 31
0.0
 40
0.204255139
 41
6.384809412
 42
6.4091218187
  0
ELLIPSE
  5
408
100
AcDbEntity
  8
0
100
AcDbEllipse
 62
7
  6
CONTINUOUS
 10
103.6061978845
 20
121.9998926677
 30
0.0
 11
-0.0
 21
104.1694055984
 31
0.0
 40
0.163195709
 41
4.7761576617
 42
4.781070434
  0
ELLIPSE
  5
409
100
AcDbEntity
  8
0
100
AcDbEllipse
 62
7
  6
CONTINUOUS
 10
103.6061978845
 20
131.9998386059
 30
0.0
 11
-0.0
 21
17.6170375197
 31
0.0
 40
0.9791657639
 41
-1.536973444
 42
-1.5176311974
  0
ELLIPSE
  5
40A
100
AcDbEntity
  8
0
100
AcDbEllipse
 62
7
  6
CONTINUOUS
 10
103.6061978845
 20
131.0636702068
 30
0.0
 11
-0.0
 21
35.2340277212
 31
0.0
 40
0.4895835394
 41
-1.5176311974
 42
-1.5079530429
  0
ELLIPSE
  5
40B
100
AcDbEntity
  8
0
100
AcDbEllipse
 62
7
  6
CONTINUOUS
 10
103.6061978845
 20
127.7445317934
 30
0.0
 11
-0.0
 21
88.0849278737
 31
0.0
 40
0.1958337302
 41
-1.5079530429
 42
-1.5031118045
  0
ELLIPSE
  5
40C
100
AcDbEntity
  8
0
100
AcDbEllipse
 62
7
  6
CONTINUOUS
 10
103.6061978845
 20
134.6806385821
 30
0.0
 11
-0.0
 21
104.1694299169
 31
0.0
 40
0.1631956709
 41
-1.6394777804
 42
-1.6345650081
  0
ELLIPSE
  5
40D
100
AcDbEntity
  8
0
100
AcDbEllipse
 62
7
  6
CONTINUOUS
 10
103.6061978845
 20
125.9714704814
 30
0.0
 11
17.0
 21
-0.0
 31
0.0
 40
0.1702127606
 41
0.1277985931
 42
0.1575132851
  0
ELLIPSE
  5
40E
100
AcDbEntity
  8
0
100
AcDbEllipse
 62
7
  6
CONTINUOUS
 10
103.6061978845
 20
147.4465043272
 30
0.0
 11
-0.0
 21
88.0844238516
 31
0.0
 40
0.1958348508
 41
-1.784990827
 42
-1.7800495287
  0
ELLIPSE
  5
40F
100
AcDbEntity
  8
0
100
AcDbEllipse
 62
7
  6
CONTINUOUS
 10
103.6061978845
 20
140.1275486462
 30
0.0
 11
-0.0
 21
52.8513084938
 31
0.0
 40
0.3263873779
 41
-1.7800495287
 42
-1.7751134666
  0
ELLIPSE
  5
410
100
AcDbEntity
  8
0
100
AcDbEllipse
 62
7
  6
CONTINUOUS
 10
103.6061978845
 20
135.6310448651
 30
0.0
 11
17.25
 21
0.0
 31
0.0
 40
0.3404254913
 41
-0.1698983162
 42
-0.1552118202
  0
ELLIPSE
  5
411
100
AcDbEntity
  8
0
100
AcDbEllipse
 62
7
  6
CONTINUOUS
 10
103.6061978845
 20
137.446646241
 30
0.0
 11
0.0
 21
17.617010776
 31
0.0
 40
0.9791672503
 41
-1.726008147
 42
-1.7162360619
  0
ELLIPSE
  5
412
100
AcDbEntity
  8
0
100
AcDbEllipse
 62
7
  6
CONTINUOUS
 10
103.6061978845
 20
142.5530371332
 30
0.0
 11
-0.0
 21
52.8511079322
 31
0.0
 40
0.3263886165
 41
-1.7162360619
 42
-1.7113553262
  0
ELLIPSE
  5
413
100
AcDbEntity
  8
0
100
AcDbEllipse
 62
7
  6
CONTINUOUS
 10
103.6061978845
 20
127.9998330076
 30
0.0
 11
-0.0
 21
52.8511079322
 31
0.0
 40
0.3263886165
 41
-1.4302373274
 42
-1.4253565917
  0
ELLIPSE
  5
414
100
AcDbEntity
  8
0
100
AcDbEllipse
 62
7
  6
CONTINUOUS
 10
103.6061978845
 20
133.1062238998
 30
0.0
 11
0.0
 21
17.617010776
 31
0.0
 40
0.9791672503
 41
-1.4253565917
 42
-1.4155845066
  0
ELLIPSE
  5
415
100
AcDbEntity
  8
0
100
AcDbEllipse
 62
7
  6
CONTINUOUS
 10
103.6061978845
 20
134.9218252758
 30
0.0
 11
17.25
 21
-0.0
 31
0.0
 40
0.3404254913
 41
0.1552118202
 42
0.1698983162
  0
ELLIPSE
  5
416
100
AcDbEntity
  8
0
100
AcDbEllipse
 62
7
  6
CONTINUOUS
 10
103.6061978845
 20
127.4750170188
 30
0.0
 11
17.0
 21
0.0
 31
0.0
 40
0.3404254913
 41
0.4190170503
 42
0.4351744717
  0
ELLIPSE
  5
417
100
AcDbEntity
  8
0
100
AcDbEllipse
 62
7
  6
CONTINUOUS
 10
103.6061978845
 20
122.7657910936
 30
0.0
 11
-0.0
 21
17.3617166154
 31
0.0
 40
0.9791658496
 41
-1.1624863287
 42
-1.1517792765
  0
ELLIPSE
  5
418
100
AcDbEntity
  8
0
100
AcDbEllipse
 62
7
  6
CONTINUOUS
 10
103.6061978845
 20
108.9786047144
 30
0.0
 11
0.0
 21
52.0850008297
 31
0.0
 40
0.3263895503
 41
-1.1678212377
 42
-1.1624863287
  0
ELLIPSE
  5
419
100
AcDbEntity
  8
0
100
AcDbEllipse
 62
7
  6
CONTINUOUS
 10
103.6061978845
 20
149.5742654264
 30
0.0
 11
-0.0
 21
52.0850008297
 31
0.0
 40
0.3263895503
 41
-1.9791063249
 42
-1.9737714159
  0
ELLIPSE
  5
41A
100
AcDbEntity
  8
0
100
AcDbEllipse
 62
7
  6
CONTINUOUS
 10
103.6061978845
 20
135.7870790472
 30
0.0
 11
-0.0
 21
17.3617166154
 31
0.0
 40
0.9791658496
 41
-1.9898133771
 42
-1.9791063249
  0
ELLIPSE
  5
41B
100
AcDbEntity
  8
0
100
AcDbEllipse
 62
7
  6
CONTINUOUS
 10
103.6061978845
 20
131.0778531221
 30
0.0
 11
17.0
 21
-0.0
 31
0.0
 40
0.3404254913
 41
-0.4351744717
 42
-0.4190170503
  0
ELLIPSE
  5
41C
100
AcDbEntity
  8
0
100
AcDbEllipse
 62
7
  6
CONTINUOUS
 10
103.6061978845
 20
136.5530164314
 30
0.0
 11
0.0
 21
35.2339711495
 31
0.0
 40
0.4895843255
 41
-1.7751134666
 42
-1.7652562815
  0
ELLIPSE
  5
41D
100
AcDbEntity
  8
0
100
AcDbEllipse
 62
7
  6
CONTINUOUS
 10
103.6061978845
 20
133.1487748289
 30
0.0
 11
0.0
 21
17.6170191765
 31
0.0
 40
0.9791667834
 41
-1.7652562815
 42
-1.7505060134
  0
ELLIPSE
  5
41E
100
AcDbEntity
  8
0
100
AcDbEllipse
 62
7
  6
CONTINUOUS
 10
103.6061978845
 20
126.1984213451
 30
0.0
 11
17.0
 21
0.0
 31
0.0
 40
0.3404254913
 41
0.6782752682
 42
0.6973086094
  0
ELLIPSE
  5
41F
100
AcDbEntity
  8
0
100
AcDbEllipse
 62
7
  6
CONTINUOUS
 10
103.6061978845
 20
118.9360160037
 30
0.0
 11
-0.0
 21
17.3616917793
 31
0.0
 40
0.9791672503
 41
-0.9050489816
 42
-0.8925210586
  0
ELLIPSE
  5
420
100
AcDbEntity
  8
0
100
AcDbEllipse
 62
7
  6
CONTINUOUS
 10
103.6061978845
 20
97.4891742565
 30
0.0
 11
-0.0
 21
52.0851498462
 31
0.0
 40
0.3263886165
 41
-0.9112668142
 42
-0.9050489816
  0
ELLIPSE
  5
421
100
AcDbEntity
  8
0
100
AcDbEllipse
 62
7
  6
CONTINUOUS
 10
103.6061978845
 20
161.0636958844
 30
0.0
 11
-0.0
 21
52.0851498462
 31
0.0
 40
0.3263886165
 41
-2.236543672
 42
-2.2303258394
  0
ELLIPSE
  5
422
100
AcDbEntity
  8
0
100
AcDbEllipse
 62
7
  6
CONTINUOUS
 10
103.6061978845
 20
139.6168541371
 30
0.0
 11
0.0
 21
17.3616917793
 31
0.0
 40
0.9791672503
 41
-2.249071595
 42
-2.236543672
  0
ELLIPSE
  5
423
100
AcDbEntity
  8
0
100
AcDbEllipse
 62
7
  6
CONTINUOUS
 10
103.6061978845
 20
132.3544487957
 30
0.0
 11
17.0
 21
-0.0
 31
0.0
 40
0.3404254913
 41
-0.6973086094
 42
-0.6782752682
  0
ELLIPSE
  5
424
100
AcDbEntity
  8
0
100
AcDbEllipse
 62
7
  6
CONTINUOUS
 10
103.6061978845
 20
131.8892035238
 30
0.0
 11
17.25
 21
0.0
 31
0.0
 40
0.6127668194
 41
-0.1797096866
 42
-0.1552118342
  0
ELLIPSE
  5
425
100
AcDbEntity
  8
0
100
AcDbEllipse
 62
7
  6
CONTINUOUS
 10
103.6061978845
 20
125.8615407546
 30
0.0
 11
-0.0
 21
46.2446842637
 31
0.0
 40
0.3730158455
 41
-1.4302373274
 42
-1.3910866191
  0
ENDSEC
  0
SECTION
  2
OBJECTS
  0
DICTIONARY
  5
C
100
AcDbDictionary
280
0
281
1
  3
ACAD_GROUP
350
D
  3
ACAD_MLINESTYLE
350
17
  3
ACAD_LAYOUT
350
1A
  3
ACAD_PLOTSETTINGS
350
19
  3
ACAD_PLOTSTYLENAME
350
E
  0
DICTIONARY
  5
D
102
{ACAD_REACTORS
330
C
102
}
100
AcDbDictionary
280
0
281
1
  0
ACDBDICTIONARYWDFLT
  5
E
102
{ACAD_REACTORS
330
C
102
}
100
AcDbDictionary
281
1
  3
Normal
350
F
100
AcDbDictionaryWithDefault
340
F
  0
DICTIONARY
  5
17
102
{ACAD_REACTORS
330
C
102
}
100
AcDbDictionary
280
0
281
1
  3
Standard
350
18
  0
DICTIONARY
  5
19
102
{ACAD_REACTORS
330
C
102
}
100
AcDbDictionary
281
1
  0
DICTIONARY
  5
1A
102
{ACAD_REACTORS
330
C
102
}
100
AcDbDictionary
281
1
  3
Model
350
426
  3
Layout1
350
427
  0
ACDBPLACEHOLDER
  5
F
102
{ACAD_REACTORS
330
E
102
}
  0
MLINESTYLE
  5
18
102
{ACAD_REACTORS
330
17
102
}
100
AcDbMlineStyle
  2
STANDARD
 70
0
  3

 62
256
 51
90.0
 52
90.0
 71
2
 49
0.5
 62
256
  6
BYLAYER
 49
-0.5
 62
256
  6
BYLAYER
  0
LAYOUT
  5
426
102
{ACAD_REACTORS
330
1A
102
}
100
AcDbPlotSettings
  1

  2
none_device
  4
ISO_A4_(297.00_x_210.00_MM)
  6

 40
0.0
 41
0.0
 42
0.0
 43
0.0
 44
297.0
 45
210.0
 46
0.0
 47
0.0
 48
0.0
 49
0.0
140
0.0
141
0.0
142
1.0
143
1.0
 70
1024
 72
1
 73
0
 74
0
  7

 75
0
147
1.0
148
0.0
149
0.0
100
AcDbLayout
  1
Model
 70
0
 71
0
 10
0.0
 20
0.0
 11
297.0
 21
210.0
 12
0.0
 22
0.0
 32
0.0
 14
0.0
 24
0.0
 34
0.0
 15
0.0
 25
0.0
 35
0.0
146
0.0
 13
0.0
 23
0.0
 33
0.0
 16
1.0
 26
0.0
 36
0.0
 17
0.0
 27
1.0
 37
0.0
 76
0
330
20D
345
0
346
0
  0
LAYOUT
  5
427
102
{ACAD_REACTORS
330
1A
102
}
100
AcDbPlotSettings
  1

  2
none_device
  4
ISO_A4_(297.00_x_210.00_MM)
  6

 40
0.0
 41
0.0
 42
0.0
 43
0.0
 44
297.0
 45
210.0
 46
0.0
 47
0.0
 48
0.0
 49
0.0
140
0.0
141
0.0
142
1.0
143
1.0
 70
0
 72
1
 73
0
 74
0
  7

 75
0
147
1.0
148
0.0
149
0.0
100
AcDbLayout
  1
Layout1
 70
0
 71
1
 10
0.0
 20
0.0
 11
297.0
 21
210.0
 12
0.0
 22
0.0
 32
0.0
 14
0.0
 24
0.0
 34
0.0
 15
0.0
 25
0.0
 35
0.0
146
0.0
 13
0.0
 23
0.0
 33
0.0
 16
1.0
 26
0.0
 36
0.0
 17
0.0
 27
1.0
 37
0.0
 76
0
330
20E
345
0
346
0
  0
ENDSEC
  0
EOF
