999
DXF file: 001-m35160-p-2.dxf
999
Pro/ENGINEER 2011490 by Parametric Technology Corporation
  0
SECTION
  2
HEADER
  9
$ACADVER
  1
AC1015
  9
$DWGCODEPAGE
  3
ANSI_1252
  9
$EXTMAX
 10
841.0
 20
594.0
 30
0.0
  9
$EXTMIN
 10
0.0
 20
0.0
 30
0.0
  9
$LIMMIN
 10
0.0
 20
0.0
  9
$LIMMAX
 10
841.0
 20
594.0
  9
$VIEWCTR
 10
420.5
 20
297.0
  9
$VIEWSIZE
 40
594.0
  9
$CLAYER
  8
0
  9
$LTSCALE
 40
46.255
  9
$CELTYPE
  6
BYLAYER
  9
$DIMSCALE
 40
1.0
  9
$DIMASZ
 40
3.5
  9
$DIMEXO
 40
5.25625
  9
$DIMDLI
 40
31.958
  9
$DIMEXE
 40
15.138
  9
$DIMCEN
 40
7.569
  9
$DIMLFAC
 40
1.0
  9
$DIMBLK
  1
_FILLED
  9
$DIMTXT
 40
3.5
  9
$DIMTOL
 70
1
  9
$DIMLIM
 70
0
  9
$DIMTFAC
 40
1.0
  9
$DIMTP
 40
0.005
  9
$DIMTM
 40
0.005
  9
$PDMODE
 70
3
  9
$PDSIZE
 40
0.3125
  9
$HANDSEED
  5
9B1
  9
$TILEMODE
 70
1
  9
$MEASUREMENT
 70
1
  9
$INSUNITS
 70
4
  0
ENDSEC
  0
SECTION
  2
CLASSES
  0
CLASS
  1
ACDBDICTIONARYWDFLT
  2
AcDbDictionaryWithDefault
  3
AutoCAD 2000
 90
0
280
0
281
0
  0
CLASS
  1
ACDBPLACEHOLDER
  2
AcDbPlaceHolder
  3
AutoCAD 2000
 90
0
280
0
281
0
  0
CLASS
  1
LAYOUT
  2
AcDbLayout
  3
AutoCAD 2000
 90
0
280
0
281
0
  0
ENDSEC
  0
SECTION
  2
TABLES
  0
TABLE
  2
VPORT
  5
8
100
AcDbSymbolTable
 70
2
  0
VPORT
  5
1F4
100
AcDbSymbolTableRecord
100
AcDbViewportTableRecord
  2
*ACTIVE
 70
0
 10
0.0
 20
0.0
 11
1.0
 21
1.0
 12
420.5
 22
297.0
 13
0.0
 23
0.0
 14
1.0
 24
1.0
 15
0.0
 25
0.0
 16
0.0
 26
0.0
 36
1.0
 17
0.0
 27
0.0
 37
0.0
 40
594.0
 41
1.4158249158
 42
50.0
 43
0.0
 44
0.0
 50
0.0
 51
0.0
 71
0
 72
100
 73
1
 74
1
 75
0
 76
0
 77
0
 78
0
  0
ENDTAB
  0
TABLE
  2
LTYPE
  5
5
100
AcDbSymbolTable
 70
6
  0
LTYPE
  5
14
100
AcDbSymbolTableRecord
100
AcDbLinetypeTableRecord
  2
BYBLOCK
 70
0
  3

 72
65
 73
0
 40
0.0
  0
LTYPE
  5
15
100
AcDbSymbolTableRecord
100
AcDbLinetypeTableRecord
  2
BYLAYER
 70
0
  3

 72
65
 73
0
 40
0.0
  0
LTYPE
  5
16
100
AcDbSymbolTableRecord
100
AcDbLinetypeTableRecord
  2
CONTINUOUS
 70
64
  3
Solid line
 72
65
 73
0
 40
0.0
  0
LTYPE
  5
1F5
100
AcDbSymbolTableRecord
100
AcDbLinetypeTableRecord
  2
CENTER
 70
64
  3
____ _ ____ _ ____ _ ____ _ ____ _ ____ _ ____
 72
65
 73
4
 40
0.6
 49
0.375
 74
0
 49
-0.075
 74
0
 49
0.075
 74
0
 49
-0.075
 74
0
  0
LTYPE
  5
1F6
100
AcDbSymbolTableRecord
100
AcDbLinetypeTableRecord
  2
HIDDEN
 70
64
  3
- - - - - - - - - - - - - - - - - - - -
 72
65
 73
2
 40
0.2
 49
0.1
 74
0
 49
-0.1
 74
0
  0
LTYPE
  5
1F7
100
AcDbSymbolTableRecord
100
AcDbLinetypeTableRecord
  2
PHANTOM
 70
64
  3
_____ _ _ _____ _ _ _____ _ _ _____
 72
65
 73
6
 40
0.8
 49
0.45
 74
0
 49
-0.05
 74
0
 49
0.1
 74
0
 49
-0.05
 74
0
 49
0.1
 74
0
 49
-0.05
 74
0
  0
LTYPE
  5
1F8
100
AcDbSymbolTableRecord
100
AcDbLinetypeTableRecord
  2
DOT
 70
64
  3
. . . . . . . . . . . . . . . . . . . .
 72
65
 73
2
 40
0.2
 49
0.1
 74
0
 49
-0.1
 74
0
  0
LTYPE
  5
1F9
100
AcDbSymbolTableRecord
100
AcDbLinetypeTableRecord
  2
DASHED
 70
64
  3
- - - - - - - - - - - - - - - - - - - -
 72
65
 73
2
 40
0.2
 49
0.1
 74
0
 49
-0.1
 74
0
  0
ENDTAB
  0
TABLE
  2
LAYER
  5
2
100
AcDbSymbolTable
 70
36
  0
LAYER
  5
10
100
AcDbSymbolTableRecord
100
AcDbLayerTableRecord
  2
0
 70
0
 62
7
  6
CONTINUOUS
370
-3
390
F
  0
LAYER
  5
1FA
100
AcDbSymbolTableRecord
100
AcDbLayerTableRecord
  2
DEFAULT_1
 70
0
 62
7
  6
CENTER
370
-3
390
F
  0
LAYER
  5
1FB
100
AcDbSymbolTableRecord
100
AcDbLayerTableRecord
  2
DEFAULT_2
 70
0
 62
8
  6
HIDDEN
370
-3
390
F
  0
LAYER
  5
1FC
100
AcDbSymbolTableRecord
100
AcDbLayerTableRecord
  2
DEFAULT_3
 70
0
 62
7
  6
PHANTOM
370
-3
390
F
  0
LAYER
  5
1FD
100
AcDbSymbolTableRecord
100
AcDbLayerTableRecord
  2
AUSFORMSCHRAEGEN
 70
0
 62
7
  6
CONTINUOUS
370
-3
390
F
  0
LAYER
  5
1FE
100
AcDbSymbolTableRecord
100
AcDbLayerTableRecord
  2
BEZUGSACHSEN
 70
0
 62
7
  6
CONTINUOUS
370
-3
390
F
  0
LAYER
  5
1FF
100
AcDbSymbolTableRecord
100
AcDbLayerTableRecord
  2
BEZUGSEBENEN
 70
0
 62
7
  6
CONTINUOUS
370
-3
390
F
  0
LAYER
  5
200
100
AcDbSymbolTableRecord
100
AcDbLayerTableRecord
  2
FASEN
 70
0
 62
7
  6
CONTINUOUS
370
-3
390
F
  0
LAYER
  5
201
100
AcDbSymbolTableRecord
100
AcDbLayerTableRecord
  2
FLAECHEN
 70
0
 62
7
  6
CONTINUOUS
370
-3
390
F
  0
LAYER
  5
202
100
AcDbSymbolTableRecord
100
AcDbLayerTableRecord
  2
GEWINDE
 70
0
 62
7
  6
CONTINUOUS
370
-3
390
F
  0
LAYER
  5
203
100
AcDbSymbolTableRecord
100
AcDbLayerTableRecord
  2
HILFEN
 70
0
 62
7
  6
CONTINUOUS
370
-3
390
F
  0
LAYER
  5
204
100
AcDbSymbolTableRecord
100
AcDbLayerTableRecord
  2
KURVEN
 70
0
 62
7
  6
CONTINUOUS
370
-3
390
F
  0
LAYER
  5
205
100
AcDbSymbolTableRecord
100
AcDbLayerTableRecord
  2
PLATZIERUNG
 70
0
 62
7
  6
CONTINUOUS
370
-3
390
F
  0
LAYER
  5
206
100
AcDbSymbolTableRecord
100
AcDbLayerTableRecord
  2
RUNDUNGEN
 70
0
 62
7
  6
CONTINUOUS
370
-3
390
F
  0
LAYER
  5
207
100
AcDbSymbolTableRecord
100
AcDbLayerTableRecord
  2
TEIL_STARTBEZUEGE
 70
0
 62
7
  6
CONTINUOUS
370
-3
390
F
  0
LAYER
  5
208
100
AcDbSymbolTableRecord
100
AcDbLayerTableRecord
  2
ZEICHNUNGSBEMASSUNGEN
 70
0
 62
7
  6
CONTINUOUS
370
-3
390
F
  0
ENDTAB
  0
TABLE
  2
STYLE
  5
3
100
AcDbSymbolTable
 70
1
  0
STYLE
  5
11
100
AcDbSymbolTableRecord
100
AcDbTextStyleTableRecord
  2
STANDARD
 70
0
 40
0.0
 41
0.7
 50
0.0
 71
0
 42
0.2
  3
txt
  4

  0
STYLE
  5
209
100
AcDbSymbolTableRecord
100
AcDbTextStyleTableRecord
  2
TEXTSTYLE_1
 70
0
 40
0.0
 41
0.8
 50
0.0
 71
0
 42
0.2
  3
gdt
  4

  0
ENDTAB
  0
TABLE
  2
VIEW
  5
6
100
AcDbSymbolTable
 70
0
  0
ENDTAB
  0
TABLE
  2
UCS
  5
7
100
AcDbSymbolTable
 70
0
  0
ENDTAB
  0
TABLE
  2
APPID
  5
9
100
AcDbSymbolTable
 70
1
  0
APPID
  5
20A
100
AcDbSymbolTableRecord
100
AcDbRegAppTableRecord
  2
ACAD
 70
0
  0
ENDTAB
  0
TABLE
  2
BLOCK_RECORD
  5
1
100
AcDbSymbolTable
 70
0
  0
BLOCK_RECORD
  5
20B
100
AcDbSymbolTableRecord
100
AcDbBlockTableRecord
  2
*Model_Space
  0
BLOCK_RECORD
  5
20C
100
AcDbSymbolTableRecord
100
AcDbBlockTableRecord
  2
*Paper_Space
  0
ENDTAB
  0
TABLE
  2
DIMSTYLE
  5
A
100
AcDbSymbolTable
 70
1
100
AcDbDimStyleTable
 71
0
  0
DIMSTYLE
105
20D
100
AcDbSymbolTableRecord
100
AcDbDimStyleTableRecord
  2
STANDARD
 70
0
  3

  4

 40
1.0
 41
3.5
 42
0.0625
 43
0.38
 44
0.18
 45
0.0
 46
0.0
 47
0.005
 48
0.005
140
3.5
141
0.09
142
0.0
143
25.4
144
1.0
145
0.0
146
1.0
147
0.09
 71
1.0
 72
0.0
 73
0
 74
0
 75
0
 76
0
 77
1
 78
8
170
0
171
2
172
0
173
0
174
0
175
0
176
0
177
0
178
5
270
2
271
3
272
3
273
2
274
2
275
0
280
0
281
0
282
0
283
1
284
8
285
0
286
0
287
3
288
0
340
11
  0
ENDTAB
  0
ENDSEC
  0
SECTION
  2
BLOCKS
  0
BLOCK
  5
20
100
AcDbEntity
  8
0
100
AcDbBlockBegin
  2
*Model_Space
 70
0
 10
0.0
 20
0.0
 30
0.0
  3
*Model_Space
  1

  0
ENDBLK
  5
21
100
AcDbEntity
  8
0
100
AcDbBlockEnd
  0
BLOCK
  5
1C
100
AcDbEntity
  8
0
100
AcDbBlockBegin
  2
*Paper_Space
 70
0
 10
0.0
 20
0.0
 30
0.0
  3
*Paper_Space
  1

  0
ENDBLK
  5
1D
100
AcDbEntity
  8
0
100
AcDbBlockEnd
  0
ENDSEC
  0
SECTION
  2
ENTITIES
  0
MTEXT
  5
20E
100
AcDbEntity
  8
0
100
AcDbMText
 62
5
  6
CONTINUOUS
  7
STANDARD
 71
1
 72
1
 10
584.3724928796
 20
373.1080871222
 30
0.0
 11
1.0
 21
0.0
 31
0.0
 44
0.9
  1
RUD B-ABA 31,5t
 40
10.0
 41
113.8095238095
  0
MTEXT
  5
20F
100
AcDbEntity
  8
0
100
AcDbMText
 62
5
  6
CONTINUOUS
  7
STANDARD
 71
1
 72
1
 10
180.2012033943
 20
372.8026085358
 30
0.0
 11
1.0
 21
0.0
 31
0.0
 44
0.9
  1
RUD B-ABA 31,5t
 40
10.0
 41
113.8095238095
  0
MTEXT
  5
210
100
AcDbEntity
  8
0
100
AcDbMText
 62
5
  6
CONTINUOUS
  7
STANDARD
 71
1
 72
1
 10
179.2418660868
 20
155.5292389238
 30
0.0
 11
1.0
 21
0.0
 31
0.0
 44
0.9
  1
RUD B-ABA 31,5t
 40
10.0
 41
113.8095238095
  0
LINE
  5
211
100
AcDbEntity
  8
0
100
AcDbLine
 62
7
  6
CONTINUOUS
 10
0.0
 20
0.0
 11
0.0
 21
594.0
  0
LINE
  5
212
100
AcDbEntity
  8
0
100
AcDbLine
 62
7
  6
CONTINUOUS
 10
0.0
 20
0.0
 11
841.0
 21
0.0
  0
LINE
  5
213
100
AcDbEntity
  8
0
100
AcDbLine
 62
7
  6
CONTINUOUS
 10
0.0
 20
594.0
 11
841.0
 21
594.0
  0
LINE
  5
214
100
AcDbEntity
  8
0
100
AcDbLine
 62
7
  6
CONTINUOUS
 10
841.0
 20
0.0
 11
841.0
 21
594.0
  0
LINE
  5
215
100
AcDbEntity
  8
RUNDUNGEN
100
AcDbLine
 62
7
  6
CONTINUOUS
 10
71.9551336733
 20
399.8114936051
 11
71.9551336733
 21
391.3656466087
  0
LINE
  5
216
100
AcDbEntity
  8
BEZUGSACHSEN
100
AcDbLine
 62
7
  6
CONTINUOUS
 10
71.9551336733
 20
356.3656466087
 11
71.9551336733
 21
391.3656466087
  0
LINE
  5
217
100
AcDbEntity
  8
FASEN
100
AcDbLine
 62
7
  6
CONTINUOUS
 10
132.4551336864
 20
316.3656465956
 11
129.4551336897
 21
319.3656465923
  0
LINE
  5
218
100
AcDbEntity
  8
RUNDUNGEN
100
AcDbLine
 62
7
  6
CONTINUOUS
 10
95.3753131189
 20
475.0580753561
 11
75.1635123931
 21
418.3649880071
  0
LINE
  5
219
100
AcDbEntity
  8
0
100
AcDbLine
 62
7
  6
CONTINUOUS
 10
101.7575539357
 20
421.0159628125
 11
101.6097761821
 21
422.5997616681
  0
LINE
  5
21A
100
AcDbEntity
  8
0
100
AcDbLine
 62
7
  6
CONTINUOUS
 10
99.9463744306
 20
421.356217505
 11
99.88919641
 21
420.2352958655
  0
LINE
  5
21B
100
AcDbEntity
  8
0
100
AcDbLine
 62
7
  6
CONTINUOUS
 10
104.8336942173
 20
452.1953689349
 11
101.6880901802
 21
444.2988396187
  0
LINE
  5
21C
100
AcDbEntity
  8
0
100
AcDbLine
 62
7
  6
CONTINUOUS
 10
100.6395557511
 20
441.6666638075
 11
99.8531547419
 21
439.6925314785
  0
LINE
  5
21D
100
AcDbEntity
  8
0
100
AcDbLine
 62
7
  6
CONTINUOUS
 10
96.7075507047
 20
431.7960021623
 11
95.9211493205
 21
429.8218688919
  0
LINE
  5
21E
100
AcDbEntity
  8
0
100
AcDbLine
 62
7
  6
CONTINUOUS
 10
93.0376790781
 20
422.5833839991
 11
89.8920750409
 21
414.6868546829
  0
LINE
  5
21F
100
AcDbEntity
  8
FASEN
100
AcDbLine
 62
7
  6
CONTINUOUS
 10
331.4551336724
 20
316.3656466087
 11
307.4551336739
 21
316.3656466087
  0
LINE
  5
220
100
AcDbEntity
  8
FASEN
100
AcDbLine
 62
7
  6
CONTINUOUS
 10
243.9551336724
 20
316.3656466087
 11
219.9551336739
 21
316.3656466087
  0
LINE
  5
221
100
AcDbEntity
  8
FASEN
100
AcDbLine
 62
7
  6
CONTINUOUS
 10
156.4551336724
 20
316.3656466087
 11
132.4551336739
 21
316.3656466087
  0
LINE
  5
222
100
AcDbEntity
  8
FASEN
100
AcDbLine
 62
7
  6
CONTINUOUS
 10
334.4551336733
 20
319.3656466087
 11
304.4551336733
 21
319.3656466087
  0
LINE
  5
223
100
AcDbEntity
  8
FASEN
100
AcDbLine
 62
7
  6
CONTINUOUS
 10
246.9551336733
 20
319.3656466087
 11
216.9551336733
 21
319.3656466087
  0
LINE
  5
224
100
AcDbEntity
  8
FASEN
100
AcDbLine
 62
7
  6
CONTINUOUS
 10
159.4551336733
 20
319.3656466087
 11
129.4551336733
 21
319.3656466087
  0
LINE
  5
225
100
AcDbEntity
  8
0
100
AcDbLine
 62
7
  6
CONTINUOUS
 10
101.6097761821
 20
422.5997616681
 11
100.6588867506
 21
424.1222497325
  0
LINE
  5
226
100
AcDbEntity
  8
0
100
AcDbLine
 62
7
  6
CONTINUOUS
 10
99.5364632573
 20
422.2819728785
 11
99.9463744306
 21
421.356217505
  0
LINE
  5
227
100
AcDbEntity
  8
0
100
AcDbLine
 62
7
  6
CONTINUOUS
 10
114.6548561864
 20
431.8900673616
 11
114.5070787196
 21
433.4738671936
  0
LINE
  5
228
100
AcDbEntity
  8
0
100
AcDbLine
 62
7
  6
CONTINUOUS
 10
120.9460650107
 20
447.6831278766
 11
120.7982867939
 21
449.266925826
  0
LINE
  5
229
100
AcDbEntity
  8
0
100
AcDbLine
 62
7
  6
CONTINUOUS
 10
117.8970212906
 20
391.3656466087
 11
117.8970212906
 21
395.3656466087
  0
LINE
  5
22A
100
AcDbEntity
  8
BEZUGSACHSEN
100
AcDbLine
 62
7
  6
CONTINUOUS
 10
118.9017083934
 20
391.3656466087
 11
118.9017083934
 21
376.3656466087
  0
LINE
  5
22B
100
AcDbEntity
  8
0
100
AcDbLine
 62
7
  6
CONTINUOUS
 10
112.5076547414
 20
432.3641794938
 11
112.3194096359
 21
430.9142351719
  0
LINE
  5
22C
100
AcDbEntity
  8
0
100
AcDbLine
 62
7
  6
CONTINUOUS
 10
118.7988620657
 20
448.1572362435
 11
118.6106177102
 21
446.7072938043
  0
LINE
  5
22D
100
AcDbEntity
  8
0
100
AcDbLine
 62
7
  6
CONTINUOUS
 10
114.3355447755
 20
430.1111022282
 11
114.6548561864
 21
431.8900673616
  0
LINE
  5
22E
100
AcDbEntity
  8
0
100
AcDbLine
 62
7
  6
CONTINUOUS
 10
120.6267528497
 20
445.9041608606
 11
120.9460650107
 21
447.6831278766
  0
LINE
  5
22F
100
AcDbEntity
  8
0
100
AcDbLine
 62
7
  6
CONTINUOUS
 10
92.3585884704
 20
415.9917096371
 11
94.8488582081
 21
422.2431283653
  0
LINE
  5
230
100
AcDbEntity
  8
0
100
AcDbLine
 62
7
  6
CONTINUOUS
 10
104.4906260937
 20
445.4698390978
 11
106.8498291215
 21
451.392236085
  0
LINE
  5
231
100
AcDbEntity
  8
0
100
AcDbLine
 62
7
  6
CONTINUOUS
 10
99.88919641
 20
420.2352958655
 11
97.3989266723
 21
413.9838771373
  0
LINE
  5
232
100
AcDbEntity
  8
0
100
AcDbLine
 62
7
  6
CONTINUOUS
 10
99.4150615765
 20
413.1807442874
 11
101.643197707
 21
418.7741190628
  0
LINE
  5
233
100
AcDbEntity
  8
0
100
AcDbLine
 62
7
  6
CONTINUOUS
 10
105.8250513757
 20
453.7066249892
 11
104.8336942173
 21
452.1953689349
  0
LINE
  5
234
100
AcDbEntity
  8
RUNDUNGEN
100
AcDbLine
 62
7
  6
CONTINUOUS
 10
227.362932485
 20
560.537930224
 11
161.5413821182
 21
533.2737513656
  0
LINE
  5
235
100
AcDbEntity
  8
0
100
AcDbLine
 62
7
  6
CONTINUOUS
 10
114.5070787196
 20
433.4738671936
 11
113.6872562553
 21
435.3253779874
  0
LINE
  5
236
100
AcDbEntity
  8
0
100
AcDbLine
 62
7
  6
CONTINUOUS
 10
112.2288100426
 20
433.618956702
 11
112.5076547414
 21
432.3641794938
  0
LINE
  5
237
100
AcDbEntity
  8
0
100
AcDbLine
 62
7
  6
CONTINUOUS
 10
118.5200173669
 20
449.4120134517
 11
118.7988620657
 21
448.1572362435
  0
LINE
  5
238
100
AcDbEntity
  8
0
100
AcDbLine
 62
7
  6
CONTINUOUS
 10
125.3658152691
 20
395.3656466087
 11
125.3658152691
 21
395.8656466087
  0
LINE
  5
239
100
AcDbEntity
  8
BEZUGSACHSEN
100
AcDbLine
 62
7
  6
CONTINUOUS
 10
129.4551336733
 20
356.3656466087
 11
129.4551336733
 21
319.3656466087
  0
LINE
  5
23A
100
AcDbEntity
  8
FASEN
100
AcDbLine
 62
7
  6
CONTINUOUS
 10
129.4551336733
 20
356.3656466087
 11
129.4551336733
 21
319.3656466087
  0
LINE
  5
23B
100
AcDbEntity
  8
0
100
AcDbLine
 62
7
  6
CONTINUOUS
 10
130.3159354023
 20
395.3656466087
 11
130.3159354023
 21
395.8656466087
  0
LINE
  5
23C
100
AcDbEntity
  8
0
100
AcDbLine
 62
7
  6
CONTINUOUS
 10
130.4039970521
 20
395.3656466087
 11
130.4039970521
 21
395.8656466087
  0
LINE
  5
23D
100
AcDbEntity
  8
0
100
AcDbLine
 62
7
  6
CONTINUOUS
 10
130.7709205793
 20
395.3656466087
 11
130.7709205793
 21
395.8656466087
  0
LINE
  5
23E
100
AcDbEntity
  8
0
100
AcDbLine
 62
7
  6
CONTINUOUS
 10
130.8736591989
 20
395.3656466087
 11
130.8736591989
 21
395.8656466087
  0
LINE
  5
23F
100
AcDbEntity
  8
0
100
AcDbLine
 62
7
  6
CONTINUOUS
 10
131.176077482
 20
376.3656466087
 11
131.176077482
 21
395.3656466087
  0
LINE
  5
240
100
AcDbEntity
  8
0
100
AcDbLine
 62
7
  6
CONTINUOUS
 10
131.2037774023
 20
395.3656466087
 11
131.2037774023
 21
395.8656466087
  0
LINE
  5
241
100
AcDbEntity
  8
0
100
AcDbLine
 62
7
  6
CONTINUOUS
 10
131.583871408
 20
395.3656466087
 11
131.583871408
 21
395.8656466087
  0
LINE
  5
242
100
AcDbEntity
  8
0
100
AcDbLine
 62
7
  6
CONTINUOUS
 10
131.9171672726
 20
395.3656466087
 11
131.9171672726
 21
395.8656466087
  0
LINE
  5
243
100
AcDbEntity
  8
0
100
AcDbLine
 62
7
  6
CONTINUOUS
 10
132.1081660336
 20
395.3656466087
 11
132.1081660336
 21
395.8656466087
  0
LINE
  5
244
100
AcDbEntity
  8
0
100
AcDbLine
 62
7
  6
CONTINUOUS
 10
132.2523666617
 20
395.3656466087
 11
132.2523666617
 21
395.8656466087
  0
LINE
  5
245
100
AcDbEntity
  8
0
100
AcDbLine
 62
7
  6
CONTINUOUS
 10
133.3671877095
 20
395.3656466087
 11
133.3671877095
 21
395.8656466087
  0
LINE
  5
246
100
AcDbEntity
  8
0
100
AcDbLine
 62
7
  6
CONTINUOUS
 10
135.1924105253
 20
395.3656466087
 11
135.1924105253
 21
395.8656466087
  0
LINE
  5
247
100
AcDbEntity
  8
0
100
AcDbLine
 62
7
  6
CONTINUOUS
 10
135.4999685566
 20
395.3656466087
 11
135.4999685566
 21
395.8656466087
  0
LINE
  5
248
100
AcDbEntity
  8
0
100
AcDbLine
 62
7
  6
CONTINUOUS
 10
135.6587780386
 20
395.3656466087
 11
135.6587780386
 21
395.8656466087
  0
LINE
  5
249
100
AcDbEntity
  8
0
100
AcDbLine
 62
7
  6
CONTINUOUS
 10
135.6721935027
 20
395.3656466087
 11
135.6721935027
 21
395.8656466087
  0
LINE
  5
24A
100
AcDbEntity
  8
0
100
AcDbLine
 62
7
  6
CONTINUOUS
 10
118.6106177102
 20
446.7072938043
 11
116.2514146823
 21
440.7848968171
  0
LINE
  5
24B
100
AcDbEntity
  8
0
100
AcDbLine
 62
7
  6
CONTINUOUS
 10
112.3194096359
 20
430.9142351719
 11
111.7951420464
 21
429.598146325
  0
LINE
  5
24C
100
AcDbEntity
  8
0
100
AcDbLine
 62
7
  6
CONTINUOUS
 10
105.6851336733
 20
408.3956466087
 11
106.4715346826
 21
410.3697789377
  0
LINE
  5
24D
100
AcDbEntity
  8
0
100
AcDbLine
 62
7
  6
CONTINUOUS
 10
109.7482054296
 20
418.595329995
 11
110.6656735238
 21
420.8984850064
  0
LINE
  5
24E
100
AcDbEntity
  8
0
100
AcDbLine
 62
7
  6
CONTINUOUS
 10
113.8112771859
 20
428.7950133813
 11
114.3355447755
 21
430.1111022282
  0
LINE
  5
24F
100
AcDbEntity
  8
0
100
AcDbLine
 62
7
  6
CONTINUOUS
 10
117.4811488126
 20
438.0076315444
 11
120.6267528497
 21
445.9041608606
  0
LINE
  5
250
100
AcDbEntity
  8
RUNDUNGEN
100
AcDbLine
 62
7
  6
CONTINUOUS
 10
155.0470289164
 20
526.7793981639
 11
127.7828500551
 21
460.9578477899
  0
LINE
  5
251
100
AcDbEntity
  8
0
100
AcDbLine
 62
7
  6
CONTINUOUS
 10
94.0290358615
 20
424.0946391121
 11
93.0376790781
 21
422.5833839991
  0
LINE
  5
252
100
AcDbEntity
  8
0
100
AcDbLine
 62
7
  6
CONTINUOUS
 10
106.8498291215
 20
451.392236085
 11
107.7101184451
 21
452.5744675742
  0
LINE
  5
253
100
AcDbEntity
  8
0
100
AcDbLine
 62
7
  6
CONTINUOUS
 10
98.6594625151
 20
423.0125610445
 11
99.5364632573
 21
422.2819728785
  0
LINE
  5
254
100
AcDbEntity
  8
0
100
AcDbLine
 62
7
  6
CONTINUOUS
 10
100.6588867506
 20
424.1222497325
 11
99.7818860084
 21
424.8528378985
  0
LINE
  5
255
100
AcDbEntity
  8
FASEN
100
AcDbLine
 62
7
  6
CONTINUOUS
 10
219.9551336864
 20
316.3656465956
 11
216.9551336897
 21
319.3656465923
  0
LINE
  5
256
100
AcDbEntity
  8
0
100
AcDbLine
 62
7
  6
CONTINUOUS
 10
111.4828760103
 20
434.6785666091
 11
112.2288100426
 21
433.618956702
  0
LINE
  5
257
100
AcDbEntity
  8
0
100
AcDbLine
 62
7
  6
CONTINUOUS
 10
120.7982867939
 20
449.266925826
 11
119.9784635796
 21
451.1184347371
  0
LINE
  5
258
100
AcDbEntity
  8
0
100
AcDbLine
 62
7
  6
CONTINUOUS
 10
141.7975913083
 20
395.3656466087
 11
141.7975913083
 21
395.8656466087
  0
LINE
  5
259
100
AcDbEntity
  8
0
100
AcDbLine
 62
7
  6
CONTINUOUS
 10
141.8390724664
 20
395.3656466087
 11
141.8390724664
 21
395.8656466087
  0
LINE
  5
25A
100
AcDbEntity
  8
0
100
AcDbLine
 62
7
  6
CONTINUOUS
 10
142.4640509575
 20
395.3656466087
 11
142.4640509575
 21
395.8656466087
  0
LINE
  5
25B
100
AcDbEntity
  8
0
100
AcDbLine
 62
7
  6
CONTINUOUS
 10
143.9223333085
 20
395.3656466087
 11
143.9223333085
 21
395.8656466087
  0
LINE
  5
25C
100
AcDbEntity
  8
0
100
AcDbLine
 62
7
  6
CONTINUOUS
 10
144.7556395527
 20
395.3656466087
 11
144.7556395527
 21
395.8656466087
  0
LINE
  5
25D
100
AcDbEntity
  8
0
100
AcDbLine
 62
7
  6
CONTINUOUS
 10
146.2139219037
 20
395.3656466087
 11
146.2139219037
 21
395.8656466087
  0
LINE
  5
25E
100
AcDbEntity
  8
0
100
AcDbLine
 62
7
  6
CONTINUOUS
 10
146.8389003948
 20
395.3656466087
 11
146.8389003948
 21
395.8656466087
  0
LINE
  5
25F
100
AcDbEntity
  8
0
100
AcDbLine
 62
7
  6
CONTINUOUS
 10
148.0835722518
 20
395.3656466087
 11
148.0835722518
 21
395.8656466087
  0
LINE
  5
260
100
AcDbEntity
  8
0
100
AcDbLine
 62
7
  6
CONTINUOUS
 10
148.1647346064
 20
395.3656466087
 11
148.1647346064
 21
395.8656466087
  0
LINE
  5
261
100
AcDbEntity
  8
0
100
AcDbLine
 62
7
  6
CONTINUOUS
 10
148.3810963193
 20
395.3656466087
 11
148.3810963193
 21
395.8656466087
  0
LINE
  5
262
100
AcDbEntity
  8
0
100
AcDbLine
 62
7
  6
CONTINUOUS
 10
148.694810575
 20
395.3656466087
 11
148.694810575
 21
395.8656466087
  0
LINE
  5
263
100
AcDbEntity
  8
0
100
AcDbLine
 62
7
  6
CONTINUOUS
 10
149.0463716694
 20
395.3656466087
 11
149.0463716694
 21
395.8656466087
  0
LINE
  5
264
100
AcDbEntity
  8
0
100
AcDbLine
 62
7
  6
CONTINUOUS
 10
149.8251853009
 20
395.3656466087
 11
149.8251853009
 21
395.8656466087
  0
LINE
  5
265
100
AcDbEntity
  8
0
100
AcDbLine
 62
7
  6
CONTINUOUS
 10
150.2524400661
 20
395.3656466087
 11
150.2524400661
 21
395.8656466087
  0
LINE
  5
266
100
AcDbEntity
  8
0
100
AcDbLine
 62
7
  6
CONTINUOUS
 10
150.7175394419
 20
395.3656466087
 11
150.7175394419
 21
395.8656466087
  0
LINE
  5
267
100
AcDbEntity
  8
0
100
AcDbLine
 62
7
  6
CONTINUOUS
 10
151.0852885097
 20
395.3656466087
 11
151.0852885097
 21
395.8656466087
  0
LINE
  5
268
100
AcDbEntity
  8
0
100
AcDbLine
 62
7
  6
CONTINUOUS
 10
151.393534085
 20
395.3656466087
 11
151.393534085
 21
395.8656466087
  0
LINE
  5
269
100
AcDbEntity
  8
0
100
AcDbLine
 62
7
  6
CONTINUOUS
 10
151.6044249191
 20
395.3656466087
 11
151.6044249191
 21
395.8656466087
  0
LINE
  5
26A
100
AcDbEntity
  8
0
100
AcDbLine
 62
7
  6
CONTINUOUS
 10
151.7558122475
 20
395.3656466087
 11
151.7558122475
 21
395.8656466087
  0
LINE
  5
26B
100
AcDbEntity
  8
0
100
AcDbLine
 62
7
  6
CONTINUOUS
 10
151.8098493176
 20
395.3656466087
 11
151.8098493176
 21
395.8656466087
  0
LINE
  5
26C
100
AcDbEntity
  8
RUNDUNGEN
100
AcDbLine
 62
7
  6
CONTINUOUS
 10
133.0301145172
 20
424.7930740073
 11
127.3669492892
 21
411.120983708
  0
LINE
  5
26D
100
AcDbEntity
  8
0
100
AcDbLine
 62
7
  6
CONTINUOUS
 10
112.8199207481
 20
427.2837592213
 11
113.8112771859
 21
428.7950133813
  0
LINE
  5
26E
100
AcDbEntity
  8
0
100
AcDbLine
 62
7
  6
CONTINUOUS
 10
111.7951420464
 20
429.598146325
 11
110.9348527228
 21
428.4159148357
  0
LINE
  5
26F
100
AcDbEntity
  8
0
100
AcDbLine
 62
7
  6
CONTINUOUS
 10
94.8488582081
 20
422.2431283653
 11
95.5780811968
 21
423.0963390548
  0
LINE
  5
270
100
AcDbEntity
  8
0
100
AcDbLine
 62
7
  6
CONTINUOUS
 10
107.0213631834
 20
454.7550010035
 11
105.8250513757
 21
453.7066249892
  0
LINE
  5
271
100
AcDbEntity
  8
RUNDUNGEN
100
AcDbLine
 62
7
  6
CONTINUOUS
 10
391.9551336733
 20
356.3656466087
 11
331.9551336733
 21
356.3656466087
  0
LINE
  5
272
100
AcDbEntity
  8
BEZUGSACHSEN
100
AcDbLine
 62
7
  6
CONTINUOUS
 10
71.9551336733
 20
356.3656466087
 11
331.9551336733
 21
356.3656466087
  0
LINE
  5
273
100
AcDbEntity
  8
0
100
AcDbLine
 62
7
  6
CONTINUOUS
 10
113.6872562553
 20
435.3253779874
 11
112.6052995036
 21
436.5188434632
  0
LINE
  5
274
100
AcDbEntity
  8
0
100
AcDbLine
 62
7
  6
CONTINUOUS
 10
117.7740840845
 20
450.4716252415
 11
118.5200173669
 21
449.4120134517
  0
LINE
  5
275
100
AcDbEntity
  8
RUNDUNGEN
100
AcDbLine
 62
7
  6
CONTINUOUS
 10
127.7828501903
 20
451.773445101
 11
133.0301324243
 21
439.1053851662
  0
LINE
  5
276
100
AcDbEntity
  8
0
100
AcDbLine
 62
7
  6
CONTINUOUS
 10
152.1288119312
 20
395.3656466087
 11
152.1288119312
 21
395.8656466087
  0
LINE
  5
277
100
AcDbEntity
  8
0
100
AcDbLine
 62
7
  6
CONTINUOUS
 10
152.3775517991
 20
395.3656466087
 11
152.3775517991
 21
395.8656466087
  0
LINE
  5
278
100
AcDbEntity
  8
0
100
AcDbLine
 62
7
  6
CONTINUOUS
 10
152.4532455693
 20
395.3656466087
 11
152.4532455693
 21
395.8656466087
  0
LINE
  5
279
100
AcDbEntity
  8
0
100
AcDbLine
 62
7
  6
CONTINUOUS
 10
152.5072803582
 20
395.3656466087
 11
152.5072803582
 21
395.8656466087
  0
LINE
  5
27A
100
AcDbEntity
  8
0
100
AcDbLine
 62
7
  6
CONTINUOUS
 10
152.7295657076
 20
395.3656466087
 11
152.7295657076
 21
395.8656466087
  0
LINE
  5
27B
100
AcDbEntity
  8
0
100
AcDbLine
 62
7
  6
CONTINUOUS
 10
152.7669365544
 20
395.3656466087
 11
152.7669365544
 21
395.8656466087
  0
LINE
  5
27C
100
AcDbEntity
  8
0
100
AcDbLine
 62
7
  6
CONTINUOUS
 10
152.9648377872
 20
395.3656466087
 11
152.9648377872
 21
395.8656466087
  0
LINE
  5
27D
100
AcDbEntity
  8
0
100
AcDbLine
 62
7
  6
CONTINUOUS
 10
153.3786176261
 20
395.3656466087
 11
153.3786176261
 21
395.8656466087
  0
LINE
  5
27E
100
AcDbEntity
  8
0
100
AcDbLine
 62
7
  6
CONTINUOUS
 10
153.9280127185
 20
395.3656466087
 11
153.9280127185
 21
395.8656466087
  0
LINE
  5
27F
100
AcDbEntity
  8
0
100
AcDbLine
 62
7
  6
CONTINUOUS
 10
154.5327578741
 20
395.3656466087
 11
154.5327578741
 21
395.8656466087
  0
LINE
  5
280
100
AcDbEntity
  8
0
100
AcDbLine
 62
7
  6
CONTINUOUS
 10
154.9769744929
 20
395.3656466087
 11
154.9769744929
 21
395.8656466087
  0
LINE
  5
281
100
AcDbEntity
  8
0
100
AcDbLine
 62
7
  6
CONTINUOUS
 10
155.4087335662
 20
395.3656466087
 11
155.4087335662
 21
395.8656466087
  0
LINE
  5
282
100
AcDbEntity
  8
0
100
AcDbLine
 62
7
  6
CONTINUOUS
 10
155.6924216184
 20
395.3656466087
 11
155.6924216184
 21
395.8656466087
  0
LINE
  5
283
100
AcDbEntity
  8
0
100
AcDbLine
 62
7
  6
CONTINUOUS
 10
156.111725007
 20
395.3656466087
 11
156.111725007
 21
395.8656466087
  0
LINE
  5
284
100
AcDbEntity
  8
0
100
AcDbLine
 62
7
  6
CONTINUOUS
 10
156.7219935937
 20
395.3656466087
 11
156.7219935937
 21
395.8656466087
  0
LINE
  5
285
100
AcDbEntity
  8
0
100
AcDbLine
 62
7
  6
CONTINUOUS
 10
156.9807665074
 20
395.3656466087
 11
156.9807665074
 21
395.8656466087
  0
LINE
  5
286
100
AcDbEntity
  8
0
100
AcDbLine
 62
7
  6
CONTINUOUS
 10
157.1039243696
 20
395.3656466087
 11
157.1039243696
 21
395.8656466087
  0
LINE
  5
287
100
AcDbEntity
  8
0
100
AcDbLine
 62
7
  6
CONTINUOUS
 10
157.2146263097
 20
395.3656466087
 11
157.2146263097
 21
395.8656466087
  0
LINE
  5
288
100
AcDbEntity
  8
0
100
AcDbLine
 62
7
  6
CONTINUOUS
 10
157.7341898647
 20
376.3656466087
 11
157.7341898647
 21
395.3656466087
  0
LINE
  5
289
100
AcDbEntity
  8
BEZUGSACHSEN
100
AcDbLine
 62
7
  6
CONTINUOUS
 10
159.4551336733
 20
356.3656466087
 11
159.4551336733
 21
319.3656466087
  0
LINE
  5
28A
100
AcDbEntity
  8
FASEN
100
AcDbLine
 62
7
  6
CONTINUOUS
 10
159.4551336733
 20
356.3656466087
 11
159.4551336733
 21
319.3656466087
  0
LINE
  5
28B
100
AcDbEntity
  8
0
100
AcDbLine
 62
7
  6
CONTINUOUS
 10
107.7101184451
 20
452.5744675742
 11
108.7753639178
 21
453.2938227888
  0
LINE
  5
28C
100
AcDbEntity
  8
BEZUGSACHSEN
100
AcDbLine
 62
7
  6
CONTINUOUS
 10
118.9017083934
 20
376.3656466087
 11
168.4551336733
 21
376.3656466087
  0
LINE
  5
28D
100
AcDbEntity
  8
BEZUGSACHSEN
100
AcDbLine
 62
7
  6
CONTINUOUS
 10
207.9551336733
 20
376.3656466087
 11
255.9551336733
 21
376.3656466087
  0
LINE
  5
28E
100
AcDbEntity
  8
BEZUGSACHSEN
100
AcDbLine
 62
7
  6
CONTINUOUS
 10
295.4551336733
 20
376.3656466087
 11
345.0085589533
 21
376.3656466087
  0
LINE
  5
28F
100
AcDbEntity
  8
0
100
AcDbLine
 62
7
  6
CONTINUOUS
 10
89.8920750409
 20
414.6868546829
 11
105.6851336733
 21
408.3956466087
  0
LINE
  5
290
100
AcDbEntity
  8
0
100
AcDbLine
 62
7
  6
CONTINUOUS
 10
106.4715346826
 20
410.3697789377
 11
99.4150615765
 21
413.1807442874
  0
LINE
  5
291
100
AcDbEntity
  8
0
100
AcDbLine
 62
7
  6
CONTINUOUS
 10
97.3989266723
 20
413.9838771373
 11
92.3585884704
 21
415.9917096371
  0
LINE
  5
292
100
AcDbEntity
  8
0
100
AcDbLine
 62
7
  6
CONTINUOUS
 10
97.6513941216
 20
423.4141278444
 11
98.6594625151
 21
423.0125610445
  0
LINE
  5
293
100
AcDbEntity
  8
0
100
AcDbLine
 62
7
  6
CONTINUOUS
 10
99.7818860084
 20
424.8528378985
 11
98.4377951309
 21
425.3882601735
  0
LINE
  5
294
100
AcDbEntity
  8
0
100
AcDbLine
 62
7
  6
CONTINUOUS
 10
112.6052995036
 20
436.5188434632
 11
111.0562541683
 21
437.5171435205
  0
LINE
  5
295
100
AcDbEntity
  8
0
100
AcDbLine
 62
7
  6
CONTINUOUS
 10
110.269853159
 20
435.5430111914
 11
111.4828760103
 21
434.6785666091
  0
LINE
  5
296
100
AcDbEntity
  8
0
100
AcDbLine
 62
7
  6
CONTINUOUS
 10
119.9784635796
 20
451.1184347371
 11
118.8965075779
 21
452.3119020956
  0
LINE
  5
297
100
AcDbEntity
  8
BEZUGSACHSEN
100
AcDbLine
 62
7
  6
CONTINUOUS
 10
168.4551336733
 20
391.3656466087
 11
168.4551336733
 21
376.3656466087
  0
LINE
  5
298
100
AcDbEntity
  8
0
100
AcDbLine
 62
7
  6
CONTINUOUS
 10
171.0132460561
 20
391.3656466087
 11
171.0132460561
 21
395.3656466087
  0
LINE
  5
299
100
AcDbEntity
  8
0
100
AcDbLine
 62
7
  6
CONTINUOUS
 10
111.6236081022
 20
426.2353813595
 11
112.8199207481
 21
427.2837592213
  0
LINE
  5
29A
100
AcDbEntity
  8
0
100
AcDbLine
 62
7
  6
CONTINUOUS
 10
110.9348527228
 20
428.4159148357
 11
109.8696070148
 21
427.6965597149
  0
LINE
  5
29B
100
AcDbEntity
  8
0
100
AcDbLine
 62
7
  6
CONTINUOUS
 10
95.5613705281
 20
425.0091605928
 11
94.0290358615
 21
424.0946391121
  0
LINE
  5
29C
100
AcDbEntity
  8
0
100
AcDbLine
 62
7
  6
CONTINUOUS
 10
108.889719959
 20
455.5356660678
 11
107.0213631834
 21
454.7550010035
  0
LINE
  5
29D
100
AcDbEntity
  8
0
100
AcDbLine
 62
7
  6
CONTINUOUS
 10
95.9211493205
 20
429.8218688919
 11
106.3378477376
 21
425.6723486049
  0
LINE
  5
29E
100
AcDbEntity
  8
0
100
AcDbLine
 62
7
  6
CONTINUOUS
 10
107.1242491219
 20
427.6464818753
 11
96.7075507047
 21
431.7960021623
  0
LINE
  5
29F
100
AcDbEntity
  8
0
100
AcDbLine
 62
7
  6
CONTINUOUS
 10
99.8531547419
 20
439.6925314785
 11
110.269853159
 21
435.5430111914
  0
LINE
  5
2A0
100
AcDbEntity
  8
0
100
AcDbLine
 62
7
  6
CONTINUOUS
 10
118.8965075779
 20
452.3119020956
 11
117.3474614926
 21
453.3102002702
  0
LINE
  5
2A1
100
AcDbEntity
  8
0
100
AcDbLine
 62
7
  6
CONTINUOUS
 10
116.5610604833
 20
451.3360679412
 11
117.7740840845
 21
450.4716252415
  0
LINE
  5
2A2
100
AcDbEntity
  8
BEZUGSACHSEN
100
AcDbLine
 62
7
  6
CONTINUOUS
 10
295.4551336733
 20
391.3656466087
 11
255.9551336733
 21
391.3656466087
  0
LINE
  5
2A3
100
AcDbEntity
  8
BEZUGSACHSEN
100
AcDbLine
 62
7
  6
CONTINUOUS
 10
207.9551336733
 20
391.3656466087
 11
168.4551336733
 21
391.3656466087
  0
LINE
  5
2A4
100
AcDbEntity
  8
BEZUGSACHSEN
100
AcDbLine
 62
7
  6
CONTINUOUS
 10
118.9017083934
 20
391.3656466087
 11
71.9551336733
 21
391.3656466087
  0
LINE
  5
2A5
100
AcDbEntity
  8
BEZUGSACHSEN
100
AcDbLine
 62
7
  6
CONTINUOUS
 10
345.0085589533
 20
391.3656466087
 11
391.9551336733
 21
391.3656466087
  0
LINE
  5
2A6
100
AcDbEntity
  8
0
100
AcDbLine
 62
7
  6
CONTINUOUS
 10
117.8970212906
 20
395.3656466087
 11
171.0132460561
 21
395.3656466087
  0
LINE
  5
2A7
100
AcDbEntity
  8
0
100
AcDbLine
 62
7
  6
CONTINUOUS
 10
205.3970212906
 20
395.3656466087
 11
258.5132460561
 21
395.3656466087
  0
LINE
  5
2A8
100
AcDbEntity
  8
0
100
AcDbLine
 62
7
  6
CONTINUOUS
 10
292.8970212906
 20
395.3656466087
 11
346.0132460561
 21
395.3656466087
  0
LINE
  5
2A9
100
AcDbEntity
  8
0
100
AcDbLine
 62
7
  6
CONTINUOUS
 10
125.3658152691
 20
395.8656466087
 11
135.6587780386
 21
395.8656466087
  0
LINE
  5
2AA
100
AcDbEntity
  8
0
100
AcDbLine
 62
7
  6
CONTINUOUS
 10
141.8390724664
 20
395.8656466087
 11
146.1812665229
 21
395.8656466087
  0
LINE
  5
2AB
100
AcDbEntity
  8
0
100
AcDbLine
 62
7
  6
CONTINUOUS
 10
146.2139219037
 20
395.8656466087
 11
146.8389003948
 21
395.8656466087
  0
LINE
  5
2AC
100
AcDbEntity
  8
0
100
AcDbLine
 62
7
  6
CONTINUOUS
 10
148.0835722518
 20
395.8656466087
 11
152.5072803582
 21
395.8656466087
  0
LINE
  5
2AD
100
AcDbEntity
  8
0
100
AcDbLine
 62
7
  6
CONTINUOUS
 10
152.7295657076
 20
395.8656466087
 11
157.2146263097
 21
395.8656466087
  0
LINE
  5
2AE
100
AcDbEntity
  8
0
100
AcDbLine
 62
7
  6
CONTINUOUS
 10
212.8658152691
 20
395.8656466087
 11
223.1587780386
 21
395.8656466087
  0
LINE
  5
2AF
100
AcDbEntity
  8
0
100
AcDbLine
 62
7
  6
CONTINUOUS
 10
229.3390724664
 20
395.8656466087
 11
233.6812665229
 21
395.8656466087
  0
LINE
  5
2B0
100
AcDbEntity
  8
0
100
AcDbLine
 62
7
  6
CONTINUOUS
 10
233.7139219037
 20
395.8656466087
 11
234.3389003948
 21
395.8656466087
  0
LINE
  5
2B1
100
AcDbEntity
  8
0
100
AcDbLine
 62
7
  6
CONTINUOUS
 10
235.5835722518
 20
395.8656466087
 11
240.0072803582
 21
395.8656466087
  0
LINE
  5
2B2
100
AcDbEntity
  8
0
100
AcDbLine
 62
7
  6
CONTINUOUS
 10
240.2295657076
 20
395.8656466087
 11
244.7146263097
 21
395.8656466087
  0
LINE
  5
2B3
100
AcDbEntity
  8
0
100
AcDbLine
 62
7
  6
CONTINUOUS
 10
300.3658152691
 20
395.8656466087
 11
310.6587780386
 21
395.8656466087
  0
LINE
  5
2B4
100
AcDbEntity
  8
0
100
AcDbLine
 62
7
  6
CONTINUOUS
 10
316.8390724664
 20
395.8656466087
 11
321.1812665229
 21
395.8656466087
  0
LINE
  5
2B5
100
AcDbEntity
  8
0
100
AcDbLine
 62
7
  6
CONTINUOUS
 10
321.2139219037
 20
395.8656466087
 11
321.8389003948
 21
395.8656466087
  0
LINE
  5
2B6
100
AcDbEntity
  8
0
100
AcDbLine
 62
7
  6
CONTINUOUS
 10
323.0835722518
 20
395.8656466087
 11
327.5072803582
 21
395.8656466087
  0
LINE
  5
2B7
100
AcDbEntity
  8
0
100
AcDbLine
 62
7
  6
CONTINUOUS
 10
327.7295657076
 20
395.8656466087
 11
332.2146263097
 21
395.8656466087
  0
LINE
  5
2B8
100
AcDbEntity
  8
0
100
AcDbLine
 62
7
  6
CONTINUOUS
 10
106.3378477376
 20
425.6723486049
 11
108.1490272426
 21
425.3320939123
  0
LINE
  5
2B9
100
AcDbEntity
  8
0
100
AcDbLine
 62
7
  6
CONTINUOUS
 10
111.0562541683
 20
437.5171435205
 11
100.6395557511
 21
441.6666638075
  0
LINE
  5
2BA
100
AcDbEntity
  8
0
100
AcDbLine
 62
7
  6
CONTINUOUS
 10
101.6880901802
 20
444.2988396187
 11
117.4811488126
 21
438.0076315444
  0
LINE
  5
2BB
100
AcDbEntity
  8
0
100
AcDbLine
 62
7
  6
CONTINUOUS
 10
116.2514146823
 20
440.7848968171
 11
104.4906260937
 21
445.4698390978
  0
LINE
  5
2BC
100
AcDbEntity
  8
0
100
AcDbLine
 62
7
  6
CONTINUOUS
 10
205.3970212906
 20
391.3656466087
 11
205.3970212906
 21
395.3656466087
  0
LINE
  5
2BD
100
AcDbEntity
  8
0
100
AcDbLine
 62
7
  6
CONTINUOUS
 10
95.5780811968
 20
423.0963390548
 11
96.5122599597
 21
423.4866725283
  0
LINE
  5
2BE
100
AcDbEntity
  8
0
100
AcDbLine
 62
7
  6
CONTINUOUS
 10
109.7552512089
 20
425.4547163421
 11
111.6236081022
 21
426.2353813595
  0
LINE
  5
2BF
100
AcDbEntity
  8
0
100
AcDbLine
 62
7
  6
CONTINUOUS
 10
362.5226403529
 20
415.1574888009
 11
361.3818423416
 21
415.1191671381
  0
LINE
  5
2C0
100
AcDbEntity
  8
0
100
AcDbLine
 62
7
  6
CONTINUOUS
 10
101.643197707
 20
418.7741190628
 11
109.7482054296
 21
418.595329995
  0
LINE
  5
2C1
100
AcDbEntity
  8
0
100
AcDbLine
 62
7
  6
CONTINUOUS
 10
360.8467038386
 20
413.4168089119
 11
362.7884127057
 21
413.3697391165
  0
LINE
  5
2C2
100
AcDbEntity
  8
0
100
AcDbLine
 62
7
  6
CONTINUOUS
 10
96.5122599597
 20
423.4866725283
 11
97.6513941216
 21
423.4141278444
  0
LINE
  5
2C3
100
AcDbEntity
  8
0
100
AcDbLine
 62
7
  6
CONTINUOUS
 10
98.4377951309
 20
425.3882601735
 11
97.2986609689
 21
425.4608048574
  0
LINE
  5
2C4
100
AcDbEntity
  8
0
100
AcDbLine
 62
7
  6
CONTINUOUS
 10
108.5994053929
 20
427.440080775
 11
107.1242491219
 21
427.6464818753
  0
LINE
  5
2C5
100
AcDbEntity
  8
0
100
AcDbLine
 62
7
  6
CONTINUOUS
 10
111.5207227521
 20
453.3439002534
 11
116.5610604833
 21
451.3360679412
  0
LINE
  5
2C6
100
AcDbEntity
  8
0
100
AcDbLine
 62
7
  6
CONTINUOUS
 10
117.3474614926
 20
453.3102002702
 11
112.3071237614
 21
455.3180325825
  0
LINE
  5
2C7
100
AcDbEntity
  8
FASEN
100
AcDbLine
 62
7
  6
CONTINUOUS
 10
307.4551336864
 20
316.3656465956
 11
304.4551336897
 21
319.3656465923
  0
LINE
  5
2C8
100
AcDbEntity
  8
BEZUGSACHSEN
100
AcDbLine
 62
7
  6
CONTINUOUS
 10
207.9551336733
 20
391.3656466087
 11
207.9551336733
 21
376.3656466087
  0
LINE
  5
2C9
100
AcDbEntity
  8
0
100
AcDbLine
 62
7
  6
CONTINUOUS
 10
212.8658152691
 20
395.3656466087
 11
212.8658152691
 21
395.8656466087
  0
LINE
  5
2CA
100
AcDbEntity
  8
BEZUGSACHSEN
100
AcDbLine
 62
7
  6
CONTINUOUS
 10
216.9551336733
 20
356.3656466087
 11
216.9551336733
 21
319.3656466087
  0
LINE
  5
2CB
100
AcDbEntity
  8
FASEN
100
AcDbLine
 62
7
  6
CONTINUOUS
 10
216.9551336733
 20
356.3656466087
 11
216.9551336733
 21
319.3656466087
  0
LINE
  5
2CC
100
AcDbEntity
  8
0
100
AcDbLine
 62
7
  6
CONTINUOUS
 10
217.8159354023
 20
395.3656466087
 11
217.8159354023
 21
395.8656466087
  0
LINE
  5
2CD
100
AcDbEntity
  8
0
100
AcDbLine
 62
7
  6
CONTINUOUS
 10
217.9039970521
 20
395.3656466087
 11
217.9039970521
 21
395.8656466087
  0
LINE
  5
2CE
100
AcDbEntity
  8
0
100
AcDbLine
 62
7
  6
CONTINUOUS
 10
218.2709205793
 20
395.3656466087
 11
218.2709205793
 21
395.8656466087
  0
LINE
  5
2CF
100
AcDbEntity
  8
0
100
AcDbLine
 62
7
  6
CONTINUOUS
 10
218.3736591989
 20
395.3656466087
 11
218.3736591989
 21
395.8656466087
  0
LINE
  5
2D0
100
AcDbEntity
  8
0
100
AcDbLine
 62
7
  6
CONTINUOUS
 10
218.676077482
 20
376.3656466087
 11
218.676077482
 21
395.3656466087
  0
LINE
  5
2D1
100
AcDbEntity
  8
0
100
AcDbLine
 62
7
  6
CONTINUOUS
 10
218.7037774023
 20
395.3656466087
 11
218.7037774023
 21
395.8656466087
  0
LINE
  5
2D2
100
AcDbEntity
  8
0
100
AcDbLine
 62
7
  6
CONTINUOUS
 10
219.083871408
 20
395.3656466087
 11
219.083871408
 21
395.8656466087
  0
LINE
  5
2D3
100
AcDbEntity
  8
0
100
AcDbLine
 62
7
  6
CONTINUOUS
 10
219.4171672726
 20
395.3656466087
 11
219.4171672726
 21
395.8656466087
  0
LINE
  5
2D4
100
AcDbEntity
  8
0
100
AcDbLine
 62
7
  6
CONTINUOUS
 10
219.6081660336
 20
395.3656466087
 11
219.6081660336
 21
395.8656466087
  0
LINE
  5
2D5
100
AcDbEntity
  8
0
100
AcDbLine
 62
7
  6
CONTINUOUS
 10
219.7523666617
 20
395.3656466087
 11
219.7523666617
 21
395.8656466087
  0
LINE
  5
2D6
100
AcDbEntity
  8
0
100
AcDbLine
 62
7
  6
CONTINUOUS
 10
358.2702904622
 20
443.7614639279
 11
359.7509779464
 21
443.9234930851
  0
LINE
  5
2D7
100
AcDbEntity
  8
0
100
AcDbLine
 62
7
  6
CONTINUOUS
 10
110.6656735238
 20
420.8984850064
 11
101.7575539357
 21
421.0159628125
  0
LINE
  5
2D8
100
AcDbEntity
  8
0
100
AcDbLine
 62
7
  6
CONTINUOUS
 10
220.8671877095
 20
395.3656466087
 11
220.8671877095
 21
395.8656466087
  0
LINE
  5
2D9
100
AcDbEntity
  8
0
100
AcDbLine
 62
7
  6
CONTINUOUS
 10
222.6924105253
 20
395.3656466087
 11
222.6924105253
 21
395.8656466087
  0
LINE
  5
2DA
100
AcDbEntity
  8
0
100
AcDbLine
 62
7
  6
CONTINUOUS
 10
222.9999685566
 20
395.3656466087
 11
222.9999685566
 21
395.8656466087
  0
LINE
  5
2DB
100
AcDbEntity
  8
0
100
AcDbLine
 62
7
  6
CONTINUOUS
 10
223.1587780386
 20
395.3656466087
 11
223.1587780386
 21
395.8656466087
  0
LINE
  5
2DC
100
AcDbEntity
  8
0
100
AcDbLine
 62
7
  6
CONTINUOUS
 10
223.1721935027
 20
395.3656466087
 11
223.1721935027
 21
395.8656466087
  0
LINE
  5
2DD
100
AcDbEntity
  8
0
100
AcDbLine
 62
7
  6
CONTINUOUS
 10
229.2975913083
 20
395.3656466087
 11
229.2975913083
 21
395.8656466087
  0
LINE
  5
2DE
100
AcDbEntity
  8
0
100
AcDbLine
 62
7
  6
CONTINUOUS
 10
229.3390724664
 20
395.3656466087
 11
229.3390724664
 21
395.8656466087
  0
LINE
  5
2DF
100
AcDbEntity
  8
0
100
AcDbLine
 62
7
  6
CONTINUOUS
 10
229.9640509575
 20
395.3656466087
 11
229.9640509575
 21
395.8656466087
  0
LINE
  5
2E0
100
AcDbEntity
  8
0
100
AcDbLine
 62
7
  6
CONTINUOUS
 10
231.4223333085
 20
395.3656466087
 11
231.4223333085
 21
395.8656466087
  0
LINE
  5
2E1
100
AcDbEntity
  8
0
100
AcDbLine
 62
7
  6
CONTINUOUS
 10
232.2556395527
 20
395.3656466087
 11
232.2556395527
 21
395.8656466087
  0
LINE
  5
2E2
100
AcDbEntity
  8
0
100
AcDbLine
 62
7
  6
CONTINUOUS
 10
233.7139219037
 20
395.3656466087
 11
233.7139219037
 21
395.8656466087
  0
LINE
  5
2E3
100
AcDbEntity
  8
0
100
AcDbLine
 62
7
  6
CONTINUOUS
 10
357.7929510437
 20
455.6484076274
 11
356.312263787
 21
455.4863778453
  0
LINE
  5
2E4
100
AcDbEntity
  8
0
100
AcDbLine
 62
7
  6
CONTINUOUS
 10
108.1490272426
 20
425.3320939123
 11
109.7552512089
 21
425.4547163421
  0
LINE
  5
2E5
100
AcDbEntity
  8
0
100
AcDbLine
 62
7
  6
CONTINUOUS
 10
350.9138689583
 20
440.7070484565
 11
352.0546675543
 21
440.7453692537
  0
LINE
  5
2E6
100
AcDbEntity
  8
0
100
AcDbLine
 62
7
  6
CONTINUOUS
 10
110.045566481
 20
453.5503013537
 11
111.5207227521
 21
453.3439002534
  0
LINE
  5
2E7
100
AcDbEntity
  8
0
100
AcDbLine
 62
7
  6
CONTINUOUS
 10
350.2739180092
 20
427.6596517088
 11
354.7394878673
 21
427.0236084497
  0
LINE
  5
2E8
100
AcDbEntity
  8
0
100
AcDbLine
 62
7
  6
CONTINUOUS
 10
112.3071237614
 20
455.3180325825
 11
110.4959440649
 21
455.6582895327
  0
LINE
  5
2E9
100
AcDbEntity
  8
0
100
AcDbLine
 62
7
  6
CONTINUOUS
 10
361.3818423416
 20
415.1191671381
 11
360.119911034
 21
415.413655731
  0
LINE
  5
2EA
100
AcDbEntity
  8
0
100
AcDbLine
 62
7
  6
CONTINUOUS
 10
234.3389003948
 20
395.3656466087
 11
234.3389003948
 21
395.8656466087
  0
LINE
  5
2EB
100
AcDbEntity
  8
0
100
AcDbLine
 62
7
  6
CONTINUOUS
 10
235.5835722518
 20
395.3656466087
 11
235.5835722518
 21
395.8656466087
  0
LINE
  5
2EC
100
AcDbEntity
  8
0
100
AcDbLine
 62
7
  6
CONTINUOUS
 10
235.6647346064
 20
395.3656466087
 11
235.6647346064
 21
395.8656466087
  0
LINE
  5
2ED
100
AcDbEntity
  8
0
100
AcDbLine
 62
7
  6
CONTINUOUS
 10
235.8810963193
 20
395.3656466087
 11
235.8810963193
 21
395.8656466087
  0
LINE
  5
2EE
100
AcDbEntity
  8
0
100
AcDbLine
 62
7
  6
CONTINUOUS
 10
236.194810575
 20
395.3656466087
 11
236.194810575
 21
395.8656466087
  0
LINE
  5
2EF
100
AcDbEntity
  8
0
100
AcDbLine
 62
7
  6
CONTINUOUS
 10
236.5463716694
 20
395.3656466087
 11
236.5463716694
 21
395.8656466087
  0
LINE
  5
2F0
100
AcDbEntity
  8
0
100
AcDbLine
 62
7
  6
CONTINUOUS
 10
237.3251853009
 20
395.3656466087
 11
237.3251853009
 21
395.8656466087
  0
LINE
  5
2F1
100
AcDbEntity
  8
0
100
AcDbLine
 62
7
  6
CONTINUOUS
 10
237.7524400661
 20
395.3656466087
 11
237.7524400661
 21
395.8656466087
  0
LINE
  5
2F2
100
AcDbEntity
  8
0
100
AcDbLine
 62
7
  6
CONTINUOUS
 10
238.2175394419
 20
395.3656466087
 11
238.2175394419
 21
395.8656466087
  0
LINE
  5
2F3
100
AcDbEntity
  8
0
100
AcDbLine
 62
7
  6
CONTINUOUS
 10
238.5852885097
 20
395.3656466087
 11
238.5852885097
 21
395.8656466087
  0
LINE
  5
2F4
100
AcDbEntity
  8
0
100
AcDbLine
 62
7
  6
CONTINUOUS
 10
238.893534085
 20
395.3656466087
 11
238.893534085
 21
395.8656466087
  0
LINE
  5
2F5
100
AcDbEntity
  8
0
100
AcDbLine
 62
7
  6
CONTINUOUS
 10
239.1044249191
 20
395.3656466087
 11
239.1044249191
 21
395.8656466087
  0
LINE
  5
2F6
100
AcDbEntity
  8
0
100
AcDbLine
 62
7
  6
CONTINUOUS
 10
239.2558122475
 20
395.3656466087
 11
239.2558122475
 21
395.8656466087
  0
LINE
  5
2F7
100
AcDbEntity
  8
0
100
AcDbLine
 62
7
  6
CONTINUOUS
 10
239.3098493176
 20
395.3656466087
 11
239.3098493176
 21
395.8656466087
  0
LINE
  5
2F8
100
AcDbEntity
  8
0
100
AcDbLine
 62
7
  6
CONTINUOUS
 10
239.6288119312
 20
395.3656466087
 11
239.6288119312
 21
395.8656466087
  0
LINE
  5
2F9
100
AcDbEntity
  8
0
100
AcDbLine
 62
7
  6
CONTINUOUS
 10
239.8775517991
 20
395.3656466087
 11
239.8775517991
 21
395.8656466087
  0
LINE
  5
2FA
100
AcDbEntity
  8
0
100
AcDbLine
 62
7
  6
CONTINUOUS
 10
239.9532455693
 20
395.3656466087
 11
239.9532455693
 21
395.8656466087
  0
LINE
  5
2FB
100
AcDbEntity
  8
0
100
AcDbLine
 62
7
  6
CONTINUOUS
 10
240.0072803582
 20
395.3656466087
 11
240.0072803582
 21
395.8656466087
  0
LINE
  5
2FC
100
AcDbEntity
  8
0
100
AcDbLine
 62
7
  6
CONTINUOUS
 10
240.2295657076
 20
395.3656466087
 11
240.2295657076
 21
395.8656466087
  0
LINE
  5
2FD
100
AcDbEntity
  8
0
100
AcDbLine
 62
7
  6
CONTINUOUS
 10
240.2669365544
 20
395.3656466087
 11
240.2669365544
 21
395.8656466087
  0
LINE
  5
2FE
100
AcDbEntity
  8
0
100
AcDbLine
 62
7
  6
CONTINUOUS
 10
240.4648377872
 20
395.3656466087
 11
240.4648377872
 21
395.8656466087
  0
LINE
  5
2FF
100
AcDbEntity
  8
0
100
AcDbLine
 62
7
  6
CONTINUOUS
 10
240.8786176261
 20
395.3656466087
 11
240.8786176261
 21
395.8656466087
  0
LINE
  5
300
100
AcDbEntity
  8
0
100
AcDbLine
 62
7
  6
CONTINUOUS
 10
241.4280127185
 20
395.3656466087
 11
241.4280127185
 21
395.8656466087
  0
LINE
  5
301
100
AcDbEntity
  8
0
100
AcDbLine
 62
7
  6
CONTINUOUS
 10
242.0327578741
 20
395.3656466087
 11
242.0327578741
 21
395.8656466087
  0
LINE
  5
302
100
AcDbEntity
  8
0
100
AcDbLine
 62
7
  6
CONTINUOUS
 10
242.4769744929
 20
395.3656466087
 11
242.4769744929
 21
395.8656466087
  0
LINE
  5
303
100
AcDbEntity
  8
0
100
AcDbLine
 62
7
  6
CONTINUOUS
 10
242.9087335662
 20
395.3656466087
 11
242.9087335662
 21
395.8656466087
  0
LINE
  5
304
100
AcDbEntity
  8
0
100
AcDbLine
 62
7
  6
CONTINUOUS
 10
243.1924216184
 20
395.3656466087
 11
243.1924216184
 21
395.8656466087
  0
LINE
  5
305
100
AcDbEntity
  8
0
100
AcDbLine
 62
7
  6
CONTINUOUS
 10
243.611725007
 20
395.3656466087
 11
243.611725007
 21
395.8656466087
  0
LINE
  5
306
100
AcDbEntity
  8
0
100
AcDbLine
 62
7
  6
CONTINUOUS
 10
244.2219935937
 20
395.3656466087
 11
244.2219935937
 21
395.8656466087
  0
LINE
  5
307
100
AcDbEntity
  8
0
100
AcDbLine
 62
7
  6
CONTINUOUS
 10
244.4807665074
 20
395.3656466087
 11
244.4807665074
 21
395.8656466087
  0
LINE
  5
308
100
AcDbEntity
  8
0
100
AcDbLine
 62
7
  6
CONTINUOUS
 10
244.6039243696
 20
395.3656466087
 11
244.6039243696
 21
395.8656466087
  0
LINE
  5
309
100
AcDbEntity
  8
0
100
AcDbLine
 62
7
  6
CONTINUOUS
 10
244.7146263097
 20
395.3656466087
 11
244.7146263097
 21
395.8656466087
  0
LINE
  5
30A
100
AcDbEntity
  8
0
100
AcDbLine
 62
7
  6
CONTINUOUS
 10
245.2341898647
 20
376.3656466087
 11
245.2341898647
 21
395.3656466087
  0
LINE
  5
30B
100
AcDbEntity
  8
BEZUGSACHSEN
100
AcDbLine
 62
7
  6
CONTINUOUS
 10
246.9551336733
 20
356.3656466087
 11
246.9551336733
 21
319.3656466087
  0
LINE
  5
30C
100
AcDbEntity
  8
FASEN
100
AcDbLine
 62
7
  6
CONTINUOUS
 10
246.9551336733
 20
356.3656466087
 11
246.9551336733
 21
319.3656466087
  0
LINE
  5
30D
100
AcDbEntity
  8
0
100
AcDbLine
 62
7
  6
CONTINUOUS
 10
109.8696070148
 20
427.6965597149
 11
108.5994053929
 21
427.440080775
  0
LINE
  5
30E
100
AcDbEntity
  8
0
100
AcDbLine
 62
7
  6
CONTINUOUS
 10
351.4490067683
 20
442.4094085871
 11
350.6480971902
 21
442.4947972753
  0
LINE
  5
30F
100
AcDbEntity
  8
0
100
AcDbLine
 62
7
  6
CONTINUOUS
 10
359.1453171604
 20
445.5875324185
 11
357.5434976576
 21
445.758310747
  0
LINE
  5
310
100
AcDbEntity
  8
0
100
AcDbLine
 62
7
  6
CONTINUOUS
 10
354.1338274279
 20
428.6876468309
 11
349.6682575698
 21
429.32369009
  0
LINE
  5
311
100
AcDbEntity
  8
0
100
AcDbLine
 62
7
  6
CONTINUOUS
 10
359.1237521982
 20
413.920394683
 11
360.8467038386
 21
413.4168089119
  0
LINE
  5
312
100
AcDbEntity
  8
BEZUGSACHSEN
100
AcDbLine
 62
7
  6
CONTINUOUS
 10
255.9551336733
 20
391.3656466087
 11
255.9551336733
 21
376.3656466087
  0
LINE
  5
313
100
AcDbEntity
  8
0
100
AcDbLine
 62
7
  6
CONTINUOUS
 10
258.5132460561
 20
391.3656466087
 11
258.5132460561
 21
395.3656466087
  0
LINE
  5
314
100
AcDbEntity
  8
0
100
AcDbLine
 62
7
  6
CONTINUOUS
 10
97.2986609689
 20
425.4608048574
 11
95.5613705281
 21
425.0091605928
  0
LINE
  5
315
100
AcDbEntity
  8
0
100
AcDbLine
 62
7
  6
CONTINUOUS
 10
110.4959440649
 20
455.6582895327
 11
108.889719959
 21
455.5356660678
  0
LINE
  5
316
100
AcDbEntity
  8
0
100
AcDbLine
 62
7
  6
CONTINUOUS
 10
349.6519382353
 20
441.0015361839
 11
350.9138689583
 21
440.7070484565
  0
LINE
  5
317
100
AcDbEntity
  8
0
100
AcDbLine
 62
7
  6
CONTINUOUS
 10
357.0083600857
 20
444.0559507031
 11
358.2702904622
 21
443.7614639279
  0
LINE
  5
318
100
AcDbEntity
  8
FASEN
100
AcDbLine
 62
7
  6
CONTINUOUS
 10
156.455133664
 20
316.3656465993
 11
159.4551336617
 21
319.365646597
  0
LINE
  5
319
100
AcDbEntity
  8
0
100
AcDbLine
 62
7
  6
CONTINUOUS
 10
354.7303571027
 20
449.2571663141
 11
353.3708019836
 21
448.7623287189
  0
LINE
  5
31A
100
AcDbEntity
  8
0
100
AcDbLine
 62
7
  6
CONTINUOUS
 10
359.8250956721
 20
445.8349515626
 11
359.1453171604
 21
445.5875324185
  0
LINE
  5
31B
100
AcDbEntity
  8
0
100
AcDbLine
 62
7
  6
CONTINUOUS
 10
352.8085618873
 20
442.9042461822
 11
351.4490067683
 21
442.4094085871
  0
LINE
  5
31C
100
AcDbEntity
  8
0
100
AcDbLine
 62
7
  6
CONTINUOUS
 10
108.7753639178
 20
453.2938227888
 11
110.045566481
 21
453.5503013537
  0
LINE
  5
31D
100
AcDbEntity
  8
0
100
AcDbLine
 62
7
  6
CONTINUOUS
 10
356.9179244538
 20
453.8223388393
 11
358.1798550902
 21
453.5278513499
  0
LINE
  5
31E
100
AcDbEntity
  8
0
100
AcDbLine
 62
7
  6
CONTINUOUS
 10
360.1613895937
 20
440.6808040587
 11
363.2674044623
 21
439.5499243299
  0
LINE
  5
31F
100
AcDbEntity
  8
0
100
AcDbLine
 62
7
  6
CONTINUOUS
 10
365.9865147004
 20
440.5395995202
 11
362.880500784
 21
441.6704795957
  0
LINE
  5
320
100
AcDbEntity
  8
0
100
AcDbLine
 62
7
  6
CONTINUOUS
 10
359.7509779464
 20
443.9234930851
 11
360.4307564581
 21
444.1709122292
  0
LINE
  5
321
100
AcDbEntity
  8
0
100
AcDbLine
 62
7
  6
CONTINUOUS
 10
352.0546675543
 20
440.7453692537
 11
353.4142226733
 21
441.2402068489
  0
LINE
  5
322
100
AcDbEntity
  8
0
100
AcDbLine
 62
7
  6
CONTINUOUS
 10
362.880500784
 20
441.6704795957
 11
360.1613895937
 21
440.6808040587
  0
LINE
  5
323
100
AcDbEntity
  8
0
100
AcDbLine
 62
7
  6
CONTINUOUS
 10
363.2674044623
 20
439.5499243299
 11
350.011740147
 21
434.7252570837
  0
LINE
  5
324
100
AcDbEntity
  8
0
100
AcDbLine
 62
7
  6
CONTINUOUS
 10
350.7385329516
 20
432.7284102645
 11
366.7133075049
 21
438.5427527011
  0
LINE
  5
325
100
AcDbEntity
  8
0
100
AcDbLine
 62
7
  6
CONTINUOUS
 10
350.6480971902
 20
442.4947972753
 11
349.7260550089
 21
442.9129943148
  0
LINE
  5
326
100
AcDbEntity
  8
0
100
AcDbLine
 62
7
  6
CONTINUOUS
 10
357.5434976576
 20
445.758310747
 11
356.6214560609
 21
446.1765069211
  0
LINE
  5
327
100
AcDbEntity
  8
0
100
AcDbLine
 62
7
  6
CONTINUOUS
 10
361.9946910691
 20
424.0108420424
 11
363.4988861758
 21
423.0507383912
  0
LINE
  5
328
100
AcDbEntity
  8
0
100
AcDbLine
 62
7
  6
CONTINUOUS
 10
360.119911034
 20
415.413655731
 11
359.0767370722
 21
416.164660343
  0
LINE
  5
329
100
AcDbEntity
  8
0
100
AcDbLine
 62
7
  6
CONTINUOUS
 10
357.4984246371
 20
415.2133067396
 11
359.1237521982
 21
413.920394683
  0
LINE
  5
32A
100
AcDbEntity
  8
0
100
AcDbLine
 62
7
  6
CONTINUOUS
 10
292.8970212906
 20
391.3656466087
 11
292.8970212906
 21
395.3656466087
  0
LINE
  5
32B
100
AcDbEntity
  8
BEZUGSACHSEN
100
AcDbLine
 62
7
  6
CONTINUOUS
 10
295.4551336733
 20
391.3656466087
 11
295.4551336733
 21
376.3656466087
  0
LINE
  5
32C
100
AcDbEntity
  8
0
100
AcDbLine
 62
7
  6
CONTINUOUS
 10
300.3658152691
 20
395.3656466087
 11
300.3658152691
 21
395.8656466087
  0
LINE
  5
32D
100
AcDbEntity
  8
0
100
AcDbLine
 62
7
  6
CONTINUOUS
 10
347.6939107269
 20
452.7264501687
 11
346.7953762872
 21
452.0225140726
  0
LINE
  5
32E
100
AcDbEntity
  8
0
100
AcDbLine
 62
7
  6
CONTINUOUS
 10
353.4142226733
 20
441.2402068489
 11
354.6526462499
 21
442.0678521031
  0
LINE
  5
32F
100
AcDbEntity
  8
0
100
AcDbLine
 62
7
  6
CONTINUOUS
 10
369.9838751255
 20
429.5569420148
 11
361.1467658994
 21
426.3404972995
  0
LINE
  5
330
100
AcDbEntity
  8
0
100
AcDbLine
 62
7
  6
CONTINUOUS
 10
363.4518709308
 20
425.295004008
 11
368.8900923592
 21
427.2743547353
  0
LINE
  5
331
100
AcDbEntity
  8
0
100
AcDbLine
 62
7
  6
CONTINUOUS
 10
359.637034692
 20
454.8120140297
 11
357.7929510437
 21
455.6484076274
  0
LINE
  5
332
100
AcDbEntity
  8
0
100
AcDbLine
 62
7
  6
CONTINUOUS
 10
355.504164979
 20
445.0160543543
 11
357.0083600857
 21
444.0559507031
  0
LINE
  5
333
100
AcDbEntity
  8
0
100
AcDbLine
 62
7
  6
CONTINUOUS
 10
348.6087641545
 20
441.7525407525
 11
349.6519382353
 21
441.0015361839
  0
LINE
  5
334
100
AcDbEntity
  8
0
100
AcDbLine
 62
7
  6
CONTINUOUS
 10
365.0771977095
 20
424.0020938232
 11
363.4518709308
 21
425.295004008
  0
LINE
  5
335
100
AcDbEntity
  8
BEZUGSACHSEN
100
AcDbLine
 62
7
  6
CONTINUOUS
 10
304.4551336733
 20
356.3656466087
 11
304.4551336733
 21
319.3656466087
  0
LINE
  5
336
100
AcDbEntity
  8
FASEN
100
AcDbLine
 62
7
  6
CONTINUOUS
 10
304.4551336733
 20
356.3656466087
 11
304.4551336733
 21
319.3656466087
  0
LINE
  5
337
100
AcDbEntity
  8
0
100
AcDbLine
 62
7
  6
CONTINUOUS
 10
305.3159354023
 20
395.3656466087
 11
305.3159354023
 21
395.8656466087
  0
LINE
  5
338
100
AcDbEntity
  8
0
100
AcDbLine
 62
7
  6
CONTINUOUS
 10
305.4039970521
 20
395.3656466087
 11
305.4039970521
 21
395.8656466087
  0
LINE
  5
339
100
AcDbEntity
  8
0
100
AcDbLine
 62
7
  6
CONTINUOUS
 10
305.7709205793
 20
395.3656466087
 11
305.7709205793
 21
395.8656466087
  0
LINE
  5
33A
100
AcDbEntity
  8
0
100
AcDbLine
 62
7
  6
CONTINUOUS
 10
305.8736591989
 20
395.3656466087
 11
305.8736591989
 21
395.8656466087
  0
LINE
  5
33B
100
AcDbEntity
  8
0
100
AcDbLine
 62
7
  6
CONTINUOUS
 10
306.176077482
 20
376.3656466087
 11
306.176077482
 21
395.3656466087
  0
LINE
  5
33C
100
AcDbEntity
  8
0
100
AcDbLine
 62
7
  6
CONTINUOUS
 10
306.2037774023
 20
395.3656466087
 11
306.2037774023
 21
395.8656466087
  0
LINE
  5
33D
100
AcDbEntity
  8
0
100
AcDbLine
 62
7
  6
CONTINUOUS
 10
306.583871408
 20
395.3656466087
 11
306.583871408
 21
395.8656466087
  0
LINE
  5
33E
100
AcDbEntity
  8
0
100
AcDbLine
 62
7
  6
CONTINUOUS
 10
306.9171672726
 20
395.3656466087
 11
306.9171672726
 21
395.8656466087
  0
LINE
  5
33F
100
AcDbEntity
  8
0
100
AcDbLine
 62
7
  6
CONTINUOUS
 10
307.1081660336
 20
395.3656466087
 11
307.1081660336
 21
395.8656466087
  0
LINE
  5
340
100
AcDbEntity
  8
0
100
AcDbLine
 62
7
  6
CONTINUOUS
 10
307.2523666617
 20
395.3656466087
 11
307.2523666617
 21
395.8656466087
  0
LINE
  5
341
100
AcDbEntity
  8
0
100
AcDbLine
 62
7
  6
CONTINUOUS
 10
308.3671877095
 20
395.3656466087
 11
308.3671877095
 21
395.8656466087
  0
LINE
  5
342
100
AcDbEntity
  8
0
100
AcDbLine
 62
7
  6
CONTINUOUS
 10
310.1924105253
 20
395.3656466087
 11
310.1924105253
 21
395.8656466087
  0
LINE
  5
343
100
AcDbEntity
  8
0
100
AcDbLine
 62
7
  6
CONTINUOUS
 10
310.4999685566
 20
395.3656466087
 11
310.4999685566
 21
395.8656466087
  0
LINE
  5
344
100
AcDbEntity
  8
0
100
AcDbLine
 62
7
  6
CONTINUOUS
 10
310.6587780386
 20
395.3656466087
 11
310.6587780386
 21
395.8656466087
  0
LINE
  5
345
100
AcDbEntity
  8
0
100
AcDbLine
 62
7
  6
CONTINUOUS
 10
310.6721935027
 20
395.3656466087
 11
310.6721935027
 21
395.8656466087
  0
LINE
  5
346
100
AcDbEntity
  8
0
100
AcDbLine
 62
7
  6
CONTINUOUS
 10
347.7409259719
 20
450.482184552
 11
348.2995713829
 21
451.0624111924
  0
LINE
  5
347
100
AcDbEntity
  8
0
100
AcDbLine
 62
7
  6
CONTINUOUS
 10
360.4307564581
 20
444.1709122292
 11
361.669179212
 21
444.9985582624
  0
LINE
  5
348
100
AcDbEntity
  8
0
100
AcDbLine
 62
7
  6
CONTINUOUS
 10
363.2024179125
 20
415.4049075985
 11
362.5226403529
 21
415.1574888009
  0
LINE
  5
349
100
AcDbEntity
  8
0
100
AcDbLine
 62
7
  6
CONTINUOUS
 10
372.4029240169
 20
417.6229290774
 11
374.1023679158
 21
418.2414760714
  0
LINE
  5
34A
100
AcDbEntity
  8
0
100
AcDbLine
 62
7
  6
CONTINUOUS
 10
362.7884127057
 20
413.3697391165
 11
364.1479678248
 21
413.8645767117
  0
LINE
  5
34B
100
AcDbEntity
  8
0
100
AcDbLine
 62
7
  6
CONTINUOUS
 10
370.215356146
 20
413.0577579805
 11
368.8558010269
 21
412.5629203853
  0
LINE
  5
34C
100
AcDbEntity
  8
0
100
AcDbLine
 62
7
  6
CONTINUOUS
 10
373.9035248711
 20
411.3849698223
 11
371.1844136808
 21
410.3952942854
  0
LINE
  5
34D
100
AcDbEntity
  8
0
100
AcDbLine
 62
7
  6
CONTINUOUS
 10
369.8248585617
 20
409.9004566902
 11
363.0270822523
 21
407.4262684544
  0
LINE
  5
34E
100
AcDbEntity
  8
0
100
AcDbLine
 62
7
  6
CONTINUOUS
 10
364.3125211824
 20
406.0096470531
 11
370.4305196943
 21
408.2364164047
  0
LINE
  5
34F
100
AcDbEntity
  8
0
100
AcDbLine
 62
7
  6
CONTINUOUS
 10
371.7900748133
 20
408.7312539998
 11
374.5091860036
 21
409.7209295368
  0
LINE
  5
350
100
AcDbEntity
  8
0
100
AcDbLine
 62
7
  6
CONTINUOUS
 10
358.1798550902
 20
453.5278513499
 11
359.223029052
 21
452.7768467379
  0
LINE
  5
351
100
AcDbEntity
  8
0
100
AcDbLine
 62
7
  6
CONTINUOUS
 10
347.4444580848
 20
442.8363528178
 11
348.6087641545
 21
441.7525407525
  0
LINE
  5
352
100
AcDbEntity
  8
0
100
AcDbLine
 62
7
  6
CONTINUOUS
 10
349.7260550089
 20
442.9129943148
 11
349.143902192
 21
443.4548998876
  0
LINE
  5
353
100
AcDbEntity
  8
0
100
AcDbLine
 62
7
  6
CONTINUOUS
 10
316.7975913083
 20
395.3656466087
 11
316.7975913083
 21
395.8656466087
  0
LINE
  5
354
100
AcDbEntity
  8
0
100
AcDbLine
 62
7
  6
CONTINUOUS
 10
316.8390724664
 20
395.3656466087
 11
316.8390724664
 21
395.8656466087
  0
LINE
  5
355
100
AcDbEntity
  8
0
100
AcDbLine
 62
7
  6
CONTINUOUS
 10
317.4640509575
 20
395.3656466087
 11
317.4640509575
 21
395.8656466087
  0
LINE
  5
356
100
AcDbEntity
  8
0
100
AcDbLine
 62
7
  6
CONTINUOUS
 10
318.9223333085
 20
395.3656466087
 11
318.9223333085
 21
395.8656466087
  0
LINE
  5
357
100
AcDbEntity
  8
0
100
AcDbLine
 62
7
  6
CONTINUOUS
 10
319.7556395527
 20
395.3656466087
 11
319.7556395527
 21
395.8656466087
  0
LINE
  5
358
100
AcDbEntity
  8
0
100
AcDbLine
 62
7
  6
CONTINUOUS
 10
321.2139219037
 20
395.3656466087
 11
321.2139219037
 21
395.8656466087
  0
LINE
  5
359
100
AcDbEntity
  8
0
100
AcDbLine
 62
7
  6
CONTINUOUS
 10
321.8389003948
 20
395.3656466087
 11
321.8389003948
 21
395.8656466087
  0
LINE
  5
35A
100
AcDbEntity
  8
0
100
AcDbLine
 62
7
  6
CONTINUOUS
 10
323.0835722518
 20
395.3656466087
 11
323.0835722518
 21
395.8656466087
  0
LINE
  5
35B
100
AcDbEntity
  8
0
100
AcDbLine
 62
7
  6
CONTINUOUS
 10
323.1647346064
 20
395.3656466087
 11
323.1647346064
 21
395.8656466087
  0
LINE
  5
35C
100
AcDbEntity
  8
0
100
AcDbLine
 62
7
  6
CONTINUOUS
 10
323.3810963193
 20
395.3656466087
 11
323.3810963193
 21
395.8656466087
  0
LINE
  5
35D
100
AcDbEntity
  8
0
100
AcDbLine
 62
7
  6
CONTINUOUS
 10
323.694810575
 20
395.3656466087
 11
323.694810575
 21
395.8656466087
  0
LINE
  5
35E
100
AcDbEntity
  8
0
100
AcDbLine
 62
7
  6
CONTINUOUS
 10
324.0463716694
 20
395.3656466087
 11
324.0463716694
 21
395.8656466087
  0
LINE
  5
35F
100
AcDbEntity
  8
0
100
AcDbLine
 62
7
  6
CONTINUOUS
 10
324.8251853009
 20
395.3656466087
 11
324.8251853009
 21
395.8656466087
  0
LINE
  5
360
100
AcDbEntity
  8
0
100
AcDbLine
 62
7
  6
CONTINUOUS
 10
325.2524400661
 20
395.3656466087
 11
325.2524400661
 21
395.8656466087
  0
LINE
  5
361
100
AcDbEntity
  8
0
100
AcDbLine
 62
7
  6
CONTINUOUS
 10
325.7175394419
 20
395.3656466087
 11
325.7175394419
 21
395.8656466087
  0
LINE
  5
362
100
AcDbEntity
  8
0
100
AcDbLine
 62
7
  6
CONTINUOUS
 10
326.0852885097
 20
395.3656466087
 11
326.0852885097
 21
395.8656466087
  0
LINE
  5
363
100
AcDbEntity
  8
0
100
AcDbLine
 62
7
  6
CONTINUOUS
 10
326.393534085
 20
395.3656466087
 11
326.393534085
 21
395.8656466087
  0
LINE
  5
364
100
AcDbEntity
  8
0
100
AcDbLine
 62
7
  6
CONTINUOUS
 10
326.6044249191
 20
395.3656466087
 11
326.6044249191
 21
395.8656466087
  0
LINE
  5
365
100
AcDbEntity
  8
0
100
AcDbLine
 62
7
  6
CONTINUOUS
 10
326.7558122475
 20
395.3656466087
 11
326.7558122475
 21
395.8656466087
  0
LINE
  5
366
100
AcDbEntity
  8
0
100
AcDbLine
 62
7
  6
CONTINUOUS
 10
326.8098493176
 20
395.3656466087
 11
326.8098493176
 21
395.8656466087
  0
LINE
  5
367
100
AcDbEntity
  8
0
100
AcDbLine
 62
7
  6
CONTINUOUS
 10
327.1288119312
 20
395.3656466087
 11
327.1288119312
 21
395.8656466087
  0
LINE
  5
368
100
AcDbEntity
  8
0
100
AcDbLine
 62
7
  6
CONTINUOUS
 10
327.3775517991
 20
395.3656466087
 11
327.3775517991
 21
395.8656466087
  0
LINE
  5
369
100
AcDbEntity
  8
0
100
AcDbLine
 62
7
  6
CONTINUOUS
 10
327.4532455693
 20
395.3656466087
 11
327.4532455693
 21
395.8656466087
  0
LINE
  5
36A
100
AcDbEntity
  8
0
100
AcDbLine
 62
7
  6
CONTINUOUS
 10
327.5072803582
 20
395.3656466087
 11
327.5072803582
 21
395.8656466087
  0
LINE
  5
36B
100
AcDbEntity
  8
0
100
AcDbLine
 62
7
  6
CONTINUOUS
 10
327.7295657076
 20
395.3656466087
 11
327.7295657076
 21
395.8656466087
  0
LINE
  5
36C
100
AcDbEntity
  8
0
100
AcDbLine
 62
7
  6
CONTINUOUS
 10
327.7669365544
 20
395.3656466087
 11
327.7669365544
 21
395.8656466087
  0
LINE
  5
36D
100
AcDbEntity
  8
0
100
AcDbLine
 62
7
  6
CONTINUOUS
 10
327.9648377872
 20
395.3656466087
 11
327.9648377872
 21
395.8656466087
  0
LINE
  5
36E
100
AcDbEntity
  8
0
100
AcDbLine
 62
7
  6
CONTINUOUS
 10
328.3786176261
 20
395.3656466087
 11
328.3786176261
 21
395.8656466087
  0
LINE
  5
36F
100
AcDbEntity
  8
0
100
AcDbLine
 62
7
  6
CONTINUOUS
 10
328.9280127185
 20
395.3656466087
 11
328.9280127185
 21
395.8656466087
  0
LINE
  5
370
100
AcDbEntity
  8
RUNDUNGEN
100
AcDbLine
 62
7
  6
CONTINUOUS
 10
330.8801347186
 20
439.1053846741
 11
336.127417167
 21
451.7734451267
  0
LINE
  5
371
100
AcDbEntity
  8
0
100
AcDbLine
 62
7
  6
CONTINUOUS
 10
346.7953762872
 20
452.0225140726
 11
346.0179742125
 21
450.9857702797
  0
LINE
  5
372
100
AcDbEntity
  8
0
100
AcDbLine
 62
7
  6
CONTINUOUS
 10
353.9258534453
 20
444.0646989223
 11
352.8085618873
 21
442.9042461822
  0
LINE
  5
373
100
AcDbEntity
  8
0
100
AcDbLine
 62
7
  6
CONTINUOUS
 10
362.0038221155
 20
401.7772826631
 11
363.3633773536
 21
402.2721203016
  0
LINE
  5
374
100
AcDbEntity
  8
0
100
AcDbLine
 62
7
  6
CONTINUOUS
 10
371.7629722452
 20
404.5755331086
 11
373.1225273642
 21
405.0703707038
  0
LINE
  5
375
100
AcDbEntity
  8
0
100
AcDbLine
 62
7
  6
CONTINUOUS
 10
360.801340759
 20
453.7282016938
 11
359.637034692
 21
454.8120140297
  0
LINE
  5
376
100
AcDbEntity
  8
0
100
AcDbLine
 62
7
  6
CONTINUOUS
 10
359.0767370722
 20
416.164660343
 11
358.2523202181
 21
417.3721808875
  0
LINE
  5
377
100
AcDbEntity
  8
0
100
AcDbLine
 62
7
  6
CONTINUOUS
 10
346.6200406812
 20
444.0438747797
 11
347.4444580848
 21
442.8363528178
  0
LINE
  5
378
100
AcDbEntity
  8
0
100
AcDbLine
 62
7
  6
CONTINUOUS
 10
363.4988861758
 20
423.0507383912
 11
364.323303723
 21
421.8432159425
  0
LINE
  5
379
100
AcDbEntity
  8
0
100
AcDbLine
 62
7
  6
CONTINUOUS
 10
356.5528760812
 20
416.7536338068
 11
357.4984246371
 21
415.2133067396
  0
LINE
  5
37A
100
AcDbEntity
  8
RUNDUNGEN
100
AcDbLine
 62
7
  6
CONTINUOUS
 10
336.5433092811
 20
411.1210048961
 11
330.8801528928
 21
424.7930738547
  0
LINE
  5
37B
100
AcDbEntity
  8
0
100
AcDbLine
 62
7
  6
CONTINUOUS
 10
329.5327578741
 20
395.3656466087
 11
329.5327578741
 21
395.8656466087
  0
LINE
  5
37C
100
AcDbEntity
  8
0
100
AcDbLine
 62
7
  6
CONTINUOUS
 10
329.9769744929
 20
395.3656466087
 11
329.9769744929
 21
395.8656466087
  0
LINE
  5
37D
100
AcDbEntity
  8
0
100
AcDbLine
 62
7
  6
CONTINUOUS
 10
330.4087335662
 20
395.3656466087
 11
330.4087335662
 21
395.8656466087
  0
LINE
  5
37E
100
AcDbEntity
  8
0
100
AcDbLine
 62
7
  6
CONTINUOUS
 10
330.6924216184
 20
395.3656466087
 11
330.6924216184
 21
395.8656466087
  0
LINE
  5
37F
100
AcDbEntity
  8
0
100
AcDbLine
 62
7
  6
CONTINUOUS
 10
331.111725007
 20
395.3656466087
 11
331.111725007
 21
395.8656466087
  0
LINE
  5
380
100
AcDbEntity
  8
0
100
AcDbLine
 62
7
  6
CONTINUOUS
 10
331.7219935937
 20
395.3656466087
 11
331.7219935937
 21
395.8656466087
  0
LINE
  5
381
100
AcDbEntity
  8
0
100
AcDbLine
 62
7
  6
CONTINUOUS
 10
331.9807665074
 20
395.3656466087
 11
331.9807665074
 21
395.8656466087
  0
LINE
  5
382
100
AcDbEntity
  8
0
100
AcDbLine
 62
7
  6
CONTINUOUS
 10
332.1039243696
 20
395.3656466087
 11
332.1039243696
 21
395.8656466087
  0
LINE
  5
383
100
AcDbEntity
  8
0
100
AcDbLine
 62
7
  6
CONTINUOUS
 10
332.2146263097
 20
395.3656466087
 11
332.2146263097
 21
395.8656466087
  0
LINE
  5
384
100
AcDbEntity
  8
0
100
AcDbLine
 62
7
  6
CONTINUOUS
 10
332.7341898647
 20
376.3656466087
 11
332.7341898647
 21
395.3656466087
  0
LINE
  5
385
100
AcDbEntity
  8
BEZUGSACHSEN
100
AcDbLine
 62
7
  6
CONTINUOUS
 10
334.4551336733
 20
356.3656466087
 11
334.4551336733
 21
319.3656466087
  0
LINE
  5
386
100
AcDbEntity
  8
FASEN
100
AcDbLine
 62
7
  6
CONTINUOUS
 10
334.4551336733
 20
356.3656466087
 11
334.4551336733
 21
319.3656466087
  0
LINE
  5
387
100
AcDbEntity
  8
0
100
AcDbLine
 62
7
  6
CONTINUOUS
 10
346.0179742125
 20
450.9857702797
 11
345.7015929362
 21
449.7399280292
  0
LINE
  5
388
100
AcDbEntity
  8
0
100
AcDbLine
 62
7
  6
CONTINUOUS
 10
347.3034124714
 20
449.569149982
 11
347.7409259719
 21
450.482184552
  0
LINE
  5
389
100
AcDbEntity
  8
0
100
AcDbLine
 62
7
  6
CONTINUOUS
 10
354.6526462499
 20
442.0678521031
 11
355.4300482055
 21
443.1045962233
  0
LINE
  5
38A
100
AcDbEntity
  8
0
100
AcDbLine
 62
7
  6
CONTINUOUS
 10
360.6024976277
 20
446.8716956828
 11
359.8250956721
 21
445.8349515626
  0
LINE
  5
38B
100
AcDbEntity
  8
0
100
AcDbLine
 62
7
  6
CONTINUOUS
 10
358.0877664054
 20
425.2271125371
 11
356.9704757786
 21
424.0666579793
  0
LINE
  5
38C
100
AcDbEntity
  8
0
100
AcDbLine
 62
7
  6
CONTINUOUS
 10
357.6972685832
 20
422.0698111602
 11
358.81455921
 21
423.2302657179
  0
LINE
  5
38D
100
AcDbEntity
  8
FASEN
100
AcDbLine
 62
7
  6
CONTINUOUS
 10
243.955133664
 20
316.3656465993
 11
246.9551336617
 21
319.365646597
  0
LINE
  5
38E
100
AcDbEntity
  8
0
100
AcDbLine
 62
7
  6
CONTINUOUS
 10
364.1479678248
 20
413.8645767117
 11
365.6051474694
 21
415.1487407549
  0
LINE
  5
38F
100
AcDbEntity
  8
0
100
AcDbLine
 62
7
  6
CONTINUOUS
 10
364.1009530558
 20
416.1088425018
 11
363.2024179125
 21
415.4049075985
  0
LINE
  5
390
100
AcDbEntity
  8
RUNDUNGEN
100
AcDbLine
 62
7
  6
CONTINUOUS
 10
302.3688852285
 20
533.2737513656
 11
236.5473348617
 21
560.537930224
  0
LINE
  5
391
100
AcDbEntity
  8
0
100
AcDbLine
 62
7
  6
CONTINUOUS
 10
356.6214560609
 20
446.1765069211
 11
355.2148855236
 21
447.9259354187
  0
LINE
  5
392
100
AcDbEntity
  8
0
100
AcDbLine
 62
7
  6
CONTINUOUS
 10
349.143902192
 20
443.4548998876
 11
348.1983526262
 21
444.9952298222
  0
LINE
  5
393
100
AcDbEntity
  8
0
100
AcDbLine
 62
7
  6
CONTINUOUS
 10
366.0227476218
 20
422.4617629364
 11
365.0771977095
 21
424.0020938232
  0
LINE
  5
394
100
AcDbEntity
  8
RUNDUNGEN
100
AcDbLine
 62
7
  6
CONTINUOUS
 10
336.1274172916
 20
460.9578477899
 11
308.8632384303
 21
526.7793981639
  0
LINE
  5
395
100
AcDbEntity
  8
0
100
AcDbLine
 62
7
  6
CONTINUOUS
 10
349.6682575698
 20
429.32369009
 11
350.2739180092
 21
427.6596517088
  0
LINE
  5
396
100
AcDbEntity
  8
0
100
AcDbLine
 62
7
  6
CONTINUOUS
 10
345.6509834929
 20
446.7063375226
 11
346.6200406812
 21
444.0438747797
  0
LINE
  5
397
100
AcDbEntity
  8
0
100
AcDbLine
 62
7
  6
CONTINUOUS
 10
350.011740147
 20
434.7252570837
 11
350.7385329516
 21
432.7284102645
  0
LINE
  5
398
100
AcDbEntity
  8
0
100
AcDbLine
 62
7
  6
CONTINUOUS
 10
355.8260832767
 20
418.750480626
 11
356.5528760812
 21
416.7536338068
  0
LINE
  5
399
100
AcDbEntity
  8
0
100
AcDbLine
 62
7
  6
CONTINUOUS
 10
358.2523202181
 20
417.3721808875
 11
357.5255274136
 21
419.3690277066
  0
LINE
  5
39A
100
AcDbEntity
  8
0
100
AcDbLine
 62
7
  6
CONTINUOUS
 10
354.7394878673
 20
427.0236084497
 11
354.1338274279
 21
428.6876468309
  0
LINE
  5
39B
100
AcDbEntity
  8
0
100
AcDbLine
 62
7
  6
CONTINUOUS
 10
348.1983526262
 20
444.9952298222
 11
347.4715598216
 21
446.9920766414
  0
LINE
  5
39C
100
AcDbEntity
  8
0
100
AcDbLine
 62
7
  6
CONTINUOUS
 10
345.5063437949
 20
448.1612780657
 11
345.6509834929
 21
446.7063375226
  0
LINE
  5
39D
100
AcDbEntity
  8
0
100
AcDbLine
 62
7
  6
CONTINUOUS
 10
357.5255274136
 20
419.3690277066
 11
357.3808874259
 21
420.823968953
  0
LINE
  5
39E
100
AcDbEntity
  8
BEZUGSACHSEN
100
AcDbLine
 62
7
  6
CONTINUOUS
 10
345.0085589533
 20
376.3656466087
 11
345.0085589533
 21
391.3656466087
  0
LINE
  5
39F
100
AcDbEntity
  8
0
100
AcDbLine
 62
7
  6
CONTINUOUS
 10
346.0132460561
 20
391.3656466087
 11
346.0132460561
 21
395.3656466087
  0
LINE
  5
3A0
100
AcDbEntity
  8
0
100
AcDbLine
 62
7
  6
CONTINUOUS
 10
355.4300482055
 20
443.1045962233
 11
355.504164979
 21
445.0160543543
  0
LINE
  5
3A1
100
AcDbEntity
  8
0
100
AcDbLine
 62
7
  6
CONTINUOUS
 10
345.7015929362
 20
449.7399280292
 11
345.5063437949
 21
448.1612780657
  0
LINE
  5
3A2
100
AcDbEntity
  8
0
100
AcDbLine
 62
7
  6
CONTINUOUS
 10
347.205787902
 20
448.7798251355
 11
347.3034124714
 21
449.569149982
  0
LINE
  5
3A3
100
AcDbEntity
  8
0
100
AcDbLine
 62
7
  6
CONTINUOUS
 10
354.2422346026
 20
445.3105411295
 11
353.9258534453
 21
444.0646989223
  0
LINE
  5
3A4
100
AcDbEntity
  8
0
100
AcDbLine
 62
7
  6
CONTINUOUS
 10
360.9188787849
 20
448.11753789
 11
360.6024976277
 21
446.8716956828
  0
LINE
  5
3A5
100
AcDbEntity
  8
0
100
AcDbLine
 62
7
  6
CONTINUOUS
 10
361.669179212
 20
444.9985582624
 11
362.5442059102
 21
446.824626753
  0
LINE
  5
3A6
100
AcDbEntity
  8
0
100
AcDbLine
 62
7
  6
CONTINUOUS
 10
356.9704757786
 20
424.0666579793
 11
355.9743169428
 21
422.5733969312
  0
LINE
  5
3A7
100
AcDbEntity
  8
0
100
AcDbLine
 62
7
  6
CONTINUOUS
 10
364.8783546649
 20
417.1455875741
 11
364.1009530558
 21
416.1088425018
  0
LINE
  5
3A8
100
AcDbEntity
  8
0
100
AcDbLine
 62
7
  6
CONTINUOUS
 10
363.0270822523
 20
407.4262684544
 11
361.9097917445
 21
406.2658139399
  0
LINE
  5
3A9
100
AcDbEntity
  8
0
100
AcDbLine
 62
7
  6
CONTINUOUS
 10
363.4139862771
 20
405.3057122364
 11
364.3125211824
 21
406.0096470531
  0
LINE
  5
3AA
100
AcDbEntity
  8
0
100
AcDbLine
 62
7
  6
CONTINUOUS
 10
359.223029052
 20
452.7768467379
 11
360.1685785311
 21
451.2365170414
  0
LINE
  5
3AB
100
AcDbEntity
  8
0
100
AcDbLine
 62
7
  6
CONTINUOUS
 10
361.9891544485
 20
451.5222565496
 11
360.801340759
 21
453.7282016938
  0
LINE
  5
3AC
100
AcDbEntity
  8
0
100
AcDbLine
 62
7
  6
CONTINUOUS
 10
348.2995713829
 20
451.0624111924
 11
347.6939107269
 21
452.7264501687
  0
LINE
  5
3AD
100
AcDbEntity
  8
0
100
AcDbLine
 62
7
  6
CONTINUOUS
 10
358.81455921
 20
423.2302657179
 11
358.0877664054
 21
425.2271125371
  0
LINE
  5
3AE
100
AcDbEntity
  8
0
100
AcDbLine
 62
7
  6
CONTINUOUS
 10
361.1467658994
 20
426.3404972995
 11
361.9946910691
 21
424.0108420424
  0
LINE
  5
3AF
100
AcDbEntity
  8
0
100
AcDbLine
 62
7
  6
CONTINUOUS
 10
353.3708019836
 20
448.7623287189
 11
353.8553304045
 21
447.4310978235
  0
LINE
  5
3B0
100
AcDbEntity
  8
0
100
AcDbLine
 62
7
  6
CONTINUOUS
 10
364.323303723
 20
421.8432159425
 11
365.0500965276
 21
419.8463691233
  0
LINE
  5
3B1
100
AcDbEntity
  8
0
100
AcDbLine
 62
7
  6
CONTINUOUS
 10
355.2148855236
 20
447.9259354187
 11
354.7303571027
 21
449.2571663141
  0
LINE
  5
3B2
100
AcDbEntity
  8
0
100
AcDbLine
 62
7
  6
CONTINUOUS
 10
368.8558010269
 20
412.5629203853
 11
369.8248585617
 21
409.9004566902
  0
LINE
  5
3B3
100
AcDbEntity
  8
0
100
AcDbLine
 62
7
  6
CONTINUOUS
 10
370.4305196943
 20
408.2364164047
 11
371.7629722452
 21
404.5755331086
  0
LINE
  5
3B4
100
AcDbEntity
  8
0
100
AcDbLine
 62
7
  6
CONTINUOUS
 10
366.7495404264
 20
420.4649161173
 11
366.0227476218
 21
422.4617629364
  0
LINE
  5
3B5
100
AcDbEntity
  8
0
100
AcDbLine
 62
7
  6
CONTINUOUS
 10
373.1225273642
 20
405.0703707038
 11
371.7900748133
 21
408.7312539998
  0
LINE
  5
3B6
100
AcDbEntity
  8
0
100
AcDbLine
 62
7
  6
CONTINUOUS
 10
371.1844136808
 20
410.3952942854
 11
370.215356146
 21
413.0577579805
  0
LINE
  5
3B7
100
AcDbEntity
  8
0
100
AcDbLine
 62
7
  6
CONTINUOUS
 10
356.312263787
 20
455.4863778453
 11
356.9179244538
 21
453.8223388393
  0
LINE
  5
3B8
100
AcDbEntity
  8
0
100
AcDbLine
 62
7
  6
CONTINUOUS
 10
374.5091860036
 20
409.7209295368
 11
373.9035248711
 21
411.3849698223
  0
LINE
  5
3B9
100
AcDbEntity
  8
0
100
AcDbLine
 62
7
  6
CONTINUOUS
 10
360.1685785311
 20
451.2365170414
 11
360.653106952
 21
449.905286146
  0
LINE
  5
3BA
100
AcDbEntity
  8
0
100
AcDbLine
 62
7
  6
CONTINUOUS
 10
368.8900923592
 20
427.2743547353
 11
372.4029240169
 21
417.6229290774
  0
LINE
  5
3BB
100
AcDbEntity
  8
0
100
AcDbLine
 62
7
  6
CONTINUOUS
 10
361.6169181205
 20
403.8978388919
 11
362.0038221155
 21
401.7772826631
  0
LINE
  5
3BC
100
AcDbEntity
  8
0
100
AcDbLine
 62
7
  6
CONTINUOUS
 10
353.8553304045
 20
447.4310978235
 11
354.2422346026
 21
445.3105411295
  0
LINE
  5
3BD
100
AcDbEntity
  8
0
100
AcDbLine
 62
7
  6
CONTINUOUS
 10
347.4715598216
 20
446.9920766414
 11
347.205787902
 21
448.7798251355
  0
LINE
  5
3BE
100
AcDbEntity
  8
0
100
AcDbLine
 62
7
  6
CONTINUOUS
 10
355.5603109536
 20
420.5382303212
 11
355.8260832767
 21
418.750480626
  0
LINE
  5
3BF
100
AcDbEntity
  8
0
100
AcDbLine
 62
7
  6
CONTINUOUS
 10
363.3633773536
 20
402.2721203016
 11
363.0976051198
 21
404.0598700292
  0
LINE
  5
3C0
100
AcDbEntity
  8
0
100
AcDbLine
 62
7
  6
CONTINUOUS
 10
365.0500965276
 20
419.8463691233
 11
365.1947358221
 21
418.3914297813
  0
LINE
  5
3C1
100
AcDbEntity
  8
0
100
AcDbLine
 62
7
  6
CONTINUOUS
 10
361.5934105277
 20
405.0199717111
 11
361.6169181205
 21
403.8978388919
  0
LINE
  5
3C2
100
AcDbEntity
  8
0
100
AcDbLine
 62
7
  6
CONTINUOUS
 10
362.5442059102
 20
446.824626753
 11
362.7394550489
 21
448.403276446
  0
LINE
  5
3C3
100
AcDbEntity
  8
0
100
AcDbLine
 62
7
  6
CONTINUOUS
 10
355.9743169428
 20
422.5733969312
 11
355.5603109536
 21
420.5382303212
  0
LINE
  5
3C4
100
AcDbEntity
  8
0
100
AcDbLine
 62
7
  6
CONTINUOUS
 10
366.6013061862
 20
416.6420017597
 11
367.015311393
 21
418.6771702416
  0
LINE
  5
3C5
100
AcDbEntity
  8
0
100
AcDbLine
 62
7
  6
CONTINUOUS
 10
357.3808874259
 20
420.823968953
 11
357.6972685832
 21
422.0698111602
  0
LINE
  5
3C6
100
AcDbEntity
  8
0
100
AcDbLine
 62
7
  6
CONTINUOUS
 10
361.9097917445
 20
406.2658139399
 11
361.5934105277
 21
405.0199717111
  0
LINE
  5
3C7
100
AcDbEntity
  8
0
100
AcDbLine
 62
7
  6
CONTINUOUS
 10
365.1947358221
 20
418.3914297813
 11
364.8783546649
 21
417.1455875741
  0
LINE
  5
3C8
100
AcDbEntity
  8
0
100
AcDbLine
 62
7
  6
CONTINUOUS
 10
363.0976051198
 20
404.0598700292
 11
363.4139862771
 21
405.3057122364
  0
LINE
  5
3C9
100
AcDbEntity
  8
0
100
AcDbLine
 62
7
  6
CONTINUOUS
 10
365.6051474694
 20
415.1487407549
 11
366.6013061862
 21
416.6420017597
  0
LINE
  5
3CA
100
AcDbEntity
  8
0
100
AcDbLine
 62
7
  6
CONTINUOUS
 10
374.1023679158
 20
418.2414760714
 11
369.9838751255
 21
429.5569420148
  0
LINE
  5
3CB
100
AcDbEntity
  8
0
100
AcDbLine
 62
7
  6
CONTINUOUS
 10
366.7133075049
 20
438.5427527011
 11
365.9865147004
 21
440.5395995202
  0
LINE
  5
3CC
100
AcDbEntity
  8
0
100
AcDbLine
 62
7
  6
CONTINUOUS
 10
362.2314188323
 20
450.8566406258
 11
361.9891544485
 21
451.5222565496
  0
LINE
  5
3CD
100
AcDbEntity
  8
0
100
AcDbLine
 62
7
  6
CONTINUOUS
 10
362.7394550489
 20
448.403276446
 11
362.2314188323
 21
450.8566406258
  0
LINE
  5
3CE
100
AcDbEntity
  8
0
100
AcDbLine
 62
7
  6
CONTINUOUS
 10
360.653106952
 20
449.905286146
 11
360.9188787849
 21
448.11753789
  0
LINE
  5
3CF
100
AcDbEntity
  8
0
100
AcDbLine
 62
7
  6
CONTINUOUS
 10
367.015311393
 20
418.6771702416
 11
366.7495404264
 21
420.4649161173
  0
LINE
  5
3D0
100
AcDbEntity
  8
RUNDUNGEN
100
AcDbLine
 62
7
  6
CONTINUOUS
 10
388.7467549536
 20
418.3649880071
 11
368.5349542278
 21
475.0580753561
  0
LINE
  5
3D1
100
AcDbEntity
  8
RUNDUNGEN
100
AcDbLine
 62
7
  6
CONTINUOUS
 10
391.9551336733
 20
356.3656466087
 11
391.9551336733
 21
399.8114936051
  0
LINE
  5
3D2
100
AcDbEntity
  8
FASEN
100
AcDbLine
 62
7
  6
CONTINUOUS
 10
331.455133664
 20
316.3656465993
 11
334.4551336617
 21
319.365646597
  0
LINE
  5
3D3
100
AcDbEntity
  8
BEZUGSACHSEN
100
AcDbLine
 62
7
  6
CONTINUOUS
 10
529.8484580087
 20
319.3656466087
 11
532.8484580087
 21
316.3656466087
  0
LINE
  5
3D4
100
AcDbEntity
  8
FASEN
100
AcDbLine
 62
7
  6
CONTINUOUS
 10
731.8475202712
 20
316.3656466087
 11
707.8493957463
 21
316.3656466087
  0
LINE
  5
3D5
100
AcDbEntity
  8
BEZUGSACHSEN
100
AcDbLine
 62
7
  6
CONTINUOUS
 10
532.8493957463
 20
316.3656466087
 11
556.8475202712
 21
316.3656466087
  0
LINE
  5
3D6
100
AcDbEntity
  8
FASEN
100
AcDbLine
 62
7
  6
CONTINUOUS
 10
734.8484580087
 20
319.3656466087
 11
704.8484580087
 21
319.3656466087
  0
LINE
  5
3D7
100
AcDbEntity
  8
BEZUGSACHSEN
100
AcDbLine
 62
7
  6
CONTINUOUS
 10
529.8484580087
 20
319.3656466087
 11
559.8484580087
 21
319.3656466087
  0
LINE
  5
3D8
100
AcDbEntity
  8
BEZUGSACHSEN
100
AcDbLine
 62
7
  6
CONTINUOUS
 10
517.3484580087
 20
356.3656466087
 11
517.3484580087
 21
391.3656466087
  0
LINE
  5
3D9
100
AcDbEntity
  8
BEZUGSACHSEN
100
AcDbLine
 62
7
  6
CONTINUOUS
 10
518.7856021318
 20
391.3656466087
 11
518.7856021318
 21
376.3656466087
  0
LINE
  5
3DA
100
AcDbEntity
  8
BEZUGSACHSEN
100
AcDbLine
 62
7
  6
CONTINUOUS
 10
521.8484580087
 20
391.3656466087
 11
521.8484580087
 21
395.3656466087
  0
LINE
  5
3DB
100
AcDbEntity
  8
BEZUGSACHSEN
100
AcDbLine
 62
7
  6
CONTINUOUS
 10
529.8484580087
 20
319.3656466087
 11
529.8484580087
 21
356.3656466087
  0
LINE
  5
3DC
100
AcDbEntity
  8
BEZUGSACHSEN
100
AcDbLine
 62
7
  6
CONTINUOUS
 10
544.8484580087
 20
391.3656466087
 11
544.8484580087
 21
395.3656466087
  0
LINE
  5
3DD
100
AcDbEntity
  8
BEZUGSACHSEN
100
AcDbLine
 62
7
  6
CONTINUOUS
 10
544.8616163643
 20
395.3656466087
 11
544.8616163643
 21
395.8656466087
  0
LINE
  5
3DE
100
AcDbEntity
  8
BEZUGSACHSEN
100
AcDbLine
 62
7
  6
CONTINUOUS
 10
545.5661095633
 20
395.3656466087
 11
545.5661095633
 21
395.8656466087
  0
LINE
  5
3DF
100
AcDbEntity
  8
BEZUGSACHSEN
100
AcDbLine
 62
7
  6
CONTINUOUS
 10
548.0411696299
 20
395.3656466087
 11
548.0411696299
 21
395.8656466087
  0
LINE
  5
3E0
100
AcDbEntity
  8
BEZUGSACHSEN
100
AcDbLine
 62
7
  6
CONTINUOUS
 10
548.5418180269
 20
395.3656466087
 11
548.5418180269
 21
395.8656466087
  0
LINE
  5
3E1
100
AcDbEntity
  8
BEZUGSACHSEN
100
AcDbLine
 62
7
  6
CONTINUOUS
 10
548.909360294
 20
395.3656466087
 11
548.909360294
 21
395.8656466087
  0
LINE
  5
3E2
100
AcDbEntity
  8
BEZUGSACHSEN
100
AcDbLine
 62
7
  6
CONTINUOUS
 10
549.1587859415
 20
395.3656466087
 11
549.1587859415
 21
395.8656466087
  0
LINE
  5
3E3
100
AcDbEntity
  8
BEZUGSACHSEN
100
AcDbLine
 62
7
  6
CONTINUOUS
 10
549.2169457002
 20
395.3656466087
 11
549.2169457002
 21
395.8656466087
  0
LINE
  5
3E4
100
AcDbEntity
  8
BEZUGSACHSEN
100
AcDbLine
 62
7
  6
CONTINUOUS
 10
550.2286112182
 20
395.3656466087
 11
550.2286112182
 21
395.8656466087
  0
LINE
  5
3E5
100
AcDbEntity
  8
BEZUGSACHSEN
100
AcDbLine
 62
7
  6
CONTINUOUS
 10
550.3798612227
 20
395.3656466087
 11
550.3798612227
 21
395.8656466087
  0
LINE
  5
3E6
100
AcDbEntity
  8
BEZUGSACHSEN
100
AcDbLine
 62
7
  6
CONTINUOUS
 10
551.8915954009
 20
395.3656466087
 11
551.8915954009
 21
395.8656466087
  0
LINE
  5
3E7
100
AcDbEntity
  8
BEZUGSACHSEN
100
AcDbLine
 62
7
  6
CONTINUOUS
 10
552.4470629404
 20
395.3656466087
 11
552.4470629404
 21
395.8656466087
  0
LINE
  5
3E8
100
AcDbEntity
  8
BEZUGSACHSEN
100
AcDbLine
 62
7
  6
CONTINUOUS
 10
552.5381049392
 20
395.3656466087
 11
552.5381049392
 21
395.8656466087
  0
LINE
  5
3E9
100
AcDbEntity
  8
BEZUGSACHSEN
100
AcDbLine
 62
7
  6
CONTINUOUS
 10
552.869557357
 20
395.3656466087
 11
552.869557357
 21
395.8656466087
  0
LINE
  5
3EA
100
AcDbEntity
  8
BEZUGSACHSEN
100
AcDbLine
 62
7
  6
CONTINUOUS
 10
553.1571978608
 20
395.3656466087
 11
553.1571978608
 21
395.8656466087
  0
LINE
  5
3EB
100
AcDbEntity
  8
BEZUGSACHSEN
100
AcDbLine
 62
7
  6
CONTINUOUS
 10
517.3484580087
 20
356.3656466087
 11
747.3484580087
 21
356.3656466087
  0
LINE
  5
3EC
100
AcDbEntity
  8
BEZUGSACHSEN
100
AcDbLine
 62
7
  6
CONTINUOUS
 10
554.668932039
 20
395.3656466087
 11
554.668932039
 21
395.8656466087
  0
LINE
  5
3ED
100
AcDbEntity
  8
BEZUGSACHSEN
100
AcDbLine
 62
7
  6
CONTINUOUS
 10
555.2243993136
 20
395.3656466087
 11
555.2243993136
 21
395.8656466087
  0
LINE
  5
3EE
100
AcDbEntity
  8
BEZUGSACHSEN
100
AcDbLine
 62
7
  6
CONTINUOUS
 10
557.2965016792
 20
395.3656466087
 11
557.2965016792
 21
395.8656466087
  0
LINE
  5
3EF
100
AcDbEntity
  8
BEZUGSACHSEN
100
AcDbLine
 62
7
  6
CONTINUOUS
 10
559.0048815177
 20
395.3656466087
 11
559.0048815177
 21
395.8656466087
  0
LINE
  5
3F0
100
AcDbEntity
  8
BEZUGSACHSEN
100
AcDbLine
 62
7
  6
CONTINUOUS
 10
559.2831252089
 20
395.3656466087
 11
559.2831252089
 21
395.8656466087
  0
LINE
  5
3F1
100
AcDbEntity
  8
BEZUGSACHSEN
100
AcDbLine
 62
7
  6
CONTINUOUS
 10
559.412516817
 20
395.3656466087
 11
559.412516817
 21
395.8656466087
  0
LINE
  5
3F2
100
AcDbEntity
  8
BEZUGSACHSEN
100
AcDbLine
 62
7
  6
CONTINUOUS
 10
559.8484580087
 20
319.3656466087
 11
559.8484580087
 21
356.3656466087
  0
LINE
  5
3F3
100
AcDbEntity
  8
BEZUGSACHSEN
100
AcDbLine
 62
7
  6
CONTINUOUS
 10
563.8270635576
 20
395.3656466087
 11
563.8270635576
 21
395.8656466087
  0
LINE
  5
3F4
100
AcDbEntity
  8
BEZUGSACHSEN
100
AcDbLine
 62
7
  6
CONTINUOUS
 10
747.3484580087
 20
376.3656466087
 11
745.9113138857
 21
376.3656466087
  0
LINE
  5
3F5
100
AcDbEntity
  8
BEZUGSACHSEN
100
AcDbLine
 62
7
  6
CONTINUOUS
 10
517.3484580087
 20
376.3656466087
 11
518.7856021318
 21
376.3656466087
  0
LINE
  5
3F6
100
AcDbEntity
  8
BEZUGSACHSEN
100
AcDbLine
 62
7
  6
CONTINUOUS
 10
567.8484580087
 20
392.7709789438
 11
567.8484580087
 21
395.3656466087
  0
LINE
  5
3F7
100
AcDbEntity
  8
RUNDUNGEN
100
AcDbLine
 62
7
  6
CONTINUOUS
 10
687.3484580087
 20
391.3656466087
 11
640.3484580087
 21
391.3656466087
  0
LINE
  5
3F8
100
AcDbEntity
  8
RUNDUNGEN
100
AcDbLine
 62
7
  6
CONTINUOUS
 10
624.3484580087
 20
391.3656466087
 11
577.3484580087
 21
391.3656466087
  0
LINE
  5
3F9
100
AcDbEntity
  8
BEZUGSACHSEN
100
AcDbLine
 62
7
  6
CONTINUOUS
 10
517.3484580087
 20
391.3656466087
 11
577.3484580087
 21
391.3656466087
  0
LINE
  5
3FA
100
AcDbEntity
  8
BEZUGSACHSEN
100
AcDbLine
 62
7
  6
CONTINUOUS
 10
687.3484580087
 20
391.3656466087
 11
747.3484580087
 21
391.3656466087
  0
LINE
  5
3FB
100
AcDbEntity
  8
BEZUGSACHSEN
100
AcDbLine
 62
7
  6
CONTINUOUS
 10
567.8484580087
 20
395.3656466087
 11
521.8484580087
 21
395.3656466087
  0
LINE
  5
3FC
100
AcDbEntity
  8
0
100
AcDbLine
 62
7
  6
CONTINUOUS
 10
696.8484580087
 20
395.3656466087
 11
742.8484580087
 21
395.3656466087
  0
LINE
  5
3FD
100
AcDbEntity
  8
BEZUGSACHSEN
100
AcDbLine
 62
7
  6
CONTINUOUS
 10
563.8270635576
 20
395.8656466087
 11
550.2286112182
 21
395.8656466087
  0
LINE
  5
3FE
100
AcDbEntity
  8
BEZUGSACHSEN
100
AcDbLine
 62
7
  6
CONTINUOUS
 10
549.2169457002
 20
395.8656466087
 11
544.8616163643
 21
395.8656466087
  0
LINE
  5
3FF
100
AcDbEntity
  8
0
100
AcDbLine
 62
7
  6
CONTINUOUS
 10
700.8698524599
 20
395.8656466087
 11
714.4683047993
 21
395.8656466087
  0
LINE
  5
400
100
AcDbEntity
  8
0
100
AcDbLine
 62
7
  6
CONTINUOUS
 10
715.4799703173
 20
395.8656466087
 11
719.8352996532
 21
395.8656466087
  0
LINE
  5
401
100
AcDbEntity
  8
0
100
AcDbLine
 62
7
  6
CONTINUOUS
 10
648.3484580087
 20
408.3956466087
 11
650.3484580087
 21
408.3956466087
  0
LINE
  5
402
100
AcDbEntity
  8
FASEN
100
AcDbLine
 62
7
  6
CONTINUOUS
 10
707.8484580087
 20
316.3656466087
 11
704.8484580087
 21
319.3656466087
  0
LINE
  5
403
100
AcDbEntity
  8
BEZUGSACHSEN
100
AcDbLine
 62
7
  6
CONTINUOUS
 10
600.3484580087
 20
552.4508031908
 11
600.3484580087
 21
458.3828237817
  0
LINE
  5
404
100
AcDbEntity
  8
BEZUGSACHSEN
100
AcDbLine
 62
7
  6
CONTINUOUS
 10
595.704765302
 20
432.0472057539
 11
588.5614105185
 21
412.4209997872
  0
LINE
  5
405
100
AcDbEntity
  8
0
100
AcDbLine
 62
7
  6
CONTINUOUS
 10
648.3484580087
 20
414.6868546829
 11
650.3484580087
 21
414.6868546829
  0
LINE
  5
406
100
AcDbEntity
  8
0
100
AcDbLine
 62
7
  6
CONTINUOUS
 10
614.3484580087
 20
447.3814353837
 11
614.3484580087
 21
459.1656114881
  0
LINE
  5
407
100
AcDbEntity
  8
0
100
AcDbLine
 62
7
  6
CONTINUOUS
 10
614.3484580087
 20
459.935345908
 11
614.3484580087
 21
465.0683187521
  0
LINE
  5
408
100
AcDbEntity
  8
0
100
AcDbLine
 62
7
  6
CONTINUOUS
 10
614.3484580087
 20
465.1025144426
 11
614.3484580087
 21
471.7195220124
  0
LINE
  5
409
100
AcDbEntity
  8
RUNDUNGEN
100
AcDbLine
 62
7
  6
CONTINUOUS
 10
616.3484580087
 20
391.3656466087
 11
616.3484580087
 21
563.3656466087
  0
LINE
  5
40A
100
AcDbEntity
  8
0
100
AcDbLine
 62
7
  6
CONTINUOUS
 10
648.3484580087
 20
422.5833839991
 11
650.3484580087
 21
422.5833839991
  0
LINE
  5
40B
100
AcDbEntity
  8
0
100
AcDbLine
 62
7
  6
CONTINUOUS
 10
648.3484580087
 20
424.0946391121
 11
650.3484580087
 21
424.0946391121
  0
LINE
  5
40C
100
AcDbEntity
  8
0
100
AcDbLine
 62
7
  6
CONTINUOUS
 10
648.3484580087
 20
425.0091605928
 11
650.3484580087
 21
425.0091605928
  0
LINE
  5
40D
100
AcDbEntity
  8
0
100
AcDbLine
 62
7
  6
CONTINUOUS
 10
648.3484580087
 20
425.4608048574
 11
650.3484580087
 21
425.4608048574
  0
LINE
  5
40E
100
AcDbEntity
  8
0
100
AcDbLine
 62
7
  6
CONTINUOUS
 10
648.3484580087
 20
425.6723486049
 11
650.3484580087
 21
425.6723486049
  0
LINE
  5
40F
100
AcDbEntity
  8
0
100
AcDbLine
 62
7
  6
CONTINUOUS
 10
648.3484580087
 20
429.8218688919
 11
650.3484580087
 21
429.8218688919
  0
LINE
  5
410
100
AcDbEntity
  8
0
100
AcDbLine
 62
7
  6
CONTINUOUS
 10
648.3484580087
 20
431.7960021623
 11
650.3484580087
 21
431.7960021623
  0
LINE
  5
411
100
AcDbEntity
  8
0
100
AcDbLine
 62
7
  6
CONTINUOUS
 10
648.3484580087
 20
432.3641794938
 11
650.3484580087
 21
432.3641794938
  0
LINE
  5
412
100
AcDbEntity
  8
0
100
AcDbLine
 62
7
  6
CONTINUOUS
 10
648.3484580087
 20
433.618956702
 11
650.3484580087
 21
433.618956702
  0
LINE
  5
413
100
AcDbEntity
  8
0
100
AcDbLine
 62
7
  6
CONTINUOUS
 10
648.3484580087
 20
434.6785666091
 11
650.3484580087
 21
434.6785666091
  0
LINE
  5
414
100
AcDbEntity
  8
0
100
AcDbLine
 62
7
  6
CONTINUOUS
 10
648.3484580087
 20
435.5430111914
 11
650.3484580087
 21
435.5430111914
  0
LINE
  5
415
100
AcDbEntity
  8
0
100
AcDbLine
 62
7
  6
CONTINUOUS
 10
648.3484580087
 20
439.6925314785
 11
650.3484580087
 21
439.6925314785
  0
LINE
  5
416
100
AcDbEntity
  8
0
100
AcDbLine
 62
7
  6
CONTINUOUS
 10
648.3484580087
 20
441.6666638075
 11
650.3484580087
 21
441.6666638075
  0
LINE
  5
417
100
AcDbEntity
  8
0
100
AcDbLine
 62
7
  6
CONTINUOUS
 10
648.3484580087
 20
444.2988396187
 11
650.3484580087
 21
444.2988396187
  0
LINE
  5
418
100
AcDbEntity
  8
0
100
AcDbLine
 62
7
  6
CONTINUOUS
 10
616.3484580087
 20
447.3814353837
 11
614.3484580087
 21
447.3814353837
  0
LINE
  5
419
100
AcDbEntity
  8
0
100
AcDbLine
 62
7
  6
CONTINUOUS
 10
616.3484580087
 20
448.3065101706
 11
614.3484580087
 21
448.3065101706
  0
LINE
  5
41A
100
AcDbEntity
  8
0
100
AcDbLine
 62
7
  6
CONTINUOUS
 10
616.3484580087
 20
451.4465441776
 11
614.3484580087
 21
451.4465441776
  0
LINE
  5
41B
100
AcDbEntity
  8
0
100
AcDbLine
 62
7
  6
CONTINUOUS
 10
648.3484580087
 20
452.1953689349
 11
650.3484580087
 21
452.1953689349
  0
LINE
  5
41C
100
AcDbEntity
  8
0
100
AcDbLine
 62
7
  6
CONTINUOUS
 10
616.3484580087
 20
452.3716189645
 11
614.3484580087
 21
452.3716189645
  0
LINE
  5
41D
100
AcDbEntity
  8
0
100
AcDbLine
 62
7
  6
CONTINUOUS
 10
616.3484580087
 20
452.5486039183
 11
614.3484580087
 21
452.5486039183
  0
LINE
  5
41E
100
AcDbEntity
  8
0
100
AcDbLine
 62
7
  6
CONTINUOUS
 10
616.3484580087
 20
453.4736787052
 11
614.3484580087
 21
453.4736787052
  0
LINE
  5
41F
100
AcDbEntity
  8
0
100
AcDbLine
 62
7
  6
CONTINUOUS
 10
648.3484580087
 20
453.7066249892
 11
650.3484580087
 21
453.7066249892
  0
LINE
  5
420
100
AcDbEntity
  8
0
100
AcDbLine
 62
7
  6
CONTINUOUS
 10
648.3484580087
 20
454.7550010035
 11
650.3484580087
 21
454.7550010035
  0
LINE
  5
421
100
AcDbEntity
  8
0
100
AcDbLine
 62
7
  6
CONTINUOUS
 10
648.3484580087
 20
455.5356660678
 11
650.3484580087
 21
455.5356660678
  0
LINE
  5
422
100
AcDbEntity
  8
0
100
AcDbLine
 62
7
  6
CONTINUOUS
 10
648.3484580087
 20
455.6582895327
 11
650.3484580087
 21
455.6582895327
  0
LINE
  5
423
100
AcDbEntity
  8
RUNDUNGEN
100
AcDbLine
 62
7
  6
CONTINUOUS
 10
648.3484580087
 20
563.3656466087
 11
648.3484580087
 21
391.3656466087
  0
LINE
  5
424
100
AcDbEntity
  8
0
100
AcDbLine
 62
7
  6
CONTINUOUS
 10
650.3484580087
 20
455.6582895327
 11
650.3484580087
 21
408.3956466087
  0
LINE
  5
425
100
AcDbEntity
  8
0
100
AcDbLine
 62
7
  6
CONTINUOUS
 10
616.3484580087
 20
459.1666606705
 11
614.3484580087
 21
459.1666606705
  0
LINE
  5
426
100
AcDbEntity
  8
0
100
AcDbLine
 62
7
  6
CONTINUOUS
 10
616.3484580087
 20
459.935345908
 11
614.3484580087
 21
459.935345908
  0
LINE
  5
427
100
AcDbEntity
  8
0
100
AcDbLine
 62
7
  6
CONTINUOUS
 10
616.3484580087
 20
460.860420695
 11
614.3484580087
 21
460.860420695
  0
LINE
  5
428
100
AcDbEntity
  8
0
100
AcDbLine
 62
7
  6
CONTINUOUS
 10
616.3484580087
 20
465.1025144426
 11
614.3484580087
 21
465.1025144426
  0
LINE
  5
429
100
AcDbEntity
  8
0
100
AcDbLine
 62
7
  6
CONTINUOUS
 10
616.3484580087
 20
466.0275892295
 11
614.3484580087
 21
466.0275892295
  0
LINE
  5
42A
100
AcDbEntity
  8
RUNDUNGEN
100
AcDbLine
 62
7
  6
CONTINUOUS
 10
664.3484580087
 20
552.4508031908
 11
664.3484580087
 21
458.3828237817
  0
LINE
  5
42B
100
AcDbEntity
  8
0
100
AcDbLine
 62
7
  6
CONTINUOUS
 10
616.3484580087
 20
471.7205711948
 11
614.3484580087
 21
471.7205711948
  0
LINE
  5
42C
100
AcDbEntity
  8
RUNDUNGEN
100
AcDbLine
 62
7
  6
CONTINUOUS
 10
668.9921507155
 20
432.0472057539
 11
676.135505499
 21
412.4209997872
  0
LINE
  5
42D
100
AcDbEntity
  8
BEZUGSACHSEN
100
AcDbLine
 62
7
  6
CONTINUOUS
 10
559.8484580087
 20
319.3656466087
 11
556.8484580087
 21
316.3656466087
  0
LINE
  5
42E
100
AcDbEntity
  8
0
100
AcDbLine
 62
7
  6
CONTINUOUS
 10
696.8484580087
 20
392.7709789438
 11
696.8484580087
 21
395.3656466087
  0
LINE
  5
42F
100
AcDbEntity
  8
0
100
AcDbLine
 62
7
  6
CONTINUOUS
 10
700.8698524599
 20
395.3656466087
 11
700.8698524599
 21
395.8656466087
  0
LINE
  5
430
100
AcDbEntity
  8
BEZUGSACHSEN
100
AcDbLine
 62
7
  6
CONTINUOUS
 10
704.8484580087
 20
356.3656466087
 11
704.8484580087
 21
319.3656466087
  0
LINE
  5
431
100
AcDbEntity
  8
0
100
AcDbLine
 62
7
  6
CONTINUOUS
 10
705.2843992005
 20
395.3656466087
 11
705.2843992005
 21
395.8656466087
  0
LINE
  5
432
100
AcDbEntity
  8
0
100
AcDbLine
 62
7
  6
CONTINUOUS
 10
705.4137908086
 20
395.3656466087
 11
705.4137908086
 21
395.8656466087
  0
LINE
  5
433
100
AcDbEntity
  8
0
100
AcDbLine
 62
7
  6
CONTINUOUS
 10
705.6920344998
 20
395.3656466087
 11
705.6920344998
 21
395.8656466087
  0
LINE
  5
434
100
AcDbEntity
  8
0
100
AcDbLine
 62
7
  6
CONTINUOUS
 10
707.4004143383
 20
395.3656466087
 11
707.4004143383
 21
395.8656466087
  0
LINE
  5
435
100
AcDbEntity
  8
0
100
AcDbLine
 62
7
  6
CONTINUOUS
 10
709.4725167039
 20
395.3656466087
 11
709.4725167039
 21
395.8656466087
  0
LINE
  5
436
100
AcDbEntity
  8
0
100
AcDbLine
 62
7
  6
CONTINUOUS
 10
710.0279839785
 20
395.3656466087
 11
710.0279839785
 21
395.8656466087
  0
LINE
  5
437
100
AcDbEntity
  8
0
100
AcDbLine
 62
7
  6
CONTINUOUS
 10
711.5397181567
 20
395.3656466087
 11
711.5397181567
 21
395.8656466087
  0
LINE
  5
438
100
AcDbEntity
  8
0
100
AcDbLine
 62
7
  6
CONTINUOUS
 10
711.8273586605
 20
395.3656466087
 11
711.8273586605
 21
395.8656466087
  0
LINE
  5
439
100
AcDbEntity
  8
0
100
AcDbLine
 62
7
  6
CONTINUOUS
 10
712.1588110783
 20
395.3656466087
 11
712.1588110783
 21
395.8656466087
  0
LINE
  5
43A
100
AcDbEntity
  8
0
100
AcDbLine
 62
7
  6
CONTINUOUS
 10
712.2498530771
 20
395.3656466087
 11
712.2498530771
 21
395.8656466087
  0
LINE
  5
43B
100
AcDbEntity
  8
0
100
AcDbLine
 62
7
  6
CONTINUOUS
 10
712.8053206166
 20
395.3656466087
 11
712.8053206166
 21
395.8656466087
  0
LINE
  5
43C
100
AcDbEntity
  8
0
100
AcDbLine
 62
7
  6
CONTINUOUS
 10
714.3170547947
 20
395.3656466087
 11
714.3170547947
 21
395.8656466087
  0
LINE
  5
43D
100
AcDbEntity
  8
0
100
AcDbLine
 62
7
  6
CONTINUOUS
 10
714.4683047993
 20
395.3656466087
 11
714.4683047993
 21
395.8656466087
  0
LINE
  5
43E
100
AcDbEntity
  8
0
100
AcDbLine
 62
7
  6
CONTINUOUS
 10
715.4799703173
 20
395.3656466087
 11
715.4799703173
 21
395.8656466087
  0
LINE
  5
43F
100
AcDbEntity
  8
0
100
AcDbLine
 62
7
  6
CONTINUOUS
 10
715.538130076
 20
395.3656466087
 11
715.538130076
 21
395.8656466087
  0
LINE
  5
440
100
AcDbEntity
  8
0
100
AcDbLine
 62
7
  6
CONTINUOUS
 10
715.7875557235
 20
395.3656466087
 11
715.7875557235
 21
395.8656466087
  0
LINE
  5
441
100
AcDbEntity
  8
0
100
AcDbLine
 62
7
  6
CONTINUOUS
 10
716.1550979906
 20
395.3656466087
 11
716.1550979906
 21
395.8656466087
  0
LINE
  5
442
100
AcDbEntity
  8
0
100
AcDbLine
 62
7
  6
CONTINUOUS
 10
716.6557463876
 20
395.3656466087
 11
716.6557463876
 21
395.8656466087
  0
LINE
  5
443
100
AcDbEntity
  8
0
100
AcDbLine
 62
7
  6
CONTINUOUS
 10
719.1308064542
 20
395.3656466087
 11
719.1308064542
 21
395.8656466087
  0
LINE
  5
444
100
AcDbEntity
  8
0
100
AcDbLine
 62
7
  6
CONTINUOUS
 10
719.8352996532
 20
395.3656466087
 11
719.8352996532
 21
395.8656466087
  0
LINE
  5
445
100
AcDbEntity
  8
0
100
AcDbLine
 62
7
  6
CONTINUOUS
 10
719.8484580087
 20
391.3656466087
 11
719.8484580087
 21
395.3656466087
  0
LINE
  5
446
100
AcDbEntity
  8
BEZUGSACHSEN
100
AcDbLine
 62
7
  6
CONTINUOUS
 10
734.8484580087
 20
356.3656466087
 11
734.8484580087
 21
319.3656466087
  0
LINE
  5
447
100
AcDbEntity
  8
0
100
AcDbLine
 62
7
  6
CONTINUOUS
 10
742.8484580087
 20
391.3656466087
 11
742.8484580087
 21
395.3656466087
  0
LINE
  5
448
100
AcDbEntity
  8
BEZUGSACHSEN
100
AcDbLine
 62
7
  6
CONTINUOUS
 10
745.9113138857
 20
391.3656466087
 11
745.9113138857
 21
376.3656466087
  0
LINE
  5
449
100
AcDbEntity
  8
BEZUGSACHSEN
100
AcDbLine
 62
7
  6
CONTINUOUS
 10
747.3484580087
 20
391.3656466087
 11
747.3484580087
 21
356.3656466087
  0
LINE
  5
44A
100
AcDbEntity
  8
BEZUGSACHSEN
100
AcDbLine
 62
7
  6
CONTINUOUS
 10
609.3484580087
 20
561.4513758338
 11
616.3484580087
 21
561.4513758338
  0
LINE
  5
44B
100
AcDbEntity
  8
RUNDUNGEN
100
AcDbLine
 62
7
  6
CONTINUOUS
 10
648.3484580087
 20
561.4513758338
 11
655.3484580087
 21
561.4513758338
  0
LINE
  5
44C
100
AcDbEntity
  8
0
100
AcDbLine
 62
7
  6
CONTINUOUS
 10
624.3484580087
 20
571.3656466087
 11
640.3484580087
 21
571.3656466087
  0
LINE
  5
44D
100
AcDbEntity
  8
FASEN
100
AcDbLine
 62
7
  6
CONTINUOUS
 10
731.8484580087
 20
316.3656466087
 11
734.8484580087
 21
319.3656466087
  0
LINE
  5
44E
100
AcDbEntity
  8
BEZUGSACHSEN
100
AcDbLine
 62
7
  6
CONTINUOUS
 10
71.9551336733
 20
161.9134500065
 11
71.9551336733
 21
145.9134500065
  0
LINE
  5
44F
100
AcDbEntity
  8
RUNDUNGEN
100
AcDbLine
 62
7
  6
CONTINUOUS
 10
71.9551336733
 20
98.9134500065
 11
71.9551336733
 21
208.9134500065
  0
LINE
  5
450
100
AcDbEntity
  8
0
100
AcDbLine
 62
7
  6
CONTINUOUS
 10
89.8920750409
 20
137.9134500065
 11
89.8920750409
 21
135.9134500065
  0
LINE
  5
451
100
AcDbEntity
  8
0
100
AcDbLine
 62
7
  6
CONTINUOUS
 10
93.0376790781
 20
137.9134500065
 11
93.0376790781
 21
135.9134500065
  0
LINE
  5
452
100
AcDbEntity
  8
0
100
AcDbLine
 62
7
  6
CONTINUOUS
 10
94.0290358615
 20
137.9134500065
 11
94.0290358615
 21
135.9134500065
  0
LINE
  5
453
100
AcDbEntity
  8
0
100
AcDbLine
 62
7
  6
CONTINUOUS
 10
95.5613705281
 20
137.9134500065
 11
95.5613705281
 21
135.9134500065
  0
LINE
  5
454
100
AcDbEntity
  8
0
100
AcDbLine
 62
7
  6
CONTINUOUS
 10
95.9211493205
 20
137.9134500065
 11
95.9211493205
 21
135.9134500065
  0
LINE
  5
455
100
AcDbEntity
  8
0
100
AcDbLine
 62
7
  6
CONTINUOUS
 10
96.7075507047
 20
137.9134500065
 11
96.7075507047
 21
135.9134500065
  0
LINE
  5
456
100
AcDbEntity
  8
0
100
AcDbLine
 62
7
  6
CONTINUOUS
 10
96.9646484655
 20
169.9134500065
 11
96.9646484655
 21
171.9134500065
  0
LINE
  5
457
100
AcDbEntity
  8
0
100
AcDbLine
 62
7
  6
CONTINUOUS
 10
99.8531547419
 20
137.9134500065
 11
99.8531547419
 21
135.9134500065
  0
LINE
  5
458
100
AcDbEntity
  8
0
100
AcDbLine
 62
7
  6
CONTINUOUS
 10
100.6395557511
 20
137.9134500065
 11
100.6395557511
 21
135.9134500065
  0
LINE
  5
459
100
AcDbEntity
  8
0
100
AcDbLine
 62
7
  6
CONTINUOUS
 10
101.6880901802
 20
137.9134500065
 11
101.6880901802
 21
135.9134500065
  0
LINE
  5
45A
100
AcDbEntity
  8
0
100
AcDbLine
 62
7
  6
CONTINUOUS
 10
102.1646484655
 20
169.9134500065
 11
102.1646484655
 21
171.9134500065
  0
LINE
  5
45B
100
AcDbEntity
  8
BEZUGSACHSEN
100
AcDbLine
 62
7
  6
CONTINUOUS
 10
117.8970212906
 20
241.4134500065
 11
131.176077482
 21
264.4134500065
  0
LINE
  5
45C
100
AcDbEntity
  8
BEZUGSACHSEN
100
AcDbLine
 62
7
  6
CONTINUOUS
 10
127.5965925845
 20
237.8567900694
 11
127.777882072
 21
238.0930236037
  0
LINE
  5
45D
100
AcDbEntity
  8
BEZUGSACHSEN
100
AcDbLine
 62
7
  6
CONTINUOUS
 10
128.1672318714
 20
237.6223536371
 11
127.7899759268
 21
237.2530142679
  0
LINE
  5
45E
100
AcDbEntity
  8
0
100
AcDbLine
 62
7
  6
CONTINUOUS
 10
128.1672318714
 20
70.2045463759
 11
127.7899759268
 21
70.5738857451
  0
LINE
  5
45F
100
AcDbEntity
  8
0
100
AcDbLine
 62
7
  6
CONTINUOUS
 10
127.5965925845
 20
69.9701099436
 11
127.777882072
 21
69.7338764093
  0
LINE
  5
460
100
AcDbEntity
  8
0
100
AcDbLine
 62
7
  6
CONTINUOUS
 10
117.8970212906
 20
66.4134500065
 11
131.176077482
 21
43.4134500065
  0
LINE
  5
461
100
AcDbEntity
  8
0
100
AcDbLine
 62
7
  6
CONTINUOUS
 10
104.8336942173
 20
137.9134500065
 11
104.8336942173
 21
135.9134500065
  0
LINE
  5
462
100
AcDbEntity
  8
0
100
AcDbLine
 62
7
  6
CONTINUOUS
 10
105.8250513757
 20
137.9134500065
 11
105.8250513757
 21
135.9134500065
  0
LINE
  5
463
100
AcDbEntity
  8
0
100
AcDbLine
 62
7
  6
CONTINUOUS
 10
107.0213631834
 20
137.9134500065
 11
107.0213631834
 21
135.9134500065
  0
LINE
  5
464
100
AcDbEntity
  8
0
100
AcDbLine
 62
7
  6
CONTINUOUS
 10
108.889719959
 20
137.9134500065
 11
108.889719959
 21
135.9134500065
  0
LINE
  5
465
100
AcDbEntity
  8
0
100
AcDbLine
 62
7
  6
CONTINUOUS
 10
110.4959440649
 20
137.9134500065
 11
110.4959440649
 21
135.9134500065
  0
LINE
  5
466
100
AcDbEntity
  8
0
100
AcDbLine
 62
7
  6
CONTINUOUS
 10
112.3071237614
 20
137.9134500065
 11
112.3071237614
 21
135.9134500065
  0
LINE
  5
467
100
AcDbEntity
  8
BEZUGSACHSEN
100
AcDbLine
 62
7
  6
CONTINUOUS
 10
127.777882072
 20
238.0930236037
 11
127.8391729395
 21
238.4173953272
  0
LINE
  5
468
100
AcDbEntity
  8
BEZUGSACHSEN
100
AcDbLine
 62
7
  6
CONTINUOUS
 10
132.254270178
 20
233.8312412178
 11
132.0670784661
 21
233.2658670596
  0
LINE
  5
469
100
AcDbEntity
  8
BEZUGSACHSEN
100
AcDbLine
 62
7
  6
CONTINUOUS
 10
128.3191675037
 20
238.0648419803
 11
128.1672318714
 21
237.6223536371
  0
LINE
  5
46A
100
AcDbEntity
  8
BEZUGSACHSEN
100
AcDbLine
 62
7
  6
CONTINUOUS
 10
134.7897675481
 20
228.9529426114
 11
135.0045049106
 21
229.3348010201
  0
LINE
  5
46B
100
AcDbEntity
  8
BEZUGSACHSEN
100
AcDbLine
 62
7
  6
CONTINUOUS
 10
131.4033415891
 20
233.3923506583
 11
131.5914851751
 21
233.723803076
  0
LINE
  5
46C
100
AcDbEntity
  8
BEZUGSACHSEN
100
AcDbLine
 62
7
  6
CONTINUOUS
 10
134.6401790971
 20
241.4134500065
 11
139.5476563852
 21
249.9134500065
  0
LINE
  5
46D
100
AcDbEntity
  8
BEZUGSACHSEN
100
AcDbLine
 62
7
  6
CONTINUOUS
 10
135.5335076202
 20
228.9853751072
 11
135.2460732521
 21
228.5258476518
  0
LINE
  5
46E
100
AcDbEntity
  8
BEZUGSACHSEN
100
AcDbLine
 62
7
  6
CONTINUOUS
 10
132.0670784661
 20
233.2658670596
 11
131.784387204
 21
232.8856489957
  0
LINE
  5
46F
100
AcDbEntity
  8
BEZUGSACHSEN
100
AcDbLine
 62
7
  6
CONTINUOUS
 10
129.9504280325
 20
228.965406336
 11
133.3671877095
 21
232.6158519676
  0
LINE
  5
470
100
AcDbEntity
  8
BEZUGSACHSEN
100
AcDbLine
 62
7
  6
CONTINUOUS
 10
133.3873113281
 20
231.7227426732
 11
130.8429157709
 21
229.0043256568
  0
LINE
  5
471
100
AcDbEntity
  8
BEZUGSACHSEN
100
AcDbLine
 62
7
  6
CONTINUOUS
 10
133.6993123602
 20
227.7879068016
 11
134.7897675481
 21
228.9529426114
  0
LINE
  5
472
100
AcDbEntity
  8
BEZUGSACHSEN
100
AcDbLine
 62
7
  6
CONTINUOUS
 10
135.2460732521
 20
228.5258476518
 11
134.1556180642
 21
227.360811842
  0
LINE
  5
473
100
AcDbEntity
  8
BEZUGSACHSEN
100
AcDbLine
 62
7
  6
CONTINUOUS
 10
131.0729009079
 20
233.1047101544
 11
131.4033415891
 21
233.3923506583
  0
LINE
  5
474
100
AcDbEntity
  8
BEZUGSACHSEN
100
AcDbLine
 62
7
  6
CONTINUOUS
 10
131.784387204
 20
232.8856489957
 11
131.3593989128
 21
232.5492428798
  0
LINE
  5
475
100
AcDbEntity
  8
BEZUGSACHSEN
100
AcDbLine
 62
7
  6
CONTINUOUS
 10
134.1556180642
 20
227.360811842
 11
133.7160821713
 21
227.0436486125
  0
LINE
  5
476
100
AcDbEntity
  8
BEZUGSACHSEN
100
AcDbLine
 62
7
  6
CONTINUOUS
 10
126.7094344413
 20
234.3703126144
 11
129.6404107469
 21
235.8820467925
  0
LINE
  5
477
100
AcDbEntity
  8
BEZUGSACHSEN
100
AcDbLine
 62
7
  6
CONTINUOUS
 10
129.9269088884
 20
235.326579253
 11
126.9959325828
 21
233.8148450748
  0
LINE
  5
478
100
AcDbEntity
  8
BEZUGSACHSEN
100
AcDbLine
 62
7
  6
CONTINUOUS
 10
128.1419246023
 20
231.5929759763
 11
131.0729009079
 21
233.1047101544
  0
LINE
  5
479
100
AcDbEntity
  8
BEZUGSACHSEN
100
AcDbLine
 62
7
  6
CONTINUOUS
 10
127.2953044349
 20
237.7086950193
 11
127.5965925845
 21
237.8567900694
  0
LINE
  5
47A
100
AcDbEntity
  8
BEZUGSACHSEN
100
AcDbLine
 62
7
  6
CONTINUOUS
 10
127.7899759268
 20
237.2530142679
 11
127.4886877772
 21
237.1049192179
  0
LINE
  5
47B
100
AcDbEntity
  8
0
100
AcDbLine
 62
7
  6
CONTINUOUS
 10
127.2953044349
 20
70.1182049937
 11
127.5965925845
 21
69.9701099436
  0
LINE
  5
47C
100
AcDbEntity
  8
0
100
AcDbLine
 62
7
  6
CONTINUOUS
 10
127.7899759268
 20
70.5738857451
 11
127.4886877772
 21
70.7219807951
  0
LINE
  5
47D
100
AcDbEntity
  8
0
100
AcDbLine
 62
7
  6
CONTINUOUS
 10
126.7094344413
 20
73.4565873986
 11
129.6404107469
 21
71.9448532205
  0
LINE
  5
47E
100
AcDbEntity
  8
0
100
AcDbLine
 62
7
  6
CONTINUOUS
 10
129.9269088884
 20
72.50032076
 11
126.9959325828
 21
74.0120549382
  0
LINE
  5
47F
100
AcDbEntity
  8
0
100
AcDbLine
 62
7
  6
CONTINUOUS
 10
128.1419246023
 20
76.2339240367
 11
131.0729009079
 21
74.7221898586
  0
LINE
  5
480
100
AcDbEntity
  8
0
100
AcDbLine
 62
7
  6
CONTINUOUS
 10
134.1556180642
 20
80.466088171
 11
133.7160821713
 21
80.7832514005
  0
LINE
  5
481
100
AcDbEntity
  8
0
100
AcDbLine
 62
7
  6
CONTINUOUS
 10
131.784387204
 20
74.9412510173
 11
131.3593989128
 21
75.2776571332
  0
LINE
  5
482
100
AcDbEntity
  8
0
100
AcDbLine
 62
7
  6
CONTINUOUS
 10
131.0729009079
 20
74.7221898586
 11
131.4033415891
 21
74.4345493547
  0
LINE
  5
483
100
AcDbEntity
  8
0
100
AcDbLine
 62
7
  6
CONTINUOUS
 10
129.9504280325
 20
78.861493677
 11
133.3671877095
 21
75.2110480454
  0
LINE
  5
484
100
AcDbEntity
  8
0
100
AcDbLine
 62
7
  6
CONTINUOUS
 10
133.3873113281
 20
76.1041573398
 11
130.8429157709
 21
78.8225743562
  0
LINE
  5
485
100
AcDbEntity
  8
0
100
AcDbLine
 62
7
  6
CONTINUOUS
 10
133.6993123602
 20
80.0389932114
 11
134.7897675481
 21
78.8739574016
  0
LINE
  5
486
100
AcDbEntity
  8
0
100
AcDbLine
 62
7
  6
CONTINUOUS
 10
135.2460732521
 20
79.3010523612
 11
134.1556180642
 21
80.466088171
  0
LINE
  5
487
100
AcDbEntity
  8
0
100
AcDbLine
 62
7
  6
CONTINUOUS
 10
132.0670784661
 20
74.5610329534
 11
131.784387204
 21
74.9412510173
  0
LINE
  5
488
100
AcDbEntity
  8
0
100
AcDbLine
 62
7
  6
CONTINUOUS
 10
135.5335076202
 20
78.8415249058
 11
135.2460732521
 21
79.3010523612
  0
LINE
  5
489
100
AcDbEntity
  8
0
100
AcDbLine
 62
7
  6
CONTINUOUS
 10
134.6401790971
 20
66.4134500065
 11
139.5476563852
 21
57.9134500065
  0
LINE
  5
48A
100
AcDbEntity
  8
0
100
AcDbLine
 62
7
  6
CONTINUOUS
 10
131.4033415891
 20
74.4345493547
 11
131.5914851751
 21
74.103096937
  0
LINE
  5
48B
100
AcDbEntity
  8
0
100
AcDbLine
 62
7
  6
CONTINUOUS
 10
134.7897675481
 20
78.8739574016
 11
135.0045049106
 21
78.4920989929
  0
LINE
  5
48C
100
AcDbEntity
  8
0
100
AcDbLine
 62
7
  6
CONTINUOUS
 10
128.3191675037
 20
69.7620580327
 11
128.1672318714
 21
70.2045463759
  0
LINE
  5
48D
100
AcDbEntity
  8
0
100
AcDbLine
 62
7
  6
CONTINUOUS
 10
132.254270178
 20
73.9956587951
 11
132.0670784661
 21
74.5610329534
  0
LINE
  5
48E
100
AcDbEntity
  8
0
100
AcDbLine
 62
7
  6
CONTINUOUS
 10
127.777882072
 20
69.7338764093
 11
127.8391729395
 21
69.4095046858
  0
LWPOLYLINE
  5
48F
100
AcDbEntity
  8
RUNDUNGEN
100
AcDbPolyline
 62
7
  6
CONTINUOUS
 90
38
 70
0
 10
126.869406183
 20
130.8897998559
 10
126.8738815681
 20
130.6059815916
 10
126.9010796842
 20
130.1353283189
 10
126.9521199701
 20
129.6723084166
 10
127.0260123285
 20
129.2180003495
 10
127.1217399726
 20
128.7733898363
 10
127.2382660767
 20
128.339372446
 10
127.3745400563
 20
127.9167559528
 10
127.5295030757
 20
127.5062639136
 10
127.7020943314
 20
127.1085362882
 10
127.8912549699
 20
126.7241355624
 10
128.0959334503
 20
126.3535480946
 10
128.315091412
 20
125.9971853213
 10
128.5476945042
 20
125.6554068936
 10
128.7927256791
 20
125.3285044453
 10
129.0491909517
 20
125.0167029727
 10
129.3161158678
 20
124.7201730035
 10
129.592557422
 20
124.439023456
 10
129.8775973557
 20
124.1733158509
 10
130.1703490454
 20
123.9230624813
 10
130.4699567512
 20
123.6882324282
 10
130.7755919741
 20
123.4687582516
 10
131.0864621166
 20
123.2645329788
 10
131.4018008649
 20
123.0754201003
 10
131.7213449646
 20
122.9010069369
 10
132.043009817
 20
122.7418171679
 10
132.364934027
 20
122.5979994439
 10
132.6860510032
 20
122.4691874832
 10
133.0044429096
 20
122.3552389475
 10
133.3211611011
 20
122.2549265274
 10
133.639135448
 20
122.166800254
 10
133.9523592555
 20
122.0918771735
 10
134.2617948175
 20
122.0290215795
 10
134.5536279894
 20
121.979472638
 10
134.8168359656
 20
121.9424056152
 10
135.055242739
 20
121.9144890813
 10
135.265808772
 20
121.8936928857
 10
135.3083205451
 20
121.8898746048
  0
LINE
  5
490
100
AcDbEntity
  8
0
100
AcDbLine
 62
7
  6
CONTINUOUS
 10
117.3474614926
 20
137.9134500065
 11
117.3474614926
 21
135.9134500065
  0
LINE
  5
491
100
AcDbEntity
  8
0
100
AcDbLine
 62
7
  6
CONTINUOUS
 10
117.8247834373
 20
169.9134500065
 11
117.8247834373
 21
171.9134500065
  0
LINE
  5
492
100
AcDbEntity
  8
0
100
AcDbLine
 62
7
  6
CONTINUOUS
 10
118.8965075779
 20
137.9134500065
 11
118.8965075779
 21
135.9134500065
  0
LINE
  5
493
100
AcDbEntity
  8
0
100
AcDbLine
 62
7
  6
CONTINUOUS
 10
119.9784635796
 20
137.9134500065
 11
119.9784635796
 21
135.9134500065
  0
LINE
  5
494
100
AcDbEntity
  8
0
100
AcDbLine
 62
7
  6
CONTINUOUS
 10
120.7982867939
 20
137.9134500065
 11
120.7982867939
 21
135.9134500065
  0
LINE
  5
495
100
AcDbEntity
  8
0
100
AcDbLine
 62
7
  6
CONTINUOUS
 10
120.9460650107
 20
137.9134500065
 11
120.9460650107
 21
135.9134500065
  0
LINE
  5
496
100
AcDbEntity
  8
BEZUGSACHSEN
100
AcDbLine
 62
7
  6
CONTINUOUS
 10
126.8694044482
 20
130.8897941353
 11
126.8694044482
 21
137.9134500065
  0
LINE
  5
497
100
AcDbEntity
  8
BEZUGSACHSEN
100
AcDbLine
 62
7
  6
CONTINUOUS
 10
126.8694044482
 20
169.9134500065
 11
126.8694044482
 21
176.9371058777
  0
LINE
  5
498
100
AcDbEntity
  8
BEZUGSACHSEN
100
AcDbLine
 62
7
  6
CONTINUOUS
 10
131.5914851751
 20
233.723803076
 11
131.6373314587
 21
234.0990679716
  0
LINE
  5
499
100
AcDbEntity
  8
BEZUGSACHSEN
100
AcDbLine
 62
7
  6
CONTINUOUS
 10
135.0045049106
 20
229.3348010201
 11
135.0704937363
 21
229.7101734184
  0
LINE
  5
49A
100
AcDbEntity
  8
BEZUGSACHSEN
100
AcDbLine
 62
7
  6
CONTINUOUS
 10
135.6721935027
 20
229.4384166066
 11
135.5335076202
 21
228.9853751072
  0
LINE
  5
49B
100
AcDbEntity
  8
BEZUGSACHSEN
100
AcDbLine
 62
7
  6
CONTINUOUS
 10
144.3345735413
 20
226.8820352078
 11
142.7350590449
 21
222.4270667405
  0
LINE
  5
49C
100
AcDbEntity
  8
BEZUGSACHSEN
100
AcDbLine
 62
7
  6
CONTINUOUS
 10
142.4313955766
 20
223.4934523623
 11
143.9223333085
 21
227.4173885768
  0
LINE
  5
49D
100
AcDbEntity
  8
BEZUGSACHSEN
100
AcDbLine
 62
7
  6
CONTINUOUS
 10
148.7271887399
 20
227.2628237087
 11
148.6081773516
 21
226.9898601524
  0
LINE
  5
49E
100
AcDbEntity
  8
BEZUGSACHSEN
100
AcDbLine
 62
7
  6
CONTINUOUS
 10
154.2700882496
 20
241.4134500065
 11
149.3626109614
 21
232.9134500065
  0
LINE
  5
49F
100
AcDbEntity
  8
BEZUGSACHSEN
100
AcDbLine
 62
7
  6
CONTINUOUS
 10
148.1647346064
 20
227.2763775385
 11
148.3810963193
 21
227.5863988554
  0
LINE
  5
4A0
100
AcDbEntity
  8
BEZUGSACHSEN
100
AcDbLine
 62
7
  6
CONTINUOUS
 10
151.0093768108
 20
226.5379505985
 11
151.2257385369
 21
226.8479718806
  0
LINE
  5
4A1
100
AcDbEntity
  8
BEZUGSACHSEN
100
AcDbLine
 62
7
  6
CONTINUOUS
 10
151.6689610192
 20
224.5124296814
 11
151.8853227454
 21
224.8224509634
  0
LINE
  5
4A2
100
AcDbEntity
  8
BEZUGSACHSEN
100
AcDbLine
 62
7
  6
CONTINUOUS
 10
153.7176557773
 20
230.2160290949
 11
153.3841392853
 21
229.8020809076
  0
LINE
  5
4A3
100
AcDbEntity
  8
BEZUGSACHSEN
100
AcDbLine
 62
7
  6
CONTINUOUS
 10
156.226538077
 20
227.1830526753
 11
156.560052732
 21
227.596999343
  0
LINE
  5
4A4
100
AcDbEntity
  8
BEZUGSACHSEN
100
AcDbLine
 62
7
  6
CONTINUOUS
 10
152.9648377872
 20
230.145548625
 11
153.3786176261
 21
230.6258907764
  0
LINE
  5
4A5
100
AcDbEntity
  8
BEZUGSACHSEN
100
AcDbLine
 62
7
  6
CONTINUOUS
 10
156.9793560256
 20
227.2535331954
 11
156.5655761807
 21
226.7731910513
  0
LINE
  5
4A6
100
AcDbEntity
  8
BEZUGSACHSEN
100
AcDbLine
 62
7
  6
CONTINUOUS
 10
148.3810963193
 20
227.5863988554
 11
148.694810575
 21
227.9334788071
  0
LINE
  5
4A7
100
AcDbEntity
  8
BEZUGSACHSEN
100
AcDbLine
 62
7
  6
CONTINUOUS
 10
148.8840447586
 20
227.4363632474
 11
148.7271887399
 21
227.2628237087
  0
LINE
  5
4A8
100
AcDbEntity
  8
BEZUGSACHSEN
100
AcDbLine
 62
7
  6
CONTINUOUS
 10
152.2692597567
 20
224.3994519036
 11
151.9555477192
 21
224.0523728262
  0
LINE
  5
4A9
100
AcDbEntity
  8
BEZUGSACHSEN
100
AcDbLine
 62
7
  6
CONTINUOUS
 10
151.7286847349
 20
226.6979354592
 11
151.3176201579
 21
226.3137977382
  0
LINE
  5
4AA
100
AcDbEntity
  8
BEZUGSACHSEN
100
AcDbLine
 62
7
  6
CONTINUOUS
 10
148.694810575
 20
227.9334788071
 11
149.0463716694
 21
228.1811356417
  0
LINE
  5
4AB
100
AcDbEntity
  8
BEZUGSACHSEN
100
AcDbLine
 62
7
  6
CONTINUOUS
 10
133.3324736767
 20
227.5484128364
 11
133.6993123602
 21
227.7879068016
  0
LINE
  5
4AC
100
AcDbEntity
  8
BEZUGSACHSEN
100
AcDbLine
 62
7
  6
CONTINUOUS
 10
149.3329561677
 20
227.7210778686
 11
148.8840447586
 21
227.4363632474
  0
LINE
  5
4AD
100
AcDbEntity
  8
BEZUGSACHSEN
100
AcDbLine
 62
7
  6
CONTINUOUS
 10
150.4631128622
 20
226.2161773337
 11
151.0093768108
 21
226.5379505985
  0
LINE
  5
4AE
100
AcDbEntity
  8
BEZUGSACHSEN
100
AcDbLine
 62
7
  6
CONTINUOUS
 10
153.3786176261
 20
230.6258907764
 11
153.9280127185
 21
230.9422882637
  0
LINE
  5
4AF
100
AcDbEntity
  8
BEZUGSACHSEN
100
AcDbLine
 62
7
  6
CONTINUOUS
 10
154.1867856737
 20
230.466031113
 11
153.7176557773
 21
230.2160290949
  0
LINE
  5
4B0
100
AcDbEntity
  8
BEZUGSACHSEN
100
AcDbLine
 62
7
  6
CONTINUOUS
 10
131.3593989128
 20
232.5492428798
 11
128.4284226072
 21
231.0375087016
  0
LINE
  5
4B1
100
AcDbEntity
  8
BEZUGSACHSEN
100
AcDbLine
 62
7
  6
CONTINUOUS
 10
129.6404107469
 20
235.8820467925
 11
130.1608985552
 21
236.033296797
  0
LINE
  5
4B2
100
AcDbEntity
  8
BEZUGSACHSEN
100
AcDbLine
 62
7
  6
CONTINUOUS
 10
131.9551336733
 20
38.9134500065
 11
331.9551336733
 21
38.9134500065
  0
LINE
  5
4B3
100
AcDbEntity
  8
0
100
AcDbLine
 62
7
  6
CONTINUOUS
 10
131.176077482
 20
43.4134500065
 11
157.7341898647
 21
43.4134500065
  0
LINE
  5
4B4
100
AcDbEntity
  8
0
100
AcDbLine
 62
7
  6
CONTINUOUS
 10
218.676077482
 20
43.4134500065
 11
245.2341898647
 21
43.4134500065
  0
LINE
  5
4B5
100
AcDbEntity
  8
0
100
AcDbLine
 62
7
  6
CONTINUOUS
 10
306.176077482
 20
43.4134500065
 11
332.7341898647
 21
43.4134500065
  0
LINE
  5
4B6
100
AcDbEntity
  8
0
100
AcDbLine
 62
7
  6
CONTINUOUS
 10
129.6404107469
 20
71.9448532205
 11
130.1608985552
 21
71.793603216
  0
LINE
  5
4B7
100
AcDbEntity
  8
0
100
AcDbLine
 62
7
  6
CONTINUOUS
 10
131.3593989128
 20
75.2776571332
 11
128.4284226072
 21
76.7893913114
  0
LINE
  5
4B8
100
AcDbEntity
  8
0
100
AcDbLine
 62
7
  6
CONTINUOUS
 10
154.1867856737
 20
77.3608689
 11
153.7176557773
 21
77.6108709181
  0
LINE
  5
4B9
100
AcDbEntity
  8
0
100
AcDbLine
 62
7
  6
CONTINUOUS
 10
153.3786176261
 20
77.2010092366
 11
153.9280127185
 21
76.8846117493
  0
LINE
  5
4BA
100
AcDbEntity
  8
0
100
AcDbLine
 62
7
  6
CONTINUOUS
 10
150.4631128622
 20
81.6107226793
 11
151.0093768108
 21
81.2889494145
  0
LINE
  5
4BB
100
AcDbEntity
  8
0
100
AcDbLine
 62
7
  6
CONTINUOUS
 10
149.3329561677
 20
80.1058221443
 11
148.8840447586
 21
80.3905367656
  0
LINE
  5
4BC
100
AcDbEntity
  8
0
100
AcDbLine
 62
7
  6
CONTINUOUS
 10
133.3324736767
 20
80.2784871766
 11
133.6993123602
 21
80.0389932114
  0
LINE
  5
4BD
100
AcDbEntity
  8
0
100
AcDbLine
 62
7
  6
CONTINUOUS
 10
148.694810575
 20
79.8934212059
 11
149.0463716694
 21
79.6457643713
  0
LINE
  5
4BE
100
AcDbEntity
  8
0
100
AcDbLine
 62
7
  6
CONTINUOUS
 10
151.7286847349
 20
81.1289645538
 11
151.3176201579
 21
81.5131022748
  0
LINE
  5
4BF
100
AcDbEntity
  8
0
100
AcDbLine
 62
7
  6
CONTINUOUS
 10
148.3810963193
 20
80.2405011576
 11
148.694810575
 21
79.8934212059
  0
LINE
  5
4C0
100
AcDbEntity
  8
0
100
AcDbLine
 62
7
  6
CONTINUOUS
 10
148.8840447586
 20
80.3905367656
 11
148.7271887399
 21
80.5640763043
  0
LINE
  5
4C1
100
AcDbEntity
  8
0
100
AcDbLine
 62
7
  6
CONTINUOUS
 10
152.2692597567
 20
83.4274481093
 11
151.9555477192
 21
83.7745271868
  0
LINE
  5
4C2
100
AcDbEntity
  8
0
100
AcDbLine
 62
7
  6
CONTINUOUS
 10
152.9648377872
 20
77.6813513879
 11
153.3786176261
 21
77.2010092366
  0
LINE
  5
4C3
100
AcDbEntity
  8
0
100
AcDbLine
 62
7
  6
CONTINUOUS
 10
156.9793560256
 20
80.5733668176
 11
156.5655761807
 21
81.0537089617
  0
LINE
  5
4C4
100
AcDbEntity
  8
0
100
AcDbLine
 62
7
  6
CONTINUOUS
 10
153.7176557773
 20
77.6108709181
 11
153.3841392853
 21
78.0248191054
  0
LINE
  5
4C5
100
AcDbEntity
  8
0
100
AcDbLine
 62
7
  6
CONTINUOUS
 10
156.226538077
 20
80.6438473377
 11
156.560052732
 21
80.22990067
  0
LINE
  5
4C6
100
AcDbEntity
  8
0
100
AcDbLine
 62
7
  6
CONTINUOUS
 10
148.1647346064
 20
80.5505224745
 11
148.3810963193
 21
80.2405011576
  0
LINE
  5
4C7
100
AcDbEntity
  8
0
100
AcDbLine
 62
7
  6
CONTINUOUS
 10
151.0093768108
 20
81.2889494145
 11
151.2257385369
 21
80.9789281324
  0
LINE
  5
4C8
100
AcDbEntity
  8
0
100
AcDbLine
 62
7
  6
CONTINUOUS
 10
151.6689610192
 20
83.3144703316
 11
151.8853227454
 21
83.0044490496
  0
LINE
  5
4C9
100
AcDbEntity
  8
0
100
AcDbLine
 62
7
  6
CONTINUOUS
 10
154.2700882496
 20
66.4134500065
 11
149.3626109614
 21
74.9134500065
  0
LINE
  5
4CA
100
AcDbEntity
  8
0
100
AcDbLine
 62
7
  6
CONTINUOUS
 10
148.7271887399
 20
80.5640763043
 11
148.6081773516
 21
80.8370398606
  0
LINE
  5
4CB
100
AcDbEntity
  8
0
100
AcDbLine
 62
7
  6
CONTINUOUS
 10
142.4313955766
 20
84.3334476506
 11
143.9223333085
 21
80.4095114362
  0
LINE
  5
4CC
100
AcDbEntity
  8
0
100
AcDbLine
 62
7
  6
CONTINUOUS
 10
144.3345735413
 20
80.9448648052
 11
142.7350590449
 21
85.3998332725
  0
LINE
  5
4CD
100
AcDbEntity
  8
0
100
AcDbLine
 62
7
  6
CONTINUOUS
 10
135.6721935027
 20
78.3884834064
 11
135.5335076202
 21
78.8415249058
  0
LINE
  5
4CE
100
AcDbEntity
  8
0
100
AcDbLine
 62
7
  6
CONTINUOUS
 10
135.0045049106
 20
78.4920989929
 11
135.0704937363
 21
78.1167265946
  0
LINE
  5
4CF
100
AcDbEntity
  8
0
100
AcDbLine
 62
7
  6
CONTINUOUS
 10
131.5914851751
 20
74.103096937
 11
131.6373314587
 21
73.7278320414
  0
LINE
  5
4D0
100
AcDbEntity
  8
BEZUGSACHSEN
100
AcDbLine
 62
7
  6
CONTINUOUS
 10
135.6587780386
 20
230.0338225223
 11
135.6721935027
 21
229.4384166066
  0
LINE
  5
4D1
100
AcDbEntity
  8
0
100
AcDbLine
 62
7
  6
CONTINUOUS
 10
141.7975913083
 20
85.3920555553
 11
141.8390724664
 21
80.3922276269
  0
LINE
  5
4D2
100
AcDbEntity
  8
BEZUGSACHSEN
100
AcDbLine
 62
7
  6
CONTINUOUS
 10
132.2523666617
 20
234.2990841477
 11
132.254270178
 21
233.8312412178
  0
LINE
  5
4D3
100
AcDbEntity
  8
0
100
AcDbLine
 62
7
  6
CONTINUOUS
 10
132.2523666617
 20
73.5278158653
 11
132.254270178
 21
73.9956587951
  0
LINE
  5
4D4
100
AcDbEntity
  8
BEZUGSACHSEN
100
AcDbLine
 62
7
  6
CONTINUOUS
 10
141.7975913083
 20
222.4348444577
 11
141.8390724664
 21
227.4346723861
  0
LINE
  5
4D5
100
AcDbEntity
  8
0
100
AcDbLine
 62
7
  6
CONTINUOUS
 10
135.6587780386
 20
77.7930774907
 11
135.6721935027
 21
78.3884834064
  0
LINE
  5
4D6
100
AcDbEntity
  8
0
100
AcDbLine
 62
7
  6
CONTINUOUS
 10
125.7180618687
 20
69.6061616276
 11
125.3658152691
 21
67.1311015611
  0
LINE
  5
4D7
100
AcDbEntity
  8
0
100
AcDbLine
 62
7
  6
CONTINUOUS
 10
125.980485381
 20
67.6749205016
 11
126.2593472583
 21
69.634342956
  0
LINE
  5
4D8
100
AcDbEntity
  8
0
100
AcDbLine
 62
7
  6
CONTINUOUS
 10
127.8391729395
 20
69.4095046858
 11
127.5603110622
 21
67.4500822314
  0
LINE
  5
4D9
100
AcDbEntity
  8
0
100
AcDbLine
 62
7
  6
CONTINUOUS
 10
128.1922412166
 20
67.3601469401
 11
128.4417492176
 21
69.1133144381
  0
LINE
  5
4DA
100
AcDbEntity
  8
BEZUGSACHSEN
100
AcDbLine
 62
7
  6
CONTINUOUS
 10
148.0835722518
 20
226.9039918003
 11
148.1647346064
 21
227.2763775385
  0
LINE
  5
4DB
100
AcDbEntity
  8
BEZUGSACHSEN
100
AcDbLine
 62
7
  6
CONTINUOUS
 10
151.8098493176
 20
227.0703220456
 11
151.7286847349
 21
226.6979354592
  0
LINE
  5
4DC
100
AcDbEntity
  8
BEZUGSACHSEN
100
AcDbLine
 62
7
  6
CONTINUOUS
 10
151.8853227454
 20
224.8224509634
 11
151.9664850999
 21
225.1948367016
  0
LINE
  5
4DD
100
AcDbEntity
  8
BEZUGSACHSEN
100
AcDbLine
 62
7
  6
CONTINUOUS
 10
153.3841392853
 20
229.8020809076
 11
153.278960794
 21
229.4389513483
  0
LINE
  5
4DE
100
AcDbEntity
  8
BEZUGSACHSEN
100
AcDbLine
 62
7
  6
CONTINUOUS
 10
156.560052732
 20
227.596999343
 11
156.6652312233
 21
227.9601289023
  0
LINE
  5
4DF
100
AcDbEntity
  8
BEZUGSACHSEN
100
AcDbLine
 62
7
  6
CONTINUOUS
 10
152.7669365544
 20
229.5676557666
 11
152.9648377872
 21
230.145548625
  0
LINE
  5
4E0
100
AcDbEntity
  8
BEZUGSACHSEN
100
AcDbLine
 62
7
  6
CONTINUOUS
 10
157.1772554391
 20
227.8314245127
 11
156.9793560256
 21
227.2535331954
  0
LINE
  5
4E1
100
AcDbEntity
  8
BEZUGSACHSEN
100
AcDbLine
 62
7
  6
CONTINUOUS
 10
152.5072803582
 20
224.9453780288
 11
152.2692597567
 21
224.3994519036
  0
LINE
  5
4E2
100
AcDbEntity
  8
BEZUGSACHSEN
100
AcDbLine
 62
7
  6
CONTINUOUS
 10
171.0132460561
 20
241.4134500065
 11
157.7341898647
 21
218.4134500065
  0
LINE
  5
4E3
100
AcDbEntity
  8
BEZUGSACHSEN
100
AcDbLine
 62
7
  6
CONTINUOUS
 10
151.2200496102
 20
224.2277150602
 11
151.6689610192
 21
224.5124296814
  0
LINE
  5
4E4
100
AcDbEntity
  8
BEZUGSACHSEN
100
AcDbLine
 62
7
  6
CONTINUOUS
 10
156.5655761807
 20
226.7731910513
 11
156.0161810944
 21
226.4567935568
  0
LINE
  5
4E5
100
AcDbEntity
  8
BEZUGSACHSEN
100
AcDbLine
 62
7
  6
CONTINUOUS
 10
151.9555477192
 20
224.0523728262
 11
151.3119312312
 21
223.6935409178
  0
LINE
  5
4E6
100
AcDbEntity
  8
BEZUGSACHSEN
100
AcDbLine
 62
7
  6
CONTINUOUS
 10
155.7574063435
 20
226.9330491376
 11
156.226538077
 21
227.1830526753
  0
LINE
  5
4E7
100
AcDbEntity
  8
BEZUGSACHSEN
100
AcDbLine
 62
7
  6
CONTINUOUS
 10
149.0463716694
 20
228.1811356417
 11
149.8251853009
 21
228.4776022457
  0
LINE
  5
4E8
100
AcDbEntity
  8
BEZUGSACHSEN
100
AcDbLine
 62
7
  6
CONTINUOUS
 10
149.9170669484
 20
227.9434280337
 11
149.3329561677
 21
227.7210778686
  0
LINE
  5
4E9
100
AcDbEntity
  8
BEZUGSACHSEN
100
AcDbLine
 62
7
  6
CONTINUOUS
 10
148.5865207045
 20
226.7539561575
 11
148.0997602351
 21
226.5686637878
  0
LINE
  5
4EA
100
AcDbEntity
  8
BEZUGSACHSEN
100
AcDbLine
 62
7
  6
CONTINUOUS
 10
150.0737049324
 20
226.0679436076
 11
150.4631128622
 21
226.2161773337
  0
LINE
  5
4EB
100
AcDbEntity
  8
BEZUGSACHSEN
100
AcDbLine
 62
7
  6
CONTINUOUS
 10
150.6145001906
 20
225.8184849347
 11
150.2250922608
 21
225.6702512086
  0
LINE
  5
4EC
100
AcDbEntity
  8
BEZUGSACHSEN
100
AcDbLine
 62
7
  6
CONTINUOUS
 10
149.1432837361
 20
224.1201445198
 11
149.6300419773
 21
224.3054360413
  0
LINE
  5
4ED
100
AcDbEntity
  8
BEZUGSACHSEN
100
AcDbLine
 62
7
  6
CONTINUOUS
 10
150.8306416803
 20
224.079481334
 11
151.2200496102
 21
224.2277150602
  0
LINE
  5
4EE
100
AcDbEntity
  8
BEZUGSACHSEN
100
AcDbLine
 62
7
  6
CONTINUOUS
 10
151.3119312312
 20
223.6935409178
 11
151.1172283803
 21
223.6194244789
  0
LINE
  5
4EF
100
AcDbEntity
  8
BEZUGSACHSEN
100
AcDbLine
 62
7
  6
CONTINUOUS
 10
133.7160821713
 20
227.0436486125
 11
133.2731919569
 21
226.8753376836
  0
LINE
  5
4F0
100
AcDbEntity
  8
0
100
AcDbLine
 62
7
  6
CONTINUOUS
 10
325.7175394419
 20
79.3511004973
 11
326.0852885097
 21
79.4387716491
  0
LINE
  5
4F1
100
AcDbEntity
  8
0
100
AcDbLine
 62
7
  6
CONTINUOUS
 10
305.8736591989
 20
70.3454535658
 11
303.3191675037
 21
69.7620580327
  0
LINE
  5
4F2
100
AcDbEntity
  8
0
100
AcDbLine
 62
7
  6
CONTINUOUS
 10
303.4417492176
 20
69.1133144381
 11
305.7709205793
 21
69.6235608496
  0
LINE
  5
4F3
100
AcDbEntity
  8
0
100
AcDbLine
 62
7
  6
CONTINUOUS
 10
301.6486970578
 20
70.1050129226
 11
301.9793390626
 21
70.1631726813
  0
LINE
  5
4F4
100
AcDbEntity
  8
0
100
AcDbLine
 62
7
  6
CONTINUOUS
 10
302.0674007125
 20
70.781937698
 11
301.7367587077
 21
70.7237779392
  0
LINE
  5
4F5
100
AcDbEntity
  8
0
100
AcDbLine
 62
7
  6
CONTINUOUS
 10
139.5476563852
 20
57.9134500065
 11
149.3626109614
 21
57.9134500065
  0
LINE
  5
4F6
100
AcDbEntity
  8
0
100
AcDbLine
 62
7
  6
CONTINUOUS
 10
227.0476563852
 20
57.9134500065
 11
236.8626109614
 21
57.9134500065
  0
LINE
  5
4F7
100
AcDbEntity
  8
0
100
AcDbLine
 62
7
  6
CONTINUOUS
 10
314.5476563852
 20
57.9134500065
 11
324.3626109614
 21
57.9134500065
  0
LINE
  5
4F8
100
AcDbEntity
  8
0
100
AcDbLine
 62
7
  6
CONTINUOUS
 10
125.3658152691
 20
67.1311015611
 11
130.3159354023
 21
66.426608362
  0
LINE
  5
4F9
100
AcDbEntity
  8
0
100
AcDbLine
 62
7
  6
CONTINUOUS
 10
130.4039970521
 20
67.0453733786
 11
128.1922412166
 21
67.3601469401
  0
LINE
  5
4FA
100
AcDbEntity
  8
0
100
AcDbLine
 62
7
  6
CONTINUOUS
 10
127.5603110622
 20
67.4500822314
 11
125.980485381
 21
67.6749205016
  0
LINE
  5
4FB
100
AcDbEntity
  8
0
100
AcDbLine
 62
7
  6
CONTINUOUS
 10
126.9793390626
 20
70.1631726813
 11
127.2953044349
 21
70.1182049937
  0
LINE
  5
4FC
100
AcDbEntity
  8
0
100
AcDbLine
 62
7
  6
CONTINUOUS
 10
127.4886877772
 20
70.7219807951
 11
127.0674007125
 21
70.781937698
  0
LINE
  5
4FD
100
AcDbEntity
  8
0
100
AcDbLine
 62
7
  6
CONTINUOUS
 10
130.3528488135
 20
72.3978358378
 11
129.9269088884
 21
72.50032076
  0
LINE
  5
4FE
100
AcDbEntity
  8
0
100
AcDbLine
 62
7
  6
CONTINUOUS
 10
132.9622802644
 20
80.3691292763
 11
133.3324736767
 21
80.2784871766
  0
LINE
  5
4FF
100
AcDbEntity
  8
0
100
AcDbLine
 62
7
  6
CONTINUOUS
 10
133.7160821713
 20
80.7832514005
 11
133.2731919569
 21
80.9515623293
  0
LINE
  5
500
100
AcDbEntity
  8
0
100
AcDbLine
 62
7
  6
CONTINUOUS
 10
149.0463716694
 20
79.6457643713
 11
149.8251853009
 21
79.3492977673
  0
LINE
  5
501
100
AcDbEntity
  8
0
100
AcDbLine
 62
7
  6
CONTINUOUS
 10
149.9170669484
 20
79.8834719793
 11
149.3329561677
 21
80.1058221443
  0
LINE
  5
502
100
AcDbEntity
  8
0
100
AcDbLine
 62
7
  6
CONTINUOUS
 10
148.5865207045
 20
81.0729438555
 11
148.0997602351
 21
81.2582362252
  0
LINE
  5
503
100
AcDbEntity
  8
0
100
AcDbLine
 62
7
  6
CONTINUOUS
 10
150.0737049324
 20
81.7589564054
 11
150.4631128622
 21
81.6107226793
  0
LINE
  5
504
100
AcDbEntity
  8
0
100
AcDbLine
 62
7
  6
CONTINUOUS
 10
150.6145001906
 20
82.0084150783
 11
150.2250922608
 21
82.1566488044
  0
LINE
  5
505
100
AcDbEntity
  8
0
100
AcDbLine
 62
7
  6
CONTINUOUS
 10
149.1432837361
 20
83.7067554931
 11
149.6300419773
 21
83.5214639716
  0
LINE
  5
506
100
AcDbEntity
  8
0
100
AcDbLine
 62
7
  6
CONTINUOUS
 10
150.8306416803
 20
83.747418679
 11
151.2200496102
 21
83.5991849528
  0
LINE
  5
507
100
AcDbEntity
  8
0
100
AcDbLine
 62
7
  6
CONTINUOUS
 10
151.3119312312
 20
84.1333590952
 11
151.1172283803
 21
84.2074755341
  0
LINE
  5
508
100
AcDbEntity
  8
0
100
AcDbLine
 62
7
  6
CONTINUOUS
 10
155.7574063435
 20
80.8938508754
 11
156.226538077
 21
80.6438473377
  0
LINE
  5
509
100
AcDbEntity
  8
0
100
AcDbLine
 62
7
  6
CONTINUOUS
 10
151.9555477192
 20
83.7745271868
 11
151.3119312312
 21
84.1333590952
  0
LINE
  5
50A
100
AcDbEntity
  8
0
100
AcDbLine
 62
7
  6
CONTINUOUS
 10
156.5655761807
 20
81.0537089617
 11
156.0161810944
 21
81.3701064562
  0
LINE
  5
50B
100
AcDbEntity
  8
0
100
AcDbLine
 62
7
  6
CONTINUOUS
 10
151.2200496102
 20
83.5991849528
 11
151.6689610192
 21
83.3144703316
  0
LINE
  5
50C
100
AcDbEntity
  8
0
100
AcDbLine
 62
7
  6
CONTINUOUS
 10
171.0132460561
 20
66.4134500065
 11
157.7341898647
 21
89.4134500065
  0
LINE
  5
50D
100
AcDbEntity
  8
0
100
AcDbLine
 62
7
  6
CONTINUOUS
 10
152.5072803582
 20
82.8815219842
 11
152.2692597567
 21
83.4274481093
  0
LINE
  5
50E
100
AcDbEntity
  8
0
100
AcDbLine
 62
7
  6
CONTINUOUS
 10
152.7669365544
 20
78.2592442464
 11
152.9648377872
 21
77.6813513879
  0
LINE
  5
50F
100
AcDbEntity
  8
0
100
AcDbLine
 62
7
  6
CONTINUOUS
 10
157.1772554391
 20
79.9954755003
 11
156.9793560256
 21
80.5733668176
  0
LINE
  5
510
100
AcDbEntity
  8
0
100
AcDbLine
 62
7
  6
CONTINUOUS
 10
153.3841392853
 20
78.0248191054
 11
153.278960794
 21
78.3879486647
  0
LINE
  5
511
100
AcDbEntity
  8
0
100
AcDbLine
 62
7
  6
CONTINUOUS
 10
156.560052732
 20
80.22990067
 11
156.6652312233
 21
79.8667711107
  0
LINE
  5
512
100
AcDbEntity
  8
0
100
AcDbLine
 62
7
  6
CONTINUOUS
 10
148.0835722518
 20
80.9229082127
 11
148.1647346064
 21
80.5505224745
  0
LINE
  5
513
100
AcDbEntity
  8
0
100
AcDbLine
 62
7
  6
CONTINUOUS
 10
151.8098493176
 20
80.7565779674
 11
151.7286847349
 21
81.1289645538
  0
LINE
  5
514
100
AcDbEntity
  8
0
100
AcDbLine
 62
7
  6
CONTINUOUS
 10
151.8853227454
 20
83.0044490496
 11
151.9664850999
 21
82.6320633113
  0
LINE
  5
515
100
AcDbEntity
  8
BEZUGSACHSEN
100
AcDbLine
 62
7
  6
CONTINUOUS
 10
125.7180618687
 20
238.2207383854
 11
125.3658152691
 21
240.6957984519
  0
LINE
  5
516
100
AcDbEntity
  8
BEZUGSACHSEN
100
AcDbLine
 62
7
  6
CONTINUOUS
 10
125.980485381
 20
240.1519795114
 11
126.2593472583
 21
238.192557057
  0
LINE
  5
517
100
AcDbEntity
  8
BEZUGSACHSEN
100
AcDbLine
 62
7
  6
CONTINUOUS
 10
127.8391729395
 20
238.4173953272
 11
127.5603110622
 21
240.3768177816
  0
LINE
  5
518
100
AcDbEntity
  8
BEZUGSACHSEN
100
AcDbLine
 62
7
  6
CONTINUOUS
 10
128.1922412166
 20
240.4667530729
 11
128.4417492176
 21
238.7135855749
  0
LINE
  5
519
100
AcDbEntity
  8
0
100
AcDbLine
 62
7
  6
CONTINUOUS
 10
148.6081773516
 20
80.8370398606
 11
148.5865207045
 21
81.0729438555
  0
LINE
  5
51A
100
AcDbEntity
  8
0
100
AcDbLine
 62
7
  6
CONTINUOUS
 10
151.2257385369
 20
80.9789281324
 11
151.2690540064
 21
80.5071191552
  0
LINE
  5
51B
100
AcDbEntity
  8
0
100
AcDbLine
 62
7
  6
CONTINUOUS
 10
152.7295657076
 20
78.7043461592
 11
152.7669365544
 21
78.2592442464
  0
LINE
  5
51C
100
AcDbEntity
  8
0
100
AcDbLine
 62
7
  6
CONTINUOUS
 10
157.2146263097
 20
79.5503736162
 11
157.1772554391
 21
79.9954755003
  0
LINE
  5
51D
100
AcDbEntity
  8
BEZUGSACHSEN
100
AcDbLine
 62
7
  6
CONTINUOUS
 10
148.0997602351
 20
226.5686637878
 11
148.0835722518
 21
226.9039918003
  0
LINE
  5
51E
100
AcDbEntity
  8
0
100
AcDbLine
 62
7
  6
CONTINUOUS
 10
142.4640509575
 20
80.3974127717
 11
142.4313955766
 21
84.3334476506
  0
LINE
  5
51F
100
AcDbEntity
  8
0
100
AcDbLine
 62
7
  6
CONTINUOUS
 10
146.1812665229
 20
84.3645585192
 11
146.2139219037
 21
80.4285236403
  0
LINE
  5
520
100
AcDbEntity
  8
0
100
AcDbLine
 62
7
  6
CONTINUOUS
 10
146.8389003948
 20
80.4337087851
 11
146.7974192367
 21
85.4335367134
  0
LINE
  5
521
100
AcDbEntity
  8
BEZUGSACHSEN
100
AcDbLine
 62
7
  6
CONTINUOUS
 10
142.4640509575
 20
227.4294872413
 11
142.4313955766
 21
223.4934523623
  0
LINE
  5
522
100
AcDbEntity
  8
BEZUGSACHSEN
100
AcDbLine
 62
7
  6
CONTINUOUS
 10
146.1812665229
 20
223.4623414938
 11
146.2139219037
 21
227.3983763727
  0
LINE
  5
523
100
AcDbEntity
  8
BEZUGSACHSEN
100
AcDbLine
 62
7
  6
CONTINUOUS
 10
146.8389003948
 20
227.3931912279
 11
146.7974192367
 21
222.3933632996
  0
LINE
  5
524
100
AcDbEntity
  8
0
100
AcDbLine
 62
7
  6
CONTINUOUS
 10
148.0997602351
 20
81.2582362252
 11
148.0835722518
 21
80.9229082127
  0
LINE
  5
525
100
AcDbEntity
  8
BEZUGSACHSEN
100
AcDbLine
 62
7
  6
CONTINUOUS
 10
152.7295657076
 20
229.1225538538
 11
152.7669365544
 21
229.5676557666
  0
LINE
  5
526
100
AcDbEntity
  8
BEZUGSACHSEN
100
AcDbLine
 62
7
  6
CONTINUOUS
 10
157.2146263097
 20
228.2765263968
 11
157.1772554391
 21
227.8314245127
  0
LINE
  5
527
100
AcDbEntity
  8
BEZUGSACHSEN
100
AcDbLine
 62
7
  6
CONTINUOUS
 10
148.6081773516
 20
226.9898601524
 11
148.5865207045
 21
226.7539561575
  0
LINE
  5
528
100
AcDbEntity
  8
BEZUGSACHSEN
100
AcDbLine
 62
7
  6
CONTINUOUS
 10
151.2257385369
 20
226.8479718806
 11
151.2690540064
 21
227.3197808578
  0
LINE
  5
529
100
AcDbEntity
  8
0
100
AcDbLine
 62
7
  6
CONTINUOUS
 10
130.3159354023
 20
66.426608362
 11
130.4039970521
 21
67.0453733786
  0
LINE
  5
52A
100
AcDbEntity
  8
0
100
AcDbLine
 62
7
  6
CONTINUOUS
 10
130.7709205793
 20
69.6235608496
 11
130.8736591989
 21
70.3454535658
  0
LINE
  5
52B
100
AcDbEntity
  8
0
100
AcDbLine
 62
7
  6
CONTINUOUS
 10
135.0704937363
 20
78.1167265946
 11
134.9877349468
 21
77.7478409669
  0
LINE
  5
52C
100
AcDbEntity
  8
0
100
AcDbLine
 62
7
  6
CONTINUOUS
 10
131.6373314587
 20
73.7278320414
 11
131.5408803077
 21
73.3087547364
  0
LINE
  5
52D
100
AcDbEntity
  8
BEZUGSACHSEN
100
AcDbLine
 62
7
  6
CONTINUOUS
 10
214.2094344413
 20
234.3703126144
 11
217.1404107469
 21
235.8820467925
  0
LINE
  5
52E
100
AcDbEntity
  8
BEZUGSACHSEN
100
AcDbLine
 62
7
  6
CONTINUOUS
 10
217.4269088884
 20
235.326579253
 11
214.4959325828
 21
233.8148450748
  0
LINE
  5
52F
100
AcDbEntity
  8
BEZUGSACHSEN
100
AcDbLine
 62
7
  6
CONTINUOUS
 10
214.7953044349
 20
237.7086950193
 11
215.0965925845
 21
237.8567900694
  0
LINE
  5
530
100
AcDbEntity
  8
BEZUGSACHSEN
100
AcDbLine
 62
7
  6
CONTINUOUS
 10
215.2899759268
 20
237.2530142679
 11
214.9886877772
 21
237.1049192179
  0
LINE
  5
531
100
AcDbEntity
  8
BEZUGSACHSEN
100
AcDbLine
 62
7
  6
CONTINUOUS
 10
217.1404107469
 20
235.8820467925
 11
217.6608985552
 21
236.033296797
  0
LINE
  5
532
100
AcDbEntity
  8
0
100
AcDbLine
 62
7
  6
CONTINUOUS
 10
324.9382875526
 20
83.7456159837
 11
325.3060366071
 21
83.8332871007
  0
LINE
  5
533
100
AcDbEntity
  8
0
100
AcDbLine
 62
7
  6
CONTINUOUS
 10
218.3736591989
 20
70.3454535658
 11
215.8191675037
 21
69.7620580327
  0
LINE
  5
534
100
AcDbEntity
  8
0
100
AcDbLine
 62
7
  6
CONTINUOUS
 10
215.9417492176
 20
69.1133144381
 11
218.2709205793
 21
69.6235608496
  0
LINE
  5
535
100
AcDbEntity
  8
0
100
AcDbLine
 62
7
  6
CONTINUOUS
 10
214.1486970578
 20
70.1050129226
 11
214.4793390626
 21
70.1631726813
  0
LINE
  5
536
100
AcDbEntity
  8
0
100
AcDbLine
 62
7
  6
CONTINUOUS
 10
214.5674007125
 20
70.781937698
 11
214.2367587077
 21
70.7237779392
  0
LINE
  5
537
100
AcDbEntity
  8
0
100
AcDbLine
 62
7
  6
CONTINUOUS
 10
307.588733401
 20
80.3109198899
 11
307.9622802644
 21
80.3691292763
  0
LINE
  5
538
100
AcDbEntity
  8
0
100
AcDbLine
 62
7
  6
CONTINUOUS
 10
325.2524400661
 20
79.3004871496
 11
325.7175394419
 21
79.3511004973
  0
LINE
  5
539
100
AcDbEntity
  8
0
100
AcDbLine
 62
7
  6
CONTINUOUS
 10
325.6742239327
 20
79.8229093701
 11
325.4416742498
 21
79.7976027093
  0
LINE
  5
53A
100
AcDbEntity
  8
0
100
AcDbLine
 62
7
  6
CONTINUOUS
 10
325.3979182281
 20
84.367461243
 11
324.932816634
 21
84.3168487697
  0
LINE
  5
53B
100
AcDbEntity
  8
0
100
AcDbLine
 62
7
  6
CONTINUOUS
 10
329.5327578741
 20
76.7985544024
 11
329.9769744929
 21
76.8452864958
  0
LINE
  5
53C
100
AcDbEntity
  8
0
100
AcDbLine
 62
7
  6
CONTINUOUS
 10
330.4114341194
 20
81.4561653443
 11
329.9672175243
 21
81.4094332796
  0
LINE
  5
53D
100
AcDbEntity
  8
0
100
AcDbLine
 62
7
  6
CONTINUOUS
 10
242.0327578741
 20
76.7985544024
 11
242.4769744929
 21
76.8452864958
  0
LINE
  5
53E
100
AcDbEntity
  8
0
100
AcDbLine
 62
7
  6
CONTINUOUS
 10
305.7319911604
 20
72.4366951131
 11
305.3528488135
 21
72.3978358378
  0
LINE
  5
53F
100
AcDbEntity
  8
0
100
AcDbLine
 62
7
  6
CONTINUOUS
 10
218.2319911604
 20
72.4366951131
 11
217.8528488135
 21
72.3978358378
  0
LINE
  5
540
100
AcDbEntity
  8
0
100
AcDbLine
 62
7
  6
CONTINUOUS
 10
324.3626109614
 20
74.9134500065
 11
314.5476563852
 21
74.9134500065
  0
LINE
  5
541
100
AcDbEntity
  8
0
100
AcDbLine
 62
7
  6
CONTINUOUS
 10
236.8626109614
 20
74.9134500065
 11
227.0476563852
 21
74.9134500065
  0
LINE
  5
542
100
AcDbEntity
  8
0
100
AcDbLine
 62
7
  6
CONTINUOUS
 10
149.3626109614
 20
74.9134500065
 11
139.5476563852
 21
74.9134500065
  0
LINE
  5
543
100
AcDbEntity
  8
0
100
AcDbLine
 62
7
  6
CONTINUOUS
 10
130.1608985552
 20
71.793603216
 11
130.6345884416
 21
71.7836965802
  0
LINE
  5
544
100
AcDbEntity
  8
0
100
AcDbLine
 62
7
  6
CONTINUOUS
 10
217.6608985552
 20
71.793603216
 11
218.1345884416
 21
71.7836965802
  0
LINE
  5
545
100
AcDbEntity
  8
0
100
AcDbLine
 62
7
  6
CONTINUOUS
 10
305.1608985552
 20
71.793603216
 11
305.6345884416
 21
71.7836965802
  0
LINE
  5
546
100
AcDbEntity
  8
0
100
AcDbLine
 62
7
  6
CONTINUOUS
 10
133.2731919569
 20
80.9515623293
 11
132.6782004214
 21
80.9775088147
  0
LINE
  5
547
100
AcDbEntity
  8
0
100
AcDbLine
 62
7
  6
CONTINUOUS
 10
154.563194648
 20
77.3256286399
 11
154.1867856737
 21
77.3608689
  0
LINE
  5
548
100
AcDbEntity
  8
0
100
AcDbLine
 62
7
  6
CONTINUOUS
 10
155.3809973692
 20
80.9290911355
 11
155.7574063435
 21
80.8938508754
  0
LINE
  5
549
100
AcDbEntity
  8
0
100
AcDbLine
 62
7
  6
CONTINUOUS
 10
149.8251853009
 20
79.3492977673
 11
150.2524400661
 21
79.3004871496
  0
LINE
  5
54A
100
AcDbEntity
  8
0
100
AcDbLine
 62
7
  6
CONTINUOUS
 10
212.8658152691
 20
67.1311015611
 11
217.8159354023
 21
66.426608362
  0
LINE
  5
54B
100
AcDbEntity
  8
0
100
AcDbLine
 62
7
  6
CONTINUOUS
 10
217.9039970521
 20
67.0453733786
 11
215.6922412166
 21
67.3601469401
  0
LINE
  5
54C
100
AcDbEntity
  8
0
100
AcDbLine
 62
7
  6
CONTINUOUS
 10
215.0603110622
 20
67.4500822314
 11
213.480485381
 21
67.6749205016
  0
LINE
  5
54D
100
AcDbEntity
  8
0
100
AcDbLine
 62
7
  6
CONTINUOUS
 10
153.9280127185
 20
76.8846117493
 11
154.5327578741
 21
76.7985544024
  0
LINE
  5
54E
100
AcDbEntity
  8
0
100
AcDbLine
 62
7
  6
CONTINUOUS
 10
214.4793390626
 20
70.1631726813
 11
214.7953044349
 21
70.1182049937
  0
LINE
  5
54F
100
AcDbEntity
  8
0
100
AcDbLine
 62
7
  6
CONTINUOUS
 10
214.9886877772
 20
70.7219807951
 11
214.5674007125
 21
70.781937698
  0
LINE
  5
550
100
AcDbEntity
  8
0
100
AcDbLine
 62
7
  6
CONTINUOUS
 10
156.0161810944
 20
81.3701064562
 11
155.4114341194
 21
81.4561653443
  0
LINE
  5
551
100
AcDbEntity
  8
0
100
AcDbLine
 62
7
  6
CONTINUOUS
 10
150.4416742498
 20
79.7976027093
 11
149.9170669484
 21
79.8834719793
  0
LINE
  5
552
100
AcDbEntity
  8
0
100
AcDbLine
 62
7
  6
CONTINUOUS
 10
150.3060366071
 20
83.8332871007
 11
150.8306416803
 21
83.747418679
  0
LINE
  5
553
100
AcDbEntity
  8
0
100
AcDbLine
 62
7
  6
CONTINUOUS
 10
151.1172283803
 20
84.2074755341
 11
150.3979182281
 21
84.367461243
  0
LINE
  5
554
100
AcDbEntity
  8
0
100
AcDbLine
 62
7
  6
CONTINUOUS
 10
217.8528488135
 20
72.3978358378
 11
217.4269088884
 21
72.50032076
  0
LINE
  5
555
100
AcDbEntity
  8
0
100
AcDbLine
 62
7
  6
CONTINUOUS
 10
217.1404107469
 20
71.9448532205
 11
217.6608985552
 21
71.793603216
  0
LINE
  5
556
100
AcDbEntity
  8
0
100
AcDbLine
 62
7
  6
CONTINUOUS
 10
214.7953044349
 20
70.1182049937
 11
215.0965925845
 21
69.9701099436
  0
LINE
  5
557
100
AcDbEntity
  8
0
100
AcDbLine
 62
7
  6
CONTINUOUS
 10
215.2899759268
 20
70.5738857451
 11
214.9886877772
 21
70.7219807951
  0
LINE
  5
558
100
AcDbEntity
  8
0
100
AcDbLine
 62
7
  6
CONTINUOUS
 10
214.2094344413
 20
73.4565873986
 11
217.1404107469
 21
71.9448532205
  0
LINE
  5
559
100
AcDbEntity
  8
0
100
AcDbLine
 62
7
  6
CONTINUOUS
 10
217.4269088884
 20
72.50032076
 11
214.4959325828
 21
74.0120549382
  0
LINE
  5
55A
100
AcDbEntity
  8
BEZUGSACHSEN
100
AcDbLine
 62
7
  6
CONTINUOUS
 10
131.6373314587
 20
234.0990679716
 11
131.5408803077
 21
234.5181452766
  0
LINE
  5
55B
100
AcDbEntity
  8
BEZUGSACHSEN
100
AcDbLine
 62
7
  6
CONTINUOUS
 10
135.0704937363
 20
229.7101734184
 11
134.9877349468
 21
230.079059046
  0
LINE
  5
55C
100
AcDbEntity
  8
BEZUGSACHSEN
100
AcDbLine
 62
7
  6
CONTINUOUS
 10
130.3159354023
 20
241.400291651
 11
130.4039970521
 21
240.7815266343
  0
LINE
  5
55D
100
AcDbEntity
  8
BEZUGSACHSEN
100
AcDbLine
 62
7
  6
CONTINUOUS
 10
130.7709205793
 20
238.2033391634
 11
130.8736591989
 21
237.4814464472
  0
LINE
  5
55E
100
AcDbEntity
  8
0
100
AcDbLine
 62
7
  6
CONTINUOUS
 10
153.278960794
 20
78.3879486647
 11
153.3647494802
 21
79.1453615374
  0
LINE
  5
55F
100
AcDbEntity
  8
0
100
AcDbLine
 62
7
  6
CONTINUOUS
 10
156.6652312233
 20
79.8667711107
 11
156.5794442317
 21
79.1093565462
  0
LINE
  5
560
100
AcDbEntity
  8
0
100
AcDbLine
 62
7
  6
CONTINUOUS
 10
151.7558122475
 20
80.3218276337
 11
151.8098493176
 21
80.7565779674
  0
LINE
  5
561
100
AcDbEntity
  8
0
100
AcDbLine
 62
7
  6
CONTINUOUS
 10
152.4532455693
 20
82.4467709416
 11
152.5072803582
 21
82.8815219842
  0
LINE
  5
562
100
AcDbEntity
  8
0
100
AcDbLine
 62
7
  6
CONTINUOUS
 10
132.1081660336
 20
73.01616103
 11
132.2523666617
 21
73.5278158653
  0
LINE
  5
563
100
AcDbEntity
  8
0
100
AcDbLine
 62
7
  6
CONTINUOUS
 10
125.8967682833
 20
70.1068100246
 11
125.7180618687
 21
69.6061616276
  0
LINE
  5
564
100
AcDbEntity
  8
0
100
AcDbLine
 62
7
  6
CONTINUOUS
 10
135.4999685566
 20
77.3530096753
 11
135.6587780386
 21
77.7930774907
  0
LINE
  5
565
100
AcDbEntity
  8
BEZUGSACHSEN
100
AcDbLine
 62
7
  6
CONTINUOUS
 10
205.3970212906
 20
241.4134500065
 11
218.676077482
 21
264.4134500065
  0
LINE
  5
566
100
AcDbEntity
  8
BEZUGSACHSEN
100
AcDbLine
 62
7
  6
CONTINUOUS
 10
215.0965925845
 20
237.8567900694
 11
215.277882072
 21
238.0930236037
  0
LINE
  5
567
100
AcDbEntity
  8
BEZUGSACHSEN
100
AcDbLine
 62
7
  6
CONTINUOUS
 10
215.6672318714
 20
237.6223536371
 11
215.2899759268
 21
237.2530142679
  0
LINE
  5
568
100
AcDbEntity
  8
BEZUGSACHSEN
100
AcDbLine
 62
7
  6
CONTINUOUS
 10
218.5729009079
 20
233.1047101544
 11
218.9033415891
 21
233.3923506583
  0
LINE
  5
569
100
AcDbEntity
  8
BEZUGSACHSEN
100
AcDbLine
 62
7
  6
CONTINUOUS
 10
219.284387204
 20
232.8856489957
 11
218.8593989128
 21
232.5492428798
  0
LINE
  5
56A
100
AcDbEntity
  8
BEZUGSACHSEN
100
AcDbLine
 62
7
  6
CONTINUOUS
 10
221.6556180642
 20
227.360811842
 11
221.2160821713
 21
227.0436486125
  0
LINE
  5
56B
100
AcDbEntity
  8
BEZUGSACHSEN
100
AcDbLine
 62
7
  6
CONTINUOUS
 10
220.8324736767
 20
227.5484128364
 11
221.1993123602
 21
227.7879068016
  0
LINE
  5
56C
100
AcDbEntity
  8
BEZUGSACHSEN
100
AcDbLine
 62
7
  6
CONTINUOUS
 10
215.6419246023
 20
231.5929759763
 11
218.5729009079
 21
233.1047101544
  0
LINE
  5
56D
100
AcDbEntity
  8
BEZUGSACHSEN
100
AcDbLine
 62
7
  6
CONTINUOUS
 10
218.8593989128
 20
232.5492428798
 11
215.9284226072
 21
231.0375087016
  0
LINE
  5
56E
100
AcDbEntity
  8
BEZUGSACHSEN
100
AcDbLine
 62
7
  6
CONTINUOUS
 10
137.639098468
 20
186.585114016
 11
137.6365314551
 21
186.5839537015
  0
LWPOLYLINE
  5
56F
100
AcDbEntity
  8
BEZUGSACHSEN
100
AcDbPolyline
 62
7
  6
CONTINUOUS
 90
4
 70
0
 10
137.6365312083
 20
186.5839542487
 10
137.32666281
 20
186.450567816
 10
136.9016529439
 20
186.2899970817
 10
136.4774898943
 20
186.156556857
  0
LINE
  5
570
100
AcDbEntity
  8
BEZUGSACHSEN
100
AcDbLine
 62
7
  6
CONTINUOUS
 10
236.5463716694
 20
228.1811356417
 11
237.3251853009
 21
228.4776022457
  0
LINE
  5
571
100
AcDbEntity
  8
BEZUGSACHSEN
100
AcDbLine
 62
7
  6
CONTINUOUS
 10
237.4170669484
 20
227.9434280337
 11
236.8329561677
 21
227.7210778686
  0
LINE
  5
572
100
AcDbEntity
  8
BEZUGSACHSEN
100
AcDbLine
 62
7
  6
CONTINUOUS
 10
236.0865207045
 20
226.7539561575
 11
235.5997602351
 21
226.5686637878
  0
LINE
  5
573
100
AcDbEntity
  8
BEZUGSACHSEN
100
AcDbLine
 62
7
  6
CONTINUOUS
 10
237.5737049324
 20
226.0679436076
 11
237.9631128622
 21
226.2161773337
  0
LINE
  5
574
100
AcDbEntity
  8
BEZUGSACHSEN
100
AcDbLine
 62
7
  6
CONTINUOUS
 10
238.1145001906
 20
225.8184849347
 11
237.7250922608
 21
225.6702512086
  0
LINE
  5
575
100
AcDbEntity
  8
BEZUGSACHSEN
100
AcDbLine
 62
7
  6
CONTINUOUS
 10
236.6432837361
 20
224.1201445198
 11
237.1300419773
 21
224.3054360413
  0
LINE
  5
576
100
AcDbEntity
  8
BEZUGSACHSEN
100
AcDbLine
 62
7
  6
CONTINUOUS
 10
221.2160821713
 20
227.0436486125
 11
220.7731919569
 21
226.8753376836
  0
LINE
  5
577
100
AcDbEntity
  8
0
100
AcDbLine
 62
7
  6
CONTINUOUS
 10
238.2175394419
 20
79.3511004973
 11
238.5852885097
 21
79.4387716491
  0
LINE
  5
578
100
AcDbEntity
  8
0
100
AcDbLine
 62
7
  6
CONTINUOUS
 10
237.4382875526
 20
83.7456159837
 11
237.8060366071
 21
83.8332871007
  0
LINE
  5
579
100
AcDbEntity
  8
0
100
AcDbLine
 62
7
  6
CONTINUOUS
 10
126.6486970578
 20
70.1050129226
 11
126.9793390626
 21
70.1631726813
  0
LINE
  5
57A
100
AcDbEntity
  8
0
100
AcDbLine
 62
7
  6
CONTINUOUS
 10
220.088733401
 20
80.3109198899
 11
220.4622802644
 21
80.3691292763
  0
LINE
  5
57B
100
AcDbEntity
  8
0
100
AcDbLine
 62
7
  6
CONTINUOUS
 10
237.7524400661
 20
79.3004871496
 11
238.2175394419
 21
79.3511004973
  0
LINE
  5
57C
100
AcDbEntity
  8
0
100
AcDbLine
 62
7
  6
CONTINUOUS
 10
238.1742239327
 20
79.8229093701
 11
237.9416742498
 21
79.7976027093
  0
LINE
  5
57D
100
AcDbEntity
  8
0
100
AcDbLine
 62
7
  6
CONTINUOUS
 10
237.8979182281
 20
84.367461243
 11
237.432816634
 21
84.3168487697
  0
LINE
  5
57E
100
AcDbEntity
  8
0
100
AcDbLine
 62
7
  6
CONTINUOUS
 10
150.2524400661
 20
79.3004871496
 11
150.7175394419
 21
79.3511004973
  0
LINE
  5
57F
100
AcDbEntity
  8
0
100
AcDbLine
 62
7
  6
CONTINUOUS
 10
150.6742239327
 20
79.8229093701
 11
150.4416742498
 21
79.7976027093
  0
LINE
  5
580
100
AcDbEntity
  8
0
100
AcDbLine
 62
7
  6
CONTINUOUS
 10
242.9114341194
 20
81.4561653443
 11
242.4672175243
 21
81.4094332796
  0
LINE
  5
581
100
AcDbEntity
  8
0
100
AcDbLine
 62
7
  6
CONTINUOUS
 10
154.5327578741
 20
76.7985544024
 11
154.9769744929
 21
76.8452864958
  0
LINE
  5
582
100
AcDbEntity
  8
0
100
AcDbLine
 62
7
  6
CONTINUOUS
 10
155.4114341194
 20
81.4561653443
 11
154.9672175243
 21
81.4094332796
  0
LINE
  5
583
100
AcDbEntity
  8
0
100
AcDbLine
 62
7
  6
CONTINUOUS
 10
130.7319911604
 20
72.4366951131
 11
130.3528488135
 21
72.3978358378
  0
LINE
  5
584
100
AcDbEntity
  8
0
100
AcDbLine
 62
7
  6
CONTINUOUS
 10
316.8390724664
 20
80.3922276269
 11
317.4640509575
 21
80.3974127717
  0
LINE
  5
585
100
AcDbEntity
  8
0
100
AcDbLine
 62
7
  6
CONTINUOUS
 10
318.9223333085
 20
80.4095114362
 11
319.7556395527
 21
80.4164249758
  0
LINE
  5
586
100
AcDbEntity
  8
0
100
AcDbLine
 62
7
  6
CONTINUOUS
 10
321.2139219037
 20
80.4285236403
 11
321.8389003948
 21
80.4337087851
  0
LINE
  5
587
100
AcDbEntity
  8
0
100
AcDbLine
 62
7
  6
CONTINUOUS
 10
229.3390724664
 20
80.3922276269
 11
229.9640509575
 21
80.3974127717
  0
LINE
  5
588
100
AcDbEntity
  8
0
100
AcDbLine
 62
7
  6
CONTINUOUS
 10
231.4223333085
 20
80.4095114362
 11
232.2556395527
 21
80.4164249758
  0
LINE
  5
589
100
AcDbEntity
  8
0
100
AcDbLine
 62
7
  6
CONTINUOUS
 10
233.7139219037
 20
80.4285236403
 11
234.3389003948
 21
80.4337087851
  0
LINE
  5
58A
100
AcDbEntity
  8
0
100
AcDbLine
 62
7
  6
CONTINUOUS
 10
141.8390724664
 20
80.3922276269
 11
142.4640509575
 21
80.3974127717
  0
LINE
  5
58B
100
AcDbEntity
  8
0
100
AcDbLine
 62
7
  6
CONTINUOUS
 10
143.9223333085
 20
80.4095114362
 11
144.7556395527
 21
80.4164249758
  0
LINE
  5
58C
100
AcDbEntity
  8
0
100
AcDbLine
 62
7
  6
CONTINUOUS
 10
146.2139219037
 20
80.4285236403
 11
146.8389003948
 21
80.4337087851
  0
LINE
  5
58D
100
AcDbEntity
  8
0
100
AcDbLine
 62
7
  6
CONTINUOUS
 10
321.7974192367
 20
85.4335367134
 11
320.8599515001
 21
85.4257589963
  0
LINE
  5
58E
100
AcDbEntity
  8
0
100
AcDbLine
 62
7
  6
CONTINUOUS
 10
317.7350590449
 20
85.3998332725
 11
316.7975913083
 21
85.3920555553
  0
LINE
  5
58F
100
AcDbEntity
  8
0
100
AcDbLine
 62
7
  6
CONTINUOUS
 10
234.2974192367
 20
85.4335367134
 11
233.3599515001
 21
85.4257589963
  0
LINE
  5
590
100
AcDbEntity
  8
0
100
AcDbLine
 62
7
  6
CONTINUOUS
 10
230.2350590449
 20
85.3998332725
 11
229.2975913083
 21
85.3920555553
  0
LINE
  5
591
100
AcDbEntity
  8
0
100
AcDbLine
 62
7
  6
CONTINUOUS
 10
146.7974192367
 20
85.4335367134
 11
145.8599515001
 21
85.4257589963
  0
LINE
  5
592
100
AcDbEntity
  8
0
100
AcDbLine
 62
7
  6
CONTINUOUS
 10
142.7350590449
 20
85.3998332725
 11
141.7975913083
 21
85.3920555553
  0
LINE
  5
593
100
AcDbEntity
  8
0
100
AcDbLine
 62
7
  6
CONTINUOUS
 10
332.7341898647
 20
89.4134500065
 11
306.176077482
 21
89.4134500065
  0
LINE
  5
594
100
AcDbEntity
  8
0
100
AcDbLine
 62
7
  6
CONTINUOUS
 10
245.2341898647
 20
89.4134500065
 11
218.676077482
 21
89.4134500065
  0
LINE
  5
595
100
AcDbEntity
  8
0
100
AcDbLine
 62
7
  6
CONTINUOUS
 10
157.7341898647
 20
89.4134500065
 11
131.176077482
 21
89.4134500065
  0
LINE
  5
596
100
AcDbEntity
  8
0
100
AcDbLine
 62
7
  6
CONTINUOUS
 10
151.2743046355
 20
81.9849111127
 11
150.6145001906
 21
82.0084150783
  0
LINE
  5
597
100
AcDbEntity
  8
0
100
AcDbLine
 62
7
  6
CONTINUOUS
 10
238.7743046355
 20
81.9849111127
 11
238.1145001906
 21
82.0084150783
  0
LINE
  5
598
100
AcDbEntity
  8
0
100
AcDbLine
 62
7
  6
CONTINUOUS
 10
326.2743046355
 20
81.9849111127
 11
325.6145001906
 21
82.0084150783
  0
LINE
  5
599
100
AcDbEntity
  8
0
100
AcDbLine
 62
7
  6
CONTINUOUS
 10
220.7731919569
 20
80.9515623293
 11
220.1782004214
 21
80.9775088147
  0
LINE
  5
59A
100
AcDbEntity
  8
0
100
AcDbLine
 62
7
  6
CONTINUOUS
 10
308.2731919569
 20
80.9515623293
 11
307.6782004214
 21
80.9775088147
  0
LINE
  5
59B
100
AcDbEntity
  8
0
100
AcDbLine
 62
7
  6
CONTINUOUS
 10
242.063194648
 20
77.3256286399
 11
241.6867856737
 21
77.3608689
  0
LINE
  5
59C
100
AcDbEntity
  8
0
100
AcDbLine
 62
7
  6
CONTINUOUS
 10
242.8809973692
 20
80.9290911355
 11
243.2574063435
 21
80.8938508754
  0
LINE
  5
59D
100
AcDbEntity
  8
0
100
AcDbLine
 62
7
  6
CONTINUOUS
 10
329.563194648
 20
77.3256286399
 11
329.1867856737
 21
77.3608689
  0
LINE
  5
59E
100
AcDbEntity
  8
0
100
AcDbLine
 62
7
  6
CONTINUOUS
 10
237.3251853009
 20
79.3492977673
 11
237.7524400661
 21
79.3004871496
  0
LINE
  5
59F
100
AcDbEntity
  8
0
100
AcDbLine
 62
7
  6
CONTINUOUS
 10
300.3658152691
 20
67.1311015611
 11
305.3159354023
 21
66.426608362
  0
LINE
  5
5A0
100
AcDbEntity
  8
0
100
AcDbLine
 62
7
  6
CONTINUOUS
 10
305.4039970521
 20
67.0453733786
 11
303.1922412166
 21
67.3601469401
  0
LINE
  5
5A1
100
AcDbEntity
  8
0
100
AcDbLine
 62
7
  6
CONTINUOUS
 10
302.5603110622
 20
67.4500822314
 11
300.980485381
 21
67.6749205016
  0
LINE
  5
5A2
100
AcDbEntity
  8
0
100
AcDbLine
 62
7
  6
CONTINUOUS
 10
241.4280127185
 20
76.8846117493
 11
242.0327578741
 21
76.7985544024
  0
LINE
  5
5A3
100
AcDbEntity
  8
0
100
AcDbLine
 62
7
  6
CONTINUOUS
 10
301.9793390626
 20
70.1631726813
 11
302.2953044349
 21
70.1182049937
  0
LINE
  5
5A4
100
AcDbEntity
  8
0
100
AcDbLine
 62
7
  6
CONTINUOUS
 10
302.4886877772
 20
70.7219807951
 11
302.0674007125
 21
70.781937698
  0
LINE
  5
5A5
100
AcDbEntity
  8
0
100
AcDbLine
 62
7
  6
CONTINUOUS
 10
243.5161810944
 20
81.3701064562
 11
242.9114341194
 21
81.4561653443
  0
LINE
  5
5A6
100
AcDbEntity
  8
0
100
AcDbLine
 62
7
  6
CONTINUOUS
 10
237.9416742498
 20
79.7976027093
 11
237.4170669484
 21
79.8834719793
  0
LINE
  5
5A7
100
AcDbEntity
  8
0
100
AcDbLine
 62
7
  6
CONTINUOUS
 10
237.8060366071
 20
83.8332871007
 11
238.3306416803
 21
83.747418679
  0
LINE
  5
5A8
100
AcDbEntity
  8
0
100
AcDbLine
 62
7
  6
CONTINUOUS
 10
238.6172283803
 20
84.2074755341
 11
237.8979182281
 21
84.367461243
  0
LINE
  5
5A9
100
AcDbEntity
  8
0
100
AcDbLine
 62
7
  6
CONTINUOUS
 10
220.4622802644
 20
80.3691292763
 11
220.8324736767
 21
80.2784871766
  0
LINE
  5
5AA
100
AcDbEntity
  8
0
100
AcDbLine
 62
7
  6
CONTINUOUS
 10
221.2160821713
 20
80.7832514005
 11
220.7731919569
 21
80.9515623293
  0
LINE
  5
5AB
100
AcDbEntity
  8
0
100
AcDbLine
 62
7
  6
CONTINUOUS
 10
236.5463716694
 20
79.6457643713
 11
237.3251853009
 21
79.3492977673
  0
LINE
  5
5AC
100
AcDbEntity
  8
0
100
AcDbLine
 62
7
  6
CONTINUOUS
 10
237.4170669484
 20
79.8834719793
 11
236.8329561677
 21
80.1058221443
  0
LINE
  5
5AD
100
AcDbEntity
  8
0
100
AcDbLine
 62
7
  6
CONTINUOUS
 10
236.0865207045
 20
81.0729438555
 11
235.5997602351
 21
81.2582362252
  0
LINE
  5
5AE
100
AcDbEntity
  8
0
100
AcDbLine
 62
7
  6
CONTINUOUS
 10
237.5737049324
 20
81.7589564054
 11
237.9631128622
 21
81.6107226793
  0
LINE
  5
5AF
100
AcDbEntity
  8
0
100
AcDbLine
 62
7
  6
CONTINUOUS
 10
238.1145001906
 20
82.0084150783
 11
237.7250922608
 21
82.1566488044
  0
LINE
  5
5B0
100
AcDbEntity
  8
0
100
AcDbLine
 62
7
  6
CONTINUOUS
 10
236.6432837361
 20
83.7067554931
 11
237.1300419773
 21
83.5214639716
  0
LINE
  5
5B1
100
AcDbEntity
  8
RUNDUNGEN
100
AcDbLine
 62
7
  6
CONTINUOUS
 10
137.6391707861
 20
121.2417533254
 11
137.6365314551
 21
121.2429463115
  0
LINE
  5
5B2
100
AcDbEntity
  8
0
100
AcDbLine
 62
7
  6
CONTINUOUS
 10
215.6419246023
 20
76.2339240367
 11
218.5729009079
 21
74.7221898586
  0
LINE
  5
5B3
100
AcDbEntity
  8
0
100
AcDbLine
 62
7
  6
CONTINUOUS
 10
218.8593989128
 20
75.2776571332
 11
215.9284226072
 21
76.7893913114
  0
LINE
  5
5B4
100
AcDbEntity
  8
0
100
AcDbLine
 62
7
  6
CONTINUOUS
 10
220.8324736767
 20
80.2784871766
 11
221.1993123602
 21
80.0389932114
  0
LINE
  5
5B5
100
AcDbEntity
  8
0
100
AcDbLine
 62
7
  6
CONTINUOUS
 10
221.6556180642
 20
80.466088171
 11
221.2160821713
 21
80.7832514005
  0
LINE
  5
5B6
100
AcDbEntity
  8
0
100
AcDbLine
 62
7
  6
CONTINUOUS
 10
219.284387204
 20
74.9412510173
 11
218.8593989128
 21
75.2776571332
  0
LINE
  5
5B7
100
AcDbEntity
  8
0
100
AcDbLine
 62
7
  6
CONTINUOUS
 10
218.5729009079
 20
74.7221898586
 11
218.9033415891
 21
74.4345493547
  0
LINE
  5
5B8
100
AcDbEntity
  8
0
100
AcDbLine
 62
7
  6
CONTINUOUS
 10
215.6672318714
 20
70.2045463759
 11
215.2899759268
 21
70.5738857451
  0
LINE
  5
5B9
100
AcDbEntity
  8
0
100
AcDbLine
 62
7
  6
CONTINUOUS
 10
215.0965925845
 20
69.9701099436
 11
215.277882072
 21
69.7338764093
  0
LINE
  5
5BA
100
AcDbEntity
  8
0
100
AcDbLine
 62
7
  6
CONTINUOUS
 10
205.3970212906
 20
66.4134500065
 11
218.676077482
 21
43.4134500065
  0
LINE
  5
5BB
100
AcDbEntity
  8
BEZUGSACHSEN
100
AcDbLine
 62
7
  6
CONTINUOUS
 10
135.4999685566
 20
230.4738903377
 11
135.6587780386
 21
230.0338225223
  0
LINE
  5
5BC
100
AcDbEntity
  8
BEZUGSACHSEN
100
AcDbLine
 62
7
  6
CONTINUOUS
 10
125.8967682833
 20
237.7200899884
 11
125.7180618687
 21
238.2207383854
  0
LINE
  5
5BD
100
AcDbEntity
  8
BEZUGSACHSEN
100
AcDbLine
 62
7
  6
CONTINUOUS
 10
132.1081660336
 20
234.810738983
 11
132.2523666617
 21
234.2990841477
  0
LINE
  5
5BE
100
AcDbEntity
  8
BEZUGSACHSEN
100
AcDbLine
 62
7
  6
CONTINUOUS
 10
151.7558122475
 20
227.5050723793
 11
151.8098493176
 21
227.0703220456
  0
LINE
  5
5BF
100
AcDbEntity
  8
BEZUGSACHSEN
100
AcDbLine
 62
7
  6
CONTINUOUS
 10
152.4532455693
 20
225.3801290713
 11
152.5072803582
 21
224.9453780288
  0
LINE
  5
5C0
100
AcDbEntity
  8
BEZUGSACHSEN
100
AcDbLine
 62
7
  6
CONTINUOUS
 10
153.278960794
 20
229.4389513483
 11
153.3647494802
 21
228.6815384756
  0
LINE
  5
5C1
100
AcDbEntity
  8
BEZUGSACHSEN
100
AcDbLine
 62
7
  6
CONTINUOUS
 10
156.6652312233
 20
227.9601289023
 11
156.5794442317
 21
228.7175434668
  0
LINE
  5
5C2
100
AcDbEntity
  8
0
100
AcDbLine
 62
7
  6
CONTINUOUS
 10
152.8402676952
 20
79.165024949
 11
152.7295657076
 21
78.7043461592
  0
LINE
  5
5C3
100
AcDbEntity
  8
0
100
AcDbLine
 62
7
  6
CONTINUOUS
 10
157.1039243696
 20
79.0896948838
 11
157.2146263097
 21
79.5503736162
  0
LINE
  5
5C4
100
AcDbEntity
  8
0
100
AcDbLine
 62
7
  6
CONTINUOUS
 10
145.8599515001
 20
85.4257589963
 11
144.3345735413
 21
80.9448648052
  0
LINE
  5
5C5
100
AcDbEntity
  8
0
100
AcDbLine
 62
7
  6
CONTINUOUS
 10
144.7556395527
 20
80.4164249758
 11
146.1812665229
 21
84.3645585192
  0
LINE
  5
5C6
100
AcDbEntity
  8
0
100
AcDbLine
 62
7
  6
CONTINUOUS
 10
150.2250922608
 20
82.1566488044
 11
150.0737049324
 21
81.7589564054
  0
LINE
  5
5C7
100
AcDbEntity
  8
0
100
AcDbLine
 62
7
  6
CONTINUOUS
 10
126.2593472583
 20
69.634342956
 11
126.4086997757
 21
69.9287362491
  0
LINE
  5
5C8
100
AcDbEntity
  8
0
100
AcDbLine
 62
7
  6
CONTINUOUS
 10
128.4284226072
 20
76.7893913114
 11
128.1419246023
 21
76.2339240367
  0
LINE
  5
5C9
100
AcDbEntity
  8
0
100
AcDbLine
 62
7
  6
CONTINUOUS
 10
126.9959325828
 20
74.0120549382
 11
126.7094344413
 21
73.4565873986
  0
LINE
  5
5CA
100
AcDbEntity
  8
0
100
AcDbLine
 62
7
  6
CONTINUOUS
 10
131.5408803077
 20
73.3087547364
 11
131.3498815467
 21
72.9384430434
  0
LINE
  5
5CB
100
AcDbEntity
  8
0
100
AcDbLine
 62
7
  6
CONTINUOUS
 10
131.9171672726
 20
72.645849337
 11
132.1081660336
 21
73.01616103
  0
LINE
  5
5CC
100
AcDbEntity
  8
0
100
AcDbLine
 62
7
  6
CONTINUOUS
 10
131.176077482
 20
89.4134500065
 11
117.8970212906
 21
66.4134500065
  0
LINE
  5
5CD
100
AcDbEntity
  8
BEZUGSACHSEN
100
AcDbLine
 62
7
  6
CONTINUOUS
 10
222.1401790971
 20
241.4134500065
 11
227.0476563852
 21
249.9134500065
  0
LINE
  5
5CE
100
AcDbEntity
  8
BEZUGSACHSEN
100
AcDbLine
 62
7
  6
CONTINUOUS
 10
219.5670784661
 20
233.2658670596
 11
219.284387204
 21
232.8856489957
  0
LINE
  5
5CF
100
AcDbEntity
  8
BEZUGSACHSEN
100
AcDbLine
 62
7
  6
CONTINUOUS
 10
217.4504280325
 20
228.965406336
 11
220.8671877095
 21
232.6158519676
  0
LINE
  5
5D0
100
AcDbEntity
  8
BEZUGSACHSEN
100
AcDbLine
 62
7
  6
CONTINUOUS
 10
220.8873113281
 20
231.7227426732
 11
218.3429157709
 21
229.0043256568
  0
LINE
  5
5D1
100
AcDbEntity
  8
BEZUGSACHSEN
100
AcDbLine
 62
7
  6
CONTINUOUS
 10
221.1993123602
 20
227.7879068016
 11
222.2897675481
 21
228.9529426114
  0
LINE
  5
5D2
100
AcDbEntity
  8
BEZUGSACHSEN
100
AcDbLine
 62
7
  6
CONTINUOUS
 10
222.7460732521
 20
228.5258476518
 11
221.6556180642
 21
227.360811842
  0
LINE
  5
5D3
100
AcDbEntity
  8
BEZUGSACHSEN
100
AcDbLine
 62
7
  6
CONTINUOUS
 10
236.194810575
 20
227.9334788071
 11
236.5463716694
 21
228.1811356417
  0
LINE
  5
5D4
100
AcDbEntity
  8
BEZUGSACHSEN
100
AcDbLine
 62
7
  6
CONTINUOUS
 10
236.8329561677
 20
227.7210778686
 11
236.3840447586
 21
227.4363632474
  0
LINE
  5
5D5
100
AcDbEntity
  8
BEZUGSACHSEN
100
AcDbLine
 62
7
  6
CONTINUOUS
 10
238.7200496102
 20
224.2277150602
 11
239.1689610192
 21
224.5124296814
  0
LINE
  5
5D6
100
AcDbEntity
  8
BEZUGSACHSEN
100
AcDbLine
 62
7
  6
CONTINUOUS
 10
237.9631128622
 20
226.2161773337
 11
238.5093768108
 21
226.5379505985
  0
LINE
  5
5D7
100
AcDbEntity
  8
BEZUGSACHSEN
100
AcDbLine
 62
7
  6
CONTINUOUS
 10
240.8786176261
 20
230.6258907764
 11
241.4280127185
 21
230.9422882637
  0
LINE
  5
5D8
100
AcDbEntity
  8
BEZUGSACHSEN
100
AcDbLine
 62
7
  6
CONTINUOUS
 10
244.0655761807
 20
226.7731910513
 11
243.5161810944
 21
226.4567935568
  0
LINE
  5
5D9
100
AcDbEntity
  8
BEZUGSACHSEN
100
AcDbLine
 62
7
  6
CONTINUOUS
 10
239.4555477192
 20
224.0523728262
 11
238.8119312312
 21
223.6935409178
  0
LINE
  5
5DA
100
AcDbEntity
  8
BEZUGSACHSEN
100
AcDbLine
 62
7
  6
CONTINUOUS
 10
241.6867856737
 20
230.466031113
 11
241.2176557773
 21
230.2160290949
  0
LINE
  5
5DB
100
AcDbEntity
  8
BEZUGSACHSEN
100
AcDbLine
 62
7
  6
CONTINUOUS
 10
243.2574063435
 20
226.9330491376
 11
243.726538077
 21
227.1830526753
  0
LINE
  5
5DC
100
AcDbEntity
  8
BEZUGSACHSEN
100
AcDbLine
 62
7
  6
CONTINUOUS
 10
238.3306416803
 20
224.079481334
 11
238.7200496102
 21
224.2277150602
  0
LINE
  5
5DD
100
AcDbEntity
  8
BEZUGSACHSEN
100
AcDbLine
 62
7
  6
CONTINUOUS
 10
238.8119312312
 20
223.6935409178
 11
238.6172283803
 21
223.6194244789
  0
LINE
  5
5DE
100
AcDbEntity
  8
BEZUGSACHSEN
100
AcDbLine
 62
7
  6
CONTINUOUS
 10
304.6404107469
 20
235.8820467925
 11
305.1608985552
 21
236.033296797
  0
LWPOLYLINE
  5
5DF
100
AcDbEntity
  8
RUNDUNGEN
100
AcDbPolyline
 62
7
  6
CONTINUOUS
 90
3
 70
0
 10
327.4238246251
 20
121.6678112793
 10
327.8478836674
 20
121.7738660073
 10
328.2724387502
 20
121.8508833538
  0
LINE
  5
5E0
100
AcDbEntity
  8
0
100
AcDbLine
 62
7
  6
CONTINUOUS
 10
150.7175394419
 20
79.3511004973
 11
151.0852885097
 21
79.4387716491
  0
LINE
  5
5E1
100
AcDbEntity
  8
0
100
AcDbLine
 62
7
  6
CONTINUOUS
 10
130.8736591989
 20
70.3454535658
 11
128.3191675037
 21
69.7620580327
  0
LINE
  5
5E2
100
AcDbEntity
  8
0
100
AcDbLine
 62
7
  6
CONTINUOUS
 10
128.4417492176
 20
69.1133144381
 11
130.7709205793
 21
69.6235608496
  0
LINE
  5
5E3
100
AcDbEntity
  8
0
100
AcDbLine
 62
7
  6
CONTINUOUS
 10
127.0674007125
 20
70.781937698
 11
126.7367587077
 21
70.7237779392
  0
LINE
  5
5E4
100
AcDbEntity
  8
0
100
AcDbLine
 62
7
  6
CONTINUOUS
 10
132.588733401
 20
80.3109198899
 11
132.9622802644
 21
80.3691292763
  0
LINE
  5
5E5
100
AcDbEntity
  8
0
100
AcDbLine
 62
7
  6
CONTINUOUS
 10
150.3979182281
 20
84.367461243
 11
149.932816634
 21
84.3168487697
  0
LINE
  5
5E6
100
AcDbEntity
  8
0
100
AcDbLine
 62
7
  6
CONTINUOUS
 10
330.3809973692
 20
80.9290911355
 11
330.7574063435
 21
80.8938508754
  0
LINE
  5
5E7
100
AcDbEntity
  8
0
100
AcDbLine
 62
7
  6
CONTINUOUS
 10
324.8251853009
 20
79.3492977673
 11
325.2524400661
 21
79.3004871496
  0
LINE
  5
5E8
100
AcDbEntity
  8
0
100
AcDbLine
 62
7
  6
CONTINUOUS
 10
328.9280127185
 20
76.8846117493
 11
329.5327578741
 21
76.7985544024
  0
LINE
  5
5E9
100
AcDbEntity
  8
0
100
AcDbLine
 62
7
  6
CONTINUOUS
 10
331.0161810944
 20
81.3701064562
 11
330.4114341194
 21
81.4561653443
  0
LINE
  5
5EA
100
AcDbEntity
  8
0
100
AcDbLine
 62
7
  6
CONTINUOUS
 10
325.4416742498
 20
79.7976027093
 11
324.9170669484
 21
79.8834719793
  0
LINE
  5
5EB
100
AcDbEntity
  8
0
100
AcDbLine
 62
7
  6
CONTINUOUS
 10
325.3060366071
 20
83.8332871007
 11
325.8306416803
 21
83.747418679
  0
LINE
  5
5EC
100
AcDbEntity
  8
0
100
AcDbLine
 62
7
  6
CONTINUOUS
 10
305.3528488135
 20
72.3978358378
 11
304.9269088884
 21
72.50032076
  0
LINE
  5
5ED
100
AcDbEntity
  8
0
100
AcDbLine
 62
7
  6
CONTINUOUS
 10
307.9622802644
 20
80.3691292763
 11
308.3324736767
 21
80.2784871766
  0
LINE
  5
5EE
100
AcDbEntity
  8
0
100
AcDbLine
 62
7
  6
CONTINUOUS
 10
304.6404107469
 20
71.9448532205
 11
305.1608985552
 21
71.793603216
  0
LWPOLYLINE
  5
5EF
100
AcDbEntity
  8
RUNDUNGEN
100
AcDbPolyline
 62
7
  6
CONTINUOUS
 90
4
 70
0
 10
136.4774898943
 20
121.670343156
 10
136.9016529439
 20
121.5369029313
 10
137.32666281
 20
121.376332197
 10
137.6365312083
 20
121.2429457643
  0
LINE
  5
5F0
100
AcDbEntity
  8
0
100
AcDbLine
 62
7
  6
CONTINUOUS
 10
238.3306416803
 20
83.747418679
 11
238.7200496102
 21
83.5991849528
  0
LINE
  5
5F1
100
AcDbEntity
  8
0
100
AcDbLine
 62
7
  6
CONTINUOUS
 10
238.8119312312
 20
84.1333590952
 11
238.6172283803
 21
84.2074755341
  0
LINE
  5
5F2
100
AcDbEntity
  8
0
100
AcDbLine
 62
7
  6
CONTINUOUS
 10
241.6867856737
 20
77.3608689
 11
241.2176557773
 21
77.6108709181
  0
LINE
  5
5F3
100
AcDbEntity
  8
0
100
AcDbLine
 62
7
  6
CONTINUOUS
 10
243.2574063435
 20
80.8938508754
 11
243.726538077
 21
80.6438473377
  0
LINE
  5
5F4
100
AcDbEntity
  8
0
100
AcDbLine
 62
7
  6
CONTINUOUS
 10
239.4555477192
 20
83.7745271868
 11
238.8119312312
 21
84.1333590952
  0
LINE
  5
5F5
100
AcDbEntity
  8
0
100
AcDbLine
 62
7
  6
CONTINUOUS
 10
240.8786176261
 20
77.2010092366
 11
241.4280127185
 21
76.8846117493
  0
LINE
  5
5F6
100
AcDbEntity
  8
0
100
AcDbLine
 62
7
  6
CONTINUOUS
 10
244.0655761807
 20
81.0537089617
 11
243.5161810944
 21
81.3701064562
  0
LINE
  5
5F7
100
AcDbEntity
  8
0
100
AcDbLine
 62
7
  6
CONTINUOUS
 10
237.9631128622
 20
81.6107226793
 11
238.5093768108
 21
81.2889494145
  0
LINE
  5
5F8
100
AcDbEntity
  8
0
100
AcDbLine
 62
7
  6
CONTINUOUS
 10
236.8329561677
 20
80.1058221443
 11
236.3840447586
 21
80.3905367656
  0
LINE
  5
5F9
100
AcDbEntity
  8
0
100
AcDbLine
 62
7
  6
CONTINUOUS
 10
238.7200496102
 20
83.5991849528
 11
239.1689610192
 21
83.3144703316
  0
LINE
  5
5FA
100
AcDbEntity
  8
0
100
AcDbLine
 62
7
  6
CONTINUOUS
 10
236.194810575
 20
79.8934212059
 11
236.5463716694
 21
79.6457643713
  0
LINE
  5
5FB
100
AcDbEntity
  8
0
100
AcDbLine
 62
7
  6
CONTINUOUS
 10
217.4504280325
 20
78.861493677
 11
220.8671877095
 21
75.2110480454
  0
LINE
  5
5FC
100
AcDbEntity
  8
0
100
AcDbLine
 62
7
  6
CONTINUOUS
 10
220.8873113281
 20
76.1041573398
 11
218.3429157709
 21
78.8225743562
  0
LINE
  5
5FD
100
AcDbEntity
  8
0
100
AcDbLine
 62
7
  6
CONTINUOUS
 10
221.1993123602
 20
80.0389932114
 11
222.2897675481
 21
78.8739574016
  0
LINE
  5
5FE
100
AcDbEntity
  8
0
100
AcDbLine
 62
7
  6
CONTINUOUS
 10
222.7460732521
 20
79.3010523612
 11
221.6556180642
 21
80.466088171
  0
LINE
  5
5FF
100
AcDbEntity
  8
0
100
AcDbLine
 62
7
  6
CONTINUOUS
 10
219.5670784661
 20
74.5610329534
 11
219.284387204
 21
74.9412510173
  0
LINE
  5
600
100
AcDbEntity
  8
BEZUGSACHSEN
100
AcDbLine
 62
7
  6
CONTINUOUS
 10
131.176077482
 20
218.4134500065
 11
117.8970212906
 21
241.4134500065
  0
LINE
  5
601
100
AcDbEntity
  8
0
100
AcDbLine
 62
7
  6
CONTINUOUS
 10
222.1401790971
 20
66.4134500065
 11
227.0476563852
 21
57.9134500065
  0
LINE
  5
602
100
AcDbEntity
  8
BEZUGSACHSEN
100
AcDbLine
 62
7
  6
CONTINUOUS
 10
128.4284226072
 20
231.0375087016
 11
128.1419246023
 21
231.5929759763
  0
LINE
  5
603
100
AcDbEntity
  8
BEZUGSACHSEN
100
AcDbLine
 62
7
  6
CONTINUOUS
 10
126.9959325828
 20
233.8148450748
 11
126.7094344413
 21
234.3703126144
  0
LINE
  5
604
100
AcDbEntity
  8
BEZUGSACHSEN
100
AcDbLine
 62
7
  6
CONTINUOUS
 10
131.5408803077
 20
234.5181452766
 11
131.3498815467
 21
234.8884569696
  0
LINE
  5
605
100
AcDbEntity
  8
BEZUGSACHSEN
100
AcDbLine
 62
7
  6
CONTINUOUS
 10
131.9171672726
 20
235.181050676
 11
132.1081660336
 21
234.810738983
  0
LINE
  5
606
100
AcDbEntity
  8
BEZUGSACHSEN
100
AcDbLine
 62
7
  6
CONTINUOUS
 10
126.2593472583
 20
238.192557057
 11
126.4086997757
 21
237.8981637639
  0
LINE
  5
607
100
AcDbEntity
  8
BEZUGSACHSEN
100
AcDbLine
 62
7
  6
CONTINUOUS
 10
150.2250922608
 20
225.6702512086
 11
150.0737049324
 21
226.0679436076
  0
LINE
  5
608
100
AcDbEntity
  8
BEZUGSACHSEN
100
AcDbLine
 62
7
  6
CONTINUOUS
 10
144.7556395527
 20
227.4104750372
 11
146.1812665229
 21
223.4623414938
  0
LINE
  5
609
100
AcDbEntity
  8
BEZUGSACHSEN
100
AcDbLine
 62
7
  6
CONTINUOUS
 10
145.8599515001
 20
222.4011410167
 11
144.3345735413
 21
226.8820352078
  0
LINE
  5
60A
100
AcDbEntity
  8
BEZUGSACHSEN
100
AcDbLine
 62
7
  6
CONTINUOUS
 10
152.8402676952
 20
228.6618750639
 11
152.7295657076
 21
229.1225538538
  0
LINE
  5
60B
100
AcDbEntity
  8
BEZUGSACHSEN
100
AcDbLine
 62
7
  6
CONTINUOUS
 10
157.1039243696
 20
228.7372051292
 11
157.2146263097
 21
228.2765263968
  0
LINE
  5
60C
100
AcDbEntity
  8
BEZUGSACHSEN
100
AcDbLine
 62
7
  6
CONTINUOUS
 10
215.8191675037
 20
238.0648419803
 11
215.6672318714
 21
237.6223536371
  0
LINE
  5
60D
100
AcDbEntity
  8
0
100
AcDbLine
 62
7
  6
CONTINUOUS
 10
151.9664850999
 20
82.6320633113
 11
151.8907913297
 21
82.4332168333
  0
LINE
  5
60E
100
AcDbEntity
  8
0
100
AcDbLine
 62
7
  6
CONTINUOUS
 10
151.2690540064
 20
80.5071191552
 11
151.117666678
 21
80.1094267562
  0
LINE
  5
60F
100
AcDbEntity
  8
0
100
AcDbLine
 62
7
  6
CONTINUOUS
 10
152.3775517991
 20
82.2479244636
 11
152.4532455693
 21
82.4467709416
  0
LINE
  5
610
100
AcDbEntity
  8
0
100
AcDbLine
 62
7
  6
CONTINUOUS
 10
151.6044249191
 20
79.9241352347
 11
151.7558122475
 21
80.3218276337
  0
LINE
  5
611
100
AcDbEntity
  8
0
100
AcDbLine
 62
7
  6
CONTINUOUS
 10
152.9634253674
 20
79.4773373999
 11
152.8402676952
 21
79.165024949
  0
LINE
  5
612
100
AcDbEntity
  8
0
100
AcDbLine
 62
7
  6
CONTINUOUS
 10
156.9807665074
 20
78.7773822033
 11
157.1039243696
 21
79.0896948838
  0
LINE
  5
613
100
AcDbEntity
  8
BEZUGSACHSEN
100
AcDbLine
 62
7
  6
CONTINUOUS
 10
222.2897675481
 20
228.9529426114
 11
222.5045049106
 21
229.3348010201
  0
LINE
  5
614
100
AcDbEntity
  8
BEZUGSACHSEN
100
AcDbLine
 62
7
  6
CONTINUOUS
 10
218.9033415891
 20
233.3923506583
 11
219.0914851751
 21
233.723803076
  0
LINE
  5
615
100
AcDbEntity
  8
0
100
AcDbLine
 62
7
  6
CONTINUOUS
 10
139.5476563852
 20
74.9134500065
 11
134.6401790971
 21
66.4134500065
  0
LINE
  5
616
100
AcDbEntity
  8
BEZUGSACHSEN
100
AcDbLine
 62
7
  6
CONTINUOUS
 10
223.0335076202
 20
228.9853751072
 11
222.7460732521
 21
228.5258476518
  0
LINE
  5
617
100
AcDbEntity
  8
0
100
AcDbLine
 62
7
  6
CONTINUOUS
 10
134.9877349468
 20
77.7478409669
 11
134.75622844
 21
77.3854422187
  0
LINE
  5
618
100
AcDbEntity
  8
BEZUGSACHSEN
100
AcDbLine
 62
7
  6
CONTINUOUS
 10
235.6647346064
 20
227.2763775385
 11
235.8810963193
 21
227.5863988554
  0
LINE
  5
619
100
AcDbEntity
  8
BEZUGSACHSEN
100
AcDbLine
 62
7
  6
CONTINUOUS
 10
241.2176557773
 20
230.2160290949
 11
240.8841392853
 21
229.8020809076
  0
LINE
  5
61A
100
AcDbEntity
  8
BEZUGSACHSEN
100
AcDbLine
 62
7
  6
CONTINUOUS
 10
240.4648377872
 20
230.145548625
 11
240.8786176261
 21
230.6258907764
  0
LINE
  5
61B
100
AcDbEntity
  8
BEZUGSACHSEN
100
AcDbLine
 62
7
  6
CONTINUOUS
 10
244.4793560256
 20
227.2535331954
 11
244.0655761807
 21
226.7731910513
  0
LINE
  5
61C
100
AcDbEntity
  8
BEZUGSACHSEN
100
AcDbLine
 62
7
  6
CONTINUOUS
 10
235.8810963193
 20
227.5863988554
 11
236.194810575
 21
227.9334788071
  0
LINE
  5
61D
100
AcDbEntity
  8
BEZUGSACHSEN
100
AcDbLine
 62
7
  6
CONTINUOUS
 10
236.3840447586
 20
227.4363632474
 11
236.2271887399
 21
227.2628237087
  0
LINE
  5
61E
100
AcDbEntity
  8
BEZUGSACHSEN
100
AcDbLine
 62
7
  6
CONTINUOUS
 10
239.7692597567
 20
224.3994519036
 11
239.4555477192
 21
224.0523728262
  0
LINE
  5
61F
100
AcDbEntity
  8
BEZUGSACHSEN
100
AcDbLine
 62
7
  6
CONTINUOUS
 10
239.2286847349
 20
226.6979354592
 11
238.8176201579
 21
226.3137977382
  0
LINE
  5
620
100
AcDbEntity
  8
BEZUGSACHSEN
100
AcDbLine
 62
7
  6
CONTINUOUS
 10
301.7094344413
 20
234.3703126144
 11
304.6404107469
 21
235.8820467925
  0
LINE
  5
621
100
AcDbEntity
  8
BEZUGSACHSEN
100
AcDbLine
 62
7
  6
CONTINUOUS
 10
304.9269088884
 20
235.326579253
 11
301.9959325828
 21
233.8148450748
  0
LINE
  5
622
100
AcDbEntity
  8
BEZUGSACHSEN
100
AcDbLine
 62
7
  6
CONTINUOUS
 10
302.2953044349
 20
237.7086950193
 11
302.5965925845
 21
237.8567900694
  0
LINE
  5
623
100
AcDbEntity
  8
BEZUGSACHSEN
100
AcDbLine
 62
7
  6
CONTINUOUS
 10
302.7899759268
 20
237.2530142679
 11
302.4886877772
 21
237.1049192179
  0
LINE
  5
624
100
AcDbEntity
  8
BEZUGSACHSEN
100
AcDbLine
 62
7
  6
CONTINUOUS
 10
308.7160821713
 20
227.0436486125
 11
308.2731919569
 21
226.8753376836
  0
LINE
  5
625
100
AcDbEntity
  8
0
100
AcDbLine
 62
7
  6
CONTINUOUS
 10
149.9382875526
 20
83.7456159837
 11
150.3060366071
 21
83.8332871007
  0
LINE
  5
626
100
AcDbEntity
  8
RUNDUNGEN
100
AcDbLine
 62
7
  6
CONTINUOUS
 10
328.2724387502
 20
121.8508833538
 11
328.610146366
 21
121.890598211
  0
LWPOLYLINE
  5
627
100
AcDbEntity
  8
RUNDUNGEN
100
AcDbPolyline
 62
7
  6
CONTINUOUS
 90
38
 70
0
 10
328.6018177759
 20
121.8898632634
 10
328.6316219443
 20
121.8925274651
 10
328.8424112095
 20
121.913148018
 10
329.0803350589
 20
121.9407388355
 10
329.3428245511
 20
121.9773523888
 10
329.6343294216
 20
122.026406423
 10
329.9437135973
 20
122.0887544001
 10
330.2572522691
 20
122.1632336117
 10
330.5756470217
 20
122.2509440502
 10
330.8924687448
 20
122.3507499563
 10
331.2110780257
 20
122.4642184467
 10
331.5328717057
 20
122.5927325875
 10
331.8556619906
 20
122.7363729614
 10
332.178266038
 20
122.8954756639
 10
332.4987274588
 20
123.0698543574
 10
332.814810454
 20
123.2588934982
 10
333.1263478677
 20
123.4630449214
 10
333.4326151689
 20
123.6824655003
 10
333.7328170383
 20
123.9172562469
 10
334.0261342553
 20
124.1674881992
 10
334.3117131859
 20
124.4331913364
 10
334.5886706574
 20
124.7143542981
 10
334.8560915486
 20
125.0109172023
 10
335.1130354594
 20
125.3227733042
 10
335.3585299266
 20
125.6497547377
 10
335.591582324
 20
125.9916396499
 10
335.8111761541
 20
126.3481398252
 10
336.0162768495
 20
126.7188993657
 10
336.2058449665
 20
127.1035107501
 10
336.3788269583
 20
127.5014916182
 10
336.5341610693
 20
127.9122836446
 10
336.6707825592
 20
128.335250892
 10
336.7876275883
 20
128.7696735286
 10
336.883639508
 20
129.214747129
 10
336.9577743574
 20
129.6695789322
 10
337.0090071536
 20
130.1331853268
 10
337.0363385709
 20
130.6044890855
 10
337.0408611613
 20
130.8897998641
  0
LINE
  5
628
100
AcDbEntity
  8
RUNDUNGEN
100
AcDbLine
 62
7
  6
CONTINUOUS
 10
135.3000789481
 20
121.8906019468
 11
135.6296269466
 21
121.8520765124
  0
LWPOLYLINE
  5
629
100
AcDbEntity
  8
RUNDUNGEN
100
AcDbPolyline
 62
7
  6
CONTINUOUS
 90
3
 70
0
 10
135.6296269466
 20
121.8520765124
 10
136.0538510925
 20
121.7757050829
 10
136.4774898943
 20
121.670343156
  0
LINE
  5
62A
100
AcDbEntity
  8
0
100
AcDbLine
 62
7
  6
CONTINUOUS
 10
326.1172283803
 20
84.2074755341
 11
325.3979182281
 21
84.367461243
  0
LINE
  5
62B
100
AcDbEntity
  8
0
100
AcDbLine
 62
7
  6
CONTINUOUS
 10
308.7160821713
 20
80.7832514005
 11
308.2731919569
 21
80.9515623293
  0
LINE
  5
62C
100
AcDbEntity
  8
0
100
AcDbLine
 62
7
  6
CONTINUOUS
 10
302.2953044349
 20
70.1182049937
 11
302.5965925845
 21
69.9701099436
  0
LINE
  5
62D
100
AcDbEntity
  8
0
100
AcDbLine
 62
7
  6
CONTINUOUS
 10
302.7899759268
 20
70.5738857451
 11
302.4886877772
 21
70.7219807951
  0
LINE
  5
62E
100
AcDbEntity
  8
0
100
AcDbLine
 62
7
  6
CONTINUOUS
 10
301.7094344413
 20
73.4565873986
 11
304.6404107469
 21
71.9448532205
  0
LINE
  5
62F
100
AcDbEntity
  8
0
100
AcDbLine
 62
7
  6
CONTINUOUS
 10
304.9269088884
 20
72.50032076
 11
301.9959325828
 21
74.0120549382
  0
LINE
  5
630
100
AcDbEntity
  8
0
100
AcDbLine
 62
7
  6
CONTINUOUS
 10
239.2286847349
 20
81.1289645538
 11
238.8176201579
 21
81.5131022748
  0
LINE
  5
631
100
AcDbEntity
  8
0
100
AcDbLine
 62
7
  6
CONTINUOUS
 10
235.8810963193
 20
80.2405011576
 11
236.194810575
 21
79.8934212059
  0
LINE
  5
632
100
AcDbEntity
  8
0
100
AcDbLine
 62
7
  6
CONTINUOUS
 10
236.3840447586
 20
80.3905367656
 11
236.2271887399
 21
80.5640763043
  0
LINE
  5
633
100
AcDbEntity
  8
0
100
AcDbLine
 62
7
  6
CONTINUOUS
 10
239.7692597567
 20
83.4274481093
 11
239.4555477192
 21
83.7745271868
  0
LINE
  5
634
100
AcDbEntity
  8
0
100
AcDbLine
 62
7
  6
CONTINUOUS
 10
240.4648377872
 20
77.6813513879
 11
240.8786176261
 21
77.2010092366
  0
LINE
  5
635
100
AcDbEntity
  8
0
100
AcDbLine
 62
7
  6
CONTINUOUS
 10
244.4793560256
 20
80.5733668176
 11
244.0655761807
 21
81.0537089617
  0
LINE
  5
636
100
AcDbEntity
  8
0
100
AcDbLine
 62
7
  6
CONTINUOUS
 10
241.2176557773
 20
77.6108709181
 11
240.8841392853
 21
78.0248191054
  0
LINE
  5
637
100
AcDbEntity
  8
0
100
AcDbLine
 62
7
  6
CONTINUOUS
 10
235.6647346064
 20
80.5505224745
 11
235.8810963193
 21
80.2405011576
  0
LINE
  5
638
100
AcDbEntity
  8
BEZUGSACHSEN
100
AcDbLine
 62
7
  6
CONTINUOUS
 10
134.9877349468
 20
230.079059046
 11
134.75622844
 21
230.4414577943
  0
LINE
  5
639
100
AcDbEntity
  8
0
100
AcDbLine
 62
7
  6
CONTINUOUS
 10
223.0335076202
 20
78.8415249058
 11
222.7460732521
 21
79.3010523612
  0
LINE
  5
63A
100
AcDbEntity
  8
BEZUGSACHSEN
100
AcDbLine
 62
7
  6
CONTINUOUS
 10
139.5476563852
 20
232.9134500065
 11
134.6401790971
 21
241.4134500065
  0
LINE
  5
63B
100
AcDbEntity
  8
0
100
AcDbLine
 62
7
  6
CONTINUOUS
 10
218.9033415891
 20
74.4345493547
 11
219.0914851751
 21
74.103096937
  0
LINE
  5
63C
100
AcDbEntity
  8
0
100
AcDbLine
 62
7
  6
CONTINUOUS
 10
222.2897675481
 20
78.8739574016
 11
222.5045049106
 21
78.4920989929
  0
LINE
  5
63D
100
AcDbEntity
  8
BEZUGSACHSEN
100
AcDbLine
 62
7
  6
CONTINUOUS
 10
152.9634253674
 20
228.3495626131
 11
152.8402676952
 21
228.6618750639
  0
LINE
  5
63E
100
AcDbEntity
  8
BEZUGSACHSEN
100
AcDbLine
 62
7
  6
CONTINUOUS
 10
156.9807665074
 20
229.0495178097
 11
157.1039243696
 21
228.7372051292
  0
LINE
  5
63F
100
AcDbEntity
  8
BEZUGSACHSEN
100
AcDbLine
 62
7
  6
CONTINUOUS
 10
151.9664850999
 20
225.1948367016
 11
151.8907913297
 21
225.3936831797
  0
LINE
  5
640
100
AcDbEntity
  8
BEZUGSACHSEN
100
AcDbLine
 62
7
  6
CONTINUOUS
 10
151.2690540064
 20
227.3197808578
 11
151.117666678
 21
227.7174732568
  0
LINE
  5
641
100
AcDbEntity
  8
BEZUGSACHSEN
100
AcDbLine
 62
7
  6
CONTINUOUS
 10
152.3775517991
 20
225.5789755494
 11
152.4532455693
 21
225.3801290713
  0
LINE
  5
642
100
AcDbEntity
  8
BEZUGSACHSEN
100
AcDbLine
 62
7
  6
CONTINUOUS
 10
151.6044249191
 20
227.9027647783
 11
151.7558122475
 21
227.5050723793
  0
LINE
  5
643
100
AcDbEntity
  8
0
100
AcDbLine
 62
7
  6
CONTINUOUS
 10
215.8191675037
 20
69.7620580327
 11
215.6672318714
 21
70.2045463759
  0
LINE
  5
644
100
AcDbEntity
  8
BEZUGSACHSEN
100
AcDbLine
 62
7
  6
CONTINUOUS
 10
215.277882072
 20
238.0930236037
 11
215.3391729395
 21
238.4173953272
  0
LINE
  5
645
100
AcDbEntity
  8
BEZUGSACHSEN
100
AcDbLine
 62
7
  6
CONTINUOUS
 10
223.1721935027
 20
229.4384166066
 11
223.0335076202
 21
228.9853751072
  0
LINE
  5
646
100
AcDbEntity
  8
BEZUGSACHSEN
100
AcDbLine
 62
7
  6
CONTINUOUS
 10
219.754270178
 20
233.8312412178
 11
219.5670784661
 21
233.2658670596
  0
LINE
  5
647
100
AcDbEntity
  8
BEZUGSACHSEN
100
AcDbLine
 62
7
  6
CONTINUOUS
 10
231.8345735413
 20
226.8820352078
 11
230.2350590449
 21
222.4270667405
  0
LINE
  5
648
100
AcDbEntity
  8
BEZUGSACHSEN
100
AcDbLine
 62
7
  6
CONTINUOUS
 10
229.9313955766
 20
223.4934523623
 11
231.4223333085
 21
227.4173885768
  0
LINE
  5
649
100
AcDbEntity
  8
BEZUGSACHSEN
100
AcDbLine
 62
7
  6
CONTINUOUS
 10
236.2271887399
 20
227.2628237087
 11
236.1081773516
 21
226.9898601524
  0
LINE
  5
64A
100
AcDbEntity
  8
0
100
AcDbLine
 62
7
  6
CONTINUOUS
 10
153.2222002132
 20
79.9535930955
 11
152.9634253674
 21
79.4773373999
  0
LINE
  5
64B
100
AcDbEntity
  8
0
100
AcDbLine
 62
7
  6
CONTINUOUS
 10
156.7219935937
 20
78.3011251028
 11
156.9807665074
 21
78.7773822033
  0
LINE
  5
64C
100
AcDbEntity
  8
BEZUGSACHSEN
100
AcDbLine
 62
7
  6
CONTINUOUS
 10
241.7700882496
 20
241.4134500065
 11
236.8626109614
 21
232.9134500065
  0
LINE
  5
64D
100
AcDbEntity
  8
0
100
AcDbLine
 62
7
  6
CONTINUOUS
 10
153.3647494802
 20
79.1453615374
 11
153.6913301096
 21
79.7035910774
  0
LINE
  5
64E
100
AcDbEntity
  8
0
100
AcDbLine
 62
7
  6
CONTINUOUS
 10
156.5794442317
 20
79.1093565462
 11
156.2528618601
 21
78.5511286406
  0
LINE
  5
64F
100
AcDbEntity
  8
0
100
AcDbLine
 62
7
  6
CONTINUOUS
 10
149.392023604
 20
84.0673892486
 11
149.1432837361
 21
83.7067554931
  0
LINE
  5
650
100
AcDbEntity
  8
0
100
AcDbLine
 62
7
  6
CONTINUOUS
 10
152.1288119312
 20
81.8872907082
 11
152.3775517991
 21
82.2479244636
  0
LINE
  5
651
100
AcDbEntity
  8
BEZUGSACHSEN
100
AcDbLine
 62
7
  6
CONTINUOUS
 10
238.5093768108
 20
226.5379505985
 11
238.7257385369
 21
226.8479718806
  0
LINE
  5
652
100
AcDbEntity
  8
BEZUGSACHSEN
100
AcDbLine
 62
7
  6
CONTINUOUS
 10
239.1689610192
 20
224.5124296814
 11
239.3853227454
 21
224.8224509634
  0
LINE
  5
653
100
AcDbEntity
  8
0
100
AcDbLine
 62
7
  6
CONTINUOUS
 10
135.1924105253
 20
76.9194278839
 11
135.4999685566
 21
77.3530096753
  0
LINE
  5
654
100
AcDbEntity
  8
0
100
AcDbLine
 62
7
  6
CONTINUOUS
 10
131.583871408
 20
72.2317257343
 11
131.9171672726
 21
72.645849337
  0
LINE
  5
655
100
AcDbEntity
  8
BEZUGSACHSEN
100
AcDbLine
 62
7
  6
CONTINUOUS
 10
243.726538077
 20
227.1830526753
 11
244.060052732
 21
227.596999343
  0
LINE
  5
656
100
AcDbEntity
  8
BEZUGSACHSEN
100
AcDbLine
 62
7
  6
CONTINUOUS
 10
303.1419246023
 20
231.5929759763
 11
306.0729009079
 21
233.1047101544
  0
LINE
  5
657
100
AcDbEntity
  8
BEZUGSACHSEN
100
AcDbLine
 62
7
  6
CONTINUOUS
 10
306.3593989128
 20
232.5492428798
 11
303.4284226072
 21
231.0375087016
  0
LINE
  5
658
100
AcDbEntity
  8
BEZUGSACHSEN
100
AcDbLine
 62
7
  6
CONTINUOUS
 10
324.0463716694
 20
228.1811356417
 11
324.8251853009
 21
228.4776022457
  0
LINE
  5
659
100
AcDbEntity
  8
BEZUGSACHSEN
100
AcDbLine
 62
7
  6
CONTINUOUS
 10
324.9170669484
 20
227.9434280337
 11
324.3329561677
 21
227.7210778686
  0
LINE
  5
65A
100
AcDbEntity
  8
BEZUGSACHSEN
100
AcDbLine
 62
7
  6
CONTINUOUS
 10
323.5865207045
 20
226.7539561575
 11
323.0997602351
 21
226.5686637878
  0
LINE
  5
65B
100
AcDbEntity
  8
BEZUGSACHSEN
100
AcDbLine
 62
7
  6
CONTINUOUS
 10
325.0737049324
 20
226.0679436076
 11
325.4631128622
 21
226.2161773337
  0
LINE
  5
65C
100
AcDbEntity
  8
BEZUGSACHSEN
100
AcDbLine
 62
7
  6
CONTINUOUS
 10
325.6145001906
 20
225.8184849347
 11
325.2250922608
 21
225.6702512086
  0
LINE
  5
65D
100
AcDbEntity
  8
BEZUGSACHSEN
100
AcDbLine
 62
7
  6
CONTINUOUS
 10
324.1432837361
 20
224.1201445198
 11
324.6300419773
 21
224.3054360413
  0
LINE
  5
65E
100
AcDbEntity
  8
BEZUGSACHSEN
100
AcDbLine
 62
7
  6
CONTINUOUS
 10
325.8306416803
 20
224.079481334
 11
326.2200496102
 21
224.2277150602
  0
LINE
  5
65F
100
AcDbEntity
  8
BEZUGSACHSEN
100
AcDbLine
 62
7
  6
CONTINUOUS
 10
326.3119312312
 20
223.6935409178
 11
326.1172283803
 21
223.6194244789
  0
LINE
  5
660
100
AcDbEntity
  8
RUNDUNGEN
100
AcDbLine
 62
7
  6
CONTINUOUS
 10
327.4524973566
 20
121.9134500065
 11
136.4577699901
 21
121.9134500065
  0
LINE
  5
661
100
AcDbEntity
  8
0
100
AcDbLine
 62
7
  6
CONTINUOUS
 10
324.0463716694
 20
79.6457643713
 11
324.8251853009
 21
79.3492977673
  0
LINE
  5
662
100
AcDbEntity
  8
0
100
AcDbLine
 62
7
  6
CONTINUOUS
 10
324.9170669484
 20
79.8834719793
 11
324.3329561677
 21
80.1058221443
  0
LINE
  5
663
100
AcDbEntity
  8
0
100
AcDbLine
 62
7
  6
CONTINUOUS
 10
323.5865207045
 20
81.0729438555
 11
323.0997602351
 21
81.2582362252
  0
LINE
  5
664
100
AcDbEntity
  8
0
100
AcDbLine
 62
7
  6
CONTINUOUS
 10
325.0737049324
 20
81.7589564054
 11
325.4631128622
 21
81.6107226793
  0
LINE
  5
665
100
AcDbEntity
  8
0
100
AcDbLine
 62
7
  6
CONTINUOUS
 10
325.6145001906
 20
82.0084150783
 11
325.2250922608
 21
82.1566488044
  0
LINE
  5
666
100
AcDbEntity
  8
0
100
AcDbLine
 62
7
  6
CONTINUOUS
 10
324.1432837361
 20
83.7067554931
 11
324.6300419773
 21
83.5214639716
  0
LINE
  5
667
100
AcDbEntity
  8
0
100
AcDbLine
 62
7
  6
CONTINUOUS
 10
325.8306416803
 20
83.747418679
 11
326.2200496102
 21
83.5991849528
  0
LINE
  5
668
100
AcDbEntity
  8
0
100
AcDbLine
 62
7
  6
CONTINUOUS
 10
326.3119312312
 20
84.1333590952
 11
326.1172283803
 21
84.2074755341
  0
LINE
  5
669
100
AcDbEntity
  8
0
100
AcDbLine
 62
7
  6
CONTINUOUS
 10
303.1419246023
 20
76.2339240367
 11
306.0729009079
 21
74.7221898586
  0
LINE
  5
66A
100
AcDbEntity
  8
0
100
AcDbLine
 62
7
  6
CONTINUOUS
 10
306.3593989128
 20
75.2776571332
 11
303.4284226072
 21
76.7893913114
  0
LINE
  5
66B
100
AcDbEntity
  8
0
100
AcDbLine
 62
7
  6
CONTINUOUS
 10
243.726538077
 20
80.6438473377
 11
244.060052732
 21
80.22990067
  0
LINE
  5
66C
100
AcDbEntity
  8
BEZUGSACHSEN
100
AcDbLine
 62
7
  6
CONTINUOUS
 10
131.583871408
 20
235.5951742787
 11
131.9171672726
 21
235.181050676
  0
LINE
  5
66D
100
AcDbEntity
  8
BEZUGSACHSEN
100
AcDbLine
 62
7
  6
CONTINUOUS
 10
135.1924105253
 20
230.9074721291
 11
135.4999685566
 21
230.4738903377
  0
LINE
  5
66E
100
AcDbEntity
  8
0
100
AcDbLine
 62
7
  6
CONTINUOUS
 10
238.5093768108
 20
81.2889494145
 11
238.7257385369
 21
80.9789281324
  0
LINE
  5
66F
100
AcDbEntity
  8
0
100
AcDbLine
 62
7
  6
CONTINUOUS
 10
239.1689610192
 20
83.3144703316
 11
239.3853227454
 21
83.0044490496
  0
LINE
  5
670
100
AcDbEntity
  8
BEZUGSACHSEN
100
AcDbLine
 62
7
  6
CONTINUOUS
 10
149.392023604
 20
223.7595107644
 11
149.1432837361
 21
224.1201445198
  0
LINE
  5
671
100
AcDbEntity
  8
BEZUGSACHSEN
100
AcDbLine
 62
7
  6
CONTINUOUS
 10
152.1288119312
 20
225.9396093048
 11
152.3775517991
 21
225.5789755494
  0
LINE
  5
672
100
AcDbEntity
  8
BEZUGSACHSEN
100
AcDbLine
 62
7
  6
CONTINUOUS
 10
153.3647494802
 20
228.6815384756
 11
153.6913301096
 21
228.1233089356
  0
LINE
  5
673
100
AcDbEntity
  8
BEZUGSACHSEN
100
AcDbLine
 62
7
  6
CONTINUOUS
 10
156.5794442317
 20
228.7175434668
 11
156.2528618601
 21
229.2757713724
  0
LINE
  5
674
100
AcDbEntity
  8
0
100
AcDbLine
 62
7
  6
CONTINUOUS
 10
241.7700882496
 20
66.4134500065
 11
236.8626109614
 21
74.9134500065
  0
LINE
  5
675
100
AcDbEntity
  8
BEZUGSACHSEN
100
AcDbLine
 62
7
  6
CONTINUOUS
 10
153.2222002132
 20
227.8733069175
 11
152.9634253674
 21
228.3495626131
  0
LINE
  5
676
100
AcDbEntity
  8
BEZUGSACHSEN
100
AcDbLine
 62
7
  6
CONTINUOUS
 10
156.7219935937
 20
229.5257749102
 11
156.9807665074
 21
229.0495178097
  0
LINE
  5
677
100
AcDbEntity
  8
0
100
AcDbLine
 62
7
  6
CONTINUOUS
 10
236.2271887399
 20
80.5640763043
 11
236.1081773516
 21
80.8370398606
  0
LINE
  5
678
100
AcDbEntity
  8
0
100
AcDbLine
 62
7
  6
CONTINUOUS
 10
229.9313955766
 20
84.3334476506
 11
231.4223333085
 21
80.4095114362
  0
LINE
  5
679
100
AcDbEntity
  8
0
100
AcDbLine
 62
7
  6
CONTINUOUS
 10
231.8345735413
 20
80.9448648052
 11
230.2350590449
 21
85.3998332725
  0
LINE
  5
67A
100
AcDbEntity
  8
0
100
AcDbLine
 62
7
  6
CONTINUOUS
 10
219.754270178
 20
73.9956587951
 11
219.5670784661
 21
74.5610329534
  0
LINE
  5
67B
100
AcDbEntity
  8
0
100
AcDbLine
 62
7
  6
CONTINUOUS
 10
223.1721935027
 20
78.3884834064
 11
223.0335076202
 21
78.8415249058
  0
LINE
  5
67C
100
AcDbEntity
  8
0
100
AcDbLine
 62
7
  6
CONTINUOUS
 10
215.277882072
 20
69.7338764093
 11
215.3391729395
 21
69.4095046858
  0
LINE
  5
67D
100
AcDbEntity
  8
BEZUGSACHSEN
100
AcDbLine
 62
7
  6
CONTINUOUS
 10
219.7523666617
 20
234.2990841477
 11
219.754270178
 21
233.8312412178
  0
LINE
  5
67E
100
AcDbEntity
  8
0
100
AcDbLine
 62
7
  6
CONTINUOUS
 10
219.7523666617
 20
73.5278158653
 11
219.754270178
 21
73.9956587951
  0
LINE
  5
67F
100
AcDbEntity
  8
BEZUGSACHSEN
100
AcDbLine
 62
7
  6
CONTINUOUS
 10
219.0914851751
 20
233.723803076
 11
219.1373314587
 21
234.0990679716
  0
LINE
  5
680
100
AcDbEntity
  8
BEZUGSACHSEN
100
AcDbLine
 62
7
  6
CONTINUOUS
 10
222.5045049106
 20
229.3348010201
 11
222.5704937363
 21
229.7101734184
  0
LINE
  5
681
100
AcDbEntity
  8
BEZUGSACHSEN
100
AcDbLine
 62
7
  6
CONTINUOUS
 10
235.5835722518
 20
226.9039918003
 11
235.6647346064
 21
227.2763775385
  0
LINE
  5
682
100
AcDbEntity
  8
BEZUGSACHSEN
100
AcDbLine
 62
7
  6
CONTINUOUS
 10
240.8841392853
 20
229.8020809076
 11
240.778960794
 21
229.4389513483
  0
LINE
  5
683
100
AcDbEntity
  8
BEZUGSACHSEN
100
AcDbLine
 62
7
  6
CONTINUOUS
 10
240.2669365544
 20
229.5676557666
 11
240.4648377872
 21
230.145548625
  0
LINE
  5
684
100
AcDbEntity
  8
BEZUGSACHSEN
100
AcDbLine
 62
7
  6
CONTINUOUS
 10
244.6772554391
 20
227.8314245127
 11
244.4793560256
 21
227.2535331954
  0
LINE
  5
685
100
AcDbEntity
  8
BEZUGSACHSEN
100
AcDbLine
 62
7
  6
CONTINUOUS
 10
240.0072803582
 20
224.9453780288
 11
239.7692597567
 21
224.3994519036
  0
LINE
  5
686
100
AcDbEntity
  8
0
100
AcDbLine
 62
7
  6
CONTINUOUS
 10
149.3626109614
 20
57.9134500065
 11
154.2700882496
 21
66.4134500065
  0
LINE
  5
687
100
AcDbEntity
  8
BEZUGSACHSEN
100
AcDbLine
 62
7
  6
CONTINUOUS
 10
258.5132460561
 20
241.4134500065
 11
245.2341898647
 21
218.4134500065
  0
LINE
  5
688
100
AcDbEntity
  8
0
100
AcDbLine
 62
7
  6
CONTINUOUS
 10
151.393534085
 20
79.6629236612
 11
151.6044249191
 21
79.9241352347
  0
LINE
  5
689
100
AcDbEntity
  8
0
100
AcDbLine
 62
7
  6
CONTINUOUS
 10
153.8324687999
 20
80.6913440188
 11
153.2222002132
 21
79.9535930955
  0
LINE
  5
68A
100
AcDbEntity
  8
0
100
AcDbLine
 62
7
  6
CONTINUOUS
 10
153.6913301096
 20
79.7035910774
 11
154.1659834548
 21
80.2773973511
  0
LINE
  5
68B
100
AcDbEntity
  8
0
100
AcDbLine
 62
7
  6
CONTINUOUS
 10
131.3498815467
 20
72.9384430434
 11
131.064335449
 21
72.6168974921
  0
LINE
  5
68C
100
AcDbEntity
  8
0
100
AcDbLine
 62
7
  6
CONTINUOUS
 10
126.2714411131
 20
70.4743522917
 11
125.8967682833
 21
70.1068100246
  0
LINE
  5
68D
100
AcDbEntity
  8
0
100
AcDbLine
 62
7
  6
CONTINUOUS
 10
131.7756508483
 20
80.5698735155
 11
129.9504280325
 21
78.861493677
  0
LINE
  5
68E
100
AcDbEntity
  8
0
100
AcDbLine
 62
7
  6
CONTINUOUS
 10
130.8429157709
 20
78.8225743562
 11
132.2118328827
 21
80.1038592351
  0
LINE
  5
68F
100
AcDbEntity
  8
BEZUGSACHSEN
100
AcDbLine
 62
7
  6
CONTINUOUS
 10
306.784387204
 20
232.8856489957
 11
306.3593989128
 21
232.5492428798
  0
LINE
  5
690
100
AcDbEntity
  8
BEZUGSACHSEN
100
AcDbLine
 62
7
  6
CONTINUOUS
 10
309.1556180642
 20
227.360811842
 11
308.7160821713
 21
227.0436486125
  0
LINE
  5
691
100
AcDbEntity
  8
BEZUGSACHSEN
100
AcDbLine
 62
7
  6
CONTINUOUS
 10
308.3324736767
 20
227.5484128364
 11
308.6993123602
 21
227.7879068016
  0
LINE
  5
692
100
AcDbEntity
  8
BEZUGSACHSEN
100
AcDbLine
 62
7
  6
CONTINUOUS
 10
324.3329561677
 20
227.7210778686
 11
323.8840447586
 21
227.4363632474
  0
LINE
  5
693
100
AcDbEntity
  8
BEZUGSACHSEN
100
AcDbLine
 62
7
  6
CONTINUOUS
 10
325.4631128622
 20
226.2161773337
 11
326.0093768108
 21
226.5379505985
  0
LINE
  5
694
100
AcDbEntity
  8
BEZUGSACHSEN
100
AcDbLine
 62
7
  6
CONTINUOUS
 10
328.3786176261
 20
230.6258907764
 11
328.9280127185
 21
230.9422882637
  0
LINE
  5
695
100
AcDbEntity
  8
BEZUGSACHSEN
100
AcDbLine
 62
7
  6
CONTINUOUS
 10
331.5655761807
 20
226.7731910513
 11
331.0161810944
 21
226.4567935568
  0
LINE
  5
696
100
AcDbEntity
  8
BEZUGSACHSEN
100
AcDbLine
 62
7
  6
CONTINUOUS
 10
326.9555477192
 20
224.0523728262
 11
326.3119312312
 21
223.6935409178
  0
LINE
  5
697
100
AcDbEntity
  8
BEZUGSACHSEN
100
AcDbLine
 62
7
  6
CONTINUOUS
 10
329.1867856737
 20
230.466031113
 11
328.7176557773
 21
230.2160290949
  0
LINE
  5
698
100
AcDbEntity
  8
BEZUGSACHSEN
100
AcDbLine
 62
7
  6
CONTINUOUS
 10
330.7574063435
 20
226.9330491376
 11
331.226538077
 21
227.1830526753
  0
LINE
  5
699
100
AcDbEntity
  8
0
100
AcDbLine
 62
7
  6
CONTINUOUS
 10
374.5091860036
 20
135.9134500065
 11
345.5063437949
 21
135.9134500065
  0
LINE
  5
69A
100
AcDbEntity
  8
0
100
AcDbLine
 62
7
  6
CONTINUOUS
 10
120.9460650107
 20
135.9134500065
 11
89.8920750409
 21
135.9134500065
  0
LINE
  5
69B
100
AcDbEntity
  8
RUNDUNGEN
100
AcDbLine
 62
7
  6
CONTINUOUS
 10
383.9551336733
 20
137.9134500065
 11
79.9551336733
 21
137.9134500065
  0
LINE
  5
69C
100
AcDbEntity
  8
0
100
AcDbLine
 62
7
  6
CONTINUOUS
 10
329.1867856737
 20
77.3608689
 11
328.7176557773
 21
77.6108709181
  0
LINE
  5
69D
100
AcDbEntity
  8
0
100
AcDbLine
 62
7
  6
CONTINUOUS
 10
330.7574063435
 20
80.8938508754
 11
331.226538077
 21
80.6438473377
  0
LINE
  5
69E
100
AcDbEntity
  8
0
100
AcDbLine
 62
7
  6
CONTINUOUS
 10
326.9555477192
 20
83.7745271868
 11
326.3119312312
 21
84.1333590952
  0
LINE
  5
69F
100
AcDbEntity
  8
0
100
AcDbLine
 62
7
  6
CONTINUOUS
 10
328.3786176261
 20
77.2010092366
 11
328.9280127185
 21
76.8846117493
  0
LINE
  5
6A0
100
AcDbEntity
  8
0
100
AcDbLine
 62
7
  6
CONTINUOUS
 10
331.5655761807
 20
81.0537089617
 11
331.0161810944
 21
81.3701064562
  0
LINE
  5
6A1
100
AcDbEntity
  8
0
100
AcDbLine
 62
7
  6
CONTINUOUS
 10
325.4631128622
 20
81.6107226793
 11
326.0093768108
 21
81.2889494145
  0
LINE
  5
6A2
100
AcDbEntity
  8
0
100
AcDbLine
 62
7
  6
CONTINUOUS
 10
324.3329561677
 20
80.1058221443
 11
323.8840447586
 21
80.3905367656
  0
LINE
  5
6A3
100
AcDbEntity
  8
0
100
AcDbLine
 62
7
  6
CONTINUOUS
 10
308.3324736767
 20
80.2784871766
 11
308.6993123602
 21
80.0389932114
  0
LINE
  5
6A4
100
AcDbEntity
  8
0
100
AcDbLine
 62
7
  6
CONTINUOUS
 10
309.1556180642
 20
80.466088171
 11
308.7160821713
 21
80.7832514005
  0
LINE
  5
6A5
100
AcDbEntity
  8
0
100
AcDbLine
 62
7
  6
CONTINUOUS
 10
306.784387204
 20
74.9412510173
 11
306.3593989128
 21
75.2776571332
  0
LINE
  5
6A6
100
AcDbEntity
  8
BEZUGSACHSEN
100
AcDbLine
 62
7
  6
CONTINUOUS
 10
131.7756508483
 20
227.2570264975
 11
129.9504280325
 21
228.965406336
  0
LINE
  5
6A7
100
AcDbEntity
  8
BEZUGSACHSEN
100
AcDbLine
 62
7
  6
CONTINUOUS
 10
130.8429157709
 20
229.0043256568
 11
132.2118328827
 21
227.7230407779
  0
LINE
  5
6A8
100
AcDbEntity
  8
BEZUGSACHSEN
100
AcDbLine
 62
7
  6
CONTINUOUS
 10
126.2714411131
 20
237.3525477213
 11
125.8967682833
 21
237.7200899884
  0
LINE
  5
6A9
100
AcDbEntity
  8
BEZUGSACHSEN
100
AcDbLine
 62
7
  6
CONTINUOUS
 10
131.3498815467
 20
234.8884569696
 11
131.064335449
 21
235.2100025209
  0
LINE
  5
6AA
100
AcDbEntity
  8
BEZUGSACHSEN
100
AcDbLine
 62
7
  6
CONTINUOUS
 10
153.8324687999
 20
227.1355559942
 11
153.2222002132
 21
227.8733069175
  0
LINE
  5
6AB
100
AcDbEntity
  8
BEZUGSACHSEN
100
AcDbLine
 62
7
  6
CONTINUOUS
 10
153.6913301096
 20
228.1233089356
 11
154.1659834548
 21
227.5495026619
  0
LINE
  5
6AC
100
AcDbEntity
  8
BEZUGSACHSEN
100
AcDbLine
 62
7
  6
CONTINUOUS
 10
151.393534085
 20
228.1639763518
 11
151.6044249191
 21
227.9027647783
  0
LINE
  5
6AD
100
AcDbEntity
  8
BEZUGSACHSEN
100
AcDbLine
 62
7
  6
CONTINUOUS
 10
149.3626109614
 20
249.9134500065
 11
154.2700882496
 21
241.4134500065
  0
LINE
  5
6AE
100
AcDbEntity
  8
0
100
AcDbLine
 62
7
  6
CONTINUOUS
 10
258.5132460561
 20
66.4134500065
 11
245.2341898647
 21
89.4134500065
  0
LINE
  5
6AF
100
AcDbEntity
  8
0
100
AcDbLine
 62
7
  6
CONTINUOUS
 10
240.0072803582
 20
82.8815219842
 11
239.7692597567
 21
83.4274481093
  0
LINE
  5
6B0
100
AcDbEntity
  8
0
100
AcDbLine
 62
7
  6
CONTINUOUS
 10
240.2669365544
 20
78.2592442464
 11
240.4648377872
 21
77.6813513879
  0
LINE
  5
6B1
100
AcDbEntity
  8
0
100
AcDbLine
 62
7
  6
CONTINUOUS
 10
244.6772554391
 20
79.9954755003
 11
244.4793560256
 21
80.5733668176
  0
LINE
  5
6B2
100
AcDbEntity
  8
0
100
AcDbLine
 62
7
  6
CONTINUOUS
 10
240.8841392853
 20
78.0248191054
 11
240.778960794
 21
78.3879486647
  0
LINE
  5
6B3
100
AcDbEntity
  8
0
100
AcDbLine
 62
7
  6
CONTINUOUS
 10
235.5835722518
 20
80.9229082127
 11
235.6647346064
 21
80.5505224745
  0
LINE
  5
6B4
100
AcDbEntity
  8
0
100
AcDbLine
 62
7
  6
CONTINUOUS
 10
222.5045049106
 20
78.4920989929
 11
222.5704937363
 21
78.1167265946
  0
LINE
  5
6B5
100
AcDbEntity
  8
0
100
AcDbLine
 62
7
  6
CONTINUOUS
 10
219.0914851751
 20
74.103096937
 11
219.1373314587
 21
73.7278320414
  0
LINE
  5
6B6
100
AcDbEntity
  8
0
100
AcDbLine
 62
7
  6
CONTINUOUS
 10
236.1081773516
 20
80.8370398606
 11
236.0865207045
 21
81.0729438555
  0
LINE
  5
6B7
100
AcDbEntity
  8
0
100
AcDbLine
 62
7
  6
CONTINUOUS
 10
238.7257385369
 20
80.9789281324
 11
238.7690540064
 21
80.5071191552
  0
LINE
  5
6B8
100
AcDbEntity
  8
BEZUGSACHSEN
100
AcDbLine
 62
7
  6
CONTINUOUS
 10
223.1587780386
 20
230.0338225223
 11
223.1721935027
 21
229.4384166066
  0
LINE
  5
6B9
100
AcDbEntity
  8
0
100
AcDbLine
 62
7
  6
CONTINUOUS
 10
229.2975913083
 20
85.3920555553
 11
229.3390724664
 21
80.3922276269
  0
LINE
  5
6BA
100
AcDbEntity
  8
0
100
AcDbLine
 62
7
  6
CONTINUOUS
 10
229.9640509575
 20
80.3974127717
 11
229.9313955766
 21
84.3334476506
  0
LINE
  5
6BB
100
AcDbEntity
  8
0
100
AcDbLine
 62
7
  6
CONTINUOUS
 10
233.6812665229
 20
84.3645585192
 11
233.7139219037
 21
80.4285236403
  0
LINE
  5
6BC
100
AcDbEntity
  8
BEZUGSACHSEN
100
AcDbLine
 62
7
  6
CONTINUOUS
 10
229.2975913083
 20
222.4348444577
 11
229.3390724664
 21
227.4346723861
  0
LINE
  5
6BD
100
AcDbEntity
  8
BEZUGSACHSEN
100
AcDbLine
 62
7
  6
CONTINUOUS
 10
229.9640509575
 20
227.4294872413
 11
229.9313955766
 21
223.4934523623
  0
LINE
  5
6BE
100
AcDbEntity
  8
BEZUGSACHSEN
100
AcDbLine
 62
7
  6
CONTINUOUS
 10
233.6812665229
 20
223.4623414938
 11
233.7139219037
 21
227.3983763727
  0
LINE
  5
6BF
100
AcDbEntity
  8
0
100
AcDbLine
 62
7
  6
CONTINUOUS
 10
223.1587780386
 20
77.7930774907
 11
223.1721935027
 21
78.3884834064
  0
LINE
  5
6C0
100
AcDbEntity
  8
BEZUGSACHSEN
100
AcDbLine
 62
7
  6
CONTINUOUS
 10
236.1081773516
 20
226.9898601524
 11
236.0865207045
 21
226.7539561575
  0
LINE
  5
6C1
100
AcDbEntity
  8
BEZUGSACHSEN
100
AcDbLine
 62
7
  6
CONTINUOUS
 10
238.7257385369
 20
226.8479718806
 11
238.7690540064
 21
227.3197808578
  0
LINE
  5
6C2
100
AcDbEntity
  8
0
100
AcDbLine
 62
7
  6
CONTINUOUS
 10
213.2180618687
 20
69.6061616276
 11
212.8658152691
 21
67.1311015611
  0
LINE
  5
6C3
100
AcDbEntity
  8
0
100
AcDbLine
 62
7
  6
CONTINUOUS
 10
213.480485381
 20
67.6749205016
 11
213.7593472583
 21
69.634342956
  0
LINE
  5
6C4
100
AcDbEntity
  8
0
100
AcDbLine
 62
7
  6
CONTINUOUS
 10
215.3391729395
 20
69.4095046858
 11
215.0603110622
 21
67.4500822314
  0
LINE
  5
6C5
100
AcDbEntity
  8
0
100
AcDbLine
 62
7
  6
CONTINUOUS
 10
215.6922412166
 20
67.3601469401
 11
215.9417492176
 21
69.1133144381
  0
LINE
  5
6C6
100
AcDbEntity
  8
0
100
AcDbLine
 62
7
  6
CONTINUOUS
 10
217.8159354023
 20
66.426608362
 11
217.9039970521
 21
67.0453733786
  0
LINE
  5
6C7
100
AcDbEntity
  8
0
100
AcDbLine
 62
7
  6
CONTINUOUS
 10
218.2709205793
 20
69.6235608496
 11
218.3736591989
 21
70.3454535658
  0
LINE
  5
6C8
100
AcDbEntity
  8
BEZUGSACHSEN
100
AcDbLine
 62
7
  6
CONTINUOUS
 10
239.3098493176
 20
227.0703220456
 11
239.2286847349
 21
226.6979354592
  0
LINE
  5
6C9
100
AcDbEntity
  8
BEZUGSACHSEN
100
AcDbLine
 62
7
  6
CONTINUOUS
 10
239.3853227454
 20
224.8224509634
 11
239.4664850999
 21
225.1948367016
  0
LINE
  5
6CA
100
AcDbEntity
  8
BEZUGSACHSEN
100
AcDbLine
 62
7
  6
CONTINUOUS
 10
244.060052732
 20
227.596999343
 11
244.1652312233
 21
227.9601289023
  0
LINE
  5
6CB
100
AcDbEntity
  8
0
100
AcDbLine
 62
7
  6
CONTINUOUS
 10
157.7341898647
 20
43.4134500065
 11
171.0132460561
 21
66.4134500065
  0
LINE
  5
6CC
100
AcDbEntity
  8
0
100
AcDbLine
 62
7
  6
CONTINUOUS
 10
156.2528618601
 20
78.5511286406
 11
155.778208515
 21
77.9773223669
  0
LINE
  5
6CD
100
AcDbEntity
  8
0
100
AcDbLine
 62
7
  6
CONTINUOUS
 10
156.111725007
 20
77.5633741796
 11
156.7219935937
 21
78.3011251028
  0
LINE
  5
6CE
100
AcDbEntity
  8
BEZUGSACHSEN
100
AcDbLine
 62
7
  6
CONTINUOUS
 10
303.1672318714
 20
237.6223536371
 11
302.7899759268
 21
237.2530142679
  0
LINE
  5
6CF
100
AcDbEntity
  8
0
100
AcDbLine
 62
7
  6
CONTINUOUS
 10
134.75622844
 20
77.3854422187
 11
133.3873113281
 21
76.1041573398
  0
LINE
  5
6D0
100
AcDbEntity
  8
0
100
AcDbLine
 62
7
  6
CONTINUOUS
 10
133.3671877095
 20
75.2110480454
 11
135.1924105253
 21
76.9194278839
  0
LINE
  5
6D1
100
AcDbEntity
  8
0
100
AcDbLine
 62
7
  6
CONTINUOUS
 10
151.8907913297
 20
82.4332168333
 11
151.5447011505
 21
82.1096408733
  0
LINE
  5
6D2
100
AcDbEntity
  8
0
100
AcDbLine
 62
7
  6
CONTINUOUS
 10
151.117666678
 20
80.1094267562
 11
150.9446204743
 21
79.9476392003
  0
LINE
  5
6D3
100
AcDbEntity
  8
BEZUGSACHSEN
100
AcDbLine
 62
7
  6
CONTINUOUS
 10
306.0729009079
 20
233.1047101544
 11
306.4033415891
 21
233.3923506583
  0
LINE
  5
6D4
100
AcDbEntity
  8
BEZUGSACHSEN
100
AcDbLine
 62
7
  6
CONTINUOUS
 10
323.694810575
 20
227.9334788071
 11
324.0463716694
 21
228.1811356417
  0
LINE
  5
6D5
100
AcDbEntity
  8
BEZUGSACHSEN
100
AcDbLine
 62
7
  6
CONTINUOUS
 10
326.2200496102
 20
224.2277150602
 11
326.6689610192
 21
224.5124296814
  0
LINE
  5
6D6
100
AcDbEntity
  8
0
100
AcDbLine
 62
7
  6
CONTINUOUS
 10
326.2200496102
 20
83.5991849528
 11
326.6689610192
 21
83.3144703316
  0
LINE
  5
6D7
100
AcDbEntity
  8
0
100
AcDbLine
 62
7
  6
CONTINUOUS
 10
323.694810575
 20
79.8934212059
 11
324.0463716694
 21
79.6457643713
  0
LINE
  5
6D8
100
AcDbEntity
  8
0
100
AcDbLine
 62
7
  6
CONTINUOUS
 10
306.0729009079
 20
74.7221898586
 11
306.4033415891
 21
74.4345493547
  0
LINE
  5
6D9
100
AcDbEntity
  8
BEZUGSACHSEN
100
AcDbLine
 62
7
  6
CONTINUOUS
 10
151.8907913297
 20
225.3936831797
 11
151.5447011505
 21
225.7172591397
  0
LINE
  5
6DA
100
AcDbEntity
  8
BEZUGSACHSEN
100
AcDbLine
 62
7
  6
CONTINUOUS
 10
151.117666678
 20
227.7174732568
 11
150.9446204743
 21
227.8792608127
  0
LINE
  5
6DB
100
AcDbEntity
  8
BEZUGSACHSEN
100
AcDbLine
 62
7
  6
CONTINUOUS
 10
134.75622844
 20
230.4414577943
 11
133.3873113281
 21
231.7227426732
  0
LINE
  5
6DC
100
AcDbEntity
  8
BEZUGSACHSEN
100
AcDbLine
 62
7
  6
CONTINUOUS
 10
133.3671877095
 20
232.6158519676
 11
135.1924105253
 21
230.9074721291
  0
LINE
  5
6DD
100
AcDbEntity
  8
0
100
AcDbLine
 62
7
  6
CONTINUOUS
 10
303.1672318714
 20
70.2045463759
 11
302.7899759268
 21
70.5738857451
  0
LINE
  5
6DE
100
AcDbEntity
  8
BEZUGSACHSEN
100
AcDbLine
 62
7
  6
CONTINUOUS
 10
156.2528618601
 20
229.2757713724
 11
155.778208515
 21
229.8495776461
  0
LINE
  5
6DF
100
AcDbEntity
  8
BEZUGSACHSEN
100
AcDbLine
 62
7
  6
CONTINUOUS
 10
156.111725007
 20
230.2635258334
 11
156.7219935937
 21
229.5257749102
  0
LINE
  5
6E0
100
AcDbEntity
  8
BEZUGSACHSEN
100
AcDbLine
 62
7
  6
CONTINUOUS
 10
157.7341898647
 20
264.4134500065
 11
171.0132460561
 21
241.4134500065
  0
LINE
  5
6E1
100
AcDbEntity
  8
0
100
AcDbLine
 62
7
  6
CONTINUOUS
 10
244.060052732
 20
80.22990067
 11
244.1652312233
 21
79.8667711107
  0
LINE
  5
6E2
100
AcDbEntity
  8
0
100
AcDbLine
 62
7
  6
CONTINUOUS
 10
239.3098493176
 20
80.7565779674
 11
239.2286847349
 21
81.1289645538
  0
LINE
  5
6E3
100
AcDbEntity
  8
0
100
AcDbLine
 62
7
  6
CONTINUOUS
 10
239.3853227454
 20
83.0044490496
 11
239.4664850999
 21
82.6320633113
  0
LINE
  5
6E4
100
AcDbEntity
  8
BEZUGSACHSEN
100
AcDbLine
 62
7
  6
CONTINUOUS
 10
213.2180618687
 20
238.2207383854
 11
212.8658152691
 21
240.6957984519
  0
LINE
  5
6E5
100
AcDbEntity
  8
BEZUGSACHSEN
100
AcDbLine
 62
7
  6
CONTINUOUS
 10
213.480485381
 20
240.1519795114
 11
213.7593472583
 21
238.192557057
  0
LINE
  5
6E6
100
AcDbEntity
  8
BEZUGSACHSEN
100
AcDbLine
 62
7
  6
CONTINUOUS
 10
215.3391729395
 20
238.4173953272
 11
215.0603110622
 21
240.3768177816
  0
LINE
  5
6E7
100
AcDbEntity
  8
BEZUGSACHSEN
100
AcDbLine
 62
7
  6
CONTINUOUS
 10
215.6922412166
 20
240.4667530729
 11
215.9417492176
 21
238.7135855749
  0
LINE
  5
6E8
100
AcDbEntity
  8
BEZUGSACHSEN
100
AcDbLine
 62
7
  6
CONTINUOUS
 10
217.8159354023
 20
241.400291651
 11
217.9039970521
 21
240.7815266343
  0
LINE
  5
6E9
100
AcDbEntity
  8
BEZUGSACHSEN
100
AcDbLine
 62
7
  6
CONTINUOUS
 10
218.2709205793
 20
238.2033391634
 11
218.3736591989
 21
237.4814464472
  0
LINE
  5
6EA
100
AcDbEntity
  8
0
100
AcDbLine
 62
7
  6
CONTINUOUS
 10
240.2295657076
 20
78.7043461592
 11
240.2669365544
 21
78.2592442464
  0
LINE
  5
6EB
100
AcDbEntity
  8
0
100
AcDbLine
 62
7
  6
CONTINUOUS
 10
244.7146263097
 20
79.5503736162
 11
244.6772554391
 21
79.9954755003
  0
LINE
  5
6EC
100
AcDbEntity
  8
BEZUGSACHSEN
100
AcDbLine
 62
7
  6
CONTINUOUS
 10
235.5997602351
 20
226.5686637878
 11
235.5835722518
 21
226.9039918003
  0
LINE
  5
6ED
100
AcDbEntity
  8
0
100
AcDbLine
 62
7
  6
CONTINUOUS
 10
234.3389003948
 20
80.4337087851
 11
234.2974192367
 21
85.4335367134
  0
LINE
  5
6EE
100
AcDbEntity
  8
BEZUGSACHSEN
100
AcDbLine
 62
7
  6
CONTINUOUS
 10
234.3389003948
 20
227.3931912279
 11
234.2974192367
 21
222.3933632996
  0
LINE
  5
6EF
100
AcDbEntity
  8
0
100
AcDbLine
 62
7
  6
CONTINUOUS
 10
235.5997602351
 20
81.2582362252
 11
235.5835722518
 21
80.9229082127
  0
LINE
  5
6F0
100
AcDbEntity
  8
BEZUGSACHSEN
100
AcDbLine
 62
7
  6
CONTINUOUS
 10
240.2295657076
 20
229.1225538538
 11
240.2669365544
 21
229.5676557666
  0
LINE
  5
6F1
100
AcDbEntity
  8
BEZUGSACHSEN
100
AcDbLine
 62
7
  6
CONTINUOUS
 10
244.7146263097
 20
228.2765263968
 11
244.6772554391
 21
227.8314245127
  0
LINE
  5
6F2
100
AcDbEntity
  8
0
100
AcDbLine
 62
7
  6
CONTINUOUS
 10
222.5704937363
 20
78.1167265946
 11
222.4877349468
 21
77.7478409669
  0
LINE
  5
6F3
100
AcDbEntity
  8
0
100
AcDbLine
 62
7
  6
CONTINUOUS
 10
219.1373314587
 20
73.7278320414
 11
219.0408803077
 21
73.3087547364
  0
LINE
  5
6F4
100
AcDbEntity
  8
0
100
AcDbLine
 62
7
  6
CONTINUOUS
 10
219.6081660336
 20
73.01616103
 11
219.7523666617
 21
73.5278158653
  0
LINE
  5
6F5
100
AcDbEntity
  8
0
100
AcDbLine
 62
7
  6
CONTINUOUS
 10
213.3967682833
 20
70.1068100246
 11
213.2180618687
 21
69.6061616276
  0
LINE
  5
6F6
100
AcDbEntity
  8
BEZUGSACHSEN
100
AcDbLine
 62
7
  6
CONTINUOUS
 10
292.8970212906
 20
241.4134500065
 11
306.176077482
 21
264.4134500065
  0
LINE
  5
6F7
100
AcDbEntity
  8
BEZUGSACHSEN
100
AcDbLine
 62
7
  6
CONTINUOUS
 10
307.0670784661
 20
233.2658670596
 11
306.784387204
 21
232.8856489957
  0
LINE
  5
6F8
100
AcDbEntity
  8
BEZUGSACHSEN
100
AcDbLine
 62
7
  6
CONTINUOUS
 10
302.5965925845
 20
237.8567900694
 11
302.777882072
 21
238.0930236037
  0
LINE
  5
6F9
100
AcDbEntity
  8
BEZUGSACHSEN
100
AcDbLine
 62
7
  6
CONTINUOUS
 10
304.9504280325
 20
228.965406336
 11
308.3671877095
 21
232.6158519676
  0
LINE
  5
6FA
100
AcDbEntity
  8
BEZUGSACHSEN
100
AcDbLine
 62
7
  6
CONTINUOUS
 10
308.3873113281
 20
231.7227426732
 11
305.8429157709
 21
229.0043256568
  0
LINE
  5
6FB
100
AcDbEntity
  8
BEZUGSACHSEN
100
AcDbLine
 62
7
  6
CONTINUOUS
 10
308.6993123602
 20
227.7879068016
 11
309.7897675481
 21
228.9529426114
  0
LINE
  5
6FC
100
AcDbEntity
  8
BEZUGSACHSEN
100
AcDbLine
 62
7
  6
CONTINUOUS
 10
310.2460732521
 20
228.5258476518
 11
309.1556180642
 21
227.360811842
  0
LINE
  5
6FD
100
AcDbEntity
  8
BEZUGSACHSEN
100
AcDbLine
 62
7
  6
CONTINUOUS
 10
326.7286847349
 20
226.6979354592
 11
326.3176201579
 21
226.3137977382
  0
LINE
  5
6FE
100
AcDbEntity
  8
0
100
AcDbLine
 62
7
  6
CONTINUOUS
 10
154.1659834548
 20
80.2773973511
 11
154.6530943692
 21
80.7028358234
  0
LINE
  5
6FF
100
AcDbEntity
  8
0
100
AcDbLine
 62
7
  6
CONTINUOUS
 10
155.778208515
 20
77.9773223669
 11
155.2910993427
 21
77.5518822601
  0
LINE
  5
700
100
AcDbEntity
  8
0
100
AcDbLine
 62
7
  6
CONTINUOUS
 10
154.2517702564
 20
81.034811686
 11
153.8324687999
 21
80.6913440188
  0
LINE
  5
701
100
AcDbEntity
  8
0
100
AcDbLine
 62
7
  6
CONTINUOUS
 10
155.6924216184
 20
77.2199079172
 11
156.111725007
 21
77.5633741796
  0
LINE
  5
702
100
AcDbEntity
  8
0
100
AcDbLine
 62
7
  6
CONTINUOUS
 10
126.4086997757
 20
69.9287362491
 11
126.6486970578
 21
70.1050129226
  0
LINE
  5
703
100
AcDbEntity
  8
0
100
AcDbLine
 62
7
  6
CONTINUOUS
 10
149.6300419773
 20
83.5214639716
 11
149.9382875526
 21
83.7456159837
  0
LINE
  5
704
100
AcDbEntity
  8
0
100
AcDbLine
 62
7
  6
CONTINUOUS
 10
151.820568584
 20
81.6631378479
 11
152.1288119312
 21
81.8872907082
  0
LINE
  5
705
100
AcDbEntity
  8
0
100
AcDbLine
 62
7
  6
CONTINUOUS
 10
151.0852885097
 20
79.4387716491
 11
151.393534085
 21
79.6629236612
  0
LINE
  5
706
100
AcDbEntity
  8
0
100
AcDbLine
 62
7
  6
CONTINUOUS
 10
131.2037774023
 20
71.9589452782
 11
131.583871408
 21
72.2317257343
  0
LINE
  5
707
100
AcDbEntity
  8
0
100
AcDbLine
 62
7
  6
CONTINUOUS
 10
132.2286028974
 20
80.8481172067
 11
131.7756508483
 21
80.5698735155
  0
LINE
  5
708
100
AcDbEntity
  8
BEZUGSACHSEN
100
AcDbLine
 62
7
  6
CONTINUOUS
 10
132.2286028974
 20
226.9787828063
 11
131.7756508483
 21
227.2570264975
  0
LINE
  5
709
100
AcDbEntity
  8
BEZUGSACHSEN
100
AcDbLine
 62
7
  6
CONTINUOUS
 10
131.2037774023
 20
235.8679547348
 11
131.583871408
 21
235.5951742787
  0
LINE
  5
70A
100
AcDbEntity
  8
BEZUGSACHSEN
100
AcDbLine
 62
7
  6
CONTINUOUS
 10
149.6300419773
 20
224.3054360413
 11
149.9382875526
 21
224.0812840293
  0
LINE
  5
70B
100
AcDbEntity
  8
BEZUGSACHSEN
100
AcDbLine
 62
7
  6
CONTINUOUS
 10
151.820568584
 20
226.1637621651
 11
152.1288119312
 21
225.9396093048
  0
LINE
  5
70C
100
AcDbEntity
  8
BEZUGSACHSEN
100
AcDbLine
 62
7
  6
CONTINUOUS
 10
151.0852885097
 20
228.3881283639
 11
151.393534085
 21
228.1639763518
  0
LINE
  5
70D
100
AcDbEntity
  8
BEZUGSACHSEN
100
AcDbLine
 62
7
  6
CONTINUOUS
 10
126.4086997757
 20
237.8981637639
 11
126.6486970578
 21
237.7218870904
  0
LINE
  5
70E
100
AcDbEntity
  8
BEZUGSACHSEN
100
AcDbLine
 62
7
  6
CONTINUOUS
 10
154.2517702564
 20
226.792088327
 11
153.8324687999
 21
227.1355559942
  0
LINE
  5
70F
100
AcDbEntity
  8
BEZUGSACHSEN
100
AcDbLine
 62
7
  6
CONTINUOUS
 10
155.6924216184
 20
230.6069920958
 11
156.111725007
 21
230.2635258334
  0
LINE
  5
710
100
AcDbEntity
  8
BEZUGSACHSEN
100
AcDbLine
 62
7
  6
CONTINUOUS
 10
154.1659834548
 20
227.5495026619
 11
154.6530943692
 21
227.1240641895
  0
LINE
  5
711
100
AcDbEntity
  8
BEZUGSACHSEN
100
AcDbLine
 62
7
  6
CONTINUOUS
 10
155.778208515
 20
229.8495776461
 11
155.2910993427
 21
230.2750177529
  0
LINE
  5
712
100
AcDbEntity
  8
0
100
AcDbLine
 62
7
  6
CONTINUOUS
 10
326.7286847349
 20
81.1289645538
 11
326.3176201579
 21
81.5131022748
  0
LINE
  5
713
100
AcDbEntity
  8
0
100
AcDbLine
 62
7
  6
CONTINUOUS
 10
304.9504280325
 20
78.861493677
 11
308.3671877095
 21
75.2110480454
  0
LINE
  5
714
100
AcDbEntity
  8
0
100
AcDbLine
 62
7
  6
CONTINUOUS
 10
308.3873113281
 20
76.1041573398
 11
305.8429157709
 21
78.8225743562
  0
LINE
  5
715
100
AcDbEntity
  8
0
100
AcDbLine
 62
7
  6
CONTINUOUS
 10
308.6993123602
 20
80.0389932114
 11
309.7897675481
 21
78.8739574016
  0
LINE
  5
716
100
AcDbEntity
  8
0
100
AcDbLine
 62
7
  6
CONTINUOUS
 10
310.2460732521
 20
79.3010523612
 11
309.1556180642
 21
80.466088171
  0
LINE
  5
717
100
AcDbEntity
  8
0
100
AcDbLine
 62
7
  6
CONTINUOUS
 10
302.5965925845
 20
69.9701099436
 11
302.777882072
 21
69.7338764093
  0
LINE
  5
718
100
AcDbEntity
  8
0
100
AcDbLine
 62
7
  6
CONTINUOUS
 10
307.0670784661
 20
74.5610329534
 11
306.784387204
 21
74.9412510173
  0
LINE
  5
719
100
AcDbEntity
  8
0
100
AcDbLine
 62
7
  6
CONTINUOUS
 10
292.8970212906
 20
66.4134500065
 11
306.176077482
 21
43.4134500065
  0
LINE
  5
71A
100
AcDbEntity
  8
BEZUGSACHSEN
100
AcDbLine
 62
7
  6
CONTINUOUS
 10
213.3967682833
 20
237.7200899884
 11
213.2180618687
 21
238.2207383854
  0
LINE
  5
71B
100
AcDbEntity
  8
BEZUGSACHSEN
100
AcDbLine
 62
7
  6
CONTINUOUS
 10
219.6081660336
 20
234.810738983
 11
219.7523666617
 21
234.2990841477
  0
LINE
  5
71C
100
AcDbEntity
  8
BEZUGSACHSEN
100
AcDbLine
 62
7
  6
CONTINUOUS
 10
219.1373314587
 20
234.0990679716
 11
219.0408803077
 21
234.5181452766
  0
LINE
  5
71D
100
AcDbEntity
  8
BEZUGSACHSEN
100
AcDbLine
 62
7
  6
CONTINUOUS
 10
222.5704937363
 20
229.7101734184
 11
222.4877349468
 21
230.079059046
  0
LINE
  5
71E
100
AcDbEntity
  8
0
100
AcDbLine
 62
7
  6
CONTINUOUS
 10
240.778960794
 20
78.3879486647
 11
240.8647494802
 21
79.1453615374
  0
LINE
  5
71F
100
AcDbEntity
  8
0
100
AcDbLine
 62
7
  6
CONTINUOUS
 10
244.1652312233
 20
79.8667711107
 11
244.0794442317
 21
79.1093565462
  0
LINE
  5
720
100
AcDbEntity
  8
0
100
AcDbLine
 62
7
  6
CONTINUOUS
 10
239.2558122475
 20
80.3218276337
 11
239.3098493176
 21
80.7565779674
  0
LINE
  5
721
100
AcDbEntity
  8
0
100
AcDbLine
 62
7
  6
CONTINUOUS
 10
239.9532455693
 20
82.4467709416
 11
240.0072803582
 21
82.8815219842
  0
LINE
  5
722
100
AcDbEntity
  8
0
100
AcDbLine
 62
7
  6
CONTINUOUS
 10
240.3402676952
 20
79.165024949
 11
240.2295657076
 21
78.7043461592
  0
LINE
  5
723
100
AcDbEntity
  8
0
100
AcDbLine
 62
7
  6
CONTINUOUS
 10
233.3599515001
 20
85.4257589963
 11
231.8345735413
 21
80.9448648052
  0
LINE
  5
724
100
AcDbEntity
  8
0
100
AcDbLine
 62
7
  6
CONTINUOUS
 10
222.9999685566
 20
77.3530096753
 11
223.1587780386
 21
77.7930774907
  0
LINE
  5
725
100
AcDbEntity
  8
0
100
AcDbLine
 62
7
  6
CONTINUOUS
 10
232.2556395527
 20
80.4164249758
 11
233.6812665229
 21
84.3645585192
  0
LINE
  5
726
100
AcDbEntity
  8
0
100
AcDbLine
 62
7
  6
CONTINUOUS
 10
213.7593472583
 20
69.634342956
 11
213.9086997757
 21
69.9287362491
  0
LINE
  5
727
100
AcDbEntity
  8
0
100
AcDbLine
 62
7
  6
CONTINUOUS
 10
215.9284226072
 20
76.7893913114
 11
215.6419246023
 21
76.2339240367
  0
LINE
  5
728
100
AcDbEntity
  8
0
100
AcDbLine
 62
7
  6
CONTINUOUS
 10
214.4959325828
 20
74.0120549382
 11
214.2094344413
 21
73.4565873986
  0
LINE
  5
729
100
AcDbEntity
  8
0
100
AcDbLine
 62
7
  6
CONTINUOUS
 10
219.0408803077
 20
73.3087547364
 11
218.8498815467
 21
72.9384430434
  0
LINE
  5
72A
100
AcDbEntity
  8
0
100
AcDbLine
 62
7
  6
CONTINUOUS
 10
219.4171672726
 20
72.645849337
 11
219.6081660336
 21
73.01616103
  0
LINE
  5
72B
100
AcDbEntity
  8
BEZUGSACHSEN
100
AcDbLine
 62
7
  6
CONTINUOUS
 10
306.4033415891
 20
233.3923506583
 11
306.5914851751
 21
233.723803076
  0
LINE
  5
72C
100
AcDbEntity
  8
0
100
AcDbLine
 62
7
  6
CONTINUOUS
 10
218.676077482
 20
89.4134500065
 11
205.3970212906
 21
66.4134500065
  0
LINE
  5
72D
100
AcDbEntity
  8
BEZUGSACHSEN
100
AcDbLine
 62
7
  6
CONTINUOUS
 10
309.6401790971
 20
241.4134500065
 11
314.5476563852
 21
249.9134500065
  0
LINE
  5
72E
100
AcDbEntity
  8
BEZUGSACHSEN
100
AcDbLine
 62
7
  6
CONTINUOUS
 10
310.5335076202
 20
228.9853751072
 11
310.2460732521
 21
228.5258476518
  0
LINE
  5
72F
100
AcDbEntity
  8
BEZUGSACHSEN
100
AcDbLine
 62
7
  6
CONTINUOUS
 10
328.7176557773
 20
230.2160290949
 11
328.3841392853
 21
229.8020809076
  0
LINE
  5
730
100
AcDbEntity
  8
BEZUGSACHSEN
100
AcDbLine
 62
7
  6
CONTINUOUS
 10
327.9648377872
 20
230.145548625
 11
328.3786176261
 21
230.6258907764
  0
LINE
  5
731
100
AcDbEntity
  8
BEZUGSACHSEN
100
AcDbLine
 62
7
  6
CONTINUOUS
 10
331.9793560256
 20
227.2535331954
 11
331.5655761807
 21
226.7731910513
  0
LINE
  5
732
100
AcDbEntity
  8
BEZUGSACHSEN
100
AcDbLine
 62
7
  6
CONTINUOUS
 10
323.3810963193
 20
227.5863988554
 11
323.694810575
 21
227.9334788071
  0
LINE
  5
733
100
AcDbEntity
  8
BEZUGSACHSEN
100
AcDbLine
 62
7
  6
CONTINUOUS
 10
323.8840447586
 20
227.4363632474
 11
323.7271887399
 21
227.2628237087
  0
LINE
  5
734
100
AcDbEntity
  8
BEZUGSACHSEN
100
AcDbLine
 62
7
  6
CONTINUOUS
 10
327.2692597567
 20
224.3994519036
 11
326.9555477192
 21
224.0523728262
  0
LINE
  5
735
100
AcDbEntity
  8
0
100
AcDbLine
 62
7
  6
CONTINUOUS
 10
154.5354584986
 20
81.2143334136
 11
154.2517702564
 21
81.034811686
  0
LINE
  5
736
100
AcDbEntity
  8
0
100
AcDbLine
 62
7
  6
CONTINUOUS
 10
155.4087335662
 20
77.0403864192
 11
155.6924216184
 21
77.2199079172
  0
LINE
  5
737
100
AcDbEntity
  8
0
100
AcDbLine
 62
7
  6
CONTINUOUS
 10
132.2118328827
 20
80.1038592351
 11
132.588733401
 21
80.3109198899
  0
LINE
  5
738
100
AcDbEntity
  8
0
100
AcDbLine
 62
7
  6
CONTINUOUS
 10
131.064335449
 20
72.6168974921
 11
130.7319911604
 21
72.4366951131
  0
LINE
  5
739
100
AcDbEntity
  8
0
100
AcDbLine
 62
7
  6
CONTINUOUS
 10
126.7367587077
 20
70.7237779392
 11
126.2714411131
 21
70.4743522917
  0
LINE
  5
73A
100
AcDbEntity
  8
RUNDUNGEN
100
AcDbLine
 62
7
  6
CONTINUOUS
 10
79.9551336733
 20
169.9134500065
 11
383.9551336733
 21
169.9134500065
  0
LINE
  5
73B
100
AcDbEntity
  8
0
100
AcDbLine
 62
7
  6
CONTINUOUS
 10
96.9646484655
 20
171.9134500065
 11
117.8242208301
 21
171.9134500065
  0
LINE
  5
73C
100
AcDbEntity
  8
0
100
AcDbLine
 62
7
  6
CONTINUOUS
 10
338.8886032961
 20
171.9134500065
 11
378.6879402211
 21
171.9134500065
  0
LINE
  5
73D
100
AcDbEntity
  8
BEZUGSACHSEN
100
AcDbLine
 62
7
  6
CONTINUOUS
 10
126.7367587077
 20
237.1031220738
 11
126.2714411131
 21
237.3525477213
  0
LINE
  5
73E
100
AcDbEntity
  8
BEZUGSACHSEN
100
AcDbLine
 62
7
  6
CONTINUOUS
 10
131.064335449
 20
235.2100025209
 11
130.7319911604
 21
235.3902048999
  0
LINE
  5
73F
100
AcDbEntity
  8
BEZUGSACHSEN
100
AcDbLine
 62
7
  6
CONTINUOUS
 10
132.2118328827
 20
227.7230407779
 11
132.588733401
 21
227.5159801231
  0
LINE
  5
740
100
AcDbEntity
  8
BEZUGSACHSEN
100
AcDbLine
 62
7
  6
CONTINUOUS
 10
154.5354584986
 20
226.6125665994
 11
154.2517702564
 21
226.792088327
  0
LINE
  5
741
100
AcDbEntity
  8
BEZUGSACHSEN
100
AcDbLine
 62
7
  6
CONTINUOUS
 10
155.4087335662
 20
230.7865135938
 11
155.6924216184
 21
230.6069920958
  0
LINE
  5
742
100
AcDbEntity
  8
0
100
AcDbLine
 62
7
  6
CONTINUOUS
 10
323.3810963193
 20
80.2405011576
 11
323.694810575
 21
79.8934212059
  0
LINE
  5
743
100
AcDbEntity
  8
0
100
AcDbLine
 62
7
  6
CONTINUOUS
 10
323.8840447586
 20
80.3905367656
 11
323.7271887399
 21
80.5640763043
  0
LINE
  5
744
100
AcDbEntity
  8
0
100
AcDbLine
 62
7
  6
CONTINUOUS
 10
327.2692597567
 20
83.4274481093
 11
326.9555477192
 21
83.7745271868
  0
LINE
  5
745
100
AcDbEntity
  8
0
100
AcDbLine
 62
7
  6
CONTINUOUS
 10
327.9648377872
 20
77.6813513879
 11
328.3786176261
 21
77.2010092366
  0
LINE
  5
746
100
AcDbEntity
  8
0
100
AcDbLine
 62
7
  6
CONTINUOUS
 10
331.9793560256
 20
80.5733668176
 11
331.5655761807
 21
81.0537089617
  0
LINE
  5
747
100
AcDbEntity
  8
0
100
AcDbLine
 62
7
  6
CONTINUOUS
 10
328.7176557773
 20
77.6108709181
 11
328.3841392853
 21
78.0248191054
  0
LINE
  5
748
100
AcDbEntity
  8
0
100
AcDbLine
 62
7
  6
CONTINUOUS
 10
310.5335076202
 20
78.8415249058
 11
310.2460732521
 21
79.3010523612
  0
LINE
  5
749
100
AcDbEntity
  8
BEZUGSACHSEN
100
AcDbLine
 62
7
  6
CONTINUOUS
 10
218.676077482
 20
218.4134500065
 11
205.3970212906
 21
241.4134500065
  0
LINE
  5
74A
100
AcDbEntity
  8
0
100
AcDbLine
 62
7
  6
CONTINUOUS
 10
309.6401790971
 20
66.4134500065
 11
314.5476563852
 21
57.9134500065
  0
LINE
  5
74B
100
AcDbEntity
  8
0
100
AcDbLine
 62
7
  6
CONTINUOUS
 10
306.4033415891
 20
74.4345493547
 11
306.5914851751
 21
74.103096937
  0
LINE
  5
74C
100
AcDbEntity
  8
BEZUGSACHSEN
100
AcDbLine
 62
7
  6
CONTINUOUS
 10
215.9284226072
 20
231.0375087016
 11
215.6419246023
 21
231.5929759763
  0
LINE
  5
74D
100
AcDbEntity
  8
BEZUGSACHSEN
100
AcDbLine
 62
7
  6
CONTINUOUS
 10
214.4959325828
 20
233.8148450748
 11
214.2094344413
 21
234.3703126144
  0
LINE
  5
74E
100
AcDbEntity
  8
BEZUGSACHSEN
100
AcDbLine
 62
7
  6
CONTINUOUS
 10
219.0408803077
 20
234.5181452766
 11
218.8498815467
 21
234.8884569696
  0
LINE
  5
74F
100
AcDbEntity
  8
BEZUGSACHSEN
100
AcDbLine
 62
7
  6
CONTINUOUS
 10
219.4171672726
 20
235.181050676
 11
219.6081660336
 21
234.810738983
  0
LINE
  5
750
100
AcDbEntity
  8
BEZUGSACHSEN
100
AcDbLine
 62
7
  6
CONTINUOUS
 10
213.7593472583
 20
238.192557057
 11
213.9086997757
 21
237.8981637639
  0
LINE
  5
751
100
AcDbEntity
  8
BEZUGSACHSEN
100
AcDbLine
 62
7
  6
CONTINUOUS
 10
232.2556395527
 20
227.4104750372
 11
233.6812665229
 21
223.4623414938
  0
LINE
  5
752
100
AcDbEntity
  8
BEZUGSACHSEN
100
AcDbLine
 62
7
  6
CONTINUOUS
 10
222.9999685566
 20
230.4738903377
 11
223.1587780386
 21
230.0338225223
  0
LINE
  5
753
100
AcDbEntity
  8
BEZUGSACHSEN
100
AcDbLine
 62
7
  6
CONTINUOUS
 10
233.3599515001
 20
222.4011410167
 11
231.8345735413
 21
226.8820352078
  0
LINE
  5
754
100
AcDbEntity
  8
BEZUGSACHSEN
100
AcDbLine
 62
7
  6
CONTINUOUS
 10
240.3402676952
 20
228.6618750639
 11
240.2295657076
 21
229.1225538538
  0
LINE
  5
755
100
AcDbEntity
  8
BEZUGSACHSEN
100
AcDbLine
 62
7
  6
CONTINUOUS
 10
239.2558122475
 20
227.5050723793
 11
239.3098493176
 21
227.0703220456
  0
LINE
  5
756
100
AcDbEntity
  8
BEZUGSACHSEN
100
AcDbLine
 62
7
  6
CONTINUOUS
 10
239.9532455693
 20
225.3801290713
 11
240.0072803582
 21
224.9453780288
  0
LINE
  5
757
100
AcDbEntity
  8
BEZUGSACHSEN
100
AcDbLine
 62
7
  6
CONTINUOUS
 10
240.778960794
 20
229.4389513483
 11
240.8647494802
 21
228.6815384756
  0
LINE
  5
758
100
AcDbEntity
  8
BEZUGSACHSEN
100
AcDbLine
 62
7
  6
CONTINUOUS
 10
244.1652312233
 20
227.9601289023
 11
244.0794442317
 21
228.7175434668
  0
LINE
  5
759
100
AcDbEntity
  8
0
100
AcDbLine
 62
7
  6
CONTINUOUS
 10
244.6039243696
 20
79.0896948838
 11
244.7146263097
 21
79.5503736162
  0
LINE
  5
75A
100
AcDbEntity
  8
BEZUGSACHSEN
100
AcDbLine
 62
7
  6
CONTINUOUS
 10
303.3191675037
 20
238.0648419803
 11
303.1672318714
 21
237.6223536371
  0
LINE
  5
75B
100
AcDbEntity
  8
0
100
AcDbLine
 62
7
  6
CONTINUOUS
 10
237.7250922608
 20
82.1566488044
 11
237.5737049324
 21
81.7589564054
  0
LINE
  5
75C
100
AcDbEntity
  8
0
100
AcDbLine
 62
7
  6
CONTINUOUS
 10
239.4664850999
 20
82.6320633113
 11
239.3907913297
 21
82.4332168333
  0
LINE
  5
75D
100
AcDbEntity
  8
0
100
AcDbLine
 62
7
  6
CONTINUOUS
 10
238.7690540064
 20
80.5071191552
 11
238.617666678
 21
80.1094267562
  0
LINE
  5
75E
100
AcDbEntity
  8
0
100
AcDbLine
 62
7
  6
CONTINUOUS
 10
239.8775517991
 20
82.2479244636
 11
239.9532455693
 21
82.4467709416
  0
LINE
  5
75F
100
AcDbEntity
  8
0
100
AcDbLine
 62
7
  6
CONTINUOUS
 10
239.1044249191
 20
79.9241352347
 11
239.2558122475
 21
80.3218276337
  0
LINE
  5
760
100
AcDbEntity
  8
0
100
AcDbLine
 62
7
  6
CONTINUOUS
 10
240.4634253674
 20
79.4773373999
 11
240.3402676952
 21
79.165024949
  0
LINE
  5
761
100
AcDbEntity
  8
0
100
AcDbLine
 62
7
  6
CONTINUOUS
 10
244.4807665074
 20
78.7773822033
 11
244.6039243696
 21
79.0896948838
  0
LINE
  5
762
100
AcDbEntity
  8
BEZUGSACHSEN
100
AcDbLine
 62
7
  6
CONTINUOUS
 10
309.7897675481
 20
228.9529426114
 11
310.0045049106
 21
229.3348010201
  0
LINE
  5
763
100
AcDbEntity
  8
0
100
AcDbLine
 62
7
  6
CONTINUOUS
 10
227.0476563852
 20
74.9134500065
 11
222.1401790971
 21
66.4134500065
  0
LINE
  5
764
100
AcDbEntity
  8
BEZUGSACHSEN
100
AcDbLine
 62
7
  6
CONTINUOUS
 10
329.2700882496
 20
241.4134500065
 11
324.3626109614
 21
232.9134500065
  0
LINE
  5
765
100
AcDbEntity
  8
0
100
AcDbLine
 62
7
  6
CONTINUOUS
 10
222.4877349468
 20
77.7478409669
 11
222.25622844
 21
77.3854422187
  0
LINE
  5
766
100
AcDbEntity
  8
BEZUGSACHSEN
100
AcDbLine
 62
7
  6
CONTINUOUS
 10
323.1647346064
 20
227.2763775385
 11
323.3810963193
 21
227.5863988554
  0
LINE
  5
767
100
AcDbEntity
  8
BEZUGSACHSEN
100
AcDbLine
 62
7
  6
CONTINUOUS
 10
326.0093768108
 20
226.5379505985
 11
326.2257385369
 21
226.8479718806
  0
LINE
  5
768
100
AcDbEntity
  8
BEZUGSACHSEN
100
AcDbLine
 62
7
  6
CONTINUOUS
 10
326.6689610192
 20
224.5124296814
 11
326.8853227454
 21
224.8224509634
  0
LINE
  5
769
100
AcDbEntity
  8
0
100
AcDbLine
 62
7
  6
CONTINUOUS
 10
222.6924105253
 20
76.9194278839
 11
222.9999685566
 21
77.3530096753
  0
LINE
  5
76A
100
AcDbEntity
  8
BEZUGSACHSEN
100
AcDbLine
 62
7
  6
CONTINUOUS
 10
331.226538077
 20
227.1830526753
 11
331.560052732
 21
227.596999343
  0
LINE
  5
76B
100
AcDbEntity
  8
0
100
AcDbLine
 62
7
  6
CONTINUOUS
 10
149.932816634
 20
84.3168487697
 11
149.392023604
 21
84.0673892486
  0
LINE
  5
76C
100
AcDbEntity
  8
0
100
AcDbLine
 62
7
  6
CONTINUOUS
 10
151.5447011505
 20
82.1096408733
 11
151.2743046355
 21
81.9849111127
  0
LINE
  5
76D
100
AcDbEntity
  8
0
100
AcDbLine
 62
7
  6
CONTINUOUS
 10
150.9446204743
 20
79.9476392003
 11
150.6742239327
 21
79.8229093701
  0
LINE
  5
76E
100
AcDbEntity
  8
0
100
AcDbLine
 62
7
  6
CONTINUOUS
 10
154.9672175243
 20
81.4094332796
 11
154.5354584986
 21
81.2143334136
  0
LINE
  5
76F
100
AcDbEntity
  8
0
100
AcDbLine
 62
7
  6
CONTINUOUS
 10
154.9769744929
 20
76.8452864958
 11
155.4087335662
 21
77.0403864192
  0
LWPOLYLINE
  5
770
100
AcDbEntity
  8
BEZUGSACHSEN
100
AcDbPolyline
 62
7
  6
CONTINUOUS
 90
38
 70
0
 10
135.3083808324
 20
185.9370307079
 10
135.2651014735
 20
185.9331425592
 10
135.0536722772
 20
185.9122430571
 10
134.8141003237
 20
185.8841441593
 10
134.5496107618
 20
185.8468070891
 10
134.2565640545
 20
185.7969056098
 10
133.9459505211
 20
185.7336052758
 10
133.6316721708
 20
185.6581723489
 10
133.3127090272
 20
185.5694610406
 10
132.9950383468
 20
185.4684862246
 10
132.6757194732
 20
185.3537886598
 10
132.3536698704
 20
185.2241208716
 10
132.0308419156
 20
185.0793482901
 10
131.7083194004
 20
184.9191075502
 10
131.3879804331
 20
184.7435540576
 10
131.0719295918
 20
184.5532242921
 10
130.7604303789
 20
184.3477043845
 10
130.4542550614
 20
184.1268609088
 10
130.1541997872
 20
183.8905883109
 10
129.861096938
 20
183.6388205069
 10
129.5758091373
 20
183.3715304391
 10
129.2992293747
 20
183.0887341879
 10
129.0322822666
 20
182.7904973787
 10
128.7759173895
 20
182.4769335922
 10
128.5311157492
 20
182.1482184313
 10
128.298878028
 20
181.8045825743
 10
128.0802280078
 20
181.4463239462
 10
127.8762067608
 20
181.0738090927
 10
127.6878595788
 20
180.6874573371
 10
127.516244806
 20
180.2877636756
 10
127.3624279024
 20
179.8752999381
 10
127.2274760986
 20
179.4507163241
 10
127.1124543806
 20
179.0147475573
 10
127.018419127
 20
178.5682135277
 10
126.9464125065
 20
178.1120229059
 10
126.8974560997
 20
177.6471755323
 10
126.8725441341
 20
177.1747650281
 10
126.869406183
 20
176.9371001768
  0
LINE
  5
771
100
AcDbEntity
  8
BEZUGSACHSEN
100
AcDbLine
 62
7
  6
CONTINUOUS
 10
327.4524973566
 20
185.9134500065
 11
136.4577699901
 21
185.9134500065
  0
LINE
  5
772
100
AcDbEntity
  8
BEZUGSACHSEN
100
AcDbLine
 62
7
  6
CONTINUOUS
 10
154.9672175243
 20
226.4174667334
 11
154.5354584986
 21
226.6125665994
  0
LINE
  5
773
100
AcDbEntity
  8
BEZUGSACHSEN
100
AcDbLine
 62
7
  6
CONTINUOUS
 10
154.9769744929
 20
230.9816135172
 11
155.4087335662
 21
230.7865135938
  0
LINE
  5
774
100
AcDbEntity
  8
BEZUGSACHSEN
100
AcDbLine
 62
7
  6
CONTINUOUS
 10
149.932816634
 20
223.5100512433
 11
149.392023604
 21
223.7595107644
  0
LINE
  5
775
100
AcDbEntity
  8
BEZUGSACHSEN
100
AcDbLine
 62
7
  6
CONTINUOUS
 10
151.5447011505
 20
225.7172591397
 11
151.2743046355
 21
225.8419889003
  0
LINE
  5
776
100
AcDbEntity
  8
BEZUGSACHSEN
100
AcDbLine
 62
7
  6
CONTINUOUS
 10
150.9446204743
 20
227.8792608127
 11
150.6742239327
 21
228.0039906429
  0
LINE
  5
777
100
AcDbEntity
  8
0
100
AcDbLine
 62
7
  6
CONTINUOUS
 10
331.226538077
 20
80.6438473377
 11
331.560052732
 21
80.22990067
  0
LINE
  5
778
100
AcDbEntity
  8
BEZUGSACHSEN
100
AcDbLine
 62
7
  6
CONTINUOUS
 10
222.6924105253
 20
230.9074721291
 11
222.9999685566
 21
230.4738903377
  0
LINE
  5
779
100
AcDbEntity
  8
0
100
AcDbLine
 62
7
  6
CONTINUOUS
 10
323.1647346064
 20
80.5505224745
 11
323.3810963193
 21
80.2405011576
  0
LINE
  5
77A
100
AcDbEntity
  8
0
100
AcDbLine
 62
7
  6
CONTINUOUS
 10
326.0093768108
 20
81.2889494145
 11
326.2257385369
 21
80.9789281324
  0
LINE
  5
77B
100
AcDbEntity
  8
0
100
AcDbLine
 62
7
  6
CONTINUOUS
 10
326.6689610192
 20
83.3144703316
 11
326.8853227454
 21
83.0044490496
  0
LINE
  5
77C
100
AcDbEntity
  8
BEZUGSACHSEN
100
AcDbLine
 62
7
  6
CONTINUOUS
 10
222.4877349468
 20
230.079059046
 11
222.25622844
 21
230.4414577943
  0
LINE
  5
77D
100
AcDbEntity
  8
BEZUGSACHSEN
100
AcDbLine
 62
7
  6
CONTINUOUS
 10
227.0476563852
 20
232.9134500065
 11
222.1401790971
 21
241.4134500065
  0
LINE
  5
77E
100
AcDbEntity
  8
0
100
AcDbLine
 62
7
  6
CONTINUOUS
 10
329.2700882496
 20
66.4134500065
 11
324.3626109614
 21
74.9134500065
  0
LINE
  5
77F
100
AcDbEntity
  8
0
100
AcDbLine
 62
7
  6
CONTINUOUS
 10
309.7897675481
 20
78.8739574016
 11
310.0045049106
 21
78.4920989929
  0
LINE
  5
780
100
AcDbEntity
  8
BEZUGSACHSEN
100
AcDbLine
 62
7
  6
CONTINUOUS
 10
240.4634253674
 20
228.3495626131
 11
240.3402676952
 21
228.6618750639
  0
LINE
  5
781
100
AcDbEntity
  8
BEZUGSACHSEN
100
AcDbLine
 62
7
  6
CONTINUOUS
 10
244.4807665074
 20
229.0495178097
 11
244.6039243696
 21
228.7372051292
  0
LINE
  5
782
100
AcDbEntity
  8
BEZUGSACHSEN
100
AcDbLine
 62
7
  6
CONTINUOUS
 10
237.7250922608
 20
225.6702512086
 11
237.5737049324
 21
226.0679436076
  0
LINE
  5
783
100
AcDbEntity
  8
BEZUGSACHSEN
100
AcDbLine
 62
7
  6
CONTINUOUS
 10
239.4664850999
 20
225.1948367016
 11
239.3907913297
 21
225.3936831797
  0
LINE
  5
784
100
AcDbEntity
  8
BEZUGSACHSEN
100
AcDbLine
 62
7
  6
CONTINUOUS
 10
238.7690540064
 20
227.3197808578
 11
238.617666678
 21
227.7174732568
  0
LINE
  5
785
100
AcDbEntity
  8
BEZUGSACHSEN
100
AcDbLine
 62
7
  6
CONTINUOUS
 10
239.8775517991
 20
225.5789755494
 11
239.9532455693
 21
225.3801290713
  0
LINE
  5
786
100
AcDbEntity
  8
BEZUGSACHSEN
100
AcDbLine
 62
7
  6
CONTINUOUS
 10
239.1044249191
 20
227.9027647783
 11
239.2558122475
 21
227.5050723793
  0
LINE
  5
787
100
AcDbEntity
  8
0
100
AcDbLine
 62
7
  6
CONTINUOUS
 10
303.3191675037
 20
69.7620580327
 11
303.1672318714
 21
70.2045463759
  0
LINE
  5
788
100
AcDbEntity
  8
BEZUGSACHSEN
100
AcDbLine
 62
7
  6
CONTINUOUS
 10
244.6039243696
 20
228.7372051292
 11
244.7146263097
 21
228.2765263968
  0
LINE
  5
789
100
AcDbEntity
  8
BEZUGSACHSEN
100
AcDbLine
 62
7
  6
CONTINUOUS
 10
302.777882072
 20
238.0930236037
 11
302.8391729395
 21
238.4173953272
  0
LINE
  5
78A
100
AcDbEntity
  8
BEZUGSACHSEN
100
AcDbLine
 62
7
  6
CONTINUOUS
 10
310.6721935027
 20
229.4384166066
 11
310.5335076202
 21
228.9853751072
  0
LINE
  5
78B
100
AcDbEntity
  8
BEZUGSACHSEN
100
AcDbLine
 62
7
  6
CONTINUOUS
 10
307.254270178
 20
233.8312412178
 11
307.0670784661
 21
233.2658670596
  0
LINE
  5
78C
100
AcDbEntity
  8
0
100
AcDbLine
 62
7
  6
CONTINUOUS
 10
240.7222002132
 20
79.9535930955
 11
240.4634253674
 21
79.4773373999
  0
LINE
  5
78D
100
AcDbEntity
  8
0
100
AcDbLine
 62
7
  6
CONTINUOUS
 10
244.2219935937
 20
78.3011251028
 11
244.4807665074
 21
78.7773822033
  0
LINE
  5
78E
100
AcDbEntity
  8
0
100
AcDbLine
 62
7
  6
CONTINUOUS
 10
236.8626109614
 20
57.9134500065
 11
241.7700882496
 21
66.4134500065
  0
LINE
  5
78F
100
AcDbEntity
  8
0
100
AcDbLine
 62
7
  6
CONTINUOUS
 10
240.8647494802
 20
79.1453615374
 11
241.1913301096
 21
79.7035910774
  0
LINE
  5
790
100
AcDbEntity
  8
0
100
AcDbLine
 62
7
  6
CONTINUOUS
 10
244.0794442317
 20
79.1093565462
 11
243.7528618601
 21
78.5511286406
  0
LINE
  5
791
100
AcDbEntity
  8
0
100
AcDbLine
 62
7
  6
CONTINUOUS
 10
236.892023604
 20
84.0673892486
 11
236.6432837361
 21
83.7067554931
  0
LINE
  5
792
100
AcDbEntity
  8
0
100
AcDbLine
 62
7
  6
CONTINUOUS
 10
239.6288119312
 20
81.8872907082
 11
239.8775517991
 21
82.2479244636
  0
LINE
  5
793
100
AcDbEntity
  8
0
100
AcDbLine
 62
7
  6
CONTINUOUS
 10
219.083871408
 20
72.2317257343
 11
219.4171672726
 21
72.645849337
  0
LINE
  5
794
100
AcDbEntity
  8
0
100
AcDbLine
 62
7
  6
CONTINUOUS
 10
238.893534085
 20
79.6629236612
 11
239.1044249191
 21
79.9241352347
  0
LINE
  5
795
100
AcDbEntity
  8
0
100
AcDbLine
 62
7
  6
CONTINUOUS
 10
241.3324687999
 20
80.6913440188
 11
240.7222002132
 21
79.9535930955
  0
LINE
  5
796
100
AcDbEntity
  8
0
100
AcDbLine
 62
7
  6
CONTINUOUS
 10
218.8498815467
 20
72.9384430434
 11
218.564335449
 21
72.6168974921
  0
LINE
  5
797
100
AcDbEntity
  8
0
100
AcDbLine
 62
7
  6
CONTINUOUS
 10
213.7714411131
 20
70.4743522917
 11
213.3967682833
 21
70.1068100246
  0
LINE
  5
798
100
AcDbEntity
  8
0
100
AcDbLine
 62
7
  6
CONTINUOUS
 10
219.2756508483
 20
80.5698735155
 11
217.4504280325
 21
78.861493677
  0
LINE
  5
799
100
AcDbEntity
  8
0
100
AcDbLine
 62
7
  6
CONTINUOUS
 10
218.3429157709
 20
78.8225743562
 11
219.7118328827
 21
80.1038592351
  0
LINE
  5
79A
100
AcDbEntity
  8
0
100
AcDbLine
 62
7
  6
CONTINUOUS
 10
222.25622844
 20
77.3854422187
 11
220.8873113281
 21
76.1041573398
  0
LINE
  5
79B
100
AcDbEntity
  8
0
100
AcDbLine
 62
7
  6
CONTINUOUS
 10
220.8671877095
 20
75.2110480454
 11
222.6924105253
 21
76.9194278839
  0
LINE
  5
79C
100
AcDbEntity
  8
0
100
AcDbLine
 62
7
  6
CONTINUOUS
 10
154.6530943692
 20
80.7028358234
 11
155.3809973692
 21
80.9290911355
  0
LINE
  5
79D
100
AcDbEntity
  8
0
100
AcDbLine
 62
7
  6
CONTINUOUS
 10
155.2910993427
 20
77.5518822601
 11
154.563194648
 21
77.3256286399
  0
LINE
  5
79E
100
AcDbEntity
  8
0
100
AcDbLine
 62
7
  6
CONTINUOUS
 10
130.6345884416
 20
71.7836965802
 11
131.2037774023
 21
71.9589452782
  0
LINE
  5
79F
100
AcDbEntity
  8
0
100
AcDbLine
 62
7
  6
CONTINUOUS
 10
151.3176201579
 20
81.5131022748
 11
151.820568584
 21
81.6631378479
  0
LINE
  5
7A0
100
AcDbEntity
  8
0
100
AcDbLine
 62
7
  6
CONTINUOUS
 10
132.6782004214
 20
80.9775088147
 11
132.2286028974
 21
80.8481172067
  0
LINE
  5
7A1
100
AcDbEntity
  8
BEZUGSACHSEN
100
AcDbLine
 62
7
  6
CONTINUOUS
 10
307.9622802644
 20
227.4577707367
 11
308.3324736767
 21
227.5484128364
  0
LINE
  5
7A2
100
AcDbEntity
  8
BEZUGSACHSEN
100
AcDbLine
 62
7
  6
CONTINUOUS
 10
326.1172283803
 20
223.6194244789
 11
325.3979182281
 21
223.45943877
  0
LINE
  5
7A3
100
AcDbEntity
  8
BEZUGSACHSEN
100
AcDbLine
 62
7
  6
CONTINUOUS
 10
325.3060366071
 20
223.9936129123
 11
325.8306416803
 21
224.079481334
  0
LINE
  5
7A4
100
AcDbEntity
  8
BEZUGSACHSEN
100
AcDbLine
 62
7
  6
CONTINUOUS
 10
135.6296269466
 20
185.9748235006
 11
135.3000789481
 21
185.9362980662
  0
LINE
  5
7A5
100
AcDbEntity
  8
BEZUGSACHSEN
100
AcDbLine
 62
7
  6
CONTINUOUS
 10
328.610146366
 20
185.936301802
 11
328.2724387502
 21
185.9760166592
  0
LWPOLYLINE
  5
7A6
100
AcDbEntity
  8
BEZUGSACHSEN
100
AcDbPolyline
 62
7
  6
CONTINUOUS
 90
3
 70
0
 10
328.2724387502
 20
185.9760166592
 10
327.8478836674
 20
186.0530340057
 10
327.4238246251
 20
186.1590887337
  0
LINE
  5
7A7
100
AcDbEntity
  8
BEZUGSACHSEN
100
AcDbLine
 62
7
  6
CONTINUOUS
 10
149.9382875526
 20
224.0812840293
 11
150.3060366071
 21
223.9936129123
  0
LINE
  5
7A8
100
AcDbEntity
  8
BEZUGSACHSEN
100
AcDbLine
 62
7
  6
CONTINUOUS
 10
150.7175394419
 20
228.4757995157
 11
151.0852885097
 21
228.3881283639
  0
LINE
  5
7A9
100
AcDbEntity
  8
BEZUGSACHSEN
100
AcDbLine
 62
7
  6
CONTINUOUS
 10
132.6782004214
 20
226.8493911983
 11
132.2286028974
 21
226.9787828063
  0
LINE
  5
7AA
100
AcDbEntity
  8
BEZUGSACHSEN
100
AcDbLine
 62
7
  6
CONTINUOUS
 10
151.3176201579
 20
226.3137977382
 11
151.820568584
 21
226.1637621651
  0
LINE
  5
7AB
100
AcDbEntity
  8
BEZUGSACHSEN
100
AcDbLine
 62
7
  6
CONTINUOUS
 10
130.6345884416
 20
236.0432034328
 11
131.2037774023
 21
235.8679547348
  0
LINE
  5
7AC
100
AcDbEntity
  8
BEZUGSACHSEN
100
AcDbLine
 62
7
  6
CONTINUOUS
 10
154.6530943692
 20
227.1240641895
 11
155.3809973692
 21
226.8978088775
  0
LINE
  5
7AD
100
AcDbEntity
  8
BEZUGSACHSEN
100
AcDbLine
 62
7
  6
CONTINUOUS
 10
155.2910993427
 20
230.2750177529
 11
154.563194648
 21
230.5012713731
  0
LINE
  5
7AE
100
AcDbEntity
  8
BEZUGSACHSEN
100
AcDbLine
 62
7
  6
CONTINUOUS
 10
219.2756508483
 20
227.2570264975
 11
217.4504280325
 21
228.965406336
  0
LINE
  5
7AF
100
AcDbEntity
  8
BEZUGSACHSEN
100
AcDbLine
 62
7
  6
CONTINUOUS
 10
218.3429157709
 20
229.0043256568
 11
219.7118328827
 21
227.7230407779
  0
LINE
  5
7B0
100
AcDbEntity
  8
BEZUGSACHSEN
100
AcDbLine
 62
7
  6
CONTINUOUS
 10
222.25622844
 20
230.4414577943
 11
220.8873113281
 21
231.7227426732
  0
LINE
  5
7B1
100
AcDbEntity
  8
BEZUGSACHSEN
100
AcDbLine
 62
7
  6
CONTINUOUS
 10
220.8671877095
 20
232.6158519676
 11
222.6924105253
 21
230.9074721291
  0
LINE
  5
7B2
100
AcDbEntity
  8
BEZUGSACHSEN
100
AcDbLine
 62
7
  6
CONTINUOUS
 10
213.7714411131
 20
237.3525477213
 11
213.3967682833
 21
237.7200899884
  0
LINE
  5
7B3
100
AcDbEntity
  8
BEZUGSACHSEN
100
AcDbLine
 62
7
  6
CONTINUOUS
 10
218.8498815467
 20
234.8884569696
 11
218.564335449
 21
235.2100025209
  0
LINE
  5
7B4
100
AcDbEntity
  8
BEZUGSACHSEN
100
AcDbLine
 62
7
  6
CONTINUOUS
 10
241.3324687999
 20
227.1355559942
 11
240.7222002132
 21
227.8733069175
  0
LINE
  5
7B5
100
AcDbEntity
  8
BEZUGSACHSEN
100
AcDbLine
 62
7
  6
CONTINUOUS
 10
238.893534085
 20
228.1639763518
 11
239.1044249191
 21
227.9027647783
  0
LINE
  5
7B6
100
AcDbEntity
  8
BEZUGSACHSEN
100
AcDbLine
 62
7
  6
CONTINUOUS
 10
219.083871408
 20
235.5951742787
 11
219.4171672726
 21
235.181050676
  0
LINE
  5
7B7
100
AcDbEntity
  8
BEZUGSACHSEN
100
AcDbLine
 62
7
  6
CONTINUOUS
 10
236.892023604
 20
223.7595107644
 11
236.6432837361
 21
224.1201445198
  0
LINE
  5
7B8
100
AcDbEntity
  8
BEZUGSACHSEN
100
AcDbLine
 62
7
  6
CONTINUOUS
 10
239.6288119312
 20
225.9396093048
 11
239.8775517991
 21
225.5789755494
  0
LINE
  5
7B9
100
AcDbEntity
  8
BEZUGSACHSEN
100
AcDbLine
 62
7
  6
CONTINUOUS
 10
240.8647494802
 20
228.6815384756
 11
241.1913301096
 21
228.1233089356
  0
LINE
  5
7BA
100
AcDbEntity
  8
BEZUGSACHSEN
100
AcDbLine
 62
7
  6
CONTINUOUS
 10
244.0794442317
 20
228.7175434668
 11
243.7528618601
 21
229.2757713724
  0
LINE
  5
7BB
100
AcDbEntity
  8
BEZUGSACHSEN
100
AcDbLine
 62
7
  6
CONTINUOUS
 10
236.8626109614
 20
249.9134500065
 11
241.7700882496
 21
241.4134500065
  0
LINE
  5
7BC
100
AcDbEntity
  8
BEZUGSACHSEN
100
AcDbLine
 62
7
  6
CONTINUOUS
 10
240.7222002132
 20
227.8733069175
 11
240.4634253674
 21
228.3495626131
  0
LINE
  5
7BD
100
AcDbEntity
  8
BEZUGSACHSEN
100
AcDbLine
 62
7
  6
CONTINUOUS
 10
244.2219935937
 20
229.5257749102
 11
244.4807665074
 21
229.0495178097
  0
LINE
  5
7BE
100
AcDbEntity
  8
0
100
AcDbLine
 62
7
  6
CONTINUOUS
 10
307.254270178
 20
73.9956587951
 11
307.0670784661
 21
74.5610329534
  0
LINE
  5
7BF
100
AcDbEntity
  8
0
100
AcDbLine
 62
7
  6
CONTINUOUS
 10
310.6721935027
 20
78.3884834064
 11
310.5335076202
 21
78.8415249058
  0
LINE
  5
7C0
100
AcDbEntity
  8
0
100
AcDbLine
 62
7
  6
CONTINUOUS
 10
302.777882072
 20
69.7338764093
 11
302.8391729395
 21
69.4095046858
  0
LINE
  5
7C1
100
AcDbEntity
  8
BEZUGSACHSEN
100
AcDbLine
 62
7
  6
CONTINUOUS
 10
306.5914851751
 20
233.723803076
 11
306.6373314587
 21
234.0990679716
  0
LINE
  5
7C2
100
AcDbEntity
  8
BEZUGSACHSEN
100
AcDbLine
 62
7
  6
CONTINUOUS
 10
310.0045049106
 20
229.3348010201
 11
310.0704937363
 21
229.7101734184
  0
LINE
  5
7C3
100
AcDbEntity
  8
BEZUGSACHSEN
100
AcDbLine
 62
7
  6
CONTINUOUS
 10
327.7669365544
 20
229.5676557666
 11
327.9648377872
 21
230.145548625
  0
LINE
  5
7C4
100
AcDbEntity
  8
BEZUGSACHSEN
100
AcDbLine
 62
7
  6
CONTINUOUS
 10
319.3345735413
 20
226.8820352078
 11
317.7350590449
 21
222.4270667405
  0
LINE
  5
7C5
100
AcDbEntity
  8
BEZUGSACHSEN
100
AcDbLine
 62
7
  6
CONTINUOUS
 10
317.4313955766
 20
223.4934523623
 11
318.9223333085
 21
227.4173885768
  0
LINE
  5
7C6
100
AcDbEntity
  8
BEZUGSACHSEN
100
AcDbLine
 62
7
  6
CONTINUOUS
 10
323.7271887399
 20
227.2628237087
 11
323.6081773516
 21
226.9898601524
  0
LINE
  5
7C7
100
AcDbEntity
  8
BEZUGSACHSEN
100
AcDbLine
 62
7
  6
CONTINUOUS
 10
327.5072803582
 20
224.9453780288
 11
327.2692597567
 21
224.3994519036
  0
LINE
  5
7C8
100
AcDbEntity
  8
BEZUGSACHSEN
100
AcDbLine
 62
7
  6
CONTINUOUS
 10
346.0132460561
 20
241.4134500065
 11
332.7341898647
 21
218.4134500065
  0
LINE
  5
7C9
100
AcDbEntity
  8
0
100
AcDbLine
 62
7
  6
CONTINUOUS
 10
245.2341898647
 20
43.4134500065
 11
258.5132460561
 21
66.4134500065
  0
LINE
  5
7CA
100
AcDbEntity
  8
0
100
AcDbLine
 62
7
  6
CONTINUOUS
 10
241.1913301096
 20
79.7035910774
 11
241.6659834548
 21
80.2773973511
  0
LINE
  5
7CB
100
AcDbEntity
  8
0
100
AcDbLine
 62
7
  6
CONTINUOUS
 10
243.7528618601
 20
78.5511286406
 11
243.278208515
 21
77.9773223669
  0
LINE
  5
7CC
100
AcDbEntity
  8
0
100
AcDbLine
 62
7
  6
CONTINUOUS
 10
243.611725007
 20
77.5633741796
 11
244.2219935937
 21
78.3011251028
  0
LINE
  5
7CD
100
AcDbEntity
  8
0
100
AcDbLine
 62
7
  6
CONTINUOUS
 10
239.3907913297
 20
82.4332168333
 11
239.0447011505
 21
82.1096408733
  0
LINE
  5
7CE
100
AcDbEntity
  8
0
100
AcDbLine
 62
7
  6
CONTINUOUS
 10
238.617666678
 20
80.1094267562
 11
238.4446204743
 21
79.9476392003
  0
LINE
  5
7CF
100
AcDbEntity
  8
0
100
AcDbLine
 62
7
  6
CONTINUOUS
 10
241.6659834548
 20
80.2773973511
 11
242.1530943692
 21
80.7028358234
  0
LINE
  5
7D0
100
AcDbEntity
  8
0
100
AcDbLine
 62
7
  6
CONTINUOUS
 10
243.278208515
 20
77.9773223669
 11
242.7910993427
 21
77.5518822601
  0
LINE
  5
7D1
100
AcDbEntity
  8
0
100
AcDbLine
 62
7
  6
CONTINUOUS
 10
241.7517702564
 20
81.034811686
 11
241.3324687999
 21
80.6913440188
  0
LINE
  5
7D2
100
AcDbEntity
  8
0
100
AcDbLine
 62
7
  6
CONTINUOUS
 10
243.1924216184
 20
77.2199079172
 11
243.611725007
 21
77.5633741796
  0
LINE
  5
7D3
100
AcDbEntity
  8
0
100
AcDbLine
 62
7
  6
CONTINUOUS
 10
213.9086997757
 20
69.9287362491
 11
214.1486970578
 21
70.1050129226
  0
LINE
  5
7D4
100
AcDbEntity
  8
0
100
AcDbLine
 62
7
  6
CONTINUOUS
 10
237.1300419773
 20
83.5214639716
 11
237.4382875526
 21
83.7456159837
  0
LINE
  5
7D5
100
AcDbEntity
  8
0
100
AcDbLine
 62
7
  6
CONTINUOUS
 10
239.320568584
 20
81.6631378479
 11
239.6288119312
 21
81.8872907082
  0
LINE
  5
7D6
100
AcDbEntity
  8
0
100
AcDbLine
 62
7
  6
CONTINUOUS
 10
238.5852885097
 20
79.4387716491
 11
238.893534085
 21
79.6629236612
  0
LINE
  5
7D7
100
AcDbEntity
  8
0
100
AcDbLine
 62
7
  6
CONTINUOUS
 10
218.7037774023
 20
71.9589452782
 11
219.083871408
 21
72.2317257343
  0
LINE
  5
7D8
100
AcDbEntity
  8
0
100
AcDbLine
 62
7
  6
CONTINUOUS
 10
242.0354584986
 20
81.2143334136
 11
241.7517702564
 21
81.034811686
  0
LINE
  5
7D9
100
AcDbEntity
  8
0
100
AcDbLine
 62
7
  6
CONTINUOUS
 10
219.7286028974
 20
80.8481172067
 11
219.2756508483
 21
80.5698735155
  0
LINE
  5
7DA
100
AcDbEntity
  8
0
100
AcDbLine
 62
7
  6
CONTINUOUS
 10
219.7118328827
 20
80.1038592351
 11
220.088733401
 21
80.3109198899
  0
LINE
  5
7DB
100
AcDbEntity
  8
0
100
AcDbLine
 62
7
  6
CONTINUOUS
 10
218.564335449
 20
72.6168974921
 11
218.2319911604
 21
72.4366951131
  0
LINE
  5
7DC
100
AcDbEntity
  8
0
100
AcDbLine
 62
7
  6
CONTINUOUS
 10
214.2367587077
 20
70.7237779392
 11
213.7714411131
 21
70.4743522917
  0
LINE
  5
7DD
100
AcDbEntity
  8
0
100
AcDbLine
 62
7
  6
CONTINUOUS
 10
237.432816634
 20
84.3168487697
 11
236.892023604
 21
84.0673892486
  0
LWPOLYLINE
  5
7DE
100
AcDbEntity
  8
RUNDUNGEN
100
AcDbPolyline
 62
7
  6
CONTINUOUS
 90
4
 70
0
 10
326.273753845
 20
121.2429537555
 10
326.5737085433
 20
121.3722821746
 10
326.9991936443
 20
121.5336308779
 10
327.4238246251
 20
121.6678112793
  0
LINE
  5
7DF
100
AcDbEntity
  8
0
100
AcDbLine
 62
7
  6
CONTINUOUS
 10
220.1782004214
 20
80.9775088147
 11
219.7286028974
 21
80.8481172067
  0
LWPOLYLINE
  5
7E0
100
AcDbEntity
  8
BEZUGSACHSEN
100
AcDbPolyline
 62
7
  6
CONTINUOUS
 90
3
 70
0
 10
136.4774898943
 20
186.156556857
 10
136.0538510925
 20
186.0511949301
 10
135.6296269466
 20
185.9748235006
  0
LINE
  5
7E1
100
AcDbEntity
  8
BEZUGSACHSEN
100
AcDbLine
 62
7
  6
CONTINUOUS
 10
305.3528488135
 20
235.4290641752
 11
304.9269088884
 21
235.326579253
  0
LINE
  5
7E2
100
AcDbEntity
  8
BEZUGSACHSEN
100
AcDbLine
 62
7
  6
CONTINUOUS
 10
238.6172283803
 20
223.6194244789
 11
237.8979182281
 21
223.45943877
  0
LINE
  5
7E3
100
AcDbEntity
  8
BEZUGSACHSEN
100
AcDbLine
 62
7
  6
CONTINUOUS
 10
325.4416742498
 20
228.0292973037
 11
324.9170669484
 21
227.9434280337
  0
LINE
  5
7E4
100
AcDbEntity
  8
BEZUGSACHSEN
100
AcDbLine
 62
7
  6
CONTINUOUS
 10
331.0161810944
 20
226.4567935568
 11
330.4114341194
 21
226.3707346687
  0
LINE
  5
7E5
100
AcDbEntity
  8
BEZUGSACHSEN
100
AcDbLine
 62
7
  6
CONTINUOUS
 10
328.9280127185
 20
230.9422882637
 11
329.5327578741
 21
231.0283456106
  0
LINE
  5
7E6
100
AcDbEntity
  8
BEZUGSACHSEN
100
AcDbLine
 62
7
  6
CONTINUOUS
 10
324.8251853009
 20
228.4776022457
 11
325.2524400661
 21
228.5264128634
  0
LINE
  5
7E7
100
AcDbEntity
  8
BEZUGSACHSEN
100
AcDbLine
 62
7
  6
CONTINUOUS
 10
330.3809973692
 20
226.8978088775
 11
330.7574063435
 21
226.9330491376
  0
LINE
  5
7E8
100
AcDbEntity
  8
BEZUGSACHSEN
100
AcDbLine
 62
7
  6
CONTINUOUS
 10
329.563194648
 20
230.5012713731
 11
329.1867856737
 21
230.466031113
  0
LINE
  5
7E9
100
AcDbEntity
  8
BEZUGSACHSEN
100
AcDbLine
 62
7
  6
CONTINUOUS
 10
332.7341898647
 20
218.4134500065
 11
306.176077482
 21
218.4134500065
  0
LINE
  5
7EA
100
AcDbEntity
  8
BEZUGSACHSEN
100
AcDbLine
 62
7
  6
CONTINUOUS
 10
245.2341898647
 20
218.4134500065
 11
218.676077482
 21
218.4134500065
  0
LINE
  5
7EB
100
AcDbEntity
  8
BEZUGSACHSEN
100
AcDbLine
 62
7
  6
CONTINUOUS
 10
157.7341898647
 20
218.4134500065
 11
131.176077482
 21
218.4134500065
  0
LINE
  5
7EC
100
AcDbEntity
  8
BEZUGSACHSEN
100
AcDbLine
 62
7
  6
CONTINUOUS
 10
155.4114341194
 20
226.3707346687
 11
154.9672175243
 21
226.4174667334
  0
LINE
  5
7ED
100
AcDbEntity
  8
BEZUGSACHSEN
100
AcDbLine
 62
7
  6
CONTINUOUS
 10
150.3979182281
 20
223.45943877
 11
149.932816634
 21
223.5100512433
  0
LINE
  5
7EE
100
AcDbEntity
  8
BEZUGSACHSEN
100
AcDbLine
 62
7
  6
CONTINUOUS
 10
150.6742239327
 20
228.0039906429
 11
150.4416742498
 21
228.0292973037
  0
LINE
  5
7EF
100
AcDbEntity
  8
BEZUGSACHSEN
100
AcDbLine
 62
7
  6
CONTINUOUS
 10
150.2524400661
 20
228.5264128634
 11
150.7175394419
 21
228.4757995157
  0
LINE
  5
7F0
100
AcDbEntity
  8
BEZUGSACHSEN
100
AcDbLine
 62
7
  6
CONTINUOUS
 10
132.588733401
 20
227.5159801231
 11
132.9622802644
 21
227.4577707367
  0
LINE
  5
7F1
100
AcDbEntity
  8
BEZUGSACHSEN
100
AcDbLine
 62
7
  6
CONTINUOUS
 10
127.0674007125
 20
237.044962315
 11
126.7367587077
 21
237.1031220738
  0
LINE
  5
7F2
100
AcDbEntity
  8
BEZUGSACHSEN
100
AcDbLine
 62
7
  6
CONTINUOUS
 10
126.6486970578
 20
237.7218870904
 11
126.9793390626
 21
237.6637273317
  0
LINE
  5
7F3
100
AcDbEntity
  8
BEZUGSACHSEN
100
AcDbLine
 62
7
  6
CONTINUOUS
 10
128.4417492176
 20
238.7135855749
 11
130.7709205793
 21
238.2033391634
  0
LINE
  5
7F4
100
AcDbEntity
  8
BEZUGSACHSEN
100
AcDbLine
 62
7
  6
CONTINUOUS
 10
130.8736591989
 20
237.4814464472
 11
128.3191675037
 21
238.0648419803
  0
LINE
  5
7F5
100
AcDbEntity
  8
BEZUGSACHSEN
100
AcDbLine
 62
7
  6
CONTINUOUS
 10
220.1782004214
 20
226.8493911983
 11
219.7286028974
 21
226.9787828063
  0
LWPOLYLINE
  5
7F6
100
AcDbEntity
  8
BEZUGSACHSEN
100
AcDbPolyline
 62
7
  6
CONTINUOUS
 90
4
 70
0
 10
327.4238246251
 20
186.1590887337
 10
326.9991936443
 20
186.2932691351
 10
326.5737085433
 20
186.4546178384
 10
326.273753845
 20
186.5839462575
  0
LINE
  5
7F7
100
AcDbEntity
  8
BEZUGSACHSEN
100
AcDbLine
 62
7
  6
CONTINUOUS
 10
237.432816634
 20
223.5100512433
 11
236.892023604
 21
223.7595107644
  0
LINE
  5
7F8
100
AcDbEntity
  8
BEZUGSACHSEN
100
AcDbLine
 62
7
  6
CONTINUOUS
 10
214.2367587077
 20
237.1031220738
 11
213.7714411131
 21
237.3525477213
  0
LINE
  5
7F9
100
AcDbEntity
  8
BEZUGSACHSEN
100
AcDbLine
 62
7
  6
CONTINUOUS
 10
218.564335449
 20
235.2100025209
 11
218.2319911604
 21
235.3902048999
  0
LINE
  5
7FA
100
AcDbEntity
  8
BEZUGSACHSEN
100
AcDbLine
 62
7
  6
CONTINUOUS
 10
219.7118328827
 20
227.7230407779
 11
220.088733401
 21
227.5159801231
  0
LINE
  5
7FB
100
AcDbEntity
  8
BEZUGSACHSEN
100
AcDbLine
 62
7
  6
CONTINUOUS
 10
219.7286028974
 20
226.9787828063
 11
219.2756508483
 21
227.2570264975
  0
LINE
  5
7FC
100
AcDbEntity
  8
BEZUGSACHSEN
100
AcDbLine
 62
7
  6
CONTINUOUS
 10
242.0354584986
 20
226.6125665994
 11
241.7517702564
 21
226.792088327
  0
LINE
  5
7FD
100
AcDbEntity
  8
BEZUGSACHSEN
100
AcDbLine
 62
7
  6
CONTINUOUS
 10
218.7037774023
 20
235.8679547348
 11
219.083871408
 21
235.5951742787
  0
LINE
  5
7FE
100
AcDbEntity
  8
BEZUGSACHSEN
100
AcDbLine
 62
7
  6
CONTINUOUS
 10
237.1300419773
 20
224.3054360413
 11
237.4382875526
 21
224.0812840293
  0
LINE
  5
7FF
100
AcDbEntity
  8
BEZUGSACHSEN
100
AcDbLine
 62
7
  6
CONTINUOUS
 10
239.320568584
 20
226.1637621651
 11
239.6288119312
 21
225.9396093048
  0
LINE
  5
800
100
AcDbEntity
  8
BEZUGSACHSEN
100
AcDbLine
 62
7
  6
CONTINUOUS
 10
238.5852885097
 20
228.3881283639
 11
238.893534085
 21
228.1639763518
  0
LINE
  5
801
100
AcDbEntity
  8
BEZUGSACHSEN
100
AcDbLine
 62
7
  6
CONTINUOUS
 10
213.9086997757
 20
237.8981637639
 11
214.1486970578
 21
237.7218870904
  0
LINE
  5
802
100
AcDbEntity
  8
BEZUGSACHSEN
100
AcDbLine
 62
7
  6
CONTINUOUS
 10
241.7517702564
 20
226.792088327
 11
241.3324687999
 21
227.1355559942
  0
LINE
  5
803
100
AcDbEntity
  8
BEZUGSACHSEN
100
AcDbLine
 62
7
  6
CONTINUOUS
 10
243.1924216184
 20
230.6069920958
 11
243.611725007
 21
230.2635258334
  0
LINE
  5
804
100
AcDbEntity
  8
BEZUGSACHSEN
100
AcDbLine
 62
7
  6
CONTINUOUS
 10
241.6659834548
 20
227.5495026619
 11
242.1530943692
 21
227.1240641895
  0
LINE
  5
805
100
AcDbEntity
  8
BEZUGSACHSEN
100
AcDbLine
 62
7
  6
CONTINUOUS
 10
243.278208515
 20
229.8495776461
 11
242.7910993427
 21
230.2750177529
  0
LINE
  5
806
100
AcDbEntity
  8
BEZUGSACHSEN
100
AcDbLine
 62
7
  6
CONTINUOUS
 10
239.3907913297
 20
225.3936831797
 11
239.0447011505
 21
225.7172591397
  0
LINE
  5
807
100
AcDbEntity
  8
BEZUGSACHSEN
100
AcDbLine
 62
7
  6
CONTINUOUS
 10
238.617666678
 20
227.7174732568
 11
238.4446204743
 21
227.8792608127
  0
LINE
  5
808
100
AcDbEntity
  8
BEZUGSACHSEN
100
AcDbLine
 62
7
  6
CONTINUOUS
 10
241.1913301096
 20
228.1233089356
 11
241.6659834548
 21
227.5495026619
  0
LINE
  5
809
100
AcDbEntity
  8
BEZUGSACHSEN
100
AcDbLine
 62
7
  6
CONTINUOUS
 10
243.7528618601
 20
229.2757713724
 11
243.278208515
 21
229.8495776461
  0
LINE
  5
80A
100
AcDbEntity
  8
BEZUGSACHSEN
100
AcDbLine
 62
7
  6
CONTINUOUS
 10
243.611725007
 20
230.2635258334
 11
244.2219935937
 21
229.5257749102
  0
LINE
  5
80B
100
AcDbEntity
  8
0
100
AcDbLine
 62
7
  6
CONTINUOUS
 10
346.0132460561
 20
66.4134500065
 11
332.7341898647
 21
89.4134500065
  0
LINE
  5
80C
100
AcDbEntity
  8
BEZUGSACHSEN
100
AcDbLine
 62
7
  6
CONTINUOUS
 10
245.2341898647
 20
264.4134500065
 11
258.5132460561
 21
241.4134500065
  0
LINE
  5
80D
100
AcDbEntity
  8
0
100
AcDbLine
 62
7
  6
CONTINUOUS
 10
323.7271887399
 20
80.5640763043
 11
323.6081773516
 21
80.8370398606
  0
LINE
  5
80E
100
AcDbEntity
  8
0
100
AcDbLine
 62
7
  6
CONTINUOUS
 10
327.5072803582
 20
82.8815219842
 11
327.2692597567
 21
83.4274481093
  0
LINE
  5
80F
100
AcDbEntity
  8
0
100
AcDbLine
 62
7
  6
CONTINUOUS
 10
317.4313955766
 20
84.3334476506
 11
318.9223333085
 21
80.4095114362
  0
LINE
  5
810
100
AcDbEntity
  8
0
100
AcDbLine
 62
7
  6
CONTINUOUS
 10
319.3345735413
 20
80.9448648052
 11
317.7350590449
 21
85.3998332725
  0
LINE
  5
811
100
AcDbEntity
  8
0
100
AcDbLine
 62
7
  6
CONTINUOUS
 10
327.7669365544
 20
78.2592442464
 11
327.9648377872
 21
77.6813513879
  0
LINE
  5
812
100
AcDbEntity
  8
0
100
AcDbLine
 62
7
  6
CONTINUOUS
 10
310.0045049106
 20
78.4920989929
 11
310.0704937363
 21
78.1167265946
  0
LINE
  5
813
100
AcDbEntity
  8
0
100
AcDbLine
 62
7
  6
CONTINUOUS
 10
306.5914851751
 20
74.103096937
 11
306.6373314587
 21
73.7278320414
  0
LINE
  5
814
100
AcDbEntity
  8
BEZUGSACHSEN
100
AcDbLine
 62
7
  6
CONTINUOUS
 10
310.6587780386
 20
230.0338225223
 11
310.6721935027
 21
229.4384166066
  0
LINE
  5
815
100
AcDbEntity
  8
BEZUGSACHSEN
100
AcDbLine
 62
7
  6
CONTINUOUS
 10
307.2523666617
 20
234.2990841477
 11
307.254270178
 21
233.8312412178
  0
LINE
  5
816
100
AcDbEntity
  8
0
100
AcDbLine
 62
7
  6
CONTINUOUS
 10
307.2523666617
 20
73.5278158653
 11
307.254270178
 21
73.9956587951
  0
LINE
  5
817
100
AcDbEntity
  8
0
100
AcDbLine
 62
7
  6
CONTINUOUS
 10
310.6587780386
 20
77.7930774907
 11
310.6721935027
 21
78.3884834064
  0
LINE
  5
818
100
AcDbEntity
  8
0
100
AcDbLine
 62
7
  6
CONTINUOUS
 10
300.7180618687
 20
69.6061616276
 11
300.3658152691
 21
67.1311015611
  0
LINE
  5
819
100
AcDbEntity
  8
0
100
AcDbLine
 62
7
  6
CONTINUOUS
 10
300.980485381
 20
67.6749205016
 11
301.2593472583
 21
69.634342956
  0
LINE
  5
81A
100
AcDbEntity
  8
BEZUGSACHSEN
100
AcDbLine
 62
7
  6
CONTINUOUS
 10
323.0835722518
 20
226.9039918003
 11
323.1647346064
 21
227.2763775385
  0
LINE
  5
81B
100
AcDbEntity
  8
BEZUGSACHSEN
100
AcDbLine
 62
7
  6
CONTINUOUS
 10
326.8098493176
 20
227.0703220456
 11
326.7286847349
 21
226.6979354592
  0
LINE
  5
81C
100
AcDbEntity
  8
BEZUGSACHSEN
100
AcDbLine
 62
7
  6
CONTINUOUS
 10
326.8853227454
 20
224.8224509634
 11
326.9664850999
 21
225.1948367016
  0
LINE
  5
81D
100
AcDbEntity
  8
BEZUGSACHSEN
100
AcDbLine
 62
7
  6
CONTINUOUS
 10
328.3841392853
 20
229.8020809076
 11
328.278960794
 21
229.4389513483
  0
LINE
  5
81E
100
AcDbEntity
  8
BEZUGSACHSEN
100
AcDbLine
 62
7
  6
CONTINUOUS
 10
331.560052732
 20
227.596999343
 11
331.6652312233
 21
227.9601289023
  0
LINE
  5
81F
100
AcDbEntity
  8
BEZUGSACHSEN
100
AcDbLine
 62
7
  6
CONTINUOUS
 10
332.1772554391
 20
227.8314245127
 11
331.9793560256
 21
227.2535331954
  0
LINE
  5
820
100
AcDbEntity
  8
0
100
AcDbLine
 62
7
  6
CONTINUOUS
 10
242.9087335662
 20
77.0403864192
 11
243.1924216184
 21
77.2199079172
  0
LINE
  5
821
100
AcDbEntity
  8
0
100
AcDbLine
 62
7
  6
CONTINUOUS
 10
239.0447011505
 20
82.1096408733
 11
238.7743046355
 21
81.9849111127
  0
LINE
  5
822
100
AcDbEntity
  8
0
100
AcDbLine
 62
7
  6
CONTINUOUS
 10
238.4446204743
 20
79.9476392003
 11
238.1742239327
 21
79.8229093701
  0
LINE
  5
823
100
AcDbEntity
  8
RUNDUNGEN
100
AcDbLine
 62
7
  6
CONTINUOUS
 10
326.2711586636
 20
121.241780705
 11
326.273753845
 21
121.2429537555
  0
LINE
  5
824
100
AcDbEntity
  8
0
100
AcDbLine
 62
7
  6
CONTINUOUS
 10
242.4672175243
 20
81.4094332796
 11
242.0354584986
 21
81.2143334136
  0
LINE
  5
825
100
AcDbEntity
  8
0
100
AcDbLine
 62
7
  6
CONTINUOUS
 10
242.4769744929
 20
76.8452864958
 11
242.9087335662
 21
77.0403864192
  0
LINE
  5
826
100
AcDbEntity
  8
0
100
AcDbLine
 62
7
  6
CONTINUOUS
 10
242.1530943692
 20
80.7028358234
 11
242.8809973692
 21
80.9290911355
  0
LINE
  5
827
100
AcDbEntity
  8
0
100
AcDbLine
 62
7
  6
CONTINUOUS
 10
242.7910993427
 20
77.5518822601
 11
242.063194648
 21
77.3256286399
  0
LINE
  5
828
100
AcDbEntity
  8
0
100
AcDbLine
 62
7
  6
CONTINUOUS
 10
218.1345884416
 20
71.7836965802
 11
218.7037774023
 21
71.9589452782
  0
LINE
  5
829
100
AcDbEntity
  8
0
100
AcDbLine
 62
7
  6
CONTINUOUS
 10
238.8176201579
 20
81.5131022748
 11
239.320568584
 21
81.6631378479
  0
LINE
  5
82A
100
AcDbEntity
  8
BEZUGSACHSEN
100
AcDbLine
 62
7
  6
CONTINUOUS
 10
220.4622802644
 20
227.4577707367
 11
220.8324736767
 21
227.5484128364
  0
LINE
  5
82B
100
AcDbEntity
  8
BEZUGSACHSEN
100
AcDbLine
 62
7
  6
CONTINUOUS
 10
237.8060366071
 20
223.9936129123
 11
238.3306416803
 21
224.079481334
  0
LINE
  5
82C
100
AcDbEntity
  8
BEZUGSACHSEN
100
AcDbLine
 62
7
  6
CONTINUOUS
 10
237.9416742498
 20
228.0292973037
 11
237.4170669484
 21
227.9434280337
  0
LINE
  5
82D
100
AcDbEntity
  8
BEZUGSACHSEN
100
AcDbLine
 62
7
  6
CONTINUOUS
 10
243.5161810944
 20
226.4567935568
 11
242.9114341194
 21
226.3707346687
  0
LINE
  5
82E
100
AcDbEntity
  8
BEZUGSACHSEN
100
AcDbLine
 62
7
  6
CONTINUOUS
 10
302.4886877772
 20
237.1049192179
 11
302.0674007125
 21
237.044962315
  0
LINE
  5
82F
100
AcDbEntity
  8
BEZUGSACHSEN
100
AcDbLine
 62
7
  6
CONTINUOUS
 10
301.9793390626
 20
237.6637273317
 11
302.2953044349
 21
237.7086950193
  0
LINE
  5
830
100
AcDbEntity
  8
BEZUGSACHSEN
100
AcDbLine
 62
7
  6
CONTINUOUS
 10
241.4280127185
 20
230.9422882637
 11
242.0327578741
 21
231.0283456106
  0
LINE
  5
831
100
AcDbEntity
  8
BEZUGSACHSEN
100
AcDbLine
 62
7
  6
CONTINUOUS
 10
305.4039970521
 20
240.7815266343
 11
303.1922412166
 21
240.4667530729
  0
LINE
  5
832
100
AcDbEntity
  8
BEZUGSACHSEN
100
AcDbLine
 62
7
  6
CONTINUOUS
 10
302.5603110622
 20
240.3768177816
 11
300.980485381
 21
240.1519795114
  0
LINE
  5
833
100
AcDbEntity
  8
BEZUGSACHSEN
100
AcDbLine
 62
7
  6
CONTINUOUS
 10
300.3658152691
 20
240.6957984519
 11
305.3159354023
 21
241.400291651
  0
LINE
  5
834
100
AcDbEntity
  8
BEZUGSACHSEN
100
AcDbLine
 62
7
  6
CONTINUOUS
 10
237.3251853009
 20
228.4776022457
 11
237.7524400661
 21
228.5264128634
  0
LINE
  5
835
100
AcDbEntity
  8
BEZUGSACHSEN
100
AcDbLine
 62
7
  6
CONTINUOUS
 10
242.8809973692
 20
226.8978088775
 11
243.2574063435
 21
226.9330491376
  0
LINE
  5
836
100
AcDbEntity
  8
BEZUGSACHSEN
100
AcDbLine
 62
7
  6
CONTINUOUS
 10
242.063194648
 20
230.5012713731
 11
241.6867856737
 21
230.466031113
  0
LINE
  5
837
100
AcDbEntity
  8
BEZUGSACHSEN
100
AcDbLine
 62
7
  6
CONTINUOUS
 10
155.3809973692
 20
226.8978088775
 11
155.7574063435
 21
226.9330491376
  0
LINE
  5
838
100
AcDbEntity
  8
BEZUGSACHSEN
100
AcDbLine
 62
7
  6
CONTINUOUS
 10
308.2731919569
 20
226.8753376836
 11
307.6782004214
 21
226.8493911983
  0
LINE
  5
839
100
AcDbEntity
  8
BEZUGSACHSEN
100
AcDbLine
 62
7
  6
CONTINUOUS
 10
220.7731919569
 20
226.8753376836
 11
220.1782004214
 21
226.8493911983
  0
LINE
  5
83A
100
AcDbEntity
  8
BEZUGSACHSEN
100
AcDbLine
 62
7
  6
CONTINUOUS
 10
133.2731919569
 20
226.8753376836
 11
132.6782004214
 21
226.8493911983
  0
LINE
  5
83B
100
AcDbEntity
  8
BEZUGSACHSEN
100
AcDbLine
 62
7
  6
CONTINUOUS
 10
326.2743046355
 20
225.8419889003
 11
325.6145001906
 21
225.8184849347
  0
LINE
  5
83C
100
AcDbEntity
  8
BEZUGSACHSEN
100
AcDbLine
 62
7
  6
CONTINUOUS
 10
238.7743046355
 20
225.8419889003
 11
238.1145001906
 21
225.8184849347
  0
LINE
  5
83D
100
AcDbEntity
  8
BEZUGSACHSEN
100
AcDbLine
 62
7
  6
CONTINUOUS
 10
151.2743046355
 20
225.8419889003
 11
150.6145001906
 21
225.8184849347
  0
LINE
  5
83E
100
AcDbEntity
  8
BEZUGSACHSEN
100
AcDbLine
 62
7
  6
CONTINUOUS
 10
305.1608985552
 20
236.033296797
 11
305.6345884416
 21
236.0432034328
  0
LINE
  5
83F
100
AcDbEntity
  8
BEZUGSACHSEN
100
AcDbLine
 62
7
  6
CONTINUOUS
 10
324.3626109614
 20
232.9134500065
 11
314.5476563852
 21
232.9134500065
  0
LINE
  5
840
100
AcDbEntity
  8
BEZUGSACHSEN
100
AcDbLine
 62
7
  6
CONTINUOUS
 10
236.8626109614
 20
232.9134500065
 11
227.0476563852
 21
232.9134500065
  0
LINE
  5
841
100
AcDbEntity
  8
BEZUGSACHSEN
100
AcDbLine
 62
7
  6
CONTINUOUS
 10
149.3626109614
 20
232.9134500065
 11
139.5476563852
 21
232.9134500065
  0
LINE
  5
842
100
AcDbEntity
  8
BEZUGSACHSEN
100
AcDbLine
 62
7
  6
CONTINUOUS
 10
146.7974192367
 20
222.3933632996
 11
145.8599515001
 21
222.4011410167
  0
LINE
  5
843
100
AcDbEntity
  8
BEZUGSACHSEN
100
AcDbLine
 62
7
  6
CONTINUOUS
 10
142.7350590449
 20
222.4270667405
 11
141.7975913083
 21
222.4348444577
  0
LINE
  5
844
100
AcDbEntity
  8
BEZUGSACHSEN
100
AcDbLine
 62
7
  6
CONTINUOUS
 10
234.2974192367
 20
222.3933632996
 11
233.3599515001
 21
222.4011410167
  0
LINE
  5
845
100
AcDbEntity
  8
BEZUGSACHSEN
100
AcDbLine
 62
7
  6
CONTINUOUS
 10
230.2350590449
 20
222.4270667405
 11
229.2975913083
 21
222.4348444577
  0
LINE
  5
846
100
AcDbEntity
  8
BEZUGSACHSEN
100
AcDbLine
 62
7
  6
CONTINUOUS
 10
321.7974192367
 20
222.3933632996
 11
320.8599515001
 21
222.4011410167
  0
LINE
  5
847
100
AcDbEntity
  8
BEZUGSACHSEN
100
AcDbLine
 62
7
  6
CONTINUOUS
 10
317.7350590449
 20
222.4270667405
 11
316.7975913083
 21
222.4348444577
  0
LINE
  5
848
100
AcDbEntity
  8
BEZUGSACHSEN
100
AcDbLine
 62
7
  6
CONTINUOUS
 10
141.8390724664
 20
227.4346723861
 11
142.4640509575
 21
227.4294872413
  0
LINE
  5
849
100
AcDbEntity
  8
BEZUGSACHSEN
100
AcDbLine
 62
7
  6
CONTINUOUS
 10
143.9223333085
 20
227.4173885768
 11
144.7556395527
 21
227.4104750372
  0
LINE
  5
84A
100
AcDbEntity
  8
BEZUGSACHSEN
100
AcDbLine
 62
7
  6
CONTINUOUS
 10
146.2139219037
 20
227.3983763727
 11
146.8389003948
 21
227.3931912279
  0
LINE
  5
84B
100
AcDbEntity
  8
BEZUGSACHSEN
100
AcDbLine
 62
7
  6
CONTINUOUS
 10
229.3390724664
 20
227.4346723861
 11
229.9640509575
 21
227.4294872413
  0
LINE
  5
84C
100
AcDbEntity
  8
BEZUGSACHSEN
100
AcDbLine
 62
7
  6
CONTINUOUS
 10
231.4223333085
 20
227.4173885768
 11
232.2556395527
 21
227.4104750372
  0
LINE
  5
84D
100
AcDbEntity
  8
BEZUGSACHSEN
100
AcDbLine
 62
7
  6
CONTINUOUS
 10
233.7139219037
 20
227.3983763727
 11
234.3389003948
 21
227.3931912279
  0
LINE
  5
84E
100
AcDbEntity
  8
BEZUGSACHSEN
100
AcDbLine
 62
7
  6
CONTINUOUS
 10
316.8390724664
 20
227.4346723861
 11
317.4640509575
 21
227.4294872413
  0
LINE
  5
84F
100
AcDbEntity
  8
BEZUGSACHSEN
100
AcDbLine
 62
7
  6
CONTINUOUS
 10
318.9223333085
 20
227.4173885768
 11
319.7556395527
 21
227.4104750372
  0
LINE
  5
850
100
AcDbEntity
  8
BEZUGSACHSEN
100
AcDbLine
 62
7
  6
CONTINUOUS
 10
321.2139219037
 20
227.3983763727
 11
321.8389003948
 21
227.3931912279
  0
LINE
  5
851
100
AcDbEntity
  8
BEZUGSACHSEN
100
AcDbLine
 62
7
  6
CONTINUOUS
 10
130.7319911604
 20
235.3902048999
 11
130.3528488135
 21
235.4290641752
  0
LINE
  5
852
100
AcDbEntity
  8
BEZUGSACHSEN
100
AcDbLine
 62
7
  6
CONTINUOUS
 10
218.2319911604
 20
235.3902048999
 11
217.8528488135
 21
235.4290641752
  0
LINE
  5
853
100
AcDbEntity
  8
BEZUGSACHSEN
100
AcDbLine
 62
7
  6
CONTINUOUS
 10
154.5327578741
 20
231.0283456106
 11
154.9769744929
 21
230.9816135172
  0
LINE
  5
854
100
AcDbEntity
  8
BEZUGSACHSEN
100
AcDbLine
 62
7
  6
CONTINUOUS
 10
242.9114341194
 20
226.3707346687
 11
242.4672175243
 21
226.4174667334
  0
LINE
  5
855
100
AcDbEntity
  8
BEZUGSACHSEN
100
AcDbLine
 62
7
  6
CONTINUOUS
 10
242.0327578741
 20
231.0283456106
 11
242.4769744929
 21
230.9816135172
  0
LINE
  5
856
100
AcDbEntity
  8
BEZUGSACHSEN
100
AcDbLine
 62
7
  6
CONTINUOUS
 10
237.8979182281
 20
223.45943877
 11
237.432816634
 21
223.5100512433
  0
LINE
  5
857
100
AcDbEntity
  8
BEZUGSACHSEN
100
AcDbLine
 62
7
  6
CONTINUOUS
 10
238.1742239327
 20
228.0039906429
 11
237.9416742498
 21
228.0292973037
  0
LINE
  5
858
100
AcDbEntity
  8
BEZUGSACHSEN
100
AcDbLine
 62
7
  6
CONTINUOUS
 10
237.7524400661
 20
228.5264128634
 11
238.2175394419
 21
228.4757995157
  0
LINE
  5
859
100
AcDbEntity
  8
BEZUGSACHSEN
100
AcDbLine
 62
7
  6
CONTINUOUS
 10
325.3979182281
 20
223.45943877
 11
324.932816634
 21
223.5100512433
  0
LINE
  5
85A
100
AcDbEntity
  8
BEZUGSACHSEN
100
AcDbLine
 62
7
  6
CONTINUOUS
 10
220.088733401
 20
227.5159801231
 11
220.4622802644
 21
227.4577707367
  0
LINE
  5
85B
100
AcDbEntity
  8
BEZUGSACHSEN
100
AcDbLine
 62
7
  6
CONTINUOUS
 10
214.5674007125
 20
237.044962315
 11
214.2367587077
 21
237.1031220738
  0
LINE
  5
85C
100
AcDbEntity
  8
BEZUGSACHSEN
100
AcDbLine
 62
7
  6
CONTINUOUS
 10
214.1486970578
 20
237.7218870904
 11
214.4793390626
 21
237.6637273317
  0
LINE
  5
85D
100
AcDbEntity
  8
BEZUGSACHSEN
100
AcDbLine
 62
7
  6
CONTINUOUS
 10
215.9417492176
 20
238.7135855749
 11
218.2709205793
 21
238.2033391634
  0
LINE
  5
85E
100
AcDbEntity
  8
BEZUGSACHSEN
100
AcDbLine
 62
7
  6
CONTINUOUS
 10
218.3736591989
 20
237.4814464472
 11
215.8191675037
 21
238.0648419803
  0
LINE
  5
85F
100
AcDbEntity
  8
BEZUGSACHSEN
100
AcDbLine
 62
7
  6
CONTINUOUS
 10
237.4382875526
 20
224.0812840293
 11
237.8060366071
 21
223.9936129123
  0
LINE
  5
860
100
AcDbEntity
  8
BEZUGSACHSEN
100
AcDbLine
 62
7
  6
CONTINUOUS
 10
238.2175394419
 20
228.4757995157
 11
238.5852885097
 21
228.3881283639
  0
LINE
  5
861
100
AcDbEntity
  8
BEZUGSACHSEN
100
AcDbLine
 62
7
  6
CONTINUOUS
 10
238.8176201579
 20
226.3137977382
 11
239.320568584
 21
226.1637621651
  0
LINE
  5
862
100
AcDbEntity
  8
BEZUGSACHSEN
100
AcDbLine
 62
7
  6
CONTINUOUS
 10
218.1345884416
 20
236.0432034328
 11
218.7037774023
 21
235.8679547348
  0
LINE
  5
863
100
AcDbEntity
  8
BEZUGSACHSEN
100
AcDbLine
 62
7
  6
CONTINUOUS
 10
242.1530943692
 20
227.1240641895
 11
242.8809973692
 21
226.8978088775
  0
LINE
  5
864
100
AcDbEntity
  8
BEZUGSACHSEN
100
AcDbLine
 62
7
  6
CONTINUOUS
 10
242.7910993427
 20
230.2750177529
 11
242.063194648
 21
230.5012713731
  0
LINE
  5
865
100
AcDbEntity
  8
BEZUGSACHSEN
100
AcDbLine
 62
7
  6
CONTINUOUS
 10
242.4672175243
 20
226.4174667334
 11
242.0354584986
 21
226.6125665994
  0
LINE
  5
866
100
AcDbEntity
  8
BEZUGSACHSEN
100
AcDbLine
 62
7
  6
CONTINUOUS
 10
242.4769744929
 20
230.9816135172
 11
242.9087335662
 21
230.7865135938
  0
LINE
  5
867
100
AcDbEntity
  8
BEZUGSACHSEN
100
AcDbLine
 62
7
  6
CONTINUOUS
 10
326.2712286107
 20
186.5850877068
 11
326.273753845
 21
186.5839462575
  0
LINE
  5
868
100
AcDbEntity
  8
BEZUGSACHSEN
100
AcDbLine
 62
7
  6
CONTINUOUS
 10
239.0447011505
 20
225.7172591397
 11
238.7743046355
 21
225.8419889003
  0
LINE
  5
869
100
AcDbEntity
  8
BEZUGSACHSEN
100
AcDbLine
 62
7
  6
CONTINUOUS
 10
238.4446204743
 20
227.8792608127
 11
238.1742239327
 21
228.0039906429
  0
LINE
  5
86A
100
AcDbEntity
  8
BEZUGSACHSEN
100
AcDbLine
 62
7
  6
CONTINUOUS
 10
242.9087335662
 20
230.7865135938
 11
243.1924216184
 21
230.6069920958
  0
LINE
  5
86B
100
AcDbEntity
  8
0
100
AcDbLine
 62
7
  6
CONTINUOUS
 10
332.1772554391
 20
79.9954755003
 11
331.9793560256
 21
80.5733668176
  0
LINE
  5
86C
100
AcDbEntity
  8
0
100
AcDbLine
 62
7
  6
CONTINUOUS
 10
328.3841392853
 20
78.0248191054
 11
328.278960794
 21
78.3879486647
  0
LINE
  5
86D
100
AcDbEntity
  8
0
100
AcDbLine
 62
7
  6
CONTINUOUS
 10
331.560052732
 20
80.22990067
 11
331.6652312233
 21
79.8667711107
  0
LINE
  5
86E
100
AcDbEntity
  8
0
100
AcDbLine
 62
7
  6
CONTINUOUS
 10
323.0835722518
 20
80.9229082127
 11
323.1647346064
 21
80.5505224745
  0
LINE
  5
86F
100
AcDbEntity
  8
0
100
AcDbLine
 62
7
  6
CONTINUOUS
 10
326.8098493176
 20
80.7565779674
 11
326.7286847349
 21
81.1289645538
  0
LINE
  5
870
100
AcDbEntity
  8
0
100
AcDbLine
 62
7
  6
CONTINUOUS
 10
326.8853227454
 20
83.0044490496
 11
326.9664850999
 21
82.6320633113
  0
LINE
  5
871
100
AcDbEntity
  8
BEZUGSACHSEN
100
AcDbLine
 62
7
  6
CONTINUOUS
 10
300.7180618687
 20
238.2207383854
 11
300.3658152691
 21
240.6957984519
  0
LINE
  5
872
100
AcDbEntity
  8
BEZUGSACHSEN
100
AcDbLine
 62
7
  6
CONTINUOUS
 10
300.980485381
 20
240.1519795114
 11
301.2593472583
 21
238.192557057
  0
LINE
  5
873
100
AcDbEntity
  8
0
100
AcDbLine
 62
7
  6
CONTINUOUS
 10
323.6081773516
 20
80.8370398606
 11
323.5865207045
 21
81.0729438555
  0
LINE
  5
874
100
AcDbEntity
  8
0
100
AcDbLine
 62
7
  6
CONTINUOUS
 10
326.2257385369
 20
80.9789281324
 11
326.2690540064
 21
80.5071191552
  0
LINE
  5
875
100
AcDbEntity
  8
0
100
AcDbLine
 62
7
  6
CONTINUOUS
 10
327.7295657076
 20
78.7043461592
 11
327.7669365544
 21
78.2592442464
  0
LINE
  5
876
100
AcDbEntity
  8
0
100
AcDbLine
 62
7
  6
CONTINUOUS
 10
332.2146263097
 20
79.5503736162
 11
332.1772554391
 21
79.9954755003
  0
LINE
  5
877
100
AcDbEntity
  8
0
100
AcDbLine
 62
7
  6
CONTINUOUS
 10
316.7975913083
 20
85.3920555553
 11
316.8390724664
 21
80.3922276269
  0
LINE
  5
878
100
AcDbEntity
  8
0
100
AcDbLine
 62
7
  6
CONTINUOUS
 10
317.4640509575
 20
80.3974127717
 11
317.4313955766
 21
84.3334476506
  0
LINE
  5
879
100
AcDbEntity
  8
0
100
AcDbLine
 62
7
  6
CONTINUOUS
 10
321.1812665229
 20
84.3645585192
 11
321.2139219037
 21
80.4285236403
  0
LINE
  5
87A
100
AcDbEntity
  8
0
100
AcDbLine
 62
7
  6
CONTINUOUS
 10
321.8389003948
 20
80.4337087851
 11
321.7974192367
 21
85.4335367134
  0
LINE
  5
87B
100
AcDbEntity
  8
BEZUGSACHSEN
100
AcDbLine
 62
7
  6
CONTINUOUS
 10
316.7975913083
 20
222.4348444577
 11
316.8390724664
 21
227.4346723861
  0
LINE
  5
87C
100
AcDbEntity
  8
BEZUGSACHSEN
100
AcDbLine
 62
7
  6
CONTINUOUS
 10
317.4640509575
 20
227.4294872413
 11
317.4313955766
 21
223.4934523623
  0
LINE
  5
87D
100
AcDbEntity
  8
BEZUGSACHSEN
100
AcDbLine
 62
7
  6
CONTINUOUS
 10
321.1812665229
 20
223.4623414938
 11
321.2139219037
 21
227.3983763727
  0
LINE
  5
87E
100
AcDbEntity
  8
BEZUGSACHSEN
100
AcDbLine
 62
7
  6
CONTINUOUS
 10
321.8389003948
 20
227.3931912279
 11
321.7974192367
 21
222.3933632996
  0
LINE
  5
87F
100
AcDbEntity
  8
BEZUGSACHSEN
100
AcDbLine
 62
7
  6
CONTINUOUS
 10
327.7295657076
 20
229.1225538538
 11
327.7669365544
 21
229.5676557666
  0
LINE
  5
880
100
AcDbEntity
  8
BEZUGSACHSEN
100
AcDbLine
 62
7
  6
CONTINUOUS
 10
332.2146263097
 20
228.2765263968
 11
332.1772554391
 21
227.8314245127
  0
LINE
  5
881
100
AcDbEntity
  8
BEZUGSACHSEN
100
AcDbLine
 62
7
  6
CONTINUOUS
 10
323.6081773516
 20
226.9898601524
 11
323.5865207045
 21
226.7539561575
  0
LINE
  5
882
100
AcDbEntity
  8
BEZUGSACHSEN
100
AcDbLine
 62
7
  6
CONTINUOUS
 10
326.2257385369
 20
226.8479718806
 11
326.2690540064
 21
227.3197808578
  0
LINE
  5
883
100
AcDbEntity
  8
0
100
AcDbLine
 62
7
  6
CONTINUOUS
 10
302.8391729395
 20
69.4095046858
 11
302.5603110622
 21
67.4500822314
  0
LINE
  5
884
100
AcDbEntity
  8
0
100
AcDbLine
 62
7
  6
CONTINUOUS
 10
303.1922412166
 20
67.3601469401
 11
303.4417492176
 21
69.1133144381
  0
LINE
  5
885
100
AcDbEntity
  8
0
100
AcDbLine
 62
7
  6
CONTINUOUS
 10
305.3159354023
 20
66.426608362
 11
305.4039970521
 21
67.0453733786
  0
LINE
  5
886
100
AcDbEntity
  8
0
100
AcDbLine
 62
7
  6
CONTINUOUS
 10
305.7709205793
 20
69.6235608496
 11
305.8736591989
 21
70.3454535658
  0
LINE
  5
887
100
AcDbEntity
  8
0
100
AcDbLine
 62
7
  6
CONTINUOUS
 10
310.0704937363
 20
78.1167265946
 11
309.9877349468
 21
77.7478409669
  0
LINE
  5
888
100
AcDbEntity
  8
0
100
AcDbLine
 62
7
  6
CONTINUOUS
 10
306.6373314587
 20
73.7278320414
 11
306.5408803077
 21
73.3087547364
  0
LINE
  5
889
100
AcDbEntity
  8
0
100
AcDbLine
 62
7
  6
CONTINUOUS
 10
300.8967682833
 20
70.1068100246
 11
300.7180618687
 21
69.6061616276
  0
LINE
  5
88A
100
AcDbEntity
  8
0
100
AcDbLine
 62
7
  6
CONTINUOUS
 10
307.6782004214
 20
80.9775088147
 11
307.2286028974
 21
80.8481172067
  0
LINE
  5
88B
100
AcDbEntity
  8
BEZUGSACHSEN
100
AcDbLine
 62
7
  6
CONTINUOUS
 10
217.8528488135
 20
235.4290641752
 11
217.4269088884
 21
235.326579253
  0
LINE
  5
88C
100
AcDbEntity
  8
BEZUGSACHSEN
100
AcDbLine
 62
7
  6
CONTINUOUS
 10
151.1172283803
 20
223.6194244789
 11
150.3979182281
 21
223.45943877
  0
LINE
  5
88D
100
AcDbEntity
  8
BEZUGSACHSEN
100
AcDbLine
 62
7
  6
CONTINUOUS
 10
150.3060366071
 20
223.9936129123
 11
150.8306416803
 21
224.079481334
  0
LINE
  5
88E
100
AcDbEntity
  8
BEZUGSACHSEN
100
AcDbLine
 62
7
  6
CONTINUOUS
 10
150.4416742498
 20
228.0292973037
 11
149.9170669484
 21
227.9434280337
  0
LINE
  5
88F
100
AcDbEntity
  8
BEZUGSACHSEN
100
AcDbLine
 62
7
  6
CONTINUOUS
 10
156.0161810944
 20
226.4567935568
 11
155.4114341194
 21
226.3707346687
  0
LINE
  5
890
100
AcDbEntity
  8
BEZUGSACHSEN
100
AcDbLine
 62
7
  6
CONTINUOUS
 10
214.9886877772
 20
237.1049192179
 11
214.5674007125
 21
237.044962315
  0
LINE
  5
891
100
AcDbEntity
  8
BEZUGSACHSEN
100
AcDbLine
 62
7
  6
CONTINUOUS
 10
214.4793390626
 20
237.6637273317
 11
214.7953044349
 21
237.7086950193
  0
LINE
  5
892
100
AcDbEntity
  8
BEZUGSACHSEN
100
AcDbLine
 62
7
  6
CONTINUOUS
 10
153.9280127185
 20
230.9422882637
 11
154.5327578741
 21
231.0283456106
  0
LINE
  5
893
100
AcDbEntity
  8
BEZUGSACHSEN
100
AcDbLine
 62
7
  6
CONTINUOUS
 10
217.9039970521
 20
240.7815266343
 11
215.6922412166
 21
240.4667530729
  0
LINE
  5
894
100
AcDbEntity
  8
BEZUGSACHSEN
100
AcDbLine
 62
7
  6
CONTINUOUS
 10
215.0603110622
 20
240.3768177816
 11
213.480485381
 21
240.1519795114
  0
LINE
  5
895
100
AcDbEntity
  8
BEZUGSACHSEN
100
AcDbLine
 62
7
  6
CONTINUOUS
 10
212.8658152691
 20
240.6957984519
 11
217.8159354023
 21
241.400291651
  0
LINE
  5
896
100
AcDbEntity
  8
BEZUGSACHSEN
100
AcDbLine
 62
7
  6
CONTINUOUS
 10
149.8251853009
 20
228.4776022457
 11
150.2524400661
 21
228.5264128634
  0
LINE
  5
897
100
AcDbEntity
  8
BEZUGSACHSEN
100
AcDbLine
 62
7
  6
CONTINUOUS
 10
154.563194648
 20
230.5012713731
 11
154.1867856737
 21
230.466031113
  0
LINE
  5
898
100
AcDbEntity
  8
BEZUGSACHSEN
100
AcDbLine
 62
7
  6
CONTINUOUS
 10
217.6608985552
 20
236.033296797
 11
218.1345884416
 21
236.0432034328
  0
LINE
  5
899
100
AcDbEntity
  8
BEZUGSACHSEN
100
AcDbLine
 62
7
  6
CONTINUOUS
 10
130.1608985552
 20
236.033296797
 11
130.6345884416
 21
236.0432034328
  0
LINE
  5
89A
100
AcDbEntity
  8
BEZUGSACHSEN
100
AcDbLine
 62
7
  6
CONTINUOUS
 10
305.7319911604
 20
235.3902048999
 11
305.3528488135
 21
235.4290641752
  0
LINE
  5
89B
100
AcDbEntity
  8
BEZUGSACHSEN
100
AcDbLine
 62
7
  6
CONTINUOUS
 10
330.4114341194
 20
226.3707346687
 11
329.9672175243
 21
226.4174667334
  0
LINE
  5
89C
100
AcDbEntity
  8
BEZUGSACHSEN
100
AcDbLine
 62
7
  6
CONTINUOUS
 10
329.5327578741
 20
231.0283456106
 11
329.9769744929
 21
230.9816135172
  0
LINE
  5
89D
100
AcDbEntity
  8
BEZUGSACHSEN
100
AcDbLine
 62
7
  6
CONTINUOUS
 10
325.6742239327
 20
228.0039906429
 11
325.4416742498
 21
228.0292973037
  0
LINE
  5
89E
100
AcDbEntity
  8
BEZUGSACHSEN
100
AcDbLine
 62
7
  6
CONTINUOUS
 10
325.2524400661
 20
228.5264128634
 11
325.7175394419
 21
228.4757995157
  0
LINE
  5
89F
100
AcDbEntity
  8
BEZUGSACHSEN
100
AcDbLine
 62
7
  6
CONTINUOUS
 10
307.588733401
 20
227.5159801231
 11
307.9622802644
 21
227.4577707367
  0
LINE
  5
8A0
100
AcDbEntity
  8
BEZUGSACHSEN
100
AcDbLine
 62
7
  6
CONTINUOUS
 10
324.9382875526
 20
224.0812840293
 11
325.3060366071
 21
223.9936129123
  0
LINE
  5
8A1
100
AcDbEntity
  8
BEZUGSACHSEN
100
AcDbLine
 62
7
  6
CONTINUOUS
 10
307.6782004214
 20
226.8493911983
 11
307.2286028974
 21
226.9787828063
  0
LINE
  5
8A2
100
AcDbEntity
  8
BEZUGSACHSEN
100
AcDbLine
 62
7
  6
CONTINUOUS
 10
300.8967682833
 20
237.7200899884
 11
300.7180618687
 21
238.2207383854
  0
LINE
  5
8A3
100
AcDbEntity
  8
BEZUGSACHSEN
100
AcDbLine
 62
7
  6
CONTINUOUS
 10
306.6373314587
 20
234.0990679716
 11
306.5408803077
 21
234.5181452766
  0
LINE
  5
8A4
100
AcDbEntity
  8
BEZUGSACHSEN
100
AcDbLine
 62
7
  6
CONTINUOUS
 10
310.0704937363
 20
229.7101734184
 11
309.9877349468
 21
230.079059046
  0
LINE
  5
8A5
100
AcDbEntity
  8
BEZUGSACHSEN
100
AcDbLine
 62
7
  6
CONTINUOUS
 10
302.8391729395
 20
238.4173953272
 11
302.5603110622
 21
240.3768177816
  0
LINE
  5
8A6
100
AcDbEntity
  8
BEZUGSACHSEN
100
AcDbLine
 62
7
  6
CONTINUOUS
 10
303.1922412166
 20
240.4667530729
 11
303.4417492176
 21
238.7135855749
  0
LINE
  5
8A7
100
AcDbEntity
  8
BEZUGSACHSEN
100
AcDbLine
 62
7
  6
CONTINUOUS
 10
305.3159354023
 20
241.400291651
 11
305.4039970521
 21
240.7815266343
  0
LINE
  5
8A8
100
AcDbEntity
  8
BEZUGSACHSEN
100
AcDbLine
 62
7
  6
CONTINUOUS
 10
305.7709205793
 20
238.2033391634
 11
305.8736591989
 21
237.4814464472
  0
LINE
  5
8A9
100
AcDbEntity
  8
BEZUGSACHSEN
100
AcDbLine
 62
7
  6
CONTINUOUS
 10
323.0997602351
 20
226.5686637878
 11
323.0835722518
 21
226.9039918003
  0
LWPOLYLINE
  5
8AA
100
AcDbEntity
  8
BEZUGSACHSEN
100
AcDbPolyline
 62
7
  6
CONTINUOUS
 90
38
 70
0
 10
337.0408611613
 20
176.9371001687
 10
337.0376836676
 20
177.1762575133
 10
337.0126413647
 20
177.64931914
 10
336.963494873
 20
178.1147539518
 10
336.8912476839
 20
178.571469489
 10
336.7969296111
 20
179.0184679533
 10
336.681589997
 20
179.454843427
 10
336.5462913226
 20
179.8797793229
 10
336.3921036148
 20
180.2925446045
 10
336.2200980773
 20
180.6924930633
 10
336.0313431063
 20
181.0790570045
 10
335.8268990828
 20
181.4517454103
 10
335.6078124101
 20
181.8101428567
 10
335.3751244021
 20
182.1538865397
 10
335.1298583118
 20
182.4826819437
 10
334.8730134845
 20
182.7963015239
 10
334.6055689525
 20
183.0945723314
 10
334.3284717043
 20
183.3773829509
 10
334.0426432338
 20
183.6446693879
 10
333.7489730928
 20
183.8964164864
 10
333.4483219746
 20
184.1326502278
 10
333.1415125034
 20
184.3534406663
 10
332.8293430988
 20
184.5588875869
 10
332.5125440925
 20
184.7491448213
 10
332.1912821099
 20
184.9246657974
 10
331.8678142089
 20
185.0848209706
 10
331.5441139542
 20
185.2294168978
 10
331.221383864
 20
185.3587857697
 10
330.9018490837
 20
185.4729996353
 10
330.5840818933
 20
185.5734627901
 10
330.2647189495
 20
185.6617505647
 10
329.9501396759
 20
185.736734772
 10
329.6395540092
 20
185.7995301101
 10
329.3468112255
 20
185.8489378036
 10
329.083050511
 20
185.8858168849
 10
328.8439784636
 20
185.9135860626
 10
328.6323312972
 20
185.9343083966
 10
328.6017530945
 20
185.9370424344
  0
LINE
  5
8AB
100
AcDbEntity
  8
BEZUGSACHSEN
100
AcDbLine
 62
7
  6
CONTINUOUS
 10
337.0408628985
 20
176.9371058746
 11
337.0408628985
 21
169.9134500065
  0
LINE
  5
8AC
100
AcDbEntity
  8
RUNDUNGEN
100
AcDbLine
 62
7
  6
CONTINUOUS
 10
337.0408628985
 20
137.9134500065
 11
337.0408628985
 21
130.8897941384
  0
LINE
  5
8AD
100
AcDbEntity
  8
0
100
AcDbLine
 62
7
  6
CONTINUOUS
 10
323.0997602351
 20
81.2582362252
 11
323.0835722518
 21
80.9229082127
  0
LINE
  5
8AE
100
AcDbEntity
  8
0
100
AcDbLine
 62
7
  6
CONTINUOUS
 10
328.278960794
 20
78.3879486647
 11
328.3647494802
 21
79.1453615374
  0
LINE
  5
8AF
100
AcDbEntity
  8
0
100
AcDbLine
 62
7
  6
CONTINUOUS
 10
326.7558122475
 20
80.3218276337
 11
326.8098493176
 21
80.7565779674
  0
LINE
  5
8B0
100
AcDbEntity
  8
0
100
AcDbLine
 62
7
  6
CONTINUOUS
 10
327.4532455693
 20
82.4467709416
 11
327.5072803582
 21
82.8815219842
  0
LINE
  5
8B1
100
AcDbEntity
  8
0
100
AcDbLine
 62
7
  6
CONTINUOUS
 10
307.1081660336
 20
73.01616103
 11
307.2523666617
 21
73.5278158653
  0
LINE
  5
8B2
100
AcDbEntity
  8
0
100
AcDbLine
 62
7
  6
CONTINUOUS
 10
320.8599515001
 20
85.4257589963
 11
319.3345735413
 21
80.9448648052
  0
LINE
  5
8B3
100
AcDbEntity
  8
0
100
AcDbLine
 62
7
  6
CONTINUOUS
 10
310.4999685566
 20
77.3530096753
 11
310.6587780386
 21
77.7930774907
  0
LINE
  5
8B4
100
AcDbEntity
  8
0
100
AcDbLine
 62
7
  6
CONTINUOUS
 10
301.2593472583
 20
69.634342956
 11
301.4086997757
 21
69.9287362491
  0
LINE
  5
8B5
100
AcDbEntity
  8
0
100
AcDbLine
 62
7
  6
CONTINUOUS
 10
303.4284226072
 20
76.7893913114
 11
303.1419246023
 21
76.2339240367
  0
LINE
  5
8B6
100
AcDbEntity
  8
0
100
AcDbLine
 62
7
  6
CONTINUOUS
 10
301.9959325828
 20
74.0120549382
 11
301.7094344413
 21
73.4565873986
  0
LINE
  5
8B7
100
AcDbEntity
  8
0
100
AcDbLine
 62
7
  6
CONTINUOUS
 10
306.5408803077
 20
73.3087547364
 11
306.3498815467
 21
72.9384430434
  0
LINE
  5
8B8
100
AcDbEntity
  8
0
100
AcDbLine
 62
7
  6
CONTINUOUS
 10
306.9171672726
 20
72.645849337
 11
307.1081660336
 21
73.01616103
  0
LINE
  5
8B9
100
AcDbEntity
  8
0
100
AcDbLine
 62
7
  6
CONTINUOUS
 10
306.176077482
 20
89.4134500065
 11
292.8970212906
 21
66.4134500065
  0
LINE
  5
8BA
100
AcDbEntity
  8
0
100
AcDbLine
 62
7
  6
CONTINUOUS
 10
309.9877349468
 20
77.7478409669
 11
309.75622844
 21
77.3854422187
  0
LINE
  5
8BB
100
AcDbEntity
  8
0
100
AcDbLine
 62
7
  6
CONTINUOUS
 10
306.7756508483
 20
80.5698735155
 11
304.9504280325
 21
78.861493677
  0
LINE
  5
8BC
100
AcDbEntity
  8
0
100
AcDbLine
 62
7
  6
CONTINUOUS
 10
305.8429157709
 20
78.8225743562
 11
307.2118328827
 21
80.1038592351
  0
LINE
  5
8BD
100
AcDbEntity
  8
0
100
AcDbLine
 62
7
  6
CONTINUOUS
 10
307.2286028974
 20
80.8481172067
 11
306.7756508483
 21
80.5698735155
  0
LINE
  5
8BE
100
AcDbEntity
  8
0
100
AcDbLine
 62
7
  6
CONTINUOUS
 10
307.2118328827
 20
80.1038592351
 11
307.588733401
 21
80.3109198899
  0
LINE
  5
8BF
100
AcDbEntity
  8
0
100
AcDbLine
 62
7
  6
CONTINUOUS
 10
306.064335449
 20
72.6168974921
 11
305.7319911604
 21
72.4366951131
  0
LINE
  5
8C0
100
AcDbEntity
  8
0
100
AcDbLine
 62
7
  6
CONTINUOUS
 10
301.7367587077
 20
70.7237779392
 11
301.2714411131
 21
70.4743522917
  0
LINE
  5
8C1
100
AcDbEntity
  8
0
100
AcDbLine
 62
7
  6
CONTINUOUS
 10
324.932816634
 20
84.3168487697
 11
324.392023604
 21
84.0673892486
  0
LINE
  5
8C2
100
AcDbEntity
  8
0
100
AcDbLine
 62
7
  6
CONTINUOUS
 10
326.5447011505
 20
82.1096408733
 11
326.2743046355
 21
81.9849111127
  0
LINE
  5
8C3
100
AcDbEntity
  8
0
100
AcDbLine
 62
7
  6
CONTINUOUS
 10
325.9446204743
 20
79.9476392003
 11
325.6742239327
 21
79.8229093701
  0
LINE
  5
8C4
100
AcDbEntity
  8
0
100
AcDbLine
 62
7
  6
CONTINUOUS
 10
329.9672175243
 20
81.4094332796
 11
329.5354584986
 21
81.2143334136
  0
LINE
  5
8C5
100
AcDbEntity
  8
0
100
AcDbLine
 62
7
  6
CONTINUOUS
 10
329.6530943692
 20
80.7028358234
 11
330.3809973692
 21
80.9290911355
  0
LINE
  5
8C6
100
AcDbEntity
  8
0
100
AcDbLine
 62
7
  6
CONTINUOUS
 10
330.2910993427
 20
77.5518822601
 11
329.563194648
 21
77.3256286399
  0
LINE
  5
8C7
100
AcDbEntity
  8
0
100
AcDbLine
 62
7
  6
CONTINUOUS
 10
305.6345884416
 20
71.7836965802
 11
306.2037774023
 21
71.9589452782
  0
LINE
  5
8C8
100
AcDbEntity
  8
0
100
AcDbLine
 62
7
  6
CONTINUOUS
 10
326.3176201579
 20
81.5131022748
 11
326.820568584
 21
81.6631378479
  0
LINE
  5
8C9
100
AcDbEntity
  8
BEZUGSACHSEN
100
AcDbLine
 62
7
  6
CONTINUOUS
 10
132.9622802644
 20
227.4577707367
 11
133.3324736767
 21
227.5484128364
  0
LINE
  5
8CA
100
AcDbEntity
  8
BEZUGSACHSEN
100
AcDbLine
 62
7
  6
CONTINUOUS
 10
130.3528488135
 20
235.4290641752
 11
129.9269088884
 21
235.326579253
  0
LINE
  5
8CB
100
AcDbEntity
  8
BEZUGSACHSEN
100
AcDbLine
 62
7
  6
CONTINUOUS
 10
127.4886877772
 20
237.1049192179
 11
127.0674007125
 21
237.044962315
  0
LINE
  5
8CC
100
AcDbEntity
  8
BEZUGSACHSEN
100
AcDbLine
 62
7
  6
CONTINUOUS
 10
126.9793390626
 20
237.6637273317
 11
127.2953044349
 21
237.7086950193
  0
LINE
  5
8CD
100
AcDbEntity
  8
BEZUGSACHSEN
100
AcDbLine
 62
7
  6
CONTINUOUS
 10
130.4039970521
 20
240.7815266343
 11
128.1922412166
 21
240.4667530729
  0
LINE
  5
8CE
100
AcDbEntity
  8
BEZUGSACHSEN
100
AcDbLine
 62
7
  6
CONTINUOUS
 10
127.5603110622
 20
240.3768177816
 11
125.980485381
 21
240.1519795114
  0
LINE
  5
8CF
100
AcDbEntity
  8
BEZUGSACHSEN
100
AcDbLine
 62
7
  6
CONTINUOUS
 10
125.3658152691
 20
240.6957984519
 11
130.3159354023
 21
241.400291651
  0
LINE
  5
8D0
100
AcDbEntity
  8
BEZUGSACHSEN
100
AcDbLine
 62
7
  6
CONTINUOUS
 10
139.5476563852
 20
249.9134500065
 11
149.3626109614
 21
249.9134500065
  0
LINE
  5
8D1
100
AcDbEntity
  8
BEZUGSACHSEN
100
AcDbLine
 62
7
  6
CONTINUOUS
 10
227.0476563852
 20
249.9134500065
 11
236.8626109614
 21
249.9134500065
  0
LINE
  5
8D2
100
AcDbEntity
  8
BEZUGSACHSEN
100
AcDbLine
 62
7
  6
CONTINUOUS
 10
314.5476563852
 20
249.9134500065
 11
324.3626109614
 21
249.9134500065
  0
LINE
  5
8D3
100
AcDbEntity
  8
BEZUGSACHSEN
100
AcDbLine
 62
7
  6
CONTINUOUS
 10
302.0674007125
 20
237.044962315
 11
301.7367587077
 21
237.1031220738
  0
LINE
  5
8D4
100
AcDbEntity
  8
BEZUGSACHSEN
100
AcDbLine
 62
7
  6
CONTINUOUS
 10
301.6486970578
 20
237.7218870904
 11
301.9793390626
 21
237.6637273317
  0
LINE
  5
8D5
100
AcDbEntity
  8
BEZUGSACHSEN
100
AcDbLine
 62
7
  6
CONTINUOUS
 10
303.4417492176
 20
238.7135855749
 11
305.7709205793
 21
238.2033391634
  0
LINE
  5
8D6
100
AcDbEntity
  8
BEZUGSACHSEN
100
AcDbLine
 62
7
  6
CONTINUOUS
 10
305.8736591989
 20
237.4814464472
 11
303.3191675037
 21
238.0648419803
  0
LINE
  5
8D7
100
AcDbEntity
  8
BEZUGSACHSEN
100
AcDbLine
 62
7
  6
CONTINUOUS
 10
325.7175394419
 20
228.4757995157
 11
326.0852885097
 21
228.3881283639
  0
LINE
  5
8D8
100
AcDbEntity
  8
BEZUGSACHSEN
100
AcDbLine
 62
7
  6
CONTINUOUS
 10
326.3176201579
 20
226.3137977382
 11
326.820568584
 21
226.1637621651
  0
LINE
  5
8D9
100
AcDbEntity
  8
BEZUGSACHSEN
100
AcDbLine
 62
7
  6
CONTINUOUS
 10
305.6345884416
 20
236.0432034328
 11
306.2037774023
 21
235.8679547348
  0
LINE
  5
8DA
100
AcDbEntity
  8
BEZUGSACHSEN
100
AcDbLine
 62
7
  6
CONTINUOUS
 10
329.6530943692
 20
227.1240641895
 11
330.3809973692
 21
226.8978088775
  0
LINE
  5
8DB
100
AcDbEntity
  8
BEZUGSACHSEN
100
AcDbLine
 62
7
  6
CONTINUOUS
 10
330.2910993427
 20
230.2750177529
 11
329.563194648
 21
230.5012713731
  0
LINE
  5
8DC
100
AcDbEntity
  8
BEZUGSACHSEN
100
AcDbLine
 62
7
  6
CONTINUOUS
 10
329.9672175243
 20
226.4174667334
 11
329.5354584986
 21
226.6125665994
  0
LINE
  5
8DD
100
AcDbEntity
  8
BEZUGSACHSEN
100
AcDbLine
 62
7
  6
CONTINUOUS
 10
324.932816634
 20
223.5100512433
 11
324.392023604
 21
223.7595107644
  0
LINE
  5
8DE
100
AcDbEntity
  8
BEZUGSACHSEN
100
AcDbLine
 62
7
  6
CONTINUOUS
 10
326.5447011505
 20
225.7172591397
 11
326.2743046355
 21
225.8419889003
  0
LINE
  5
8DF
100
AcDbEntity
  8
BEZUGSACHSEN
100
AcDbLine
 62
7
  6
CONTINUOUS
 10
325.9446204743
 20
227.8792608127
 11
325.6742239327
 21
228.0039906429
  0
LINE
  5
8E0
100
AcDbEntity
  8
BEZUGSACHSEN
100
AcDbLine
 62
7
  6
CONTINUOUS
 10
301.7367587077
 20
237.1031220738
 11
301.2714411131
 21
237.3525477213
  0
LINE
  5
8E1
100
AcDbEntity
  8
BEZUGSACHSEN
100
AcDbLine
 62
7
  6
CONTINUOUS
 10
306.064335449
 20
235.2100025209
 11
305.7319911604
 21
235.3902048999
  0
LINE
  5
8E2
100
AcDbEntity
  8
BEZUGSACHSEN
100
AcDbLine
 62
7
  6
CONTINUOUS
 10
307.2118328827
 20
227.7230407779
 11
307.588733401
 21
227.5159801231
  0
LINE
  5
8E3
100
AcDbEntity
  8
BEZUGSACHSEN
100
AcDbLine
 62
7
  6
CONTINUOUS
 10
307.2286028974
 20
226.9787828063
 11
306.7756508483
 21
227.2570264975
  0
LINE
  5
8E4
100
AcDbEntity
  8
BEZUGSACHSEN
100
AcDbLine
 62
7
  6
CONTINUOUS
 10
306.7756508483
 20
227.2570264975
 11
304.9504280325
 21
228.965406336
  0
LINE
  5
8E5
100
AcDbEntity
  8
BEZUGSACHSEN
100
AcDbLine
 62
7
  6
CONTINUOUS
 10
305.8429157709
 20
229.0043256568
 11
307.2118328827
 21
227.7230407779
  0
LINE
  5
8E6
100
AcDbEntity
  8
BEZUGSACHSEN
100
AcDbLine
 62
7
  6
CONTINUOUS
 10
309.9877349468
 20
230.079059046
 11
309.75622844
 21
230.4414577943
  0
LINE
  5
8E7
100
AcDbEntity
  8
BEZUGSACHSEN
100
AcDbLine
 62
7
  6
CONTINUOUS
 10
306.176077482
 20
218.4134500065
 11
292.8970212906
 21
241.4134500065
  0
LINE
  5
8E8
100
AcDbEntity
  8
BEZUGSACHSEN
100
AcDbLine
 62
7
  6
CONTINUOUS
 10
303.4284226072
 20
231.0375087016
 11
303.1419246023
 21
231.5929759763
  0
LINE
  5
8E9
100
AcDbEntity
  8
BEZUGSACHSEN
100
AcDbLine
 62
7
  6
CONTINUOUS
 10
301.9959325828
 20
233.8148450748
 11
301.7094344413
 21
234.3703126144
  0
LINE
  5
8EA
100
AcDbEntity
  8
BEZUGSACHSEN
100
AcDbLine
 62
7
  6
CONTINUOUS
 10
306.5408803077
 20
234.5181452766
 11
306.3498815467
 21
234.8884569696
  0
LINE
  5
8EB
100
AcDbEntity
  8
BEZUGSACHSEN
100
AcDbLine
 62
7
  6
CONTINUOUS
 10
306.9171672726
 20
235.181050676
 11
307.1081660336
 21
234.810738983
  0
LINE
  5
8EC
100
AcDbEntity
  8
BEZUGSACHSEN
100
AcDbLine
 62
7
  6
CONTINUOUS
 10
301.2593472583
 20
238.192557057
 11
301.4086997757
 21
237.8981637639
  0
LINE
  5
8ED
100
AcDbEntity
  8
BEZUGSACHSEN
100
AcDbLine
 62
7
  6
CONTINUOUS
 10
310.4999685566
 20
230.4738903377
 11
310.6587780386
 21
230.0338225223
  0
LINE
  5
8EE
100
AcDbEntity
  8
BEZUGSACHSEN
100
AcDbLine
 62
7
  6
CONTINUOUS
 10
320.8599515001
 20
222.4011410167
 11
319.3345735413
 21
226.8820352078
  0
LINE
  5
8EF
100
AcDbEntity
  8
BEZUGSACHSEN
100
AcDbLine
 62
7
  6
CONTINUOUS
 10
307.1081660336
 20
234.810738983
 11
307.2523666617
 21
234.2990841477
  0
LINE
  5
8F0
100
AcDbEntity
  8
BEZUGSACHSEN
100
AcDbLine
 62
7
  6
CONTINUOUS
 10
326.7558122475
 20
227.5050723793
 11
326.8098493176
 21
227.0703220456
  0
LINE
  5
8F1
100
AcDbEntity
  8
BEZUGSACHSEN
100
AcDbLine
 62
7
  6
CONTINUOUS
 10
327.4532455693
 20
225.3801290713
 11
327.5072803582
 21
224.9453780288
  0
LINE
  5
8F2
100
AcDbEntity
  8
BEZUGSACHSEN
100
AcDbLine
 62
7
  6
CONTINUOUS
 10
328.278960794
 20
229.4389513483
 11
328.3647494802
 21
228.6815384756
  0
LINE
  5
8F3
100
AcDbEntity
  8
0
100
AcDbLine
 62
7
  6
CONTINUOUS
 10
338.8886032961
 20
169.9134500065
 11
338.8886032961
 21
171.9134500065
  0
LINE
  5
8F4
100
AcDbEntity
  8
0
100
AcDbLine
 62
7
  6
CONTINUOUS
 10
345.5063437949
 20
137.9134500065
 11
345.5063437949
 21
135.9134500065
  0
LINE
  5
8F5
100
AcDbEntity
  8
0
100
AcDbLine
 62
7
  6
CONTINUOUS
 10
345.7015929362
 20
137.9134500065
 11
345.7015929362
 21
135.9134500065
  0
LINE
  5
8F6
100
AcDbEntity
  8
0
100
AcDbLine
 62
7
  6
CONTINUOUS
 10
346.0179742125
 20
137.9134500065
 11
346.0179742125
 21
135.9134500065
  0
LINE
  5
8F7
100
AcDbEntity
  8
0
100
AcDbLine
 62
7
  6
CONTINUOUS
 10
346.7953762872
 20
137.9134500065
 11
346.7953762872
 21
135.9134500065
  0
LINE
  5
8F8
100
AcDbEntity
  8
0
100
AcDbLine
 62
7
  6
CONTINUOUS
 10
347.6939107269
 20
137.9134500065
 11
347.6939107269
 21
135.9134500065
  0
LINE
  5
8F9
100
AcDbEntity
  8
0
100
AcDbLine
 62
7
  6
CONTINUOUS
 10
348.2995713829
 20
137.9134500065
 11
348.2995713829
 21
135.9134500065
  0
LINE
  5
8FA
100
AcDbEntity
  8
0
100
AcDbLine
 62
7
  6
CONTINUOUS
 10
349.143902192
 20
137.9134500065
 11
349.143902192
 21
135.9134500065
  0
LINE
  5
8FB
100
AcDbEntity
  8
0
100
AcDbLine
 62
7
  6
CONTINUOUS
 10
349.7260550089
 20
137.9134500065
 11
349.7260550089
 21
135.9134500065
  0
LINE
  5
8FC
100
AcDbEntity
  8
0
100
AcDbLine
 62
7
  6
CONTINUOUS
 10
350.6480971902
 20
137.9134500065
 11
350.6480971902
 21
135.9134500065
  0
LINE
  5
8FD
100
AcDbEntity
  8
0
100
AcDbLine
 62
7
  6
CONTINUOUS
 10
351.4490067683
 20
137.9134500065
 11
351.4490067683
 21
135.9134500065
  0
LINE
  5
8FE
100
AcDbEntity
  8
0
100
AcDbLine
 62
7
  6
CONTINUOUS
 10
331.6652312233
 20
79.8667711107
 11
331.5794442317
 21
79.1093565462
  0
LINE
  5
8FF
100
AcDbEntity
  8
0
100
AcDbLine
 62
7
  6
CONTINUOUS
 10
327.8402676952
 20
79.165024949
 11
327.7295657076
 21
78.7043461592
  0
LINE
  5
900
100
AcDbEntity
  8
0
100
AcDbLine
 62
7
  6
CONTINUOUS
 10
332.1039243696
 20
79.0896948838
 11
332.2146263097
 21
79.5503736162
  0
LINE
  5
901
100
AcDbEntity
  8
0
100
AcDbLine
 62
7
  6
CONTINUOUS
 10
319.7556395527
 20
80.4164249758
 11
321.1812665229
 21
84.3645585192
  0
LINE
  5
902
100
AcDbEntity
  8
0
100
AcDbLine
 62
7
  6
CONTINUOUS
 10
325.2250922608
 20
82.1566488044
 11
325.0737049324
 21
81.7589564054
  0
LINE
  5
903
100
AcDbEntity
  8
0
100
AcDbLine
 62
7
  6
CONTINUOUS
 10
326.9664850999
 20
82.6320633113
 11
326.8907913297
 21
82.4332168333
  0
LINE
  5
904
100
AcDbEntity
  8
0
100
AcDbLine
 62
7
  6
CONTINUOUS
 10
326.2690540064
 20
80.5071191552
 11
326.117666678
 21
80.1094267562
  0
LINE
  5
905
100
AcDbEntity
  8
0
100
AcDbLine
 62
7
  6
CONTINUOUS
 10
327.3775517991
 20
82.2479244636
 11
327.4532455693
 21
82.4467709416
  0
LINE
  5
906
100
AcDbEntity
  8
0
100
AcDbLine
 62
7
  6
CONTINUOUS
 10
326.6044249191
 20
79.9241352347
 11
326.7558122475
 21
80.3218276337
  0
LINE
  5
907
100
AcDbEntity
  8
0
100
AcDbLine
 62
7
  6
CONTINUOUS
 10
327.9634253674
 20
79.4773373999
 11
327.8402676952
 21
79.165024949
  0
LINE
  5
908
100
AcDbEntity
  8
0
100
AcDbLine
 62
7
  6
CONTINUOUS
 10
328.2222002132
 20
79.9535930955
 11
327.9634253674
 21
79.4773373999
  0
LINE
  5
909
100
AcDbEntity
  8
0
100
AcDbLine
 62
7
  6
CONTINUOUS
 10
314.5476563852
 20
74.9134500065
 11
309.6401790971
 21
66.4134500065
  0
LINE
  5
90A
100
AcDbEntity
  8
0
100
AcDbLine
 62
7
  6
CONTINUOUS
 10
324.392023604
 20
84.0673892486
 11
324.1432837361
 21
83.7067554931
  0
LINE
  5
90B
100
AcDbEntity
  8
0
100
AcDbLine
 62
7
  6
CONTINUOUS
 10
327.1288119312
 20
81.8872907082
 11
327.3775517991
 21
82.2479244636
  0
LINE
  5
90C
100
AcDbEntity
  8
0
100
AcDbLine
 62
7
  6
CONTINUOUS
 10
310.1924105253
 20
76.9194278839
 11
310.4999685566
 21
77.3530096753
  0
LINE
  5
90D
100
AcDbEntity
  8
0
100
AcDbLine
 62
7
  6
CONTINUOUS
 10
306.583871408
 20
72.2317257343
 11
306.9171672726
 21
72.645849337
  0
LINE
  5
90E
100
AcDbEntity
  8
0
100
AcDbLine
 62
7
  6
CONTINUOUS
 10
306.3498815467
 20
72.9384430434
 11
306.064335449
 21
72.6168974921
  0
LINE
  5
90F
100
AcDbEntity
  8
0
100
AcDbLine
 62
7
  6
CONTINUOUS
 10
301.2714411131
 20
70.4743522917
 11
300.8967682833
 21
70.1068100246
  0
LINE
  5
910
100
AcDbEntity
  8
0
100
AcDbLine
 62
7
  6
CONTINUOUS
 10
309.75622844
 20
77.3854422187
 11
308.3873113281
 21
76.1041573398
  0
LINE
  5
911
100
AcDbEntity
  8
0
100
AcDbLine
 62
7
  6
CONTINUOUS
 10
308.3671877095
 20
75.2110480454
 11
310.1924105253
 21
76.9194278839
  0
LINE
  5
912
100
AcDbEntity
  8
0
100
AcDbLine
 62
7
  6
CONTINUOUS
 10
326.8907913297
 20
82.4332168333
 11
326.5447011505
 21
82.1096408733
  0
LINE
  5
913
100
AcDbEntity
  8
0
100
AcDbLine
 62
7
  6
CONTINUOUS
 10
326.117666678
 20
80.1094267562
 11
325.9446204743
 21
79.9476392003
  0
LINE
  5
914
100
AcDbEntity
  8
0
100
AcDbLine
 62
7
  6
CONTINUOUS
 10
329.1659834548
 20
80.2773973511
 11
329.6530943692
 21
80.7028358234
  0
LINE
  5
915
100
AcDbEntity
  8
0
100
AcDbLine
 62
7
  6
CONTINUOUS
 10
329.2517702564
 20
81.034811686
 11
328.8324687999
 21
80.6913440188
  0
LINE
  5
916
100
AcDbEntity
  8
0
100
AcDbLine
 62
7
  6
CONTINUOUS
 10
301.4086997757
 20
69.9287362491
 11
301.6486970578
 21
70.1050129226
  0
LINE
  5
917
100
AcDbEntity
  8
0
100
AcDbLine
 62
7
  6
CONTINUOUS
 10
324.6300419773
 20
83.5214639716
 11
324.9382875526
 21
83.7456159837
  0
LINE
  5
918
100
AcDbEntity
  8
0
100
AcDbLine
 62
7
  6
CONTINUOUS
 10
326.820568584
 20
81.6631378479
 11
327.1288119312
 21
81.8872907082
  0
LINE
  5
919
100
AcDbEntity
  8
0
100
AcDbLine
 62
7
  6
CONTINUOUS
 10
326.0852885097
 20
79.4387716491
 11
326.393534085
 21
79.6629236612
  0
LINE
  5
91A
100
AcDbEntity
  8
0
100
AcDbLine
 62
7
  6
CONTINUOUS
 10
306.2037774023
 20
71.9589452782
 11
306.583871408
 21
72.2317257343
  0
LINE
  5
91B
100
AcDbEntity
  8
0
100
AcDbLine
 62
7
  6
CONTINUOUS
 10
329.5354584986
 20
81.2143334136
 11
329.2517702564
 21
81.034811686
  0
LINE
  5
91C
100
AcDbEntity
  8
0
100
AcDbLine
 62
7
  6
CONTINUOUS
 10
330.4087335662
 20
77.0403864192
 11
330.6924216184
 21
77.2199079172
  0
LINE
  5
91D
100
AcDbEntity
  8
0
100
AcDbLine
 62
7
  6
CONTINUOUS
 10
329.9769744929
 20
76.8452864958
 11
330.4087335662
 21
77.0403864192
  0
LINE
  5
91E
100
AcDbEntity
  8
BEZUGSACHSEN
100
AcDbLine
 62
7
  6
CONTINUOUS
 10
131.176077482
 20
264.4134500065
 11
157.7341898647
 21
264.4134500065
  0
LINE
  5
91F
100
AcDbEntity
  8
BEZUGSACHSEN
100
AcDbLine
 62
7
  6
CONTINUOUS
 10
218.676077482
 20
264.4134500065
 11
245.2341898647
 21
264.4134500065
  0
LINE
  5
920
100
AcDbEntity
  8
BEZUGSACHSEN
100
AcDbLine
 62
7
  6
CONTINUOUS
 10
306.176077482
 20
264.4134500065
 11
332.7341898647
 21
264.4134500065
  0
LINE
  5
921
100
AcDbEntity
  8
BEZUGSACHSEN
100
AcDbLine
 62
7
  6
CONTINUOUS
 10
131.9551336733
 20
268.9134500065
 11
331.9551336733
 21
268.9134500065
  0
LINE
  5
922
100
AcDbEntity
  8
BEZUGSACHSEN
100
AcDbLine
 62
7
  6
CONTINUOUS
 10
329.9769744929
 20
230.9816135172
 11
330.4087335662
 21
230.7865135938
  0
LINE
  5
923
100
AcDbEntity
  8
BEZUGSACHSEN
100
AcDbLine
 62
7
  6
CONTINUOUS
 10
329.5354584986
 20
226.6125665994
 11
329.2517702564
 21
226.792088327
  0
LINE
  5
924
100
AcDbEntity
  8
BEZUGSACHSEN
100
AcDbLine
 62
7
  6
CONTINUOUS
 10
330.4087335662
 20
230.7865135938
 11
330.6924216184
 21
230.6069920958
  0
LINE
  5
925
100
AcDbEntity
  8
BEZUGSACHSEN
100
AcDbLine
 62
7
  6
CONTINUOUS
 10
306.2037774023
 20
235.8679547348
 11
306.583871408
 21
235.5951742787
  0
LINE
  5
926
100
AcDbEntity
  8
BEZUGSACHSEN
100
AcDbLine
 62
7
  6
CONTINUOUS
 10
324.6300419773
 20
224.3054360413
 11
324.9382875526
 21
224.0812840293
  0
LINE
  5
927
100
AcDbEntity
  8
BEZUGSACHSEN
100
AcDbLine
 62
7
  6
CONTINUOUS
 10
326.820568584
 20
226.1637621651
 11
327.1288119312
 21
225.9396093048
  0
LINE
  5
928
100
AcDbEntity
  8
BEZUGSACHSEN
100
AcDbLine
 62
7
  6
CONTINUOUS
 10
326.0852885097
 20
228.3881283639
 11
326.393534085
 21
228.1639763518
  0
LINE
  5
929
100
AcDbEntity
  8
BEZUGSACHSEN
100
AcDbLine
 62
7
  6
CONTINUOUS
 10
301.4086997757
 20
237.8981637639
 11
301.6486970578
 21
237.7218870904
  0
LINE
  5
92A
100
AcDbEntity
  8
BEZUGSACHSEN
100
AcDbLine
 62
7
  6
CONTINUOUS
 10
329.2517702564
 20
226.792088327
 11
328.8324687999
 21
227.1355559942
  0
LINE
  5
92B
100
AcDbEntity
  8
BEZUGSACHSEN
100
AcDbLine
 62
7
  6
CONTINUOUS
 10
329.1659834548
 20
227.5495026619
 11
329.6530943692
 21
227.1240641895
  0
LINE
  5
92C
100
AcDbEntity
  8
BEZUGSACHSEN
100
AcDbLine
 62
7
  6
CONTINUOUS
 10
326.8907913297
 20
225.3936831797
 11
326.5447011505
 21
225.7172591397
  0
LINE
  5
92D
100
AcDbEntity
  8
BEZUGSACHSEN
100
AcDbLine
 62
7
  6
CONTINUOUS
 10
326.117666678
 20
227.7174732568
 11
325.9446204743
 21
227.8792608127
  0
LINE
  5
92E
100
AcDbEntity
  8
BEZUGSACHSEN
100
AcDbLine
 62
7
  6
CONTINUOUS
 10
309.75622844
 20
230.4414577943
 11
308.3873113281
 21
231.7227426732
  0
LINE
  5
92F
100
AcDbEntity
  8
BEZUGSACHSEN
100
AcDbLine
 62
7
  6
CONTINUOUS
 10
308.3671877095
 20
232.6158519676
 11
310.1924105253
 21
230.9074721291
  0
LINE
  5
930
100
AcDbEntity
  8
BEZUGSACHSEN
100
AcDbLine
 62
7
  6
CONTINUOUS
 10
301.2714411131
 20
237.3525477213
 11
300.8967682833
 21
237.7200899884
  0
LINE
  5
931
100
AcDbEntity
  8
BEZUGSACHSEN
100
AcDbLine
 62
7
  6
CONTINUOUS
 10
306.3498815467
 20
234.8884569696
 11
306.064335449
 21
235.2100025209
  0
LINE
  5
932
100
AcDbEntity
  8
BEZUGSACHSEN
100
AcDbLine
 62
7
  6
CONTINUOUS
 10
306.583871408
 20
235.5951742787
 11
306.9171672726
 21
235.181050676
  0
LINE
  5
933
100
AcDbEntity
  8
BEZUGSACHSEN
100
AcDbLine
 62
7
  6
CONTINUOUS
 10
310.1924105253
 20
230.9074721291
 11
310.4999685566
 21
230.4738903377
  0
LINE
  5
934
100
AcDbEntity
  8
BEZUGSACHSEN
100
AcDbLine
 62
7
  6
CONTINUOUS
 10
324.392023604
 20
223.7595107644
 11
324.1432837361
 21
224.1201445198
  0
LINE
  5
935
100
AcDbEntity
  8
BEZUGSACHSEN
100
AcDbLine
 62
7
  6
CONTINUOUS
 10
327.1288119312
 20
225.9396093048
 11
327.3775517991
 21
225.5789755494
  0
LINE
  5
936
100
AcDbEntity
  8
BEZUGSACHSEN
100
AcDbLine
 62
7
  6
CONTINUOUS
 10
314.5476563852
 20
232.9134500065
 11
309.6401790971
 21
241.4134500065
  0
LINE
  5
937
100
AcDbEntity
  8
BEZUGSACHSEN
100
AcDbLine
 62
7
  6
CONTINUOUS
 10
328.2222002132
 20
227.8733069175
 11
327.9634253674
 21
228.3495626131
  0
LINE
  5
938
100
AcDbEntity
  8
BEZUGSACHSEN
100
AcDbLine
 62
7
  6
CONTINUOUS
 10
327.9634253674
 20
228.3495626131
 11
327.8402676952
 21
228.6618750639
  0
LINE
  5
939
100
AcDbEntity
  8
BEZUGSACHSEN
100
AcDbLine
 62
7
  6
CONTINUOUS
 10
325.2250922608
 20
225.6702512086
 11
325.0737049324
 21
226.0679436076
  0
LINE
  5
93A
100
AcDbEntity
  8
BEZUGSACHSEN
100
AcDbLine
 62
7
  6
CONTINUOUS
 10
326.9664850999
 20
225.1948367016
 11
326.8907913297
 21
225.3936831797
  0
LINE
  5
93B
100
AcDbEntity
  8
BEZUGSACHSEN
100
AcDbLine
 62
7
  6
CONTINUOUS
 10
326.2690540064
 20
227.3197808578
 11
326.117666678
 21
227.7174732568
  0
LINE
  5
93C
100
AcDbEntity
  8
BEZUGSACHSEN
100
AcDbLine
 62
7
  6
CONTINUOUS
 10
327.3775517991
 20
225.5789755494
 11
327.4532455693
 21
225.3801290713
  0
LINE
  5
93D
100
AcDbEntity
  8
BEZUGSACHSEN
100
AcDbLine
 62
7
  6
CONTINUOUS
 10
326.6044249191
 20
227.9027647783
 11
326.7558122475
 21
227.5050723793
  0
LINE
  5
93E
100
AcDbEntity
  8
BEZUGSACHSEN
100
AcDbLine
 62
7
  6
CONTINUOUS
 10
319.7556395527
 20
227.4104750372
 11
321.1812665229
 21
223.4623414938
  0
LINE
  5
93F
100
AcDbEntity
  8
BEZUGSACHSEN
100
AcDbLine
 62
7
  6
CONTINUOUS
 10
327.8402676952
 20
228.6618750639
 11
327.7295657076
 21
229.1225538538
  0
LINE
  5
940
100
AcDbEntity
  8
BEZUGSACHSEN
100
AcDbLine
 62
7
  6
CONTINUOUS
 10
332.1039243696
 20
228.7372051292
 11
332.2146263097
 21
228.2765263968
  0
LINE
  5
941
100
AcDbEntity
  8
BEZUGSACHSEN
100
AcDbLine
 62
7
  6
CONTINUOUS
 10
331.6652312233
 20
227.9601289023
 11
331.5794442317
 21
228.7175434668
  0
LINE
  5
942
100
AcDbEntity
  8
0
100
AcDbLine
 62
7
  6
CONTINUOUS
 10
352.8085618873
 20
137.9134500065
 11
352.8085618873
 21
135.9134500065
  0
LINE
  5
943
100
AcDbEntity
  8
0
100
AcDbLine
 62
7
  6
CONTINUOUS
 10
353.3708019836
 20
137.9134500065
 11
353.3708019836
 21
135.9134500065
  0
LINE
  5
944
100
AcDbEntity
  8
0
100
AcDbLine
 62
7
  6
CONTINUOUS
 10
354.7303571027
 20
137.9134500065
 11
354.7303571027
 21
135.9134500065
  0
LINE
  5
945
100
AcDbEntity
  8
0
100
AcDbLine
 62
7
  6
CONTINUOUS
 10
355.2148855236
 20
137.9134500065
 11
355.2148855236
 21
135.9134500065
  0
LINE
  5
946
100
AcDbEntity
  8
0
100
AcDbLine
 62
7
  6
CONTINUOUS
 10
356.312263787
 20
137.9134500065
 11
356.312263787
 21
135.9134500065
  0
LINE
  5
947
100
AcDbEntity
  8
0
100
AcDbLine
 62
7
  6
CONTINUOUS
 10
356.8043318929
 20
169.9134500065
 11
356.8043318929
 21
171.9134500065
  0
LINE
  5
948
100
AcDbEntity
  8
0
100
AcDbLine
 62
7
  6
CONTINUOUS
 10
357.7557922369
 20
169.9134500065
 11
357.7557922369
 21
171.9134500065
  0
LINE
  5
949
100
AcDbEntity
  8
0
100
AcDbLine
 62
7
  6
CONTINUOUS
 10
357.7929510437
 20
137.9134500065
 11
357.7929510437
 21
135.9134500065
  0
LINE
  5
94A
100
AcDbEntity
  8
0
100
AcDbLine
 62
7
  6
CONTINUOUS
 10
358.0035257865
 20
169.9134500065
 11
358.0035257865
 21
171.9134500065
  0
LINE
  5
94B
100
AcDbEntity
  8
0
100
AcDbLine
 62
7
  6
CONTINUOUS
 10
359.637034692
 20
137.9134500065
 11
359.637034692
 21
135.9134500065
  0
LINE
  5
94C
100
AcDbEntity
  8
0
100
AcDbLine
 62
7
  6
CONTINUOUS
 10
359.72311564
 20
169.9134500065
 11
359.72311564
 21
171.9134500065
  0
LINE
  5
94D
100
AcDbEntity
  8
0
100
AcDbLine
 62
7
  6
CONTINUOUS
 10
360.801340759
 20
137.9134500065
 11
360.801340759
 21
135.9134500065
  0
LINE
  5
94E
100
AcDbEntity
  8
0
100
AcDbLine
 62
7
  6
CONTINUOUS
 10
361.2209397251
 20
169.9134500065
 11
361.2209397251
 21
171.9134500065
  0
LINE
  5
94F
100
AcDbEntity
  8
0
100
AcDbLine
 62
7
  6
CONTINUOUS
 10
361.9891544485
 20
137.9134500065
 11
361.9891544485
 21
135.9134500065
  0
LINE
  5
950
100
AcDbEntity
  8
0
100
AcDbLine
 62
7
  6
CONTINUOUS
 10
362.1563014319
 20
169.9134500065
 11
362.1563014319
 21
171.9134500065
  0
LINE
  5
951
100
AcDbEntity
  8
0
100
AcDbLine
 62
7
  6
CONTINUOUS
 10
362.2314188323
 20
137.9134500065
 11
362.2314188323
 21
135.9134500065
  0
LINE
  5
952
100
AcDbEntity
  8
0
100
AcDbLine
 62
7
  6
CONTINUOUS
 10
362.7394550489
 20
137.9134500065
 11
362.7394550489
 21
135.9134500065
  0
LINE
  5
953
100
AcDbEntity
  8
0
100
AcDbLine
 62
7
  6
CONTINUOUS
 10
362.880500784
 20
137.9134500065
 11
362.880500784
 21
135.9134500065
  0
LINE
  5
954
100
AcDbEntity
  8
0
100
AcDbLine
 62
7
  6
CONTINUOUS
 10
365.0106851861
 20
169.9134500065
 11
365.0106851861
 21
171.9134500065
  0
LINE
  5
955
100
AcDbEntity
  8
0
100
AcDbLine
 62
7
  6
CONTINUOUS
 10
331.9807665074
 20
78.7773822033
 11
332.1039243696
 21
79.0896948838
  0
LINE
  5
956
100
AcDbEntity
  8
0
100
AcDbLine
 62
7
  6
CONTINUOUS
 10
331.7219935937
 20
78.3011251028
 11
331.9807665074
 21
78.7773822033
  0
LINE
  5
957
100
AcDbEntity
  8
0
100
AcDbLine
 62
7
  6
CONTINUOUS
 10
324.3626109614
 20
57.9134500065
 11
329.2700882496
 21
66.4134500065
  0
LINE
  5
958
100
AcDbEntity
  8
0
100
AcDbLine
 62
7
  6
CONTINUOUS
 10
328.3647494802
 20
79.1453615374
 11
328.6913301096
 21
79.7035910774
  0
LINE
  5
959
100
AcDbEntity
  8
0
100
AcDbLine
 62
7
  6
CONTINUOUS
 10
331.5794442317
 20
79.1093565462
 11
331.2528618601
 21
78.5511286406
  0
LINE
  5
95A
100
AcDbEntity
  8
0
100
AcDbLine
 62
7
  6
CONTINUOUS
 10
326.393534085
 20
79.6629236612
 11
326.6044249191
 21
79.9241352347
  0
LINE
  5
95B
100
AcDbEntity
  8
0
100
AcDbLine
 62
7
  6
CONTINUOUS
 10
328.8324687999
 20
80.6913440188
 11
328.2222002132
 21
79.9535930955
  0
LINE
  5
95C
100
AcDbEntity
  8
0
100
AcDbLine
 62
7
  6
CONTINUOUS
 10
328.6913301096
 20
79.7035910774
 11
329.1659834548
 21
80.2773973511
  0
LINE
  5
95D
100
AcDbEntity
  8
0
100
AcDbLine
 62
7
  6
CONTINUOUS
 10
331.2528618601
 20
78.5511286406
 11
330.778208515
 21
77.9773223669
  0
LINE
  5
95E
100
AcDbEntity
  8
0
100
AcDbLine
 62
7
  6
CONTINUOUS
 10
331.111725007
 20
77.5633741796
 11
331.7219935937
 21
78.3011251028
  0
LINE
  5
95F
100
AcDbEntity
  8
0
100
AcDbLine
 62
7
  6
CONTINUOUS
 10
330.778208515
 20
77.9773223669
 11
330.2910993427
 21
77.5518822601
  0
LINE
  5
960
100
AcDbEntity
  8
0
100
AcDbLine
 62
7
  6
CONTINUOUS
 10
330.6924216184
 20
77.2199079172
 11
331.111725007
 21
77.5633741796
  0
LINE
  5
961
100
AcDbEntity
  8
BEZUGSACHSEN
100
AcDbLine
 62
7
  6
CONTINUOUS
 10
330.6924216184
 20
230.6069920958
 11
331.111725007
 21
230.2635258334
  0
LINE
  5
962
100
AcDbEntity
  8
BEZUGSACHSEN
100
AcDbLine
 62
7
  6
CONTINUOUS
 10
330.778208515
 20
229.8495776461
 11
330.2910993427
 21
230.2750177529
  0
LINE
  5
963
100
AcDbEntity
  8
BEZUGSACHSEN
100
AcDbLine
 62
7
  6
CONTINUOUS
 10
328.8324687999
 20
227.1355559942
 11
328.2222002132
 21
227.8733069175
  0
LINE
  5
964
100
AcDbEntity
  8
BEZUGSACHSEN
100
AcDbLine
 62
7
  6
CONTINUOUS
 10
328.6913301096
 20
228.1233089356
 11
329.1659834548
 21
227.5495026619
  0
LINE
  5
965
100
AcDbEntity
  8
BEZUGSACHSEN
100
AcDbLine
 62
7
  6
CONTINUOUS
 10
331.2528618601
 20
229.2757713724
 11
330.778208515
 21
229.8495776461
  0
LINE
  5
966
100
AcDbEntity
  8
BEZUGSACHSEN
100
AcDbLine
 62
7
  6
CONTINUOUS
 10
331.111725007
 20
230.2635258334
 11
331.7219935937
 21
229.5257749102
  0
LINE
  5
967
100
AcDbEntity
  8
BEZUGSACHSEN
100
AcDbLine
 62
7
  6
CONTINUOUS
 10
326.393534085
 20
228.1639763518
 11
326.6044249191
 21
227.9027647783
  0
LINE
  5
968
100
AcDbEntity
  8
BEZUGSACHSEN
100
AcDbLine
 62
7
  6
CONTINUOUS
 10
328.3647494802
 20
228.6815384756
 11
328.6913301096
 21
228.1233089356
  0
LINE
  5
969
100
AcDbEntity
  8
BEZUGSACHSEN
100
AcDbLine
 62
7
  6
CONTINUOUS
 10
331.5794442317
 20
228.7175434668
 11
331.2528618601
 21
229.2757713724
  0
LINE
  5
96A
100
AcDbEntity
  8
BEZUGSACHSEN
100
AcDbLine
 62
7
  6
CONTINUOUS
 10
324.3626109614
 20
249.9134500065
 11
329.2700882496
 21
241.4134500065
  0
LINE
  5
96B
100
AcDbEntity
  8
BEZUGSACHSEN
100
AcDbLine
 62
7
  6
CONTINUOUS
 10
331.7219935937
 20
229.5257749102
 11
331.9807665074
 21
229.0495178097
  0
LINE
  5
96C
100
AcDbEntity
  8
BEZUGSACHSEN
100
AcDbLine
 62
7
  6
CONTINUOUS
 10
331.9807665074
 20
229.0495178097
 11
332.1039243696
 21
228.7372051292
  0
LINE
  5
96D
100
AcDbEntity
  8
0
100
AcDbLine
 62
7
  6
CONTINUOUS
 10
365.9865147004
 20
137.9134500065
 11
365.9865147004
 21
135.9134500065
  0
LINE
  5
96E
100
AcDbEntity
  8
0
100
AcDbLine
 62
7
  6
CONTINUOUS
 10
366.7133075049
 20
137.9134500065
 11
366.7133075049
 21
135.9134500065
  0
LINE
  5
96F
100
AcDbEntity
  8
0
100
AcDbLine
 62
7
  6
CONTINUOUS
 10
367.8650682597
 20
169.9134500065
 11
367.8650682597
 21
171.9134500065
  0
LINE
  5
970
100
AcDbEntity
  8
0
100
AcDbLine
 62
7
  6
CONTINUOUS
 10
368.8165299648
 20
169.9134500065
 11
368.8165299648
 21
171.9134500065
  0
LINE
  5
971
100
AcDbEntity
  8
0
100
AcDbLine
 62
7
  6
CONTINUOUS
 10
369.1769615268
 20
169.9134500065
 11
369.1769615268
 21
171.9134500065
  0
LINE
  5
972
100
AcDbEntity
  8
0
100
AcDbLine
 62
7
  6
CONTINUOUS
 10
369.9838751255
 20
137.9134500065
 11
369.9838751255
 21
135.9134500065
  0
LINE
  5
973
100
AcDbEntity
  8
0
100
AcDbLine
 62
7
  6
CONTINUOUS
 10
370.5397543654
 20
169.9134500065
 11
370.5397543654
 21
171.9134500065
  0
LINE
  5
974
100
AcDbEntity
  8
0
100
AcDbLine
 62
7
  6
CONTINUOUS
 10
371.6807808215
 20
169.9134500065
 11
371.6807808215
 21
171.9134500065
  0
LINE
  5
975
100
AcDbEntity
  8
0
100
AcDbLine
 62
7
  6
CONTINUOUS
 10
373.400370675
 20
169.9134500065
 11
373.400370675
 21
171.9134500065
  0
LINE
  5
976
100
AcDbEntity
  8
0
100
AcDbLine
 62
7
  6
CONTINUOUS
 10
374.1023679158
 20
137.9134500065
 11
374.1023679158
 21
135.9134500065
  0
LINE
  5
977
100
AcDbEntity
  8
0
100
AcDbLine
 62
7
  6
CONTINUOUS
 10
374.5091860036
 20
137.9134500065
 11
374.5091860036
 21
135.9134500065
  0
LINE
  5
978
100
AcDbEntity
  8
0
100
AcDbLine
 62
7
  6
CONTINUOUS
 10
374.8981951004
 20
169.9134500065
 11
374.8981951004
 21
171.9134500065
  0
LINE
  5
979
100
AcDbEntity
  8
0
100
AcDbLine
 62
7
  6
CONTINUOUS
 10
375.8335564669
 20
169.9134500065
 11
375.8335564669
 21
171.9134500065
  0
LINE
  5
97A
100
AcDbEntity
  8
0
100
AcDbLine
 62
7
  6
CONTINUOUS
 10
332.7341898647
 20
43.4134500065
 11
346.0132460561
 21
66.4134500065
  0
LINE
  5
97B
100
AcDbEntity
  8
BEZUGSACHSEN
100
AcDbLine
 62
7
  6
CONTINUOUS
 10
332.7341898647
 20
264.4134500065
 11
346.0132460561
 21
241.4134500065
  0
LINE
  5
97C
100
AcDbEntity
  8
0
100
AcDbLine
 62
7
  6
CONTINUOUS
 10
378.6879402211
 20
169.9134500065
 11
378.6879402211
 21
171.9134500065
  0
LINE
  5
97D
100
AcDbEntity
  8
RUNDUNGEN
100
AcDbLine
 62
7
  6
CONTINUOUS
 10
391.9551336733
 20
208.9134500065
 11
391.9551336733
 21
98.9134500065
  0
LINE
  5
97E
100
AcDbEntity
  8
BEZUGSACHSEN
100
AcDbLine
 62
7
  6
CONTINUOUS
 10
391.9551336733
 20
145.9134500065
 11
391.9551336733
 21
161.9134500065
  0
ARC
  5
97F
100
AcDbEntity
  8
RUNDUNGEN
100
AcDbCircle
 62
7
  6
CONTINUOUS
 10
127.2051336733
 20
399.8114936051
 40
55.25
100
AcDbArc
 50
160.3782077692
 51
180.0
  0
ARC
  5
980
100
AcDbEntity
  8
RUNDUNGEN
100
AcDbCircle
 62
7
  6
CONTINUOUS
 10
97.80230432
 20
423.3656466087
 40
32.0
100
AcDbArc
 50
270.0
 51
337.5023390284
  0
ARC
  5
981
100
AcDbEntity
  8
RUNDUNGEN
100
AcDbCircle
 62
7
  6
CONTINUOUS
 10
115.7535660207
 20
431.9492512025
 40
18.7
100
AcDbArc
 50
337.500009916
 51
22.499846711
  0
ARC
  5
982
100
AcDbEntity
  8
RUNDUNGEN
100
AcDbCircle
 62
7
  6
CONTINUOUS
 10
138.8694044482
 20
456.3656466087
 40
12.0
100
AcDbArc
 50
157.5000000368
 51
202.5000016502
  0
ARC
  5
983
100
AcDbEntity
  8
RUNDUNGEN
100
AcDbCircle
 62
7
  6
CONTINUOUS
 10
166.1335833065
 20
522.1871969755
 40
12.0
100
AcDbArc
 50
112.5
 51
157.5
  0
ARC
  5
984
100
AcDbEntity
  8
RUNDUNGEN
100
AcDbCircle
 62
7
  6
CONTINUOUS
 10
231.9551336733
 20
426.3656466087
 40
145.0
100
AcDbArc
 50
19.6217922308
 51
160.3782077692
  0
ARC
  5
985
100
AcDbEntity
  8
RUNDUNGEN
100
AcDbCircle
 62
7
  6
CONTINUOUS
 10
231.9551336733
 20
456.3656466087
 40
65.0
100
AcDbArc
 50
322.1615745154
 51
1.4448501056
  0
ARC
  5
986
100
AcDbEntity
  8
BEZUGSACHSEN
100
AcDbCircle
 62
7
  6
CONTINUOUS
 10
231.9551336733
 20
456.3656466087
 40
65.0
100
AcDbArc
 50
290.2041752728
 51
322.1615745154
  0
ARC
  5
987
100
AcDbEntity
  8
BEZUGSACHSEN
100
AcDbCircle
 62
7
  6
CONTINUOUS
 10
231.9551336733
 20
456.3656466087
 40
65.0
100
AcDbArc
 50
1.4448501067
 51
249.7958247272
  0
ARC
  5
988
100
AcDbEntity
  8
RUNDUNGEN
100
AcDbCircle
 62
7
  6
CONTINUOUS
 10
336.7051336733
 20
399.8114936051
 40
55.25
100
AcDbArc
 50
0.0
 51
19.6217922308
  0
ARC
  5
989
100
AcDbEntity
  8
RUNDUNGEN
100
AcDbCircle
 62
7
  6
CONTINUOUS
 10
366.1079630267
 20
423.3656466087
 40
32.0
100
AcDbArc
 50
202.4976199098
 51
270.0
  0
ARC
  5
98A
100
AcDbEntity
  8
RUNDUNGEN
100
AcDbCircle
 62
7
  6
CONTINUOUS
 10
348.156701326
 20
431.9492512025
 40
18.7
100
AcDbArc
 50
157.500154921
 51
202.4999905903
  0
ARC
  5
98B
100
AcDbEntity
  8
RUNDUNGEN
100
AcDbCircle
 62
7
  6
CONTINUOUS
 10
325.0408628985
 20
456.3656466087
 40
12.0
100
AcDbArc
 50
337.4999984828
 51
22.4999999632
  0
ARC
  5
98C
100
AcDbEntity
  8
RUNDUNGEN
100
AcDbCircle
 62
7
  6
CONTINUOUS
 10
297.7766840401
 20
522.1871969755
 40
12.0
100
AcDbArc
 50
22.5
 51
67.5
  0
ARC
  5
98D
100
AcDbEntity
  8
RUNDUNGEN
100
AcDbCircle
 62
7
  6
CONTINUOUS
 10
231.9551336733
 20
549.4513758338
 40
12.0
100
AcDbArc
 50
67.5
 51
112.5
  0
ARC
  5
98E
100
AcDbEntity
  8
BEZUGSACHSEN
100
AcDbCircle
 62
7
  6
CONTINUOUS
 10
523.3484580087
 20
458.3828241232
 40
77.0
100
AcDbArc
 50
339.9999466816
 51
359.9999997459
  0
ARC
  5
98F
100
AcDbEntity
  8
BEZUGSACHSEN
100
AcDbCircle
 62
7
  6
CONTINUOUS
 10
558.4912474668
 20
423.3656466087
 40
32.0
100
AcDbArc
 50
270.0
 51
339.9999957413
  0
ARC
  5
990
100
AcDbEntity
  8
BEZUGSACHSEN
100
AcDbCircle
 62
7
  6
CONTINUOUS
 10
609.3484580087
 20
552.4513758338
 40
9.0
100
AcDbArc
 50
90.0
 51
180.0
  0
ARC
  5
991
100
AcDbEntity
  8
RUNDUNGEN
100
AcDbCircle
 62
7
  6
CONTINUOUS
 10
624.3484580087
 20
563.3656466087
 40
8.0
100
AcDbArc
 50
90.0
 51
180.0
  0
ARC
  5
992
100
AcDbEntity
  8
RUNDUNGEN
100
AcDbCircle
 62
7
  6
CONTINUOUS
 10
741.3484580087
 20
458.3828241232
 40
77.0
100
AcDbArc
 50
180.0000002541
 51
200.0000533184
  0
ARC
  5
993
100
AcDbEntity
  8
BEZUGSACHSEN
100
AcDbCircle
 62
7
  6
CONTINUOUS
 10
741.3484580087
 20
458.3828241232
 40
77.0
100
AcDbArc
 50
184.9413928651
 51
187.3852451877
  0
ARC
  5
994
100
AcDbEntity
  8
BEZUGSACHSEN
100
AcDbCircle
 62
7
  6
CONTINUOUS
 10
741.3484580087
 20
458.3828241232
 40
77.0
100
AcDbArc
 50
190.6058794753
 51
194.7741981424
  0
ARC
  5
995
100
AcDbEntity
  8
RUNDUNGEN
100
AcDbCircle
 62
7
  6
CONTINUOUS
 10
706.2056685506
 20
423.3656466087
 40
32.0
100
AcDbArc
 50
200.0000042587
 51
270.0
  0
ARC
  5
996
100
AcDbEntity
  8
BEZUGSACHSEN
100
AcDbCircle
 62
7
  6
CONTINUOUS
 10
706.2056685506
 20
423.3656466087
 40
32.0
100
AcDbArc
 50
203.6677008942
 51
224.9972968758
  0
ARC
  5
997
100
AcDbEntity
  8
RUNDUNGEN
100
AcDbCircle
 62
7
  6
CONTINUOUS
 10
655.3484580087
 20
552.4513758338
 40
9.0
100
AcDbArc
 50
0.0
 51
90.0
  0
ARC
  5
998
100
AcDbEntity
  8
RUNDUNGEN
100
AcDbCircle
 62
7
  6
CONTINUOUS
 10
640.3484580087
 20
563.3656466087
 40
8.0
100
AcDbArc
 50
0.0
 51
90.0
  0
ARC
  5
999
100
AcDbEntity
  8
BEZUGSACHSEN
100
AcDbCircle
 62
7
  6
CONTINUOUS
 10
131.9551336733
 20
98.9134500065
 40
60.0
100
AcDbArc
 50
180.0
 51
270.0
  0
ARC
  5
99A
100
AcDbEntity
  8
BEZUGSACHSEN
100
AcDbCircle
 62
7
  6
CONTINUOUS
 10
144.4551336733
 20
66.4134500065
 40
36.5
100
AcDbArc
 50
311.1120904392
 51
225.5654664543
  0
ARC
  5
99B
100
AcDbEntity
  8
RUNDUNGEN
100
AcDbCircle
 62
7
  6
CONTINUOUS
 10
79.9551336733
 20
145.9134500065
 40
8.0
100
AcDbArc
 50
180.0
 51
270.0
  0
ARC
  5
99C
100
AcDbEntity
  8
BEZUGSACHSEN
100
AcDbCircle
 62
7
  6
CONTINUOUS
 10
131.9551336733
 20
208.9134500065
 40
60.0
100
AcDbArc
 50
90.0
 51
180.0
  0
ARC
  5
99D
100
AcDbEntity
  8
BEZUGSACHSEN
100
AcDbCircle
 62
7
  6
CONTINUOUS
 10
144.4551336733
 20
241.4134500065
 40
36.5
100
AcDbArc
 50
134.4345335457
 51
48.8879095608
  0
ARC
  5
99E
100
AcDbEntity
  8
RUNDUNGEN
100
AcDbCircle
 62
7
  6
CONTINUOUS
 10
79.9551336733
 20
161.9134500065
 40
8.0
100
AcDbArc
 50
90.0
 51
180.0
  0
ARC
  5
99F
100
AcDbEntity
  8
BEZUGSACHSEN
100
AcDbCircle
 62
7
  6
CONTINUOUS
 10
331.9551336733
 20
98.9134500065
 40
60.0
100
AcDbArc
 50
270.0
 51
360.0
  0
ARC
  5
9A0
100
AcDbEntity
  8
BEZUGSACHSEN
100
AcDbCircle
 62
7
  6
CONTINUOUS
 10
231.9551336733
 20
66.4134500065
 40
36.5
100
AcDbArc
 50
311.1120904392
 51
228.8879095608
  0
ARC
  5
9A1
100
AcDbEntity
  8
BEZUGSACHSEN
100
AcDbCircle
 62
7
  6
CONTINUOUS
 10
319.4551336733
 20
66.4134500065
 40
36.5
100
AcDbArc
 50
314.4345335457
 51
228.8879095608
  0
ARC
  5
9A2
100
AcDbEntity
  8
RUNDUNGEN
100
AcDbCircle
 62
7
  6
CONTINUOUS
 10
383.9551336733
 20
145.9134500065
 40
8.0
100
AcDbArc
 50
270.0
 51
360.0
  0
ARC
  5
9A3
100
AcDbEntity
  8
BEZUGSACHSEN
100
AcDbCircle
 62
7
  6
CONTINUOUS
 10
331.9551336733
 20
208.9134500065
 40
60.0
100
AcDbArc
 50
0.0
 51
90.0
  0
ARC
  5
9A4
100
AcDbEntity
  8
BEZUGSACHSEN
100
AcDbCircle
 62
7
  6
CONTINUOUS
 10
319.4551336733
 20
241.4134500065
 40
36.5
100
AcDbArc
 50
131.1120904392
 51
45.5654664543
  0
ARC
  5
9A5
100
AcDbEntity
  8
BEZUGSACHSEN
100
AcDbCircle
 62
7
  6
CONTINUOUS
 10
231.9551336733
 20
241.4134500065
 40
36.5
100
AcDbArc
 50
131.1120904392
 51
48.8879095608
  0
ARC
  5
9A6
100
AcDbEntity
  8
RUNDUNGEN
100
AcDbCircle
 62
7
  6
CONTINUOUS
 10
383.9551336733
 20
161.9134500065
 40
8.0
100
AcDbArc
 50
0.0
 51
90.0
  0
SPLINE
  5
9A7
100
AcDbEntity
  8
BEZUGSACHSEN
100
AcDbSpline
 62
7
  6
CONTINUOUS
 70
0
 71
3
 72
10
 73
6
 74
0
 42
0.0000001
 43
0.0000001
 44
0.0000000001
 40
0.0
 40
0.0
 40
0.0
 40
0.0
 40
0.1896895917
 40
0.4216584754
 40
1.0
 40
1.0
 40
1.0
 40
1.0
 10
110.6006761263
 20
391.3656466087
 30
0.0
 10
111.0825273202
 20
391.3656466087
 30
0.0
 10
112.1520935693
 20
391.5062174724
 30
0.0
 10
114.6087294455
 20
392.1594202391
 30
0.0
 10
116.530589057
 20
392.9111910193
 30
0.0
 10
117.8926561281
 20
393.4616930608
 30
0.0
  0
SPLINE
  5
9A8
100
AcDbEntity
  8
BEZUGSACHSEN
100
AcDbSpline
 62
7
  6
CONTINUOUS
 70
0
 71
3
 72
13
 73
9
 74
0
 42
0.0000001
 43
0.0000001
 44
0.0000000001
 40
0.0
 40
0.0
 40
0.0
 40
0.0
 40
0.2379307746
 40
0.3672928824
 40
0.5000000234
 40
0.6327071652
 40
0.762069255
 40
1.0
 40
1.0
 40
1.0
 40
1.0
 10
122.4525273293
 20
395.3591927204
 30
0.0
 10
125.7972948429
 20
396.7559675508
 30
0.0
 10
131.0091438824
 20
398.8390721327
 30
0.0
 10
138.4352841758
 20
400.621788886
 30
0.0
 10
144.4551313222
 20
401.1459405147
 30
0.0
 10
150.4749781989
 20
400.6217894031
 30
0.0
 10
157.9011181731
 20
398.8390743633
 30
0.0
 10
163.1129665804
 20
396.7559699882
 30
0.0
 10
166.4577336967
 20
395.3591953774
 30
0.0
  0
SPLINE
  5
9A9
100
AcDbEntity
  8
BEZUGSACHSEN
100
AcDbSpline
 62
7
  6
CONTINUOUS
 70
0
 71
3
 72
10
 73
6
 74
0
 42
0.0000001
 43
0.0000001
 44
0.0000000001
 40
0.0
 40
0.0
 40
0.0
 40
0.0
 40
0.5783415417
 40
0.8103104179
 40
1.0
 40
1.0
 40
1.0
 40
1.0
 10
171.0176096324
 20
393.4616936981
 30
0.0
 10
172.3796770425
 20
392.9111914998
 30
0.0
 10
174.3015370954
 20
392.1594205205
 30
0.0
 10
176.7581734952
 20
391.5062174985
 30
0.0
 10
177.8277399427
 20
391.3656466087
 30
0.0
 10
178.3095912203
 20
391.3656466087
 30
0.0
  0
SPLINE
  5
9AA
100
AcDbEntity
  8
BEZUGSACHSEN
100
AcDbSpline
 62
7
  6
CONTINUOUS
 70
0
 71
3
 72
10
 73
6
 74
0
 42
0.0000001
 43
0.0000001
 44
0.0000000001
 40
0.0
 40
0.0
 40
0.0
 40
0.0
 40
0.1896895917
 40
0.4216584754
 40
1.0
 40
1.0
 40
1.0
 40
1.0
 10
285.6006761263
 20
391.3656466087
 30
0.0
 10
286.0825273202
 20
391.3656466087
 30
0.0
 10
287.1520935693
 20
391.5062174724
 30
0.0
 10
289.6087294455
 20
392.1594202391
 30
0.0
 10
291.530589057
 20
392.9111910193
 30
0.0
 10
292.8926561281
 20
393.4616930608
 30
0.0
  0
SPLINE
  5
9AB
100
AcDbEntity
  8
BEZUGSACHSEN
100
AcDbSpline
 62
7
  6
CONTINUOUS
 70
0
 71
3
 72
13
 73
9
 74
0
 42
0.0000001
 43
0.0000001
 44
0.0000000001
 40
0.0
 40
0.0
 40
0.0
 40
0.0
 40
0.2379307746
 40
0.3672928824
 40
0.5000000234
 40
0.6327071652
 40
0.762069255
 40
1.0
 40
1.0
 40
1.0
 40
1.0
 10
297.4525273293
 20
395.3591927204
 30
0.0
 10
300.7972948429
 20
396.7559675508
 30
0.0
 10
306.0091438824
 20
398.8390721327
 30
0.0
 10
313.4352841758
 20
400.621788886
 30
0.0
 10
319.4551313222
 20
401.1459405147
 30
0.0
 10
325.4749781989
 20
400.6217894031
 30
0.0
 10
332.9011181731
 20
398.8390743633
 30
0.0
 10
338.1129665804
 20
396.7559699882
 30
0.0
 10
341.4577336967
 20
395.3591953774
 30
0.0
  0
SPLINE
  5
9AC
100
AcDbEntity
  8
BEZUGSACHSEN
100
AcDbSpline
 62
7
  6
CONTINUOUS
 70
0
 71
3
 72
10
 73
6
 74
0
 42
0.0000001
 43
0.0000001
 44
0.0000000001
 40
0.0
 40
0.0
 40
0.0
 40
0.0
 40
0.5783415417
 40
0.8103104179
 40
1.0
 40
1.0
 40
1.0
 40
1.0
 10
346.0176096324
 20
393.4616936981
 30
0.0
 10
347.3796770425
 20
392.9111914998
 30
0.0
 10
349.3015370954
 20
392.1594205205
 30
0.0
 10
351.7581734952
 20
391.5062174985
 30
0.0
 10
352.8277399427
 20
391.3656466087
 30
0.0
 10
353.3095912203
 20
391.3656466087
 30
0.0
  0
SPLINE
  5
9AD
100
AcDbEntity
  8
BEZUGSACHSEN
100
AcDbSpline
 62
7
  6
CONTINUOUS
 70
0
 71
3
 72
10
 73
6
 74
0
 42
0.0000001
 43
0.0000001
 44
0.0000000001
 40
0.0
 40
0.0
 40
0.0
 40
0.0
 40
0.578344853
 40
0.810287061
 40
1.0
 40
1.0
 40
1.0
 40
1.0
 10
258.5154102615
 20
393.4625665115
 30
0.0
 10
259.8778929427
 20
392.9118454429
 30
0.0
 10
261.8003606639
 20
392.1601391213
 30
0.0
 10
264.2576043089
 20
391.506048971
 30
0.0
 10
265.3275301722
 20
391.3656466087
 30
0.0
 10
265.8095912203
 20
391.3656466087
 30
0.0
  0
SPLINE
  5
9AE
100
AcDbEntity
  8
BEZUGSACHSEN
100
AcDbSpline
 62
7
  6
CONTINUOUS
 70
0
 71
3
 72
10
 73
6
 74
0
 42
0.0000001
 43
0.0000001
 44
0.0000000001
 40
0.0
 40
0.0
 40
0.0
 40
0.0
 40
0.1897123774
 40
0.4216543418
 40
1.0
 40
1.0
 40
1.0
 40
1.0
 10
198.1006761263
 20
391.3656466087
 30
0.0
 10
198.5827374273
 20
391.3656466087
 30
0.0
 10
199.6526650864
 20
391.5060484079
 30
0.0
 10
202.1099167795
 20
392.1601431411
 30
0.0
 10
204.0323924681
 20
392.9118524236
 30
0.0
 10
205.3948816742
 20
393.4625764735
 30
0.0
  0
ENDSEC
  0
SECTION
  2
OBJECTS
  0
DICTIONARY
  5
C
100
AcDbDictionary
280
0
281
1
  3
ACAD_GROUP
350
D
  3
ACAD_MLINESTYLE
350
17
  3
ACAD_LAYOUT
350
1A
  3
ACAD_PLOTSETTINGS
350
19
  3
ACAD_PLOTSTYLENAME
350
E
  0
DICTIONARY
  5
D
102
{ACAD_REACTORS
330
C
102
}
100
AcDbDictionary
280
0
281
1
  0
ACDBDICTIONARYWDFLT
  5
E
102
{ACAD_REACTORS
330
C
102
}
100
AcDbDictionary
281
1
  3
Normal
350
F
100
AcDbDictionaryWithDefault
340
F
  0
DICTIONARY
  5
17
102
{ACAD_REACTORS
330
C
102
}
100
AcDbDictionary
280
0
281
1
  3
Standard
350
18
  0
DICTIONARY
  5
19
102
{ACAD_REACTORS
330
C
102
}
100
AcDbDictionary
281
1
  0
DICTIONARY
  5
1A
102
{ACAD_REACTORS
330
C
102
}
100
AcDbDictionary
281
1
  3
Model
350
9AF
  3
Layout1
350
9B0
  0
ACDBPLACEHOLDER
  5
F
102
{ACAD_REACTORS
330
E
102
}
  0
MLINESTYLE
  5
18
102
{ACAD_REACTORS
330
17
102
}
100
AcDbMlineStyle
  2
STANDARD
 70
0
  3

 62
256
 51
90.0
 52
90.0
 71
2
 49
0.5
 62
256
  6
BYLAYER
 49
-0.5
 62
256
  6
BYLAYER
  0
LAYOUT
  5
9AF
102
{ACAD_REACTORS
330
1A
102
}
100
AcDbPlotSettings
  1

  2
none_device
  4
ISO_A1_(594.00_x_841.00_MM)
  6

 40
0.0
 41
0.0
 42
0.0
 43
0.0
 44
841.0
 45
594.0
 46
0.0
 47
0.0
 48
0.0
 49
0.0
140
0.0
141
0.0
142
1.0
143
1.0
 70
1024
 72
1
 73
0
 74
0
  7

 75
0
147
1.0
148
0.0
149
0.0
100
AcDbLayout
  1
Model
 70
0
 71
0
 10
0.0
 20
0.0
 11
841.0
 21
594.0
 12
0.0
 22
0.0
 32
0.0
 14
0.0
 24
0.0
 34
0.0
 15
0.0
 25
0.0
 35
0.0
146
0.0
 13
0.0
 23
0.0
 33
0.0
 16
1.0
 26
0.0
 36
0.0
 17
0.0
 27
1.0
 37
0.0
 76
0
330
20B
345
0
346
0
  0
LAYOUT
  5
9B0
102
{ACAD_REACTORS
330
1A
102
}
100
AcDbPlotSettings
  1

  2
none_device
  4
ISO_A1_(594.00_x_841.00_MM)
  6

 40
0.0
 41
0.0
 42
0.0
 43
0.0
 44
841.0
 45
594.0
 46
0.0
 47
0.0
 48
0.0
 49
0.0
140
0.0
141
0.0
142
1.0
143
1.0
 70
0
 72
1
 73
0
 74
0
  7

 75
0
147
1.0
148
0.0
149
0.0
100
AcDbLayout
  1
Layout1
 70
0
 71
1
 10
0.0
 20
0.0
 11
841.0
 21
594.0
 12
0.0
 22
0.0
 32
0.0
 14
0.0
 24
0.0
 34
0.0
 15
0.0
 25
0.0
 35
0.0
146
0.0
 13
0.0
 23
0.0
 33
0.0
 16
1.0
 26
0.0
 36
0.0
 17
0.0
 27
1.0
 37
0.0
 76
0
330
20C
345
0
346
0
  0
ENDSEC
  0
EOF
