999
DXF file: B-ABA-M24-20t-7906270-M35159-P-3.dxf
999
Pro/ENGINEER 2011490 by Parametric Technology Corporation
  0
SECTION
  2
HEADER
  9
$ACADVER
  1
AC1015
  9
$DWGCODEPAGE
  3
ANSI_1252
  9
$EXTMAX
 10
841.0
 20
594.0
 30
0.0
  9
$EXTMIN
 10
0.0
 20
0.0
 30
0.0
  9
$LIMMIN
 10
0.0
 20
0.0
  9
$LIMMAX
 10
841.0
 20
594.0
  9
$VIEWCTR
 10
420.5
 20
297.0
  9
$VIEWSIZE
 40
594.0
  9
$CLAYER
  8
0
  9
$LTSCALE
 40
46.255
  9
$CELTYPE
  6
BYLAYER
  9
$DIMSCALE
 40
1.0
  9
$DIMASZ
 40
3.5
  9
$DIMEXO
 40
5.25625
  9
$DIMDLI
 40
31.958
  9
$DIMEXE
 40
15.138
  9
$DIMCEN
 40
7.569
  9
$DIMLFAC
 40
1.0
  9
$DIMBLK
  1
_FILLED
  9
$DIMTXT
 40
3.5
  9
$DIMTOL
 70
1
  9
$DIMLIM
 70
0
  9
$DIMTFAC
 40
1.0
  9
$DIMTP
 40
0.005
  9
$DIMTM
 40
0.005
  9
$PDMODE
 70
3
  9
$PDSIZE
 40
0.3125
  9
$HANDSEED
  5
84F
  9
$TILEMODE
 70
1
  9
$MEASUREMENT
 70
1
  9
$INSUNITS
 70
4
  0
ENDSEC
  0
SECTION
  2
CLASSES
  0
CLASS
  1
ACDBDICTIONARYWDFLT
  2
AcDbDictionaryWithDefault
  3
AutoCAD 2000
 90
0
280
0
281
0
  0
CLASS
  1
ACDBPLACEHOLDER
  2
AcDbPlaceHolder
  3
AutoCAD 2000
 90
0
280
0
281
0
  0
CLASS
  1
LAYOUT
  2
AcDbLayout
  3
AutoCAD 2000
 90
0
280
0
281
0
  0
ENDSEC
  0
SECTION
  2
TABLES
  0
TABLE
  2
VPORT
  5
8
100
AcDbSymbolTable
 70
2
  0
VPORT
  5
1F4
100
AcDbSymbolTableRecord
100
AcDbViewportTableRecord
  2
*ACTIVE
 70
0
 10
0.0
 20
0.0
 11
1.0
 21
1.0
 12
420.5
 22
297.0
 13
0.0
 23
0.0
 14
1.0
 24
1.0
 15
0.0
 25
0.0
 16
0.0
 26
0.0
 36
1.0
 17
0.0
 27
0.0
 37
0.0
 40
594.0
 41
1.4158249158
 42
50.0
 43
0.0
 44
0.0
 50
0.0
 51
0.0
 71
0
 72
100
 73
1
 74
1
 75
0
 76
0
 77
0
 78
0
  0
ENDTAB
  0
TABLE
  2
LTYPE
  5
5
100
AcDbSymbolTable
 70
6
  0
LTYPE
  5
14
100
AcDbSymbolTableRecord
100
AcDbLinetypeTableRecord
  2
BYBLOCK
 70
0
  3

 72
65
 73
0
 40
0.0
  0
LTYPE
  5
15
100
AcDbSymbolTableRecord
100
AcDbLinetypeTableRecord
  2
BYLAYER
 70
0
  3

 72
65
 73
0
 40
0.0
  0
LTYPE
  5
16
100
AcDbSymbolTableRecord
100
AcDbLinetypeTableRecord
  2
CONTINUOUS
 70
64
  3
Solid line
 72
65
 73
0
 40
0.0
  0
LTYPE
  5
1F5
100
AcDbSymbolTableRecord
100
AcDbLinetypeTableRecord
  2
CENTER
 70
64
  3
____ _ ____ _ ____ _ ____ _ ____ _ ____ _ ____
 72
65
 73
4
 40
0.6
 49
0.375
 74
0
 49
-0.075
 74
0
 49
0.075
 74
0
 49
-0.075
 74
0
  0
LTYPE
  5
1F6
100
AcDbSymbolTableRecord
100
AcDbLinetypeTableRecord
  2
HIDDEN
 70
64
  3
- - - - - - - - - - - - - - - - - - - -
 72
65
 73
2
 40
0.2
 49
0.1
 74
0
 49
-0.1
 74
0
  0
LTYPE
  5
1F7
100
AcDbSymbolTableRecord
100
AcDbLinetypeTableRecord
  2
PHANTOM
 70
64
  3
_____ _ _ _____ _ _ _____ _ _ _____
 72
65
 73
6
 40
0.8
 49
0.45
 74
0
 49
-0.05
 74
0
 49
0.1
 74
0
 49
-0.05
 74
0
 49
0.1
 74
0
 49
-0.05
 74
0
  0
LTYPE
  5
1F8
100
AcDbSymbolTableRecord
100
AcDbLinetypeTableRecord
  2
DOT
 70
64
  3
. . . . . . . . . . . . . . . . . . . .
 72
65
 73
2
 40
0.2
 49
0.1
 74
0
 49
-0.1
 74
0
  0
LTYPE
  5
1F9
100
AcDbSymbolTableRecord
100
AcDbLinetypeTableRecord
  2
DASHED
 70
64
  3
- - - - - - - - - - - - - - - - - - - -
 72
65
 73
2
 40
0.2
 49
0.1
 74
0
 49
-0.1
 74
0
  0
ENDTAB
  0
TABLE
  2
LAYER
  5
2
100
AcDbSymbolTable
 70
36
  0
LAYER
  5
10
100
AcDbSymbolTableRecord
100
AcDbLayerTableRecord
  2
0
 70
0
 62
7
  6
CONTINUOUS
370
-3
390
F
  0
LAYER
  5
1FA
100
AcDbSymbolTableRecord
100
AcDbLayerTableRecord
  2
DEFAULT_1
 70
0
 62
7
  6
CENTER
370
-3
390
F
  0
LAYER
  5
1FB
100
AcDbSymbolTableRecord
100
AcDbLayerTableRecord
  2
DEFAULT_2
 70
0
 62
8
  6
HIDDEN
370
-3
390
F
  0
LAYER
  5
1FC
100
AcDbSymbolTableRecord
100
AcDbLayerTableRecord
  2
DEFAULT_3
 70
0
 62
7
  6
PHANTOM
370
-3
390
F
  0
LAYER
  5
1FD
100
AcDbSymbolTableRecord
100
AcDbLayerTableRecord
  2
AUSFORMSCHRAEGEN
 70
0
 62
7
  6
CONTINUOUS
370
-3
390
F
  0
LAYER
  5
1FE
100
AcDbSymbolTableRecord
100
AcDbLayerTableRecord
  2
BEZUGSACHSEN
 70
0
 62
7
  6
CONTINUOUS
370
-3
390
F
  0
LAYER
  5
1FF
100
AcDbSymbolTableRecord
100
AcDbLayerTableRecord
  2
BEZUGSEBENEN
 70
0
 62
7
  6
CONTINUOUS
370
-3
390
F
  0
LAYER
  5
200
100
AcDbSymbolTableRecord
100
AcDbLayerTableRecord
  2
FASEN
 70
0
 62
7
  6
CONTINUOUS
370
-3
390
F
  0
LAYER
  5
201
100
AcDbSymbolTableRecord
100
AcDbLayerTableRecord
  2
FLAECHEN
 70
0
 62
7
  6
CONTINUOUS
370
-3
390
F
  0
LAYER
  5
202
100
AcDbSymbolTableRecord
100
AcDbLayerTableRecord
  2
GEWINDE
 70
0
 62
7
  6
CONTINUOUS
370
-3
390
F
  0
LAYER
  5
203
100
AcDbSymbolTableRecord
100
AcDbLayerTableRecord
  2
HILFEN
 70
0
 62
7
  6
CONTINUOUS
370
-3
390
F
  0
LAYER
  5
204
100
AcDbSymbolTableRecord
100
AcDbLayerTableRecord
  2
KURVEN
 70
0
 62
7
  6
CONTINUOUS
370
-3
390
F
  0
LAYER
  5
205
100
AcDbSymbolTableRecord
100
AcDbLayerTableRecord
  2
PLATZIERUNG
 70
0
 62
7
  6
CONTINUOUS
370
-3
390
F
  0
LAYER
  5
206
100
AcDbSymbolTableRecord
100
AcDbLayerTableRecord
  2
RUNDUNGEN
 70
0
 62
7
  6
CONTINUOUS
370
-3
390
F
  0
LAYER
  5
207
100
AcDbSymbolTableRecord
100
AcDbLayerTableRecord
  2
TEIL_STARTBEZUEGE
 70
0
 62
7
  6
CONTINUOUS
370
-3
390
F
  0
LAYER
  5
208
100
AcDbSymbolTableRecord
100
AcDbLayerTableRecord
  2
ZEICHNUNGSBEMASSUNGEN
 70
0
 62
7
  6
CONTINUOUS
370
-3
390
F
  0
ENDTAB
  0
TABLE
  2
STYLE
  5
3
100
AcDbSymbolTable
 70
1
  0
STYLE
  5
11
100
AcDbSymbolTableRecord
100
AcDbTextStyleTableRecord
  2
STANDARD
 70
0
 40
0.0
 41
0.7
 50
0.0
 71
0
 42
0.2
  3
txt
  4

  0
STYLE
  5
209
100
AcDbSymbolTableRecord
100
AcDbTextStyleTableRecord
  2
TEXTSTYLE_1
 70
0
 40
0.0
 41
0.8
 50
0.0
 71
0
 42
0.2
  3
gdt
  4

  0
ENDTAB
  0
TABLE
  2
VIEW
  5
6
100
AcDbSymbolTable
 70
0
  0
ENDTAB
  0
TABLE
  2
UCS
  5
7
100
AcDbSymbolTable
 70
0
  0
ENDTAB
  0
TABLE
  2
APPID
  5
9
100
AcDbSymbolTable
 70
1
  0
APPID
  5
20A
100
AcDbSymbolTableRecord
100
AcDbRegAppTableRecord
  2
ACAD
 70
0
  0
ENDTAB
  0
TABLE
  2
BLOCK_RECORD
  5
1
100
AcDbSymbolTable
 70
0
  0
BLOCK_RECORD
  5
20B
100
AcDbSymbolTableRecord
100
AcDbBlockTableRecord
  2
*Model_Space
  0
BLOCK_RECORD
  5
20C
100
AcDbSymbolTableRecord
100
AcDbBlockTableRecord
  2
*Paper_Space
  0
ENDTAB
  0
TABLE
  2
DIMSTYLE
  5
A
100
AcDbSymbolTable
 70
1
100
AcDbDimStyleTable
 71
0
  0
DIMSTYLE
105
20D
100
AcDbSymbolTableRecord
100
AcDbDimStyleTableRecord
  2
STANDARD
 70
0
  3

  4

 40
1.0
 41
3.5
 42
0.0625
 43
0.38
 44
0.18
 45
0.0
 46
0.0
 47
0.005
 48
0.005
140
3.5
141
0.09
142
0.0
143
25.4
144
1.0
145
0.0
146
1.0
147
0.09
 71
1.0
 72
0.0
 73
0
 74
0
 75
0
 76
0
 77
1
 78
8
170
0
171
2
172
0
173
0
174
0
175
0
176
0
177
0
178
5
270
2
271
3
272
3
273
2
274
2
275
0
280
0
281
0
282
0
283
1
284
8
285
0
286
0
287
3
288
0
340
11
  0
ENDTAB
  0
ENDSEC
  0
SECTION
  2
BLOCKS
  0
BLOCK
  5
20
100
AcDbEntity
  8
0
100
AcDbBlockBegin
  2
*Model_Space
 70
0
 10
0.0
 20
0.0
 30
0.0
  3
*Model_Space
  1

  0
ENDBLK
  5
21
100
AcDbEntity
  8
0
100
AcDbBlockEnd
  0
BLOCK
  5
1C
100
AcDbEntity
  8
0
100
AcDbBlockBegin
  2
*Paper_Space
 70
0
 10
0.0
 20
0.0
 30
0.0
  3
*Paper_Space
  1

  0
ENDBLK
  5
1D
100
AcDbEntity
  8
0
100
AcDbBlockEnd
  0
ENDSEC
  0
SECTION
  2
ENTITIES
  0
MTEXT
  5
20E
100
AcDbEntity
  8
0
100
AcDbMText
 62
5
  6
CONTINUOUS
  7
STANDARD
 71
1
 72
1
 10
555.0214860185
 20
330.6937498282
 30
0.0
 11
1.0
 21
0.0
 31
0.0
 44
0.9
  1
RUD B-ABA 20t
 40
8.0
 41
83.0476190476
  0
MTEXT
  5
20F
100
AcDbEntity
  8
0
100
AcDbMText
 62
5
  6
CONTINUOUS
  7
STANDARD
 71
1
 72
1
 10
214.3345561563
 20
324.7048941043
 30
0.0
 11
1.0
 21
0.0
 31
0.0
 44
0.9
  1
RUD B-ABA 20t
 40
8.0
 41
83.0476190476
  0
MTEXT
  5
210
100
AcDbEntity
  8
0
100
AcDbMText
 62
5
  6
CONTINUOUS
  7
STANDARD
 71
1
 72
1
 10
218.3460957868
 20
137.7356219747
 30
0.0
 11
1.0
 21
0.0
 31
0.0
 44
0.9
  1
RUD B-ABA 20t
 40
8.0
 41
83.0476190476
  0
LINE
  5
211
100
AcDbEntity
  8
0
100
AcDbLine
 62
7
  6
CONTINUOUS
 10
0.0
 20
0.0
 11
0.0
 21
594.0
  0
LINE
  5
212
100
AcDbEntity
  8
0
100
AcDbLine
 62
7
  6
CONTINUOUS
 10
0.0
 20
0.0
 11
841.0
 21
0.0
  0
LINE
  5
213
100
AcDbEntity
  8
0
100
AcDbLine
 62
7
  6
CONTINUOUS
 10
0.0
 20
594.0
 11
841.0
 21
594.0
  0
LINE
  5
214
100
AcDbEntity
  8
0
100
AcDbLine
 62
7
  6
CONTINUOUS
 10
841.0
 20
0.0
 11
841.0
 21
594.0
  0
LINE
  5
215
100
AcDbEntity
  8
RUNDUNGEN
100
AcDbLine
 62
7
  6
CONTINUOUS
 10
116.5199914142
 20
354.2222766002
 11
116.5199914142
 21
310.7793626876
  0
LINE
  5
216
100
AcDbEntity
  8
FASEN
100
AcDbLine
 62
7
  6
CONTINUOUS
 10
167.5199914279
 20
280.7793626739
 11
165.5199914307
 21
282.7793626712
  0
LINE
  5
217
100
AcDbEntity
  8
RUNDUNGEN
100
AcDbLine
 62
7
  6
CONTINUOUS
 10
141.6544475129
 20
424.2013745714
 11
120.0786232693
 21
372.1127270633
  0
LINE
  5
218
100
AcDbEntity
  8
0
100
AcDbLine
 62
7
  6
CONTINUOUS
 10
140.5428917017
 20
367.1739128905
 11
140.4635510332
 21
368.5752081449
  0
LINE
  5
219
100
AcDbEntity
  8
0
100
AcDbLine
 62
7
  6
CONTINUOUS
 10
138.9568042191
 20
367.5322194622
 11
138.8703166867
 21
366.5456688168
  0
LINE
  5
21A
100
AcDbEntity
  8
FASEN
100
AcDbLine
 62
7
  6
CONTINUOUS
 10
337.5199914138
 20
280.7793626876
 11
317.519991415
 21
280.7793626876
  0
LINE
  5
21B
100
AcDbEntity
  8
FASEN
100
AcDbLine
 62
7
  6
CONTINUOUS
 10
262.5199914138
 20
280.7793626876
 11
242.519991415
 21
280.7793626876
  0
LINE
  5
21C
100
AcDbEntity
  8
FASEN
100
AcDbLine
 62
7
  6
CONTINUOUS
 10
187.5199914138
 20
280.7793626876
 11
167.519991415
 21
280.7793626876
  0
LINE
  5
21D
100
AcDbEntity
  8
FASEN
100
AcDbLine
 62
7
  6
CONTINUOUS
 10
339.5199914142
 20
282.7793626876
 11
315.5199914142
 21
282.7793626876
  0
LINE
  5
21E
100
AcDbEntity
  8
FASEN
100
AcDbLine
 62
7
  6
CONTINUOUS
 10
264.5199914142
 20
282.7793626876
 11
240.5199914142
 21
282.7793626876
  0
LINE
  5
21F
100
AcDbEntity
  8
FASEN
100
AcDbLine
 62
7
  6
CONTINUOUS
 10
189.5199914142
 20
282.7793626876
 11
165.5199914142
 21
282.7793626876
  0
LINE
  5
220
100
AcDbEntity
  8
0
100
AcDbLine
 62
7
  6
CONTINUOUS
 10
140.4635510332
 20
368.5752081449
 11
139.6740809043
 21
369.9482847896
  0
LINE
  5
221
100
AcDbEntity
  8
0
100
AcDbLine
 62
7
  6
CONTINUOUS
 10
138.6251481782
 20
368.3617094982
 11
138.9568042191
 21
367.5322194622
  0
LINE
  5
222
100
AcDbEntity
  8
0
100
AcDbLine
 62
7
  6
CONTINUOUS
 10
152.2652095223
 20
376.3473087659
 11
152.185869138
 21
377.7486048721
  0
LINE
  5
223
100
AcDbEntity
  8
0
100
AcDbLine
 62
7
  6
CONTINUOUS
 10
158.3207849561
 20
390.0706487315
 11
158.2414438499
 21
391.4719432017
  0
LINE
  5
224
100
AcDbEntity
  8
0
100
AcDbLine
 62
7
  6
CONTINUOUS
 10
156.7353817234
 20
343.2793626876
 11
156.7353817234
 21
345.7793626876
  0
LINE
  5
225
100
AcDbEntity
  8
0
100
AcDbLine
 62
7
  6
CONTINUOUS
 10
150.3871366955
 20
376.8344590524
 11
150.174491116
 21
375.5620049798
  0
LINE
  5
226
100
AcDbEntity
  8
0
100
AcDbLine
 62
7
  6
CONTINUOUS
 10
156.4427106855
 20
390.557795746
 11
156.2300658279
 21
389.2853433094
  0
LINE
  5
227
100
AcDbEntity
  8
0
100
AcDbLine
 62
7
  6
CONTINUOUS
 10
151.9264066431
 20
374.7889528908
 11
152.2652095223
 21
376.3473087659
  0
LINE
  5
228
100
AcDbEntity
  8
0
100
AcDbLine
 62
7
  6
CONTINUOUS
 10
157.981981355
 20
388.5122912204
 11
158.3207849561
 21
390.0706487315
  0
LINE
  5
229
100
AcDbEntity
  8
0
100
AcDbLine
 62
7
  6
CONTINUOUS
 10
144.2586430254
 20
394.5678659323
 11
141.2308556694
 21
387.7061967675
  0
LINE
  5
22A
100
AcDbEntity
  8
0
100
AcDbLine
 62
7
  6
CONTINUOUS
 10
140.2215934581
 20
385.4189742579
 11
139.4646466191
 21
383.7035569667
  0
LINE
  5
22B
100
AcDbEntity
  8
0
100
AcDbLine
 62
7
  6
CONTINUOUS
 10
136.4368592631
 20
376.8418878019
 11
135.6799120632
 21
375.1264696927
  0
LINE
  5
22C
100
AcDbEntity
  8
0
100
AcDbLine
 62
7
  6
CONTINUOUS
 10
132.9044404406
 20
368.8366065643
 11
129.8766530846
 21
361.9749373995
  0
LINE
  5
22D
100
AcDbEntity
  8
0
100
AcDbLine
 62
7
  6
CONTINUOUS
 10
132.0935293591
 20
363.0461446918
 11
134.4905275623
 21
368.4782991746
  0
LINE
  5
22E
100
AcDbEntity
  8
0
100
AcDbLine
 62
7
  6
CONTINUOUS
 10
143.739717831
 20
388.64856206
 11
146.010558348
 21
393.7948139336
  0
LINE
  5
22F
100
AcDbEntity
  8
0
100
AcDbLine
 62
7
  6
CONTINUOUS
 10
138.8703166867
 20
366.5456688168
 11
136.4733184836
 21
361.113514334
  0
LINE
  5
230
100
AcDbEntity
  8
0
100
AcDbLine
 62
7
  6
CONTINUOUS
 10
138.2252338062
 20
360.3404623353
 11
140.3699164565
 21
365.2008111907
  0
LINE
  5
231
100
AcDbEntity
  8
0
100
AcDbLine
 62
7
  6
CONTINUOUS
 10
145.1814184262
 20
395.8685394325
 11
144.2586430254
 21
394.5678659323
  0
LINE
  5
232
100
AcDbEntity
  8
RUNDUNGEN
100
AcDbLine
 62
7
  6
CONTINUOUS
 10
248.6931570906
 20
489.0327886341
 11
192.8213759653
 21
465.8899391381
  0
LINE
  5
233
100
AcDbEntity
  8
0
100
AcDbLine
 62
7
  6
CONTINUOUS
 10
137.8753482031
 20
369.0341381068
 11
138.6251481782
 21
368.3617094982
  0
LINE
  5
234
100
AcDbEntity
  8
0
100
AcDbLine
 62
7
  6
CONTINUOUS
 10
149.5579958474
 20
378.9081830056
 11
150.1816381363
 21
377.9498517878
  0
LINE
  5
235
100
AcDbEntity
  8
0
100
AcDbLine
 62
7
  6
CONTINUOUS
 10
152.185869138
 20
377.7486048721
 11
151.522556954
 21
379.4075849892
  0
LINE
  5
236
100
AcDbEntity
  8
0
100
AcDbLine
 62
7
  6
CONTINUOUS
 10
150.1816381363
 20
377.9498517878
 11
150.3871366955
 21
376.8344590524
  0
LINE
  5
237
100
AcDbEntity
  8
0
100
AcDbLine
 62
7
  6
CONTINUOUS
 10
156.2372121263
 20
391.6731884814
 11
156.4427106855
 21
390.557795746
  0
LINE
  5
238
100
AcDbEntity
  8
BEZUGSACHSEN
100
AcDbLine
 62
7
  6
CONTINUOUS
 10
162.5589570457
 20
343.2793626876
 11
162.5589570457
 21
330.7793626876
  0
LINE
  5
239
100
AcDbEntity
  8
FASEN
100
AcDbLine
 62
7
  6
CONTINUOUS
 10
165.5199914142
 20
310.7793626876
 11
165.5199914142
 21
282.7793626876
  0
LINE
  5
23A
100
AcDbEntity
  8
BEZUGSACHSEN
100
AcDbLine
 62
7
  6
CONTINUOUS
 10
165.5199914142
 20
282.7793626876
 11
165.5199914142
 21
310.7793626876
  0
LINE
  5
23B
100
AcDbEntity
  8
0
100
AcDbLine
 62
7
  6
CONTINUOUS
 10
167.1276865688
 20
330.7793626876
 11
167.1276865688
 21
345.7793626876
  0
LINE
  5
23C
100
AcDbEntity
  8
0
100
AcDbLine
 62
7
  6
CONTINUOUS
 10
170.2745984169
 20
345.7793626876
 11
170.2745984169
 21
345.9793626876
  0
LINE
  5
23D
100
AcDbEntity
  8
0
100
AcDbLine
 62
7
  6
CONTINUOUS
 10
170.736911744
 20
345.7793626876
 11
170.736911744
 21
345.9793626876
  0
LINE
  5
23E
100
AcDbEntity
  8
RUNDUNGEN
100
AcDbLine
 62
7
  6
CONTINUOUS
 10
187.4094149638
 20
460.4779781366
 11
164.2665654678
 21
404.6061970113
  0
LINE
  5
23F
100
AcDbEntity
  8
0
100
AcDbLine
 62
7
  6
CONTINUOUS
 10
156.2300658279
 20
389.2853433094
 11
153.9592253109
 21
384.1390914358
  0
LINE
  5
240
100
AcDbEntity
  8
0
100
AcDbLine
 62
7
  6
CONTINUOUS
 10
150.174491116
 20
375.5620049798
 11
149.6698596494
 21
374.418392907
  0
LINE
  5
241
100
AcDbEntity
  8
0
100
AcDbLine
 62
7
  6
CONTINUOUS
 10
143.5999914142
 20
355.9193626876
 11
144.3569382532
 21
357.6347799788
  0
LINE
  5
242
100
AcDbEntity
  8
0
100
AcDbLine
 62
7
  6
CONTINUOUS
 10
147.5108832954
 20
364.7823517528
 11
148.3939881815
 21
366.7836724712
  0
LINE
  5
243
100
AcDbEntity
  8
0
100
AcDbLine
 62
7
  6
CONTINUOUS
 10
151.4217751765
 20
373.6453408181
 11
151.9264066431
 21
374.7889528908
  0
LINE
  5
244
100
AcDbEntity
  8
0
100
AcDbLine
 62
7
  6
CONTINUOUS
 10
154.954193999
 20
381.6506220556
 11
157.981981355
 21
388.5122912204
  0
LINE
  5
245
100
AcDbEntity
  8
0
100
AcDbLine
 62
7
  6
CONTINUOUS
 10
133.8272154805
 20
370.1372792465
 11
132.9044404406
 21
368.8366065643
  0
LINE
  5
246
100
AcDbEntity
  8
0
100
AcDbLine
 62
7
  6
CONTINUOUS
 10
146.010558348
 20
393.7948139336
 11
146.8071749798
 21
394.8095823707
  0
LINE
  5
247
100
AcDbEntity
  8
0
100
AcDbLine
 62
7
  6
CONTINUOUS
 10
139.6740809043
 20
369.9482847896
 11
138.9242809292
 21
370.6207133982
  0
LINE
  5
248
100
AcDbEntity
  8
FASEN
100
AcDbLine
 62
7
  6
CONTINUOUS
 10
242.5199914279
 20
280.7793626739
 11
240.5199914307
 21
282.7793626712
  0
LINE
  5
249
100
AcDbEntity
  8
0
100
AcDbLine
 62
7
  6
CONTINUOUS
 10
151.522556954
 20
379.4075849892
 11
150.6069285735
 21
380.494758297
  0
LINE
  5
24A
100
AcDbEntity
  8
0
100
AcDbLine
 62
7
  6
CONTINUOUS
 10
158.2414438499
 20
391.4719432017
 11
157.578130944
 21
393.1309216828
  0
LINE
  5
24B
100
AcDbEntity
  8
0
100
AcDbLine
 62
7
  6
CONTINUOUS
 10
173.4613665173
 20
345.7793626876
 11
173.4613665173
 21
345.9793626876
  0
LINE
  5
24C
100
AcDbEntity
  8
0
100
AcDbLine
 62
7
  6
CONTINUOUS
 10
173.655855757
 20
345.7793626876
 11
173.655855757
 21
345.9793626876
  0
LINE
  5
24D
100
AcDbEntity
  8
0
100
AcDbLine
 62
7
  6
CONTINUOUS
 10
174.48919346
 20
345.7793626876
 11
174.48919346
 21
345.9793626876
  0
LINE
  5
24E
100
AcDbEntity
  8
0
100
AcDbLine
 62
7
  6
CONTINUOUS
 10
174.5395561385
 20
345.7793626876
 11
174.5395561385
 21
345.9793626876
  0
LINE
  5
24F
100
AcDbEntity
  8
0
100
AcDbLine
 62
7
  6
CONTINUOUS
 10
174.8387727062
 20
345.7793626876
 11
174.8387727062
 21
345.9793626876
  0
LINE
  5
250
100
AcDbEntity
  8
0
100
AcDbLine
 62
7
  6
CONTINUOUS
 10
175.1542826336
 20
345.7793626876
 11
175.1542826336
 21
345.9793626876
  0
LINE
  5
251
100
AcDbEntity
  8
0
100
AcDbLine
 62
7
  6
CONTINUOUS
 10
175.643839935
 20
345.7793626876
 11
175.643839935
 21
345.9793626876
  0
LINE
  5
252
100
AcDbEntity
  8
0
100
AcDbLine
 62
7
  6
CONTINUOUS
 10
175.9756413234
 20
345.7793626876
 11
175.9756413234
 21
345.9793626876
  0
LINE
  5
253
100
AcDbEntity
  8
0
100
AcDbLine
 62
7
  6
CONTINUOUS
 10
176.5644432808
 20
345.7793626876
 11
176.5644432808
 21
345.9793626876
  0
LINE
  5
254
100
AcDbEntity
  8
0
100
AcDbLine
 62
7
  6
CONTINUOUS
 10
176.9125399275
 20
345.7793626876
 11
176.9125399275
 21
345.9793626876
  0
LINE
  5
255
100
AcDbEntity
  8
0
100
AcDbLine
 62
7
  6
CONTINUOUS
 10
177.2769280352
 20
345.7793626876
 11
177.2769280352
 21
345.9793626876
  0
LINE
  5
256
100
AcDbEntity
  8
0
100
AcDbLine
 62
7
  6
CONTINUOUS
 10
177.3924660509
 20
345.7793626876
 11
177.3924660509
 21
345.9793626876
  0
LINE
  5
257
100
AcDbEntity
  8
0
100
AcDbLine
 62
7
  6
CONTINUOUS
 10
177.7279644618
 20
345.7793626876
 11
177.7279644618
 21
345.9793626876
  0
LINE
  5
258
100
AcDbEntity
  8
0
100
AcDbLine
 62
7
  6
CONTINUOUS
 10
177.7686978666
 20
345.7793626876
 11
177.7686978666
 21
345.9793626876
  0
LINE
  5
259
100
AcDbEntity
  8
0
100
AcDbLine
 62
7
  6
CONTINUOUS
 10
178.4660957165
 20
345.7793626876
 11
178.4660957165
 21
345.9793626876
  0
LINE
  5
25A
100
AcDbEntity
  8
0
100
AcDbLine
 62
7
  6
CONTINUOUS
 10
179.357127077
 20
345.7793626876
 11
179.357127077
 21
345.9793626876
  0
LINE
  5
25B
100
AcDbEntity
  8
0
100
AcDbLine
 62
7
  6
CONTINUOUS
 10
180.0882824342
 20
345.7793626876
 11
180.0882824342
 21
345.9793626876
  0
LINE
  5
25C
100
AcDbEntity
  8
0
100
AcDbLine
 62
7
  6
CONTINUOUS
 10
180.510633908
 20
345.7793626876
 11
180.510633908
 21
345.9793626876
  0
LINE
  5
25D
100
AcDbEntity
  8
0
100
AcDbLine
 62
7
  6
CONTINUOUS
 10
182.5254669582
 20
345.7793626876
 11
182.5254669582
 21
345.9793626876
  0
LINE
  5
25E
100
AcDbEntity
  8
0
100
AcDbLine
 62
7
  6
CONTINUOUS
 10
183.2566223154
 20
345.7793626876
 11
183.2566223154
 21
345.9793626876
  0
LINE
  5
25F
100
AcDbEntity
  8
RUNDUNGEN
100
AcDbLine
 62
7
  6
CONTINUOUS
 10
168.7346044515
 20
374.0729435587
 11
161.0938556451
 21
355.6265441637
  0
LINE
  5
260
100
AcDbEntity
  8
0
100
AcDbLine
 62
7
  6
CONTINUOUS
 10
150.499000472
 20
372.3446689651
 11
151.4217751765
 21
373.6453408181
  0
LINE
  5
261
100
AcDbEntity
  8
0
100
AcDbLine
 62
7
  6
CONTINUOUS
 10
149.6698596494
 20
374.418392907
 11
148.8732430176
 21
373.40362447
  0
LINE
  5
262
100
AcDbEntity
  8
0
100
AcDbLine
 62
7
  6
CONTINUOUS
 10
134.4905275623
 20
368.4782991746
 11
135.1609868689
 21
369.2071658204
  0
LINE
  5
263
100
AcDbEntity
  8
0
100
AcDbLine
 62
7
  6
CONTINUOUS
 10
146.2700209452
 20
396.7544658698
 11
145.1814184262
 21
395.8685394325
  0
LINE
  5
264
100
AcDbEntity
  8
RUNDUNGEN
100
AcDbLine
 62
7
  6
CONTINUOUS
 10
116.5199914142
 20
310.7793626876
 11
388.5199914142
 21
310.7793626876
  0
LINE
  5
265
100
AcDbEntity
  8
0
100
AcDbLine
 62
7
  6
CONTINUOUS
 10
129.8766530846
 20
361.9749373995
 11
143.5999914142
 21
355.9193626876
  0
LINE
  5
266
100
AcDbEntity
  8
0
100
AcDbLine
 62
7
  6
CONTINUOUS
 10
144.3569382532
 20
357.6347799788
 11
138.2252338062
 21
360.3404623353
  0
LINE
  5
267
100
AcDbEntity
  8
0
100
AcDbLine
 62
7
  6
CONTINUOUS
 10
136.4733184836
 20
361.113514334
 11
132.0935293591
 21
363.0461446918
  0
LINE
  5
268
100
AcDbEntity
  8
0
100
AcDbLine
 62
7
  6
CONTINUOUS
 10
148.5162103461
 20
379.7094544319
 11
149.5579958474
 21
378.9081830056
  0
LINE
  5
269
100
AcDbEntity
  8
0
100
AcDbLine
 62
7
  6
CONTINUOUS
 10
157.578130944
 20
393.1309216828
 11
156.6625032854
 21
394.2180966266
  0
LINE
  5
26A
100
AcDbEntity
  8
0
100
AcDbLine
 62
7
  6
CONTINUOUS
 10
155.6135705593
 20
392.6315213352
 11
156.2372121263
 21
391.6731884814
  0
LINE
  5
26B
100
AcDbEntity
  8
RUNDUNGEN
100
AcDbLine
 62
7
  6
CONTINUOUS
 10
164.2665654678
 20
396.952528364
 11
168.7346027209
 21
386.1657322304
  0
LINE
  5
26C
100
AcDbEntity
  8
0
100
AcDbLine
 62
7
  6
CONTINUOUS
 10
186.9121518381
 20
345.7793626876
 11
186.9121518381
 21
345.9793626876
  0
LINE
  5
26D
100
AcDbEntity
  8
0
100
AcDbLine
 62
7
  6
CONTINUOUS
 10
186.955351952
 20
345.7793626876
 11
186.955351952
 21
345.9793626876
  0
LINE
  5
26E
100
AcDbEntity
  8
0
100
AcDbLine
 62
7
  6
CONTINUOUS
 10
187.1065735861
 20
345.7793626876
 11
187.1065735861
 21
345.9793626876
  0
LINE
  5
26F
100
AcDbEntity
  8
0
100
AcDbLine
 62
7
  6
CONTINUOUS
 10
187.3766174678
 20
345.7793626876
 11
187.3766174678
 21
345.9793626876
  0
LINE
  5
270
100
AcDbEntity
  8
0
100
AcDbLine
 62
7
  6
CONTINUOUS
 10
187.9122962597
 20
330.7793626876
 11
187.9122962597
 21
345.7793626876
  0
LINE
  5
271
100
AcDbEntity
  8
0
100
AcDbLine
 62
7
  6
CONTINUOUS
 10
188.3487814497
 20
345.7793626876
 11
188.3487814497
 21
345.9793626876
  0
LINE
  5
272
100
AcDbEntity
  8
0
100
AcDbLine
 62
7
  6
CONTINUOUS
 10
188.7268470104
 20
345.7793626876
 11
188.7268470104
 21
345.9793626876
  0
LINE
  5
273
100
AcDbEntity
  8
0
100
AcDbLine
 62
7
  6
CONTINUOUS
 10
189.0941128303
 20
345.7793626876
 11
189.0941128303
 21
345.9793626876
  0
LINE
  5
274
100
AcDbEntity
  8
FASEN
100
AcDbLine
 62
7
  6
CONTINUOUS
 10
189.5199914142
 20
310.7793626876
 11
189.5199914142
 21
282.7793626876
  0
LINE
  5
275
100
AcDbEntity
  8
BEZUGSACHSEN
100
AcDbLine
 62
7
  6
CONTINUOUS
 10
189.5199914142
 20
282.7793626876
 11
189.5199914142
 21
310.7793626876
  0
LINE
  5
276
100
AcDbEntity
  8
0
100
AcDbLine
 62
7
  6
CONTINUOUS
 10
189.5694001477
 20
345.7793626876
 11
189.5694001477
 21
345.9793626876
  0
LINE
  5
277
100
AcDbEntity
  8
0
100
AcDbLine
 62
7
  6
CONTINUOUS
 10
189.9150656129
 20
345.7793626876
 11
189.9150656129
 21
345.9793626876
  0
LINE
  5
278
100
AcDbEntity
  8
0
100
AcDbLine
 62
7
  6
CONTINUOUS
 10
190.2499315189
 20
345.7793626876
 11
190.2499315189
 21
345.9793626876
  0
LINE
  5
279
100
AcDbEntity
  8
0
100
AcDbLine
 62
7
  6
CONTINUOUS
 10
191.5461944338
 20
345.7793626876
 11
191.5461944338
 21
345.9793626876
  0
LINE
  5
27A
100
AcDbEntity
  8
BEZUGSACHSEN
100
AcDbLine
 62
7
  6
CONTINUOUS
 10
192.2169298709
 20
343.2793626876
 11
192.2169298709
 21
330.7793626876
  0
LINE
  5
27B
100
AcDbEntity
  8
0
100
AcDbLine
 62
7
  6
CONTINUOUS
 10
192.5110405782
 20
345.7793626876
 11
192.5110405782
 21
345.9793626876
  0
LINE
  5
27C
100
AcDbEntity
  8
0
100
AcDbLine
 62
7
  6
CONTINUOUS
 10
192.7104628166
 20
345.7793626876
 11
192.7104628166
 21
345.9793626876
  0
LINE
  5
27D
100
AcDbEntity
  8
0
100
AcDbLine
 62
7
  6
CONTINUOUS
 10
193.5081517704
 20
345.7793626876
 11
193.5081517704
 21
345.9793626876
  0
LINE
  5
27E
100
AcDbEntity
  8
0
100
AcDbLine
 62
7
  6
CONTINUOUS
 10
193.7075741039
 20
345.7793626876
 11
193.7075741039
 21
345.9793626876
  0
LINE
  5
27F
100
AcDbEntity
  8
0
100
AcDbLine
 62
7
  6
CONTINUOUS
 10
193.9144116266
 20
345.7793626876
 11
193.9144116266
 21
345.9793626876
  0
LINE
  5
280
100
AcDbEntity
  8
0
100
AcDbLine
 62
7
  6
CONTINUOUS
 10
194.208337368
 20
345.7793626876
 11
194.208337368
 21
345.9793626876
  0
LINE
  5
281
100
AcDbEntity
  8
0
100
AcDbLine
 62
7
  6
CONTINUOUS
 10
194.3434357888
 20
345.7793626876
 11
194.3434357888
 21
345.9793626876
  0
LINE
  5
282
100
AcDbEntity
  8
0
100
AcDbLine
 62
7
  6
CONTINUOUS
 10
194.5864237503
 20
345.7793626876
 11
194.5864237503
 21
345.9793626876
  0
LINE
  5
283
100
AcDbEntity
  8
0
100
AcDbLine
 62
7
  6
CONTINUOUS
 10
146.8071749798
 20
394.8095823707
 11
147.7696201735
 21
395.4096070167
  0
LINE
  5
284
100
AcDbEntity
  8
BEZUGSACHSEN
100
AcDbLine
 62
7
  6
CONTINUOUS
 10
162.5589570457
 20
330.7793626876
 11
192.2169298709
 21
330.7793626876
  0
LINE
  5
285
100
AcDbEntity
  8
BEZUGSACHSEN
100
AcDbLine
 62
7
  6
CONTINUOUS
 10
237.8230529575
 20
330.7793626876
 11
267.2169298709
 21
330.7793626876
  0
LINE
  5
286
100
AcDbEntity
  8
BEZUGSACHSEN
100
AcDbLine
 62
7
  6
CONTINUOUS
 10
312.8230529575
 20
330.7793626876
 11
342.4810257828
 21
330.7793626876
  0
LINE
  5
287
100
AcDbEntity
  8
0
100
AcDbLine
 62
7
  6
CONTINUOUS
 10
136.9993897238
 20
369.4206644671
 11
137.8753482031
 21
369.0341381068
  0
LINE
  5
288
100
AcDbEntity
  8
0
100
AcDbLine
 62
7
  6
CONTINUOUS
 10
138.9242809292
 20
370.6207133982
 11
137.7563365628
 21
371.1360817583
  0
LINE
  5
289
100
AcDbEntity
  8
0
100
AcDbLine
 62
7
  6
CONTINUOUS
 10
135.6799120632
 20
375.1264696927
 11
144.7314757903
 21
371.1323671579
  0
LINE
  5
28A
100
AcDbEntity
  8
0
100
AcDbLine
 62
7
  6
CONTINUOUS
 10
145.4884229902
 20
372.8477852671
 11
136.4368592631
 21
376.8418878019
  0
LINE
  5
28B
100
AcDbEntity
  8
0
100
AcDbLine
 62
7
  6
CONTINUOUS
 10
150.6069285735
 20
380.494758297
 11
149.2731571851
 21
381.4248717231
  0
LINE
  5
28C
100
AcDbEntity
  8
0
100
AcDbLine
 62
7
  6
CONTINUOUS
 10
154.5717843361
 20
393.4327911255
 11
155.6135705593
 21
392.6315213352
  0
LINE
  5
28D
100
AcDbEntity
  8
0
100
AcDbLine
 62
7
  6
CONTINUOUS
 10
198.3046011051
 20
343.2793626876
 11
198.3046011051
 21
345.7793626876
  0
LINE
  5
28E
100
AcDbEntity
  8
0
100
AcDbLine
 62
7
  6
CONTINUOUS
 10
149.4103971545
 20
371.4587409257
 11
150.499000472
 21
372.3446689651
  0
LINE
  5
28F
100
AcDbEntity
  8
0
100
AcDbLine
 62
7
  6
CONTINUOUS
 10
364.3684040781
 20
363.0071608972
 11
362.2278547192
 21
362.5038642906
  0
LINE
  5
290
100
AcDbEntity
  8
0
100
AcDbLine
 62
7
  6
CONTINUOUS
 10
362.9055238144
 20
360.8678263703
 11
364.7119032449
 21
361.2327074539
  0
LINE
  5
291
100
AcDbEntity
  8
BEZUGSACHSEN
100
AcDbLine
 62
7
  6
CONTINUOUS
 10
312.8230529575
 20
343.2793626876
 11
267.2169298709
 21
343.2793626876
  0
LINE
  5
292
100
AcDbEntity
  8
BEZUGSACHSEN
100
AcDbLine
 62
7
  6
CONTINUOUS
 10
237.8230529575
 20
343.2793626876
 11
192.2169298709
 21
343.2793626876
  0
LINE
  5
293
100
AcDbEntity
  8
BEZUGSACHSEN
100
AcDbLine
 62
7
  6
CONTINUOUS
 10
116.5199914142
 20
343.2793626876
 11
162.5589570457
 21
343.2793626876
  0
LINE
  5
294
100
AcDbEntity
  8
BEZUGSACHSEN
100
AcDbLine
 62
7
  6
CONTINUOUS
 10
342.4810257828
 20
343.2793626876
 11
388.5199914142
 21
343.2793626876
  0
LINE
  5
295
100
AcDbEntity
  8
0
100
AcDbLine
 62
7
  6
CONTINUOUS
 10
139.4646466191
 20
383.7035569667
 11
148.5162103461
 21
379.7094544319
  0
LINE
  5
296
100
AcDbEntity
  8
0
100
AcDbLine
 62
7
  6
CONTINUOUS
 10
149.2731571851
 20
381.4248717231
 11
140.2215934581
 21
385.4189742579
  0
LINE
  5
297
100
AcDbEntity
  8
0
100
AcDbLine
 62
7
  6
CONTINUOUS
 10
141.2308556694
 20
387.7061967675
 11
154.954193999
 21
381.6506220556
  0
LINE
  5
298
100
AcDbEntity
  8
0
100
AcDbLine
 62
7
  6
CONTINUOUS
 10
156.6625032854
 20
394.2180966266
 11
155.3287311751
 21
395.1482084167
  0
LINE
  5
299
100
AcDbEntity
  8
0
100
AcDbLine
 62
7
  6
CONTINUOUS
 10
148.8732430176
 20
373.40362447
 11
147.9107976194
 21
372.8035999142
  0
LINE
  5
29A
100
AcDbEntity
  8
0
100
AcDbLine
 62
7
  6
CONTINUOUS
 10
135.2078042475
 20
370.894364502
 11
133.8272154805
 21
370.1372792465
  0
LINE
  5
29B
100
AcDbEntity
  8
0
100
AcDbLine
 62
7
  6
CONTINUOUS
 10
147.9425952383
 20
397.3827083075
 11
146.2700209452
 21
396.7544658698
  0
LINE
  5
29C
100
AcDbEntity
  8
0
100
AcDbLine
 62
7
  6
CONTINUOUS
 10
363.1837117996
 20
372.4834727347
 11
365.3242599149
 21
372.9867710197
  0
LINE
  5
29D
100
AcDbEntity
  8
0
100
AcDbLine
 62
7
  6
CONTINUOUS
 10
364.6465915953
 20
374.6228070678
 11
362.840212245
 21
374.2579271142
  0
LINE
  5
29E
100
AcDbEntity
  8
0
100
AcDbLine
 62
7
  6
CONTINUOUS
 10
361.7674823819
 20
360.7797821432
 11
362.9055238144
 21
360.8678263703
  0
LINE
  5
29F
100
AcDbEntity
  8
0
100
AcDbLine
 62
7
  6
CONTINUOUS
 10
156.7353817234
 20
345.7793626876
 11
198.3046011051
 21
345.7793626876
  0
LINE
  5
2A0
100
AcDbEntity
  8
0
100
AcDbLine
 62
7
  6
CONTINUOUS
 10
231.7353817234
 20
345.7793626876
 11
273.3046011051
 21
345.7793626876
  0
LINE
  5
2A1
100
AcDbEntity
  8
0
100
AcDbLine
 62
7
  6
CONTINUOUS
 10
306.7353817234
 20
345.7793626876
 11
348.3046011051
 21
345.7793626876
  0
LINE
  5
2A2
100
AcDbEntity
  8
0
100
AcDbLine
 62
7
  6
CONTINUOUS
 10
170.2745984169
 20
345.9793626876
 11
173.655855757
 21
345.9793626876
  0
LINE
  5
2A3
100
AcDbEntity
  8
0
100
AcDbLine
 62
7
  6
CONTINUOUS
 10
174.48919346
 20
345.9793626876
 11
177.7279644618
 21
345.9793626876
  0
LINE
  5
2A4
100
AcDbEntity
  8
0
100
AcDbLine
 62
7
  6
CONTINUOUS
 10
178.4660957165
 20
345.9793626876
 11
183.2566223154
 21
345.9793626876
  0
LINE
  5
2A5
100
AcDbEntity
  8
0
100
AcDbLine
 62
7
  6
CONTINUOUS
 10
186.9121518381
 20
345.9793626876
 11
194.5864237503
 21
345.9793626876
  0
LINE
  5
2A6
100
AcDbEntity
  8
0
100
AcDbLine
 62
7
  6
CONTINUOUS
 10
235.3235590782
 20
345.9793626876
 11
242.9978309904
 21
345.9793626876
  0
LINE
  5
2A7
100
AcDbEntity
  8
0
100
AcDbLine
 62
7
  6
CONTINUOUS
 10
245.2745984169
 20
345.9793626876
 11
252.7279644618
 21
345.9793626876
  0
LINE
  5
2A8
100
AcDbEntity
  8
0
100
AcDbLine
 62
7
  6
CONTINUOUS
 10
252.7686978666
 20
345.9793626876
 11
259.6353844116
 21
345.9793626876
  0
LINE
  5
2A9
100
AcDbEntity
  8
0
100
AcDbLine
 62
7
  6
CONTINUOUS
 10
261.9121518381
 20
345.9793626876
 11
269.5864237503
 21
345.9793626876
  0
LINE
  5
2AA
100
AcDbEntity
  8
0
100
AcDbLine
 62
7
  6
CONTINUOUS
 10
319.3867535738
 20
345.9793626876
 11
322.9470530819
 21
345.9793626876
  0
LINE
  5
2AB
100
AcDbEntity
  8
0
100
AcDbLine
 62
7
  6
CONTINUOUS
 10
323.7135977118
 20
345.9793626876
 11
327.2098049459
 21
345.9793626876
  0
LINE
  5
2AC
100
AcDbEntity
  8
0
100
AcDbLine
 62
7
  6
CONTINUOUS
 10
327.9258729888
 20
345.9793626876
 11
332.7303590737
 21
345.9793626876
  0
LINE
  5
2AD
100
AcDbEntity
  8
0
100
AcDbLine
 62
7
  6
CONTINUOUS
 10
336.7133206659
 20
345.9793626876
 11
344.699248676
 21
345.9793626876
  0
LINE
  5
2AE
100
AcDbEntity
  8
0
100
AcDbLine
 62
7
  6
CONTINUOUS
 10
146.7825238638
 20
372.6183190592
 11
145.4884229902
 21
372.8477852671
  0
LINE
  5
2AF
100
AcDbEntity
  8
0
100
AcDbLine
 62
7
  6
CONTINUOUS
 10
144.7314757903
 20
371.1323671579
 11
146.3175632729
 21
370.7740605862
  0
LINE
  5
2B0
100
AcDbEntity
  8
0
100
AcDbLine
 62
7
  6
CONTINUOUS
 10
153.9592253109
 20
384.1390914358
 11
143.739717831
 21
388.64856206
  0
LINE
  5
2B1
100
AcDbEntity
  8
0
100
AcDbLine
 62
7
  6
CONTINUOUS
 10
150.1919956207
 20
395.3654213028
 11
154.5717843361
 21
393.4327911255
  0
LINE
  5
2B2
100
AcDbEntity
  8
0
100
AcDbLine
 62
7
  6
CONTINUOUS
 10
155.3287311751
 20
395.1482084167
 11
150.9489424596
 21
397.080838594
  0
LINE
  5
2B3
100
AcDbEntity
  8
0
100
AcDbLine
 62
7
  6
CONTINUOUS
 10
135.1609868689
 20
369.2071658204
 11
135.9972743764
 21
369.5212878572
  0
LINE
  5
2B4
100
AcDbEntity
  8
0
100
AcDbLine
 62
7
  6
CONTINUOUS
 10
362.2887471099
 20
377.4796279144
 11
363.7609573074
 21
377.7060904729
  0
LINE
  5
2B5
100
AcDbEntity
  8
0
100
AcDbLine
 62
7
  6
CONTINUOUS
 10
365.7846335761
 20
374.7108526188
 11
364.6465915953
 21
374.6228070678
  0
LINE
  5
2B6
100
AcDbEntity
  8
0
100
AcDbLine
 62
7
  6
CONTINUOUS
 10
148.3939881815
 20
366.7836724712
 11
140.5428917017
 21
367.1739128905
  0
LINE
  5
2B7
100
AcDbEntity
  8
0
100
AcDbLine
 62
7
  6
CONTINUOUS
 10
140.3699164565
 20
365.2008111907
 11
147.5108832954
 21
364.7823517528
  0
LINE
  5
2B8
100
AcDbEntity
  8
0
100
AcDbLine
 62
7
  6
CONTINUOUS
 10
360.159738364
 20
360.8805265102
 11
361.7674823819
 21
360.7797821432
  0
LINE
  5
2B9
100
AcDbEntity
  8
0
100
AcDbLine
 62
7
  6
CONTINUOUS
 10
135.9972743764
 20
369.5212878572
 11
136.9993897238
 21
369.4206644671
  0
LINE
  5
2BA
100
AcDbEntity
  8
0
100
AcDbLine
 62
7
  6
CONTINUOUS
 10
137.7563365628
 20
371.1360817583
 11
136.7542212154
 21
371.2367051484
  0
LINE
  5
2BB
100
AcDbEntity
  8
FASEN
100
AcDbLine
 62
7
  6
CONTINUOUS
 10
317.5199914279
 20
280.7793626739
 11
315.5199914307
 21
282.7793626712
  0
LINE
  5
2BC
100
AcDbEntity
  8
0
100
AcDbLine
 62
7
  6
CONTINUOUS
 10
231.7353817234
 20
343.2793626876
 11
231.7353817234
 21
345.7793626876
  0
LINE
  5
2BD
100
AcDbEntity
  8
0
100
AcDbLine
 62
7
  6
CONTINUOUS
 10
235.3235590782
 20
345.9151620021
 11
235.3235590782
 21
345.9793626876
  0
LINE
  5
2BE
100
AcDbEntity
  8
BEZUGSACHSEN
100
AcDbLine
 62
7
  6
CONTINUOUS
 10
237.8230529575
 20
343.2793626876
 11
237.8230529575
 21
330.7793626876
  0
LINE
  5
2BF
100
AcDbEntity
  8
0
100
AcDbLine
 62
7
  6
CONTINUOUS
 10
239.2939277515
 20
345.7793626876
 11
239.2939277515
 21
345.9793626876
  0
LINE
  5
2C0
100
AcDbEntity
  8
0
100
AcDbLine
 62
7
  6
CONTINUOUS
 10
239.3546747419
 20
345.7793626876
 11
239.3546747419
 21
345.9793626876
  0
LINE
  5
2C1
100
AcDbEntity
  8
0
100
AcDbLine
 62
7
  6
CONTINUOUS
 10
239.6077871922
 20
345.7793626876
 11
239.6077871922
 21
345.9793626876
  0
LINE
  5
2C2
100
AcDbEntity
  8
0
100
AcDbLine
 62
7
  6
CONTINUOUS
 10
239.6786587002
 20
345.7793626876
 11
239.6786587002
 21
345.9793626876
  0
LINE
  5
2C3
100
AcDbEntity
  8
0
100
AcDbLine
 62
7
  6
CONTINUOUS
 10
239.869009903
 20
345.7793626876
 11
239.869009903
 21
345.9793626876
  0
LINE
  5
2C4
100
AcDbEntity
  8
0
100
AcDbLine
 62
7
  6
CONTINUOUS
 10
240.1580463968
 20
345.7793626876
 11
240.1580463968
 21
345.9793626876
  0
LINE
  5
2C5
100
AcDbEntity
  8
0
100
AcDbLine
 62
7
  6
CONTINUOUS
 10
240.4022756644
 20
345.7793626876
 11
240.4022756644
 21
345.9793626876
  0
LINE
  5
2C6
100
AcDbEntity
  8
FASEN
100
AcDbLine
 62
7
  6
CONTINUOUS
 10
240.5199914142
 20
310.7793626876
 11
240.5199914142
 21
282.7793626876
  0
LINE
  5
2C7
100
AcDbEntity
  8
0
100
AcDbLine
 62
7
  6
CONTINUOUS
 10
240.5352238868
 20
345.7793626876
 11
240.5352238868
 21
345.9793626876
  0
LINE
  5
2C8
100
AcDbEntity
  8
0
100
AcDbLine
 62
7
  6
CONTINUOUS
 10
240.6233648898
 20
345.7793626876
 11
240.6233648898
 21
345.9793626876
  0
LINE
  5
2C9
100
AcDbEntity
  8
0
100
AcDbLine
 62
7
  6
CONTINUOUS
 10
241.4099022834
 20
345.7793626876
 11
241.4099022834
 21
345.9793626876
  0
LINE
  5
2CA
100
AcDbEntity
  8
0
100
AcDbLine
 62
7
  6
CONTINUOUS
 10
242.1276865688
 20
330.7793626876
 11
242.1276865688
 21
345.7793626876
  0
LINE
  5
2CB
100
AcDbEntity
  8
0
100
AcDbLine
 62
7
  6
CONTINUOUS
 10
147.7378227591
 20
370.8304985332
 11
149.4103971545
 21
371.4587409257
  0
LINE
  5
2CC
100
AcDbEntity
  8
0
100
AcDbLine
 62
7
  6
CONTINUOUS
 10
361.1578268369
 20
389.661644583
 11
359.6856165061
 21
389.4351823464
  0
LINE
  5
2CD
100
AcDbEntity
  8
0
100
AcDbLine
 62
7
  6
CONTINUOUS
 10
146.3175632729
 20
370.7740605862
 11
147.7378227591
 21
370.8304985332
  0
LINE
  5
2CE
100
AcDbEntity
  8
0
100
AcDbLine
 62
7
  6
CONTINUOUS
 10
148.897894747
 20
395.5948875107
 11
150.1919956207
 21
395.3654213028
  0
LINE
  5
2CF
100
AcDbEntity
  8
0
100
AcDbLine
 62
7
  6
CONTINUOUS
 10
150.9489424596
 20
397.080838594
 11
149.3628548809
 21
397.4391471627
  0
LINE
  5
2D0
100
AcDbEntity
  8
0
100
AcDbLine
 62
7
  6
CONTINUOUS
 10
242.7061651982
 20
345.7793626876
 11
242.7061651982
 21
345.9793626876
  0
LINE
  5
2D1
100
AcDbEntity
  8
0
100
AcDbLine
 62
7
  6
CONTINUOUS
 10
242.9114092464
 20
345.7793626876
 11
242.9114092464
 21
345.9793626876
  0
LINE
  5
2D2
100
AcDbEntity
  8
0
100
AcDbLine
 62
7
  6
CONTINUOUS
 10
242.9978309904
 20
345.7793626876
 11
242.9978309904
 21
345.9793626876
  0
LINE
  5
2D3
100
AcDbEntity
  8
0
100
AcDbLine
 62
7
  6
CONTINUOUS
 10
245.2745984169
 20
345.7793626876
 11
245.2745984169
 21
345.9793626876
  0
LINE
  5
2D4
100
AcDbEntity
  8
0
100
AcDbLine
 62
7
  6
CONTINUOUS
 10
245.736911744
 20
345.7793626876
 11
245.736911744
 21
345.9793626876
  0
LINE
  5
2D5
100
AcDbEntity
  8
0
100
AcDbLine
 62
7
  6
CONTINUOUS
 10
248.4613665173
 20
345.7793626876
 11
248.4613665173
 21
345.9793626876
  0
LINE
  5
2D6
100
AcDbEntity
  8
0
100
AcDbLine
 62
7
  6
CONTINUOUS
 10
248.655855757
 20
345.7793626876
 11
248.655855757
 21
345.9793626876
  0
LINE
  5
2D7
100
AcDbEntity
  8
0
100
AcDbLine
 62
7
  6
CONTINUOUS
 10
249.1691809364
 20
345.7793626876
 11
249.1691809364
 21
345.9793626876
  0
LINE
  5
2D8
100
AcDbEntity
  8
0
100
AcDbLine
 62
7
  6
CONTINUOUS
 10
249.48919346
 20
345.7793626876
 11
249.48919346
 21
345.9793626876
  0
LINE
  5
2D9
100
AcDbEntity
  8
0
100
AcDbLine
 62
7
  6
CONTINUOUS
 10
249.5395561385
 20
345.7793626876
 11
249.5395561385
 21
345.9793626876
  0
LINE
  5
2DA
100
AcDbEntity
  8
0
100
AcDbLine
 62
7
  6
CONTINUOUS
 10
249.8387727062
 20
345.7793626876
 11
249.8387727062
 21
345.9793626876
  0
LINE
  5
2DB
100
AcDbEntity
  8
0
100
AcDbLine
 62
7
  6
CONTINUOUS
 10
250.1542826336
 20
345.7793626876
 11
250.1542826336
 21
345.9793626876
  0
LINE
  5
2DC
100
AcDbEntity
  8
0
100
AcDbLine
 62
7
  6
CONTINUOUS
 10
250.643839935
 20
345.7793626876
 11
250.643839935
 21
345.9793626876
  0
LINE
  5
2DD
100
AcDbEntity
  8
0
100
AcDbLine
 62
7
  6
CONTINUOUS
 10
250.9756413234
 20
345.7793626876
 11
250.9756413234
 21
345.9793626876
  0
LINE
  5
2DE
100
AcDbEntity
  8
0
100
AcDbLine
 62
7
  6
CONTINUOUS
 10
251.5644432808
 20
345.7793626876
 11
251.5644432808
 21
345.9793626876
  0
LINE
  5
2DF
100
AcDbEntity
  8
0
100
AcDbLine
 62
7
  6
CONTINUOUS
 10
251.9125399275
 20
345.7793626876
 11
251.9125399275
 21
345.9793626876
  0
LINE
  5
2E0
100
AcDbEntity
  8
0
100
AcDbLine
 62
7
  6
CONTINUOUS
 10
252.2769280352
 20
345.7793626876
 11
252.2769280352
 21
345.9793626876
  0
LINE
  5
2E1
100
AcDbEntity
  8
0
100
AcDbLine
 62
7
  6
CONTINUOUS
 10
252.3924660509
 20
345.7793626876
 11
252.3924660509
 21
345.9793626876
  0
LINE
  5
2E2
100
AcDbEntity
  8
0
100
AcDbLine
 62
7
  6
CONTINUOUS
 10
252.7279644618
 20
345.7793626876
 11
252.7279644618
 21
345.9793626876
  0
LINE
  5
2E3
100
AcDbEntity
  8
0
100
AcDbLine
 62
7
  6
CONTINUOUS
 10
252.7686978666
 20
345.7793626876
 11
252.7686978666
 21
345.9793626876
  0
LINE
  5
2E4
100
AcDbEntity
  8
0
100
AcDbLine
 62
7
  6
CONTINUOUS
 10
253.4660957165
 20
345.7793626876
 11
253.4660957165
 21
345.9793626876
  0
LINE
  5
2E5
100
AcDbEntity
  8
0
100
AcDbLine
 62
7
  6
CONTINUOUS
 10
147.9107976194
 20
372.8035999142
 11
146.7825238638
 21
372.6183190592
  0
LINE
  5
2E6
100
AcDbEntity
  8
0
100
AcDbLine
 62
7
  6
CONTINUOUS
 10
367.3923777477
 20
374.6101072187
 11
365.7846335761
 21
374.7108526188
  0
LINE
  5
2E7
100
AcDbEntity
  8
0
100
AcDbLine
 62
7
  6
CONTINUOUS
 10
362.9477550136
 20
379.6693344795
 11
361.340010842
 21
379.7700798796
  0
LINE
  5
2E8
100
AcDbEntity
  8
0
100
AcDbLine
 62
7
  6
CONTINUOUS
 10
362.2278547192
 20
362.5038642906
 11
359.680705223
 21
362.982187912
  0
LINE
  5
2E9
100
AcDbEntity
  8
0
100
AcDbLine
 62
7
  6
CONTINUOUS
 10
254.357127077
 20
345.7793626876
 11
254.357127077
 21
345.9793626876
  0
LINE
  5
2EA
100
AcDbEntity
  8
0
100
AcDbLine
 62
7
  6
CONTINUOUS
 10
255.0882824342
 20
345.7793626876
 11
255.0882824342
 21
345.9793626876
  0
LINE
  5
2EB
100
AcDbEntity
  8
0
100
AcDbLine
 62
7
  6
CONTINUOUS
 10
255.510633908
 20
345.7793626876
 11
255.510633908
 21
345.9793626876
  0
LINE
  5
2EC
100
AcDbEntity
  8
0
100
AcDbLine
 62
7
  6
CONTINUOUS
 10
257.5254669582
 20
345.7793626876
 11
257.5254669582
 21
345.9793626876
  0
LINE
  5
2ED
100
AcDbEntity
  8
0
100
AcDbLine
 62
7
  6
CONTINUOUS
 10
258.2566223154
 20
345.7793626876
 11
258.2566223154
 21
345.9793626876
  0
LINE
  5
2EE
100
AcDbEntity
  8
0
100
AcDbLine
 62
7
  6
CONTINUOUS
 10
258.5656937069
 20
345.7793626876
 11
258.5656937069
 21
345.9793626876
  0
LINE
  5
2EF
100
AcDbEntity
  8
0
100
AcDbLine
 62
7
  6
CONTINUOUS
 10
259.336214743
 20
345.7793626876
 11
259.336214743
 21
345.9793626876
  0
LINE
  5
2F0
100
AcDbEntity
  8
0
100
AcDbLine
 62
7
  6
CONTINUOUS
 10
259.5307039826
 20
345.7793626876
 11
259.5307039826
 21
345.9793626876
  0
LINE
  5
2F1
100
AcDbEntity
  8
0
100
AcDbLine
 62
7
  6
CONTINUOUS
 10
259.6353844116
 20
345.7793626876
 11
259.6353844116
 21
345.9793626876
  0
LINE
  5
2F2
100
AcDbEntity
  8
0
100
AcDbLine
 62
7
  6
CONTINUOUS
 10
261.9121518381
 20
345.7793626876
 11
261.9121518381
 21
345.9793626876
  0
LINE
  5
2F3
100
AcDbEntity
  8
0
100
AcDbLine
 62
7
  6
CONTINUOUS
 10
261.955351952
 20
345.7793626876
 11
261.955351952
 21
345.9793626876
  0
LINE
  5
2F4
100
AcDbEntity
  8
0
100
AcDbLine
 62
7
  6
CONTINUOUS
 10
262.1065735861
 20
345.7793626876
 11
262.1065735861
 21
345.9793626876
  0
LINE
  5
2F5
100
AcDbEntity
  8
0
100
AcDbLine
 62
7
  6
CONTINUOUS
 10
262.3766174678
 20
345.7793626876
 11
262.3766174678
 21
345.9793626876
  0
LINE
  5
2F6
100
AcDbEntity
  8
0
100
AcDbLine
 62
7
  6
CONTINUOUS
 10
262.9122962597
 20
330.7793626876
 11
262.9122962597
 21
345.7793626876
  0
LINE
  5
2F7
100
AcDbEntity
  8
0
100
AcDbLine
 62
7
  6
CONTINUOUS
 10
263.3487814497
 20
345.7793626876
 11
263.3487814497
 21
345.9793626876
  0
LINE
  5
2F8
100
AcDbEntity
  8
0
100
AcDbLine
 62
7
  6
CONTINUOUS
 10
263.7268470104
 20
345.7793626876
 11
263.7268470104
 21
345.9793626876
  0
LINE
  5
2F9
100
AcDbEntity
  8
0
100
AcDbLine
 62
7
  6
CONTINUOUS
 10
264.0941128303
 20
345.7793626876
 11
264.0941128303
 21
345.9793626876
  0
LINE
  5
2FA
100
AcDbEntity
  8
FASEN
100
AcDbLine
 62
7
  6
CONTINUOUS
 10
264.5199914142
 20
310.7793626876
 11
264.5199914142
 21
282.7793626876
  0
LINE
  5
2FB
100
AcDbEntity
  8
BEZUGSACHSEN
100
AcDbLine
 62
7
  6
CONTINUOUS
 10
264.5199914142
 20
282.7793626876
 11
264.5199914142
 21
310.7793626876
  0
LINE
  5
2FC
100
AcDbEntity
  8
0
100
AcDbLine
 62
7
  6
CONTINUOUS
 10
264.5694001477
 20
345.7793626876
 11
264.5694001477
 21
345.9793626876
  0
LINE
  5
2FD
100
AcDbEntity
  8
0
100
AcDbLine
 62
7
  6
CONTINUOUS
 10
264.9150656129
 20
345.7793626876
 11
264.9150656129
 21
345.9793626876
  0
LINE
  5
2FE
100
AcDbEntity
  8
0
100
AcDbLine
 62
7
  6
CONTINUOUS
 10
265.2499315189
 20
345.7793626876
 11
265.2499315189
 21
345.9793626876
  0
LINE
  5
2FF
100
AcDbEntity
  8
0
100
AcDbLine
 62
7
  6
CONTINUOUS
 10
136.7542212154
 20
371.2367051484
 11
135.2078042475
 21
370.894364502
  0
LINE
  5
300
100
AcDbEntity
  8
0
100
AcDbLine
 62
7
  6
CONTINUOUS
 10
149.3628548809
 20
397.4391471627
 11
147.9425952383
 21
397.3827083075
  0
LINE
  5
301
100
AcDbEntity
  8
0
100
AcDbLine
 62
7
  6
CONTINUOUS
 10
365.3242599149
 20
372.9867710197
 11
367.8714108887
 21
372.5084458169
  0
LINE
  5
302
100
AcDbEntity
  8
0
100
AcDbLine
 62
7
  6
CONTINUOUS
 10
361.0151720911
 20
377.7187907097
 11
362.2887471099
 21
377.4796279144
  0
LINE
  5
303
100
AcDbEntity
  8
0
100
AcDbLine
 62
7
  6
CONTINUOUS
 10
266.5461944338
 20
345.7793626876
 11
266.5461944338
 21
345.9793626876
  0
LINE
  5
304
100
AcDbEntity
  8
BEZUGSACHSEN
100
AcDbLine
 62
7
  6
CONTINUOUS
 10
267.2169298709
 20
343.2793626876
 11
267.2169298709
 21
330.7793626876
  0
LINE
  5
305
100
AcDbEntity
  8
0
100
AcDbLine
 62
7
  6
CONTINUOUS
 10
267.5110405782
 20
345.7793626876
 11
267.5110405782
 21
345.9793626876
  0
LINE
  5
306
100
AcDbEntity
  8
0
100
AcDbLine
 62
7
  6
CONTINUOUS
 10
267.7104628166
 20
345.7793626876
 11
267.7104628166
 21
345.9793626876
  0
LINE
  5
307
100
AcDbEntity
  8
0
100
AcDbLine
 62
7
  6
CONTINUOUS
 10
268.5081517704
 20
345.7793626876
 11
268.5081517704
 21
345.9793626876
  0
LINE
  5
308
100
AcDbEntity
  8
0
100
AcDbLine
 62
7
  6
CONTINUOUS
 10
268.7075741039
 20
345.7793626876
 11
268.7075741039
 21
345.9793626876
  0
LINE
  5
309
100
AcDbEntity
  8
0
100
AcDbLine
 62
7
  6
CONTINUOUS
 10
268.9144116266
 20
345.7793626876
 11
268.9144116266
 21
345.9793626876
  0
LINE
  5
30A
100
AcDbEntity
  8
0
100
AcDbLine
 62
7
  6
CONTINUOUS
 10
269.208337368
 20
345.7793626876
 11
269.208337368
 21
345.9793626876
  0
LINE
  5
30B
100
AcDbEntity
  8
0
100
AcDbLine
 62
7
  6
CONTINUOUS
 10
269.3434357888
 20
345.7793626876
 11
269.3434357888
 21
345.9793626876
  0
LINE
  5
30C
100
AcDbEntity
  8
0
100
AcDbLine
 62
7
  6
CONTINUOUS
 10
269.5864237503
 20
345.7793626876
 11
269.5864237503
 21
345.9793626876
  0
LINE
  5
30D
100
AcDbEntity
  8
0
100
AcDbLine
 62
7
  6
CONTINUOUS
 10
273.3046011051
 20
343.2793626876
 11
273.3046011051
 21
345.7793626876
  0
LINE
  5
30E
100
AcDbEntity
  8
0
100
AcDbLine
 62
7
  6
CONTINUOUS
 10
147.7696201735
 20
395.4096070167
 11
148.897894747
 21
395.5948875107
  0
LINE
  5
30F
100
AcDbEntity
  8
0
100
AcDbLine
 62
7
  6
CONTINUOUS
 10
360.3632850802
 20
387.799145684
 11
361.6368600021
 21
387.5599831227
  0
LINE
  5
310
100
AcDbEntity
  8
0
100
AcDbLine
 62
7
  6
CONTINUOUS
 10
358.7506296418
 20
361.4468962794
 11
360.159738364
 21
360.8805265102
  0
LINE
  5
311
100
AcDbEntity
  8
FASEN
100
AcDbLine
 62
7
  6
CONTINUOUS
 10
187.5199914043
 20
280.7793626777
 11
189.5199914023
 21
282.7793626757
  0
LINE
  5
312
100
AcDbEntity
  8
0
100
AcDbLine
 62
7
  6
CONTINUOUS
 10
368.8014863529
 20
374.043737401
 11
367.3923777477
 21
374.6101072187
  0
LINE
  5
313
100
AcDbEntity
  8
0
100
AcDbLine
 62
7
  6
CONTINUOUS
 10
350.2751071695
 20
382.8537910071
 11
361.0151720911
 21
377.7187907097
  0
LINE
  5
314
100
AcDbEntity
  8
0
100
AcDbLine
 62
7
  6
CONTINUOUS
 10
349.1908374122
 20
385.4714497606
 11
347.5199914142
 21
384.7793626876
  0
LINE
  5
315
100
AcDbEntity
  8
0
100
AcDbLine
 62
7
  6
CONTINUOUS
 10
363.0366383024
 20
388.9064848456
 11
361.1578268369
 21
389.661644583
  0
LINE
  5
316
100
AcDbEntity
  8
0
100
AcDbLine
 62
7
  6
CONTINUOUS
 10
361.340010842
 20
379.7700798796
 11
349.1908374122
 21
385.4714497606
  0
LINE
  5
317
100
AcDbEntity
  8
0
100
AcDbLine
 62
7
  6
CONTINUOUS
 10
359.680705223
 20
362.982187912
 11
358.6057657706
 21
363.6869751248
  0
LINE
  5
318
100
AcDbEntity
  8
0
100
AcDbLine
 62
7
  6
CONTINUOUS
 10
357.0704530006
 20
362.6676819777
 11
358.7506296418
 21
361.4468962794
  0
LINE
  5
319
100
AcDbEntity
  8
0
100
AcDbLine
 62
7
  6
CONTINUOUS
 10
306.7353817234
 20
343.2793626876
 11
306.7353817234
 21
345.7793626876
  0
LINE
  5
31A
100
AcDbEntity
  8
0
100
AcDbLine
 62
7
  6
CONTINUOUS
 10
363.6160942553
 20
379.9461696576
 11
362.9477550136
 21
379.6693344795
  0
LINE
  5
31B
100
AcDbEntity
  8
0
100
AcDbLine
 62
7
  6
CONTINUOUS
 10
352.3992051769
 20
372.9998986481
 11
354.0700511748
 21
373.6919857211
  0
LINE
  5
31C
100
AcDbEntity
  8
0
100
AcDbLine
 62
7
  6
CONTINUOUS
 10
363.7609573074
 20
377.7060904729
 11
364.4292965491
 21
377.9829256511
  0
LINE
  5
31D
100
AcDbEntity
  8
0
100
AcDbLine
 62
7
  6
CONTINUOUS
 10
362.840212245
 20
374.2579271142
 11
359.8326898701
 21
373.0121705573
  0
LINE
  5
31E
100
AcDbEntity
  8
0
100
AcDbLine
 62
7
  6
CONTINUOUS
 10
360.8445277302
 20
371.5145509683
 11
363.1837117996
 21
372.4834727347
  0
LINE
  5
31F
100
AcDbEntity
  8
0
100
AcDbLine
 62
7
  6
CONTINUOUS
 10
367.8714108887
 20
372.5084458169
 11
368.9463503412
 21
371.803658604
  0
LINE
  5
320
100
AcDbEntity
  8
0
100
AcDbLine
 62
7
  6
CONTINUOUS
 10
361.6368600021
 20
387.5599831227
 11
362.7117994545
 21
386.8551959099
  0
LINE
  5
321
100
AcDbEntity
  8
0
100
AcDbLine
 62
7
  6
CONTINUOUS
 10
370.4816621309
 20
372.8229535386
 11
368.8014863529
 21
374.043737401
  0
LINE
  5
322
100
AcDbEntity
  8
BEZUGSACHSEN
100
AcDbLine
 62
7
  6
CONTINUOUS
 10
312.8230529575
 20
330.7793626876
 11
312.8230529575
 21
343.2793626876
  0
LINE
  5
323
100
AcDbEntity
  8
FASEN
100
AcDbLine
 62
7
  6
CONTINUOUS
 10
315.5199914142
 20
310.7793626876
 11
315.5199914142
 21
282.7793626876
  0
LINE
  5
324
100
AcDbEntity
  8
BEZUGSACHSEN
100
AcDbLine
 62
7
  6
CONTINUOUS
 10
315.5199914142
 20
282.7793626876
 11
315.5199914142
 21
310.7793626876
  0
LINE
  5
325
100
AcDbEntity
  8
0
100
AcDbLine
 62
7
  6
CONTINUOUS
 10
317.1276865688
 20
330.7793626876
 11
317.1276865688
 21
345.7793626876
  0
LINE
  5
326
100
AcDbEntity
  8
0
100
AcDbLine
 62
7
  6
CONTINUOUS
 10
319.3867535738
 20
345.7793626876
 11
319.3867535738
 21
345.9793626876
  0
LINE
  5
327
100
AcDbEntity
  8
0
100
AcDbLine
 62
7
  6
CONTINUOUS
 10
319.8505395649
 20
345.7793626876
 11
319.8505395649
 21
345.9793626876
  0
LINE
  5
328
100
AcDbEntity
  8
0
100
AcDbLine
 62
7
  6
CONTINUOUS
 10
322.7213495029
 20
345.7793626876
 11
322.7213495029
 21
345.9793626876
  0
LINE
  5
329
100
AcDbEntity
  8
0
100
AcDbLine
 62
7
  6
CONTINUOUS
 10
322.9470530819
 20
345.7793626876
 11
322.9470530819
 21
345.9793626876
  0
LINE
  5
32A
100
AcDbEntity
  8
0
100
AcDbLine
 62
7
  6
CONTINUOUS
 10
366.7075881475
 20
363.9760826636
 11
364.3684040781
 21
363.0071608972
  0
LINE
  5
32B
100
AcDbEntity
  8
0
100
AcDbLine
 62
7
  6
CONTINUOUS
 10
364.7119032449
 20
361.2327074539
 11
367.7194256199
 21
362.4784640108
  0
LINE
  5
32C
100
AcDbEntity
  8
0
100
AcDbLine
 62
7
  6
CONTINUOUS
 10
323.7135977118
 20
345.7793626876
 11
323.7135977118
 21
345.9793626876
  0
LINE
  5
32D
100
AcDbEntity
  8
0
100
AcDbLine
 62
7
  6
CONTINUOUS
 10
323.7489627862
 20
345.7793626876
 11
323.7489627862
 21
345.9793626876
  0
LINE
  5
32E
100
AcDbEntity
  8
0
100
AcDbLine
 62
7
  6
CONTINUOUS
 10
324.0386300991
 20
345.7793626876
 11
324.0386300991
 21
345.9793626876
  0
LINE
  5
32F
100
AcDbEntity
  8
0
100
AcDbLine
 62
7
  6
CONTINUOUS
 10
324.3529976111
 20
345.7793626876
 11
324.3529976111
 21
345.9793626876
  0
LINE
  5
330
100
AcDbEntity
  8
0
100
AcDbLine
 62
7
  6
CONTINUOUS
 10
324.8492481082
 20
345.7793626876
 11
324.8492481082
 21
345.9793626876
  0
LINE
  5
331
100
AcDbEntity
  8
0
100
AcDbLine
 62
7
  6
CONTINUOUS
 10
325.1883138792
 20
345.7793626876
 11
325.1883138792
 21
345.9793626876
  0
LINE
  5
332
100
AcDbEntity
  8
0
100
AcDbLine
 62
7
  6
CONTINUOUS
 10
325.7940319883
 20
345.7793626876
 11
325.7940319883
 21
345.9793626876
  0
LINE
  5
333
100
AcDbEntity
  8
0
100
AcDbLine
 62
7
  6
CONTINUOUS
 10
326.1577998986
 20
345.7793626876
 11
326.1577998986
 21
345.9793626876
  0
LINE
  5
334
100
AcDbEntity
  8
0
100
AcDbLine
 62
7
  6
CONTINUOUS
 10
326.5462660679
 20
345.7793626876
 11
326.5462660679
 21
345.9793626876
  0
LINE
  5
335
100
AcDbEntity
  8
0
100
AcDbLine
 62
7
  6
CONTINUOUS
 10
326.6804338791
 20
345.7793626876
 11
326.6804338791
 21
345.9793626876
  0
LINE
  5
336
100
AcDbEntity
  8
0
100
AcDbLine
 62
7
  6
CONTINUOUS
 10
327.1480544394
 20
345.7793626876
 11
327.1480544394
 21
345.9793626876
  0
LINE
  5
337
100
AcDbEntity
  8
0
100
AcDbLine
 62
7
  6
CONTINUOUS
 10
327.2098049459
 20
345.7793626876
 11
327.2098049459
 21
345.9793626876
  0
LINE
  5
338
100
AcDbEntity
  8
0
100
AcDbLine
 62
7
  6
CONTINUOUS
 10
327.9258729888
 20
345.7793626876
 11
327.9258729888
 21
345.9793626876
  0
LINE
  5
339
100
AcDbEntity
  8
0
100
AcDbLine
 62
7
  6
CONTINUOUS
 10
328.6924882114
 20
345.7793626876
 11
328.6924882114
 21
345.9793626876
  0
LINE
  5
33A
100
AcDbEntity
  8
0
100
AcDbLine
 62
7
  6
CONTINUOUS
 10
329.4495889981
 20
345.7793626876
 11
329.4495889981
 21
345.9793626876
  0
LINE
  5
33B
100
AcDbEntity
  8
0
100
AcDbLine
 62
7
  6
CONTINUOUS
 10
330.0263632326
 20
345.7793626876
 11
330.0263632326
 21
345.9793626876
  0
LINE
  5
33C
100
AcDbEntity
  8
0
100
AcDbLine
 62
7
  6
CONTINUOUS
 10
331.973258287
 20
345.7793626876
 11
331.973258287
 21
345.9793626876
  0
LINE
  5
33D
100
AcDbEntity
  8
0
100
AcDbLine
 62
7
  6
CONTINUOUS
 10
332.7303590737
 20
345.7793626876
 11
332.7303590737
 21
345.9793626876
  0
LINE
  5
33E
100
AcDbEntity
  8
RUNDUNGEN
100
AcDbLine
 62
7
  6
CONTINUOUS
 10
336.3053801079
 20
386.1657322311
 11
340.7734173607
 21
396.952528364
  0
LINE
  5
33F
100
AcDbEntity
  8
0
100
AcDbLine
 62
7
  6
CONTINUOUS
 10
358.2973772245
 20
371.992876365
 11
357.4304033525
 21
371.250417157
  0
LINE
  5
340
100
AcDbEntity
  8
0
100
AcDbLine
 62
7
  6
CONTINUOUS
 10
364.4292965491
 20
377.9829256511
 11
365.6304395738
 21
378.8638022543
  0
LINE
  5
341
100
AcDbEntity
  8
0
100
AcDbLine
 62
7
  6
CONTINUOUS
 10
359.8326898701
 20
373.0121705573
 11
358.2973772245
 21
371.992876365
  0
LINE
  5
342
100
AcDbEntity
  8
0
100
AcDbLine
 62
7
  6
CONTINUOUS
 10
358.9750455441
 20
370.3568403169
 11
360.8445277302
 21
371.5145509683
  0
LINE
  5
343
100
AcDbEntity
  8
0
100
AcDbLine
 62
7
  6
CONTINUOUS
 10
368.57706909
 20
365.1337949934
 11
366.7075881475
 21
363.9760826636
  0
LINE
  5
344
100
AcDbEntity
  8
0
100
AcDbLine
 62
7
  6
CONTINUOUS
 10
370.1403724731
 20
360.414473668
 11
368.803695862
 21
359.8608040871
  0
LINE
  5
345
100
AcDbEntity
  8
0
100
AcDbLine
 62
7
  6
CONTINUOUS
 10
373.8979960979
 20
358.904155166
 11
371.2246419396
 21
357.7968156166
  0
LINE
  5
346
100
AcDbEntity
  8
0
100
AcDbLine
 62
7
  6
CONTINUOUS
 10
369.8879653285
 20
357.2431460358
 11
363.2045815709
 21
354.4747978408
  0
LINE
  5
347
100
AcDbEntity
  8
0
100
AcDbLine
 62
7
  6
CONTINUOUS
 10
364.5505892056
 20
353.1155948078
 11
370.5656344237
 21
355.6071081154
  0
LINE
  5
348
100
AcDbEntity
  8
0
100
AcDbLine
 62
7
  6
CONTINUOUS
 10
371.9023110348
 20
356.1607776963
 11
374.5756651931
 21
357.2681172457
  0
LINE
  5
349
100
AcDbEntity
  8
0
100
AcDbLine
 62
7
  6
CONTINUOUS
 10
362.4287006505
 20
348.786554652
 11
363.7653773786
 21
349.3402242813
  0
LINE
  5
34A
100
AcDbEntity
  8
0
100
AcDbLine
 62
7
  6
CONTINUOUS
 10
372.0565042615
 20
352.0078299331
 11
373.3931808726
 21
352.5614995139
  0
LINE
  5
34B
100
AcDbEntity
  8
0
100
AcDbLine
 62
7
  6
CONTINUOUS
 10
364.2471114381
 20
387.8744903763
 11
363.0366383024
 21
388.9064848456
  0
LINE
  5
34C
100
AcDbEntity
  8
0
100
AcDbLine
 62
7
  6
CONTINUOUS
 10
358.6057657706
 20
363.6869751248
 11
357.5939275227
 21
365.18459565
  0
LINE
  5
34D
100
AcDbEntity
  8
0
100
AcDbLine
 62
7
  6
CONTINUOUS
 10
355.9230815248
 20
364.492508577
 11
357.0704530006
 21
362.6676819777
  0
LINE
  5
34E
100
AcDbEntity
  8
RUNDUNGEN
100
AcDbLine
 62
7
  6
CONTINUOUS
 10
343.9461227755
 20
355.6265548054
 11
336.3053784372
 21
374.0729434135
  0
LINE
  5
34F
100
AcDbEntity
  8
0
100
AcDbLine
 62
7
  6
CONTINUOUS
 10
336.7133206659
 20
345.7793626876
 11
336.7133206659
 21
345.9793626876
  0
LINE
  5
350
100
AcDbEntity
  8
0
100
AcDbLine
 62
7
  6
CONTINUOUS
 10
336.7482472975
 20
345.7793626876
 11
336.7482472975
 21
345.9793626876
  0
LINE
  5
351
100
AcDbEntity
  8
0
100
AcDbLine
 62
7
  6
CONTINUOUS
 10
336.8966738237
 20
345.7793626876
 11
336.8966738237
 21
345.9793626876
  0
LINE
  5
352
100
AcDbEntity
  8
0
100
AcDbLine
 62
7
  6
CONTINUOUS
 10
337.1673326396
 20
345.7793626876
 11
337.1673326396
 21
345.9793626876
  0
LINE
  5
353
100
AcDbEntity
  8
0
100
AcDbLine
 62
7
  6
CONTINUOUS
 10
337.9122962597
 20
330.7793626876
 11
337.9122962597
 21
345.7793626876
  0
LINE
  5
354
100
AcDbEntity
  8
0
100
AcDbLine
 62
7
  6
CONTINUOUS
 10
338.1495589865
 20
345.7793626876
 11
338.1495589865
 21
345.9793626876
  0
LINE
  5
355
100
AcDbEntity
  8
0
100
AcDbLine
 62
7
  6
CONTINUOUS
 10
338.5337178575
 20
345.7793626876
 11
338.5337178575
 21
345.9793626876
  0
LINE
  5
356
100
AcDbEntity
  8
0
100
AcDbLine
 62
7
  6
CONTINUOUS
 10
338.9091453799
 20
345.7793626876
 11
338.9091453799
 21
345.9793626876
  0
LINE
  5
357
100
AcDbEntity
  8
0
100
AcDbLine
 62
7
  6
CONTINUOUS
 10
339.3980727739
 20
345.7793626876
 11
339.3980727739
 21
345.9793626876
  0
LINE
  5
358
100
AcDbEntity
  8
FASEN
100
AcDbLine
 62
7
  6
CONTINUOUS
 10
339.5199914142
 20
310.7793626876
 11
339.5199914142
 21
282.7793626876
  0
LINE
  5
359
100
AcDbEntity
  8
BEZUGSACHSEN
100
AcDbLine
 62
7
  6
CONTINUOUS
 10
339.5199914142
 20
282.7793626876
 11
339.5199914142
 21
310.7793626876
  0
LINE
  5
35A
100
AcDbEntity
  8
0
100
AcDbLine
 62
7
  6
CONTINUOUS
 10
339.7560366673
 20
345.7793626876
 11
339.7560366673
 21
345.9793626876
  0
LINE
  5
35B
100
AcDbEntity
  8
0
100
AcDbLine
 62
7
  6
CONTINUOUS
 10
340.1052693955
 20
345.7793626876
 11
340.1052693955
 21
345.9793626876
  0
LINE
  5
35C
100
AcDbEntity
  8
0
100
AcDbLine
 62
7
  6
CONTINUOUS
 10
341.4672730504
 20
345.7793626876
 11
341.4672730504
 21
345.9793626876
  0
LINE
  5
35D
100
AcDbEntity
  8
BEZUGSACHSEN
100
AcDbLine
 62
7
  6
CONTINUOUS
 10
342.4810257828
 20
330.7793626876
 11
342.4810257828
 21
343.2793626876
  0
LINE
  5
35E
100
AcDbEntity
  8
0
100
AcDbLine
 62
7
  6
CONTINUOUS
 10
342.5015659842
 20
345.7793626876
 11
342.5015659842
 21
345.9793626876
  0
LINE
  5
35F
100
AcDbEntity
  8
0
100
AcDbLine
 62
7
  6
CONTINUOUS
 10
342.7117743617
 20
345.7793626876
 11
342.7117743617
 21
345.9793626876
  0
LINE
  5
360
100
AcDbEntity
  8
0
100
AcDbLine
 62
7
  6
CONTINUOUS
 10
343.5526078716
 20
345.7793626876
 11
343.5526078716
 21
345.9793626876
  0
LINE
  5
361
100
AcDbEntity
  8
0
100
AcDbLine
 62
7
  6
CONTINUOUS
 10
343.7628163493
 20
345.7793626876
 11
343.7628163493
 21
345.9793626876
  0
LINE
  5
362
100
AcDbEntity
  8
0
100
AcDbLine
 62
7
  6
CONTINUOUS
 10
343.9995085223
 20
345.7793626876
 11
343.9995085223
 21
345.9793626876
  0
LINE
  5
363
100
AcDbEntity
  8
0
100
AcDbLine
 62
7
  6
CONTINUOUS
 10
344.3025474296
 20
345.7793626876
 11
344.3025474296
 21
345.9793626876
  0
LINE
  5
364
100
AcDbEntity
  8
0
100
AcDbLine
 62
7
  6
CONTINUOUS
 10
344.4427480135
 20
345.7793626876
 11
344.4427480135
 21
345.9793626876
  0
LINE
  5
365
100
AcDbEntity
  8
0
100
AcDbLine
 62
7
  6
CONTINUOUS
 10
344.699248676
 20
345.7793626876
 11
344.699248676
 21
345.9793626876
  0
LINE
  5
366
100
AcDbEntity
  8
0
100
AcDbLine
 62
7
  6
CONTINUOUS
 10
357.4304033525
 20
371.250417157
 11
356.3647940679
 21
370.0423324983
  0
LINE
  5
367
100
AcDbEntity
  8
FASEN
100
AcDbLine
 62
7
  6
CONTINUOUS
 10
262.5199914043
 20
280.7793626777
 11
264.5199914023
 21
282.7793626757
  0
LINE
  5
368
100
AcDbEntity
  8
0
100
AcDbLine
 62
7
  6
CONTINUOUS
 10
367.7194256199
 20
362.4784640108
 11
369.2547381852
 21
363.497757073
  0
LINE
  5
369
100
AcDbEntity
  8
RUNDUNGEN
100
AcDbLine
 62
7
  6
CONTINUOUS
 10
312.2186068632
 20
465.8899391381
 11
256.3468257379
 21
489.0327886341
  0
LINE
  5
36A
100
AcDbEntity
  8
0
100
AcDbLine
 62
7
  6
CONTINUOUS
 10
368.9463503412
 20
371.803658604
 11
369.9581878136
 21
370.3060399512
  0
LINE
  5
36B
100
AcDbEntity
  8
0
100
AcDbLine
 62
7
  6
CONTINUOUS
 10
362.7117994545
 20
386.8551959099
 11
363.7236372178
 21
385.3575765549
  0
LINE
  5
36C
100
AcDbEntity
  8
0
100
AcDbLine
 62
7
  6
CONTINUOUS
 10
371.6290335774
 20
370.9981269272
 11
370.4816621309
 21
372.8229535386
  0
LINE
  5
36D
100
AcDbEntity
  8
0
100
AcDbLine
 62
7
  6
CONTINUOUS
 10
347.5199914142
 20
384.7793626876
 11
352.3992051769
 21
372.9998986481
  0
LINE
  5
36E
100
AcDbEntity
  8
RUNDUNGEN
100
AcDbLine
 62
7
  6
CONTINUOUS
 10
340.7734173607
 20
404.6061970113
 11
317.6305678647
 21
460.4779781366
  0
LINE
  5
36F
100
AcDbEntity
  8
0
100
AcDbLine
 62
7
  6
CONTINUOUS
 10
354.0700511748
 20
373.6919857211
 11
350.2751071695
 21
382.8537910071
  0
LINE
  5
370
100
AcDbEntity
  8
0
100
AcDbLine
 62
7
  6
CONTINUOUS
 10
348.3046011051
 20
343.2793626876
 11
348.3046011051
 21
345.7793626876
  0
LINE
  5
371
100
AcDbEntity
  8
0
100
AcDbLine
 62
7
  6
CONTINUOUS
 10
355.7688876395
 20
368.6454582609
 11
355.444048413
 21
366.5941699909
  0
LINE
  5
372
100
AcDbEntity
  8
0
100
AcDbLine
 62
7
  6
CONTINUOUS
 10
356.3647940679
 20
370.0423324983
 11
355.7688876395
 21
368.6454582609
  0
LINE
  5
373
100
AcDbEntity
  8
0
100
AcDbLine
 62
7
  6
CONTINUOUS
 10
364.3475341531
 20
381.0158368242
 11
363.6160942553
 21
379.9461696576
  0
LINE
  5
374
100
AcDbEntity
  8
0
100
AcDbLine
 62
7
  6
CONTINUOUS
 10
357.5121655145
 20
368.2175058869
 11
358.9750455441
 21
370.3568403169
  0
LINE
  5
375
100
AcDbEntity
  8
0
100
AcDbLine
 62
7
  6
CONTINUOUS
 10
370.1217126055
 20
364.240217605
 11
371.1873220439
 21
365.4483012305
  0
LINE
  5
376
100
AcDbEntity
  8
0
100
AcDbLine
 62
7
  6
CONTINUOUS
 10
369.2547381852
 20
363.497757073
 11
370.1217126055
 21
364.240217605
  0
LINE
  5
377
100
AcDbEntity
  8
0
100
AcDbLine
 62
7
  6
CONTINUOUS
 10
363.6836147119
 20
352.3731364391
 11
364.5505892056
 21
353.1155948078
  0
LINE
  5
378
100
AcDbEntity
  8
0
100
AcDbLine
 62
7
  6
CONTINUOUS
 10
365.530016568
 20
385.7224565085
 11
364.2471114381
 21
387.8744903763
  0
LINE
  5
379
100
AcDbEntity
  8
0
100
AcDbLine
 62
7
  6
CONTINUOUS
 10
368.803695862
 20
359.8608040871
 11
369.8879653285
 21
357.2431460358
  0
LINE
  5
37A
100
AcDbEntity
  8
0
100
AcDbLine
 62
7
  6
CONTINUOUS
 10
370.5656344237
 20
355.6071081154
 11
372.0565042615
 21
352.0078299331
  0
LINE
  5
37B
100
AcDbEntity
  8
0
100
AcDbLine
 62
7
  6
CONTINUOUS
 10
373.3931808726
 20
352.5614995139
 11
371.9023110348
 21
356.1607776963
  0
LINE
  5
37C
100
AcDbEntity
  8
0
100
AcDbLine
 62
7
  6
CONTINUOUS
 10
371.2246419396
 20
357.7968156166
 11
370.1403724731
 21
360.414473668
  0
LINE
  5
37D
100
AcDbEntity
  8
0
100
AcDbLine
 62
7
  6
CONTINUOUS
 10
359.6856165061
 20
389.4351823464
 11
360.3632850802
 21
387.799145684
  0
LINE
  5
37E
100
AcDbEntity
  8
0
100
AcDbLine
 62
7
  6
CONTINUOUS
 10
374.5756651931
 20
357.2681172457
 11
373.8979960979
 21
358.904155166
  0
LINE
  5
37F
100
AcDbEntity
  8
0
100
AcDbLine
 62
7
  6
CONTINUOUS
 10
363.7236372178
 20
385.3575765549
 11
364.265771951
 21
384.0487475292
  0
LINE
  5
380
100
AcDbEntity
  8
0
100
AcDbLine
 62
7
  6
CONTINUOUS
 10
366.0721514952
 20
384.4136270148
 11
365.530016568
 21
385.7224565085
  0
LINE
  5
381
100
AcDbEntity
  8
0
100
AcDbLine
 62
7
  6
CONTINUOUS
 10
355.444048413
 20
366.5941699909
 11
355.9230815248
 21
364.492508577
  0
LINE
  5
382
100
AcDbEntity
  8
0
100
AcDbLine
 62
7
  6
CONTINUOUS
 10
361.9496675387
 20
350.8882160659
 11
362.4287006505
 21
348.786554652
  0
LINE
  5
383
100
AcDbEntity
  8
0
100
AcDbLine
 62
7
  6
CONTINUOUS
 10
357.5939275227
 20
365.18459565
 11
357.2504283558
 21
366.9590490932
  0
LINE
  5
384
100
AcDbEntity
  8
0
100
AcDbLine
 62
7
  6
CONTINUOUS
 10
363.7653773786
 20
349.3402242813
 11
363.4218775532
 21
351.1146796453
  0
LINE
  5
385
100
AcDbEntity
  8
0
100
AcDbLine
 62
7
  6
CONTINUOUS
 10
361.8772355739
 20
352.0082554766
 11
361.9496675387
 21
350.8882160659
  0
LINE
  5
386
100
AcDbEntity
  8
0
100
AcDbLine
 62
7
  6
CONTINUOUS
 10
366.4249810639
 20
380.7263017969
 11
366.5511846362
 21
382.311965613
  0
LINE
  5
387
100
AcDbEntity
  8
0
100
AcDbLine
 62
7
  6
CONTINUOUS
 10
357.2504283558
 20
366.9590490932
 11
357.5121655145
 21
368.2175058869
  0
LINE
  5
388
100
AcDbEntity
  8
0
100
AcDbLine
 62
7
  6
CONTINUOUS
 10
364.6092713118
 20
382.2742936179
 11
364.3475341531
 21
381.0158368242
  0
LINE
  5
389
100
AcDbEntity
  8
0
100
AcDbLine
 62
7
  6
CONTINUOUS
 10
362.1389727911
 20
353.2667122945
 11
361.8772355739
 21
352.0082554766
  0
LINE
  5
38A
100
AcDbEntity
  8
0
100
AcDbLine
 62
7
  6
CONTINUOUS
 10
363.4218775532
 20
351.1146796453
 11
363.6836147119
 21
352.3731364391
  0
LINE
  5
38B
100
AcDbEntity
  8
0
100
AcDbLine
 62
7
  6
CONTINUOUS
 10
365.6304395738
 20
378.8638022543
 11
366.4249810639
 21
380.7263017969
  0
LINE
  5
38C
100
AcDbEntity
  8
0
100
AcDbLine
 62
7
  6
CONTINUOUS
 10
370.0399505973
 20
367.2731278419
 11
368.57706909
 21
365.1337949934
  0
LINE
  5
38D
100
AcDbEntity
  8
0
100
AcDbLine
 62
7
  6
CONTINUOUS
 10
363.2045815709
 20
354.4747978408
 11
362.1389727911
 21
353.2667122945
  0
LINE
  5
38E
100
AcDbEntity
  8
RUNDUNGEN
100
AcDbLine
 62
7
  6
CONTINUOUS
 10
384.9613595592
 20
372.1127270633
 11
363.3855353156
 21
424.2013745714
  0
LINE
  5
38F
100
AcDbEntity
  8
0
100
AcDbLine
 62
7
  6
CONTINUOUS
 10
366.5511846362
 20
382.311965613
 11
366.0721514952
 21
384.4136270148
  0
LINE
  5
390
100
AcDbEntity
  8
0
100
AcDbLine
 62
7
  6
CONTINUOUS
 10
372.1080667184
 20
368.8964655254
 11
371.6290335774
 21
370.9981269272
  0
LINE
  5
391
100
AcDbEntity
  8
0
100
AcDbLine
 62
7
  6
CONTINUOUS
 10
364.265771951
 20
384.0487475292
 11
364.6092713118
 21
382.2742936179
  0
LINE
  5
392
100
AcDbEntity
  8
0
100
AcDbLine
 62
7
  6
CONTINUOUS
 10
369.9581878136
 20
370.3060399512
 11
370.301687756
 21
368.5315846356
  0
LINE
  5
393
100
AcDbEntity
  8
0
100
AcDbLine
 62
7
  6
CONTINUOUS
 10
371.7832283553
 20
366.8451754195
 11
372.1080667184
 21
368.8964655254
  0
LINE
  5
394
100
AcDbEntity
  8
0
100
AcDbLine
 62
7
  6
CONTINUOUS
 10
370.301687756
 20
368.5315846356
 11
370.0399505973
 21
367.2731278419
  0
LINE
  5
395
100
AcDbEntity
  8
0
100
AcDbLine
 62
7
  6
CONTINUOUS
 10
371.1873220439
 20
365.4483012305
 11
371.7832283553
 21
366.8451754195
  0
LINE
  5
396
100
AcDbEntity
  8
RUNDUNGEN
100
AcDbLine
 62
7
  6
CONTINUOUS
 10
388.5199914142
 20
310.7793626876
 11
388.5199914142
 21
354.2222766002
  0
LINE
  5
397
100
AcDbEntity
  8
FASEN
100
AcDbLine
 62
7
  6
CONTINUOUS
 10
337.5199914043
 20
280.7793626777
 11
339.5199914023
 21
282.7793626757
  0
LINE
  5
398
100
AcDbEntity
  8
FASEN
100
AcDbLine
 62
7
  6
CONTINUOUS
 10
510.4973617953
 20
280.7793626876
 11
508.4973617953
 21
282.7793626876
  0
LINE
  5
399
100
AcDbEntity
  8
FASEN
100
AcDbLine
 62
7
  6
CONTINUOUS
 10
680.4973617953
 20
280.7793626876
 11
660.4973617953
 21
280.7793626876
  0
LINE
  5
39A
100
AcDbEntity
  8
FASEN
100
AcDbLine
 62
7
  6
CONTINUOUS
 10
530.4973617953
 20
280.7793626876
 11
510.4973617953
 21
280.7793626876
  0
LINE
  5
39B
100
AcDbEntity
  8
BEZUGSACHSEN
100
AcDbLine
 62
7
  6
CONTINUOUS
 10
495.4973617953
 20
310.7793626876
 11
495.4973617953
 21
343.2793626876
  0
LINE
  5
39C
100
AcDbEntity
  8
BEZUGSACHSEN
100
AcDbLine
 62
7
  6
CONTINUOUS
 10
495.6545066732
 20
330.7793626876
 11
495.6545066732
 21
343.2793626876
  0
LINE
  5
39D
100
AcDbEntity
  8
FASEN
100
AcDbLine
 62
7
  6
CONTINUOUS
 10
682.4973617953
 20
282.7793626876
 11
658.4973617953
 21
282.7793626876
  0
LINE
  5
39E
100
AcDbEntity
  8
FASEN
100
AcDbLine
 62
7
  6
CONTINUOUS
 10
532.4973617953
 20
282.7793626876
 11
508.4973617953
 21
282.7793626876
  0
LINE
  5
39F
100
AcDbEntity
  8
0
100
AcDbLine
 62
7
  6
CONTINUOUS
 10
502.4973617953
 20
343.2793626876
 11
502.4973617953
 21
345.7793626876
  0
LINE
  5
3A0
100
AcDbEntity
  8
0
100
AcDbLine
 62
7
  6
CONTINUOUS
 10
503.4789913517
 20
345.7793626876
 11
503.4789913517
 21
345.9793626876
  0
LINE
  5
3A1
100
AcDbEntity
  8
0
100
AcDbLine
 62
7
  6
CONTINUOUS
 10
503.6460597318
 20
345.7793626876
 11
503.6460597318
 21
345.9793626876
  0
LINE
  5
3A2
100
AcDbEntity
  8
0
100
AcDbLine
 62
7
  6
CONTINUOUS
 10
504.2029543321
 20
345.7793626876
 11
504.2029543321
 21
345.9793626876
  0
LINE
  5
3A3
100
AcDbEntity
  8
0
100
AcDbLine
 62
7
  6
CONTINUOUS
 10
504.3700227122
 20
345.7793626876
 11
504.3700227122
 21
345.9793626876
  0
LINE
  5
3A4
100
AcDbEntity
  8
0
100
AcDbLine
 62
7
  6
CONTINUOUS
 10
508.2695179506
 20
345.7793626876
 11
508.2695179506
 21
345.9793626876
  0
LINE
  5
3A5
100
AcDbEntity
  8
BEZUGSACHSEN
100
AcDbLine
 62
7
  6
CONTINUOUS
 10
508.4973617953
 20
282.7793626876
 11
508.4973617953
 21
310.7793626876
  0
LINE
  5
3A6
100
AcDbEntity
  8
0
100
AcDbLine
 62
7
  6
CONTINUOUS
 10
508.6041737727
 20
345.7793626876
 11
508.6041737727
 21
345.9793626876
  0
LINE
  5
3A7
100
AcDbEntity
  8
0
100
AcDbLine
 62
7
  6
CONTINUOUS
 10
508.7864159605
 20
345.7793626876
 11
508.7864159605
 21
345.9793626876
  0
LINE
  5
3A8
100
AcDbEntity
  8
0
100
AcDbLine
 62
7
  6
CONTINUOUS
 10
508.8196180726
 20
345.7793626876
 11
508.8196180726
 21
345.9793626876
  0
LINE
  5
3A9
100
AcDbEntity
  8
0
100
AcDbLine
 62
7
  6
CONTINUOUS
 10
508.9631404197
 20
345.7793626876
 11
508.9631404197
 21
345.9793626876
  0
LINE
  5
3AA
100
AcDbEntity
  8
0
100
AcDbLine
 62
7
  6
CONTINUOUS
 10
509.2252840744
 20
345.7793626876
 11
509.2252840744
 21
345.9793626876
  0
LINE
  5
3AB
100
AcDbEntity
  8
0
100
AcDbLine
 62
7
  6
CONTINUOUS
 10
510.7483410187
 20
345.7793626876
 11
510.7483410187
 21
345.9793626876
  0
LINE
  5
3AC
100
AcDbEntity
  8
0
100
AcDbLine
 62
7
  6
CONTINUOUS
 10
512.3414777034
 20
345.7793626876
 11
512.3414777034
 21
345.9793626876
  0
LINE
  5
3AD
100
AcDbEntity
  8
0
100
AcDbLine
 62
7
  6
CONTINUOUS
 10
512.7999869954
 20
345.7793626876
 11
512.7999869954
 21
345.9793626876
  0
LINE
  5
3AE
100
AcDbEntity
  8
0
100
AcDbLine
 62
7
  6
CONTINUOUS
 10
513.8522575473
 20
345.7793626876
 11
513.8522575473
 21
345.9793626876
  0
LINE
  5
3AF
100
AcDbEntity
  8
0
100
AcDbLine
 62
7
  6
CONTINUOUS
 10
514.0644527354
 20
345.7793626876
 11
514.0644527354
 21
345.9793626876
  0
LINE
  5
3B0
100
AcDbEntity
  8
0
100
AcDbLine
 62
7
  6
CONTINUOUS
 10
514.3191216405
 20
345.7793626876
 11
514.3191216405
 21
345.9793626876
  0
LINE
  5
3B1
100
AcDbEntity
  8
0
100
AcDbLine
 62
7
  6
CONTINUOUS
 10
514.6340241632
 20
345.7793626876
 11
514.6340241632
 21
345.9793626876
  0
LINE
  5
3B2
100
AcDbEntity
  8
0
100
AcDbLine
 62
7
  6
CONTINUOUS
 10
515.0925336738
 20
345.7793626876
 11
515.0925336738
 21
345.9793626876
  0
LINE
  5
3B3
100
AcDbEntity
  8
0
100
AcDbLine
 62
7
  6
CONTINUOUS
 10
516.1448042257
 20
345.7793626876
 11
516.1448042257
 21
345.9793626876
  0
LINE
  5
3B4
100
AcDbEntity
  8
0
100
AcDbLine
 62
7
  6
CONTINUOUS
 10
516.2381068984
 20
345.7793626876
 11
516.2381068984
 21
345.9793626876
  0
LINE
  5
3B5
100
AcDbEntity
  8
0
100
AcDbLine
 62
7
  6
CONTINUOUS
 10
517.0568150206
 20
345.7793626876
 11
517.0568150206
 21
345.9793626876
  0
LINE
  5
3B6
100
AcDbEntity
  8
0
100
AcDbLine
 62
7
  6
CONTINUOUS
 10
517.1085112197
 20
345.7793626876
 11
517.1085112197
 21
345.9793626876
  0
LINE
  5
3B7
100
AcDbEntity
  8
0
100
AcDbLine
 62
7
  6
CONTINUOUS
 10
517.3152996137
 20
345.7793626876
 11
517.3152996137
 21
345.9793626876
  0
LINE
  5
3B8
100
AcDbEntity
  8
0
100
AcDbLine
 62
7
  6
CONTINUOUS
 10
517.6151438548
 20
345.7793626876
 11
517.6151438548
 21
345.9793626876
  0
LINE
  5
3B9
100
AcDbEntity
  8
0
100
AcDbLine
 62
7
  6
CONTINUOUS
 10
518.0183840918
 20
345.7793626876
 11
518.0183840918
 21
345.9793626876
  0
LINE
  5
3BA
100
AcDbEntity
  8
RUNDUNGEN
100
AcDbLine
 62
7
  6
CONTINUOUS
 10
695.4973617953
 20
310.7793626876
 11
645.4973617953
 21
310.7793626876
  0
LINE
  5
3BB
100
AcDbEntity
  8
BEZUGSACHSEN
100
AcDbLine
 62
7
  6
CONTINUOUS
 10
495.4973617953
 20
310.7793626876
 11
645.4973617953
 21
310.7793626876
  0
LINE
  5
3BC
100
AcDbEntity
  8
0
100
AcDbLine
 62
7
  6
CONTINUOUS
 10
520.0035684285
 20
345.7793626876
 11
520.0035684285
 21
345.9793626876
  0
LINE
  5
3BD
100
AcDbEntity
  8
0
100
AcDbLine
 62
7
  6
CONTINUOUS
 10
520.4973617953
 20
343.2793626876
 11
520.4895443515
 21
345.9793626876
  0
LINE
  5
3BE
100
AcDbEntity
  8
BEZUGSACHSEN
100
AcDbLine
 62
7
  6
CONTINUOUS
 10
532.4973617953
 20
282.7793626876
 11
532.4973617953
 21
310.7793626876
  0
LINE
  5
3BF
100
AcDbEntity
  8
BEZUGSACHSEN
100
AcDbLine
 62
7
  6
CONTINUOUS
 10
695.4973617953
 20
330.7793626876
 11
695.3402169175
 21
330.7793626876
  0
LINE
  5
3C0
100
AcDbEntity
  8
BEZUGSACHSEN
100
AcDbLine
 62
7
  6
CONTINUOUS
 10
495.4973617953
 20
330.7793626876
 11
495.6545066732
 21
330.7793626876
  0
LINE
  5
3C1
100
AcDbEntity
  8
0
100
AcDbLine
 62
7
  6
CONTINUOUS
 10
538.4973617953
 20
343.2793626876
 11
538.4973617953
 21
345.7793626876
  0
LINE
  5
3C2
100
AcDbEntity
  8
RUNDUNGEN
100
AcDbLine
 62
7
  6
CONTINUOUS
 10
645.4973617953
 20
343.2793626876
 11
603.2473617953
 21
343.2793626876
  0
LINE
  5
3C3
100
AcDbEntity
  8
RUNDUNGEN
100
AcDbLine
 62
7
  6
CONTINUOUS
 10
587.7473617953
 20
343.2793626876
 11
545.4973617953
 21
343.2793626876
  0
LINE
  5
3C4
100
AcDbEntity
  8
BEZUGSACHSEN
100
AcDbLine
 62
7
  6
CONTINUOUS
 10
495.4973617953
 20
343.2793626876
 11
545.4973617953
 21
343.2793626876
  0
LINE
  5
3C5
100
AcDbEntity
  8
BEZUGSACHSEN
100
AcDbLine
 62
7
  6
CONTINUOUS
 10
645.4973617953
 20
343.2793626876
 11
695.4973617953
 21
343.2793626876
  0
LINE
  5
3C6
100
AcDbEntity
  8
0
100
AcDbLine
 62
7
  6
CONTINUOUS
 10
502.4973617953
 20
345.7793626876
 11
538.4973617953
 21
345.7793626876
  0
LINE
  5
3C7
100
AcDbEntity
  8
0
100
AcDbLine
 62
7
  6
CONTINUOUS
 10
652.4973617953
 20
345.7793626876
 11
688.4973617953
 21
345.7793626876
  0
LINE
  5
3C8
100
AcDbEntity
  8
0
100
AcDbLine
 62
7
  6
CONTINUOUS
 10
503.4789913517
 20
345.9793626876
 11
514.6162647238
 21
345.9793626876
  0
LINE
  5
3C9
100
AcDbEntity
  8
0
100
AcDbLine
 62
7
  6
CONTINUOUS
 10
514.6340241632
 20
345.9793626876
 11
516.2381068984
 21
345.9793626876
  0
LINE
  5
3CA
100
AcDbEntity
  8
0
100
AcDbLine
 62
7
  6
CONTINUOUS
 10
517.0568150206
 20
345.9793626876
 11
520.4895443515
 21
345.9793626876
  0
LINE
  5
3CB
100
AcDbEntity
  8
0
100
AcDbLine
 62
7
  6
CONTINUOUS
 10
670.5051792392
 20
345.9793626876
 11
674.042127725
 21
345.9793626876
  0
LINE
  5
3CC
100
AcDbEntity
  8
0
100
AcDbLine
 62
7
  6
CONTINUOUS
 10
674.773676345
 20
345.9793626876
 11
687.6903945779
 21
345.9793626876
  0
LINE
  5
3CD
100
AcDbEntity
  8
0
100
AcDbLine
 62
7
  6
CONTINUOUS
 10
609.2473617953
 20
355.9193626876
 11
609.7473617953
 21
355.9193626876
  0
LINE
  5
3CE
100
AcDbEntity
  8
FASEN
100
AcDbLine
 62
7
  6
CONTINUOUS
 10
660.4973617953
 20
280.7793626876
 11
658.4973617953
 21
282.7793626876
  0
LINE
  5
3CF
100
AcDbEntity
  8
BEZUGSACHSEN
100
AcDbLine
 62
7
  6
CONTINUOUS
 10
569.4973617953
 20
482.7934206667
 11
569.4973617953
 21
397.4651524395
  0
LINE
  5
3D0
100
AcDbEntity
  8
BEZUGSACHSEN
100
AcDbLine
 62
7
  6
CONTINUOUS
 10
566.5949635114
 20
381.0050889403
 11
557.6536224905
 21
356.4389563858
  0
LINE
  5
3D1
100
AcDbEntity
  8
0
100
AcDbLine
 62
7
  6
CONTINUOUS
 10
609.2473617953
 20
361.9749373995
 11
609.7473617953
 21
361.9749373995
  0
LINE
  5
3D2
100
AcDbEntity
  8
0
100
AcDbLine
 62
7
  6
CONTINUOUS
 10
609.2473617953
 20
368.8366065643
 11
609.7473617953
 21
368.8366065643
  0
LINE
  5
3D3
100
AcDbEntity
  8
0
100
AcDbLine
 62
7
  6
CONTINUOUS
 10
609.2473617953
 20
370.1372792465
 11
609.7473617953
 21
370.1372792465
  0
LINE
  5
3D4
100
AcDbEntity
  8
0
100
AcDbLine
 62
7
  6
CONTINUOUS
 10
609.2473617953
 20
370.894364502
 11
609.7473617953
 21
370.894364502
  0
LINE
  5
3D5
100
AcDbEntity
  8
0
100
AcDbLine
 62
7
  6
CONTINUOUS
 10
581.2473617953
 20
396.6618899324
 11
581.2473617953
 21
408.3608987685
  0
LINE
  5
3D6
100
AcDbEntity
  8
0
100
AcDbLine
 62
7
  6
CONTINUOUS
 10
581.2473617953
 20
409.2868902432
 11
581.2473617953
 21
414.0453988873
  0
LINE
  5
3D7
100
AcDbEntity
  8
0
100
AcDbLine
 62
7
  6
CONTINUOUS
 10
581.2473617953
 20
414.3015786615
 11
581.2473617953
 21
420.9858990793
  0
LINE
  5
3D8
100
AcDbEntity
  8
RUNDUNGEN
100
AcDbLine
 62
7
  6
CONTINUOUS
 10
581.7473617953
 20
343.2793626876
 11
581.7473617953
 21
492.2787313646
  0
LINE
  5
3D9
100
AcDbEntity
  8
0
100
AcDbLine
 62
7
  6
CONTINUOUS
 10
609.2473617953
 20
371.2367051484
 11
609.7473617953
 21
371.2367051484
  0
LINE
  5
3DA
100
AcDbEntity
  8
0
100
AcDbLine
 62
7
  6
CONTINUOUS
 10
609.2473617953
 20
375.1264696927
 11
609.7473617953
 21
375.1264696927
  0
LINE
  5
3DB
100
AcDbEntity
  8
0
100
AcDbLine
 62
7
  6
CONTINUOUS
 10
609.2473617953
 20
376.8418878019
 11
609.7473617953
 21
376.8418878019
  0
LINE
  5
3DC
100
AcDbEntity
  8
0
100
AcDbLine
 62
7
  6
CONTINUOUS
 10
609.2473617953
 20
377.9498517878
 11
609.7473617953
 21
377.9498517878
  0
LINE
  5
3DD
100
AcDbEntity
  8
0
100
AcDbLine
 62
7
  6
CONTINUOUS
 10
609.2473617953
 20
378.9081830056
 11
609.7473617953
 21
378.9081830056
  0
LINE
  5
3DE
100
AcDbEntity
  8
0
100
AcDbLine
 62
7
  6
CONTINUOUS
 10
609.2473617953
 20
379.7094544319
 11
609.7473617953
 21
379.7094544319
  0
LINE
  5
3DF
100
AcDbEntity
  8
0
100
AcDbLine
 62
7
  6
CONTINUOUS
 10
609.2473617953
 20
383.7035569667
 11
609.7473617953
 21
383.7035569667
  0
LINE
  5
3E0
100
AcDbEntity
  8
0
100
AcDbLine
 62
7
  6
CONTINUOUS
 10
609.2473617953
 20
385.4189742579
 11
609.7473617953
 21
385.4189742579
  0
LINE
  5
3E1
100
AcDbEntity
  8
0
100
AcDbLine
 62
7
  6
CONTINUOUS
 10
609.2473617953
 20
387.7061967675
 11
609.7473617953
 21
387.7061967675
  0
LINE
  5
3E2
100
AcDbEntity
  8
0
100
AcDbLine
 62
7
  6
CONTINUOUS
 10
609.2473617953
 20
394.5678659323
 11
609.7473617953
 21
394.5678659323
  0
LINE
  5
3E3
100
AcDbEntity
  8
0
100
AcDbLine
 62
7
  6
CONTINUOUS
 10
609.2473617953
 20
395.8685394325
 11
609.7473617953
 21
395.8685394325
  0
LINE
  5
3E4
100
AcDbEntity
  8
0
100
AcDbLine
 62
7
  6
CONTINUOUS
 10
581.7473617953
 20
396.6618899324
 11
581.2473617953
 21
396.6618899324
  0
LINE
  5
3E5
100
AcDbEntity
  8
0
100
AcDbLine
 62
7
  6
CONTINUOUS
 10
609.2473617953
 20
396.7544658698
 11
609.7473617953
 21
396.7544658698
  0
LINE
  5
3E6
100
AcDbEntity
  8
0
100
AcDbLine
 62
7
  6
CONTINUOUS
 10
609.2473617953
 20
397.3827083075
 11
609.7473617953
 21
397.3827083075
  0
LINE
  5
3E7
100
AcDbEntity
  8
0
100
AcDbLine
 62
7
  6
CONTINUOUS
 10
609.2473617953
 20
397.4391471627
 11
609.7473617953
 21
397.4391471627
  0
LINE
  5
3E8
100
AcDbEntity
  8
0
100
AcDbLine
 62
7
  6
CONTINUOUS
 10
581.7473617953
 20
397.5596663043
 11
581.2473617953
 21
397.5596663043
  0
LINE
  5
3E9
100
AcDbEntity
  8
RUNDUNGEN
100
AcDbLine
 62
7
  6
CONTINUOUS
 10
609.2473617953
 20
492.2787313647
 11
609.2473617953
 21
343.2793626876
  0
LINE
  5
3EA
100
AcDbEntity
  8
0
100
AcDbLine
 62
7
  6
CONTINUOUS
 10
609.7473617953
 20
397.4391471627
 11
609.7473617953
 21
355.9193626876
  0
LINE
  5
3EB
100
AcDbEntity
  8
0
100
AcDbLine
 62
7
  6
CONTINUOUS
 10
581.7473617953
 20
400.6580162358
 11
581.2473617953
 21
400.6580162358
  0
LINE
  5
3EC
100
AcDbEntity
  8
0
100
AcDbLine
 62
7
  6
CONTINUOUS
 10
581.7473617953
 20
401.5557926077
 11
581.2473617953
 21
401.5557926077
  0
LINE
  5
3ED
100
AcDbEntity
  8
0
100
AcDbLine
 62
7
  6
CONTINUOUS
 10
581.7473617953
 20
401.6765783507
 11
581.2473617953
 21
401.6765783507
  0
LINE
  5
3EE
100
AcDbEntity
  8
0
100
AcDbLine
 62
7
  6
CONTINUOUS
 10
581.7473617953
 20
402.5743547226
 11
581.2473617953
 21
402.5743547226
  0
LINE
  5
3EF
100
AcDbEntity
  8
0
100
AcDbLine
 62
7
  6
CONTINUOUS
 10
581.7473617953
 20
408.3609036827
 11
581.2473617953
 21
408.3609036827
  0
LINE
  5
3F0
100
AcDbEntity
  8
0
100
AcDbLine
 62
7
  6
CONTINUOUS
 10
581.7473617953
 20
409.2868902432
 11
581.2473617953
 21
409.2868902432
  0
LINE
  5
3F1
100
AcDbEntity
  8
0
100
AcDbLine
 62
7
  6
CONTINUOUS
 10
581.7473617953
 20
410.1846666151
 11
581.2473617953
 21
410.1846666151
  0
LINE
  5
3F2
100
AcDbEntity
  8
RUNDUNGEN
100
AcDbLine
 62
7
  6
CONTINUOUS
 10
621.4973617953
 20
482.7934206667
 11
621.4973617953
 21
397.4651524395
  0
LINE
  5
3F3
100
AcDbEntity
  8
0
100
AcDbLine
 62
7
  6
CONTINUOUS
 10
581.7473617953
 20
414.3015786615
 11
581.2473617953
 21
414.3015786615
  0
LINE
  5
3F4
100
AcDbEntity
  8
0
100
AcDbLine
 62
7
  6
CONTINUOUS
 10
581.7473617953
 20
415.1993550334
 11
581.2473617953
 21
415.1993550334
  0
LINE
  5
3F5
100
AcDbEntity
  8
RUNDUNGEN
100
AcDbLine
 62
7
  6
CONTINUOUS
 10
624.3997600793
 20
381.0050889403
 11
633.3410998498
 21
356.4389598211
  0
LINE
  5
3F6
100
AcDbEntity
  8
FASEN
100
AcDbLine
 62
7
  6
CONTINUOUS
 10
530.4973617953
 20
280.7793626876
 11
532.4973617953
 21
282.7793626876
  0
LINE
  5
3F7
100
AcDbEntity
  8
0
100
AcDbLine
 62
7
  6
CONTINUOUS
 10
581.7473617953
 20
420.9859039935
 11
581.2473617953
 21
420.9859039935
  0
LINE
  5
3F8
100
AcDbEntity
  8
0
100
AcDbLine
 62
7
  6
CONTINUOUS
 10
652.4973617953
 20
343.2793626876
 11
652.4973617953
 21
345.7793626876
  0
LINE
  5
3F9
100
AcDbEntity
  8
BEZUGSACHSEN
100
AcDbLine
 62
7
  6
CONTINUOUS
 10
658.4973617953
 20
282.7793626876
 11
658.4973617953
 21
310.7793626876
  0
LINE
  5
3FA
100
AcDbEntity
  8
0
100
AcDbLine
 62
7
  6
CONTINUOUS
 10
670.4973617953
 20
343.2793626876
 11
670.5051792392
 21
345.9793626876
  0
LINE
  5
3FB
100
AcDbEntity
  8
0
100
AcDbLine
 62
7
  6
CONTINUOUS
 10
671.0014753233
 20
345.7793626876
 11
671.0014753233
 21
345.9793626876
  0
LINE
  5
3FC
100
AcDbEntity
  8
0
100
AcDbLine
 62
7
  6
CONTINUOUS
 10
671.2186135048
 20
345.7793626876
 11
671.2186135048
 21
345.9793626876
  0
LINE
  5
3FD
100
AcDbEntity
  8
0
100
AcDbLine
 62
7
  6
CONTINUOUS
 10
672.6247857038
 20
345.7793626876
 11
672.6247857038
 21
345.9793626876
  0
LINE
  5
3FE
100
AcDbEntity
  8
0
100
AcDbLine
 62
7
  6
CONTINUOUS
 10
673.0693755952
 20
345.7793626876
 11
673.0693755952
 21
345.9793626876
  0
LINE
  5
3FF
100
AcDbEntity
  8
0
100
AcDbLine
 62
7
  6
CONTINUOUS
 10
673.6483878511
 20
345.7793626876
 11
673.6483878511
 21
345.9793626876
  0
LINE
  5
400
100
AcDbEntity
  8
0
100
AcDbLine
 62
7
  6
CONTINUOUS
 10
673.7828132218
 20
345.7793626876
 11
673.7828132218
 21
345.9793626876
  0
LINE
  5
401
100
AcDbEntity
  8
0
100
AcDbLine
 62
7
  6
CONTINUOUS
 10
673.896548893
 20
345.7793626876
 11
673.896548893
 21
345.9793626876
  0
LINE
  5
402
100
AcDbEntity
  8
0
100
AcDbLine
 62
7
  6
CONTINUOUS
 10
673.9379085701
 20
345.7793626876
 11
673.9379085701
 21
345.9793626876
  0
LINE
  5
403
100
AcDbEntity
  8
0
100
AcDbLine
 62
7
  6
CONTINUOUS
 10
673.9984680124
 20
345.7793626876
 11
673.9984680124
 21
345.9793626876
  0
LINE
  5
404
100
AcDbEntity
  8
0
100
AcDbLine
 62
7
  6
CONTINUOUS
 10
674.042127725
 20
345.7793626876
 11
674.042127725
 21
345.9793626876
  0
LINE
  5
405
100
AcDbEntity
  8
0
100
AcDbLine
 62
7
  6
CONTINUOUS
 10
674.7566166923
 20
345.7793626876
 11
674.7566166923
 21
345.9793626876
  0
LINE
  5
406
100
AcDbEntity
  8
0
100
AcDbLine
 62
7
  6
CONTINUOUS
 10
674.773676345
 20
345.7793626876
 11
674.773676345
 21
345.9793626876
  0
LINE
  5
407
100
AcDbEntity
  8
0
100
AcDbLine
 62
7
  6
CONTINUOUS
 10
674.943572076
 20
345.7793626876
 11
674.943572076
 21
345.9793626876
  0
LINE
  5
408
100
AcDbEntity
  8
0
100
AcDbLine
 62
7
  6
CONTINUOUS
 10
675.1813566606
 20
345.7793626876
 11
675.1813566606
 21
345.9793626876
  0
LINE
  5
409
100
AcDbEntity
  8
0
100
AcDbLine
 62
7
  6
CONTINUOUS
 10
675.5295033818
 20
345.7793626876
 11
675.5295033818
 21
345.9793626876
  0
LINE
  5
40A
100
AcDbEntity
  8
0
100
AcDbLine
 62
7
  6
CONTINUOUS
 10
675.8351763888
 20
345.7793626876
 11
675.8351763888
 21
345.9793626876
  0
LINE
  5
40B
100
AcDbEntity
  8
0
100
AcDbLine
 62
7
  6
CONTINUOUS
 10
676.2512115294
 20
345.7793626876
 11
676.2512115294
 21
345.9793626876
  0
LINE
  5
40C
100
AcDbEntity
  8
0
100
AcDbLine
 62
7
  6
CONTINUOUS
 10
676.6247729589
 20
345.7793626876
 11
676.6247729589
 21
345.9793626876
  0
LINE
  5
40D
100
AcDbEntity
  8
0
100
AcDbLine
 62
7
  6
CONTINUOUS
 10
677.0662228049
 20
345.7793626876
 11
677.0662228049
 21
345.9793626876
  0
LINE
  5
40E
100
AcDbEntity
  8
0
100
AcDbLine
 62
7
  6
CONTINUOUS
 10
677.3548359405
 20
345.7793626876
 11
677.3548359405
 21
345.9793626876
  0
LINE
  5
40F
100
AcDbEntity
  8
0
100
AcDbLine
 62
7
  6
CONTINUOUS
 10
677.6009753354
 20
345.7793626876
 11
677.6009753354
 21
345.9793626876
  0
LINE
  5
410
100
AcDbEntity
  8
0
100
AcDbLine
 62
7
  6
CONTINUOUS
 10
677.6538567424
 20
345.7793626876
 11
677.6538567424
 21
345.9793626876
  0
LINE
  5
411
100
AcDbEntity
  8
0
100
AcDbLine
 62
7
  6
CONTINUOUS
 10
679.1769136867
 20
345.7793626876
 11
679.1769136867
 21
345.9793626876
  0
LINE
  5
412
100
AcDbEntity
  8
0
100
AcDbLine
 62
7
  6
CONTINUOUS
 10
679.5493775812
 20
345.7793626876
 11
679.5493775812
 21
345.9793626876
  0
LINE
  5
413
100
AcDbEntity
  8
0
100
AcDbLine
 62
7
  6
CONTINUOUS
 10
679.9135404125
 20
345.7793626876
 11
679.9135404125
 21
345.9793626876
  0
LINE
  5
414
100
AcDbEntity
  8
0
100
AcDbLine
 62
7
  6
CONTINUOUS
 10
680.3880234837
 20
345.7793626876
 11
680.3880234837
 21
345.9793626876
  0
LINE
  5
415
100
AcDbEntity
  8
0
100
AcDbLine
 62
7
  6
CONTINUOUS
 10
680.7355856462
 20
345.7793626876
 11
680.7355856462
 21
345.9793626876
  0
LINE
  5
416
100
AcDbEntity
  8
0
100
AcDbLine
 62
7
  6
CONTINUOUS
 10
681.0748466975
 20
345.7793626876
 11
681.0748466975
 21
345.9793626876
  0
LINE
  5
417
100
AcDbEntity
  8
0
100
AcDbLine
 62
7
  6
CONTINUOUS
 10
681.9022485366
 20
345.7793626876
 11
681.9022485366
 21
345.9793626876
  0
LINE
  5
418
100
AcDbEntity
  8
0
100
AcDbLine
 62
7
  6
CONTINUOUS
 10
682.1145888145
 20
345.7793626876
 11
682.1145888145
 21
345.9793626876
  0
LINE
  5
419
100
AcDbEntity
  8
0
100
AcDbLine
 62
7
  6
CONTINUOUS
 10
682.2001124592
 20
345.7793626876
 11
682.2001124592
 21
345.9793626876
  0
LINE
  5
41A
100
AcDbEntity
  8
BEZUGSACHSEN
100
AcDbLine
 62
7
  6
CONTINUOUS
 10
682.4973617953
 20
282.7793626876
 11
682.4973617953
 21
310.7793626876
  0
LINE
  5
41B
100
AcDbEntity
  8
0
100
AcDbLine
 62
7
  6
CONTINUOUS
 10
682.9844001464
 20
345.7793626876
 11
682.9844001464
 21
345.9793626876
  0
LINE
  5
41C
100
AcDbEntity
  8
0
100
AcDbLine
 62
7
  6
CONTINUOUS
 10
683.4565499812
 20
345.7793626876
 11
683.4565499812
 21
345.9793626876
  0
LINE
  5
41D
100
AcDbEntity
  8
0
100
AcDbLine
 62
7
  6
CONTINUOUS
 10
683.7739450948
 20
345.7793626876
 11
683.7739450948
 21
345.9793626876
  0
LINE
  5
41E
100
AcDbEntity
  8
0
100
AcDbLine
 62
7
  6
CONTINUOUS
 10
685.8986190758
 20
345.7793626876
 11
685.8986190758
 21
345.9793626876
  0
LINE
  5
41F
100
AcDbEntity
  8
0
100
AcDbLine
 62
7
  6
CONTINUOUS
 10
686.0890564345
 20
345.7793626876
 11
686.0890564345
 21
345.9793626876
  0
LINE
  5
420
100
AcDbEntity
  8
0
100
AcDbLine
 62
7
  6
CONTINUOUS
 10
686.1744093752
 20
345.7793626876
 11
686.1744093752
 21
345.9793626876
  0
LINE
  5
421
100
AcDbEntity
  8
0
100
AcDbLine
 62
7
  6
CONTINUOUS
 10
686.3438407348
 20
345.7793626876
 11
686.3438407348
 21
345.9793626876
  0
LINE
  5
422
100
AcDbEntity
  8
0
100
AcDbLine
 62
7
  6
CONTINUOUS
 10
686.6906798161
 20
345.7793626876
 11
686.6906798161
 21
345.9793626876
  0
LINE
  5
423
100
AcDbEntity
  8
0
100
AcDbLine
 62
7
  6
CONTINUOUS
 10
687.0614499547
 20
345.7793626876
 11
687.0614499547
 21
345.9793626876
  0
LINE
  5
424
100
AcDbEntity
  8
0
100
AcDbLine
 62
7
  6
CONTINUOUS
 10
687.262788971
 20
345.7793626876
 11
687.262788971
 21
345.9793626876
  0
LINE
  5
425
100
AcDbEntity
  8
0
100
AcDbLine
 62
7
  6
CONTINUOUS
 10
687.3953662819
 20
345.7793626876
 11
687.3953662819
 21
345.9793626876
  0
LINE
  5
426
100
AcDbEntity
  8
0
100
AcDbLine
 62
7
  6
CONTINUOUS
 10
687.4272739933
 20
345.7793626876
 11
687.4272739933
 21
345.9793626876
  0
LINE
  5
427
100
AcDbEntity
  8
0
100
AcDbLine
 62
7
  6
CONTINUOUS
 10
687.515732239
 20
345.7793626876
 11
687.515732239
 21
345.9793626876
  0
LINE
  5
428
100
AcDbEntity
  8
0
100
AcDbLine
 62
7
  6
CONTINUOUS
 10
687.6903945779
 20
345.7793626876
 11
687.6903945779
 21
345.9793626876
  0
LINE
  5
429
100
AcDbEntity
  8
0
100
AcDbLine
 62
7
  6
CONTINUOUS
 10
688.4973617953
 20
343.2793626876
 11
688.4973617953
 21
345.7793626876
  0
LINE
  5
42A
100
AcDbEntity
  8
BEZUGSACHSEN
100
AcDbLine
 62
7
  6
CONTINUOUS
 10
695.3402169175
 20
343.2793626876
 11
695.3402169175
 21
330.7793626876
  0
LINE
  5
42B
100
AcDbEntity
  8
BEZUGSACHSEN
100
AcDbLine
 62
7
  6
CONTINUOUS
 10
695.4973617953
 20
343.2793626876
 11
695.4973617953
 21
310.7793626876
  0
LINE
  5
42C
100
AcDbEntity
  8
RUNDUNGEN
100
AcDbLine
 62
7
  6
CONTINUOUS
 10
695.4973617953
 20
330.7793626876
 11
695.4973617953
 21
310.7793626876
  0
LINE
  5
42D
100
AcDbEntity
  8
BEZUGSACHSEN
100
AcDbLine
 62
7
  6
CONTINUOUS
 10
576.4973617953
 20
489.793993309
 11
581.7473617953
 21
489.793993309
  0
LINE
  5
42E
100
AcDbEntity
  8
RUNDUNGEN
100
AcDbLine
 62
7
  6
CONTINUOUS
 10
609.2473617953
 20
489.793993309
 11
614.4973617953
 21
489.793993309
  0
LINE
  5
42F
100
AcDbEntity
  8
0
100
AcDbLine
 62
7
  6
CONTINUOUS
 10
587.7473617953
 20
498.2793626876
 11
603.2473617953
 21
498.2793626876
  0
LINE
  5
430
100
AcDbEntity
  8
FASEN
100
AcDbLine
 62
7
  6
CONTINUOUS
 10
680.4973617953
 20
280.7793626876
 11
682.4973617953
 21
282.7793626876
  0
LINE
  5
431
100
AcDbEntity
  8
BEZUGSACHSEN
100
AcDbLine
 62
7
  6
CONTINUOUS
 10
116.5199914142
 20
145.2354313929
 11
116.5199914142
 21
129.7354313929
  0
LINE
  5
432
100
AcDbEntity
  8
RUNDUNGEN
100
AcDbLine
 62
7
  6
CONTINUOUS
 10
116.5199914142
 20
87.4854313929
 11
116.5199914142
 21
187.4854313929
  0
LINE
  5
433
100
AcDbEntity
  8
0
100
AcDbLine
 62
7
  6
CONTINUOUS
 10
129.8766530846
 20
123.7354313929
 11
129.8766530846
 21
123.2354313929
  0
LINE
  5
434
100
AcDbEntity
  8
0
100
AcDbLine
 62
7
  6
CONTINUOUS
 10
164.7900513096
 20
223.7575091139
 11
163.4937883947
 21
222.2344521696
  0
LINE
  5
435
100
AcDbEntity
  8
0
100
AcDbLine
 62
7
  6
CONTINUOUS
 10
132.9044404406
 20
123.7354313929
 11
132.9044404406
 21
123.2354313929
  0
LINE
  5
436
100
AcDbEntity
  8
0
100
AcDbLine
 62
7
  6
CONTINUOUS
 10
133.8272154805
 20
123.7354313929
 11
133.8272154805
 21
123.2354313929
  0
LINE
  5
437
100
AcDbEntity
  8
0
100
AcDbLine
 62
7
  6
CONTINUOUS
 10
135.2078042475
 20
123.7354313929
 11
135.2078042475
 21
123.2354313929
  0
LINE
  5
438
100
AcDbEntity
  8
0
100
AcDbLine
 62
7
  6
CONTINUOUS
 10
135.6799120632
 20
123.7354313929
 11
135.6799120632
 21
123.2354313929
  0
LINE
  5
439
100
AcDbEntity
  8
0
100
AcDbLine
 62
7
  6
CONTINUOUS
 10
136.4368592631
 20
123.7354313929
 11
136.4368592631
 21
123.2354313929
  0
LINE
  5
43A
100
AcDbEntity
  8
0
100
AcDbLine
 62
7
  6
CONTINUOUS
 10
139.4646466191
 20
123.7354313929
 11
139.4646466191
 21
123.2354313929
  0
LINE
  5
43B
100
AcDbEntity
  8
0
100
AcDbLine
 62
7
  6
CONTINUOUS
 10
139.4813210199
 20
151.2354313929
 11
139.4813210199
 21
151.7354313929
  0
LINE
  5
43C
100
AcDbEntity
  8
0
100
AcDbLine
 62
7
  6
CONTINUOUS
 10
140.2215934581
 20
123.7354313929
 11
140.2215934581
 21
123.2354313929
  0
LINE
  5
43D
100
AcDbEntity
  8
0
100
AcDbLine
 62
7
  6
CONTINUOUS
 10
141.2308556694
 20
123.7354313929
 11
141.2308556694
 21
123.2354313929
  0
LINE
  5
43E
100
AcDbEntity
  8
0
100
AcDbLine
 62
7
  6
CONTINUOUS
 10
160.8316454605
 20
215.3676493334
 11
160.6965470397
 21
214.9644090964
  0
LINE
  5
43F
100
AcDbEntity
  8
0
100
AcDbLine
 62
7
  6
CONTINUOUS
 10
162.5289422503
 20
220.6413154849
 11
162.3295200119
 21
220.1828061929
  0
LINE
  5
440
100
AcDbEntity
  8
0
100
AcDbLine
 62
7
  6
CONTINUOUS
 10
161.5318310581
 20
218.3487690251
 11
161.3324087246
 21
217.8902595145
  0
LINE
  5
441
100
AcDbEntity
  8
0
100
AcDbLine
 62
7
  6
CONTINUOUS
 10
165.1969590791
 20
218.0269112507
 11
165.0640108568
 21
217.7212382436
  0
LINE
  5
442
100
AcDbEntity
  8
0
100
AcDbLine
 62
7
  6
CONTINUOUS
 10
165.5322756644
 20
217.5175729793
 11
165.6652238868
 21
217.8232459864
  0
LINE
  5
443
100
AcDbEntity
  8
0
100
AcDbLine
 62
7
  6
CONTINUOUS
 10
161.1290511242
 20
214.9954254715
 11
161.2439005385
 21
215.2332336015
  0
LINE
  5
444
100
AcDbEntity
  8
0
100
AcDbLine
 62
7
  6
CONTINUOUS
 10
167.5985322834
 20
221.8049467271
 11
167.4472995964
 21
221.4959440277
  0
LINE
  5
445
100
AcDbEntity
  8
0
100
AcDbLine
 62
7
  6
CONTINUOUS
 10
167.8361651982
 20
221.1649832843
 11
168.0414092464
 21
221.5374471787
  0
LINE
  5
446
100
AcDbEntity
  8
0
100
AcDbLine
 62
7
  6
CONTINUOUS
 10
167.1276865688
 20
230.4854313929
 11
156.7353817234
 21
212.4854313929
  0
LINE
  5
447
100
AcDbEntity
  8
0
100
AcDbLine
 62
7
  6
CONTINUOUS
 10
165.2880463968
 20
217.1694262582
 11
165.5322756644
 21
217.5175729793
  0
LINE
  5
448
100
AcDbEntity
  8
0
100
AcDbLine
 62
7
  6
CONTINUOUS
 10
165.0640108568
 20
217.7212382436
 11
164.8530186991
 21
217.4495098806
  0
LINE
  5
449
100
AcDbEntity
  8
0
100
AcDbLine
 62
7
  6
CONTINUOUS
 10
178.0622694624
 20
228.5712190807
 11
178.2526120947
 21
228.809411726
  0
LINE
  5
44A
100
AcDbEntity
  8
0
100
AcDbLine
 62
7
  6
CONTINUOUS
 10
180.2286172367
 20
227.5934009194
 11
180.4189598689
 21
227.8315935646
  0
LINE
  5
44B
100
AcDbEntity
  8
0
100
AcDbLine
 62
7
  6
CONTINUOUS
 10
164.2067196799
 20
222.2842557009
 11
165.178916866
 21
223.4265484092
  0
LINE
  5
44C
100
AcDbEntity
  8
0
100
AcDbLine
 62
7
  6
CONTINUOUS
 10
167.4472995964
 20
221.4959440277
 11
166.4751024103
 21
220.3536513194
  0
LINE
  5
44D
100
AcDbEntity
  8
0
100
AcDbLine
 62
7
  6
CONTINUOUS
 10
166.5399022834
 20
219.64192634
 11
167.8361651982
 21
221.1649832843
  0
LINE
  5
44E
100
AcDbEntity
  8
0
100
AcDbLine
 62
7
  6
CONTINUOUS
 10
161.1255712019
 20
215.6674935746
 11
160.8316454605
 21
215.3676493334
  0
LINE
  5
44F
100
AcDbEntity
  8
0
100
AcDbLine
 62
7
  6
CONTINUOUS
 10
178.127442901
 20
229.2489435701
 11
177.7630547933
 21
228.9419890368
  0
LINE
  5
450
100
AcDbEntity
  8
0
100
AcDbLine
 62
7
  6
CONTINUOUS
 10
164.999009903
 20
216.9316416735
 11
165.2880463968
 21
217.1694262582
  0
LINE
  5
451
100
AcDbEntity
  8
0
100
AcDbLine
 62
7
  6
CONTINUOUS
 10
165.1249172156
 20
224.0196527686
 11
164.7900513096
 21
223.7575091139
  0
LINE
  5
452
100
AcDbEntity
  8
0
100
AcDbLine
 62
7
  6
CONTINUOUS
 10
161.2439005385
 20
215.2332336015
 11
161.4331013833
 21
215.3779858844
  0
LINE
  5
453
100
AcDbEntity
  8
0
100
AcDbLine
 62
7
  6
CONTINUOUS
 10
179.8383045913
 20
227.8874323334
 11
177.3120183667
 21
225.9928980188
  0
LINE
  5
454
100
AcDbEntity
  8
0
100
AcDbLine
 62
7
  6
CONTINUOUS
 10
177.9756249408
 20
225.9290822308
 11
180.2286172367
 21
227.5934009194
  0
LINE
  5
455
100
AcDbEntity
  8
0
100
AcDbLine
 62
7
  6
CONTINUOUS
 10
165.178916866
 20
223.4265484092
 11
165.4597714052
 21
223.6252308737
  0
LINE
  5
456
100
AcDbEntity
  8
0
100
AcDbLine
 62
7
  6
CONTINUOUS
 10
164.8530186991
 20
217.4495098806
 11
164.5972192742
 21
217.2881436719
  0
LINE
  5
457
100
AcDbEntity
  8
0
100
AcDbLine
 62
7
  6
CONTINUOUS
 10
161.4938483737
 20
215.8742819686
 11
161.1255712019
 21
215.6674935746
  0
LINE
  5
458
100
AcDbEntity
  8
0
100
AcDbLine
 62
7
  6
CONTINUOUS
 10
178.2526120947
 20
228.809411726
 11
178.5177574449
 21
228.9549119735
  0
LINE
  5
459
100
AcDbEntity
  8
0
100
AcDbLine
 62
7
  6
CONTINUOUS
 10
184.3030710845
 20
228.0771260321
 11
181.5786163112
 21
226.7142014862
  0
LINE
  5
45A
100
AcDbEntity
  8
0
100
AcDbLine
 62
7
  6
CONTINUOUS
 10
165.4705826808
 20
224.1631751157
 11
165.1249172156
 21
224.0196527686
  0
LINE
  5
45B
100
AcDbEntity
  8
0
100
AcDbLine
 62
7
  6
CONTINUOUS
 10
178.4755395477
 20
229.3864667985
 11
178.127442901
 21
229.2489435701
  0
LINE
  5
45C
100
AcDbEntity
  8
0
100
AcDbLine
 62
7
  6
CONTINUOUS
 10
170.2745984169
 20
47.0841741125
 11
170.736911744
 21
46.8937367537
  0
LINE
  5
45D
100
AcDbEntity
  8
0
100
AcDbLine
 62
7
  6
CONTINUOUS
 10
170.3792788459
 20
49.5262432071
 11
171.1497998819
 21
49.2088480934
  0
LINE
  5
45E
100
AcDbEntity
  8
0
100
AcDbLine
 62
7
  6
CONTINUOUS
 10
171.612113209
 20
49.0184107347
 11
172.9220021448
 21
48.4788377339
  0
LINE
  5
45F
100
AcDbEntity
  8
0
100
AcDbLine
 62
7
  6
CONTINUOUS
 10
173.655855757
 20
48.7288111345
 11
171.8066024487
 21
49.4905605695
  0
LINE
  5
460
100
AcDbEntity
  8
0
100
AcDbLine
 62
7
  6
CONTINUOUS
 10
171.3442891216
 20
49.6809979282
 11
170.5737680855
 21
49.9983930418
  0
LINE
  5
461
100
AcDbEntity
  8
0
100
AcDbLine
 62
7
  6
CONTINUOUS
 10
174.8387727062
 20
45.9213432336
 11
175.1542826336
 21
45.7200042172
  0
LINE
  5
462
100
AcDbEntity
  8
0
100
AcDbLine
 62
7
  6
CONTINUOUS
 10
175.3609167269
 20
46.1276281674
 11
175.128358096
 21
46.3209901646
  0
LINE
  5
463
100
AcDbEntity
  8
0
100
AcDbLine
 62
7
  6
CONTINUOUS
 10
174.5395561385
 20
46.2921133722
 11
174.8387727062
 21
45.9213432336
  0
LINE
  5
464
100
AcDbEntity
  8
0
100
AcDbLine
 62
7
  6
CONTINUOUS
 10
156.7353817234
 20
62.4854313929
 11
167.1276865688
 21
44.4854313929
  0
LINE
  5
465
100
AcDbEntity
  8
0
100
AcDbLine
 62
7
  6
CONTINUOUS
 10
144.2586430254
 20
123.7354313929
 11
144.2586430254
 21
123.2354313929
  0
LINE
  5
466
100
AcDbEntity
  8
0
100
AcDbLine
 62
7
  6
CONTINUOUS
 10
144.5313210199
 20
151.2354313929
 11
144.5313210199
 21
151.7354313929
  0
LINE
  5
467
100
AcDbEntity
  8
0
100
AcDbLine
 62
7
  6
CONTINUOUS
 10
145.1814184262
 20
123.7354313929
 11
145.1814184262
 21
123.2354313929
  0
LINE
  5
468
100
AcDbEntity
  8
0
100
AcDbLine
 62
7
  6
CONTINUOUS
 10
146.2700209452
 20
123.7354313929
 11
146.2700209452
 21
123.2354313929
  0
LINE
  5
469
100
AcDbEntity
  8
0
100
AcDbLine
 62
7
  6
CONTINUOUS
 10
147.9425952383
 20
123.7354313929
 11
147.9425952383
 21
123.2354313929
  0
LINE
  5
46A
100
AcDbEntity
  8
0
100
AcDbLine
 62
7
  6
CONTINUOUS
 10
149.3628548809
 20
123.7354313929
 11
149.3628548809
 21
123.2354313929
  0
LINE
  5
46B
100
AcDbEntity
  8
0
100
AcDbLine
 62
7
  6
CONTINUOUS
 10
150.9489424596
 20
123.7354313929
 11
150.9489424596
 21
123.2354313929
  0
LINE
  5
46C
100
AcDbEntity
  8
0
100
AcDbLine
 62
7
  6
CONTINUOUS
 10
160.6965470397
 20
214.9644090964
 11
160.4535590782
 21
212.9792247598
  0
LINE
  5
46D
100
AcDbEntity
  8
0
100
AcDbLine
 62
7
  6
CONTINUOUS
 10
160.9366856643
 20
213.4238212838
 11
161.1290511242
 21
214.9954254715
  0
LINE
  5
46E
100
AcDbEntity
  8
0
100
AcDbLine
 62
7
  6
CONTINUOUS
 10
165.6652238868
 20
217.8232459864
 11
165.7533648898
 21
218.239281127
  0
LINE
  5
46F
100
AcDbEntity
  8
0
100
AcDbLine
 62
7
  6
CONTINUOUS
 10
168.0414092464
 20
221.5374471787
 11
168.1278309904
 21
221.9016100101
  0
LINE
  5
470
100
AcDbEntity
  8
0
100
AcDbLine
 62
7
  6
CONTINUOUS
 10
177.7630547933
 20
228.9419890368
 11
177.6475167776
 21
228.6111038113
  0
LINE
  5
471
100
AcDbEntity
  8
0
100
AcDbLine
 62
7
  6
CONTINUOUS
 10
173.4785395299
 20
219.4854313929
 11
169.4370876456
 21
212.4854313929
  0
LINE
  5
472
100
AcDbEntity
  8
0
100
AcDbLine
 62
7
  6
CONTINUOUS
 10
180.0367920048
 20
228.2103407224
 11
179.8383045913
 21
227.8874323334
  0
LINE
  5
473
100
AcDbEntity
  8
0
100
AcDbLine
 62
7
  6
CONTINUOUS
 10
182.1179806837
 20
226.4920250519
 11
184.0437521588
 21
227.447593066
  0
LINE
  5
474
100
AcDbEntity
  8
0
100
AcDbLine
 62
7
  6
CONTINUOUS
 10
164.5538853415
 20
216.7617459426
 11
164.999009903
 21
216.9316416735
  0
LINE
  5
475
100
AcDbEntity
  8
0
100
AcDbLine
 62
7
  6
CONTINUOUS
 10
339.4198967505
 20
51.0381054198
 11
339.1186827929
 21
50.9616679461
  0
LINE
  5
476
100
AcDbEntity
  8
0
100
AcDbLine
 62
7
  6
CONTINUOUS
 10
328.6924882114
 20
45.2923986104
 11
329.4495889981
 21
45.4361389647
  0
LINE
  5
477
100
AcDbEntity
  8
0
100
AcDbLine
 62
7
  6
CONTINUOUS
 10
331.973258287
 20
45.9152734788
 11
332.7303590737
 21
46.059013833
  0
LINE
  5
478
100
AcDbEntity
  8
0
100
AcDbLine
 62
7
  6
CONTINUOUS
 10
331.9637438511
 20
50.0968846953
 11
331.4590099933
 21
50.0010577925
  0
LINE
  5
479
100
AcDbEntity
  8
0
100
AcDbLine
 62
7
  6
CONTINUOUS
 10
330.2812983003
 20
49.7774618077
 11
329.6083185397
 21
49.6496923603
  0
LINE
  5
47A
100
AcDbEntity
  8
0
100
AcDbLine
 62
7
  6
CONTINUOUS
 10
328.4306068466
 20
49.4260963755
 11
327.9258729888
 21
49.3302694727
  0
LINE
  5
47B
100
AcDbEntity
  8
BEZUGSACHSEN
100
AcDbLine
 62
7
  6
CONTINUOUS
 10
166.5199914142
 20
37.4854313929
 11
338.5199914142
 21
37.4854313929
  0
LINE
  5
47C
100
AcDbEntity
  8
0
100
AcDbLine
 62
7
  6
CONTINUOUS
 10
175.1542826336
 20
45.7200042172
 11
175.643839935
 21
45.5874269064
  0
LINE
  5
47D
100
AcDbEntity
  8
0
100
AcDbLine
 62
7
  6
CONTINUOUS
 10
175.7675227319
 20
46.0030278757
 11
175.3609167269
 21
46.1276281674
  0
LINE
  5
47E
100
AcDbEntity
  8
0
100
AcDbLine
 62
7
  6
CONTINUOUS
 10
172.260410614
 20
50.5922433703
 11
171.798097287
 21
50.7826807291
  0
LINE
  5
47F
100
AcDbEntity
  8
0
100
AcDbLine
 62
7
  6
CONTINUOUS
 10
190.0916723598
 20
55.3818178529
 11
192.5110405782
 21
54.329547301
  0
LINE
  5
480
100
AcDbEntity
  8
0
100
AcDbLine
 62
7
  6
CONTINUOUS
 10
188.9861016314
 20
51.3041288819
 11
188.6728471784
 21
51.4613088878
  0
LINE
  5
481
100
AcDbEntity
  8
0
100
AcDbLine
 62
7
  6
CONTINUOUS
 10
188.3487814497
 20
51.0805446517
 11
188.7268470104
 21
50.8682043738
  0
LINE
  5
482
100
AcDbEntity
  8
0
100
AcDbLine
 62
7
  6
CONTINUOUS
 10
189.7346888354
 20
55.6279572477
 11
190.0916723598
 21
55.3818178529
  0
LINE
  5
483
100
AcDbEntity
  8
0
100
AcDbLine
 62
7
  6
CONTINUOUS
 10
190.2910945982
 20
55.8403271449
 11
190.0121551994
 21
56.0525223329
  0
LINE
  5
484
100
AcDbEntity
  8
0
100
AcDbLine
 62
7
  6
CONTINUOUS
 10
187.3766174678
 20
51.9079464908
 11
188.3487814497
 21
51.0805446517
  0
LINE
  5
485
100
AcDbEntity
  8
0
100
AcDbLine
 62
7
  6
CONTINUOUS
 10
188.6728471784
 20
51.4613088878
 11
187.7006831965
 21
52.2887107269
  0
LINE
  5
486
100
AcDbEntity
  8
0
100
AcDbLine
 62
7
  6
CONTINUOUS
 10
188.5648804182
 20
54.6172114664
 11
190.8332631486
 21
52.6866070849
  0
LINE
  5
487
100
AcDbEntity
  8
0
100
AcDbLine
 62
7
  6
CONTINUOUS
 10
191.5461944338
 20
52.7364106163
 11
188.5000805451
 21
55.3289364459
  0
LINE
  5
488
100
AcDbEntity
  8
0
100
AcDbLine
 62
7
  6
CONTINUOUS
 10
189.4889862949
 20
55.9165703834
 11
189.7346888354
 21
55.6279572477
  0
LINE
  5
489
100
AcDbEntity
  8
0
100
AcDbLine
 62
7
  6
CONTINUOUS
 10
187.1065735861
 20
52.247207542
 11
187.3766174678
 21
51.9079464908
  0
LINE
  5
48A
100
AcDbEntity
  8
0
100
AcDbLine
 62
7
  6
CONTINUOUS
 10
187.7006831965
 20
52.2887107269
 11
187.4954502409
 21
52.5728116607
  0
LINE
  5
48B
100
AcDbEntity
  8
0
100
AcDbLine
 62
7
  6
CONTINUOUS
 10
182.5796042927
 20
47.0763931288
 11
180.7408018921
 21
49.886324623
  0
LINE
  5
48C
100
AcDbEntity
  8
0
100
AcDbLine
 62
7
  6
CONTINUOUS
 10
180.510633908
 20
49.3972319403
 11
182.5254669582
 21
46.1910239297
  0
LINE
  5
48D
100
AcDbEntity
  8
0
100
AcDbLine
 62
7
  6
CONTINUOUS
 10
169.4370876456
 20
62.4854313929
 11
173.4785395299
 21
55.4854313929
  0
LINE
  5
48E
100
AcDbEntity
  8
0
100
AcDbLine
 62
7
  6
CONTINUOUS
 10
175.128358096
 20
46.3209901646
 11
174.9868974412
 21
46.5910907038
  0
LINE
  5
48F
100
AcDbEntity
  8
0
100
AcDbLine
 62
7
  6
CONTINUOUS
 10
155.3287311751
 20
123.7354313929
 11
155.3287311751
 21
123.2354313929
  0
LINE
  5
490
100
AcDbEntity
  8
0
100
AcDbLine
 62
7
  6
CONTINUOUS
 10
156.6625032854
 20
123.7354313929
 11
156.6625032854
 21
123.2354313929
  0
LINE
  5
491
100
AcDbEntity
  8
0
100
AcDbLine
 62
7
  6
CONTINUOUS
 10
157.578130944
 20
123.7354313929
 11
157.578130944
 21
123.2354313929
  0
LINE
  5
492
100
AcDbEntity
  8
0
100
AcDbLine
 62
7
  6
CONTINUOUS
 10
158.2414438499
 20
123.7354313929
 11
158.2414438499
 21
123.2354313929
  0
LINE
  5
493
100
AcDbEntity
  8
0
100
AcDbLine
 62
7
  6
CONTINUOUS
 10
158.3207849561
 20
123.7354313929
 11
158.3207849561
 21
123.2354313929
  0
LINE
  5
494
100
AcDbEntity
  8
0
100
AcDbLine
 62
7
  6
CONTINUOUS
 10
160.2190147244
 20
151.2354313929
 11
160.2190147244
 21
151.7354313929
  0
LINE
  5
495
100
AcDbEntity
  8
BEZUGSACHSEN
100
AcDbLine
 62
7
  6
CONTINUOUS
 10
163.5053607929
 20
118.4854313929
 11
163.5053607929
 21
123.7354313929
  0
LINE
  5
496
100
AcDbEntity
  8
BEZUGSACHSEN
100
AcDbLine
 62
7
  6
CONTINUOUS
 10
163.5053607929
 20
151.2354313929
 11
163.5053607929
 21
156.4854313929
  0
LINE
  5
497
100
AcDbEntity
  8
0
100
AcDbLine
 62
7
  6
CONTINUOUS
 10
167.6309432502
 20
222.1056491187
 11
167.5985322834
 21
221.8049467271
  0
LINE
  5
498
100
AcDbEntity
  8
0
100
AcDbLine
 62
7
  6
CONTINUOUS
 10
162.3961901481
 20
214.8403267622
 11
162.2038246882
 21
213.2687225745
  0
LINE
  5
499
100
AcDbEntity
  8
0
100
AcDbLine
 62
7
  6
CONTINUOUS
 10
162.7106802031
 20
213.2066831024
 11
162.882796671
 21
214.6128553014
  0
LINE
  5
49A
100
AcDbEntity
  8
0
100
AcDbLine
 62
7
  6
CONTINUOUS
 10
164.4239277515
 20
212.4932488368
 11
164.4846747419
 21
212.9895449209
  0
LINE
  5
49B
100
AcDbEntity
  8
0
100
AcDbLine
 62
7
  6
CONTINUOUS
 10
164.7377871922
 20
215.0574451927
 11
164.8086587002
 21
215.6364574487
  0
LINE
  5
49C
100
AcDbEntity
  8
0
100
AcDbLine
 62
7
  6
CONTINUOUS
 10
165.251863176
 20
218.3665284645
 11
165.1969590791
 21
218.0269112507
  0
LINE
  5
49D
100
AcDbEntity
  8
0
100
AcDbLine
 62
7
  6
CONTINUOUS
 10
180.4189598689
 20
227.8315935646
 11
180.534495986
 21
228.1624789727
  0
LINE
  5
49E
100
AcDbEntity
  8
0
100
AcDbLine
 62
7
  6
CONTINUOUS
 10
181.5786163112
 20
226.7142014862
 11
181.3841270715
 21
226.2420516514
  0
LINE
  5
49F
100
AcDbEntity
  8
0
100
AcDbLine
 62
7
  6
CONTINUOUS
 10
184.0437521588
 20
227.447593066
 11
183.4278696195
 21
225.9524520512
  0
LINE
  5
4A0
100
AcDbEntity
  8
0
100
AcDbLine
 62
7
  6
CONTINUOUS
 10
183.2333803798
 20
225.4803022164
 11
182.7795722145
 21
224.3786194155
  0
LINE
  5
4A1
100
AcDbEntity
  8
0
100
AcDbLine
 62
7
  6
CONTINUOUS
 10
183.2418855415
 20
224.1881820568
 11
183.6956937069
 21
225.2898648576
  0
LINE
  5
4A2
100
AcDbEntity
  8
0
100
AcDbLine
 62
7
  6
CONTINUOUS
 10
183.8901829466
 20
225.7620146924
 11
184.7653844116
 21
227.8866886734
  0
LINE
  5
4A3
100
AcDbEntity
  8
0
100
AcDbLine
 62
7
  6
CONTINUOUS
 10
184.466214743
 20
224.972469744
 11
184.6607039826
 21
225.4446195788
  0
LINE
  5
4A4
100
AcDbEntity
  8
0
100
AcDbLine
 62
7
  6
CONTINUOUS
 10
181.5614432986
 20
205.4854313929
 11
185.6028951829
 21
212.4854313929
  0
LINE
  5
4A5
100
AcDbEntity
  8
0
100
AcDbLine
 62
7
  6
CONTINUOUS
 10
340.2152641543
 20
59.2486471161
 11
342.3069996661
 21
59.7622023755
  0
LINE
  5
4A6
100
AcDbEntity
  8
0
100
AcDbLine
 62
7
  6
CONTINUOUS
 10
342.1975989757
 20
60.2937646459
 11
340.2900768679
 21
59.8433349705
  0
LINE
  5
4A7
100
AcDbEntity
  8
0
100
AcDbLine
 62
7
  6
CONTINUOUS
 10
254.357127077
 20
45.4670609493
 11
255.0882824342
 21
45.6341293294
  0
LINE
  5
4A8
100
AcDbEntity
  8
0
100
AcDbLine
 62
7
  6
CONTINUOUS
 10
257.5254669582
 20
46.1910239297
 11
258.2566223154
 21
46.3580923098
  0
LINE
  5
4A9
100
AcDbEntity
  8
0
100
AcDbLine
 62
7
  6
CONTINUOUS
 10
343.3494178724
 20
58.9406654633
 11
343.6203941969
 21
58.9928760054
  0
LINE
  5
4AA
100
AcDbEntity
  8
0
100
AcDbLine
 62
7
  6
CONTINUOUS
 10
343.6845193625
 20
59.5026083132
 11
343.4135430381
 21
59.4503977711
  0
LINE
  5
4AB
100
AcDbEntity
  8
0
100
AcDbLine
 62
7
  6
CONTINUOUS
 10
340.4154167655
 20
57.5474333995
 11
340.7248616148
 21
57.5963521289
  0
LINE
  5
4AC
100
AcDbEntity
  8
0
100
AcDbLine
 62
7
  6
CONTINUOUS
 10
251.5222253836
 20
46.0159508124
 11
251.0993260189
 21
45.9711199817
  0
LINE
  5
4AD
100
AcDbEntity
  8
0
100
AcDbLine
 62
7
  6
CONTINUOUS
 10
325.7710150733
 20
45.9817001806
 11
325.3348317899
 21
45.9555938207
  0
LINE
  5
4AE
100
AcDbEntity
  8
0
100
AcDbLine
 62
7
  6
CONTINUOUS
 10
338.9091453799
 20
50.4610474261
 11
339.3980727739
 21
50.4856870193
  0
LINE
  5
4AF
100
AcDbEntity
  8
0
100
AcDbLine
 62
7
  6
CONTINUOUS
 10
250.9756413234
 20
45.555519195
 11
251.5644432808
 21
45.5843959874
  0
LINE
  5
4B0
100
AcDbEntity
  8
0
100
AcDbLine
 62
7
  6
CONTINUOUS
 10
325.1883138792
 20
45.5348352002
 11
325.7940319883
 21
45.536755761
  0
LINE
  5
4B1
100
AcDbEntity
  8
0
100
AcDbLine
 62
7
  6
CONTINUOUS
 10
167.1276865688
 20
44.4854313929
 11
187.9122962597
 21
44.4854313929
  0
LINE
  5
4B2
100
AcDbEntity
  8
0
100
AcDbLine
 62
7
  6
CONTINUOUS
 10
242.1276865688
 20
44.4854313929
 11
262.9122962597
 21
44.4854313929
  0
LINE
  5
4B3
100
AcDbEntity
  8
0
100
AcDbLine
 62
7
  6
CONTINUOUS
 10
317.1276865688
 20
44.4854313929
 11
337.9122962597
 21
44.4854313929
  0
LINE
  5
4B4
100
AcDbEntity
  8
0
100
AcDbLine
 62
7
  6
CONTINUOUS
 10
175.643839935
 20
45.5874269064
 11
175.9756413234
 21
45.555519195
  0
LINE
  5
4B5
100
AcDbEntity
  8
0
100
AcDbLine
 62
7
  6
CONTINUOUS
 10
176.0993260189
 20
45.9711199817
 11
175.7675227319
 21
46.0030278757
  0
LINE
  5
4B6
100
AcDbEntity
  8
0
100
AcDbLine
 62
7
  6
CONTINUOUS
 10
177.3924660509
 20
46.3597589746
 11
176.9777133661
 21
46.3996437051
  0
LINE
  5
4B7
100
AcDbEntity
  8
0
100
AcDbLine
 62
7
  6
CONTINUOUS
 10
174.7417405745
 20
49.2651352651
 11
177.0643578877
 21
49.041780555
  0
LINE
  5
4B8
100
AcDbEntity
  8
0
100
AcDbLine
 62
7
  6
CONTINUOUS
 10
177.7686978666
 20
49.4015426323
 11
174.7824739793
 21
49.6887131303
  0
LINE
  5
4B9
100
AcDbEntity
  8
0
100
AcDbLine
 62
7
  6
CONTINUOUS
 10
250.643839935
 20
45.5874269064
 11
250.9756413234
 21
45.555519195
  0
LINE
  5
4BA
100
AcDbEntity
  8
0
100
AcDbLine
 62
7
  6
CONTINUOUS
 10
251.0993260189
 20
45.9711199817
 11
250.7675227319
 21
46.0030278757
  0
LINE
  5
4BB
100
AcDbEntity
  8
0
100
AcDbLine
 62
7
  6
CONTINUOUS
 10
252.3924660509
 20
46.3597589746
 11
251.9777133661
 21
46.3996437051
  0
LINE
  5
4BC
100
AcDbEntity
  8
0
100
AcDbLine
 62
7
  6
CONTINUOUS
 10
189.2885567068
 20
51.2655700291
 11
188.9861016314
 21
51.3041288819
  0
LINE
  5
4BD
100
AcDbEntity
  8
0
100
AcDbLine
 62
7
  6
CONTINUOUS
 10
190.743370137
 20
57.7337232159
 11
191.088783552
 21
57.6743643127
  0
LINE
  5
4BE
100
AcDbEntity
  8
0
100
AcDbLine
 62
7
  6
CONTINUOUS
 10
191.2882058855
 20
58.1328738233
 11
190.8647481549
 21
58.226176496
  0
LINE
  5
4BF
100
AcDbEntity
  8
0
100
AcDbLine
 62
7
  6
CONTINUOUS
 10
188.7268470104
 20
50.8682043738
 11
189.0941128303
 21
50.7744855581
  0
LINE
  5
4C0
100
AcDbEntity
  8
0
100
AcDbLine
 62
7
  6
CONTINUOUS
 10
250.1542826336
 20
45.7200042172
 11
250.643839935
 21
45.5874269064
  0
LINE
  5
4C1
100
AcDbEntity
  8
0
100
AcDbLine
 62
7
  6
CONTINUOUS
 10
192.7104628166
 20
54.788056593
 11
190.2910945982
 21
55.8403271449
  0
LINE
  5
4C2
100
AcDbEntity
  8
0
100
AcDbLine
 62
7
  6
CONTINUOUS
 10
191.088783552
 20
57.6743643127
 11
193.5081517704
 21
56.6220937608
  0
LINE
  5
4C3
100
AcDbEntity
  8
0
100
AcDbLine
 62
7
  6
CONTINUOUS
 10
193.7075741039
 20
57.0806032714
 11
191.2882058855
 21
58.1328738233
  0
LINE
  5
4C4
100
AcDbEntity
  8
0
100
AcDbLine
 62
7
  6
CONTINUOUS
 10
192.7013750267
 20
59.1999799665
 11
192.9446782954
 21
59.0862442952
  0
LINE
  5
4C5
100
AcDbEntity
  8
0
100
AcDbLine
 62
7
  6
CONTINUOUS
 10
193.0899012049
 20
59.5722004674
 11
192.8465979362
 21
59.6859361386
  0
LINE
  5
4C6
100
AcDbEntity
  8
0
100
AcDbLine
 62
7
  6
CONTINUOUS
 10
192.3938448453
 20
59.4894876566
 11
192.7013750267
 21
59.1999799665
  0
LINE
  5
4C7
100
AcDbEntity
  8
0
100
AcDbLine
 62
7
  6
CONTINUOUS
 10
192.8465979362
 20
59.6859361386
 11
192.6978951044
 21
59.8720480696
  0
LINE
  5
4C8
100
AcDbEntity
  8
0
100
AcDbLine
 62
7
  6
CONTINUOUS
 10
190.0121551994
 20
56.0525223329
 11
189.8444968389
 21
56.3071912381
  0
LINE
  5
4C9
100
AcDbEntity
  8
0
100
AcDbLine
 62
7
  6
CONTINUOUS
 10
185.6028951829
 20
62.4854313929
 11
181.5614432986
 21
69.4854313929
  0
LINE
  5
4CA
100
AcDbEntity
  8
0
100
AcDbLine
 62
7
  6
CONTINUOUS
 10
186.955351952
 20
52.5947697046
 11
187.1065735861
 21
52.247207542
  0
LINE
  5
4CB
100
AcDbEntity
  8
0
100
AcDbLine
 62
7
  6
CONTINUOUS
 10
189.3097579879
 20
56.3580202294
 11
189.4889862949
 21
55.9165703834
  0
LINE
  5
4CC
100
AcDbEntity
  8
0
100
AcDbLine
 62
7
  6
CONTINUOUS
 10
178.4660957165
 20
49.3665561877
 11
179.357127077
 21
45.4670609493
  0
LINE
  5
4CD
100
AcDbEntity
  8
0
100
AcDbLine
 62
7
  6
CONTINUOUS
 10
179.6549828639
 20
46.4081196084
 11
178.9535326213
 21
49.4779351078
  0
LINE
  5
4CE
100
AcDbEntity
  8
0
100
AcDbLine
 62
7
  6
CONTINUOUS
 10
174.48919346
 20
46.6389524535
 11
174.5395561385
 21
46.2921133722
  0
LINE
  5
4CF
100
AcDbEntity
  8
0
100
AcDbLine
 62
7
  6
CONTINUOUS
 10
165.7533648898
 20
218.239281127
 11
165.7302248406
 21
218.6128425565
  0
LINE
  5
4D0
100
AcDbEntity
  8
0
100
AcDbLine
 62
7
  6
CONTINUOUS
 10
177.3120183667
 20
225.9928980188
 11
177.2712849619
 21
225.5693201536
  0
LINE
  5
4D1
100
AcDbEntity
  8
0
100
AcDbLine
 62
7
  6
CONTINUOUS
 10
180.0530853873
 20
228.3797720821
 11
180.0367920048
 21
228.2103407224
  0
LINE
  5
4D2
100
AcDbEntity
  8
0
100
AcDbLine
 62
7
  6
CONTINUOUS
 10
180.2575088492
 20
225.2821496556
 11
180.298242254
 21
225.7057275208
  0
LINE
  5
4D3
100
AcDbEntity
  8
0
100
AcDbLine
 62
7
  6
CONTINUOUS
 10
180.534495986
 20
228.1624789727
 11
180.5507893685
 21
228.3319103324
  0
LINE
  5
4D4
100
AcDbEntity
  8
0
100
AcDbLine
 62
7
  6
CONTINUOUS
 10
174.9517003943
 20
229.3367334565
 11
174.5293489205
 21
225.5736308455
  0
LINE
  5
4D5
100
AcDbEntity
  8
0
100
AcDbLine
 62
7
  6
CONTINUOUS
 10
174.9490980491
 20
225.2330436729
 11
175.3849999646
 21
228.5627431774
  0
LINE
  5
4D6
100
AcDbEntity
  8
0
100
AcDbLine
 62
7
  6
CONTINUOUS
 10
187.9122962597
 20
194.4854313929
 11
198.3046011051
 21
212.4854313929
  0
LINE
  5
4D7
100
AcDbEntity
  8
0
100
AcDbLine
 62
7
  6
CONTINUOUS
 10
240.048916866
 20
223.4265484092
 11
240.3297714052
 21
223.6252308737
  0
LINE
  5
4D8
100
AcDbEntity
  8
0
100
AcDbLine
 62
7
  6
CONTINUOUS
 10
253.1226120947
 20
228.809411726
 11
253.3877574449
 21
228.9549119735
  0
LINE
  5
4D9
100
AcDbEntity
  8
0
100
AcDbLine
 62
7
  6
CONTINUOUS
 10
259.1730710845
 20
228.0771260321
 11
256.4486163112
 21
226.7142014862
  0
LINE
  5
4DA
100
AcDbEntity
  8
0
100
AcDbLine
 62
7
  6
CONTINUOUS
 10
256.9879806837
 20
226.4920250519
 11
258.9137521588
 21
227.447593066
  0
LINE
  5
4DB
100
AcDbEntity
  8
0
100
AcDbLine
 62
7
  6
CONTINUOUS
 10
240.3405826808
 20
224.1631751157
 11
239.9949172156
 21
224.0196527686
  0
LINE
  5
4DC
100
AcDbEntity
  8
0
100
AcDbLine
 62
7
  6
CONTINUOUS
 10
253.3455395477
 20
229.3864667985
 11
252.997442901
 21
229.2489435701
  0
LINE
  5
4DD
100
AcDbEntity
  8
0
100
AcDbLine
 62
7
  6
CONTINUOUS
 10
239.4238853415
 20
216.7617459426
 11
239.869009903
 21
216.9316416735
  0
LINE
  5
4DE
100
AcDbEntity
  8
0
100
AcDbLine
 62
7
  6
CONTINUOUS
 10
264.5802114233
 20
51.3456319122
 11
264.2885567068
 21
51.2655700291
  0
LINE
  5
4DF
100
AcDbEntity
  8
0
100
AcDbLine
 62
7
  6
CONTINUOUS
 10
265.2313241283
 20
59.3344053372
 11
267.2653909909
 21
59.8410314579
  0
LINE
  5
4E0
100
AcDbEntity
  8
0
100
AcDbLine
 62
7
  6
CONTINUOUS
 10
267.1571861575
 20
60.3580074845
 11
265.3021956363
 21
59.9134175931
  0
LINE
  5
4E1
100
AcDbEntity
  8
0
100
AcDbLine
 62
7
  6
CONTINUOUS
 10
257.365590955
 20
50.2575875482
 11
256.8781540502
 21
50.1462086282
  0
LINE
  5
4E2
100
AcDbEntity
  8
0
100
AcDbLine
 62
7
  6
CONTINUOUS
 10
255.7408018921
 20
49.886324623
 11
255.0908847794
 21
49.737819113
  0
LINE
  5
4E3
100
AcDbEntity
  8
0
100
AcDbLine
 62
7
  6
CONTINUOUS
 10
253.9535326213
 20
49.4779351078
 11
253.4660957165
 21
49.3665561877
  0
LINE
  5
4E4
100
AcDbEntity
  8
0
100
AcDbLine
 62
7
  6
CONTINUOUS
 10
268.2825822087
 20
59.0448846182
 11
268.5461344548
 21
59.0965808173
  0
LINE
  5
4E5
100
AcDbEntity
  8
0
100
AcDbLine
 62
7
  6
CONTINUOUS
 10
268.6068814452
 20
59.5928769014
 11
268.343329199
 21
59.5411807024
  0
LINE
  5
4E6
100
AcDbEntity
  8
0
100
AcDbLine
 62
7
  6
CONTINUOUS
 10
265.4427635542
 20
57.682719114
 11
265.743370137
 21
57.7337232159
  0
LINE
  5
4E7
100
AcDbEntity
  8
0
100
AcDbLine
 62
7
  6
CONTINUOUS
 10
176.5222253836
 20
46.0159508124
 11
176.0993260189
 21
45.9711199817
  0
LINE
  5
4E8
100
AcDbEntity
  8
0
100
AcDbLine
 62
7
  6
CONTINUOUS
 10
264.0941128303
 20
50.7744855581
 11
264.5694001477
 21
50.8076876702
  0
LINE
  5
4E9
100
AcDbEntity
  8
0
100
AcDbLine
 62
7
  6
CONTINUOUS
 10
189.0941128303
 20
50.7744855581
 11
189.5694001477
 21
50.8076876702
  0
LINE
  5
4EA
100
AcDbEntity
  8
0
100
AcDbLine
 62
7
  6
CONTINUOUS
 10
175.9756413234
 20
45.555519195
 11
176.5644432808
 21
45.5843959874
  0
LINE
  5
4EB
100
AcDbEntity
  8
0
100
AcDbLine
 62
7
  6
CONTINUOUS
 10
265.8647481549
 20
58.226176496
 11
265.486097487
 21
58.2091168432
  0
LINE
  5
4EC
100
AcDbEntity
  8
0
100
AcDbLine
 62
7
  6
CONTINUOUS
 10
340.8552781399
 20
58.1009086503
 11
340.4660415828
 21
58.0877703146
  0
LINE
  5
4ED
100
AcDbEntity
  8
0
100
AcDbLine
 62
7
  6
CONTINUOUS
 10
173.4785395299
 20
55.4854313929
 11
181.5614432986
 21
55.4854313929
  0
LINE
  5
4EE
100
AcDbEntity
  8
0
100
AcDbLine
 62
7
  6
CONTINUOUS
 10
248.4785395299
 20
55.4854313929
 11
256.5614432986
 21
55.4854313929
  0
LINE
  5
4EF
100
AcDbEntity
  8
0
100
AcDbLine
 62
7
  6
CONTINUOUS
 10
323.4785395299
 20
55.4854313929
 11
331.5614432986
 21
55.4854313929
  0
LINE
  5
4F0
100
AcDbEntity
  8
0
100
AcDbLine
 62
7
  6
CONTINUOUS
 10
249.7417405745
 20
49.2651352651
 11
252.0643578877
 21
49.041780555
  0
LINE
  5
4F1
100
AcDbEntity
  8
0
100
AcDbLine
 62
7
  6
CONTINUOUS
 10
252.7686978666
 20
49.4015426323
 11
249.7824739793
 21
49.6887131303
  0
LINE
  5
4F2
100
AcDbEntity
  8
0
100
AcDbLine
 62
7
  6
CONTINUOUS
 10
192.9446782954
 20
59.0862442952
 11
193.2825822087
 21
59.0448846182
  0
LINE
  5
4F3
100
AcDbEntity
  8
0
100
AcDbLine
 62
7
  6
CONTINUOUS
 10
193.343329199
 20
59.5411807024
 11
193.0899012049
 21
59.5722004674
  0
LINE
  5
4F4
100
AcDbEntity
  8
0
100
AcDbLine
 62
7
  6
CONTINUOUS
 10
190.5553080866
 20
61.9813178649
 11
192.3293026254
 21
61.7641796835
  0
LINE
  5
4F5
100
AcDbEntity
  8
0
100
AcDbLine
 62
7
  6
CONTINUOUS
 10
192.8361581403
 20
61.7021402113
 11
194.1032971642
 21
61.547041502
  0
LINE
  5
4F6
100
AcDbEntity
  8
0
100
AcDbLine
 62
7
  6
CONTINUOUS
 10
194.5864237503
 20
61.9916380261
 11
190.616055077
 21
62.4776139491
  0
LINE
  5
4F7
100
AcDbEntity
  8
0
100
AcDbLine
 62
7
  6
CONTINUOUS
 10
264.2885567068
 20
51.2655700291
 11
263.9861016314
 21
51.3041288819
  0
LINE
  5
4F8
100
AcDbEntity
  8
0
100
AcDbLine
 62
7
  6
CONTINUOUS
 10
324.8492481082
 20
45.5832062448
 11
325.1883138792
 21
45.5348352002
  0
LINE
  5
4F9
100
AcDbEntity
  8
0
100
AcDbLine
 62
7
  6
CONTINUOUS
 10
325.3348317899
 20
45.9555938207
 11
324.9957640787
 21
46.0039651421
  0
LINE
  5
4FA
100
AcDbEntity
  8
0
100
AcDbLine
 62
7
  6
CONTINUOUS
 10
326.6804338791
 20
46.2936235356
 11
326.2566006952
 21
46.3540874797
  0
LINE
  5
4FB
100
AcDbEntity
  8
0
100
AcDbLine
 62
7
  6
CONTINUOUS
 10
263.7268470104
 20
50.8682043738
 11
264.0941128303
 21
50.7744855581
  0
LINE
  5
4FC
100
AcDbEntity
  8
0
100
AcDbLine
 62
7
  6
CONTINUOUS
 10
250.7675227319
 20
46.0030278757
 11
250.3609167269
 21
46.1276281674
  0
LINE
  5
4FD
100
AcDbEntity
  8
0
100
AcDbLine
 62
7
  6
CONTINUOUS
 10
245.2745984169
 20
47.0841741125
 11
245.736911744
 21
46.8937367537
  0
LINE
  5
4FE
100
AcDbEntity
  8
0
100
AcDbLine
 62
7
  6
CONTINUOUS
 10
245.3792788459
 20
49.5262432071
 11
246.1497998819
 21
49.2088480934
  0
LINE
  5
4FF
100
AcDbEntity
  8
0
100
AcDbLine
 62
7
  6
CONTINUOUS
 10
246.612113209
 20
49.0184107347
 11
247.9220021448
 21
48.4788377339
  0
LINE
  5
500
100
AcDbEntity
  8
0
100
AcDbLine
 62
7
  6
CONTINUOUS
 10
248.655855757
 20
48.7288111345
 11
246.8066024487
 21
49.4905605695
  0
LINE
  5
501
100
AcDbEntity
  8
0
100
AcDbLine
 62
7
  6
CONTINUOUS
 10
246.3442891216
 20
49.6809979282
 11
245.5737680855
 21
49.9983930418
  0
LINE
  5
502
100
AcDbEntity
  8
0
100
AcDbLine
 62
7
  6
CONTINUOUS
 10
247.260410614
 20
50.5922433703
 11
246.798097287
 21
50.7826807291
  0
LINE
  5
503
100
AcDbEntity
  8
0
100
AcDbLine
 62
7
  6
CONTINUOUS
 10
249.8387727062
 20
45.9213432336
 11
250.1542826336
 21
45.7200042172
  0
LINE
  5
504
100
AcDbEntity
  8
0
100
AcDbLine
 62
7
  6
CONTINUOUS
 10
198.3046011051
 20
62.4854313929
 11
187.9122962597
 21
80.4854313929
  0
LINE
  5
505
100
AcDbEntity
  8
0
100
AcDbLine
 62
7
  6
CONTINUOUS
 10
192.2653909909
 20
59.8410314579
 11
192.3938448453
 21
59.4894876566
  0
LINE
  5
506
100
AcDbEntity
  8
0
100
AcDbLine
 62
7
  6
CONTINUOUS
 10
187.4954502409
 20
52.5728116607
 11
187.4090395783
 21
52.8652136672
  0
LINE
  5
507
100
AcDbEntity
  8
0
100
AcDbLine
 62
7
  6
CONTINUOUS
 10
181.8781540502
 20
50.1462086282
 11
182.5796042927
 21
47.0763931288
  0
LINE
  5
508
100
AcDbEntity
  8
0
100
AcDbLine
 62
7
  6
CONTINUOUS
 10
183.2566223154
 20
46.3580923098
 11
182.365590955
 21
50.2575875482
  0
LINE
  5
509
100
AcDbEntity
  8
0
100
AcDbLine
 62
7
  6
CONTINUOUS
 10
168.1278309904
 20
221.9016100101
 11
168.0846308765
 21
222.3760930812
  0
LINE
  5
50A
100
AcDbEntity
  8
0
100
AcDbLine
 62
7
  6
CONTINUOUS
 10
186.9121518381
 20
53.0692527757
 11
186.955351952
 21
52.5947697046
  0
LINE
  5
50B
100
AcDbEntity
  8
0
100
AcDbLine
 62
7
  6
CONTINUOUS
 10
189.2866179387
 20
56.7315816588
 11
189.3097579879
 21
56.3580202294
  0
LINE
  5
50C
100
AcDbEntity
  8
0
100
AcDbLine
 62
7
  6
CONTINUOUS
 10
174.7824739793
 20
49.6887131303
 11
174.7417405745
 21
49.2651352651
  0
LINE
  5
50D
100
AcDbEntity
  8
0
100
AcDbLine
 62
7
  6
CONTINUOUS
 10
174.5054868425
 20
46.8083838131
 11
174.48919346
 21
46.6389524535
  0
LINE
  5
50E
100
AcDbEntity
  8
0
100
AcDbLine
 62
7
  6
CONTINUOUS
 10
174.9868974412
 20
46.5910907038
 11
175.0031908237
 21
46.7605220635
  0
LINE
  5
50F
100
AcDbEntity
  8
0
100
AcDbLine
 62
7
  6
CONTINUOUS
 10
235.9955712019
 20
215.6674935746
 11
235.7016454605
 21
215.3676493334
  0
LINE
  5
510
100
AcDbEntity
  8
0
100
AcDbLine
 62
7
  6
CONTINUOUS
 10
252.997442901
 20
229.2489435701
 11
252.6330547933
 21
228.9419890368
  0
LINE
  5
511
100
AcDbEntity
  8
0
100
AcDbLine
 62
7
  6
CONTINUOUS
 10
239.869009903
 20
216.9316416735
 11
240.1580463968
 21
217.1694262582
  0
LINE
  5
512
100
AcDbEntity
  8
0
100
AcDbLine
 62
7
  6
CONTINUOUS
 10
239.9949172156
 20
224.0196527686
 11
239.6600513096
 21
223.7575091139
  0
LINE
  5
513
100
AcDbEntity
  8
0
100
AcDbLine
 62
7
  6
CONTINUOUS
 10
236.1139005385
 20
215.2332336015
 11
236.3031013833
 21
215.3779858844
  0
LINE
  5
514
100
AcDbEntity
  8
0
100
AcDbLine
 62
7
  6
CONTINUOUS
 10
254.7083045913
 20
227.8874323334
 11
252.1820183667
 21
225.9928980188
  0
LINE
  5
515
100
AcDbEntity
  8
0
100
AcDbLine
 62
7
  6
CONTINUOUS
 10
252.8456249408
 20
225.9290822308
 11
255.0986172367
 21
227.5934009194
  0
LINE
  5
516
100
AcDbEntity
  8
0
100
AcDbLine
 62
7
  6
CONTINUOUS
 10
239.7230186991
 20
217.4495098806
 11
239.4672192742
 21
217.2881436719
  0
LINE
  5
517
100
AcDbEntity
  8
0
100
AcDbLine
 62
7
  6
CONTINUOUS
 10
236.3638483737
 20
215.8742819686
 11
235.9955712019
 21
215.6674935746
  0
LINE
  5
518
100
AcDbEntity
  8
0
100
AcDbLine
 62
7
  6
CONTINUOUS
 10
189.5802114233
 20
51.3456319122
 11
189.2885567068
 21
51.2655700291
  0
LINE
  5
519
100
AcDbEntity
  8
0
100
AcDbLine
 62
7
  6
CONTINUOUS
 10
179.357127077
 20
45.4670609493
 11
180.0882824342
 21
45.6341293294
  0
LINE
  5
51A
100
AcDbEntity
  8
0
100
AcDbLine
 62
7
  6
CONTINUOUS
 10
182.5254669582
 20
46.1910239297
 11
183.2566223154
 21
46.3580923098
  0
LINE
  5
51B
100
AcDbEntity
  8
0
100
AcDbLine
 62
7
  6
CONTINUOUS
 10
182.365590955
 20
50.2575875482
 11
181.8781540502
 21
50.1462086282
  0
LINE
  5
51C
100
AcDbEntity
  8
0
100
AcDbLine
 62
7
  6
CONTINUOUS
 10
180.7408018921
 20
49.886324623
 11
180.0908847794
 21
49.737819113
  0
LINE
  5
51D
100
AcDbEntity
  8
0
100
AcDbLine
 62
7
  6
CONTINUOUS
 10
178.9535326213
 20
49.4779351078
 11
178.4660957165
 21
49.3665561877
  0
LINE
  5
51E
100
AcDbEntity
  8
0
100
AcDbLine
 62
7
  6
CONTINUOUS
 10
190.4427635542
 20
57.682719114
 11
190.743370137
 21
57.7337232159
  0
LINE
  5
51F
100
AcDbEntity
  8
0
100
AcDbLine
 62
7
  6
CONTINUOUS
 10
190.8647481549
 20
58.226176496
 11
190.486097487
 21
58.2091168432
  0
LINE
  5
520
100
AcDbEntity
  8
0
100
AcDbLine
 62
7
  6
CONTINUOUS
 10
331.5614432986
 20
69.4854313929
 11
323.4785395299
 21
69.4854313929
  0
LINE
  5
521
100
AcDbEntity
  8
0
100
AcDbLine
 62
7
  6
CONTINUOUS
 10
256.5614432986
 20
69.4854313929
 11
248.4785395299
 21
69.4854313929
  0
LINE
  5
522
100
AcDbEntity
  8
0
100
AcDbLine
 62
7
  6
CONTINUOUS
 10
181.5614432986
 20
69.4854313929
 11
173.4785395299
 21
69.4854313929
  0
LINE
  5
523
100
AcDbEntity
  8
0
100
AcDbLine
 62
7
  6
CONTINUOUS
 10
267.9446782954
 20
59.0862442952
 11
268.2825822087
 21
59.0448846182
  0
LINE
  5
524
100
AcDbEntity
  8
0
100
AcDbLine
 62
7
  6
CONTINUOUS
 10
268.343329199
 20
59.5411807024
 11
268.0899012049
 21
59.5722004674
  0
LINE
  5
525
100
AcDbEntity
  8
0
100
AcDbLine
 62
7
  6
CONTINUOUS
 10
265.5553080866
 20
61.9813178649
 11
267.3293026254
 21
61.7641796835
  0
LINE
  5
526
100
AcDbEntity
  8
0
100
AcDbLine
 62
7
  6
CONTINUOUS
 10
267.8361581403
 20
61.7021402113
 11
269.1032971642
 21
61.547041502
  0
LINE
  5
527
100
AcDbEntity
  8
0
100
AcDbLine
 62
7
  6
CONTINUOUS
 10
269.5864237503
 20
61.9916380261
 11
265.616055077
 21
62.4776139491
  0
LINE
  5
528
100
AcDbEntity
  8
0
100
AcDbLine
 62
7
  6
CONTINUOUS
 10
343.0023658867
 20
58.9843251759
 11
343.3494178724
 21
58.9406654633
  0
LINE
  5
529
100
AcDbEntity
  8
0
100
AcDbLine
 62
7
  6
CONTINUOUS
 10
343.4135430381
 20
59.4503977711
 11
343.153253988
 21
59.4831425632
  0
LINE
  5
52A
100
AcDbEntity
  8
0
100
AcDbLine
 62
7
  6
CONTINUOUS
 10
324.0964508593
 20
49.4005515467
 11
326.469919017
 21
49.0619531274
  0
LINE
  5
52B
100
AcDbEntity
  8
0
100
AcDbLine
 62
7
  6
CONTINUOUS
 10
327.2098049459
 20
49.3980620653
 11
324.1582013659
 21
49.8334031274
  0
LINE
  5
52C
100
AcDbEntity
  8
0
100
AcDbLine
 62
7
  6
CONTINUOUS
 10
339.1186827929
 20
50.9616679461
 11
338.8087368374
 21
51.0073055405
  0
LINE
  5
52D
100
AcDbEntity
  8
0
100
AcDbLine
 62
7
  6
CONTINUOUS
 10
265.743370137
 20
57.7337232159
 11
266.088783552
 21
57.6743643127
  0
LINE
  5
52E
100
AcDbEntity
  8
0
100
AcDbLine
 62
7
  6
CONTINUOUS
 10
266.2882058855
 20
58.1328738233
 11
265.8647481549
 21
58.226176496
  0
LINE
  5
52F
100
AcDbEntity
  8
0
100
AcDbLine
 62
7
  6
CONTINUOUS
 10
265.0916723598
 20
55.3818178529
 11
267.5110405782
 21
54.329547301
  0
LINE
  5
530
100
AcDbEntity
  8
0
100
AcDbLine
 62
7
  6
CONTINUOUS
 10
267.7104628166
 20
54.788056593
 11
265.2910945982
 21
55.8403271449
  0
LINE
  5
531
100
AcDbEntity
  8
0
100
AcDbLine
 62
7
  6
CONTINUOUS
 10
266.088783552
 20
57.6743643127
 11
268.5081517704
 21
56.6220937608
  0
LINE
  5
532
100
AcDbEntity
  8
0
100
AcDbLine
 62
7
  6
CONTINUOUS
 10
268.7075741039
 20
57.0806032714
 11
266.2882058855
 21
58.1328738233
  0
LINE
  5
533
100
AcDbEntity
  8
0
100
AcDbLine
 62
7
  6
CONTINUOUS
 10
263.9861016314
 20
51.3041288819
 11
263.6728471784
 21
51.4613088878
  0
LINE
  5
534
100
AcDbEntity
  8
0
100
AcDbLine
 62
7
  6
CONTINUOUS
 10
263.3487814497
 20
51.0805446517
 11
263.7268470104
 21
50.8682043738
  0
LINE
  5
535
100
AcDbEntity
  8
0
100
AcDbLine
 62
7
  6
CONTINUOUS
 10
250.3609167269
 20
46.1276281674
 11
250.128358096
 21
46.3209901646
  0
LINE
  5
536
100
AcDbEntity
  8
0
100
AcDbLine
 62
7
  6
CONTINUOUS
 10
192.6978951044
 20
59.8720480696
 11
192.6437926804
 21
60.1305360237
  0
LINE
  5
537
100
AcDbEntity
  8
0
100
AcDbLine
 62
7
  6
CONTINUOUS
 10
162.3420877241
 20
215.0988147163
 11
162.3961901481
 21
214.8403267622
  0
LINE
  5
538
100
AcDbEntity
  8
0
100
AcDbLine
 62
7
  6
CONTINUOUS
 10
189.8444968389
 20
56.3071912381
 11
189.7881196525
 21
56.6043343214
  0
LINE
  5
539
100
AcDbEntity
  8
0
100
AcDbLine
 62
7
  6
CONTINUOUS
 10
165.1954859895
 20
218.6636715478
 11
165.251863176
 21
218.3665284645
  0
LINE
  5
53A
100
AcDbEntity
  8
0
100
AcDbLine
 62
7
  6
CONTINUOUS
 10
177.7279644618
 20
48.9779647671
 11
177.7686978666
 21
49.4015426323
  0
LINE
  5
53B
100
AcDbEntity
  8
0
100
AcDbLine
 62
7
  6
CONTINUOUS
 10
187.4090395783
 20
52.8652136672
 11
187.4414505451
 21
53.1659160587
  0
LINE
  5
53C
100
AcDbEntity
  8
0
100
AcDbLine
 62
7
  6
CONTINUOUS
 10
180.0882824342
 20
45.6341293294
 11
180.510633908
 21
49.3972319403
  0
LINE
  5
53D
100
AcDbEntity
  8
0
100
AcDbLine
 62
7
  6
CONTINUOUS
 10
180.0908847794
 20
49.737819113
 11
179.6549828639
 21
46.4081196084
  0
LINE
  5
53E
100
AcDbEntity
  8
0
100
AcDbLine
 62
7
  6
CONTINUOUS
 10
242.1276865688
 20
230.4854313929
 11
231.7353817234
 21
212.4854313929
  0
LINE
  5
53F
100
AcDbEntity
  8
0
100
AcDbLine
 62
7
  6
CONTINUOUS
 10
240.1580463968
 20
217.1694262582
 11
240.4022756644
 21
217.5175729793
  0
LINE
  5
540
100
AcDbEntity
  8
0
100
AcDbLine
 62
7
  6
CONTINUOUS
 10
239.9340108568
 20
217.7212382436
 11
239.7230186991
 21
217.4495098806
  0
LINE
  5
541
100
AcDbEntity
  8
0
100
AcDbLine
 62
7
  6
CONTINUOUS
 10
252.9322694624
 20
228.5712190807
 11
253.1226120947
 21
228.809411726
  0
LINE
  5
542
100
AcDbEntity
  8
0
100
AcDbLine
 62
7
  6
CONTINUOUS
 10
239.6600513096
 20
223.7575091139
 11
238.3637883947
 21
222.2344521696
  0
LINE
  5
543
100
AcDbEntity
  8
0
100
AcDbLine
 62
7
  6
CONTINUOUS
 10
239.0767196799
 20
222.2842557009
 11
240.048916866
 21
223.4265484092
  0
LINE
  5
544
100
AcDbEntity
  8
0
100
AcDbLine
 62
7
  6
CONTINUOUS
 10
242.3172995964
 20
221.4959440277
 11
241.3451024103
 21
220.3536513194
  0
LINE
  5
545
100
AcDbEntity
  8
0
100
AcDbLine
 62
7
  6
CONTINUOUS
 10
241.4099022834
 20
219.64192634
 11
242.7061651982
 21
221.1649832843
  0
LINE
  5
546
100
AcDbEntity
  8
0
100
AcDbLine
 62
7
  6
CONTINUOUS
 10
315.4705826808
 20
224.1631751157
 11
315.1249172156
 21
224.0196527686
  0
LINE
  5
547
100
AcDbEntity
  8
0
100
AcDbLine
 62
7
  6
CONTINUOUS
 10
328.4755395477
 20
229.3864667985
 11
328.127442901
 21
229.2489435701
  0
LINE
  5
548
100
AcDbEntity
  8
0
100
AcDbLine
 62
7
  6
CONTINUOUS
 10
190.2313241283
 20
59.3344053372
 11
192.2653909909
 21
59.8410314579
  0
LINE
  5
549
100
AcDbEntity
  8
0
100
AcDbLine
 62
7
  6
CONTINUOUS
 10
192.1571861575
 20
60.3580074845
 11
190.3021956363
 21
59.9134175931
  0
LINE
  5
54A
100
AcDbEntity
  8
0
100
AcDbLine
 62
7
  6
CONTINUOUS
 10
193.2825822087
 20
59.0448846182
 11
193.5461344548
 21
59.0965808173
  0
LINE
  5
54B
100
AcDbEntity
  8
0
100
AcDbLine
 62
7
  6
CONTINUOUS
 10
193.6068814452
 20
59.5928769014
 11
193.343329199
 21
59.5411807024
  0
LINE
  5
54C
100
AcDbEntity
  8
0
100
AcDbLine
 62
7
  6
CONTINUOUS
 10
337.9122962597
 20
80.4854313929
 11
317.1276865688
 21
80.4854313929
  0
LINE
  5
54D
100
AcDbEntity
  8
0
100
AcDbLine
 62
7
  6
CONTINUOUS
 10
262.9122962597
 20
80.4854313929
 11
242.1276865688
 21
80.4854313929
  0
LINE
  5
54E
100
AcDbEntity
  8
0
100
AcDbLine
 62
7
  6
CONTINUOUS
 10
187.9122962597
 20
80.4854313929
 11
167.1276865688
 21
80.4854313929
  0
LINE
  5
54F
100
AcDbEntity
  8
0
100
AcDbLine
 62
7
  6
CONTINUOUS
 10
340.5572650478
 20
61.9672195054
 11
342.3792869399
 21
61.7380061442
  0
LINE
  5
550
100
AcDbEntity
  8
0
100
AcDbLine
 62
7
  6
CONTINUOUS
 10
342.8998645539
 20
61.6725166211
 11
344.201308832
 21
61.508792783
  0
LINE
  5
551
100
AcDbEntity
  8
0
100
AcDbLine
 62
7
  6
CONTINUOUS
 10
344.699248676
 20
61.9639504882
 11
340.6213902134
 21
62.4769518133
  0
LINE
  5
552
100
AcDbEntity
  8
0
100
AcDbLine
 62
7
  6
CONTINUOUS
 10
340.7248616148
 20
57.5963521289
 11
341.0790632194
 21
57.5313606838
  0
LINE
  5
553
100
AcDbEntity
  8
0
100
AcDbLine
 62
7
  6
CONTINUOUS
 10
341.2892716971
 20
58.0001375071
 11
340.8552781399
 21
58.1009086503
  0
LINE
  5
554
100
AcDbEntity
  8
0
100
AcDbLine
 62
7
  6
CONTINUOUS
 10
338.5337178575
 20
50.5646424535
 11
338.9091453799
 21
50.4610474261
  0
LINE
  5
555
100
AcDbEntity
  8
0
100
AcDbLine
 62
7
  6
CONTINUOUS
 10
324.3529976111
 20
45.7423333925
 11
324.8492481082
 21
45.5832062448
  0
LINE
  5
556
100
AcDbEntity
  8
0
100
AcDbLine
 62
7
  6
CONTINUOUS
 10
324.9957640787
 20
46.0039651421
 11
324.5842809945
 21
46.1509993902
  0
LINE
  5
557
100
AcDbEntity
  8
0
100
AcDbLine
 62
7
  6
CONTINUOUS
 10
267.7013750267
 20
59.1999799665
 11
267.9446782954
 21
59.0862442952
  0
LINE
  5
558
100
AcDbEntity
  8
0
100
AcDbLine
 62
7
  6
CONTINUOUS
 10
268.0899012049
 20
59.5722004674
 11
267.8465979362
 21
59.6859361386
  0
LINE
  5
559
100
AcDbEntity
  8
0
100
AcDbLine
 62
7
  6
CONTINUOUS
 10
264.7346888354
 20
55.6279572477
 11
265.0916723598
 21
55.3818178529
  0
LINE
  5
55A
100
AcDbEntity
  8
0
100
AcDbLine
 62
7
  6
CONTINUOUS
 10
265.2910945982
 20
55.8403271449
 11
265.0121551994
 21
56.0525223329
  0
LINE
  5
55B
100
AcDbEntity
  8
0
100
AcDbLine
 62
7
  6
CONTINUOUS
 10
262.3766174678
 20
51.9079464908
 11
263.3487814497
 21
51.0805446517
  0
LINE
  5
55C
100
AcDbEntity
  8
0
100
AcDbLine
 62
7
  6
CONTINUOUS
 10
263.6728471784
 20
51.4613088878
 11
262.7006831965
 21
52.2887107269
  0
LINE
  5
55D
100
AcDbEntity
  8
0
100
AcDbLine
 62
7
  6
CONTINUOUS
 10
263.5648804182
 20
54.6172114664
 11
265.8332631486
 21
52.6866070849
  0
LINE
  5
55E
100
AcDbEntity
  8
0
100
AcDbLine
 62
7
  6
CONTINUOUS
 10
266.5461944338
 20
52.7364106163
 11
263.5000805451
 21
55.3289364459
  0
LINE
  5
55F
100
AcDbEntity
  8
0
100
AcDbLine
 62
7
  6
CONTINUOUS
 10
249.5395561385
 20
46.2921133722
 11
249.8387727062
 21
45.9213432336
  0
LINE
  5
560
100
AcDbEntity
  8
0
100
AcDbLine
 62
7
  6
CONTINUOUS
 10
231.7353817234
 20
62.4854313929
 11
242.1276865688
 21
44.4854313929
  0
LINE
  5
561
100
AcDbEntity
  8
0
100
AcDbLine
 62
7
  6
CONTINUOUS
 10
162.7745918376
 20
215.129831328
 11
162.6461379832
 21
215.4813751292
  0
LINE
  5
562
100
AcDbEntity
  8
0
100
AcDbLine
 62
7
  6
CONTINUOUS
 10
167.5445325876
 20
222.3980511252
 11
167.6309432502
 21
222.1056491187
  0
LINE
  5
563
100
AcDbEntity
  8
0
100
AcDbLine
 62
7
  6
CONTINUOUS
 10
171.783360513
 20
228.6127704761
 11
172.6743918735
 21
224.7132752377
  0
LINE
  5
564
100
AcDbEntity
  8
0
100
AcDbLine
 62
7
  6
CONTINUOUS
 10
173.1618287783
 20
224.8246541577
 11
172.4603785358
 21
227.8944696571
  0
LINE
  5
565
100
AcDbEntity
  8
0
100
AcDbLine
 62
7
  6
CONTINUOUS
 10
175.3849999646
 20
228.5627431774
 11
176.0864502072
 21
225.4929276781
  0
LINE
  5
566
100
AcDbEntity
  8
0
100
AcDbLine
 62
7
  6
CONTINUOUS
 10
180.5507893685
 20
228.3319103324
 11
180.50042669
 21
228.6787494137
  0
LINE
  5
567
100
AcDbEntity
  8
0
100
AcDbLine
 62
7
  6
CONTINUOUS
 10
190.616055077
 20
62.4776139491
 11
190.5553080866
 21
61.9813178649
  0
LINE
  5
568
100
AcDbEntity
  8
0
100
AcDbLine
 62
7
  6
CONTINUOUS
 10
190.3021956363
 20
59.9134175931
 11
190.2313241283
 21
59.3344053372
  0
LINE
  5
569
100
AcDbEntity
  8
0
100
AcDbLine
 62
7
  6
CONTINUOUS
 10
192.3293026254
 20
61.7641796835
 11
192.1571861575
 21
60.3580074845
  0
LINE
  5
56A
100
AcDbEntity
  8
0
100
AcDbLine
 62
7
  6
CONTINUOUS
 10
192.6437926804
 20
60.1305360237
 11
192.8361581403
 21
61.7021402113
  0
LINE
  5
56B
100
AcDbEntity
  8
0
100
AcDbLine
 62
7
  6
CONTINUOUS
 10
194.1032971642
 20
61.547041502
 11
193.9109317043
 21
59.9754373144
  0
LINE
  5
56C
100
AcDbEntity
  8
0
100
AcDbLine
 62
7
  6
CONTINUOUS
 10
194.3434357888
 20
60.0064536894
 11
194.5864237503
 21
61.9916380261
  0
LINE
  5
56D
100
AcDbEntity
  8
0
100
AcDbLine
 62
7
  6
CONTINUOUS
 10
189.7881196525
 20
56.6043343214
 11
189.8430237494
 21
56.9439515352
  0
LINE
  5
56E
100
AcDbEntity
  8
0
100
AcDbLine
 62
7
  6
CONTINUOUS
 10
189.3747589417
 20
57.1476167994
 11
189.2866179387
 21
56.7315816588
  0
LINE
  5
56F
100
AcDbEntity
  8
0
100
AcDbLine
 62
7
  6
CONTINUOUS
 10
186.9985735821
 20
53.4334156071
 11
186.9121518381
 21
53.0692527757
  0
LINE
  5
570
100
AcDbEntity
  8
0
100
AcDbLine
 62
7
  6
CONTINUOUS
 10
174.6210229596
 20
47.1392692213
 11
174.5054868425
 21
46.8083838131
  0
LINE
  5
571
100
AcDbEntity
  8
0
100
AcDbLine
 62
7
  6
CONTINUOUS
 10
237.3989422503
 20
220.6413154849
 11
237.1995200119
 21
220.1828061929
  0
LINE
  5
572
100
AcDbEntity
  8
0
100
AcDbLine
 62
7
  6
CONTINUOUS
 10
236.4018310581
 20
218.3487690251
 11
236.2024087246
 21
217.8902595145
  0
LINE
  5
573
100
AcDbEntity
  8
0
100
AcDbLine
 62
7
  6
CONTINUOUS
 10
240.0669590791
 20
218.0269112507
 11
239.9340108568
 21
217.7212382436
  0
LINE
  5
574
100
AcDbEntity
  8
0
100
AcDbLine
 62
7
  6
CONTINUOUS
 10
235.9990511242
 20
214.9954254715
 11
236.1139005385
 21
215.2332336015
  0
LINE
  5
575
100
AcDbEntity
  8
0
100
AcDbLine
 62
7
  6
CONTINUOUS
 10
242.4685322834
 20
221.8049467271
 11
242.3172995964
 21
221.4959440277
  0
LINE
  5
576
100
AcDbEntity
  8
0
100
AcDbLine
 62
7
  6
CONTINUOUS
 10
242.7061651982
 20
221.1649832843
 11
242.9114092464
 21
221.5374471787
  0
LINE
  5
577
100
AcDbEntity
  8
0
100
AcDbLine
 62
7
  6
CONTINUOUS
 10
167.1276865688
 20
80.4854313929
 11
156.7353817234
 21
62.4854313929
  0
LINE
  5
578
100
AcDbEntity
  8
0
100
AcDbLine
 62
7
  6
CONTINUOUS
 10
248.4785395299
 20
219.4854313929
 11
244.4370876456
 21
212.4854313929
  0
LINE
  5
579
100
AcDbEntity
  8
0
100
AcDbLine
 62
7
  6
CONTINUOUS
 10
254.9067920048
 20
228.2103407224
 11
254.7083045913
 21
227.8874323334
  0
LINE
  5
57A
100
AcDbEntity
  8
0
100
AcDbLine
 62
7
  6
CONTINUOUS
 10
255.0986172367
 20
227.5934009194
 11
255.2889598689
 21
227.8315935646
  0
LINE
  5
57B
100
AcDbEntity
  8
0
100
AcDbLine
 62
7
  6
CONTINUOUS
 10
328.2526120947
 20
228.809411726
 11
328.5177574449
 21
228.9549119735
  0
LINE
  5
57C
100
AcDbEntity
  8
0
100
AcDbLine
 62
7
  6
CONTINUOUS
 10
334.3030710845
 20
228.0771260321
 11
331.5786163112
 21
226.7142014862
  0
LINE
  5
57D
100
AcDbEntity
  8
0
100
AcDbLine
 62
7
  6
CONTINUOUS
 10
332.1179806837
 20
226.4920250519
 11
334.0437521588
 21
227.447593066
  0
LINE
  5
57E
100
AcDbEntity
  8
BEZUGSACHSEN
100
AcDbLine
 62
7
  6
CONTINUOUS
 10
172.7038427207
 20
163.7028185726
 11
172.7024729386
 21
163.7022952311
  0
LINE
  5
57F
100
AcDbEntity
  8
0
100
AcDbLine
 62
7
  6
CONTINUOUS
 10
314.5538853415
 20
216.7617459426
 11
314.999009903
 21
216.9316416735
  0
LWPOLYLINE
  5
580
100
AcDbEntity
  8
BEZUGSACHSEN
100
AcDbPolyline
 62
7
  6
CONTINUOUS
 90
7
 70
0
 10
172.7024781948
 20
163.70228165
 10
172.5603315883
 20
163.6509599444
 10
172.3529671427
 20
163.5873675808
 10
172.1537969571
 20
163.539801262
 10
171.960027122
 20
163.5072476555
 10
171.7679399614
 20
163.4892414615
 10
171.629937485
 20
163.4854320663
  0
LINE
  5
581
100
AcDbEntity
  8
RUNDUNGEN
100
AcDbLine
 62
7
  6
CONTINUOUS
 10
172.7038576972
 20
111.2680384935
 11
172.7024729386
 21
111.2685675548
  0
LINE
  5
582
100
AcDbEntity
  8
0
100
AcDbLine
 62
7
  6
CONTINUOUS
 10
319.3867535738
 20
47.4077754938
 11
319.8505395649
 21
47.186774098
  0
LINE
  5
583
100
AcDbEntity
  8
0
100
AcDbLine
 62
7
  6
CONTINUOUS
 10
319.6294440751
 20
49.9075525602
 11
320.4024195474
 21
49.5392174626
  0
LINE
  5
584
100
AcDbEntity
  8
0
100
AcDbLine
 62
7
  6
CONTINUOUS
 10
320.8662055385
 20
49.3182160667
 11
322.1802670261
 21
48.6920448832
  0
LINE
  5
585
100
AcDbEntity
  8
0
100
AcDbLine
 62
7
  6
CONTINUOUS
 10
322.9470530819
 20
48.9078643156
 11
321.0919091175
 21
49.791869899
  0
LINE
  5
586
100
AcDbEntity
  8
0
100
AcDbLine
 62
7
  6
CONTINUOUS
 10
320.6281231264
 20
50.0128712948
 11
319.855147654
 21
50.3812063925
  0
LINE
  5
587
100
AcDbEntity
  8
0
100
AcDbLine
 62
7
  6
CONTINUOUS
 10
321.6185507315
 20
50.8970620268
 11
321.1547647404
 21
51.1180634226
  0
LINE
  5
588
100
AcDbEntity
  8
0
100
AcDbLine
 62
7
  6
CONTINUOUS
 10
267.3938448453
 20
59.4894876566
 11
267.7013750267
 21
59.1999799665
  0
LINE
  5
589
100
AcDbEntity
  8
0
100
AcDbLine
 62
7
  6
CONTINUOUS
 10
264.4889862949
 20
55.9165703834
 11
264.7346888354
 21
55.6279572477
  0
LINE
  5
58A
100
AcDbEntity
  8
0
100
AcDbLine
 62
7
  6
CONTINUOUS
 10
262.1065735861
 20
52.247207542
 11
262.3766174678
 21
51.9079464908
  0
LINE
  5
58B
100
AcDbEntity
  8
0
100
AcDbLine
 62
7
  6
CONTINUOUS
 10
257.5796042927
 20
47.0763931288
 11
255.7408018921
 21
49.886324623
  0
LINE
  5
58C
100
AcDbEntity
  8
0
100
AcDbLine
 62
7
  6
CONTINUOUS
 10
255.510633908
 20
49.3972319403
 11
257.5254669582
 21
46.1910239297
  0
LINE
  5
58D
100
AcDbEntity
  8
0
100
AcDbLine
 62
7
  6
CONTINUOUS
 10
156.7353817234
 20
212.4854313929
 11
167.1276865688
 21
194.4854313929
  0
LINE
  5
58E
100
AcDbEntity
  8
0
100
AcDbLine
 62
7
  6
CONTINUOUS
 10
244.4370876456
 20
62.4854313929
 11
248.4785395299
 21
55.4854313929
  0
LINE
  5
58F
100
AcDbEntity
  8
0
100
AcDbLine
 62
7
  6
CONTINUOUS
 10
250.128358096
 20
46.3209901646
 11
249.9868974412
 21
46.5910907038
  0
LINE
  5
590
100
AcDbEntity
  8
0
100
AcDbLine
 62
7
  6
CONTINUOUS
 10
168.0846308765
 20
222.3760930812
 11
167.9334092424
 21
222.7236552438
  0
LINE
  5
591
100
AcDbEntity
  8
0
100
AcDbLine
 62
7
  6
CONTINUOUS
 10
165.7302248406
 20
218.6128425565
 11
165.5509965336
 21
219.0542924025
  0
LINE
  5
592
100
AcDbEntity
  8
0
100
AcDbLine
 62
7
  6
CONTINUOUS
 10
176.573887112
 20
225.6043065981
 11
175.6828557515
 21
229.5038018366
  0
LINE
  5
593
100
AcDbEntity
  8
0
100
AcDbLine
 62
7
  6
CONTINUOUS
 10
235.7016454605
 20
215.3676493334
 11
235.5665470397
 21
214.9644090964
  0
LINE
  5
594
100
AcDbEntity
  8
0
100
AcDbLine
 62
7
  6
CONTINUOUS
 10
177.2769280352
 20
46.028873749
 11
177.3924660509
 21
46.3597589746
  0
LINE
  5
595
100
AcDbEntity
  8
0
100
AcDbLine
 62
7
  6
CONTINUOUS
 10
170.5737680855
 20
49.9983930418
 11
170.3792788459
 21
49.5262432071
  0
LINE
  5
596
100
AcDbEntity
  8
0
100
AcDbLine
 62
7
  6
CONTINUOUS
 10
171.798097287
 20
50.7826807291
 11
171.3442891216
 21
49.6809979282
  0
LINE
  5
597
100
AcDbEntity
  8
0
100
AcDbLine
 62
7
  6
CONTINUOUS
 10
171.1497998819
 20
49.2088480934
 11
170.2745984169
 21
47.0841741125
  0
LINE
  5
598
100
AcDbEntity
  8
0
100
AcDbLine
 62
7
  6
CONTINUOUS
 10
170.9962306697
 20
47.5232697198
 11
171.612113209
 21
49.0184107347
  0
LINE
  5
599
100
AcDbEntity
  8
0
100
AcDbLine
 62
7
  6
CONTINUOUS
 10
171.8066024487
 20
49.4905605695
 11
172.260410614
 21
50.5922433703
  0
LINE
  5
59A
100
AcDbEntity
  8
0
100
AcDbLine
 62
7
  6
CONTINUOUS
 10
173.4613665173
 20
48.2566612997
 11
173.655855757
 21
48.7288111345
  0
LINE
  5
59B
100
AcDbEntity
  8
0
100
AcDbLine
 62
7
  6
CONTINUOUS
 10
240.4022756644
 20
217.5175729793
 11
240.5352238868
 21
217.8232459864
  0
LINE
  5
59C
100
AcDbEntity
  8
0
100
AcDbLine
 62
7
  6
CONTINUOUS
 10
173.4785395299
 20
69.4854313929
 11
169.4370876456
 21
62.4854313929
  0
LINE
  5
59D
100
AcDbEntity
  8
0
100
AcDbLine
 62
7
  6
CONTINUOUS
 10
315.178916866
 20
223.4265484092
 11
315.4597714052
 21
223.6252308737
  0
LINE
  5
59E
100
AcDbEntity
  8
0
100
AcDbLine
 62
7
  6
CONTINUOUS
 10
314.8530186991
 20
217.4495098806
 11
314.5972192742
 21
217.2881436719
  0
LINE
  5
59F
100
AcDbEntity
  8
0
100
AcDbLine
 62
7
  6
CONTINUOUS
 10
311.4938483737
 20
215.8742819686
 11
311.1255712019
 21
215.6674935746
  0
LINE
  5
5A0
100
AcDbEntity
  8
0
100
AcDbLine
 62
7
  6
CONTINUOUS
 10
340.028021332
 20
55.1874776847
 11
342.5015659842
 21
54.0782930364
  0
LINE
  5
5A1
100
AcDbEntity
  8
0
100
AcDbLine
 62
7
  6
CONTINUOUS
 10
342.7117743617
 20
54.5470696363
 11
340.2382297095
 21
55.6562542845
  0
LINE
  5
5A2
100
AcDbEntity
  8
0
100
AcDbLine
 62
7
  6
CONTINUOUS
 10
341.0790632194
 20
57.5313606838
 11
343.5526078716
 21
56.4221760355
  0
LINE
  5
5A3
100
AcDbEntity
  8
0
100
AcDbLine
 62
7
  6
CONTINUOUS
 10
343.7628163493
 20
56.8909528589
 11
341.2892716971
 21
58.0001375071
  0
LINE
  5
5A4
100
AcDbEntity
  8
0
100
AcDbLine
 62
7
  6
CONTINUOUS
 10
342.7527645971
 20
59.102025241
 11
343.0023658867
 21
58.9843251759
  0
LINE
  5
5A5
100
AcDbEntity
  8
0
100
AcDbLine
 62
7
  6
CONTINUOUS
 10
338.8087368374
 20
51.0073055405
 11
338.4900599002
 21
51.1750186119
  0
LINE
  5
5A6
100
AcDbEntity
  8
0
100
AcDbLine
 62
7
  6
CONTINUOUS
 10
324.0386300991
 20
45.9638453219
 11
324.3529976111
 21
45.7423333925
  0
LINE
  5
5A7
100
AcDbEntity
  8
0
100
AcDbLine
 62
7
  6
CONTINUOUS
 10
267.8465979362
 20
59.6859361386
 11
267.6978951044
 21
59.8720480696
  0
LINE
  5
5A8
100
AcDbEntity
  8
0
100
AcDbLine
 62
7
  6
CONTINUOUS
 10
262.7006831965
 20
52.2887107269
 11
262.4954502409
 21
52.5728116607
  0
LINE
  5
5A9
100
AcDbEntity
  8
0
100
AcDbLine
 62
7
  6
CONTINUOUS
 10
265.0121551994
 20
56.0525223329
 11
264.8444968389
 21
56.3071912381
  0
LINE
  5
5AA
100
AcDbEntity
  8
0
100
AcDbLine
 62
7
  6
CONTINUOUS
 10
169.4370876456
 20
212.4854313929
 11
173.4785395299
 21
205.4854313929
  0
LINE
  5
5AB
100
AcDbEntity
  8
0
100
AcDbLine
 62
7
  6
CONTINUOUS
 10
235.5665470397
 20
214.9644090964
 11
235.3235590782
 21
212.9792247598
  0
LINE
  5
5AC
100
AcDbEntity
  8
0
100
AcDbLine
 62
7
  6
CONTINUOUS
 10
235.8066856643
 20
213.4238212838
 11
235.9990511242
 21
214.9954254715
  0
LINE
  5
5AD
100
AcDbEntity
  8
0
100
AcDbLine
 62
7
  6
CONTINUOUS
 10
237.2661901481
 20
214.8403267622
 11
237.0738246882
 21
213.2687225745
  0
LINE
  5
5AE
100
AcDbEntity
  8
0
100
AcDbLine
 62
7
  6
CONTINUOUS
 10
237.5806802031
 20
213.2066831024
 11
237.752796671
 21
214.6128553014
  0
LINE
  5
5AF
100
AcDbEntity
  8
0
100
AcDbLine
 62
7
  6
CONTINUOUS
 10
239.2939277515
 20
212.4932488368
 11
239.3546747419
 21
212.9895449209
  0
LINE
  5
5B0
100
AcDbEntity
  8
0
100
AcDbLine
 62
7
  6
CONTINUOUS
 10
239.6077871922
 20
215.0574451927
 11
239.6786587002
 21
215.6364574487
  0
LINE
  5
5B1
100
AcDbEntity
  8
0
100
AcDbLine
 62
7
  6
CONTINUOUS
 10
240.121863176
 20
218.3665284645
 11
240.0669590791
 21
218.0269112507
  0
LINE
  5
5B2
100
AcDbEntity
  8
0
100
AcDbLine
 62
7
  6
CONTINUOUS
 10
240.5352238868
 20
217.8232459864
 11
240.6233648898
 21
218.239281127
  0
LINE
  5
5B3
100
AcDbEntity
  8
0
100
AcDbLine
 62
7
  6
CONTINUOUS
 10
242.9114092464
 20
221.5374471787
 11
242.9978309904
 21
221.9016100101
  0
LINE
  5
5B4
100
AcDbEntity
  8
0
100
AcDbLine
 62
7
  6
CONTINUOUS
 10
194.208337368
 20
59.6032134524
 11
194.3434357888
 21
60.0064536894
  0
LINE
  5
5B5
100
AcDbEntity
  8
0
100
AcDbLine
 62
7
  6
CONTINUOUS
 10
252.6330547933
 20
228.9419890368
 11
252.5175167776
 21
228.6111038113
  0
LINE
  5
5B6
100
AcDbEntity
  8
0
100
AcDbLine
 62
7
  6
CONTINUOUS
 10
255.2889598689
 20
227.8315935646
 11
255.404495986
 21
228.1624789727
  0
LINE
  5
5B7
100
AcDbEntity
  8
0
100
AcDbLine
 62
7
  6
CONTINUOUS
 10
256.4486163112
 20
226.7142014862
 11
256.2541270715
 21
226.2420516514
  0
LINE
  5
5B8
100
AcDbEntity
  8
0
100
AcDbLine
 62
7
  6
CONTINUOUS
 10
258.9137521588
 20
227.447593066
 11
258.2978696195
 21
225.9524520512
  0
LINE
  5
5B9
100
AcDbEntity
  8
0
100
AcDbLine
 62
7
  6
CONTINUOUS
 10
258.1033803798
 20
225.4803022164
 11
257.6495722145
 21
224.3786194155
  0
LINE
  5
5BA
100
AcDbEntity
  8
0
100
AcDbLine
 62
7
  6
CONTINUOUS
 10
258.1118855415
 20
224.1881820568
 11
258.5656937069
 21
225.2898648576
  0
LINE
  5
5BB
100
AcDbEntity
  8
0
100
AcDbLine
 62
7
  6
CONTINUOUS
 10
258.7601829466
 20
225.7620146924
 11
259.6353844116
 21
227.8866886734
  0
LINE
  5
5BC
100
AcDbEntity
  8
0
100
AcDbLine
 62
7
  6
CONTINUOUS
 10
259.336214743
 20
224.972469744
 11
259.5307039826
 21
225.4446195788
  0
LINE
  5
5BD
100
AcDbEntity
  8
0
100
AcDbLine
 62
7
  6
CONTINUOUS
 10
189.5077071641
 20
57.4532898065
 11
189.3747589417
 21
57.1476167994
  0
LINE
  5
5BE
100
AcDbEntity
  8
0
100
AcDbLine
 62
7
  6
CONTINUOUS
 10
189.8430237494
 20
56.9439515352
 11
189.9759719717
 21
57.2496245422
  0
LINE
  5
5BF
100
AcDbEntity
  8
0
100
AcDbLine
 62
7
  6
CONTINUOUS
 10
192.5110405782
 20
54.329547301
 11
192.7104628166
 21
54.788056593
  0
LINE
  5
5C0
100
AcDbEntity
  8
0
100
AcDbLine
 62
7
  6
CONTINUOUS
 10
193.5081517704
 20
56.6220937608
 11
193.7075741039
 21
57.0806032714
  0
LINE
  5
5C1
100
AcDbEntity
  8
0
100
AcDbLine
 62
7
  6
CONTINUOUS
 10
187.4414505451
 20
53.1659160587
 11
187.5926832321
 21
53.4749187582
  0
LINE
  5
5C2
100
AcDbEntity
  8
0
100
AcDbLine
 62
7
  6
CONTINUOUS
 10
256.5614432986
 20
205.4854313929
 11
260.6028951829
 21
212.4854313929
  0
LINE
  5
5C3
100
AcDbEntity
  8
0
100
AcDbLine
 62
7
  6
CONTINUOUS
 10
328.127442901
 20
229.2489435701
 11
327.7630547933
 21
228.9419890368
  0
LINE
  5
5C4
100
AcDbEntity
  8
0
100
AcDbLine
 62
7
  6
CONTINUOUS
 10
314.999009903
 20
216.9316416735
 11
315.2880463968
 21
217.1694262582
  0
LINE
  5
5C5
100
AcDbEntity
  8
0
100
AcDbLine
 62
7
  6
CONTINUOUS
 10
315.1249172156
 20
224.0196527686
 11
314.7900513096
 21
223.7575091139
  0
LINE
  5
5C6
100
AcDbEntity
  8
0
100
AcDbLine
 62
7
  6
CONTINUOUS
 10
311.2439005385
 20
215.2332336015
 11
311.4331013833
 21
215.3779858844
  0
LINE
  5
5C7
100
AcDbEntity
  8
0
100
AcDbLine
 62
7
  6
CONTINUOUS
 10
329.8383045913
 20
227.8874323334
 11
327.3120183667
 21
225.9928980188
  0
LINE
  5
5C8
100
AcDbEntity
  8
0
100
AcDbLine
 62
7
  6
CONTINUOUS
 10
327.9756249408
 20
225.9290822308
 11
330.2286172367
 21
227.5934009194
  0
LINE
  5
5C9
100
AcDbEntity
  8
RUNDUNGEN
100
AcDbLine
 62
7
  6
CONTINUOUS
 10
334.5340493933
 20
111.4854313929
 11
170.5059334351
 21
111.4854313929
  0
LWPOLYLINE
  5
5CA
100
AcDbEntity
  8
RUNDUNGEN
100
AcDbPolyline
 62
7
  6
CONTINUOUS
 90
7
 70
0
 10
171.629937485
 20
111.4854307195
 10
171.7679399614
 20
111.4816213244
 10
171.960027122
 20
111.4636151303
 10
172.1537969571
 20
111.4310615239
 10
172.3529671427
 20
111.383495205
 10
172.5603315883
 20
111.3199028414
 10
172.7024781948
 20
111.2685811359
  0
LINE
  5
5CB
100
AcDbEntity
  8
0
100
AcDbLine
 62
7
  6
CONTINUOUS
 10
343.153253988
 20
59.4831425632
 11
342.9036526984
 21
59.6008426284
  0
LINE
  5
5CC
100
AcDbEntity
  8
0
100
AcDbLine
 62
7
  6
CONTINUOUS
 10
338.1495589865
 20
50.7903132828
 11
338.5337178575
 21
50.5646424535
  0
LINE
  5
5CD
100
AcDbEntity
  8
0
100
AcDbLine
 62
7
  6
CONTINUOUS
 10
162.1933848923
 20
215.2849266473
 11
162.3420877241
 21
215.0988147163
  0
LINE
  5
5CE
100
AcDbEntity
  8
0
100
AcDbLine
 62
7
  6
CONTINUOUS
 10
165.0278276291
 20
218.9183404529
 11
165.1954859895
 21
218.6636715478
  0
LINE
  5
5CF
100
AcDbEntity
  8
0
100
AcDbLine
 62
7
  6
CONTINUOUS
 10
260.6028951829
 20
62.4854313929
 11
256.5614432986
 21
69.4854313929
  0
LINE
  5
5D0
100
AcDbEntity
  8
0
100
AcDbLine
 62
7
  6
CONTINUOUS
 10
179.9116247325
 20
228.6498726213
 11
180.0530853873
 21
228.3797720821
  0
LINE
  5
5D1
100
AcDbEntity
  8
0
100
AcDbLine
 62
7
  6
CONTINUOUS
 10
261.955351952
 20
52.5947697046
 11
262.1065735861
 21
52.247207542
  0
LINE
  5
5D2
100
AcDbEntity
  8
0
100
AcDbLine
 62
7
  6
CONTINUOUS
 10
242.5009432502
 20
222.1056491187
 11
242.4685322834
 21
221.8049467271
  0
LINE
  5
5D3
100
AcDbEntity
  8
0
100
AcDbLine
 62
7
  6
CONTINUOUS
 10
249.8217003943
 20
229.3367334565
 11
249.3993489205
 21
225.5736308455
  0
LINE
  5
5D4
100
AcDbEntity
  8
0
100
AcDbLine
 62
7
  6
CONTINUOUS
 10
249.8190980491
 20
225.2330436729
 11
250.2549999646
 21
228.5627431774
  0
LINE
  5
5D5
100
AcDbEntity
  8
0
100
AcDbLine
 62
7
  6
CONTINUOUS
 10
193.9109317043
 20
59.9754373144
 11
193.79608229
 21
59.7376291843
  0
LINE
  5
5D6
100
AcDbEntity
  8
0
100
AcDbLine
 62
7
  6
CONTINUOUS
 10
187.2038176303
 20
53.8058795016
 11
186.9985735821
 21
53.4334156071
  0
LINE
  5
5D7
100
AcDbEntity
  8
0
100
AcDbLine
 62
7
  6
CONTINUOUS
 10
181.5614432986
 20
55.4854313929
 11
185.6028951829
 21
62.4854313929
  0
LINE
  5
5D8
100
AcDbEntity
  8
0
100
AcDbLine
 62
7
  6
CONTINUOUS
 10
262.9122962597
 20
194.4854313929
 11
273.3046011051
 21
212.4854313929
  0
LINE
  5
5D9
100
AcDbEntity
  8
0
100
AcDbLine
 62
7
  6
CONTINUOUS
 10
175.0031908237
 20
46.7605220635
 11
175.2016782372
 21
47.0834304525
  0
LINE
  5
5DA
100
AcDbEntity
  8
0
100
AcDbLine
 62
7
  6
CONTINUOUS
 10
311.1255712019
 20
215.6674935746
 11
310.8316454605
 21
215.3676493334
  0
LINE
  5
5DB
100
AcDbEntity
  8
0
100
AcDbLine
 62
7
  6
CONTINUOUS
 10
374.5756651931
 20
123.2354313929
 11
347.5199914142
 21
123.2354313929
  0
LINE
  5
5DC
100
AcDbEntity
  8
0
100
AcDbLine
 62
7
  6
CONTINUOUS
 10
158.3207849561
 20
123.2354313929
 11
129.8766530846
 21
123.2354313929
  0
LINE
  5
5DD
100
AcDbEntity
  8
RUNDUNGEN
100
AcDbLine
 62
7
  6
CONTINUOUS
 10
382.5199914142
 20
123.7354313929
 11
122.5199914142
 21
123.7354313929
  0
LINE
  5
5DE
100
AcDbEntity
  8
0
100
AcDbLine
 62
7
  6
CONTINUOUS
 10
339.6640973676
 20
55.4445079925
 11
340.028021332
 21
55.1874776847
  0
LINE
  5
5DF
100
AcDbEntity
  8
0
100
AcDbLine
 62
7
  6
CONTINUOUS
 10
340.2382297095
 20
55.6562542845
 11
339.9540974972
 21
55.8775044472
  0
LINE
  5
5E0
100
AcDbEntity
  8
0
100
AcDbLine
 62
7
  6
CONTINUOUS
 10
324.5842809945
 20
46.1509993902
 11
324.3546808953
 21
46.3604184201
  0
LINE
  5
5E1
100
AcDbEntity
  8
0
100
AcDbLine
 62
7
  6
CONTINUOUS
 10
165.5509965336
 20
219.0542924025
 11
165.3052939931
 21
219.3429055381
  0
LINE
  5
5E2
100
AcDbEntity
  8
0
100
AcDbLine
 62
7
  6
CONTINUOUS
 10
167.9334092424
 20
222.7236552438
 11
167.6633653607
 21
223.062916295
  0
LINE
  5
5E3
100
AcDbEntity
  8
0
100
AcDbLine
 62
7
  6
CONTINUOUS
 10
167.339299632
 20
222.682152059
 11
167.5445325876
 21
222.3980511252
  0
LINE
  5
5E4
100
AcDbEntity
  8
0
100
AcDbLine
 62
7
  6
CONTINUOUS
 10
172.4603785358
 20
227.8944696571
 11
174.2991809364
 21
225.0845381629
  0
LINE
  5
5E5
100
AcDbEntity
  8
0
100
AcDbLine
 62
7
  6
CONTINUOUS
 10
174.5293489205
 20
225.5736308455
 11
172.5145158703
 21
228.7798388562
  0
LINE
  5
5E6
100
AcDbEntity
  8
0
100
AcDbLine
 62
7
  6
CONTINUOUS
 10
185.6028951829
 20
212.4854313929
 11
181.5614432986
 21
219.4854313929
  0
LINE
  5
5E7
100
AcDbEntity
  8
0
100
AcDbLine
 62
7
  6
CONTINUOUS
 10
273.3046011051
 20
62.4854313929
 11
262.9122962597
 21
80.4854313929
  0
LINE
  5
5E8
100
AcDbEntity
  8
0
100
AcDbLine
 62
7
  6
CONTINUOUS
 10
264.3097579879
 20
56.3580202294
 11
264.4889862949
 21
55.9165703834
  0
LINE
  5
5E9
100
AcDbEntity
  8
0
100
AcDbLine
 62
7
  6
CONTINUOUS
 10
267.2653909909
 20
59.8410314579
 11
267.3938448453
 21
59.4894876566
  0
LINE
  5
5EA
100
AcDbEntity
  8
0
100
AcDbLine
 62
7
  6
CONTINUOUS
 10
262.4954502409
 20
52.5728116607
 11
262.4090395783
 21
52.8652136672
  0
LINE
  5
5EB
100
AcDbEntity
  8
0
100
AcDbLine
 62
7
  6
CONTINUOUS
 10
253.4660957165
 20
49.3665561877
 11
254.357127077
 21
45.4670609493
  0
LINE
  5
5EC
100
AcDbEntity
  8
0
100
AcDbLine
 62
7
  6
CONTINUOUS
 10
254.6549828639
 20
46.4081196084
 11
253.9535326213
 21
49.4779351078
  0
LINE
  5
5ED
100
AcDbEntity
  8
0
100
AcDbLine
 62
7
  6
CONTINUOUS
 10
256.8781540502
 20
50.1462086282
 11
257.5796042927
 21
47.0763931288
  0
LINE
  5
5EE
100
AcDbEntity
  8
0
100
AcDbLine
 62
7
  6
CONTINUOUS
 10
258.2566223154
 20
46.3580923098
 11
257.365590955
 21
50.2575875482
  0
LINE
  5
5EF
100
AcDbEntity
  8
0
100
AcDbLine
 62
7
  6
CONTINUOUS
 10
249.48919346
 20
46.6389524535
 11
249.5395561385
 21
46.2921133722
  0
LINE
  5
5F0
100
AcDbEntity
  8
0
100
AcDbLine
 62
7
  6
CONTINUOUS
 10
242.9978309904
 20
221.9016100101
 11
242.9546308765
 21
222.3760930812
  0
LINE
  5
5F1
100
AcDbEntity
  8
0
100
AcDbLine
 62
7
  6
CONTINUOUS
 10
240.6233648898
 20
218.239281127
 11
240.6002248406
 21
218.6128425565
  0
LINE
  5
5F2
100
AcDbEntity
  8
0
100
AcDbLine
 62
7
  6
CONTINUOUS
 10
252.1820183667
 20
225.9928980188
 11
252.1412849619
 21
225.5693201536
  0
LINE
  5
5F3
100
AcDbEntity
  8
0
100
AcDbLine
 62
7
  6
CONTINUOUS
 10
254.9230853873
 20
228.3797720821
 11
254.9067920048
 21
228.2103407224
  0
LINE
  5
5F4
100
AcDbEntity
  8
0
100
AcDbLine
 62
7
  6
CONTINUOUS
 10
255.1275088492
 20
225.2821496556
 11
255.168242254
 21
225.7057275208
  0
LINE
  5
5F5
100
AcDbEntity
  8
0
100
AcDbLine
 62
7
  6
CONTINUOUS
 10
255.404495986
 20
228.1624789727
 11
255.4207893685
 21
228.3319103324
  0
LINE
  5
5F6
100
AcDbEntity
  8
0
100
AcDbLine
 62
7
  6
CONTINUOUS
 10
187.9122962597
 20
44.4854313929
 11
198.3046011051
 21
62.4854313929
  0
LINE
  5
5F7
100
AcDbEntity
  8
0
100
AcDbLine
 62
7
  6
CONTINUOUS
 10
189.7519364317
 20
57.8014365277
 11
189.5077071641
 21
57.4532898065
  0
LINE
  5
5F8
100
AcDbEntity
  8
0
100
AcDbLine
 62
7
  6
CONTINUOUS
 10
189.9759719717
 20
57.2496245422
 11
190.1869641294
 21
57.5213529053
  0
LINE
  5
5F9
100
AcDbEntity
  8
0
100
AcDbLine
 62
7
  6
CONTINUOUS
 10
315.0640108568
 20
217.7212382436
 11
314.8530186991
 21
217.4495098806
  0
LINE
  5
5FA
100
AcDbEntity
  8
0
100
AcDbLine
 62
7
  6
CONTINUOUS
 10
174.8113655918
 20
47.3774618665
 11
174.6210229596
 21
47.1392692213
  0
LINE
  5
5FB
100
AcDbEntity
  8
0
100
AcDbLine
 62
7
  6
CONTINUOUS
 10
176.9777133661
 20
46.3996437051
 11
176.7873707338
 21
46.1614510599
  0
LINE
  5
5FC
100
AcDbEntity
  8
0
100
AcDbLine
 62
7
  6
CONTINUOUS
 10
314.7900513096
 20
223.7575091139
 11
313.4937883947
 21
222.2344521696
  0
LINE
  5
5FD
100
AcDbEntity
  8
0
100
AcDbLine
 62
7
  6
CONTINUOUS
 10
314.2067196799
 20
222.2842557009
 11
315.178916866
 21
223.4265484092
  0
LINE
  5
5FE
100
AcDbEntity
  8
0
100
AcDbLine
 62
7
  6
CONTINUOUS
 10
317.4472995964
 20
221.4959440277
 11
316.4751024103
 21
220.3536513194
  0
LINE
  5
5FF
100
AcDbEntity
  8
0
100
AcDbLine
 62
7
  6
CONTINUOUS
 10
316.5399022834
 20
219.64192634
 11
317.8361651982
 21
221.1649832843
  0
LINE
  5
600
100
AcDbEntity
  8
0
100
AcDbLine
 62
7
  6
CONTINUOUS
 10
337.1673326396
 20
51.6596772953
 11
338.1495589865
 21
50.7903132828
  0
LINE
  5
601
100
AcDbEntity
  8
0
100
AcDbLine
 62
7
  6
CONTINUOUS
 10
338.4900599002
 20
51.1750186119
 11
337.5078335533
 21
52.0443826245
  0
LINE
  5
602
100
AcDbEntity
  8
0
100
AcDbLine
 62
7
  6
CONTINUOUS
 10
338.4420200515
 20
54.4192499106
 11
340.7338816346
 21
52.3907337866
  0
LINE
  5
603
100
AcDbEntity
  8
0
100
AcDbLine
 62
7
  6
CONTINUOUS
 10
341.4672730504
 20
52.4276935432
 11
338.3896304173
 21
55.1517008529
  0
LINE
  5
604
100
AcDbEntity
  8
0
100
AcDbLine
 62
7
  6
CONTINUOUS
 10
162.6461379832
 20
215.4813751292
 11
162.3386078018
 21
215.7708828194
  0
LINE
  5
605
100
AcDbEntity
  8
0
100
AcDbLine
 62
7
  6
CONTINUOUS
 10
180.50042669
 20
228.6787494137
 11
180.2012101223
 21
229.0495195523
  0
LINE
  5
606
100
AcDbEntity
  8
0
100
AcDbLine
 62
7
  6
CONTINUOUS
 10
198.3046011051
 20
212.4854313929
 11
187.9122962597
 21
230.4854313929
  0
LINE
  5
607
100
AcDbEntity
  8
0
100
AcDbLine
 62
7
  6
CONTINUOUS
 10
267.6978951044
 20
59.8720480696
 11
267.6437926804
 21
60.1305360237
  0
LINE
  5
608
100
AcDbEntity
  8
0
100
AcDbLine
 62
7
  6
CONTINUOUS
 10
237.2120877241
 20
215.0988147163
 11
237.2661901481
 21
214.8403267622
  0
LINE
  5
609
100
AcDbEntity
  8
0
100
AcDbLine
 62
7
  6
CONTINUOUS
 10
264.8444968389
 20
56.3071912381
 11
264.7881196525
 21
56.6043343214
  0
LINE
  5
60A
100
AcDbEntity
  8
0
100
AcDbLine
 62
7
  6
CONTINUOUS
 10
261.9121518381
 20
53.0692527757
 11
261.955351952
 21
52.5947697046
  0
LINE
  5
60B
100
AcDbEntity
  8
0
100
AcDbLine
 62
7
  6
CONTINUOUS
 10
264.2866179387
 20
56.7315816588
 11
264.3097579879
 21
56.3580202294
  0
LINE
  5
60C
100
AcDbEntity
  8
0
100
AcDbLine
 62
7
  6
CONTINUOUS
 10
249.7824739793
 20
49.6887131303
 11
249.7417405745
 21
49.2651352651
  0
LINE
  5
60D
100
AcDbEntity
  8
0
100
AcDbLine
 62
7
  6
CONTINUOUS
 10
249.5054868425
 20
46.8083838131
 11
249.48919346
 21
46.6389524535
  0
LINE
  5
60E
100
AcDbEntity
  8
0
100
AcDbLine
 62
7
  6
CONTINUOUS
 10
249.9868974412
 20
46.5910907038
 11
250.0031908237
 21
46.7605220635
  0
LINE
  5
60F
100
AcDbEntity
  8
0
100
AcDbLine
 62
7
  6
CONTINUOUS
 10
252.7279644618
 20
48.9779647671
 11
252.7686978666
 21
49.4015426323
  0
LINE
  5
610
100
AcDbEntity
  8
0
100
AcDbLine
 62
7
  6
CONTINUOUS
 10
317.1276865688
 20
230.4854313929
 11
306.7353817234
 21
212.4854313929
  0
LINE
  5
611
100
AcDbEntity
  8
0
100
AcDbLine
 62
7
  6
CONTINUOUS
 10
315.2880463968
 20
217.1694262582
 11
315.5322756644
 21
217.5175729793
  0
LINE
  5
612
100
AcDbEntity
  8
0
100
AcDbLine
 62
7
  6
CONTINUOUS
 10
328.0622694624
 20
228.5712190807
 11
328.2526120947
 21
228.809411726
  0
LINE
  5
613
100
AcDbEntity
  8
0
100
AcDbLine
 62
7
  6
CONTINUOUS
 10
330.2286172367
 20
227.5934009194
 11
330.4189598689
 21
227.8315935646
  0
LINE
  5
614
100
AcDbEntity
  8
0
100
AcDbLine
 62
7
  6
CONTINUOUS
 10
188.5000805451
 20
55.3289364459
 11
187.2038176303
 21
53.8058795016
  0
LINE
  5
615
100
AcDbEntity
  8
0
100
AcDbLine
 62
7
  6
CONTINUOUS
 10
187.5926832321
 20
53.4749187582
 11
188.5648804182
 21
54.6172114664
  0
LINE
  5
616
100
AcDbEntity
  8
0
100
AcDbLine
 62
7
  6
CONTINUOUS
 10
190.8332631486
 20
52.6866070849
 11
189.8610659625
 21
51.5443143767
  0
LINE
  5
617
100
AcDbEntity
  8
0
100
AcDbLine
 62
7
  6
CONTINUOUS
 10
190.2499315189
 20
51.2133536719
 11
191.5461944338
 21
52.7364106163
  0
LINE
  5
618
100
AcDbEntity
  8
0
100
AcDbLine
 62
7
  6
CONTINUOUS
 10
164.7488882303
 20
219.130535641
 11
165.0278276291
 21
218.9183404529
  0
LINE
  5
619
100
AcDbEntity
  8
0
100
AcDbLine
 62
7
  6
CONTINUOUS
 10
163.4937883947
 20
222.2344521696
 11
166.5399022834
 21
219.64192634
  0
LINE
  5
61A
100
AcDbEntity
  8
0
100
AcDbLine
 62
7
  6
CONTINUOUS
 10
166.4751024103
 20
220.3536513194
 11
164.2067196799
 21
222.2842557009
  0
LINE
  5
61B
100
AcDbEntity
  8
0
100
AcDbLine
 62
7
  6
CONTINUOUS
 10
166.3671356501
 20
223.5095538981
 11
167.339299632
 21
222.682152059
  0
LINE
  5
61C
100
AcDbEntity
  8
0
100
AcDbLine
 62
7
  6
CONTINUOUS
 10
167.6633653607
 20
223.062916295
 11
166.6912013788
 21
223.8903181342
  0
LINE
  5
61D
100
AcDbEntity
  8
0
100
AcDbLine
 62
7
  6
CONTINUOUS
 10
342.4377754373
 20
59.400551077
 11
342.7527645971
 21
59.102025241
  0
LINE
  5
61E
100
AcDbEntity
  8
0
100
AcDbLine
 62
7
  6
CONTINUOUS
 10
323.7489627862
 20
46.3584978593
 11
324.0386300991
 21
45.9638453219
  0
LINE
  5
61F
100
AcDbEntity
  8
0
100
AcDbLine
 62
7
  6
CONTINUOUS
 10
306.7353817234
 20
62.4854313929
 11
317.1276865688
 21
44.4854313929
  0
LINE
  5
620
100
AcDbEntity
  8
0
100
AcDbLine
 62
7
  6
CONTINUOUS
 10
237.6445918376
 20
215.129831328
 11
237.5161379832
 21
215.4813751292
  0
LINE
  5
621
100
AcDbEntity
  8
0
100
AcDbLine
 62
7
  6
CONTINUOUS
 10
240.0654859895
 20
218.6636715478
 11
240.121863176
 21
218.3665284645
  0
LINE
  5
622
100
AcDbEntity
  8
0
100
AcDbLine
 62
7
  6
CONTINUOUS
 10
262.4090395783
 20
52.8652136672
 11
262.4414505451
 21
53.1659160587
  0
LINE
  5
623
100
AcDbEntity
  8
0
100
AcDbLine
 62
7
  6
CONTINUOUS
 10
255.0882824342
 20
45.6341293294
 11
255.510633908
 21
49.3972319403
  0
LINE
  5
624
100
AcDbEntity
  8
0
100
AcDbLine
 62
7
  6
CONTINUOUS
 10
265.616055077
 20
62.4776139491
 11
265.5553080866
 21
61.9813178649
  0
LINE
  5
625
100
AcDbEntity
  8
0
100
AcDbLine
 62
7
  6
CONTINUOUS
 10
265.3021956363
 20
59.9134175931
 11
265.2313241283
 21
59.3344053372
  0
LINE
  5
626
100
AcDbEntity
  8
0
100
AcDbLine
 62
7
  6
CONTINUOUS
 10
267.3293026254
 20
61.7641796835
 11
267.1571861575
 21
60.3580074845
  0
LINE
  5
627
100
AcDbEntity
  8
0
100
AcDbLine
 62
7
  6
CONTINUOUS
 10
255.0908847794
 20
49.737819113
 11
254.6549828639
 21
46.4081196084
  0
LINE
  5
628
100
AcDbEntity
  8
0
100
AcDbLine
 62
7
  6
CONTINUOUS
 10
312.5289422503
 20
220.6413154849
 11
312.3295200119
 21
220.1828061929
  0
LINE
  5
629
100
AcDbEntity
  8
0
100
AcDbLine
 62
7
  6
CONTINUOUS
 10
311.5318310581
 20
218.3487690251
 11
311.3324087246
 21
217.8902595145
  0
LINE
  5
62A
100
AcDbEntity
  8
0
100
AcDbLine
 62
7
  6
CONTINUOUS
 10
311.1290511242
 20
214.9954254715
 11
311.2439005385
 21
215.2332336015
  0
LINE
  5
62B
100
AcDbEntity
  8
0
100
AcDbLine
 62
7
  6
CONTINUOUS
 10
317.5985322834
 20
221.8049467271
 11
317.4472995964
 21
221.4959440277
  0
LINE
  5
62C
100
AcDbEntity
  8
0
100
AcDbLine
 62
7
  6
CONTINUOUS
 10
317.8361651982
 20
221.1649832843
 11
318.0414092464
 21
221.5374471787
  0
LINE
  5
62D
100
AcDbEntity
  8
0
100
AcDbLine
 62
7
  6
CONTINUOUS
 10
242.1276865688
 20
80.4854313929
 11
231.7353817234
 21
62.4854313929
  0
LINE
  5
62E
100
AcDbEntity
  8
0
100
AcDbLine
 62
7
  6
CONTINUOUS
 10
323.4785395299
 20
219.4854313929
 11
319.4370876456
 21
212.4854313929
  0
LINE
  5
62F
100
AcDbEntity
  8
0
100
AcDbLine
 62
7
  6
CONTINUOUS
 10
330.0367920048
 20
228.2103407224
 11
329.8383045913
 21
227.8874323334
  0
LINE
  5
630
100
AcDbEntity
  8
0
100
AcDbLine
 62
7
  6
CONTINUOUS
 10
193.9144116266
 20
59.3033692113
 11
194.208337368
 21
59.6032134524
  0
LINE
  5
631
100
AcDbEntity
  8
0
100
AcDbLine
 62
7
  6
CONTINUOUS
 10
176.9125399275
 20
45.7219192157
 11
177.2769280352
 21
46.028873749
  0
LINE
  5
632
100
AcDbEntity
  8
0
100
AcDbLine
 62
7
  6
CONTINUOUS
 10
190.0409729255
 20
58.0392211123
 11
189.7519364317
 21
57.8014365277
  0
LINE
  5
633
100
AcDbEntity
  8
RUNDUNGEN
100
AcDbLine
 62
7
  6
CONTINUOUS
 10
122.5199914142
 20
151.2354313929
 11
382.4191301163
 21
151.2354313929
  0
LINE
  5
634
100
AcDbEntity
  8
0
100
AcDbLine
 62
7
  6
CONTINUOUS
 10
139.4813210199
 20
151.7354313929
 11
160.2188479078
 21
151.7354313929
  0
LINE
  5
635
100
AcDbEntity
  8
0
100
AcDbLine
 62
7
  6
CONTINUOUS
 10
340.4132493224
 20
151.7354313929
 11
383.2259434669
 21
151.7354313929
  0
LINE
  5
636
100
AcDbEntity
  8
0
100
AcDbLine
 62
7
  6
CONTINUOUS
 10
165.3052939931
 20
219.3429055381
 11
164.9483104687
 21
219.589044933
  0
LINE
  5
637
100
AcDbEntity
  8
0
100
AcDbLine
 62
7
  6
CONTINUOUS
 10
179.6790661016
 20
228.8432346185
 11
179.9116247325
 21
228.6498726213
  0
LINE
  5
638
100
AcDbEntity
  8
0
100
AcDbLine
 62
7
  6
CONTINUOUS
 10
339.4149996954
 20
55.7438873155
 11
339.6640973676
 21
55.4445079925
  0
LINE
  5
639
100
AcDbEntity
  8
0
100
AcDbLine
 62
7
  6
CONTINUOUS
 10
342.9036526984
 20
59.6008426284
 11
342.7515018925
 21
59.7925833197
  0
LINE
  5
63A
100
AcDbEntity
  8
0
100
AcDbLine
 62
7
  6
CONTINUOUS
 10
336.8966738237
 20
52.0135825827
 11
337.1673326396
 21
51.6596772953
  0
LINE
  5
63B
100
AcDbEntity
  8
0
100
AcDbLine
 62
7
  6
CONTINUOUS
 10
337.5078335533
 20
52.0443826245
 11
337.3026564878
 21
52.3403303164
  0
LINE
  5
63C
100
AcDbEntity
  8
0
100
AcDbLine
 62
7
  6
CONTINUOUS
 10
332.0625156135
 20
46.8223082878
 11
330.2812983003
 21
49.7774618077
  0
LINE
  5
63D
100
AcDbEntity
  8
0
100
AcDbLine
 62
7
  6
CONTINUOUS
 10
330.0263632326
 20
49.284016345
 11
331.973258287
 21
45.9152734788
  0
LINE
  5
63E
100
AcDbEntity
  8
0
100
AcDbLine
 62
7
  6
CONTINUOUS
 10
231.7353817234
 20
212.4854313929
 11
242.1276865688
 21
194.4854313929
  0
LINE
  5
63F
100
AcDbEntity
  8
0
100
AcDbLine
 62
7
  6
CONTINUOUS
 10
319.4370876456
 20
62.4854313929
 11
323.4785395299
 21
55.4854313929
  0
LINE
  5
640
100
AcDbEntity
  8
0
100
AcDbLine
 62
7
  6
CONTINUOUS
 10
240.6002248406
 20
218.6128425565
 11
240.4209965336
 21
219.0542924025
  0
LINE
  5
641
100
AcDbEntity
  8
0
100
AcDbLine
 62
7
  6
CONTINUOUS
 10
242.4145325876
 20
222.3980511252
 11
242.5009432502
 21
222.1056491187
  0
LINE
  5
642
100
AcDbEntity
  8
0
100
AcDbLine
 62
7
  6
CONTINUOUS
 10
246.653360513
 20
228.6127704761
 11
247.5443918735
 21
224.7132752377
  0
LINE
  5
643
100
AcDbEntity
  8
0
100
AcDbLine
 62
7
  6
CONTINUOUS
 10
248.0318287783
 20
224.8246541577
 11
247.3303785358
 21
227.8944696571
  0
LINE
  5
644
100
AcDbEntity
  8
0
100
AcDbLine
 62
7
  6
CONTINUOUS
 10
250.2549999646
 20
228.5627431774
 11
250.9564502072
 21
225.4929276781
  0
LINE
  5
645
100
AcDbEntity
  8
0
100
AcDbLine
 62
7
  6
CONTINUOUS
 10
251.443887112
 20
225.6043065981
 11
250.5528557515
 21
229.5038018366
  0
LINE
  5
646
100
AcDbEntity
  8
0
100
AcDbLine
 62
7
  6
CONTINUOUS
 10
255.4207893685
 20
228.3319103324
 11
255.37042669
 21
228.6787494137
  0
LINE
  5
647
100
AcDbEntity
  8
0
100
AcDbLine
 62
7
  6
CONTINUOUS
 10
267.6437926804
 20
60.1305360237
 11
267.8361581403
 21
61.7021402113
  0
LINE
  5
648
100
AcDbEntity
  8
0
100
AcDbLine
 62
7
  6
CONTINUOUS
 10
269.1032971642
 20
61.547041502
 11
268.9109317043
 21
59.9754373144
  0
LINE
  5
649
100
AcDbEntity
  8
0
100
AcDbLine
 62
7
  6
CONTINUOUS
 10
269.3434357888
 20
60.0064536894
 11
269.5864237503
 21
61.9916380261
  0
LINE
  5
64A
100
AcDbEntity
  8
0
100
AcDbLine
 62
7
  6
CONTINUOUS
 10
264.7881196525
 20
56.6043343214
 11
264.8430237494
 21
56.9439515352
  0
LINE
  5
64B
100
AcDbEntity
  8
0
100
AcDbLine
 62
7
  6
CONTINUOUS
 10
264.3747589417
 20
57.1476167994
 11
264.2866179387
 21
56.7315816588
  0
LINE
  5
64C
100
AcDbEntity
  8
0
100
AcDbLine
 62
7
  6
CONTINUOUS
 10
261.9985735821
 20
53.4334156071
 11
261.9121518381
 21
53.0692527757
  0
LINE
  5
64D
100
AcDbEntity
  8
0
100
AcDbLine
 62
7
  6
CONTINUOUS
 10
310.8316454605
 20
215.3676493334
 11
310.6965470397
 21
214.9644090964
  0
LINE
  5
64E
100
AcDbEntity
  8
0
100
AcDbLine
 62
7
  6
CONTINUOUS
 10
249.6210229596
 20
47.1392692213
 11
249.5054868425
 21
46.8083838131
  0
LINE
  5
64F
100
AcDbEntity
  8
0
100
AcDbLine
 62
7
  6
CONTINUOUS
 10
252.2769280352
 20
46.028873749
 11
252.3924660509
 21
46.3597589746
  0
LINE
  5
650
100
AcDbEntity
  8
0
100
AcDbLine
 62
7
  6
CONTINUOUS
 10
245.5737680855
 20
49.9983930418
 11
245.3792788459
 21
49.5262432071
  0
LINE
  5
651
100
AcDbEntity
  8
0
100
AcDbLine
 62
7
  6
CONTINUOUS
 10
246.798097287
 20
50.7826807291
 11
246.3442891216
 21
49.6809979282
  0
LINE
  5
652
100
AcDbEntity
  8
0
100
AcDbLine
 62
7
  6
CONTINUOUS
 10
246.1497998819
 20
49.2088480934
 11
245.2745984169
 21
47.0841741125
  0
LINE
  5
653
100
AcDbEntity
  8
0
100
AcDbLine
 62
7
  6
CONTINUOUS
 10
245.9962306697
 20
47.5232697198
 11
246.612113209
 21
49.0184107347
  0
LINE
  5
654
100
AcDbEntity
  8
0
100
AcDbLine
 62
7
  6
CONTINUOUS
 10
246.8066024487
 20
49.4905605695
 11
247.260410614
 21
50.5922433703
  0
LINE
  5
655
100
AcDbEntity
  8
0
100
AcDbLine
 62
7
  6
CONTINUOUS
 10
248.4613665173
 20
48.2566612997
 11
248.655855757
 21
48.7288111345
  0
LINE
  5
656
100
AcDbEntity
  8
0
100
AcDbLine
 62
7
  6
CONTINUOUS
 10
315.1969590791
 20
218.0269112507
 11
315.0640108568
 21
217.7212382436
  0
LINE
  5
657
100
AcDbEntity
  8
0
100
AcDbLine
 62
7
  6
CONTINUOUS
 10
315.5322756644
 20
217.5175729793
 11
315.6652238868
 21
217.8232459864
  0
LINE
  5
658
100
AcDbEntity
  8
0
100
AcDbLine
 62
7
  6
CONTINUOUS
 10
248.4785395299
 20
69.4854313929
 11
244.4370876456
 21
62.4854313929
  0
LINE
  5
659
100
AcDbEntity
  8
0
100
AcDbLine
 62
7
  6
CONTINUOUS
 10
331.5614432986
 20
205.4854313929
 11
335.6028951829
 21
212.4854313929
  0
LINE
  5
65A
100
AcDbEntity
  8
0
100
AcDbLine
 62
7
  6
CONTINUOUS
 10
189.9150656129
 20
50.9512100172
 11
190.2499315189
 21
51.2133536719
  0
LINE
  5
65B
100
AcDbEntity
  8
0
100
AcDbLine
 62
7
  6
CONTINUOUS
 10
193.79608229
 20
59.7376291843
 11
193.6068814452
 21
59.5928769014
  0
LINE
  5
65C
100
AcDbEntity
  8
0
100
AcDbLine
 62
7
  6
CONTINUOUS
 10
175.2016782372
 20
47.0834304525
 11
177.7279644618
 21
48.9779647671
  0
LINE
  5
65D
100
AcDbEntity
  8
0
100
AcDbLine
 62
7
  6
CONTINUOUS
 10
177.0643578877
 20
49.041780555
 11
174.8113655918
 21
47.3774618665
  0
LINE
  5
65E
100
AcDbEntity
  8
0
100
AcDbLine
 62
7
  6
CONTINUOUS
 10
189.8610659625
 20
51.5443143767
 11
189.5802114233
 21
51.3456319122
  0
LINE
  5
65F
100
AcDbEntity
  8
0
100
AcDbLine
 62
7
  6
CONTINUOUS
 10
190.1869641294
 20
57.5213529053
 11
190.4427635542
 21
57.682719114
  0
LINE
  5
660
100
AcDbEntity
  8
BEZUGSACHSEN
100
AcDbLine
 62
7
  6
CONTINUOUS
 10
334.5340493933
 20
163.4854313929
 11
170.5059334351
 21
163.4854313929
  0
LWPOLYLINE
  5
661
100
AcDbEntity
  8
BEZUGSACHSEN
100
AcDbPolyline
 62
7
  6
CONTINUOUS
 90
7
 70
0
 10
333.4103041045
 20
163.4854322283
 10
333.2674761503
 20
163.4894992367
 10
333.0751843063
 20
163.5078790335
 10
332.8810625229
 20
163.5408500816
 10
332.6814433048
 20
163.5888938177
 10
332.4735847049
 20
163.6530251669
 10
332.337506669
 20
163.702280873
  0
LINE
  5
662
100
AcDbEntity
  8
0
100
AcDbLine
 62
7
  6
CONTINUOUS
 10
161.9500816236
 20
215.3986623185
 11
162.1933848923
 21
215.2849266473
  0
LINE
  5
663
100
AcDbEntity
  8
0
100
AcDbLine
 62
7
  6
CONTINUOUS
 10
162.3386078018
 20
215.7708828194
 11
162.0953045331
 21
215.8846184906
  0
LINE
  5
664
100
AcDbEntity
  8
0
100
AcDbLine
 62
7
  6
CONTINUOUS
 10
166.6912013788
 20
223.8903181342
 11
166.3131358181
 21
224.1026584121
  0
LINE
  5
665
100
AcDbEntity
  8
0
100
AcDbLine
 62
7
  6
CONTINUOUS
 10
239.8978276291
 20
218.9183404529
 11
240.0654859895
 21
218.6636715478
  0
LINE
  5
666
100
AcDbEntity
  8
0
100
AcDbLine
 62
7
  6
CONTINUOUS
 10
339.9540974972
 20
55.8775044472
 11
339.7847916331
 21
56.1411036001
  0
LINE
  5
667
100
AcDbEntity
  8
0
100
AcDbLine
 62
7
  6
CONTINUOUS
 10
244.4370876456
 20
212.4854313929
 11
248.4785395299
 21
205.4854313929
  0
LINE
  5
668
100
AcDbEntity
  8
0
100
AcDbLine
 62
7
  6
CONTINUOUS
 10
335.6028951829
 20
62.4854313929
 11
331.5614432986
 21
69.4854313929
  0
LINE
  5
669
100
AcDbEntity
  8
0
100
AcDbLine
 62
7
  6
CONTINUOUS
 10
324.3546808953
 20
46.3604184201
 11
324.2221983085
 21
46.6443148544
  0
LINE
  5
66A
100
AcDbEntity
  8
0
100
AcDbLine
 62
7
  6
CONTINUOUS
 10
242.9546308765
 20
222.3760930812
 11
242.8034092424
 21
222.7236552438
  0
LINE
  5
66B
100
AcDbEntity
  8
0
100
AcDbLine
 62
7
  6
CONTINUOUS
 10
315.6652238868
 20
217.8232459864
 11
315.7533648898
 21
218.239281127
  0
LINE
  5
66C
100
AcDbEntity
  8
0
100
AcDbLine
 62
7
  6
CONTINUOUS
 10
318.0414092464
 20
221.5374471787
 11
318.1278309904
 21
221.9016100101
  0
LINE
  5
66D
100
AcDbEntity
  8
0
100
AcDbLine
 62
7
  6
CONTINUOUS
 10
269.208337368
 20
59.6032134524
 11
269.3434357888
 21
60.0064536894
  0
LINE
  5
66E
100
AcDbEntity
  8
0
100
AcDbLine
 62
7
  6
CONTINUOUS
 10
327.7630547933
 20
228.9419890368
 11
327.6475167776
 21
228.6111038113
  0
LINE
  5
66F
100
AcDbEntity
  8
0
100
AcDbLine
 62
7
  6
CONTINUOUS
 10
330.4189598689
 20
227.8315935646
 11
330.534495986
 21
228.1624789727
  0
LINE
  5
670
100
AcDbEntity
  8
0
100
AcDbLine
 62
7
  6
CONTINUOUS
 10
331.5786163112
 20
226.7142014862
 11
331.3841270715
 21
226.2420516514
  0
LINE
  5
671
100
AcDbEntity
  8
0
100
AcDbLine
 62
7
  6
CONTINUOUS
 10
334.0437521588
 20
227.447593066
 11
333.4278696195
 21
225.9524520512
  0
LINE
  5
672
100
AcDbEntity
  8
0
100
AcDbLine
 62
7
  6
CONTINUOUS
 10
333.2333803798
 20
225.4803022164
 11
332.7795722145
 21
224.3786194155
  0
LINE
  5
673
100
AcDbEntity
  8
0
100
AcDbLine
 62
7
  6
CONTINUOUS
 10
333.2418855415
 20
224.1881820568
 11
333.6956937069
 21
225.2898648576
  0
LINE
  5
674
100
AcDbEntity
  8
0
100
AcDbLine
 62
7
  6
CONTINUOUS
 10
333.8901829466
 20
225.7620146924
 11
334.7653844116
 21
227.8866886734
  0
LINE
  5
675
100
AcDbEntity
  8
0
100
AcDbLine
 62
7
  6
CONTINUOUS
 10
334.466214743
 20
224.972469744
 11
334.6607039826
 21
225.4446195788
  0
LINE
  5
676
100
AcDbEntity
  8
0
100
AcDbLine
 62
7
  6
CONTINUOUS
 10
264.5077071641
 20
57.4532898065
 11
264.3747589417
 21
57.1476167994
  0
LINE
  5
677
100
AcDbEntity
  8
0
100
AcDbLine
 62
7
  6
CONTINUOUS
 10
264.8430237494
 20
56.9439515352
 11
264.9759719717
 21
57.2496245422
  0
LINE
  5
678
100
AcDbEntity
  8
0
100
AcDbLine
 62
7
  6
CONTINUOUS
 10
262.4414505451
 20
53.1659160587
 11
262.5926832321
 21
53.4749187582
  0
LINE
  5
679
100
AcDbEntity
  8
0
100
AcDbLine
 62
7
  6
CONTINUOUS
 10
256.5614432986
 20
55.4854313929
 11
260.6028951829
 21
62.4854313929
  0
LINE
  5
67A
100
AcDbEntity
  8
0
100
AcDbLine
 62
7
  6
CONTINUOUS
 10
337.9122962597
 20
194.4854313929
 11
348.3046011051
 21
212.4854313929
  0
LINE
  5
67B
100
AcDbEntity
  8
0
100
AcDbLine
 62
7
  6
CONTINUOUS
 10
250.0031908237
 20
46.7605220635
 11
250.2016782372
 21
47.0834304525
  0
LINE
  5
67C
100
AcDbEntity
  8
0
100
AcDbLine
 62
7
  6
CONTINUOUS
 10
193.5461344548
 20
59.0965808173
 11
193.9144116266
 21
59.3033692113
  0
LINE
  5
67D
100
AcDbEntity
  8
0
100
AcDbLine
 62
7
  6
CONTINUOUS
 10
176.7873707338
 20
46.1614510599
 11
176.5222253836
 21
46.0159508124
  0
LINE
  5
67E
100
AcDbEntity
  8
0
100
AcDbLine
 62
7
  6
CONTINUOUS
 10
170.736911744
 20
46.8937367537
 11
173.4613665173
 21
48.2566612997
  0
LINE
  5
67F
100
AcDbEntity
  8
0
100
AcDbLine
 62
7
  6
CONTINUOUS
 10
172.9220021448
 20
48.4788377339
 11
170.9962306697
 21
47.5232697198
  0
LINE
  5
680
100
AcDbEntity
  8
0
100
AcDbLine
 62
7
  6
CONTINUOUS
 10
161.3324087246
 20
217.8902595145
 11
163.751776943
 21
216.8379889625
  0
LINE
  5
681
100
AcDbEntity
  8
0
100
AcDbLine
 62
7
  6
CONTINUOUS
 10
163.9511992765
 20
217.2964984731
 11
161.5318310581
 21
218.3487690251
  0
LINE
  5
682
100
AcDbEntity
  8
0
100
AcDbLine
 62
7
  6
CONTINUOUS
 10
162.3295200119
 20
220.1828061929
 11
164.7488882303
 21
219.130535641
  0
LINE
  5
683
100
AcDbEntity
  8
0
100
AcDbLine
 62
7
  6
CONTINUOUS
 10
164.9483104687
 20
219.589044933
 11
162.5289422503
 21
220.6413154849
  0
LINE
  5
684
100
AcDbEntity
  8
0
100
AcDbLine
 62
7
  6
CONTINUOUS
 10
166.0538811971
 20
223.666733904
 11
166.3671356501
 21
223.5095538981
  0
LINE
  5
685
100
AcDbEntity
  8
0
100
AcDbLine
 62
7
  6
CONTINUOUS
 10
180.2012101223
 20
229.0495195523
 11
179.8857001949
 21
229.2508585686
  0
LINE
  5
686
100
AcDbEntity
  8
0
100
AcDbLine
 62
7
  6
CONTINUOUS
 10
237.5161379832
 20
215.4813751292
 11
237.2086078018
 21
215.7708828194
  0
LINE
  5
687
100
AcDbEntity
  8
0
100
AcDbLine
 62
7
  6
CONTINUOUS
 10
240.4209965336
 20
219.0542924025
 11
240.1752939931
 21
219.3429055381
  0
LINE
  5
688
100
AcDbEntity
  8
0
100
AcDbLine
 62
7
  6
CONTINUOUS
 10
237.0633848923
 20
215.2849266473
 11
237.2120877241
 21
215.0988147163
  0
LINE
  5
689
100
AcDbEntity
  8
0
100
AcDbLine
 62
7
  6
CONTINUOUS
 10
242.8034092424
 20
222.7236552438
 11
242.5333653607
 21
223.062916295
  0
LINE
  5
68A
100
AcDbEntity
  8
0
100
AcDbLine
 62
7
  6
CONTINUOUS
 10
242.209299632
 20
222.682152059
 11
242.4145325876
 21
222.3980511252
  0
LINE
  5
68B
100
AcDbEntity
  8
0
100
AcDbLine
 62
7
  6
CONTINUOUS
 10
247.3303785358
 20
227.8944696571
 11
249.1691809364
 21
225.0845381629
  0
LINE
  5
68C
100
AcDbEntity
  8
0
100
AcDbLine
 62
7
  6
CONTINUOUS
 10
249.3993489205
 20
225.5736308455
 11
247.3845158703
 21
228.7798388562
  0
LINE
  5
68D
100
AcDbEntity
  8
0
100
AcDbLine
 62
7
  6
CONTINUOUS
 10
260.6028951829
 20
212.4854313929
 11
256.5614432986
 21
219.4854313929
  0
LINE
  5
68E
100
AcDbEntity
  8
0
100
AcDbLine
 62
7
  6
CONTINUOUS
 10
348.3046011051
 20
62.4854313929
 11
337.9122962597
 21
80.4854313929
  0
LINE
  5
68F
100
AcDbEntity
  8
0
100
AcDbLine
 62
7
  6
CONTINUOUS
 10
254.7816247325
 20
228.6498726213
 11
254.9230853873
 21
228.3797720821
  0
LINE
  5
690
100
AcDbEntity
  8
0
100
AcDbLine
 62
7
  6
CONTINUOUS
 10
336.7482472975
 20
52.3736483593
 11
336.8966738237
 21
52.0135825827
  0
LINE
  5
691
100
AcDbEntity
  8
0
100
AcDbLine
 62
7
  6
CONTINUOUS
 10
317.6309432502
 20
222.1056491187
 11
317.5985322834
 21
221.8049467271
  0
LINE
  5
692
100
AcDbEntity
  8
0
100
AcDbLine
 62
7
  6
CONTINUOUS
 10
310.6965470397
 20
214.9644090964
 11
310.4535590782
 21
212.9792247598
  0
LINE
  5
693
100
AcDbEntity
  8
0
100
AcDbLine
 62
7
  6
CONTINUOUS
 10
310.9366856643
 20
213.4238212838
 11
311.1290511242
 21
214.9954254715
  0
LINE
  5
694
100
AcDbEntity
  8
0
100
AcDbLine
 62
7
  6
CONTINUOUS
 10
312.3961901481
 20
214.8403267622
 11
312.2038246882
 21
213.2687225745
  0
LINE
  5
695
100
AcDbEntity
  8
0
100
AcDbLine
 62
7
  6
CONTINUOUS
 10
312.7106802031
 20
213.2066831024
 11
312.882796671
 21
214.6128553014
  0
LINE
  5
696
100
AcDbEntity
  8
0
100
AcDbLine
 62
7
  6
CONTINUOUS
 10
314.4239277515
 20
212.4932488368
 11
314.4846747419
 21
212.9895449209
  0
LINE
  5
697
100
AcDbEntity
  8
0
100
AcDbLine
 62
7
  6
CONTINUOUS
 10
314.7377871922
 20
215.0574451927
 11
314.8086587002
 21
215.6364574487
  0
LINE
  5
698
100
AcDbEntity
  8
0
100
AcDbLine
 62
7
  6
CONTINUOUS
 10
315.251863176
 20
218.3665284645
 11
315.1969590791
 21
218.0269112507
  0
LINE
  5
699
100
AcDbEntity
  8
0
100
AcDbLine
 62
7
  6
CONTINUOUS
 10
267.5110405782
 20
54.329547301
 11
267.7104628166
 21
54.788056593
  0
LINE
  5
69A
100
AcDbEntity
  8
0
100
AcDbLine
 62
7
  6
CONTINUOUS
 10
268.5081517704
 20
56.6220937608
 11
268.7075741039
 21
57.0806032714
  0
LINE
  5
69B
100
AcDbEntity
  8
0
100
AcDbLine
 62
7
  6
CONTINUOUS
 10
268.9109317043
 20
59.9754373144
 11
268.79608229
 21
59.7376291843
  0
LINE
  5
69C
100
AcDbEntity
  8
0
100
AcDbLine
 62
7
  6
CONTINUOUS
 10
262.2038176303
 20
53.8058795016
 11
261.9985735821
 21
53.4334156071
  0
LINE
  5
69D
100
AcDbEntity
  8
0
100
AcDbLine
 62
7
  6
CONTINUOUS
 10
262.9122962597
 20
44.4854313929
 11
273.3046011051
 21
62.4854313929
  0
LINE
  5
69E
100
AcDbEntity
  8
0
100
AcDbLine
 62
7
  6
CONTINUOUS
 10
264.7519364317
 20
57.8014365277
 11
264.5077071641
 21
57.4532898065
  0
LINE
  5
69F
100
AcDbEntity
  8
0
100
AcDbLine
 62
7
  6
CONTINUOUS
 10
249.8113655918
 20
47.3774618665
 11
249.6210229596
 21
47.1392692213
  0
LINE
  5
6A0
100
AcDbEntity
  8
0
100
AcDbLine
 62
7
  6
CONTINUOUS
 10
251.9777133661
 20
46.3996437051
 11
251.7873707338
 21
46.1614510599
  0
LINE
  5
6A1
100
AcDbEntity
  8
0
100
AcDbLine
 62
7
  6
CONTINUOUS
 10
189.5694001477
 20
50.8076876702
 11
189.9150656129
 21
50.9512100172
  0
LINE
  5
6A2
100
AcDbEntity
  8
0
100
AcDbLine
 62
7
  6
CONTINUOUS
 10
176.5644432808
 20
45.5843959874
 11
176.9125399275
 21
45.7219192157
  0
LINE
  5
6A3
100
AcDbEntity
  8
RUNDUNGEN
100
AcDbLine
 62
7
  6
CONTINUOUS
 10
332.3362521962
 20
111.2681025783
 11
332.337506669
 21
111.2685819128
  0
LINE
  5
6A4
100
AcDbEntity
  8
0
100
AcDbLine
 62
7
  6
CONTINUOUS
 10
190.486097487
 20
58.2091168432
 11
190.0409729255
 21
58.0392211123
  0
LWPOLYLINE
  5
6A5
100
AcDbEntity
  8
RUNDUNGEN
100
AcDbPolyline
 62
7
  6
CONTINUOUS
 90
7
 70
0
 10
332.337506669
 20
111.2685819128
 10
332.4735847049
 20
111.317837619
 10
332.6814433048
 20
111.3819689682
 10
332.8810625229
 20
111.4300127043
 10
333.0751843063
 20
111.4629837524
 10
333.2674761503
 20
111.4813635492
 10
333.4103041045
 20
111.4854305576
  0
LINE
  5
6A6
100
AcDbEntity
  8
0
100
AcDbLine
 62
7
  6
CONTINUOUS
 10
167.1276865688
 20
194.4854313929
 11
187.9122962597
 21
194.4854313929
  0
LINE
  5
6A7
100
AcDbEntity
  8
0
100
AcDbLine
 62
7
  6
CONTINUOUS
 10
242.1276865688
 20
194.4854313929
 11
262.9122962597
 21
194.4854313929
  0
LINE
  5
6A8
100
AcDbEntity
  8
0
100
AcDbLine
 62
7
  6
CONTINUOUS
 10
317.1276865688
 20
194.4854313929
 11
337.9122962597
 21
194.4854313929
  0
LINE
  5
6A9
100
AcDbEntity
  8
BEZUGSACHSEN
100
AcDbLine
 62
7
  6
CONTINUOUS
 10
332.3362672862
 20
163.7027544436
 11
332.337506669
 21
163.702280873
  0
LINE
  5
6AA
100
AcDbEntity
  8
0
100
AcDbLine
 62
7
  6
CONTINUOUS
 10
182.7795722145
 20
224.3786194155
 11
183.2418855415
 21
224.1881820568
  0
LINE
  5
6AB
100
AcDbEntity
  8
0
100
AcDbLine
 62
7
  6
CONTINUOUS
 10
181.3841270715
 20
226.2420516514
 11
183.2333803798
 21
225.4803022164
  0
LINE
  5
6AC
100
AcDbEntity
  8
0
100
AcDbLine
 62
7
  6
CONTINUOUS
 10
183.6956937069
 20
225.2898648576
 11
184.466214743
 21
224.972469744
  0
LINE
  5
6AD
100
AcDbEntity
  8
0
100
AcDbLine
 62
7
  6
CONTINUOUS
 10
184.6607039826
 20
225.4446195788
 11
183.8901829466
 21
225.7620146924
  0
LINE
  5
6AE
100
AcDbEntity
  8
0
100
AcDbLine
 62
7
  6
CONTINUOUS
 10
183.4278696195
 20
225.9524520512
 11
182.1179806837
 21
226.4920250519
  0
LINE
  5
6AF
100
AcDbEntity
  8
0
100
AcDbLine
 62
7
  6
CONTINUOUS
 10
239.6188882303
 20
219.130535641
 11
239.8978276291
 21
218.9183404529
  0
LINE
  5
6B0
100
AcDbEntity
  8
0
100
AcDbLine
 62
7
  6
CONTINUOUS
 10
238.3637883947
 20
222.2344521696
 11
241.4099022834
 21
219.64192634
  0
LINE
  5
6B1
100
AcDbEntity
  8
0
100
AcDbLine
 62
7
  6
CONTINUOUS
 10
241.3451024103
 20
220.3536513194
 11
239.0767196799
 21
222.2842557009
  0
LINE
  5
6B2
100
AcDbEntity
  8
0
100
AcDbLine
 62
7
  6
CONTINUOUS
 10
273.3046011051
 20
212.4854313929
 11
262.9122962597
 21
230.4854313929
  0
LINE
  5
6B3
100
AcDbEntity
  8
0
100
AcDbLine
 62
7
  6
CONTINUOUS
 10
339.235971644
 20
56.1995257907
 11
339.4149996954
 21
55.7438873155
  0
LINE
  5
6B4
100
AcDbEntity
  8
0
100
AcDbLine
 62
7
  6
CONTINUOUS
 10
327.9258729888
 20
49.3302694727
 11
328.6924882114
 21
45.2923986104
  0
LINE
  5
6B5
100
AcDbEntity
  8
0
100
AcDbLine
 62
7
  6
CONTINUOUS
 10
323.7135977118
 20
46.716871698
 11
323.7489627862
 21
46.3584978593
  0
LINE
  5
6B6
100
AcDbEntity
  8
0
100
AcDbLine
 62
7
  6
CONTINUOUS
 10
315.7533648898
 20
218.239281127
 11
315.7302248406
 21
218.6128425565
  0
LINE
  5
6B7
100
AcDbEntity
  8
0
100
AcDbLine
 62
7
  6
CONTINUOUS
 10
327.3120183667
 20
225.9928980188
 11
327.2712849619
 21
225.5693201536
  0
LINE
  5
6B8
100
AcDbEntity
  8
0
100
AcDbLine
 62
7
  6
CONTINUOUS
 10
330.0530853873
 20
228.3797720821
 11
330.0367920048
 21
228.2103407224
  0
LINE
  5
6B9
100
AcDbEntity
  8
0
100
AcDbLine
 62
7
  6
CONTINUOUS
 10
330.2575088492
 20
225.2821496556
 11
330.298242254
 21
225.7057275208
  0
LINE
  5
6BA
100
AcDbEntity
  8
0
100
AcDbLine
 62
7
  6
CONTINUOUS
 10
330.534495986
 20
228.1624789727
 11
330.5507893685
 21
228.3319103324
  0
LINE
  5
6BB
100
AcDbEntity
  8
0
100
AcDbLine
 62
7
  6
CONTINUOUS
 10
324.9517003943
 20
229.3367334565
 11
324.5293489205
 21
225.5736308455
  0
LINE
  5
6BC
100
AcDbEntity
  8
0
100
AcDbLine
 62
7
  6
CONTINUOUS
 10
324.9490980491
 20
225.2330436729
 11
325.3849999646
 21
228.5627431774
  0
LINE
  5
6BD
100
AcDbEntity
  8
0
100
AcDbLine
 62
7
  6
CONTINUOUS
 10
264.9759719717
 20
57.2496245422
 11
265.1869641294
 21
57.5213529053
  0
LINE
  5
6BE
100
AcDbEntity
  8
0
100
AcDbLine
 62
7
  6
CONTINUOUS
 10
263.5000805451
 20
55.3289364459
 11
262.2038176303
 21
53.8058795016
  0
LINE
  5
6BF
100
AcDbEntity
  8
0
100
AcDbLine
 62
7
  6
CONTINUOUS
 10
262.5926832321
 20
53.4749187582
 11
263.5648804182
 21
54.6172114664
  0
LINE
  5
6C0
100
AcDbEntity
  8
0
100
AcDbLine
 62
7
  6
CONTINUOUS
 10
265.8332631486
 20
52.6866070849
 11
264.8610659625
 21
51.5443143767
  0
LINE
  5
6C1
100
AcDbEntity
  8
0
100
AcDbLine
 62
7
  6
CONTINUOUS
 10
265.2499315189
 20
51.2133536719
 11
266.5461944338
 21
52.7364106163
  0
LINE
  5
6C2
100
AcDbEntity
  8
0
100
AcDbLine
 62
7
  6
CONTINUOUS
 10
268.9144116266
 20
59.3033692113
 11
269.208337368
 21
59.6032134524
  0
LINE
  5
6C3
100
AcDbEntity
  8
0
100
AcDbLine
 62
7
  6
CONTINUOUS
 10
315.4597714052
 20
223.6252308737
 11
315.7514261217
 21
223.7052927568
  0
LINE
  5
6C4
100
AcDbEntity
  8
0
100
AcDbLine
 62
7
  6
CONTINUOUS
 10
314.8086587002
 20
215.6364574487
 11
312.7745918376
 21
215.129831328
  0
LINE
  5
6C5
100
AcDbEntity
  8
0
100
AcDbLine
 62
7
  6
CONTINUOUS
 10
312.882796671
 20
214.6128553014
 11
314.7377871922
 21
215.0574451927
  0
LINE
  5
6C6
100
AcDbEntity
  8
0
100
AcDbLine
 62
7
  6
CONTINUOUS
 10
311.4331013833
 20
215.3779858844
 11
311.6966536295
 21
215.4296820835
  0
LINE
  5
6C7
100
AcDbEntity
  8
0
100
AcDbLine
 62
7
  6
CONTINUOUS
 10
311.7574006198
 20
215.9259781677
 11
311.4938483737
 21
215.8742819686
  0
LINE
  5
6C8
100
AcDbEntity
  8
0
100
AcDbLine
 62
7
  6
CONTINUOUS
 10
314.5972192742
 20
217.2881436719
 11
314.2966126915
 21
217.23713957
  0
LINE
  5
6C9
100
AcDbEntity
  8
0
100
AcDbLine
 62
7
  6
CONTINUOUS
 10
173.4785395299
 20
205.4854313929
 11
181.5614432986
 21
205.4854313929
  0
LINE
  5
6CA
100
AcDbEntity
  8
0
100
AcDbLine
 62
7
  6
CONTINUOUS
 10
248.4785395299
 20
205.4854313929
 11
256.5614432986
 21
205.4854313929
  0
LINE
  5
6CB
100
AcDbEntity
  8
0
100
AcDbLine
 62
7
  6
CONTINUOUS
 10
323.4785395299
 20
205.4854313929
 11
331.5614432986
 21
205.4854313929
  0
LINE
  5
6CC
100
AcDbEntity
  8
0
100
AcDbLine
 62
7
  6
CONTINUOUS
 10
160.4535590782
 20
212.9792247598
 11
164.4239277515
 21
212.4932488368
  0
LINE
  5
6CD
100
AcDbEntity
  8
0
100
AcDbLine
 62
7
  6
CONTINUOUS
 10
164.4846747419
 20
212.9895449209
 11
162.7106802031
 21
213.2066831024
  0
LINE
  5
6CE
100
AcDbEntity
  8
0
100
AcDbLine
 62
7
  6
CONTINUOUS
 10
162.2038246882
 20
213.2687225745
 11
160.9366856643
 21
213.4238212838
  0
LINE
  5
6CF
100
AcDbEntity
  8
0
100
AcDbLine
 62
7
  6
CONTINUOUS
 10
161.6966536295
 20
215.4296820835
 11
161.9500816236
 21
215.3986623185
  0
LINE
  5
6D0
100
AcDbEntity
  8
0
100
AcDbLine
 62
7
  6
CONTINUOUS
 10
162.0953045331
 20
215.8846184906
 11
161.7574006198
 21
215.9259781677
  0
LINE
  5
6D1
100
AcDbEntity
  8
0
100
AcDbLine
 62
7
  6
CONTINUOUS
 10
164.2966126915
 20
217.23713957
 11
163.9511992765
 21
217.2964984731
  0
LINE
  5
6D2
100
AcDbEntity
  8
0
100
AcDbLine
 62
7
  6
CONTINUOUS
 10
163.751776943
 20
216.8379889625
 11
164.1752346736
 21
216.7446862899
  0
LINE
  5
6D3
100
AcDbEntity
  8
0
100
AcDbLine
 62
7
  6
CONTINUOUS
 10
166.3131358181
 20
224.1026584121
 11
165.9458699982
 21
224.1963772278
  0
LINE
  5
6D4
100
AcDbEntity
  8
0
100
AcDbLine
 62
7
  6
CONTINUOUS
 10
179.2724600966
 20
228.9678349102
 11
179.6790661016
 21
228.8432346185
  0
LINE
  5
6D5
100
AcDbEntity
  8
0
100
AcDbLine
 62
7
  6
CONTINUOUS
 10
184.7653844116
 20
227.8866886734
 11
184.3030710845
 21
228.0771260321
  0
LINE
  5
6D6
100
AcDbEntity
  8
0
100
AcDbLine
 62
7
  6
CONTINUOUS
 10
236.2024087246
 20
217.8902595145
 11
238.621776943
 21
216.8379889625
  0
LINE
  5
6D7
100
AcDbEntity
  8
0
100
AcDbLine
 62
7
  6
CONTINUOUS
 10
238.8211992765
 20
217.2964984731
 11
236.4018310581
 21
218.3487690251
  0
LINE
  5
6D8
100
AcDbEntity
  8
0
100
AcDbLine
 62
7
  6
CONTINUOUS
 10
236.8200816236
 20
215.3986623185
 11
237.0633848923
 21
215.2849266473
  0
LINE
  5
6D9
100
AcDbEntity
  8
0
100
AcDbLine
 62
7
  6
CONTINUOUS
 10
237.2086078018
 20
215.7708828194
 11
236.9653045331
 21
215.8846184906
  0
LINE
  5
6DA
100
AcDbEntity
  8
0
100
AcDbLine
 62
7
  6
CONTINUOUS
 10
240.1752939931
 20
219.3429055381
 11
239.8183104687
 21
219.589044933
  0
LINE
  5
6DB
100
AcDbEntity
  8
0
100
AcDbLine
 62
7
  6
CONTINUOUS
 10
241.2371356501
 20
223.5095538981
 11
242.209299632
 21
222.682152059
  0
LINE
  5
6DC
100
AcDbEntity
  8
0
100
AcDbLine
 62
7
  6
CONTINUOUS
 10
242.5333653607
 20
223.062916295
 11
241.5612013788
 21
223.8903181342
  0
LINE
  5
6DD
100
AcDbEntity
  8
0
100
AcDbLine
 62
7
  6
CONTINUOUS
 10
255.37042669
 20
228.6787494137
 11
255.0712101223
 21
229.0495195523
  0
LINE
  5
6DE
100
AcDbEntity
  8
0
100
AcDbLine
 62
7
  6
CONTINUOUS
 10
342.3069996661
 20
59.7622023755
 11
342.4377754373
 21
59.400551077
  0
LINE
  5
6DF
100
AcDbEntity
  8
0
100
AcDbLine
 62
7
  6
CONTINUOUS
 10
337.3026564878
 20
52.3403303164
 11
337.2197117578
 21
52.642438457
  0
LINE
  5
6E0
100
AcDbEntity
  8
0
100
AcDbLine
 62
7
  6
CONTINUOUS
 10
329.0341124668
 20
46.2473468709
 11
328.4306068466
 21
49.4260963755
  0
LINE
  5
6E1
100
AcDbEntity
  8
0
100
AcDbLine
 62
7
  6
CONTINUOUS
 10
331.4590099933
 20
50.0010577925
 11
332.0625156135
 21
46.8223082878
  0
LINE
  5
6E2
100
AcDbEntity
  8
0
100
AcDbLine
 62
7
  6
CONTINUOUS
 10
332.7303590737
 20
46.059013833
 11
331.9637438511
 21
50.0968846953
  0
LINE
  5
6E3
100
AcDbEntity
  8
0
100
AcDbLine
 62
7
  6
CONTINUOUS
 10
318.1278309904
 20
221.9016100101
 11
318.0846308765
 21
222.3760930812
  0
LINE
  5
6E4
100
AcDbEntity
  8
0
100
AcDbLine
 62
7
  6
CONTINUOUS
 10
336.7133206659
 20
52.8619487361
 11
336.7482472975
 21
52.3736483593
  0
LINE
  5
6E5
100
AcDbEntity
  8
0
100
AcDbLine
 62
7
  6
CONTINUOUS
 10
251.9125399275
 20
45.7219192157
 11
252.2769280352
 21
46.028873749
  0
LINE
  5
6E6
100
AcDbEntity
  8
0
100
AcDbLine
 62
7
  6
CONTINUOUS
 10
265.0409729255
 20
58.0392211123
 11
264.7519364317
 21
57.8014365277
  0
LINE
  5
6E7
100
AcDbEntity
  8
0
100
AcDbLine
 62
7
  6
CONTINUOUS
 10
264.9150656129
 20
50.9512100172
 11
265.2499315189
 21
51.2133536719
  0
LINE
  5
6E8
100
AcDbEntity
  8
0
100
AcDbLine
 62
7
  6
CONTINUOUS
 10
268.79608229
 20
59.7376291843
 11
268.6068814452
 21
59.5928769014
  0
LINE
  5
6E9
100
AcDbEntity
  8
0
100
AcDbLine
 62
7
  6
CONTINUOUS
 10
250.2016782372
 20
47.0834304525
 11
252.7279644618
 21
48.9779647671
  0
LINE
  5
6EA
100
AcDbEntity
  8
0
100
AcDbLine
 62
7
  6
CONTINUOUS
 10
252.0643578877
 20
49.041780555
 11
249.8113655918
 21
47.3774618665
  0
LINE
  5
6EB
100
AcDbEntity
  8
0
100
AcDbLine
 62
7
  6
CONTINUOUS
 10
264.8610659625
 20
51.5443143767
 11
264.5802114233
 21
51.3456319122
  0
LINE
  5
6EC
100
AcDbEntity
  8
0
100
AcDbLine
 62
7
  6
CONTINUOUS
 10
265.1869641294
 20
57.5213529053
 11
265.4427635542
 21
57.682719114
  0
LINE
  5
6ED
100
AcDbEntity
  8
0
100
AcDbLine
 62
7
  6
CONTINUOUS
 10
268.5461344548
 20
59.0965808173
 11
268.9144116266
 21
59.3033692113
  0
LINE
  5
6EE
100
AcDbEntity
  8
0
100
AcDbLine
 62
7
  6
CONTINUOUS
 10
251.7873707338
 20
46.1614510599
 11
251.5222253836
 21
46.0159508124
  0
LINE
  5
6EF
100
AcDbEntity
  8
0
100
AcDbLine
 62
7
  6
CONTINUOUS
 10
245.736911744
 20
46.8937367537
 11
248.4613665173
 21
48.2566612997
  0
LINE
  5
6F0
100
AcDbEntity
  8
0
100
AcDbLine
 62
7
  6
CONTINUOUS
 10
247.9220021448
 20
48.4788377339
 11
245.9962306697
 21
47.5232697198
  0
LINE
  5
6F1
100
AcDbEntity
  8
0
100
AcDbLine
 62
7
  6
CONTINUOUS
 10
265.486097487
 20
58.2091168432
 11
265.0409729255
 21
58.0392211123
  0
LINE
  5
6F2
100
AcDbEntity
  8
0
100
AcDbLine
 62
7
  6
CONTINUOUS
 10
239.6786587002
 20
215.6364574487
 11
237.6445918376
 21
215.129831328
  0
LINE
  5
6F3
100
AcDbEntity
  8
0
100
AcDbLine
 62
7
  6
CONTINUOUS
 10
237.752796671
 20
214.6128553014
 11
239.6077871922
 21
215.0574451927
  0
LINE
  5
6F4
100
AcDbEntity
  8
0
100
AcDbLine
 62
7
  6
CONTINUOUS
 10
322.6743918735
 20
224.7132752377
 11
323.1618287783
 21
224.8246541577
  0
LINE
  5
6F5
100
AcDbEntity
  8
0
100
AcDbLine
 62
7
  6
CONTINUOUS
 10
324.2991809364
 20
225.0845381629
 11
324.9490980491
 21
225.2330436729
  0
LINE
  5
6F6
100
AcDbEntity
  8
0
100
AcDbLine
 62
7
  6
CONTINUOUS
 10
326.0864502072
 20
225.4929276781
 11
326.573887112
 21
225.6043065981
  0
LINE
  5
6F7
100
AcDbEntity
  8
0
100
AcDbLine
 62
7
  6
CONTINUOUS
 10
325.6828557515
 20
229.5038018366
 11
324.9517003943
 21
229.3367334565
  0
LINE
  5
6F8
100
AcDbEntity
  8
0
100
AcDbLine
 62
7
  6
CONTINUOUS
 10
322.5145158703
 20
228.7798388562
 11
321.783360513
 21
228.6127704761
  0
LINE
  5
6F9
100
AcDbEntity
  8
0
100
AcDbLine
 62
7
  6
CONTINUOUS
 10
236.3031013833
 20
215.3779858844
 11
236.5666536295
 21
215.4296820835
  0
LINE
  5
6FA
100
AcDbEntity
  8
0
100
AcDbLine
 62
7
  6
CONTINUOUS
 10
236.6274006198
 20
215.9259781677
 11
236.3638483737
 21
215.8742819686
  0
LINE
  5
6FB
100
AcDbEntity
  8
0
100
AcDbLine
 62
7
  6
CONTINUOUS
 10
314.1752346736
 20
216.7446862899
 11
314.5538853415
 21
216.7617459426
  0
LINE
  5
6FC
100
AcDbEntity
  8
0
100
AcDbLine
 62
7
  6
CONTINUOUS
 10
239.0452346736
 20
216.7446862899
 11
239.4238853415
 21
216.7617459426
  0
LINE
  5
6FD
100
AcDbEntity
  8
0
100
AcDbLine
 62
7
  6
CONTINUOUS
 10
235.3235590782
 20
212.9792247598
 11
239.2939277515
 21
212.4932488368
  0
LINE
  5
6FE
100
AcDbEntity
  8
0
100
AcDbLine
 62
7
  6
CONTINUOUS
 10
239.3546747419
 20
212.9895449209
 11
237.5806802031
 21
213.2066831024
  0
LINE
  5
6FF
100
AcDbEntity
  8
0
100
AcDbLine
 62
7
  6
CONTINUOUS
 10
237.0738246882
 20
213.2687225745
 11
235.8066856643
 21
213.4238212838
  0
LINE
  5
700
100
AcDbEntity
  8
0
100
AcDbLine
 62
7
  6
CONTINUOUS
 10
236.5666536295
 20
215.4296820835
 11
236.8200816236
 21
215.3986623185
  0
LINE
  5
701
100
AcDbEntity
  8
0
100
AcDbLine
 62
7
  6
CONTINUOUS
 10
236.9653045331
 20
215.8846184906
 11
236.6274006198
 21
215.9259781677
  0
LINE
  5
702
100
AcDbEntity
  8
0
100
AcDbLine
 62
7
  6
CONTINUOUS
 10
165.7514261217
 20
223.7052927568
 11
166.0538811971
 21
223.666733904
  0
LINE
  5
703
100
AcDbEntity
  8
0
100
AcDbLine
 62
7
  6
CONTINUOUS
 10
239.1666126915
 20
217.23713957
 11
238.8211992765
 21
217.2964984731
  0
LINE
  5
704
100
AcDbEntity
  8
0
100
AcDbLine
 62
7
  6
CONTINUOUS
 10
238.621776943
 20
216.8379889625
 11
239.0452346736
 21
216.7446862899
  0
LINE
  5
705
100
AcDbEntity
  8
0
100
AcDbLine
 62
7
  6
CONTINUOUS
 10
179.8857001949
 20
229.2508585686
 11
179.3961428935
 21
229.3834358795
  0
LINE
  5
706
100
AcDbEntity
  8
0
100
AcDbLine
 62
7
  6
CONTINUOUS
 10
237.1995200119
 20
220.1828061929
 11
239.6188882303
 21
219.130535641
  0
LINE
  5
707
100
AcDbEntity
  8
0
100
AcDbLine
 62
7
  6
CONTINUOUS
 10
239.8183104687
 20
219.589044933
 11
237.3989422503
 21
220.6413154849
  0
LINE
  5
708
100
AcDbEntity
  8
0
100
AcDbLine
 62
7
  6
CONTINUOUS
 10
240.9238811971
 20
223.666733904
 11
241.2371356501
 21
223.5095538981
  0
LINE
  5
709
100
AcDbEntity
  8
0
100
AcDbLine
 62
7
  6
CONTINUOUS
 10
241.5612013788
 20
223.8903181342
 11
241.1831358181
 21
224.1026584121
  0
LINE
  5
70A
100
AcDbEntity
  8
0
100
AcDbLine
 62
7
  6
CONTINUOUS
 10
255.0712101223
 20
229.0495195523
 11
254.7557001949
 21
229.2508585686
  0
LINE
  5
70B
100
AcDbEntity
  8
0
100
AcDbLine
 62
7
  6
CONTINUOUS
 10
254.5490661016
 20
228.8432346185
 11
254.7816247325
 21
228.6498726213
  0
LINE
  5
70C
100
AcDbEntity
  8
0
100
AcDbLine
 62
7
  6
CONTINUOUS
 10
312.3420877241
 20
215.0988147163
 11
312.3961901481
 21
214.8403267622
  0
LINE
  5
70D
100
AcDbEntity
  8
0
100
AcDbLine
 62
7
  6
CONTINUOUS
 10
342.7515018925
 20
59.7925833197
 11
342.6968015396
 21
60.0583643941
  0
LINE
  5
70E
100
AcDbEntity
  8
0
100
AcDbLine
 62
7
  6
CONTINUOUS
 10
315.1954859895
 20
218.6636715478
 11
315.251863176
 21
218.3665284645
  0
LINE
  5
70F
100
AcDbEntity
  8
0
100
AcDbLine
 62
7
  6
CONTINUOUS
 10
339.7847916331
 20
56.1411036001
 11
339.7303122616
 21
56.4470522152
  0
LINE
  5
710
100
AcDbEntity
  8
0
100
AcDbLine
 62
7
  6
CONTINUOUS
 10
339.2165271038
 20
56.5836039725
 11
339.235971644
 21
56.1995257907
  0
LINE
  5
711
100
AcDbEntity
  8
0
100
AcDbLine
 62
7
  6
CONTINUOUS
 10
340.4132493224
 20
151.2354313929
 11
340.4132493224
 21
151.7354313929
  0
LINE
  5
712
100
AcDbEntity
  8
BEZUGSACHSEN
100
AcDbLine
 62
7
  6
CONTINUOUS
 10
341.5346220356
 20
156.4854313929
 11
341.5346220356
 21
151.7354313929
  0
LINE
  5
713
100
AcDbEntity
  8
RUNDUNGEN
100
AcDbLine
 62
7
  6
CONTINUOUS
 10
341.5346220356
 20
123.7354313929
 11
341.5346220356
 21
118.4854313929
  0
LINE
  5
714
100
AcDbEntity
  8
0
100
AcDbLine
 62
7
  6
CONTINUOUS
 10
324.1582013659
 20
49.8334031274
 11
324.0964508593
 21
49.4005515467
  0
LINE
  5
715
100
AcDbEntity
  8
0
100
AcDbLine
 62
7
  6
CONTINUOUS
 10
323.7382979456
 20
46.8900125486
 11
323.7135977118
 21
46.716871698
  0
LINE
  5
716
100
AcDbEntity
  8
0
100
AcDbLine
 62
7
  6
CONTINUOUS
 10
324.2221983085
 20
46.6443148544
 11
324.2468985423
 21
46.8174557049
  0
LINE
  5
717
100
AcDbEntity
  8
0
100
AcDbLine
 62
7
  6
CONTINUOUS
 10
327.1480544394
 20
48.9652104847
 11
327.2098049459
 21
49.3980620653
  0
LINE
  5
718
100
AcDbEntity
  8
0
100
AcDbLine
 62
7
  6
CONTINUOUS
 10
329.4495889981
 20
45.4361389647
 11
330.0263632326
 21
49.284016345
  0
LINE
  5
719
100
AcDbEntity
  8
0
100
AcDbLine
 62
7
  6
CONTINUOUS
 10
329.6083185397
 20
49.6496923603
 11
329.0341124668
 21
46.2473468709
  0
LINE
  5
71A
100
AcDbEntity
  8
0
100
AcDbLine
 62
7
  6
CONTINUOUS
 10
317.1276865688
 20
80.4854313929
 11
306.7353817234
 21
62.4854313929
  0
LINE
  5
71B
100
AcDbEntity
  8
0
100
AcDbLine
 62
7
  6
CONTINUOUS
 10
264.5694001477
 20
50.8076876702
 11
264.9150656129
 21
50.9512100172
  0
LINE
  5
71C
100
AcDbEntity
  8
0
100
AcDbLine
 62
7
  6
CONTINUOUS
 10
251.5644432808
 20
45.5843959874
 11
251.9125399275
 21
45.7219192157
  0
LINE
  5
71D
100
AcDbEntity
  8
0
100
AcDbLine
 62
7
  6
CONTINUOUS
 10
240.3297714052
 20
223.6252308737
 11
240.6214261217
 21
223.7052927568
  0
LINE
  5
71E
100
AcDbEntity
  8
0
100
AcDbLine
 62
7
  6
CONTINUOUS
 10
247.5443918735
 20
224.7132752377
 11
248.0318287783
 21
224.8246541577
  0
LINE
  5
71F
100
AcDbEntity
  8
0
100
AcDbLine
 62
7
  6
CONTINUOUS
 10
249.1691809364
 20
225.0845381629
 11
249.8190980491
 21
225.2330436729
  0
LINE
  5
720
100
AcDbEntity
  8
0
100
AcDbLine
 62
7
  6
CONTINUOUS
 10
250.9564502072
 20
225.4929276781
 11
251.443887112
 21
225.6043065981
  0
LINE
  5
721
100
AcDbEntity
  8
0
100
AcDbLine
 62
7
  6
CONTINUOUS
 10
250.5528557515
 20
229.5038018366
 11
249.8217003943
 21
229.3367334565
  0
LINE
  5
722
100
AcDbEntity
  8
0
100
AcDbLine
 62
7
  6
CONTINUOUS
 10
247.3845158703
 20
228.7798388562
 11
246.653360513
 21
228.6127704761
  0
LINE
  5
723
100
AcDbEntity
  8
0
100
AcDbLine
 62
7
  6
CONTINUOUS
 10
239.4672192742
 20
217.2881436719
 11
239.1666126915
 21
217.23713957
  0
LINE
  5
724
100
AcDbEntity
  8
0
100
AcDbLine
 62
7
  6
CONTINUOUS
 10
328.5177574449
 20
228.9549119735
 11
328.9406568096
 21
228.9997428041
  0
LINE
  5
725
100
AcDbEntity
  8
0
100
AcDbLine
 62
7
  6
CONTINUOUS
 10
253.3877574449
 20
228.9549119735
 11
253.8106568096
 21
228.9997428041
  0
LINE
  5
726
100
AcDbEntity
  8
0
100
AcDbLine
 62
7
  6
CONTINUOUS
 10
315.9458699982
 20
224.1963772278
 11
315.4705826808
 21
224.1631751157
  0
LINE
  5
727
100
AcDbEntity
  8
0
100
AcDbLine
 62
7
  6
CONTINUOUS
 10
240.8158699982
 20
224.1963772278
 11
240.3405826808
 21
224.1631751157
  0
LINE
  5
728
100
AcDbEntity
  8
0
100
AcDbLine
 62
7
  6
CONTINUOUS
 10
329.0643415051
 20
229.4153435909
 11
328.4755395477
 21
229.3864667985
  0
LINE
  5
729
100
AcDbEntity
  8
0
100
AcDbLine
 62
7
  6
CONTINUOUS
 10
164.1752346736
 20
216.7446862899
 11
164.5538853415
 21
216.7617459426
  0
LINE
  5
72A
100
AcDbEntity
  8
0
100
AcDbLine
 62
7
  6
CONTINUOUS
 10
331.5614432986
 20
219.4854313929
 11
323.4785395299
 21
219.4854313929
  0
LINE
  5
72B
100
AcDbEntity
  8
0
100
AcDbLine
 62
7
  6
CONTINUOUS
 10
256.5614432986
 20
219.4854313929
 11
248.4785395299
 21
219.4854313929
  0
LINE
  5
72C
100
AcDbEntity
  8
0
100
AcDbLine
 62
7
  6
CONTINUOUS
 10
181.5614432986
 20
219.4854313929
 11
173.4785395299
 21
219.4854313929
  0
LINE
  5
72D
100
AcDbEntity
  8
0
100
AcDbLine
 62
7
  6
CONTINUOUS
 10
177.2712849619
 20
225.5693201536
 11
180.2575088492
 21
225.2821496556
  0
LINE
  5
72E
100
AcDbEntity
  8
0
100
AcDbLine
 62
7
  6
CONTINUOUS
 10
180.298242254
 20
225.7057275208
 11
177.9756249408
 21
225.9290822308
  0
LINE
  5
72F
100
AcDbEntity
  8
0
100
AcDbLine
 62
7
  6
CONTINUOUS
 10
177.6475167776
 20
228.6111038113
 11
178.0622694624
 21
228.5712190807
  0
LINE
  5
730
100
AcDbEntity
  8
0
100
AcDbLine
 62
7
  6
CONTINUOUS
 10
178.9406568096
 20
228.9997428041
 11
179.2724600966
 21
228.9678349102
  0
LINE
  5
731
100
AcDbEntity
  8
0
100
AcDbLine
 62
7
  6
CONTINUOUS
 10
179.3961428935
 20
229.3834358795
 11
179.0643415051
 21
229.4153435909
  0
LINE
  5
732
100
AcDbEntity
  8
0
100
AcDbLine
 62
7
  6
CONTINUOUS
 10
252.1412849619
 20
225.5693201536
 11
255.1275088492
 21
225.2821496556
  0
LINE
  5
733
100
AcDbEntity
  8
0
100
AcDbLine
 62
7
  6
CONTINUOUS
 10
255.168242254
 20
225.7057275208
 11
252.8456249408
 21
225.9290822308
  0
LINE
  5
734
100
AcDbEntity
  8
0
100
AcDbLine
 62
7
  6
CONTINUOUS
 10
252.5175167776
 20
228.6111038113
 11
252.9322694624
 21
228.5712190807
  0
LINE
  5
735
100
AcDbEntity
  8
0
100
AcDbLine
 62
7
  6
CONTINUOUS
 10
253.8106568096
 20
228.9997428041
 11
254.1424600966
 21
228.9678349102
  0
LINE
  5
736
100
AcDbEntity
  8
0
100
AcDbLine
 62
7
  6
CONTINUOUS
 10
310.4535590782
 20
212.9792247598
 11
314.4239277515
 21
212.4932488368
  0
LINE
  5
737
100
AcDbEntity
  8
0
100
AcDbLine
 62
7
  6
CONTINUOUS
 10
314.4846747419
 20
212.9895449209
 11
312.7106802031
 21
213.2066831024
  0
LINE
  5
738
100
AcDbEntity
  8
0
100
AcDbLine
 62
7
  6
CONTINUOUS
 10
312.2038246882
 20
213.2687225745
 11
310.9366856643
 21
213.4238212838
  0
LINE
  5
739
100
AcDbEntity
  8
0
100
AcDbLine
 62
7
  6
CONTINUOUS
 10
311.6966536295
 20
215.4296820835
 11
311.9500816236
 21
215.3986623185
  0
LINE
  5
73A
100
AcDbEntity
  8
0
100
AcDbLine
 62
7
  6
CONTINUOUS
 10
312.0953045331
 20
215.8846184906
 11
311.7574006198
 21
215.9259781677
  0
LINE
  5
73B
100
AcDbEntity
  8
0
100
AcDbLine
 62
7
  6
CONTINUOUS
 10
240.6214261217
 20
223.7052927568
 11
240.9238811971
 21
223.666733904
  0
LINE
  5
73C
100
AcDbEntity
  8
0
100
AcDbLine
 62
7
  6
CONTINUOUS
 10
314.2966126915
 20
217.23713957
 11
313.9511992765
 21
217.2964984731
  0
LINE
  5
73D
100
AcDbEntity
  8
0
100
AcDbLine
 62
7
  6
CONTINUOUS
 10
313.751776943
 20
216.8379889625
 11
314.1752346736
 21
216.7446862899
  0
LINE
  5
73E
100
AcDbEntity
  8
0
100
AcDbLine
 62
7
  6
CONTINUOUS
 10
241.1831358181
 20
224.1026584121
 11
240.8158699982
 21
224.1963772278
  0
LINE
  5
73F
100
AcDbEntity
  8
0
100
AcDbLine
 62
7
  6
CONTINUOUS
 10
254.7557001949
 20
229.2508585686
 11
254.2661428935
 21
229.3834358795
  0
LINE
  5
740
100
AcDbEntity
  8
0
100
AcDbLine
 62
7
  6
CONTINUOUS
 10
254.1424600966
 20
228.9678349102
 11
254.5490661016
 21
228.8432346185
  0
LINE
  5
741
100
AcDbEntity
  8
0
100
AcDbLine
 62
7
  6
CONTINUOUS
 10
257.6495722145
 20
224.3786194155
 11
258.1118855415
 21
224.1881820568
  0
LINE
  5
742
100
AcDbEntity
  8
0
100
AcDbLine
 62
7
  6
CONTINUOUS
 10
256.2541270715
 20
226.2420516514
 11
258.1033803798
 21
225.4803022164
  0
LINE
  5
743
100
AcDbEntity
  8
0
100
AcDbLine
 62
7
  6
CONTINUOUS
 10
258.5656937069
 20
225.2898648576
 11
259.336214743
 21
224.972469744
  0
LINE
  5
744
100
AcDbEntity
  8
0
100
AcDbLine
 62
7
  6
CONTINUOUS
 10
259.5307039826
 20
225.4446195788
 11
258.7601829466
 21
225.7620146924
  0
LINE
  5
745
100
AcDbEntity
  8
0
100
AcDbLine
 62
7
  6
CONTINUOUS
 10
258.2978696195
 20
225.9524520512
 11
256.9879806837
 21
226.4920250519
  0
LINE
  5
746
100
AcDbEntity
  8
0
100
AcDbLine
 62
7
  6
CONTINUOUS
 10
259.6353844116
 20
227.8866886734
 11
259.1730710845
 21
228.0771260321
  0
LINE
  5
747
100
AcDbEntity
  8
0
100
AcDbLine
 62
7
  6
CONTINUOUS
 10
306.7353817234
 20
212.4854313929
 11
317.1276865688
 21
194.4854313929
  0
LINE
  5
748
100
AcDbEntity
  8
0
100
AcDbLine
 62
7
  6
CONTINUOUS
 10
315.7302248406
 20
218.6128425565
 11
315.5509965336
 21
219.0542924025
  0
LINE
  5
749
100
AcDbEntity
  8
0
100
AcDbLine
 62
7
  6
CONTINUOUS
 10
312.7745918376
 20
215.129831328
 11
312.6461379832
 21
215.4813751292
  0
LINE
  5
74A
100
AcDbEntity
  8
0
100
AcDbLine
 62
7
  6
CONTINUOUS
 10
317.5445325876
 20
222.3980511252
 11
317.6309432502
 21
222.1056491187
  0
LINE
  5
74B
100
AcDbEntity
  8
0
100
AcDbLine
 62
7
  6
CONTINUOUS
 10
321.783360513
 20
228.6127704761
 11
322.6743918735
 21
224.7132752377
  0
LINE
  5
74C
100
AcDbEntity
  8
0
100
AcDbLine
 62
7
  6
CONTINUOUS
 10
323.1618287783
 20
224.8246541577
 11
322.4603785358
 21
227.8944696571
  0
LINE
  5
74D
100
AcDbEntity
  8
0
100
AcDbLine
 62
7
  6
CONTINUOUS
 10
325.3849999646
 20
228.5627431774
 11
326.0864502072
 21
225.4929276781
  0
LINE
  5
74E
100
AcDbEntity
  8
0
100
AcDbLine
 62
7
  6
CONTINUOUS
 10
330.5507893685
 20
228.3319103324
 11
330.50042669
 21
228.6787494137
  0
LINE
  5
74F
100
AcDbEntity
  8
0
100
AcDbLine
 62
7
  6
CONTINUOUS
 10
347.5199914142
 20
123.7354313929
 11
347.5199914142
 21
123.2354313929
  0
LINE
  5
750
100
AcDbEntity
  8
0
100
AcDbLine
 62
7
  6
CONTINUOUS
 10
349.1908374122
 20
123.7354313929
 11
349.1908374122
 21
123.2354313929
  0
LINE
  5
751
100
AcDbEntity
  8
0
100
AcDbLine
 62
7
  6
CONTINUOUS
 10
340.6213902134
 20
62.4769518133
 11
340.5572650478
 21
61.9672195054
  0
LINE
  5
752
100
AcDbEntity
  8
0
100
AcDbLine
 62
7
  6
CONTINUOUS
 10
340.2900768679
 20
59.8433349705
 11
340.2152641543
 21
59.2486471161
  0
LINE
  5
753
100
AcDbEntity
  8
0
100
AcDbLine
 62
7
  6
CONTINUOUS
 10
342.3792869399
 20
61.7380061442
 11
342.1975989757
 21
60.2937646459
  0
LINE
  5
754
100
AcDbEntity
  8
0
100
AcDbLine
 62
7
  6
CONTINUOUS
 10
342.6968015396
 20
60.0583643941
 11
342.8998645539
 21
61.6725166211
  0
LINE
  5
755
100
AcDbEntity
  8
0
100
AcDbLine
 62
7
  6
CONTINUOUS
 10
344.201308832
 20
61.508792783
 11
343.9982458177
 21
59.8946405559
  0
LINE
  5
756
100
AcDbEntity
  8
0
100
AcDbLine
 62
7
  6
CONTINUOUS
 10
344.4427480135
 20
59.925021257
 11
344.699248676
 21
61.9639504882
  0
LINE
  5
757
100
AcDbEntity
  8
0
100
AcDbLine
 62
7
  6
CONTINUOUS
 10
337.2197117578
 20
52.642438457
 11
337.2589986681
 21
52.950706353
  0
LINE
  5
758
100
AcDbEntity
  8
0
100
AcDbLine
 62
7
  6
CONTINUOUS
 10
339.7303122616
 20
56.4470522152
 11
339.7906594946
 21
56.7953502426
  0
LINE
  5
759
100
AcDbEntity
  8
0
100
AcDbLine
 62
7
  6
CONTINUOUS
 10
339.3119089258
 20
57.0100311382
 11
339.2165271038
 21
56.5836039725
  0
LINE
  5
75A
100
AcDbEntity
  8
0
100
AcDbLine
 62
7
  6
CONTINUOUS
 10
336.8093575406
 20
53.234333917
 11
336.7133206659
 21
52.8619487361
  0
LINE
  5
75B
100
AcDbEntity
  8
0
100
AcDbLine
 62
7
  6
CONTINUOUS
 10
323.8724638166
 20
47.2242011419
 11
323.7382979456
 21
46.8900125486
  0
LINE
  5
75C
100
AcDbEntity
  8
0
100
AcDbLine
 62
7
  6
CONTINUOUS
 10
319.855147654
 20
50.3812063925
 11
319.6294440751
 21
49.9075525602
  0
LINE
  5
75D
100
AcDbEntity
  8
0
100
AcDbLine
 62
7
  6
CONTINUOUS
 10
321.1547647404
 20
51.1180634226
 11
320.6281231264
 21
50.0128712948
  0
LINE
  5
75E
100
AcDbEntity
  8
0
100
AcDbLine
 62
7
  6
CONTINUOUS
 10
320.4024195474
 20
49.5392174626
 11
319.3867535738
 21
47.4077754938
  0
LINE
  5
75F
100
AcDbEntity
  8
0
100
AcDbLine
 62
7
  6
CONTINUOUS
 10
320.1514775999
 20
47.8183123936
 11
320.8662055385
 21
49.3182160667
  0
LINE
  5
760
100
AcDbEntity
  8
0
100
AcDbLine
 62
7
  6
CONTINUOUS
 10
321.0919091175
 20
49.791869899
 11
321.6185507315
 21
50.8970620268
  0
LINE
  5
761
100
AcDbEntity
  8
0
100
AcDbLine
 62
7
  6
CONTINUOUS
 10
322.7213495029
 20
48.4342104834
 11
322.9470530819
 21
48.9078643156
  0
LINE
  5
762
100
AcDbEntity
  8
0
100
AcDbLine
 62
7
  6
CONTINUOUS
 10
323.4785395299
 20
69.4854313929
 11
319.4370876456
 21
62.4854313929
  0
LINE
  5
763
100
AcDbEntity
  8
0
100
AcDbLine
 62
7
  6
CONTINUOUS
 10
164.8086587002
 20
215.6364574487
 11
162.7745918376
 21
215.129831328
  0
LINE
  5
764
100
AcDbEntity
  8
0
100
AcDbLine
 62
7
  6
CONTINUOUS
 10
162.882796671
 20
214.6128553014
 11
164.7377871922
 21
215.0574451927
  0
LINE
  5
765
100
AcDbEntity
  8
0
100
AcDbLine
 62
7
  6
CONTINUOUS
 10
161.4331013833
 20
215.3779858844
 11
161.6966536295
 21
215.4296820835
  0
LINE
  5
766
100
AcDbEntity
  8
0
100
AcDbLine
 62
7
  6
CONTINUOUS
 10
161.7574006198
 20
215.9259781677
 11
161.4938483737
 21
215.8742819686
  0
LINE
  5
767
100
AcDbEntity
  8
0
100
AcDbLine
 62
7
  6
CONTINUOUS
 10
164.5972192742
 20
217.2881436719
 11
164.2966126915
 21
217.23713957
  0
LINE
  5
768
100
AcDbEntity
  8
0
100
AcDbLine
 62
7
  6
CONTINUOUS
 10
178.5177574449
 20
228.9549119735
 11
178.9406568096
 21
228.9997428041
  0
LINE
  5
769
100
AcDbEntity
  8
0
100
AcDbLine
 62
7
  6
CONTINUOUS
 10
165.9458699982
 20
224.1963772278
 11
165.4705826808
 21
224.1631751157
  0
LINE
  5
76A
100
AcDbEntity
  8
0
100
AcDbLine
 62
7
  6
CONTINUOUS
 10
253.9343415051
 20
229.4153435909
 11
253.3455395477
 21
229.3864667985
  0
LINE
  5
76B
100
AcDbEntity
  8
0
100
AcDbLine
 62
7
  6
CONTINUOUS
 10
179.0643415051
 20
229.4153435909
 11
178.4755395477
 21
229.3864667985
  0
LINE
  5
76C
100
AcDbEntity
  8
0
100
AcDbLine
 62
7
  6
CONTINUOUS
 10
337.9122962597
 20
230.4854313929
 11
317.1276865688
 21
230.4854313929
  0
LINE
  5
76D
100
AcDbEntity
  8
0
100
AcDbLine
 62
7
  6
CONTINUOUS
 10
262.9122962597
 20
230.4854313929
 11
242.1276865688
 21
230.4854313929
  0
LINE
  5
76E
100
AcDbEntity
  8
0
100
AcDbLine
 62
7
  6
CONTINUOUS
 10
187.9122962597
 20
230.4854313929
 11
167.1276865688
 21
230.4854313929
  0
LINE
  5
76F
100
AcDbEntity
  8
BEZUGSACHSEN
100
AcDbLine
 62
7
  6
CONTINUOUS
 10
166.5199914142
 20
237.4854313929
 11
338.5199914142
 21
237.4854313929
  0
LINE
  5
770
100
AcDbEntity
  8
0
100
AcDbLine
 62
7
  6
CONTINUOUS
 10
254.2661428935
 20
229.3834358795
 11
253.9343415051
 21
229.4153435909
  0
LINE
  5
771
100
AcDbEntity
  8
0
100
AcDbLine
 62
7
  6
CONTINUOUS
 10
327.2712849619
 20
225.5693201536
 11
330.2575088492
 21
225.2821496556
  0
LINE
  5
772
100
AcDbEntity
  8
0
100
AcDbLine
 62
7
  6
CONTINUOUS
 10
330.298242254
 20
225.7057275208
 11
327.9756249408
 21
225.9290822308
  0
LINE
  5
773
100
AcDbEntity
  8
0
100
AcDbLine
 62
7
  6
CONTINUOUS
 10
327.6475167776
 20
228.6111038113
 11
328.0622694624
 21
228.5712190807
  0
LINE
  5
774
100
AcDbEntity
  8
0
100
AcDbLine
 62
7
  6
CONTINUOUS
 10
328.9406568096
 20
228.9997428041
 11
329.2724600966
 21
228.9678349102
  0
LINE
  5
775
100
AcDbEntity
  8
0
100
AcDbLine
 62
7
  6
CONTINUOUS
 10
329.3961428935
 20
229.3834358795
 11
329.0643415051
 21
229.4153435909
  0
LINE
  5
776
100
AcDbEntity
  8
0
100
AcDbLine
 62
7
  6
CONTINUOUS
 10
315.7514261217
 20
223.7052927568
 11
316.0538811971
 21
223.666733904
  0
LINE
  5
777
100
AcDbEntity
  8
0
100
AcDbLine
 62
7
  6
CONTINUOUS
 10
316.3131358181
 20
224.1026584121
 11
315.9458699982
 21
224.1963772278
  0
LINE
  5
778
100
AcDbEntity
  8
0
100
AcDbLine
 62
7
  6
CONTINUOUS
 10
311.3324087246
 20
217.8902595145
 11
313.751776943
 21
216.8379889625
  0
LINE
  5
779
100
AcDbEntity
  8
0
100
AcDbLine
 62
7
  6
CONTINUOUS
 10
313.9511992765
 20
217.2964984731
 11
311.5318310581
 21
218.3487690251
  0
LINE
  5
77A
100
AcDbEntity
  8
0
100
AcDbLine
 62
7
  6
CONTINUOUS
 10
312.3295200119
 20
220.1828061929
 11
314.7488882303
 21
219.130535641
  0
LINE
  5
77B
100
AcDbEntity
  8
0
100
AcDbLine
 62
7
  6
CONTINUOUS
 10
314.9483104687
 20
219.589044933
 11
312.5289422503
 21
220.6413154849
  0
LINE
  5
77C
100
AcDbEntity
  8
0
100
AcDbLine
 62
7
  6
CONTINUOUS
 10
311.9500816236
 20
215.3986623185
 11
312.1933848923
 21
215.2849266473
  0
LINE
  5
77D
100
AcDbEntity
  8
0
100
AcDbLine
 62
7
  6
CONTINUOUS
 10
312.3386078018
 20
215.7708828194
 11
312.0953045331
 21
215.8846184906
  0
LINE
  5
77E
100
AcDbEntity
  8
0
100
AcDbLine
 62
7
  6
CONTINUOUS
 10
314.7488882303
 20
219.130535641
 11
315.0278276291
 21
218.9183404529
  0
LINE
  5
77F
100
AcDbEntity
  8
0
100
AcDbLine
 62
7
  6
CONTINUOUS
 10
312.6461379832
 20
215.4813751292
 11
312.3386078018
 21
215.7708828194
  0
LINE
  5
780
100
AcDbEntity
  8
0
100
AcDbLine
 62
7
  6
CONTINUOUS
 10
315.5509965336
 20
219.0542924025
 11
315.3052939931
 21
219.3429055381
  0
LINE
  5
781
100
AcDbEntity
  8
0
100
AcDbLine
 62
7
  6
CONTINUOUS
 10
312.1933848923
 20
215.2849266473
 11
312.3420877241
 21
215.0988147163
  0
LINE
  5
782
100
AcDbEntity
  8
0
100
AcDbLine
 62
7
  6
CONTINUOUS
 10
317.339299632
 20
222.682152059
 11
317.5445325876
 21
222.3980511252
  0
LINE
  5
783
100
AcDbEntity
  8
0
100
AcDbLine
 62
7
  6
CONTINUOUS
 10
315.0278276291
 20
218.9183404529
 11
315.1954859895
 21
218.6636715478
  0
LINE
  5
784
100
AcDbEntity
  8
0
100
AcDbLine
 62
7
  6
CONTINUOUS
 10
319.4370876456
 20
212.4854313929
 11
323.4785395299
 21
205.4854313929
  0
LINE
  5
785
100
AcDbEntity
  8
0
100
AcDbLine
 62
7
  6
CONTINUOUS
 10
318.0846308765
 20
222.3760930812
 11
317.9334092424
 21
222.7236552438
  0
LINE
  5
786
100
AcDbEntity
  8
0
100
AcDbLine
 62
7
  6
CONTINUOUS
 10
326.573887112
 20
225.6043065981
 11
325.6828557515
 21
229.5038018366
  0
LINE
  5
787
100
AcDbEntity
  8
0
100
AcDbLine
 62
7
  6
CONTINUOUS
 10
358.2877403082
 20
151.2354313929
 11
358.2877403082
 21
151.7354313929
  0
LINE
  5
788
100
AcDbEntity
  8
0
100
AcDbLine
 62
7
  6
CONTINUOUS
 10
359.3720089992
 20
151.2354313929
 11
359.3720089992
 21
151.7354313929
  0
LINE
  5
789
100
AcDbEntity
  8
0
100
AcDbLine
 62
7
  6
CONTINUOUS
 10
359.6856165061
 20
123.7354313929
 11
359.6856165061
 21
123.2354313929
  0
LINE
  5
78A
100
AcDbEntity
  8
0
100
AcDbLine
 62
7
  6
CONTINUOUS
 10
360.0869997017
 20
151.2354313929
 11
360.0869997017
 21
151.7354313929
  0
LINE
  5
78B
100
AcDbEntity
  8
0
100
AcDbLine
 62
7
  6
CONTINUOUS
 10
361.1578268369
 20
123.7354313929
 11
361.1578268369
 21
123.2354313929
  0
LINE
  5
78C
100
AcDbEntity
  8
0
100
AcDbLine
 62
7
  6
CONTINUOUS
 10
361.8302774597
 20
151.2354313929
 11
361.8302774597
 21
151.7354313929
  0
LINE
  5
78D
100
AcDbEntity
  8
0
100
AcDbLine
 62
7
  6
CONTINUOUS
 10
363.0366383024
 20
123.7354313929
 11
363.0366383024
 21
123.2354313929
  0
LINE
  5
78E
100
AcDbEntity
  8
0
100
AcDbLine
 62
7
  6
CONTINUOUS
 10
363.3749192635
 20
151.2354313929
 11
363.3749192635
 21
151.7354313929
  0
LINE
  5
78F
100
AcDbEntity
  8
0
100
AcDbLine
 62
7
  6
CONTINUOUS
 10
364.2471114381
 20
123.7354313929
 11
364.2471114381
 21
123.2354313929
  0
LINE
  5
790
100
AcDbEntity
  8
0
100
AcDbLine
 62
7
  6
CONTINUOUS
 10
364.3867575115
 20
151.2354313929
 11
364.3867575115
 21
151.7354313929
  0
LINE
  5
791
100
AcDbEntity
  8
0
100
AcDbLine
 62
7
  6
CONTINUOUS
 10
365.530016568
 20
123.7354313929
 11
365.530016568
 21
123.2354313929
  0
LINE
  5
792
100
AcDbEntity
  8
0
100
AcDbLine
 62
7
  6
CONTINUOUS
 10
366.0721514952
 20
123.7354313929
 11
366.0721514952
 21
123.2354313929
  0
LINE
  5
793
100
AcDbEntity
  8
0
100
AcDbLine
 62
7
  6
CONTINUOUS
 10
366.5511846362
 20
123.7354313929
 11
366.5511846362
 21
123.2354313929
  0
LINE
  5
794
100
AcDbEntity
  8
0
100
AcDbLine
 62
7
  6
CONTINUOUS
 10
344.3025474296
 20
59.5111591733
 11
344.4427480135
 21
59.925021257
  0
LINE
  5
795
100
AcDbEntity
  8
0
100
AcDbLine
 62
7
  6
CONTINUOUS
 10
326.5462660679
 20
45.9594352191
 11
326.6804338791
 21
46.2936235356
  0
LINE
  5
796
100
AcDbEntity
  8
0
100
AcDbLine
 62
7
  6
CONTINUOUS
 10
339.4520479109
 20
57.3225490204
 11
339.3119089258
 21
57.0100311382
  0
LINE
  5
797
100
AcDbEntity
  8
0
100
AcDbLine
 62
7
  6
CONTINUOUS
 10
339.7906594946
 20
56.7953502426
 11
339.9307984798
 21
57.1078681248
  0
LINE
  5
798
100
AcDbEntity
  8
0
100
AcDbLine
 62
7
  6
CONTINUOUS
 10
337.2589986681
 20
52.950706353
 11
337.4205173104
 21
53.2651339233
  0
LINE
  5
799
100
AcDbEntity
  8
0
100
AcDbLine
 62
7
  6
CONTINUOUS
 10
331.5614432986
 20
55.4854313929
 11
335.6028951829
 21
62.4854313929
  0
LINE
  5
79A
100
AcDbEntity
  8
0
100
AcDbLine
 62
7
  6
CONTINUOUS
 10
324.2468985423
 20
46.8174557049
 11
324.4658318261
 21
47.1395513986
  0
LINE
  5
79B
100
AcDbEntity
  8
0
100
AcDbLine
 62
7
  6
CONTINUOUS
 10
324.079048941
 20
47.4597262548
 11
323.8724638166
 21
47.2242011419
  0
LINE
  5
79C
100
AcDbEntity
  8
0
100
AcDbLine
 62
7
  6
CONTINUOUS
 10
343.6203941969
 20
58.9928760054
 11
343.9995085223
 21
59.2040824773
  0
LINE
  5
79D
100
AcDbEntity
  8
0
100
AcDbLine
 62
7
  6
CONTINUOUS
 10
319.8505395649
 20
47.186774098
 11
322.7213495029
 21
48.4342104834
  0
LINE
  5
79E
100
AcDbEntity
  8
0
100
AcDbLine
 62
7
  6
CONTINUOUS
 10
322.1802670261
 20
48.6920448832
 11
320.1514775999
 21
47.8183123936
  0
LINE
  5
79F
100
AcDbEntity
  8
0
100
AcDbLine
 62
7
  6
CONTINUOUS
 10
339.3980727739
 20
50.4856870193
 11
339.7560366673
 21
50.6262418033
  0
LINE
  5
7A0
100
AcDbEntity
  8
0
100
AcDbLine
 62
7
  6
CONTINUOUS
 10
340.4660415828
 20
58.0877703146
 11
340.0067357616
 21
57.9183734723
  0
LINE
  5
7A1
100
AcDbEntity
  8
0
100
AcDbLine
 62
7
  6
CONTINUOUS
 10
325.7940319883
 20
45.536755761
 11
326.1577998986
 21
45.6615250476
  0
LINE
  5
7A2
100
AcDbEntity
  8
0
100
AcDbLine
 62
7
  6
CONTINUOUS
 10
165.4597714052
 20
223.6252308737
 11
165.7514261217
 21
223.7052927568
  0
LINE
  5
7A3
100
AcDbEntity
  8
0
100
AcDbLine
 62
7
  6
CONTINUOUS
 10
172.6743918735
 20
224.7132752377
 11
173.1618287783
 21
224.8246541577
  0
LINE
  5
7A4
100
AcDbEntity
  8
0
100
AcDbLine
 62
7
  6
CONTINUOUS
 10
174.2991809364
 20
225.0845381629
 11
174.9490980491
 21
225.2330436729
  0
LINE
  5
7A5
100
AcDbEntity
  8
0
100
AcDbLine
 62
7
  6
CONTINUOUS
 10
176.0864502072
 20
225.4929276781
 11
176.573887112
 21
225.6043065981
  0
LINE
  5
7A6
100
AcDbEntity
  8
0
100
AcDbLine
 62
7
  6
CONTINUOUS
 10
175.6828557515
 20
229.5038018366
 11
174.9517003943
 21
229.3367334565
  0
LINE
  5
7A7
100
AcDbEntity
  8
0
100
AcDbLine
 62
7
  6
CONTINUOUS
 10
172.5145158703
 20
228.7798388562
 11
171.783360513
 21
228.6127704761
  0
LINE
  5
7A8
100
AcDbEntity
  8
0
100
AcDbLine
 62
7
  6
CONTINUOUS
 10
329.8857001949
 20
229.2508585686
 11
329.3961428935
 21
229.3834358795
  0
LINE
  5
7A9
100
AcDbEntity
  8
0
100
AcDbLine
 62
7
  6
CONTINUOUS
 10
329.2724600966
 20
228.9678349102
 11
329.6790661016
 21
228.8432346185
  0
LINE
  5
7AA
100
AcDbEntity
  8
0
100
AcDbLine
 62
7
  6
CONTINUOUS
 10
332.7795722145
 20
224.3786194155
 11
333.2418855415
 21
224.1881820568
  0
LINE
  5
7AB
100
AcDbEntity
  8
0
100
AcDbLine
 62
7
  6
CONTINUOUS
 10
331.3841270715
 20
226.2420516514
 11
333.2333803798
 21
225.4803022164
  0
LINE
  5
7AC
100
AcDbEntity
  8
0
100
AcDbLine
 62
7
  6
CONTINUOUS
 10
333.6956937069
 20
225.2898648576
 11
334.466214743
 21
224.972469744
  0
LINE
  5
7AD
100
AcDbEntity
  8
0
100
AcDbLine
 62
7
  6
CONTINUOUS
 10
334.6607039826
 20
225.4446195788
 11
333.8901829466
 21
225.7620146924
  0
LINE
  5
7AE
100
AcDbEntity
  8
0
100
AcDbLine
 62
7
  6
CONTINUOUS
 10
333.4278696195
 20
225.9524520512
 11
332.1179806837
 21
226.4920250519
  0
LINE
  5
7AF
100
AcDbEntity
  8
0
100
AcDbLine
 62
7
  6
CONTINUOUS
 10
316.0538811971
 20
223.666733904
 11
316.3671356501
 21
223.5095538981
  0
LINE
  5
7B0
100
AcDbEntity
  8
0
100
AcDbLine
 62
7
  6
CONTINUOUS
 10
316.6912013788
 20
223.8903181342
 11
316.3131358181
 21
224.1026584121
  0
LINE
  5
7B1
100
AcDbEntity
  8
0
100
AcDbLine
 62
7
  6
CONTINUOUS
 10
315.3052939931
 20
219.3429055381
 11
314.9483104687
 21
219.589044933
  0
LINE
  5
7B2
100
AcDbEntity
  8
0
100
AcDbLine
 62
7
  6
CONTINUOUS
 10
313.4937883947
 20
222.2344521696
 11
316.5399022834
 21
219.64192634
  0
LINE
  5
7B3
100
AcDbEntity
  8
0
100
AcDbLine
 62
7
  6
CONTINUOUS
 10
316.4751024103
 20
220.3536513194
 11
314.2067196799
 21
222.2842557009
  0
LINE
  5
7B4
100
AcDbEntity
  8
0
100
AcDbLine
 62
7
  6
CONTINUOUS
 10
316.3671356501
 20
223.5095538981
 11
317.339299632
 21
222.682152059
  0
LINE
  5
7B5
100
AcDbEntity
  8
0
100
AcDbLine
 62
7
  6
CONTINUOUS
 10
317.6633653607
 20
223.062916295
 11
316.6912013788
 21
223.8903181342
  0
LINE
  5
7B6
100
AcDbEntity
  8
0
100
AcDbLine
 62
7
  6
CONTINUOUS
 10
317.9334092424
 20
222.7236552438
 11
317.6633653607
 21
223.062916295
  0
LINE
  5
7B7
100
AcDbEntity
  8
0
100
AcDbLine
 62
7
  6
CONTINUOUS
 10
322.4603785358
 20
227.8944696571
 11
324.2991809364
 21
225.0845381629
  0
LINE
  5
7B8
100
AcDbEntity
  8
0
100
AcDbLine
 62
7
  6
CONTINUOUS
 10
324.5293489205
 20
225.5736308455
 11
322.5145158703
 21
228.7798388562
  0
LINE
  5
7B9
100
AcDbEntity
  8
0
100
AcDbLine
 62
7
  6
CONTINUOUS
 10
335.6028951829
 20
212.4854313929
 11
331.5614432986
 21
219.4854313929
  0
LINE
  5
7BA
100
AcDbEntity
  8
0
100
AcDbLine
 62
7
  6
CONTINUOUS
 10
329.9116247325
 20
228.6498726213
 11
330.0530853873
 21
228.3797720821
  0
LINE
  5
7BB
100
AcDbEntity
  8
0
100
AcDbLine
 62
7
  6
CONTINUOUS
 10
367.3923777477
 20
123.7354313929
 11
367.3923777477
 21
123.2354313929
  0
LINE
  5
7BC
100
AcDbEntity
  8
0
100
AcDbLine
 62
7
  6
CONTINUOUS
 10
367.6395666866
 20
151.2354313929
 11
367.6395666866
 21
151.7354313929
  0
LINE
  5
7BD
100
AcDbEntity
  8
0
100
AcDbLine
 62
7
  6
CONTINUOUS
 10
368.8014863529
 20
123.7354313929
 11
368.8014863529
 21
123.2354313929
  0
LINE
  5
7BE
100
AcDbEntity
  8
0
100
AcDbLine
 62
7
  6
CONTINUOUS
 10
370.4816621309
 20
123.7354313929
 11
370.4816621309
 21
123.2354313929
  0
LINE
  5
7BF
100
AcDbEntity
  8
0
100
AcDbLine
 62
7
  6
CONTINUOUS
 10
370.8923750862
 20
151.2354313929
 11
370.8923750862
 21
151.7354313929
  0
LINE
  5
7C0
100
AcDbEntity
  8
0
100
AcDbLine
 62
7
  6
CONTINUOUS
 10
371.6290335774
 20
123.7354313929
 11
371.6290335774
 21
123.2354313929
  0
LINE
  5
7C1
100
AcDbEntity
  8
0
100
AcDbLine
 62
7
  6
CONTINUOUS
 10
371.9766453282
 20
151.2354313929
 11
371.9766453282
 21
151.7354313929
  0
LINE
  5
7C2
100
AcDbEntity
  8
0
100
AcDbLine
 62
7
  6
CONTINUOUS
 10
372.1080667184
 20
123.7354313929
 11
372.1080667184
 21
123.2354313929
  0
LINE
  5
7C3
100
AcDbEntity
  8
0
100
AcDbLine
 62
7
  6
CONTINUOUS
 10
372.3316840182
 20
151.2354313929
 11
372.3316840182
 21
151.7354313929
  0
LINE
  5
7C4
100
AcDbEntity
  8
0
100
AcDbLine
 62
7
  6
CONTINUOUS
 10
373.1986578901
 20
151.2354313929
 11
373.1986578901
 21
151.7354313929
  0
LINE
  5
7C5
100
AcDbEntity
  8
0
100
AcDbLine
 62
7
  6
CONTINUOUS
 10
373.8979960979
 20
123.7354313929
 11
373.8979960979
 21
123.2354313929
  0
LINE
  5
7C6
100
AcDbEntity
  8
0
100
AcDbLine
 62
7
  6
CONTINUOUS
 10
374.5353354374
 20
151.2354313929
 11
374.5353354374
 21
151.7354313929
  0
LINE
  5
7C7
100
AcDbEntity
  8
0
100
AcDbLine
 62
7
  6
CONTINUOUS
 10
374.5756651931
 20
123.7354313929
 11
374.5756651931
 21
123.2354313929
  0
LINE
  5
7C8
100
AcDbEntity
  8
0
100
AcDbLine
 62
7
  6
CONTINUOUS
 10
375.6733764821
 20
151.2354313929
 11
375.6733764821
 21
151.7354313929
  0
LINE
  5
7C9
100
AcDbEntity
  8
0
100
AcDbLine
 62
7
  6
CONTINUOUS
 10
377.4166542401
 20
151.2354313929
 11
377.4166542401
 21
151.7354313929
  0
LINE
  5
7CA
100
AcDbEntity
  8
0
100
AcDbLine
 62
7
  6
CONTINUOUS
 10
342.5015659842
 20
54.0782930364
 11
342.7117743617
 21
54.5470696363
  0
LINE
  5
7CB
100
AcDbEntity
  8
0
100
AcDbLine
 62
7
  6
CONTINUOUS
 10
343.5526078716
 20
56.4221760355
 11
343.7628163493
 21
56.8909528589
  0
LINE
  5
7CC
100
AcDbEntity
  8
0
100
AcDbLine
 62
7
  6
CONTINUOUS
 10
343.9982458177
 20
59.8946405559
 11
343.8794202992
 21
59.6506893225
  0
LINE
  5
7CD
100
AcDbEntity
  8
0
100
AcDbLine
 62
7
  6
CONTINUOUS
 10
337.0276267625
 20
53.6128795364
 11
336.8093575406
 21
53.234333917
  0
LINE
  5
7CE
100
AcDbEntity
  8
0
100
AcDbLine
 62
7
  6
CONTINUOUS
 10
337.9122962597
 20
44.4854313929
 11
348.3046011051
 21
62.4854313929
  0
LINE
  5
7CF
100
AcDbEntity
  8
0
100
AcDbLine
 62
7
  6
CONTINUOUS
 10
339.7070132512
 20
57.6774158897
 11
339.4520479109
 21
57.3225490204
  0
LINE
  5
7D0
100
AcDbEntity
  8
0
100
AcDbLine
 62
7
  6
CONTINUOUS
 10
339.9307984798
 20
57.1078681248
 11
340.1507290166
 21
57.3846054149
  0
LINE
  5
7D1
100
AcDbEntity
  8
0
100
AcDbLine
 62
7
  6
CONTINUOUS
 10
326.2566006952
 20
46.3540874797
 11
326.0500155708
 21
46.1185623667
  0
LINE
  5
7D2
100
AcDbEntity
  8
0
100
AcDbLine
 62
7
  6
CONTINUOUS
 10
338.3896304173
 20
55.1517008529
 11
337.0276267625
 21
53.6128795364
  0
LINE
  5
7D3
100
AcDbEntity
  8
0
100
AcDbLine
 62
7
  6
CONTINUOUS
 10
337.4205173104
 20
53.2651339233
 11
338.4420200515
 21
54.4192499106
  0
LINE
  5
7D4
100
AcDbEntity
  8
0
100
AcDbLine
 62
7
  6
CONTINUOUS
 10
340.7338816346
 20
52.3907337866
 11
339.7123788935
 21
51.2366177993
  0
LINE
  5
7D5
100
AcDbEntity
  8
0
100
AcDbLine
 62
7
  6
CONTINUOUS
 10
340.1052693955
 20
50.8888722267
 11
341.4672730504
 21
52.4276935432
  0
LINE
  5
7D6
100
AcDbEntity
  8
0
100
AcDbLine
 62
7
  6
CONTINUOUS
 10
343.9995085223
 20
59.2040824773
 11
344.3025474296
 21
59.5111591733
  0
LINE
  5
7D7
100
AcDbEntity
  8
0
100
AcDbLine
 62
7
  6
CONTINUOUS
 10
340.0067357616
 20
57.9183734723
 11
339.7070132512
 21
57.6774158897
  0
LINE
  5
7D8
100
AcDbEntity
  8
0
100
AcDbLine
 62
7
  6
CONTINUOUS
 10
326.1577998986
 20
45.6615250476
 11
326.5462660679
 21
45.9594352191
  0
LINE
  5
7D9
100
AcDbEntity
  8
0
100
AcDbLine
 62
7
  6
CONTINUOUS
 10
343.8794202992
 20
59.6506893225
 11
343.6845193625
 21
59.5026083132
  0
LINE
  5
7DA
100
AcDbEntity
  8
0
100
AcDbLine
 62
7
  6
CONTINUOUS
 10
339.7560366673
 20
50.6262418033
 11
340.1052693955
 21
50.8888722267
  0
LINE
  5
7DB
100
AcDbEntity
  8
0
100
AcDbLine
 62
7
  6
CONTINUOUS
 10
324.4658318261
 20
47.1395513986
 11
327.1480544394
 21
48.9652104847
  0
LINE
  5
7DC
100
AcDbEntity
  8
0
100
AcDbLine
 62
7
  6
CONTINUOUS
 10
339.7123788935
 20
51.2366177993
 11
339.4198967505
 21
51.0381054198
  0
LINE
  5
7DD
100
AcDbEntity
  8
0
100
AcDbLine
 62
7
  6
CONTINUOUS
 10
326.469919017
 20
49.0619531274
 11
324.079048941
 21
47.4597262548
  0
LINE
  5
7DE
100
AcDbEntity
  8
0
100
AcDbLine
 62
7
  6
CONTINUOUS
 10
340.1507290166
 20
57.3846054149
 11
340.4154167655
 21
57.5474333995
  0
LINE
  5
7DF
100
AcDbEntity
  8
0
100
AcDbLine
 62
7
  6
CONTINUOUS
 10
326.0500155708
 20
46.1185623667
 11
325.7710150733
 21
45.9817001806
  0
LINE
  5
7E0
100
AcDbEntity
  8
0
100
AcDbLine
 62
7
  6
CONTINUOUS
 10
334.7653844116
 20
227.8866886734
 11
334.3030710845
 21
228.0771260321
  0
LINE
  5
7E1
100
AcDbEntity
  8
0
100
AcDbLine
 62
7
  6
CONTINUOUS
 10
330.2012101223
 20
229.0495195523
 11
329.8857001949
 21
229.2508585686
  0
LINE
  5
7E2
100
AcDbEntity
  8
0
100
AcDbLine
 62
7
  6
CONTINUOUS
 10
329.6790661016
 20
228.8432346185
 11
329.9116247325
 21
228.6498726213
  0
LINE
  5
7E3
100
AcDbEntity
  8
0
100
AcDbLine
 62
7
  6
CONTINUOUS
 10
330.50042669
 20
228.6787494137
 11
330.2012101223
 21
229.0495195523
  0
LINE
  5
7E4
100
AcDbEntity
  8
0
100
AcDbLine
 62
7
  6
CONTINUOUS
 10
348.3046011051
 20
212.4854313929
 11
337.9122962597
 21
230.4854313929
  0
LINE
  5
7E5
100
AcDbEntity
  8
0
100
AcDbLine
 62
7
  6
CONTINUOUS
 10
378.9612964317
 20
151.2354313929
 11
378.9612964317
 21
151.7354313929
  0
LINE
  5
7E6
100
AcDbEntity
  8
0
100
AcDbLine
 62
7
  6
CONTINUOUS
 10
379.9731342918
 20
151.2354313929
 11
379.9731342918
 21
151.7354313929
  0
LINE
  5
7E7
100
AcDbEntity
  8
RUNDUNGEN
100
AcDbLine
 62
7
  6
CONTINUOUS
 10
383.2259434669
 20
151.1921266077
 11
383.2259434669
 21
151.7354313929
  0
LINE
  5
7E8
100
AcDbEntity
  8
RUNDUNGEN
100
AcDbLine
 62
7
  6
CONTINUOUS
 10
388.5199914142
 20
187.4854313929
 11
388.5199914142
 21
87.4854313929
  0
LINE
  5
7E9
100
AcDbEntity
  8
BEZUGSACHSEN
100
AcDbLine
 62
7
  6
CONTINUOUS
 10
388.5199914142
 20
129.7354313929
 11
388.5199914142
 21
145.2354313929
  0
ARC
  5
7EA
100
AcDbEntity
  8
BEZUGSACHSEN
100
AcDbCircle
 62
7
  6
CONTINUOUS
 10
176.183179792
 20
286.016846234
 40
60.3949822782
100
AcDbArc
 50
81.7487917846
 51
83.2495484546
  0
ARC
  5
7EB
100
AcDbEntity
  8
BEZUGSACHSEN
100
AcDbCircle
 62
7
  6
CONTINUOUS
 10
178.270348485
 20
290.8451481725
 40
55.5311954945
100
AcDbArc
 50
96.2456421834
 51
96.6887725001
  0
ARC
  5
7EC
100
AcDbEntity
  8
BEZUGSACHSEN
100
AcDbCircle
 62
7
  6
CONTINUOUS
 10
176.8237015989
 20
291.3177164541
 40
55.0555714318
100
AcDbArc
 50
83.2630664268
 51
83.9854061804
  0
ARC
  5
7ED
100
AcDbEntity
  8
BEZUGSACHSEN
100
AcDbCircle
 62
7
  6
CONTINUOUS
 10
178.0217820671
 20
293.1324437879
 40
53.2304340306
100
AcDbArc
 50
95.5157973995
 51
96.2475222947
  0
ARC
  5
7EE
100
AcDbEntity
  8
BEZUGSACHSEN
100
AcDbCircle
 62
7
  6
CONTINUOUS
 10
177.1300708883
 20
294.2334120904
 40
52.1238208786
100
AcDbArc
 50
84.0437693968
 51
84.7299959739
  0
ARC
  5
7EF
100
AcDbEntity
  8
BEZUGSACHSEN
100
AcDbCircle
 62
7
  6
CONTINUOUS
 10
177.7954655478
 20
295.4655486818
 40
50.8863784541
100
AcDbArc
 50
94.9082161341
 51
95.514660057
  0
ARC
  5
7F0
100
AcDbEntity
  8
BEZUGSACHSEN
100
AcDbCircle
 62
7
  6
CONTINUOUS
 10
177.277467931
 20
295.8083857598
 40
50.5419664796
100
AcDbArc
 50
84.7323922124
 51
84.9646048592
  0
ARC
  5
7F1
100
AcDbEntity
  8
BEZUGSACHSEN
100
AcDbCircle
 62
7
  6
CONTINUOUS
 10
177.6908593176
 20
296.6653966059
 40
49.6819801903
100
AcDbArc
 50
94.68891602
 51
94.8507554006
  0
ARC
  5
7F2
100
AcDbEntity
  8
BEZUGSACHSEN
100
AcDbCircle
 62
7
  6
CONTINUOUS
 10
177.3574415279
 20
296.7392857396
 40
49.6076398217
100
AcDbArc
 50
84.962247319
 51
86.332846439
  0
ARC
  5
7F3
100
AcDbEntity
  8
BEZUGSACHSEN
100
AcDbCircle
 62
7
  6
CONTINUOUS
 10
177.6602173532
 20
297.050556492
 40
49.2956045099
100
AcDbArc
 50
93.7248371557
 51
94.6900152606
  0
ARC
  5
7F4
100
AcDbEntity
  8
BEZUGSACHSEN
100
AcDbCircle
 62
7
  6
CONTINUOUS
 10
177.6263326131
 20
297.559327346
 40
48.7857069288
100
AcDbArc
 50
93.427631207
 51
93.6499213889
  0
ARC
  5
7F5
100
AcDbEntity
  8
BEZUGSACHSEN
100
AcDbCircle
 62
7
  6
CONTINUOUS
 10
177.4132174969
 20
297.5790391556
 40
48.7660384395
100
AcDbArc
 50
86.3351386403
 51
86.8311878607
  0
ARC
  5
7F6
100
AcDbEntity
  8
BEZUGSACHSEN
100
AcDbCircle
 62
7
  6
CONTINUOUS
 10
177.6175766096
 20
297.704876276
 40
48.6398948676
100
AcDbArc
 50
93.2983278597
 51
93.4275860988
  0
ARC
  5
7F7
100
AcDbEntity
  8
BEZUGSACHSEN
100
AcDbCircle
 62
7
  6
CONTINUOUS
 10
177.6101347172
 20
297.8343186451
 40
48.5102387519
100
AcDbArc
 50
93.1234246468
 51
93.298348987
  0
ARC
  5
7F8
100
AcDbEntity
  8
BEZUGSACHSEN
100
AcDbCircle
 62
7
  6
CONTINUOUS
 10
177.6012592628
 20
297.9971943127
 40
48.3471214425
100
AcDbArc
 50
92.9250532438
 51
93.1234392761
  0
ARC
  5
7F9
100
AcDbEntity
  8
BEZUGSACHSEN
100
AcDbCircle
 62
7
  6
CONTINUOUS
 10
177.441310699
 20
298.0876841819
 40
48.2566181942
100
AcDbArc
 50
86.8311087386
 51
87.3568852033
  0
ARC
  5
7FA
100
AcDbEntity
  8
BEZUGSACHSEN
100
AcDbCircle
 62
7
  6
CONTINUOUS
 10
177.5842406928
 20
298.3388209209
 40
48.0050711106
100
AcDbArc
 50
92.4278148421
 51
92.8689942196
  0
ARC
  5
7FB
100
AcDbEntity
  8
BEZUGSACHSEN
100
AcDbCircle
 62
7
  6
CONTINUOUS
 10
177.462885774
 20
298.550554304
 40
47.7932455682
100
AcDbArc
 50
87.3571333693
 51
87.718239005
  0
ARC
  5
7FC
100
AcDbEntity
  8
BEZUGSACHSEN
100
AcDbCircle
 62
7
  6
CONTINUOUS
 10
177.492879887
 20
299.346576174
 40
46.9966607028
100
AcDbArc
 50
87.7161393219
 51
88.8023055432
  0
ARC
  5
7FD
100
AcDbEntity
  8
RUNDUNGEN
100
AcDbCircle
 62
7
  6
CONTINUOUS
 10
163.2699914142
 20
354.2222766002
 40
46.75
100
AcDbArc
 50
157.5
 51
180.0
  0
ARC
  5
7FE
100
AcDbEntity
  8
BEZUGSACHSEN
100
AcDbCircle
 62
7
  6
CONTINUOUS
 10
177.5216552106
 20
300.069147916
 40
46.2736473749
100
AcDbArc
 50
88.819226346
 51
92.4411483776
  0
ARC
  5
7FF
100
AcDbEntity
  8
RUNDUNGEN
100
AcDbCircle
 62
7
  6
CONTINUOUS
 10
142.6159128623
 20
363.2793626876
 40
20.0
100
AcDbArc
 50
270.0
 51
337.5026360523
  0
ARC
  5
800
100
AcDbEntity
  8
RUNDUNGEN
100
AcDbCircle
 62
7
  6
CONTINUOUS
 10
154.1373053589
 20
380.1193358055
 40
15.8
100
AcDbArc
 50
337.5000234898
 51
22.4999929093
  0
ARC
  5
801
100
AcDbEntity
  8
RUNDUNGEN
100
AcDbCircle
 62
7
  6
CONTINUOUS
 10
196.6482102889
 20
456.6511438129
 40
10.0
100
AcDbArc
 50
112.5
 51
157.5
  0
ARC
  5
802
100
AcDbEntity
  8
RUNDUNGEN
100
AcDbCircle
 62
7
  6
CONTINUOUS
 10
173.5053607929
 20
400.7793626876
 40
10.0
100
AcDbArc
 50
157.5
 51
202.5
  0
ARC
  5
803
100
AcDbEntity
  8
RUNDUNGEN
100
AcDbCircle
 62
7
  6
CONTINUOUS
 10
252.5199914142
 20
378.2793626876
 40
120.0
100
AcDbArc
 50
22.5
 51
157.5
  0
ARC
  5
804
100
AcDbEntity
  8
BEZUGSACHSEN
100
AcDbCircle
 62
7
  6
CONTINUOUS
 10
326.464739419
 20
288.1549039311
 40
58.2386562032
100
AcDbArc
 50
81.7210531578
 51
83.7915141855
  0
ARC
  5
805
100
AcDbEntity
  8
BEZUGSACHSEN
100
AcDbCircle
 62
7
  6
CONTINUOUS
 10
328.315931177
 20
290.444194888
 40
55.9347303359
100
AcDbArc
 50
96.3075977652
 51
96.8180727713
  0
ARC
  5
806
100
AcDbEntity
  8
BEZUGSACHSEN
100
AcDbCircle
 62
7
  6
CONTINUOUS
 10
328.0764777562
 20
292.6130091705
 40
53.7527373814
100
AcDbArc
 50
95.7338981419
 51
96.3078912493
  0
ARC
  5
807
100
AcDbEntity
  8
BEZUGSACHSEN
100
AcDbCircle
 62
7
  6
CONTINUOUS
 10
327.0535916528
 20
293.4672369146
 40
52.8937990343
100
AcDbArc
 50
83.8033081812
 51
84.5476209959
  0
ARC
  5
808
100
AcDbEntity
  8
BEZUGSACHSEN
100
AcDbCircle
 62
7
  6
CONTINUOUS
 10
327.927740735
 20
294.0790621902
 40
52.2791594984
100
AcDbArc
 50
95.508476276
 51
95.7322303524
  0
ARC
  5
809
100
AcDbEntity
  8
BEZUGSACHSEN
100
AcDbCircle
 62
7
  6
CONTINUOUS
 10
327.7954489815
 20
295.4660112613
 40
50.8859162842
100
AcDbArc
 50
94.9125235195
 51
95.510116339
  0
ARC
  5
80A
100
AcDbEntity
  8
BEZUGSACHSEN
100
AcDbCircle
 62
7
  6
CONTINUOUS
 10
327.265241492
 20
295.6721077374
 40
50.6787916885
100
AcDbArc
 50
84.6497147091
 51
84.9643584226
  0
ARC
  5
80B
100
AcDbEntity
  8
BEZUGSACHSEN
100
AcDbCircle
 62
7
  6
CONTINUOUS
 10
327.3195228554
 20
296.28363487
 40
50.0648603059
100
AcDbArc
 50
84.9648102453
 51
85.2254504445
  0
ARC
  5
80C
100
AcDbEntity
  8
BEZUGSACHSEN
100
AcDbCircle
 62
7
  6
CONTINUOUS
 10
327.6890944102
 20
296.6864781948
 40
49.6608248669
100
AcDbArc
 50
94.6226482448
 51
94.8507831882
  0
ARC
  5
80D
100
AcDbEntity
  8
BEZUGSACHSEN
100
AcDbCircle
 62
7
  6
CONTINUOUS
 10
327.671251255
 20
296.9095336283
 40
49.4370568115
100
AcDbArc
 50
94.2331803787
 51
94.5674180014
  0
ARC
  5
80E
100
AcDbEntity
  8
BEZUGSACHSEN
100
AcDbCircle
 62
7
  6
CONTINUOUS
 10
327.3845729397
 20
297.1055812967
 40
49.240351765
100
AcDbArc
 50
85.2212725388
 51
86.9004151998
  0
ARC
  5
80F
100
AcDbEntity
  8
BEZUGSACHSEN
100
AcDbCircle
 62
7
  6
CONTINUOUS
 10
327.6554626903
 20
297.1226582563
 40
49.2233481098
100
AcDbArc
 50
94.0201345064
 51
94.1808759641
  0
ARC
  5
810
100
AcDbEntity
  8
BEZUGSACHSEN
100
AcDbCircle
 62
7
  6
CONTINUOUS
 10
327.647238028
 20
297.2396561164
 40
49.1060615193
100
AcDbArc
 50
93.8678571908
 51
94.0201321108
  0
ARC
  5
811
100
AcDbEntity
  8
BEZUGSACHSEN
100
AcDbCircle
 62
7
  6
CONTINUOUS
 10
327.6398445482
 20
297.348923711
 40
48.9965440743
100
AcDbArc
 50
93.7361256575
 51
93.8678502559
  0
ARC
  5
812
100
AcDbEntity
  8
BEZUGSACHSEN
100
AcDbCircle
 62
7
  6
CONTINUOUS
 10
327.6248005958
 20
297.5827107833
 40
48.7622735765
100
AcDbArc
 50
93.2862381565
 51
93.7363864312
  0
ARC
  5
813
100
AcDbEntity
  8
BEZUGSACHSEN
100
AcDbCircle
 62
7
  6
CONTINUOUS
 10
327.6040227123
 20
297.9439472722
 40
48.4004400235
100
AcDbArc
 50
92.8848097883
 51
93.2861954081
  0
ARC
  5
814
100
AcDbEntity
  8
BEZUGSACHSEN
100
AcDbCircle
 62
7
  6
CONTINUOUS
 10
327.443136306
 20
298.1249398905
 40
48.2193179329
100
AcDbArc
 50
86.9044069079
 51
87.3570107153
  0
ARC
  5
815
100
AcDbEntity
  8
BEZUGSACHSEN
100
AcDbCircle
 62
7
  6
CONTINUOUS
 10
327.5845700596
 20
298.3315024325
 40
48.012396982
100
AcDbArc
 50
92.4278375815
 51
92.8849016007
  0
ARC
  5
816
100
AcDbEntity
  8
BEZUGSACHSEN
100
AcDbCircle
 62
7
  6
CONTINUOUS
 10
327.4602591424
 20
298.491358143
 40
47.8524998803
100
AcDbArc
 50
87.357259951
 51
87.6074076005
  0
ARC
  5
817
100
AcDbEntity
  8
BEZUGSACHSEN
100
AcDbCircle
 62
7
  6
CONTINUOUS
 10
327.4855972521
 20
299.1279898529
 40
47.2153654032
100
AcDbArc
 50
87.605877243
 51
88.5241129272
  0
ARC
  5
818
100
AcDbEntity
  8
RUNDUNGEN
100
AcDbCircle
 62
7
  6
CONTINUOUS
 10
341.7699914142
 20
354.2222766002
 40
46.75
100
AcDbArc
 50
0.0
 51
22.5
  0
ARC
  5
819
100
AcDbEntity
  8
BEZUGSACHSEN
100
AcDbCircle
 62
7
  6
CONTINUOUS
 10
327.5210318407
 20
300.0475131099
 40
46.2952360219
100
AcDbArc
 50
88.538641775
 51
92.4392371259
  0
ARC
  5
81A
100
AcDbEntity
  8
RUNDUNGEN
100
AcDbCircle
 62
7
  6
CONTINUOUS
 10
362.4240699662
 20
363.2793626876
 40
20.0
100
AcDbArc
 50
202.4973309504
 51
270.0
  0
ARC
  5
81B
100
AcDbEntity
  8
RUNDUNGEN
100
AcDbCircle
 62
7
  6
CONTINUOUS
 10
350.9026774696
 20
380.1193358055
 40
15.8
100
AcDbArc
 50
157.500007088
 51
202.4999770802
  0
ARC
  5
81C
100
AcDbEntity
  8
RUNDUNGEN
100
AcDbCircle
 62
7
  6
CONTINUOUS
 10
252.5199914142
 20
400.7793626876
 40
57.5
100
AcDbArc
 50
315.8095782409
 51
357.266685063
  0
ARC
  5
81D
100
AcDbEntity
  8
BEZUGSACHSEN
100
AcDbCircle
 62
7
  6
CONTINUOUS
 10
252.5199914142
 20
400.7793626876
 40
57.5
100
AcDbArc
 50
287.273313571
 51
253.0430120308
  0
ARC
  5
81E
100
AcDbEntity
  8
RUNDUNGEN
100
AcDbCircle
 62
7
  6
CONTINUOUS
 10
331.5346220356
 20
400.7793626876
 40
10.0
100
AcDbArc
 50
337.4999999436
 51
22.5000000776
  0
ARC
  5
81F
100
AcDbEntity
  8
RUNDUNGEN
100
AcDbCircle
 62
7
  6
CONTINUOUS
 10
308.3917725396
 20
456.6511438129
 40
10.0
100
AcDbArc
 50
22.4999999436
 51
67.5000000776
  0
ARC
  5
820
100
AcDbEntity
  8
RUNDUNGEN
100
AcDbCircle
 62
7
  6
CONTINUOUS
 10
252.5199914142
 20
479.793993309
 40
10.0
100
AcDbArc
 50
67.5
 51
112.5
  0
ARC
  5
821
100
AcDbEntity
  8
RUNDUNGEN
100
AcDbCircle
 62
7
  6
CONTINUOUS
 10
669.6223617953
 20
397.4650986342
 40
48.125
100
AcDbArc
 50
179.9999359415
 51
200.0003677991
  0
ARC
  5
822
100
AcDbEntity
  8
BEZUGSACHSEN
100
AcDbCircle
 62
7
  6
CONTINUOUS
 10
669.6223617953
 20
397.4650986342
 40
48.125
100
AcDbArc
 50
183.1450984837
 51
186.3365157845
  0
ARC
  5
823
100
AcDbEntity
  8
BEZUGSACHSEN
100
AcDbCircle
 62
7
  6
CONTINUOUS
 10
669.6223617953
 20
397.4650986342
 40
48.125
100
AcDbArc
 50
188.993200236
 51
196.4305258909
  0
ARC
  5
824
100
AcDbEntity
  8
BEZUGSACHSEN
100
AcDbCircle
 62
7
  6
CONTINUOUS
 10
521.3723617953
 20
397.4650986342
 40
48.125
100
AcDbArc
 50
339.9996322009
 51
0.0000640585
  0
ARC
  5
825
100
AcDbEntity
  8
RUNDUNGEN
100
AcDbCircle
 62
7
  6
CONTINUOUS
 10
652.1349522655
 20
363.2793626876
 40
20.0
100
AcDbArc
 50
200.0000104731
 51
270.0
  0
ARC
  5
826
100
AcDbEntity
  8
BEZUGSACHSEN
100
AcDbCircle
 62
7
  6
CONTINUOUS
 10
652.1349522655
 20
363.2793626876
 40
20.0
100
AcDbArc
 50
203.247268466
 51
237.9983917402
  0
ARC
  5
827
100
AcDbEntity
  8
BEZUGSACHSEN
100
AcDbCircle
 62
7
  6
CONTINUOUS
 10
538.8597713252
 20
363.2793626876
 40
20.0
100
AcDbArc
 50
270.0
 51
339.9999895269
  0
ARC
  5
828
100
AcDbEntity
  8
BEZUGSACHSEN
100
AcDbCircle
 62
7
  6
CONTINUOUS
 10
576.4973617953
 20
482.793993309
 40
7.0
100
AcDbArc
 50
90.0
 51
180.0
  0
ARC
  5
829
100
AcDbEntity
  8
RUNDUNGEN
100
AcDbCircle
 62
7
  6
CONTINUOUS
 10
614.4973617953
 20
482.793993309
 40
7.0
100
AcDbArc
 50
0.0
 51
90.0
  0
ARC
  5
82A
100
AcDbEntity
  8
RUNDUNGEN
100
AcDbCircle
 62
7
  6
CONTINUOUS
 10
587.7473617953
 20
492.2793626876
 40
6.0
100
AcDbArc
 50
90.0
 51
180.0
  0
ARC
  5
82B
100
AcDbEntity
  8
RUNDUNGEN
100
AcDbCircle
 62
7
  6
CONTINUOUS
 10
603.2473617953
 20
492.2793626876
 40
6.0
100
AcDbArc
 50
0.0
 51
90.0
  0
ARC
  5
82C
100
AcDbEntity
  8
BEZUGSACHSEN
100
AcDbCircle
 62
7
  6
CONTINUOUS
 10
166.5199914142
 20
87.4854313929
 40
50.0
100
AcDbArc
 50
180.0
 51
270.0
  0
ARC
  5
82D
100
AcDbEntity
  8
BEZUGSACHSEN
100
AcDbCircle
 62
7
  6
CONTINUOUS
 10
177.5199914142
 20
62.4854313929
 40
29.0
100
AcDbArc
 50
300.4503140214
 51
238.9425201372
  0
ARC
  5
82E
100
AcDbEntity
  8
RUNDUNGEN
100
AcDbCircle
 62
7
  6
CONTINUOUS
 10
170.5053607929
 20
118.4854313929
 40
7.0
100
AcDbArc
 50
180.0
 51
270.0
  0
ARC
  5
82F
100
AcDbEntity
  8
RUNDUNGEN
100
AcDbCircle
 62
7
  6
CONTINUOUS
 10
122.5199914142
 20
129.7354313929
 40
6.0
100
AcDbArc
 50
180.0
 51
270.0
  0
ARC
  5
830
100
AcDbEntity
  8
BEZUGSACHSEN
100
AcDbCircle
 62
7
  6
CONTINUOUS
 10
166.5199914142
 20
187.4854313929
 40
50.0
100
AcDbArc
 50
90.0
 51
180.0
  0
ARC
  5
831
100
AcDbEntity
  8
BEZUGSACHSEN
100
AcDbCircle
 62
7
  6
CONTINUOUS
 10
177.5199914142
 20
212.4854313929
 40
29.0
100
AcDbArc
 50
121.0574798628
 51
59.5496859786
  0
ARC
  5
832
100
AcDbEntity
  8
BEZUGSACHSEN
100
AcDbCircle
 62
7
  6
CONTINUOUS
 10
170.5053607929
 20
156.4854313929
 40
7.0
100
AcDbArc
 50
90.0
 51
180.0
  0
ARC
  5
833
100
AcDbEntity
  8
RUNDUNGEN
100
AcDbCircle
 62
7
  6
CONTINUOUS
 10
122.5199914142
 20
145.2354313929
 40
6.0
100
AcDbArc
 50
90.0
 51
180.0
  0
ARC
  5
834
100
AcDbEntity
  8
BEZUGSACHSEN
100
AcDbCircle
 62
7
  6
CONTINUOUS
 10
338.5199914142
 20
87.4854313929
 40
50.0
100
AcDbArc
 50
270.0
 51
360.0
  0
ARC
  5
835
100
AcDbEntity
  8
BEZUGSACHSEN
100
AcDbCircle
 62
7
  6
CONTINUOUS
 10
252.5199914142
 20
62.4854313929
 40
29.0
100
AcDbArc
 50
300.4503140214
 51
239.5496859786
  0
ARC
  5
836
100
AcDbEntity
  8
BEZUGSACHSEN
100
AcDbCircle
 62
7
  6
CONTINUOUS
 10
327.5199914142
 20
62.4854313929
 40
29.0
100
AcDbArc
 50
301.0574798628
 51
239.5496859786
  0
ARC
  5
837
100
AcDbEntity
  8
RUNDUNGEN
100
AcDbCircle
 62
7
  6
CONTINUOUS
 10
334.5346220356
 20
118.4854313929
 40
7.0
100
AcDbArc
 50
270.0
 51
360.0
  0
ARC
  5
838
100
AcDbEntity
  8
RUNDUNGEN
100
AcDbCircle
 62
7
  6
CONTINUOUS
 10
382.5199914142
 20
129.7354313929
 40
6.0
100
AcDbArc
 50
270.0
 51
360.0
  0
ARC
  5
839
100
AcDbEntity
  8
BEZUGSACHSEN
100
AcDbCircle
 62
7
  6
CONTINUOUS
 10
338.5199914142
 20
187.4854313929
 40
50.0
100
AcDbArc
 50
0.0
 51
90.0
  0
ARC
  5
83A
100
AcDbEntity
  8
BEZUGSACHSEN
100
AcDbCircle
 62
7
  6
CONTINUOUS
 10
327.5199914142
 20
212.4854313929
 40
29.0
100
AcDbArc
 50
120.4503140214
 51
58.9425201372
  0
ARC
  5
83B
100
AcDbEntity
  8
BEZUGSACHSEN
100
AcDbCircle
 62
7
  6
CONTINUOUS
 10
252.5199914142
 20
212.4854313929
 40
29.0
100
AcDbArc
 50
120.4503140214
 51
59.5496859786
  0
ARC
  5
83C
100
AcDbEntity
  8
RUNDUNGEN
100
AcDbCircle
 62
7
  6
CONTINUOUS
 10
382.4074377649
 20
142.556519051
 40
8.6789123551
100
AcDbArc
 50
89.3055065026
 51
90.0031560517
  0
ARC
  5
83D
100
AcDbEntity
  8
BEZUGSACHSEN
100
AcDbCircle
 62
7
  6
CONTINUOUS
 10
334.5346220356
 20
156.4854313929
 40
7.0
100
AcDbArc
 50
0.0
 51
90.0
  0
ARC
  5
83E
100
AcDbEntity
  8
RUNDUNGEN
100
AcDbCircle
 62
7
  6
CONTINUOUS
 10
382.5199914142
 20
145.2354313929
 40
6.0
100
AcDbArc
 50
0.0
 51
83.2412176609
  0
SPLINE
  5
83F
100
AcDbEntity
  8
BEZUGSACHSEN
100
AcDbSpline
 62
7
  6
CONTINUOUS
 70
0
 71
3
 72
9
 73
5
 74
0
 42
0.0000001
 43
0.0000001
 44
0.0000000001
 40
0.0
 40
0.0
 40
0.0
 40
0.0
 40
0.2405744495
 40
1.0
 40
1.0
 40
1.0
 40
1.0
 10
155.0740136842
 20
343.2793626876
 30
0.0
 10
155.2068737111
 20
343.2793626876
 30
0.0
 10
155.7591361316
 20
343.2876305069
 30
0.0
 10
156.3106884989
 20
343.3255710457
 30
0.0
 10
156.7281808161
 20
343.3655439425
 30
0.0
  0
LINE
  5
840
100
AcDbEntity
  8
BEZUGSACHSEN
100
AcDbLine
 62
7
  6
CONTINUOUS
 10
173.4416373489
 20
346.1653286832
 11
173.4897236263
 21
346.1694329518
  0
LINE
  5
841
100
AcDbEntity
  8
BEZUGSACHSEN
100
AcDbLine
 62
7
  6
CONTINUOUS
 10
174.4577338898
 20
346.2420265215
 11
174.5206311491
 21
346.2460793321
  0
LINE
  5
842
100
AcDbEntity
  8
BEZUGSACHSEN
100
AcDbLine
 62
7
  6
CONTINUOUS
 10
175.1341232132
 20
346.2813261935
 11
175.1814681785
 21
346.2837219697
  0
LINE
  5
843
100
AcDbEntity
  8
BEZUGSACHSEN
100
AcDbLine
 62
7
  6
CONTINUOUS
 10
182.5388918943
 20
346.0758402579
 11
182.5925220833
 21
346.0702201037
  0
SPLINE
  5
844
100
AcDbEntity
  8
BEZUGSACHSEN
100
AcDbSpline
 62
7
  6
CONTINUOUS
 70
0
 71
3
 72
9
 73
5
 74
0
 42
0.0000001
 43
0.0000001
 44
0.0000000001
 40
0.0
 40
0.0
 40
0.0
 40
0.0
 40
0.2594033726
 40
1.0
 40
1.0
 40
1.0
 40
1.0
 10
198.3120299322
 20
343.3655209733
 30
0.0
 10
198.4546127679
 20
343.3518708897
 30
0.0
 10
199.0047139121
 20
343.3044035399
 30
0.0
 10
199.5570339718
 20
343.2793626876
 30
0.0
 10
199.9659691443
 20
343.2793626876
 30
0.0
  0
SPLINE
  5
845
100
AcDbEntity
  8
BEZUGSACHSEN
100
AcDbSpline
 62
7
  6
CONTINUOUS
 70
0
 71
3
 72
9
 73
5
 74
0
 42
0.0000001
 43
0.0000001
 44
0.0000000001
 40
0.0
 40
0.0
 40
0.0
 40
0.0
 40
0.2405744495
 40
1.0
 40
1.0
 40
1.0
 40
1.0
 10
305.0740136842
 20
343.2793626876
 30
0.0
 10
305.2068737111
 20
343.2793626876
 30
0.0
 10
305.7591361316
 20
343.2876305069
 30
0.0
 10
306.3106884989
 20
343.3255710457
 30
0.0
 10
306.7281808161
 20
343.3655439425
 30
0.0
  0
LINE
  5
846
100
AcDbEntity
  8
BEZUGSACHSEN
100
AcDbLine
 62
7
  6
CONTINUOUS
 10
323.4378488617
 20
346.1650033348
 11
323.4897236263
 21
346.1694329518
  0
LINE
  5
847
100
AcDbEntity
  8
BEZUGSACHSEN
100
AcDbLine
 62
7
  6
CONTINUOUS
 10
323.6867829669
 20
346.1857613166
 11
323.7344755934
 21
346.1895943382
  0
LINE
  5
848
100
AcDbEntity
  8
BEZUGSACHSEN
100
AcDbLine
 62
7
  6
CONTINUOUS
 10
324.0220184978
 20
346.2117210693
 11
324.0668191373
 21
346.2150164864
  0
LINE
  5
849
100
AcDbEntity
  8
BEZUGSACHSEN
100
AcDbLine
 62
7
  6
CONTINUOUS
 10
331.9907572181
 20
346.1301044092
 11
332.0794759528
 21
346.1217188063
  0
SPLINE
  5
84A
100
AcDbEntity
  8
BEZUGSACHSEN
100
AcDbSpline
 62
7
  6
CONTINUOUS
 70
0
 71
3
 72
9
 73
5
 74
0
 42
0.0000001
 43
0.0000001
 44
0.0000000001
 40
0.0
 40
0.0
 40
0.0
 40
0.0
 40
0.2594033726
 40
1.0
 40
1.0
 40
1.0
 40
1.0
 10
348.3120299322
 20
343.3655209733
 30
0.0
 10
348.4546127679
 20
343.3518708897
 30
0.0
 10
349.0047139121
 20
343.3044035399
 30
0.0
 10
349.5570339718
 20
343.2793626876
 30
0.0
 10
349.9659691443
 20
343.2793626876
 30
0.0
  0
SPLINE
  5
84B
100
AcDbEntity
  8
BEZUGSACHSEN
100
AcDbSpline
 62
7
  6
CONTINUOUS
 70
0
 71
3
 72
9
 73
5
 74
0
 42
0.0000001
 43
0.0000001
 44
0.0000000001
 40
0.0
 40
0.0
 40
0.0
 40
0.0
 40
0.2593277183
 40
1.0
 40
1.0
 40
1.0
 40
1.0
 10
273.3182426297
 20
343.3648964073
 30
0.0
 10
273.460250901
 20
343.3513430818
 30
0.0
 10
274.0082933052
 20
343.304205932
 30
0.0
 10
274.5585327632
 20
343.2793626876
 30
0.0
 10
274.9659691443
 20
343.2793626876
 30
0.0
  0
SPLINE
  5
84C
100
AcDbEntity
  8
RUNDUNGEN
100
AcDbSpline
 62
7
  6
CONTINUOUS
 70
0
 71
3
 72
8
 73
4
 74
0
 42
0.0000001
 43
0.0000001
 44
0.0000000001
 40
0.0
 40
0.0
 40
0.0
 40
0.0
 40
1.0
 40
1.0
 40
1.0
 40
1.0
 10
383.2259434669
 20
151.1921266077
 30
0.0
 10
382.9892625988
 20
151.2189395012
 30
0.0
 10
382.7508111515
 20
151.2318935638
 30
0.0
 10
382.5126340054
 20
151.2347938461
 30
0.0
  0
ENDSEC
  0
SECTION
  2
OBJECTS
  0
DICTIONARY
  5
C
100
AcDbDictionary
280
0
281
1
  3
ACAD_GROUP
350
D
  3
ACAD_MLINESTYLE
350
17
  3
ACAD_LAYOUT
350
1A
  3
ACAD_PLOTSETTINGS
350
19
  3
ACAD_PLOTSTYLENAME
350
E
  0
DICTIONARY
  5
D
102
{ACAD_REACTORS
330
C
102
}
100
AcDbDictionary
280
0
281
1
  0
ACDBDICTIONARYWDFLT
  5
E
102
{ACAD_REACTORS
330
C
102
}
100
AcDbDictionary
281
1
  3
Normal
350
F
100
AcDbDictionaryWithDefault
340
F
  0
DICTIONARY
  5
17
102
{ACAD_REACTORS
330
C
102
}
100
AcDbDictionary
280
0
281
1
  3
Standard
350
18
  0
DICTIONARY
  5
19
102
{ACAD_REACTORS
330
C
102
}
100
AcDbDictionary
281
1
  0
DICTIONARY
  5
1A
102
{ACAD_REACTORS
330
C
102
}
100
AcDbDictionary
281
1
  3
Model
350
84D
  3
Layout1
350
84E
  0
ACDBPLACEHOLDER
  5
F
102
{ACAD_REACTORS
330
E
102
}
  0
MLINESTYLE
  5
18
102
{ACAD_REACTORS
330
17
102
}
100
AcDbMlineStyle
  2
STANDARD
 70
0
  3

 62
256
 51
90.0
 52
90.0
 71
2
 49
0.5
 62
256
  6
BYLAYER
 49
-0.5
 62
256
  6
BYLAYER
  0
LAYOUT
  5
84D
102
{ACAD_REACTORS
330
1A
102
}
100
AcDbPlotSettings
  1

  2
none_device
  4
ISO_A1_(594.00_x_841.00_MM)
  6

 40
0.0
 41
0.0
 42
0.0
 43
0.0
 44
841.0
 45
594.0
 46
0.0
 47
0.0
 48
0.0
 49
0.0
140
0.0
141
0.0
142
1.0
143
1.0
 70
1024
 72
1
 73
0
 74
0
  7

 75
0
147
1.0
148
0.0
149
0.0
100
AcDbLayout
  1
Model
 70
0
 71
0
 10
0.0
 20
0.0
 11
841.0
 21
594.0
 12
0.0
 22
0.0
 32
0.0
 14
0.0
 24
0.0
 34
0.0
 15
0.0
 25
0.0
 35
0.0
146
0.0
 13
0.0
 23
0.0
 33
0.0
 16
1.0
 26
0.0
 36
0.0
 17
0.0
 27
1.0
 37
0.0
 76
0
330
20B
345
0
346
0
  0
LAYOUT
  5
84E
102
{ACAD_REACTORS
330
1A
102
}
100
AcDbPlotSettings
  1

  2
none_device
  4
ISO_A1_(594.00_x_841.00_MM)
  6

 40
0.0
 41
0.0
 42
0.0
 43
0.0
 44
841.0
 45
594.0
 46
0.0
 47
0.0
 48
0.0
 49
0.0
140
0.0
141
0.0
142
1.0
143
1.0
 70
0
 72
1
 73
0
 74
0
  7

 75
0
147
1.0
148
0.0
149
0.0
100
AcDbLayout
  1
Layout1
 70
0
 71
1
 10
0.0
 20
0.0
 11
841.0
 21
594.0
 12
0.0
 22
0.0
 32
0.0
 14
0.0
 24
0.0
 34
0.0
 15
0.0
 25
0.0
 35
0.0
146
0.0
 13
0.0
 23
0.0
 33
0.0
 16
1.0
 26
0.0
 36
0.0
 17
0.0
 27
1.0
 37
0.0
 76
0
330
20C
345
0
346
0
  0
ENDSEC
  0
EOF
