999
DXF file: B-ABA-M20-10t-7906269-M35158-P-2.dxf
999
Pro/ENGINEER 2011490 by Parametric Technology Corporation
  0
SECTION
  2
HEADER
  9
$ACADVER
  1
AC1015
  9
$DWGCODEPAGE
  3
ANSI_1252
  9
$EXTMAX
 10
594.0
 20
420.0
 30
0.0
  9
$EXTMIN
 10
0.0
 20
0.0
 30
0.0
  9
$LIMMIN
 10
0.0
 20
0.0
  9
$LIMMAX
 10
594.0
 20
420.0
  9
$VIEWCTR
 10
297.0
 20
210.0
  9
$VIEWSIZE
 40
420.0
  9
$CLAYER
  8
0
  9
$LTSCALE
 40
32.67
  9
$CELTYPE
  6
BYLAYER
  9
$DIMSCALE
 40
1.0
  9
$DIMASZ
 40
3.5
  9
$DIMEXO
 40
3.7125
  9
$DIMDLI
 40
22.572
  9
$DIMEXE
 40
10.692
  9
$DIMCEN
 40
5.346
  9
$DIMLFAC
 40
1.0
  9
$DIMBLK
  1
_FILLED
  9
$DIMTXT
 40
3.5
  9
$DIMTOL
 70
1
  9
$DIMLIM
 70
0
  9
$DIMTFAC
 40
1.0
  9
$DIMTP
 40
0.005
  9
$DIMTM
 40
0.005
  9
$PDMODE
 70
3
  9
$PDSIZE
 40
0.3125
  9
$HANDSEED
  5
715
  9
$TILEMODE
 70
1
  9
$MEASUREMENT
 70
1
  9
$INSUNITS
 70
4
  0
ENDSEC
  0
SECTION
  2
CLASSES
  0
CLASS
  1
ACDBDICTIONARYWDFLT
  2
AcDbDictionaryWithDefault
  3
AutoCAD 2000
 90
0
280
0
281
0
  0
CLASS
  1
ACDBPLACEHOLDER
  2
AcDbPlaceHolder
  3
AutoCAD 2000
 90
0
280
0
281
0
  0
CLASS
  1
LAYOUT
  2
AcDbLayout
  3
AutoCAD 2000
 90
0
280
0
281
0
  0
ENDSEC
  0
SECTION
  2
TABLES
  0
TABLE
  2
VPORT
  5
8
100
AcDbSymbolTable
 70
2
  0
VPORT
  5
1F4
100
AcDbSymbolTableRecord
100
AcDbViewportTableRecord
  2
*ACTIVE
 70
0
 10
0.0
 20
0.0
 11
1.0
 21
1.0
 12
297.0
 22
210.0
 13
0.0
 23
0.0
 14
1.0
 24
1.0
 15
0.0
 25
0.0
 16
0.0
 26
0.0
 36
1.0
 17
0.0
 27
0.0
 37
0.0
 40
420.0
 41
1.4142857143
 42
50.0
 43
0.0
 44
0.0
 50
0.0
 51
0.0
 71
0
 72
100
 73
1
 74
1
 75
0
 76
0
 77
0
 78
0
  0
ENDTAB
  0
TABLE
  2
LTYPE
  5
5
100
AcDbSymbolTable
 70
6
  0
LTYPE
  5
14
100
AcDbSymbolTableRecord
100
AcDbLinetypeTableRecord
  2
BYBLOCK
 70
0
  3

 72
65
 73
0
 40
0.0
  0
LTYPE
  5
15
100
AcDbSymbolTableRecord
100
AcDbLinetypeTableRecord
  2
BYLAYER
 70
0
  3

 72
65
 73
0
 40
0.0
  0
LTYPE
  5
16
100
AcDbSymbolTableRecord
100
AcDbLinetypeTableRecord
  2
CONTINUOUS
 70
64
  3
Solid line
 72
65
 73
0
 40
0.0
  0
LTYPE
  5
1F5
100
AcDbSymbolTableRecord
100
AcDbLinetypeTableRecord
  2
CENTER
 70
64
  3
____ _ ____ _ ____ _ ____ _ ____ _ ____ _ ____
 72
65
 73
4
 40
0.6
 49
0.375
 74
0
 49
-0.075
 74
0
 49
0.075
 74
0
 49
-0.075
 74
0
  0
LTYPE
  5
1F6
100
AcDbSymbolTableRecord
100
AcDbLinetypeTableRecord
  2
HIDDEN
 70
64
  3
- - - - - - - - - - - - - - - - - - - -
 72
65
 73
2
 40
0.2
 49
0.1
 74
0
 49
-0.1
 74
0
  0
LTYPE
  5
1F7
100
AcDbSymbolTableRecord
100
AcDbLinetypeTableRecord
  2
PHANTOM
 70
64
  3
_____ _ _ _____ _ _ _____ _ _ _____
 72
65
 73
6
 40
0.8
 49
0.45
 74
0
 49
-0.05
 74
0
 49
0.1
 74
0
 49
-0.05
 74
0
 49
0.1
 74
0
 49
-0.05
 74
0
  0
LTYPE
  5
1F8
100
AcDbSymbolTableRecord
100
AcDbLinetypeTableRecord
  2
DOT
 70
64
  3
. . . . . . . . . . . . . . . . . . . .
 72
65
 73
2
 40
0.2
 49
0.1
 74
0
 49
-0.1
 74
0
  0
LTYPE
  5
1F9
100
AcDbSymbolTableRecord
100
AcDbLinetypeTableRecord
  2
DASHED
 70
64
  3
- - - - - - - - - - - - - - - - - - - -
 72
65
 73
2
 40
0.2
 49
0.1
 74
0
 49
-0.1
 74
0
  0
ENDTAB
  0
TABLE
  2
LAYER
  5
2
100
AcDbSymbolTable
 70
36
  0
LAYER
  5
10
100
AcDbSymbolTableRecord
100
AcDbLayerTableRecord
  2
0
 70
0
 62
7
  6
CONTINUOUS
370
-3
390
F
  0
LAYER
  5
1FA
100
AcDbSymbolTableRecord
100
AcDbLayerTableRecord
  2
DEFAULT_1
 70
0
 62
7
  6
CENTER
370
-3
390
F
  0
LAYER
  5
1FB
100
AcDbSymbolTableRecord
100
AcDbLayerTableRecord
  2
DEFAULT_2
 70
0
 62
8
  6
HIDDEN
370
-3
390
F
  0
LAYER
  5
1FC
100
AcDbSymbolTableRecord
100
AcDbLayerTableRecord
  2
DEFAULT_3
 70
0
 62
7
  6
PHANTOM
370
-3
390
F
  0
LAYER
  5
1FD
100
AcDbSymbolTableRecord
100
AcDbLayerTableRecord
  2
AUSFORMSCHRAEGEN
 70
0
 62
7
  6
CONTINUOUS
370
-3
390
F
  0
LAYER
  5
1FE
100
AcDbSymbolTableRecord
100
AcDbLayerTableRecord
  2
BEZUGSACHSEN
 70
0
 62
7
  6
CONTINUOUS
370
-3
390
F
  0
LAYER
  5
1FF
100
AcDbSymbolTableRecord
100
AcDbLayerTableRecord
  2
BEZUGSEBENEN
 70
0
 62
7
  6
CONTINUOUS
370
-3
390
F
  0
LAYER
  5
200
100
AcDbSymbolTableRecord
100
AcDbLayerTableRecord
  2
FASEN
 70
0
 62
7
  6
CONTINUOUS
370
-3
390
F
  0
LAYER
  5
201
100
AcDbSymbolTableRecord
100
AcDbLayerTableRecord
  2
FLAECHEN
 70
0
 62
7
  6
CONTINUOUS
370
-3
390
F
  0
LAYER
  5
202
100
AcDbSymbolTableRecord
100
AcDbLayerTableRecord
  2
GEWINDE
 70
0
 62
7
  6
CONTINUOUS
370
-3
390
F
  0
LAYER
  5
203
100
AcDbSymbolTableRecord
100
AcDbLayerTableRecord
  2
HILFEN
 70
0
 62
7
  6
CONTINUOUS
370
-3
390
F
  0
LAYER
  5
204
100
AcDbSymbolTableRecord
100
AcDbLayerTableRecord
  2
KURVEN
 70
0
 62
7
  6
CONTINUOUS
370
-3
390
F
  0
LAYER
  5
205
100
AcDbSymbolTableRecord
100
AcDbLayerTableRecord
  2
PLATZIERUNG
 70
0
 62
7
  6
CONTINUOUS
370
-3
390
F
  0
LAYER
  5
206
100
AcDbSymbolTableRecord
100
AcDbLayerTableRecord
  2
RUNDUNGEN
 70
0
 62
7
  6
CONTINUOUS
370
-3
390
F
  0
LAYER
  5
207
100
AcDbSymbolTableRecord
100
AcDbLayerTableRecord
  2
TEIL_STARTBEZUEGE
 70
0
 62
7
  6
CONTINUOUS
370
-3
390
F
  0
LAYER
  5
208
100
AcDbSymbolTableRecord
100
AcDbLayerTableRecord
  2
ZEICHNUNGSBEMASSUNGEN
 70
0
 62
7
  6
CONTINUOUS
370
-3
390
F
  0
ENDTAB
  0
TABLE
  2
STYLE
  5
3
100
AcDbSymbolTable
 70
1
  0
STYLE
  5
11
100
AcDbSymbolTableRecord
100
AcDbTextStyleTableRecord
  2
STANDARD
 70
0
 40
0.0
 41
0.7
 50
0.0
 71
0
 42
0.2
  3
txt
  4

  0
STYLE
  5
209
100
AcDbSymbolTableRecord
100
AcDbTextStyleTableRecord
  2
TEXTSTYLE_1
 70
0
 40
0.0
 41
0.8
 50
0.0
 71
0
 42
0.2
  3
gdt
  4

  0
ENDTAB
  0
TABLE
  2
VIEW
  5
6
100
AcDbSymbolTable
 70
0
  0
ENDTAB
  0
TABLE
  2
UCS
  5
7
100
AcDbSymbolTable
 70
0
  0
ENDTAB
  0
TABLE
  2
APPID
  5
9
100
AcDbSymbolTable
 70
1
  0
APPID
  5
20A
100
AcDbSymbolTableRecord
100
AcDbRegAppTableRecord
  2
ACAD
 70
0
  0
ENDTAB
  0
TABLE
  2
BLOCK_RECORD
  5
1
100
AcDbSymbolTable
 70
0
  0
BLOCK_RECORD
  5
20B
100
AcDbSymbolTableRecord
100
AcDbBlockTableRecord
  2
*Model_Space
  0
BLOCK_RECORD
  5
20C
100
AcDbSymbolTableRecord
100
AcDbBlockTableRecord
  2
*Paper_Space
  0
ENDTAB
  0
TABLE
  2
DIMSTYLE
  5
A
100
AcDbSymbolTable
 70
1
100
AcDbDimStyleTable
 71
0
  0
DIMSTYLE
105
20D
100
AcDbSymbolTableRecord
100
AcDbDimStyleTableRecord
  2
STANDARD
 70
0
  3

  4

 40
1.0
 41
3.5
 42
0.0625
 43
0.38
 44
0.18
 45
0.0
 46
0.0
 47
0.005
 48
0.005
140
3.5
141
0.09
142
0.0
143
25.4
144
1.0
145
0.0
146
1.0
147
0.09
 71
1.0
 72
0.0
 73
0
 74
0
 75
0
 76
0
 77
1
 78
8
170
0
171
2
172
0
173
0
174
0
175
0
176
0
177
0
178
5
270
2
271
3
272
3
273
2
274
2
275
0
280
0
281
0
282
0
283
1
284
8
285
0
286
0
287
3
288
0
340
11
  0
ENDTAB
  0
ENDSEC
  0
SECTION
  2
BLOCKS
  0
BLOCK
  5
20
100
AcDbEntity
  8
0
100
AcDbBlockBegin
  2
*Model_Space
 70
0
 10
0.0
 20
0.0
 30
0.0
  3
*Model_Space
  1

  0
ENDBLK
  5
21
100
AcDbEntity
  8
0
100
AcDbBlockEnd
  0
BLOCK
  5
1C
100
AcDbEntity
  8
0
100
AcDbBlockBegin
  2
*Paper_Space
 70
0
 10
0.0
 20
0.0
 30
0.0
  3
*Paper_Space
  1

  0
ENDBLK
  5
1D
100
AcDbEntity
  8
0
100
AcDbBlockEnd
  0
ENDSEC
  0
SECTION
  2
ENTITIES
  0
MTEXT
  5
20E
100
AcDbEntity
  8
0
100
AcDbMText
 62
5
  6
CONTINUOUS
  7
STANDARD
 71
1
 72
1
 10
115.7195695634
 20
242.6426419313
 30
0.0
 11
1.0
 21
0.0
 31
0.0
 44
0.9
  1
RUD B-ABA 10t
 40
7.0
 41
71.1666666667
  0
MTEXT
  5
20F
100
AcDbEntity
  8
0
100
AcDbMText
 62
5
  6
CONTINUOUS
  7
STANDARD
 71
1
 72
1
 10
119.5838844463
 20
108.2213970003
 30
0.0
 11
1.0
 21
0.0
 31
0.0
 44
0.9
  1
RUD B-ABA 10t
 40
7.0
 41
71.1666666667
  0
MTEXT
  5
210
100
AcDbEntity
  8
0
100
AcDbMText
 62
5
  6
CONTINUOUS
  7
STANDARD
 71
1
 72
1
 10
392.8421144262
 20
243.4010128477
 30
0.0
 11
1.0
 21
0.0
 31
0.0
 44
0.9
  1
RUD B-ABA 10t
 40
7.0
 41
71.1666666667
  0
LINE
  5
211
100
AcDbEntity
  8
0
100
AcDbLine
 62
7
  6
CONTINUOUS
 10
0.0
 20
0.0
 11
0.0
 21
420.0
  0
LINE
  5
212
100
AcDbEntity
  8
0
100
AcDbLine
 62
7
  6
CONTINUOUS
 10
0.0
 20
0.0
 11
594.0
 21
0.0
  0
LINE
  5
213
100
AcDbEntity
  8
0
100
AcDbLine
 62
7
  6
CONTINUOUS
 10
0.0
 20
420.0
 11
594.0
 21
420.0
  0
LINE
  5
214
100
AcDbEntity
  8
0
100
AcDbLine
 62
7
  6
CONTINUOUS
 10
594.0
 20
0.0
 11
594.0
 21
420.0
  0
LINE
  5
215
100
AcDbEntity
  8
RUNDUNGEN
100
AcDbLine
 62
7
  6
CONTINUOUS
 10
35.9893220199
 20
258.8120910735
 11
35.9893220199
 21
230.0256348893
  0
LINE
  5
216
100
AcDbEntity
  8
FASEN
100
AcDbLine
 62
7
  6
CONTINUOUS
 10
79.4893220244
 20
205.0256348848
 11
77.4893220255
 21
207.0256348836
  0
LINE
  5
217
100
AcDbEntity
  8
RUNDUNGEN
100
AcDbLine
 62
7
  6
CONTINUOUS
 10
52.7347466349
 20
306.0253385197
 11
38.5742990264
 21
271.8157955579
  0
LINE
  5
218
100
AcDbEntity
  8
0
100
AcDbLine
 62
7
  6
CONTINUOUS
 10
59.8874220879
 20
274.6479855415
 11
59.8678142214
 21
275.7706459816
  0
LINE
  5
219
100
AcDbEntity
  8
0
100
AcDbLine
 62
7
  6
CONTINUOUS
 10
58.6307253288
 20
274.9840060778
 11
58.5307403783
 21
274.1980729624
  0
LINE
  5
21A
100
AcDbEntity
  8
0
100
AcDbLine
 62
7
  6
CONTINUOUS
 10
59.8678142214
 20
275.7706459816
 11
59.2796545409
 21
276.8929533489
  0
LINE
  5
21B
100
AcDbEntity
  8
0
100
AcDbLine
 62
7
  6
CONTINUOUS
 10
58.3915400089
 20
275.6574613698
 11
58.6307253288
 21
274.9840060778
  0
LINE
  5
21C
100
AcDbEntity
  8
0
100
AcDbLine
 62
7
  6
CONTINUOUS
 10
69.5449472751
 20
281.6145571892
 11
69.5253396625
 21
282.7372183013
  0
LINE
  5
21D
100
AcDbEntity
  8
0
100
AcDbLine
 62
7
  6
CONTINUOUS
 10
74.8148118098
 20
292.3954923118
 11
74.7952035689
 21
293.5181521388
  0
LINE
  5
21E
100
AcDbEntity
  8
0
100
AcDbLine
 62
7
  6
CONTINUOUS
 10
70.1688139442
 20
255.0256348893
 11
70.1688139442
 21
257.0256348893
  0
LINE
  5
21F
100
AcDbEntity
  8
BEZUGSACHSEN
100
AcDbLine
 62
7
  6
CONTINUOUS
 10
73.1715009566
 20
245.0256348893
 11
73.1715009566
 21
255.0256348893
  0
LINE
  5
220
100
AcDbEntity
  8
0
100
AcDbLine
 62
7
  6
CONTINUOUS
 10
75.1513804818
 20
257.0256348893
 11
75.1513804818
 21
257.2256348893
  0
LINE
  5
221
100
AcDbEntity
  8
0
100
AcDbLine
 62
7
  6
CONTINUOUS
 10
75.3156350684
 20
257.0256348893
 11
75.3156350684
 21
257.2256348893
  0
LINE
  5
222
100
AcDbEntity
  8
0
100
AcDbLine
 62
7
  6
CONTINUOUS
 10
75.6345205864
 20
257.0256348893
 11
75.6345205864
 21
257.2256348893
  0
LINE
  5
223
100
AcDbEntity
  8
0
100
AcDbLine
 62
7
  6
CONTINUOUS
 10
75.9266553702
 20
257.0256348893
 11
75.9266553702
 21
257.2256348893
  0
LINE
  5
224
100
AcDbEntity
  8
0
100
AcDbLine
 62
7
  6
CONTINUOUS
 10
68.05886946
 20
282.06270383
 11
67.8490954687
 21
281.0521674979
  0
LINE
  5
225
100
AcDbEntity
  8
0
100
AcDbLine
 62
7
  6
CONTINUOUS
 10
73.3287327382
 20
292.8436363822
 11
73.1189593752
 21
291.8331013353
  0
LINE
  5
226
100
AcDbEntity
  8
0
100
AcDbLine
 62
7
  6
CONTINUOUS
 10
69.2253848913
 20
280.3794189157
 11
69.5449472751
 21
281.6145571892
  0
LINE
  5
227
100
AcDbEntity
  8
0
100
AcDbLine
 62
7
  6
CONTINUOUS
 10
63.7143149604
 20
296.4302166597
 11
61.0793830071
 21
291.0397497409
  0
LINE
  5
228
100
AcDbEntity
  8
0
100
AcDbLine
 62
7
  6
CONTINUOUS
 10
60.2010725654
 20
289.2429278631
 11
59.5423395771
 21
287.8953111334
  0
LINE
  5
229
100
AcDbEntity
  8
0
100
AcDbLine
 62
7
  6
CONTINUOUS
 10
56.9074076239
 20
282.5048442147
 11
56.2486743215
 21
281.1572268424
  0
LINE
  5
22A
100
AcDbEntity
  8
0
100
AcDbLine
 62
7
  6
CONTINUOUS
 10
53.8333201357
 20
276.2159657145
 11
51.1983881825
 21
270.8254987957
  0
LINE
  5
22B
100
AcDbEntity
  8
0
100
AcDbLine
 62
7
  6
CONTINUOUS
 10
53.0040288891
 20
271.6124917724
 11
55.0900165807
 21
275.8799445355
  0
LINE
  5
22C
100
AcDbEntity
  8
0
100
AcDbLine
 62
7
  6
CONTINUOUS
 10
63.1144052574
 20
291.714617967
 11
65.0906042223
 21
295.757468156
  0
LINE
  5
22D
100
AcDbEntity
  8
0
100
AcDbLine
 62
7
  6
CONTINUOUS
 10
58.5307403783
 20
274.1980729624
 11
56.4447526867
 21
269.9306201993
  0
LINE
  5
22E
100
AcDbEntity
  8
0
100
AcDbLine
 62
7
  6
CONTINUOUS
 10
57.8210419486
 20
269.2578716957
 11
59.6874520298
 21
273.0761189893
  0
LINE
  5
22F
100
AcDbEntity
  8
FASEN
100
AcDbLine
 62
7
  6
CONTINUOUS
 10
220.4893220197
 20
205.0256348893
 11
204.4893220202
 21
205.0256348893
  0
LINE
  5
230
100
AcDbEntity
  8
FASEN
100
AcDbLine
 62
7
  6
CONTINUOUS
 10
95.4893220196
 20
205.0256348893
 11
79.4893220201
 21
205.0256348893
  0
LINE
  5
231
100
AcDbEntity
  8
FASEN
100
AcDbLine
 62
7
  6
CONTINUOUS
 10
222.4893220199
 20
207.0256348893
 11
202.4893220199
 21
207.0256348893
  0
LINE
  5
232
100
AcDbEntity
  8
FASEN
100
AcDbLine
 62
7
  6
CONTINUOUS
 10
97.4893220199
 20
207.0256348893
 11
77.4893220199
 21
207.0256348893
  0
LINE
  5
233
100
AcDbEntity
  8
0
100
AcDbLine
 62
7
  6
CONTINUOUS
 10
69.5253396625
 20
282.7372183013
 11
69.0469689424
 21
284.0841289245
  0
LINE
  5
234
100
AcDbEntity
  8
0
100
AcDbLine
 62
7
  6
CONTINUOUS
 10
67.9294727061
 20
282.9607617746
 11
68.05886946
 21
282.06270383
  0
LINE
  5
235
100
AcDbEntity
  8
0
100
AcDbLine
 62
7
  6
CONTINUOUS
 10
73.1993359844
 20
293.7416943268
 11
73.3287327382
 21
292.8436363822
  0
LINE
  5
236
100
AcDbEntity
  8
0
100
AcDbLine
 62
7
  6
CONTINUOUS
 10
76.2894177831
 20
257.0256348893
 11
76.2894177831
 21
257.2256348893
  0
LINE
  5
237
100
AcDbEntity
  8
0
100
AcDbLine
 62
7
  6
CONTINUOUS
 10
76.5548023742
 20
257.0256348893
 11
76.5548023742
 21
257.2256348893
  0
LINE
  5
238
100
AcDbEntity
  8
0
100
AcDbLine
 62
7
  6
CONTINUOUS
 10
76.7272424401
 20
257.0256348893
 11
76.7272424401
 21
257.2256348893
  0
LINE
  5
239
100
AcDbEntity
  8
0
100
AcDbLine
 62
7
  6
CONTINUOUS
 10
76.7722160056
 20
257.0256348893
 11
76.7722160056
 21
257.2256348893
  0
LINE
  5
23A
100
AcDbEntity
  8
0
100
AcDbLine
 62
7
  6
CONTINUOUS
 10
76.9808683739
 20
257.0256348893
 11
76.9808683739
 21
257.2256348893
  0
LINE
  5
23B
100
AcDbEntity
  8
0
100
AcDbLine
 62
7
  6
CONTINUOUS
 10
77.1670334268
 20
257.0256348893
 11
77.1670334268
 21
257.2256348893
  0
LINE
  5
23C
100
AcDbEntity
  8
BEZUGSACHSEN
100
AcDbLine
 62
7
  6
CONTINUOUS
 10
77.4893220199
 20
230.0256348893
 11
77.4893220199
 21
207.0256348893
  0
LINE
  5
23D
100
AcDbEntity
  8
FASEN
100
AcDbLine
 62
7
  6
CONTINUOUS
 10
77.4893220199
 20
230.0256348893
 11
77.4893220199
 21
207.0256348893
  0
LINE
  5
23E
100
AcDbEntity
  8
0
100
AcDbLine
 62
7
  6
CONTINUOUS
 10
77.5634201436
 20
257.0256348893
 11
77.5634201436
 21
257.2256348893
  0
LINE
  5
23F
100
AcDbEntity
  8
0
100
AcDbLine
 62
7
  6
CONTINUOUS
 10
77.8907788145
 20
257.0256348893
 11
77.8907788145
 21
257.2256348893
  0
LINE
  5
240
100
AcDbEntity
  8
0
100
AcDbLine
 62
7
  6
CONTINUOUS
 10
78.3593289728
 20
257.0256348893
 11
78.3593289728
 21
257.2256348893
  0
LINE
  5
241
100
AcDbEntity
  8
0
100
AcDbLine
 62
7
  6
CONTINUOUS
 10
78.688255874
 20
257.0256348893
 11
78.688255874
 21
257.2256348893
  0
LINE
  5
242
100
AcDbEntity
  8
0
100
AcDbLine
 62
7
  6
CONTINUOUS
 10
78.829067982
 20
245.0256348893
 11
78.829067982
 21
257.0256348893
  0
LINE
  5
243
100
AcDbEntity
  8
0
100
AcDbLine
 62
7
  6
CONTINUOUS
 10
79.8617489698
 20
257.0256348893
 11
79.8617489698
 21
257.2256348893
  0
LINE
  5
244
100
AcDbEntity
  8
0
100
AcDbLine
 62
7
  6
CONTINUOUS
 10
80.5241936627
 20
257.0256348893
 11
80.5241936627
 21
257.2256348893
  0
LINE
  5
245
100
AcDbEntity
  8
0
100
AcDbLine
 62
7
  6
CONTINUOUS
 10
82.732342639
 20
257.0256348893
 11
82.732342639
 21
257.2256348893
  0
LINE
  5
246
100
AcDbEntity
  8
0
100
AcDbLine
 62
7
  6
CONTINUOUS
 10
83.3947873319
 20
257.0256348893
 11
83.3947873319
 21
257.2256348893
  0
LINE
  5
247
100
AcDbEntity
  8
0
100
AcDbLine
 62
7
  6
CONTINUOUS
 10
85.27032457
 20
257.0256348893
 11
85.27032457
 21
257.2256348893
  0
LINE
  5
248
100
AcDbEntity
  8
0
100
AcDbLine
 62
7
  6
CONTINUOUS
 10
74.4952487978
 20
291.1603527532
 11
74.8148118098
 21
292.3954923118
  0
LINE
  5
249
100
AcDbEntity
  8
RUNDUNGEN
100
AcDbLine
 62
7
  6
CONTINUOUS
 10
99.9007451123
 20
341.4521422877
 11
81.7846547696
 21
297.6268921759
  0
LINE
  5
24A
100
AcDbEntity
  8
0
100
AcDbLine
 62
7
  6
CONTINUOUS
 10
73.1189593752
 20
291.8331013353
 11
71.1427604102
 21
287.7902511463
  0
LINE
  5
24B
100
AcDbEntity
  8
0
100
AcDbLine
 62
7
  6
CONTINUOUS
 10
67.8490954687
 20
281.0521674979
 11
67.4099399337
 21
280.1537559164
  0
LINE
  5
24C
100
AcDbEntity
  8
0
100
AcDbLine
 62
7
  6
CONTINUOUS
 10
61.9793220199
 20
265.5556348893
 11
62.6380550082
 21
266.9032516189
  0
LINE
  5
24D
100
AcDbEntity
  8
0
100
AcDbLine
 62
7
  6
CONTINUOUS
 10
65.3827756881
 20
272.5183211117
 11
66.1512977172
 21
274.0905410581
  0
LINE
  5
24E
100
AcDbEntity
  8
0
100
AcDbLine
 62
7
  6
CONTINUOUS
 10
68.7862293564
 20
279.4810073342
 11
69.2253848913
 21
280.3794189157
  0
LINE
  5
24F
100
AcDbEntity
  8
0
100
AcDbLine
 62
7
  6
CONTINUOUS
 10
71.8603168446
 20
285.7698858344
 11
74.4952487978
 21
291.1603527532
  0
LINE
  5
250
100
AcDbEntity
  8
0
100
AcDbLine
 62
7
  6
CONTINUOUS
 10
64.4926410798
 20
297.4411067072
 11
63.7143149604
 21
296.4302166597
  0
LINE
  5
251
100
AcDbEntity
  8
0
100
AcDbLine
 62
7
  6
CONTINUOUS
 10
54.611645941
 20
277.2268551195
 11
53.8333201357
 21
276.2159657145
  0
LINE
  5
252
100
AcDbEntity
  8
0
100
AcDbLine
 62
7
  6
CONTINUOUS
 10
65.0906042223
 20
295.757468156
 11
65.7591406727
 21
296.5437537018
  0
LINE
  5
253
100
AcDbEntity
  8
RUNDUNGEN
100
AcDbLine
 62
7
  6
CONTINUOUS
 10
147.3855683862
 20
363.2928238127
 11
103.5812425578
 21
345.1361714118
  0
LINE
  5
254
100
AcDbEntity
  8
0
100
AcDbLine
 62
7
  6
CONTINUOUS
 10
57.8131841046
 20
276.2184381957
 11
58.3915400089
 21
275.6574613698
  0
LINE
  5
255
100
AcDbEntity
  8
0
100
AcDbLine
 62
7
  6
CONTINUOUS
 10
59.2796545409
 20
276.8929533489
 11
58.7012986366
 21
277.4539301748
  0
LINE
  5
256
100
AcDbEntity
  8
0
100
AcDbLine
 62
7
  6
CONTINUOUS
 10
69.0469689424
 20
284.0841289245
 11
68.3490200605
 21
284.9818331536
  0
LINE
  5
257
100
AcDbEntity
  8
0
100
AcDbLine
 62
7
  6
CONTINUOUS
 10
67.4609055285
 20
283.7463411745
 11
67.9294727061
 21
282.9607617746
  0
LINE
  5
258
100
AcDbEntity
  8
0
100
AcDbLine
 62
7
  6
CONTINUOUS
 10
74.7952035689
 20
293.5181521388
 11
74.3168322207
 21
294.8650614767
  0
LINE
  5
259
100
AcDbEntity
  8
0
100
AcDbLine
 62
7
  6
CONTINUOUS
 10
90.5405918338
 20
257.0256348893
 11
90.5405918338
 21
257.2256348893
  0
LINE
  5
25A
100
AcDbEntity
  8
0
100
AcDbLine
 62
7
  6
CONTINUOUS
 10
90.5546449835
 20
257.0256348893
 11
90.5546449835
 21
257.2256348893
  0
LINE
  5
25B
100
AcDbEntity
  8
0
100
AcDbLine
 62
7
  6
CONTINUOUS
 10
90.6823641875
 20
257.0256348893
 11
90.6823641875
 21
257.2256348893
  0
LINE
  5
25C
100
AcDbEntity
  8
0
100
AcDbLine
 62
7
  6
CONTINUOUS
 10
91.2858253593
 20
257.0256348893
 11
91.2858253593
 21
257.2256348893
  0
LINE
  5
25D
100
AcDbEntity
  8
0
100
AcDbLine
 62
7
  6
CONTINUOUS
 10
91.5604136783
 20
257.0256348893
 11
91.5604136783
 21
257.2256348893
  0
LINE
  5
25E
100
AcDbEntity
  8
0
100
AcDbLine
 62
7
  6
CONTINUOUS
 10
91.868206485
 20
257.0256348893
 11
91.868206485
 21
257.2256348893
  0
LINE
  5
25F
100
AcDbEntity
  8
0
100
AcDbLine
 62
7
  6
CONTINUOUS
 10
92.3228682938
 20
257.0256348893
 11
92.3228682938
 21
257.2256348893
  0
LINE
  5
260
100
AcDbEntity
  8
0
100
AcDbLine
 62
7
  6
CONTINUOUS
 10
92.6970686206
 20
257.0256348893
 11
92.6970686206
 21
257.2256348893
  0
LINE
  5
261
100
AcDbEntity
  8
0
100
AcDbLine
 62
7
  6
CONTINUOUS
 10
93.1044735479
 20
257.0256348893
 11
93.1044735479
 21
257.2256348893
  0
LINE
  5
262
100
AcDbEntity
  8
RUNDUNGEN
100
AcDbLine
 62
7
  6
CONTINUOUS
 10
85.1212209675
 20
275.5952591677
 11
80.4504178378
 21
264.2959605051
  0
LINE
  5
263
100
AcDbEntity
  8
0
100
AcDbLine
 62
7
  6
CONTINUOUS
 10
68.0079038451
 20
278.4701185816
 11
68.7862293564
 21
279.4810073342
  0
LINE
  5
264
100
AcDbEntity
  8
0
100
AcDbLine
 62
7
  6
CONTINUOUS
 10
67.4099399337
 20
280.1537559164
 11
66.7414034833
 21
279.3674703706
  0
LINE
  5
265
100
AcDbEntity
  8
0
100
AcDbLine
 62
7
  6
CONTINUOUS
 10
55.0900165807
 20
275.8799445355
 11
55.6487646185
 21
276.4416281498
  0
LINE
  5
266
100
AcDbEntity
  8
0
100
AcDbLine
 62
7
  6
CONTINUOUS
 10
65.3905590738
 20
298.1152675024
 11
64.4926410798
 21
297.4411067072
  0
LINE
  5
267
100
AcDbEntity
  8
RUNDUNGEN
100
AcDbLine
 62
7
  6
CONTINUOUS
 10
35.9893220199
 20
230.0256348893
 11
263.9893220199
 21
230.0256348893
  0
LINE
  5
268
100
AcDbEntity
  8
0
100
AcDbLine
 62
7
  6
CONTINUOUS
 10
51.1983881825
 20
270.8254987957
 11
61.9793220199
 21
265.5556348893
  0
LINE
  5
269
100
AcDbEntity
  8
0
100
AcDbLine
 62
7
  6
CONTINUOUS
 10
62.6380550082
 20
266.9032516189
 11
57.8210419486
 21
269.2578716957
  0
LINE
  5
26A
100
AcDbEntity
  8
0
100
AcDbLine
 62
7
  6
CONTINUOUS
 10
56.4447526867
 20
269.9306201993
 11
53.0040288891
 21
271.6124917724
  0
LINE
  5
26B
100
AcDbEntity
  8
0
100
AcDbLine
 62
7
  6
CONTINUOUS
 10
66.6531683946
 20
284.4194433936
 11
67.4609055285
 21
283.7463411745
  0
LINE
  5
26C
100
AcDbEntity
  8
0
100
AcDbLine
 62
7
  6
CONTINUOUS
 10
74.3168322207
 20
294.8650614767
 11
73.618883967
 21
295.762766991
  0
LINE
  5
26D
100
AcDbEntity
  8
0
100
AcDbLine
 62
7
  6
CONTINUOUS
 10
72.730769435
 20
294.527275012
 11
73.1993359844
 21
293.7416943268
  0
LINE
  5
26E
100
AcDbEntity
  8
RUNDUNGEN
100
AcDbLine
 62
7
  6
CONTINUOUS
 10
81.787342987
 20
292.4249424841
 11
85.1170025167
 21
284.3918817791
  0
LINE
  5
26F
100
AcDbEntity
  8
0
100
AcDbLine
 62
7
  6
CONTINUOUS
 10
94.8669082973
 20
257.0256348893
 11
94.8669082973
 21
257.2256348893
  0
LINE
  5
270
100
AcDbEntity
  8
0
100
AcDbLine
 62
7
  6
CONTINUOUS
 10
96.1495760577
 20
245.0256348893
 11
96.1495760577
 21
257.0256348893
  0
LINE
  5
271
100
AcDbEntity
  8
0
100
AcDbLine
 62
7
  6
CONTINUOUS
 10
96.7277799469
 20
257.0256348893
 11
96.7277799469
 21
257.2256348893
  0
LINE
  5
272
100
AcDbEntity
  8
0
100
AcDbLine
 62
7
  6
CONTINUOUS
 10
97.0213215329
 20
257.0256348893
 11
97.0213215329
 21
257.2256348893
  0
LINE
  5
273
100
AcDbEntity
  8
BEZUGSACHSEN
100
AcDbLine
 62
7
  6
CONTINUOUS
 10
97.4893220199
 20
230.0256348893
 11
97.4893220199
 21
207.0256348893
  0
LINE
  5
274
100
AcDbEntity
  8
FASEN
100
AcDbLine
 62
7
  6
CONTINUOUS
 10
97.4893220199
 20
230.0256348893
 11
97.4893220199
 21
207.0256348893
  0
LINE
  5
275
100
AcDbEntity
  8
0
100
AcDbLine
 62
7
  6
CONTINUOUS
 10
98.195487877
 20
257.0256348893
 11
98.195487877
 21
257.2256348893
  0
LINE
  5
276
100
AcDbEntity
  8
0
100
AcDbLine
 62
7
  6
CONTINUOUS
 10
98.4890296029
 20
257.0256348893
 11
98.4890296029
 21
257.2256348893
  0
LINE
  5
277
100
AcDbEntity
  8
0
100
AcDbLine
 62
7
  6
CONTINUOUS
 10
98.5753106358
 20
257.0256348893
 11
98.5753106358
 21
257.2256348893
  0
LINE
  5
278
100
AcDbEntity
  8
0
100
AcDbLine
 62
7
  6
CONTINUOUS
 10
98.8416462391
 20
257.0256348893
 11
98.8416462391
 21
257.2256348893
  0
LINE
  5
279
100
AcDbEntity
  8
0
100
AcDbLine
 62
7
  6
CONTINUOUS
 10
99.2224825008
 20
257.0256348893
 11
99.2224825008
 21
257.2256348893
  0
LINE
  5
27A
100
AcDbEntity
  8
0
100
AcDbLine
 62
7
  6
CONTINUOUS
 10
99.5351178918
 20
257.0256348893
 11
99.5351178918
 21
257.2256348893
  0
LINE
  5
27B
100
AcDbEntity
  8
0
100
AcDbLine
 62
7
  6
CONTINUOUS
 10
99.6959183376
 20
257.0256348893
 11
99.6959183376
 21
257.2256348893
  0
LINE
  5
27C
100
AcDbEntity
  8
0
100
AcDbLine
 62
7
  6
CONTINUOUS
 10
100.0663166382
 20
257.0256348893
 11
100.0663166382
 21
257.2256348893
  0
LINE
  5
27D
100
AcDbEntity
  8
BEZUGSACHSEN
100
AcDbLine
 62
7
  6
CONTINUOUS
 10
101.8071430832
 20
245.0256348893
 11
101.8071430832
 21
255.0256348893
  0
LINE
  5
27E
100
AcDbEntity
  8
0
100
AcDbLine
 62
7
  6
CONTINUOUS
 10
65.7591406727
 20
296.5437537018
 11
66.5472702542
 21
296.9933125654
  0
LINE
  5
27F
100
AcDbEntity
  8
0
100
AcDbLine
 62
7
  6
CONTINUOUS
 10
57.125038831
 20
276.5548127616
 11
57.8131841046
 21
276.2184381957
  0
LINE
  5
280
100
AcDbEntity
  8
0
100
AcDbLine
 62
7
  6
CONTINUOUS
 10
58.7012986366
 20
277.4539301748
 11
57.7837718193
 21
277.9024294913
  0
LINE
  5
281
100
AcDbEntity
  8
0
100
AcDbLine
 62
7
  6
CONTINUOUS
 10
56.2486743215
 20
281.1572268424
 11
63.359503139
 21
277.6813591026
  0
LINE
  5
282
100
AcDbEntity
  8
0
100
AcDbLine
 62
7
  6
CONTINUOUS
 10
64.0182364414
 20
279.0289764749
 11
56.9074076239
 21
282.5048442147
  0
LINE
  5
283
100
AcDbEntity
  8
0
100
AcDbLine
 62
7
  6
CONTINUOUS
 10
68.3490200605
 20
284.9818331536
 11
67.3119013829
 21
285.7670601233
  0
LINE
  5
284
100
AcDbEntity
  8
0
100
AcDbLine
 62
7
  6
CONTINUOUS
 10
104.8098300956
 20
255.0256348893
 11
104.8098300956
 21
257.0256348893
  0
LINE
  5
285
100
AcDbEntity
  8
0
100
AcDbLine
 62
7
  6
CONTINUOUS
 10
67.1099851626
 20
277.7959565308
 11
68.0079038451
 21
278.4701185816
  0
LINE
  5
286
100
AcDbEntity
  8
BEZUGSACHSEN
100
AcDbLine
 62
7
  6
CONTINUOUS
 10
73.1715009566
 20
245.0256348893
 11
101.8071430832
 21
245.0256348893
  0
LINE
  5
287
100
AcDbEntity
  8
BEZUGSACHSEN
100
AcDbLine
 62
7
  6
CONTINUOUS
 10
198.1715009566
 20
245.0256348893
 11
226.8071430832
 21
245.0256348893
  0
LINE
  5
288
100
AcDbEntity
  8
0
100
AcDbLine
 62
7
  6
CONTINUOUS
 10
59.5423395771
 20
287.8953111334
 11
66.6531683946
 21
284.4194433936
  0
LINE
  5
289
100
AcDbEntity
  8
0
100
AcDbLine
 62
7
  6
CONTINUOUS
 10
67.3119013829
 20
285.7670601233
 11
60.2010725654
 21
289.2429278631
  0
LINE
  5
28A
100
AcDbEntity
  8
0
100
AcDbLine
 62
7
  6
CONTINUOUS
 10
73.618883967
 20
295.762766991
 11
72.5817646612
 21
296.5479926755
  0
LINE
  5
28B
100
AcDbEntity
  8
0
100
AcDbLine
 62
7
  6
CONTINUOUS
 10
71.9230316729
 20
295.2003759458
 11
72.730769435
 21
294.527275012
  0
LINE
  5
28C
100
AcDbEntity
  8
0
100
AcDbLine
 62
7
  6
CONTINUOUS
 10
66.7414034833
 20
279.3674703706
 11
65.9532737412
 21
278.9179115855
  0
LINE
  5
28D
100
AcDbEntity
  8
0
100
AcDbLine
 62
7
  6
CONTINUOUS
 10
55.7389457928
 20
277.7888918066
 11
54.611645941
 21
277.2268551195
  0
LINE
  5
28E
100
AcDbEntity
  8
0
100
AcDbLine
 62
7
  6
CONTINUOUS
 10
66.7472401552
 20
298.5651787963
 11
65.3905590738
 21
298.1152675024
  0
LINE
  5
28F
100
AcDbEntity
  8
BEZUGSACHSEN
100
AcDbLine
 62
7
  6
CONTINUOUS
 10
198.1715009566
 20
255.0256348893
 11
101.8071430832
 21
255.0256348893
  0
LINE
  5
290
100
AcDbEntity
  8
RUNDUNGEN
100
AcDbLine
 62
7
  6
CONTINUOUS
 10
35.9893220199
 20
255.0256348893
 11
73.1715009566
 21
255.0256348893
  0
LINE
  5
291
100
AcDbEntity
  8
RUNDUNGEN
100
AcDbLine
 62
7
  6
CONTINUOUS
 10
226.8071430832
 20
255.0256348893
 11
263.9893220199
 21
255.0256348893
  0
LINE
  5
292
100
AcDbEntity
  8
0
100
AcDbLine
 62
7
  6
CONTINUOUS
 10
70.1688139442
 20
257.0256348893
 11
104.8098300956
 21
257.0256348893
  0
LINE
  5
293
100
AcDbEntity
  8
0
100
AcDbLine
 62
7
  6
CONTINUOUS
 10
195.1688139442
 20
257.0256348893
 11
229.8098300956
 21
257.0256348893
  0
LINE
  5
294
100
AcDbEntity
  8
0
100
AcDbLine
 62
7
  6
CONTINUOUS
 10
75.1513804818
 20
257.2256348893
 11
85.27032457
 21
257.2256348893
  0
LINE
  5
295
100
AcDbEntity
  8
0
100
AcDbLine
 62
7
  6
CONTINUOUS
 10
90.5405918338
 20
257.2256348893
 11
100.0663166382
 21
257.2256348893
  0
LINE
  5
296
100
AcDbEntity
  8
0
100
AcDbLine
 62
7
  6
CONTINUOUS
 10
200.1513804818
 20
257.2256348893
 11
210.27032457
 21
257.2256348893
  0
LINE
  5
297
100
AcDbEntity
  8
0
100
AcDbLine
 62
7
  6
CONTINUOUS
 10
215.5405918338
 20
257.2256348893
 11
225.0663166382
 21
257.2256348893
  0
LINE
  5
298
100
AcDbEntity
  8
0
100
AcDbLine
 62
7
  6
CONTINUOUS
 10
65.0455510286
 20
278.805079404
 11
64.0182364414
 21
279.0289764749
  0
LINE
  5
299
100
AcDbEntity
  8
0
100
AcDbLine
 62
7
  6
CONTINUOUS
 10
63.359503139
 20
277.6813591026
 11
64.6161998981
 21
277.3453385663
  0
LINE
  5
29A
100
AcDbEntity
  8
0
100
AcDbLine
 62
7
  6
CONTINUOUS
 10
61.0793830071
 20
291.0397497409
 11
71.8603168446
 21
285.7698858344
  0
LINE
  5
29B
100
AcDbEntity
  8
0
100
AcDbLine
 62
7
  6
CONTINUOUS
 10
71.1427604102
 20
287.7902511463
 11
63.1144052574
 21
291.714617967
  0
LINE
  5
29C
100
AcDbEntity
  8
0
100
AcDbLine
 62
7
  6
CONTINUOUS
 10
68.4823081966
 20
296.8822473619
 11
71.9230316729
 21
295.2003759458
  0
LINE
  5
29D
100
AcDbEntity
  8
0
100
AcDbLine
 62
7
  6
CONTINUOUS
 10
55.6487646185
 20
276.4416281498
 11
56.3271054733
 21
276.6665844393
  0
LINE
  5
29E
100
AcDbEntity
  8
0
100
AcDbLine
 62
7
  6
CONTINUOUS
 10
235.3811326469
 20
289.7841798947
 11
233.1145409075
 21
289.2518210659
  0
LINE
  5
29F
100
AcDbEntity
  8
0
100
AcDbLine
 62
7
  6
CONTINUOUS
 10
66.1512977172
 20
274.0905410581
 11
59.8874220879
 21
274.6479855415
  0
LINE
  5
2A0
100
AcDbEntity
  8
0
100
AcDbLine
 62
7
  6
CONTINUOUS
 10
59.6874520298
 20
273.0761189893
 11
65.3827756881
 21
272.5183211117
  0
LINE
  5
2A1
100
AcDbEntity
  8
0
100
AcDbLine
 62
7
  6
CONTINUOUS
 10
56.3271054733
 20
276.6665844393
 11
57.125038831
 21
276.5548127616
  0
LINE
  5
2A2
100
AcDbEntity
  8
0
100
AcDbLine
 62
7
  6
CONTINUOUS
 10
57.7837718193
 20
277.9024294913
 11
56.9858384616
 21
278.014201169
  0
LINE
  5
2A3
100
AcDbEntity
  8
0
100
AcDbLine
 62
7
  6
CONTINUOUS
 10
72.5817646612
 20
296.5479926755
 11
69.1410411849
 21
298.2298640916
  0
LINE
  5
2A4
100
AcDbEntity
  8
FASEN
100
AcDbLine
 62
7
  6
CONTINUOUS
 10
204.4893220231
 20
205.0256348861
 11
202.4893220239
 21
207.0256348853
  0
LINE
  5
2A5
100
AcDbEntity
  8
0
100
AcDbLine
 62
7
  6
CONTINUOUS
 10
65.7533040009
 20
277.3460452761
 11
67.1099851626
 21
277.7959565308
  0
LINE
  5
2A6
100
AcDbEntity
  8
0
100
AcDbLine
 62
7
  6
CONTINUOUS
 10
233.8316575107
 20
287.5193736232
 11
235.7443871363
 21
287.9052596832
  0
LINE
  5
2A7
100
AcDbEntity
  8
0
100
AcDbLine
 62
7
  6
CONTINUOUS
 10
64.6161998981
 20
277.3453385663
 11
65.7533040009
 21
277.3460452761
  0
LINE
  5
2A8
100
AcDbEntity
  8
0
100
AcDbLine
 62
7
  6
CONTINUOUS
 10
67.4549936094
 20
297.1061444328
 11
68.4823081966
 21
296.8822473619
  0
LINE
  5
2A9
100
AcDbEntity
  8
0
100
AcDbLine
 62
7
  6
CONTINUOUS
 10
69.1410411849
 20
298.2298640916
 11
67.8843444115
 21
298.5658862272
  0
LINE
  5
2AA
100
AcDbEntity
  8
0
100
AcDbLine
 62
7
  6
CONTINUOUS
 10
234.1291580704
 20
299.8182233143
 11
236.3957493142
 21
300.3505819379
  0
LINE
  5
2AB
100
AcDbEntity
  8
0
100
AcDbLine
 62
7
  6
CONTINUOUS
 10
235.6786331213
 20
302.0830283893
 11
233.7659033759
 21
301.6971440215
  0
LINE
  5
2AC
100
AcDbEntity
  8
0
100
AcDbLine
 62
7
  6
CONTINUOUS
 10
232.6266501464
 20
287.4264392539
 11
233.8316575107
 21
287.5193736232
  0
LINE
  5
2AD
100
AcDbEntity
  8
0
100
AcDbLine
 62
7
  6
CONTINUOUS
 10
56.9858384616
 20
278.014201169
 11
55.7389457928
 21
277.7888918066
  0
LINE
  5
2AE
100
AcDbEntity
  8
0
100
AcDbLine
 62
7
  6
CONTINUOUS
 10
65.9532737412
 20
278.9179115855
 11
65.0455510286
 21
278.805079404
  0
LINE
  5
2AF
100
AcDbEntity
  8
0
100
AcDbLine
 62
7
  6
CONTINUOUS
 10
236.8836412717
 20
302.1759636646
 11
235.6786331213
 21
302.0830283893
  0
LINE
  5
2B0
100
AcDbEntity
  8
0
100
AcDbLine
 62
7
  6
CONTINUOUS
 10
67.8843444115
 20
298.5658862272
 11
66.7472401552
 21
298.5651787963
  0
LINE
  5
2B1
100
AcDbEntity
  8
0
100
AcDbLine
 62
7
  6
CONTINUOUS
 10
230.9243585771
 20
287.5335179331
 11
232.6266501464
 21
287.4264392539
  0
LINE
  5
2B2
100
AcDbEntity
  8
0
100
AcDbLine
 62
7
  6
CONTINUOUS
 10
235.143775729
 20
310.3846257679
 11
232.3128843924
 21
309.212827346
  0
LINE
  5
2B3
100
AcDbEntity
  8
0
100
AcDbLine
 62
7
  6
CONTINUOUS
 10
235.6504537032
 20
308.1592156713
 11
221.8498612872
 21
302.4466995441
  0
LINE
  5
2B4
100
AcDbEntity
  8
0
100
AcDbLine
 62
7
  6
CONTINUOUS
 10
222.7104005546
 20
300.3677641989
 11
239.3418833159
 21
307.2520783377
  0
LINE
  5
2B5
100
AcDbEntity
  8
0
100
AcDbLine
 62
7
  6
CONTINUOUS
 10
233.7659033759
 20
301.6971440215
 11
230.5811517374
 21
300.3788712585
  0
LINE
  5
2B6
100
AcDbEntity
  8
0
100
AcDbLine
 62
7
  6
CONTINUOUS
 10
66.5472702542
 20
296.9933125654
 11
67.4549936094
 21
297.1061444328
  0
LINE
  5
2B7
100
AcDbEntity
  8
0
100
AcDbLine
 62
7
  6
CONTINUOUS
 10
238.5859327984
 20
302.0688843872
 11
236.8836412717
 21
302.1759636646
  0
LINE
  5
2B8
100
AcDbEntity
  8
0
100
AcDbLine
 62
7
  6
CONTINUOUS
 10
233.1145409075
 20
289.2518210659
 11
230.4176801926
 21
289.758929021
  0
LINE
  5
2B9
100
AcDbEntity
  8
FASEN
100
AcDbLine
 62
7
  6
CONTINUOUS
 10
95.4893220167
 20
205.0256348861
 11
97.4893220159
 21
207.0256348853
  0
LINE
  5
2BA
100
AcDbEntity
  8
0
100
AcDbLine
 62
7
  6
CONTINUOUS
 10
231.6521290183
 20
298.7929000542
 11
234.1291580704
 21
299.8182233143
  0
LINE
  5
2BB
100
AcDbEntity
  8
0
100
AcDbLine
 62
7
  6
CONTINUOUS
 10
236.3957493142
 20
300.3505819379
 11
239.0926107726
 21
299.8434742906
  0
LINE
  5
2BC
100
AcDbEntity
  8
0
100
AcDbLine
 62
7
  6
CONTINUOUS
 10
230.5811517374
 20
300.3788712585
 11
228.9552680555
 21
299.3000079066
  0
LINE
  5
2BD
100
AcDbEntity
  8
0
100
AcDbLine
 62
7
  6
CONTINUOUS
 10
229.6723842484
 20
297.5675614552
 11
231.6521290183
 21
298.7929000542
  0
LINE
  5
2BE
100
AcDbEntity
  8
0
100
AcDbLine
 62
7
  6
CONTINUOUS
 10
237.858161699
 20
290.8095031548
 11
235.3811326469
 21
289.7841798947
  0
LINE
  5
2BF
100
AcDbEntity
  8
0
100
AcDbLine
 62
7
  6
CONTINUOUS
 10
235.7443871363
 20
287.9052596832
 11
238.9291387748
 21
289.2235324462
  0
LINE
  5
2C0
100
AcDbEntity
  8
0
100
AcDbLine
 62
7
  6
CONTINUOUS
 10
241.4919701843
 20
287.0375163367
 11
240.0765250117
 21
286.4516173309
  0
LINE
  5
2C1
100
AcDbEntity
  8
0
100
AcDbLine
 62
7
  6
CONTINUOUS
 10
229.43250494
 20
288.1335613
 11
230.9243585771
 21
287.5335179331
  0
LINE
  5
2C2
100
AcDbEntity
  8
0
100
AcDbLine
 62
7
  6
CONTINUOUS
 10
195.1688139442
 20
255.0256348893
 11
195.1688139442
 21
257.0256348893
  0
LINE
  5
2C3
100
AcDbEntity
  8
BEZUGSACHSEN
100
AcDbLine
 62
7
  6
CONTINUOUS
 10
198.1715009566
 20
245.0256348893
 11
198.1715009566
 21
255.0256348893
  0
LINE
  5
2C4
100
AcDbEntity
  8
0
100
AcDbLine
 62
7
  6
CONTINUOUS
 10
228.9552680555
 20
299.3000079066
 11
228.0371074557
 21
298.5140942629
  0
LINE
  5
2C5
100
AcDbEntity
  8
0
100
AcDbLine
 62
7
  6
CONTINUOUS
 10
238.9291387748
 20
289.2235324462
 11
240.5550225765
 21
290.3023941059
  0
LINE
  5
2C6
100
AcDbEntity
  8
0
100
AcDbLine
 62
7
  6
CONTINUOUS
 10
239.8379059732
 20
292.0348415486
 11
237.858161699
 21
290.8095031548
  0
LINE
  5
2C7
100
AcDbEntity
  8
0
100
AcDbLine
 62
7
  6
CONTINUOUS
 10
245.4702469372
 20
285.437401626
 11
242.6393556006
 21
284.265603204
  0
LINE
  5
2C8
100
AcDbEntity
  8
0
100
AcDbLine
 62
7
  6
CONTINUOUS
 10
241.2239104279
 20
283.6797041982
 11
234.1466838212
 21
280.7502088615
  0
LINE
  5
2C9
100
AcDbEntity
  8
0
100
AcDbLine
 62
7
  6
CONTINUOUS
 10
235.5715224379
 20
279.3107130069
 11
241.9410262105
 21
281.9472587381
  0
LINE
  5
2CA
100
AcDbEntity
  8
0
100
AcDbLine
 62
7
  6
CONTINUOUS
 10
243.3564713831
 20
282.5331577439
 11
246.1873627197
 21
283.7049561659
  0
LINE
  5
2CB
100
AcDbEntity
  8
0
100
AcDbLine
 62
7
  6
CONTINUOUS
 10
233.3237179116
 20
274.7275622695
 11
234.7391632082
 21
275.3134613266
  0
LINE
  5
2CC
100
AcDbEntity
  8
0
100
AcDbLine
 62
7
  6
CONTINUOUS
 10
243.5186820811
 20
278.1358759503
 11
244.9341272537
 21
278.7217749561
  0
LINE
  5
2CD
100
AcDbEntity
  8
0
100
AcDbLine
 62
7
  6
CONTINUOUS
 10
232.3128843924
 20
309.212827346
 11
235.6504537032
 21
308.1592156713
  0
LINE
  5
2CE
100
AcDbEntity
  8
0
100
AcDbLine
 62
7
  6
CONTINUOUS
 10
238.4813440485
 20
309.3310136829
 11
235.143775729
 21
310.3846257679
  0
LINE
  5
2CF
100
AcDbEntity
  8
0
100
AcDbLine
 62
7
  6
CONTINUOUS
 10
240.0777863116
 20
301.468840969
 11
238.5859327984
 21
302.0688843872
  0
LINE
  5
2D0
100
AcDbEntity
  8
0
100
AcDbLine
 62
7
  6
CONTINUOUS
 10
230.4176801926
 20
289.758929021
 11
229.2796879726
 21
290.5054471907
  0
LINE
  5
2D1
100
AcDbEntity
  8
0
100
AcDbLine
 62
7
  6
CONTINUOUS
 10
227.6538047747
 20
289.4265834586
 11
229.43250494
 21
288.1335613
  0
LINE
  5
2D2
100
AcDbEntity
  8
0
100
AcDbLine
 62
7
  6
CONTINUOUS
 10
200.1513804818
 20
257.0256348893
 11
200.1513804818
 21
257.2256348893
  0
LINE
  5
2D3
100
AcDbEntity
  8
0
100
AcDbLine
 62
7
  6
CONTINUOUS
 10
200.3156350684
 20
257.0256348893
 11
200.3156350684
 21
257.2256348893
  0
LINE
  5
2D4
100
AcDbEntity
  8
0
100
AcDbLine
 62
7
  6
CONTINUOUS
 10
200.6345205864
 20
257.0256348893
 11
200.6345205864
 21
257.2256348893
  0
LINE
  5
2D5
100
AcDbEntity
  8
0
100
AcDbLine
 62
7
  6
CONTINUOUS
 10
200.9266553702
 20
257.0256348893
 11
200.9266553702
 21
257.2256348893
  0
LINE
  5
2D6
100
AcDbEntity
  8
0
100
AcDbLine
 62
7
  6
CONTINUOUS
 10
201.2894177831
 20
257.0256348893
 11
201.2894177831
 21
257.2256348893
  0
LINE
  5
2D7
100
AcDbEntity
  8
0
100
AcDbLine
 62
7
  6
CONTINUOUS
 10
201.5548023742
 20
257.0256348893
 11
201.5548023742
 21
257.2256348893
  0
LINE
  5
2D8
100
AcDbEntity
  8
0
100
AcDbLine
 62
7
  6
CONTINUOUS
 10
201.7272424401
 20
257.0256348893
 11
201.7272424401
 21
257.2256348893
  0
LINE
  5
2D9
100
AcDbEntity
  8
0
100
AcDbLine
 62
7
  6
CONTINUOUS
 10
201.7722160056
 20
257.0256348893
 11
201.7722160056
 21
257.2256348893
  0
LINE
  5
2DA
100
AcDbEntity
  8
0
100
AcDbLine
 62
7
  6
CONTINUOUS
 10
201.9808683739
 20
257.0256348893
 11
201.9808683739
 21
257.2256348893
  0
LINE
  5
2DB
100
AcDbEntity
  8
0
100
AcDbLine
 62
7
  6
CONTINUOUS
 10
202.1670334268
 20
257.0256348893
 11
202.1670334268
 21
257.2256348893
  0
LINE
  5
2DC
100
AcDbEntity
  8
FASEN
100
AcDbLine
 62
7
  6
CONTINUOUS
 10
202.4893220199
 20
230.0256348893
 11
202.4893220199
 21
207.0256348893
  0
LINE
  5
2DD
100
AcDbEntity
  8
BEZUGSACHSEN
100
AcDbLine
 62
7
  6
CONTINUOUS
 10
202.4893220199
 20
207.0256348893
 11
202.4893220199
 21
230.0256348893
  0
LINE
  5
2DE
100
AcDbEntity
  8
0
100
AcDbLine
 62
7
  6
CONTINUOUS
 10
202.5634201436
 20
257.0256348893
 11
202.5634201436
 21
257.2256348893
  0
LINE
  5
2DF
100
AcDbEntity
  8
0
100
AcDbLine
 62
7
  6
CONTINUOUS
 10
202.8907788145
 20
257.0256348893
 11
202.8907788145
 21
257.2256348893
  0
LINE
  5
2E0
100
AcDbEntity
  8
0
100
AcDbLine
 62
7
  6
CONTINUOUS
 10
203.3593289728
 20
257.0256348893
 11
203.3593289728
 21
257.2256348893
  0
LINE
  5
2E1
100
AcDbEntity
  8
0
100
AcDbLine
 62
7
  6
CONTINUOUS
 10
203.688255874
 20
257.0256348893
 11
203.688255874
 21
257.2256348893
  0
LINE
  5
2E2
100
AcDbEntity
  8
0
100
AcDbLine
 62
7
  6
CONTINUOUS
 10
203.829067982
 20
245.0256348893
 11
203.829067982
 21
257.0256348893
  0
LINE
  5
2E3
100
AcDbEntity
  8
0
100
AcDbLine
 62
7
  6
CONTINUOUS
 10
204.8617489698
 20
257.0256348893
 11
204.8617489698
 21
257.2256348893
  0
LINE
  5
2E4
100
AcDbEntity
  8
0
100
AcDbLine
 62
7
  6
CONTINUOUS
 10
205.5241936627
 20
257.0256348893
 11
205.5241936627
 21
257.2256348893
  0
LINE
  5
2E5
100
AcDbEntity
  8
0
100
AcDbLine
 62
7
  6
CONTINUOUS
 10
228.0371074557
 20
298.5140942629
 11
226.9085083892
 21
297.2352168713
  0
LINE
  5
2E6
100
AcDbEntity
  8
0
100
AcDbLine
 62
7
  6
CONTINUOUS
 10
240.5550225765
 20
290.3023941059
 11
241.4731839625
 21
291.0883086556
  0
LINE
  5
2E7
100
AcDbEntity
  8
RUNDUNGEN
100
AcDbLine
 62
7
  6
CONTINUOUS
 10
219.5282229628
 20
264.2959683412
 11
214.8575524867
 21
275.594946097
  0
LINE
  5
2E8
100
AcDbEntity
  8
0
100
AcDbLine
 62
7
  6
CONTINUOUS
 10
207.732342639
 20
257.0256348893
 11
207.732342639
 21
257.2256348893
  0
LINE
  5
2E9
100
AcDbEntity
  8
0
100
AcDbLine
 62
7
  6
CONTINUOUS
 10
208.3947873319
 20
257.0256348893
 11
208.3947873319
 21
257.2256348893
  0
LINE
  5
2EA
100
AcDbEntity
  8
0
100
AcDbLine
 62
7
  6
CONTINUOUS
 10
210.27032457
 20
257.0256348893
 11
210.27032457
 21
257.2256348893
  0
LINE
  5
2EB
100
AcDbEntity
  8
0
100
AcDbLine
 62
7
  6
CONTINUOUS
 10
215.5405918338
 20
257.0256348893
 11
215.5405918338
 21
257.2256348893
  0
LINE
  5
2EC
100
AcDbEntity
  8
0
100
AcDbLine
 62
7
  6
CONTINUOUS
 10
215.5546449835
 20
257.0256348893
 11
215.5546449835
 21
257.2256348893
  0
LINE
  5
2ED
100
AcDbEntity
  8
0
100
AcDbLine
 62
7
  6
CONTINUOUS
 10
215.6823641875
 20
257.0256348893
 11
215.6823641875
 21
257.2256348893
  0
LINE
  5
2EE
100
AcDbEntity
  8
0
100
AcDbLine
 62
7
  6
CONTINUOUS
 10
216.2858253593
 20
257.0256348893
 11
216.2858253593
 21
257.2256348893
  0
LINE
  5
2EF
100
AcDbEntity
  8
0
100
AcDbLine
 62
7
  6
CONTINUOUS
 10
216.5604136783
 20
257.0256348893
 11
216.5604136783
 21
257.2256348893
  0
LINE
  5
2F0
100
AcDbEntity
  8
0
100
AcDbLine
 62
7
  6
CONTINUOUS
 10
216.868206485
 20
257.0256348893
 11
216.868206485
 21
257.2256348893
  0
LINE
  5
2F1
100
AcDbEntity
  8
RUNDUNGEN
100
AcDbLine
 62
7
  6
CONTINUOUS
 10
214.8617654861
 20
284.3921808495
 11
218.1913010768
 21
292.424942542
  0
LINE
  5
2F2
100
AcDbEntity
  8
0
100
AcDbLine
 62
7
  6
CONTINUOUS
 10
228.1229089497
 20
295.3027562776
 11
229.6723842484
 21
297.5675614552
  0
LINE
  5
2F3
100
AcDbEntity
  8
0
100
AcDbLine
 62
7
  6
CONTINUOUS
 10
241.4731839625
 20
291.0883086556
 11
242.6017829863
 21
292.3671854489
  0
LINE
  5
2F4
100
AcDbEntity
  8
0
100
AcDbLine
 62
7
  6
CONTINUOUS
 10
234.6533617953
 20
278.5247987649
 11
235.5715224379
 21
279.3107130069
  0
LINE
  5
2F5
100
AcDbEntity
  8
0
100
AcDbLine
 62
7
  6
CONTINUOUS
 10
239.0926107726
 20
299.8434742906
 11
240.2306029926
 21
299.0969561209
  0
LINE
  5
2F6
100
AcDbEntity
  8
0
100
AcDbLine
 62
7
  6
CONTINUOUS
 10
241.856486384
 20
300.1758187719
 11
240.0777863116
 21
301.468840969
  0
LINE
  5
2F7
100
AcDbEntity
  8
0
100
AcDbLine
 62
7
  6
CONTINUOUS
 10
226.4394041832
 20
291.3590440395
 11
227.6538047747
 21
289.4265834586
  0
LINE
  5
2F8
100
AcDbEntity
  8
RUNDUNGEN
100
AcDbLine
 62
7
  6
CONTINUOUS
 10
218.1939892702
 20
297.6268921759
 11
200.0778989275
 21
341.4521422877
  0
LINE
  5
2F9
100
AcDbEntity
  8
0
100
AcDbLine
 62
7
  6
CONTINUOUS
 10
217.3228682938
 20
257.0256348893
 11
217.3228682938
 21
257.2256348893
  0
LINE
  5
2FA
100
AcDbEntity
  8
0
100
AcDbLine
 62
7
  6
CONTINUOUS
 10
217.6970686206
 20
257.0256348893
 11
217.6970686206
 21
257.2256348893
  0
LINE
  5
2FB
100
AcDbEntity
  8
0
100
AcDbLine
 62
7
  6
CONTINUOUS
 10
218.1044735479
 20
257.0256348893
 11
218.1044735479
 21
257.2256348893
  0
LINE
  5
2FC
100
AcDbEntity
  8
0
100
AcDbLine
 62
7
  6
CONTINUOUS
 10
219.8669082973
 20
257.0256348893
 11
219.8669082973
 21
257.2256348893
  0
LINE
  5
2FD
100
AcDbEntity
  8
0
100
AcDbLine
 62
7
  6
CONTINUOUS
 10
221.1495760577
 20
245.0256348893
 11
221.1495760577
 21
257.0256348893
  0
LINE
  5
2FE
100
AcDbEntity
  8
0
100
AcDbLine
 62
7
  6
CONTINUOUS
 10
221.7277799469
 20
257.0256348893
 11
221.7277799469
 21
257.2256348893
  0
LINE
  5
2FF
100
AcDbEntity
  8
0
100
AcDbLine
 62
7
  6
CONTINUOUS
 10
222.0213215329
 20
257.0256348893
 11
222.0213215329
 21
257.2256348893
  0
LINE
  5
300
100
AcDbEntity
  8
FASEN
100
AcDbLine
 62
7
  6
CONTINUOUS
 10
222.4893220199
 20
230.0256348893
 11
222.4893220199
 21
207.0256348893
  0
LINE
  5
301
100
AcDbEntity
  8
BEZUGSACHSEN
100
AcDbLine
 62
7
  6
CONTINUOUS
 10
222.4893220199
 20
207.0256348893
 11
222.4893220199
 21
230.0256348893
  0
LINE
  5
302
100
AcDbEntity
  8
0
100
AcDbLine
 62
7
  6
CONTINUOUS
 10
223.195487877
 20
257.0256348893
 11
223.195487877
 21
257.2256348893
  0
LINE
  5
303
100
AcDbEntity
  8
0
100
AcDbLine
 62
7
  6
CONTINUOUS
 10
223.4890296029
 20
257.0256348893
 11
223.4890296029
 21
257.2256348893
  0
LINE
  5
304
100
AcDbEntity
  8
0
100
AcDbLine
 62
7
  6
CONTINUOUS
 10
223.5753106358
 20
257.0256348893
 11
223.5753106358
 21
257.2256348893
  0
LINE
  5
305
100
AcDbEntity
  8
0
100
AcDbLine
 62
7
  6
CONTINUOUS
 10
223.8416462391
 20
257.0256348893
 11
223.8416462391
 21
257.2256348893
  0
LINE
  5
306
100
AcDbEntity
  8
0
100
AcDbLine
 62
7
  6
CONTINUOUS
 10
224.2224825008
 20
257.0256348893
 11
224.2224825008
 21
257.2256348893
  0
LINE
  5
307
100
AcDbEntity
  8
0
100
AcDbLine
 62
7
  6
CONTINUOUS
 10
224.5351178918
 20
257.0256348893
 11
224.5351178918
 21
257.2256348893
  0
LINE
  5
308
100
AcDbEntity
  8
0
100
AcDbLine
 62
7
  6
CONTINUOUS
 10
224.6959183376
 20
257.0256348893
 11
224.6959183376
 21
257.2256348893
  0
LINE
  5
309
100
AcDbEntity
  8
0
100
AcDbLine
 62
7
  6
CONTINUOUS
 10
225.0663166382
 20
257.0256348893
 11
225.0663166382
 21
257.2256348893
  0
LINE
  5
30A
100
AcDbEntity
  8
0
100
AcDbLine
 62
7
  6
CONTINUOUS
 10
226.2771940195
 20
295.7563248931
 11
225.93272624
 21
293.5844541489
  0
LINE
  5
30B
100
AcDbEntity
  8
0
100
AcDbLine
 62
7
  6
CONTINUOUS
 10
227.8454559971
 20
293.9703391022
 11
228.1229089497
 21
295.3027562776
  0
LINE
  5
30C
100
AcDbEntity
  8
0
100
AcDbLine
 62
7
  6
CONTINUOUS
 10
226.9085083892
 20
297.2352168713
 11
226.2771940195
 21
295.7563248931
  0
LINE
  5
30D
100
AcDbEntity
  8
0
100
AcDbLine
 62
7
  6
CONTINUOUS
 10
241.3873820154
 20
294.299647034
 11
239.8379059732
 21
292.0348415486
  0
LINE
  5
30E
100
AcDbEntity
  8
0
100
AcDbLine
 62
7
  6
CONTINUOUS
 10
234.1466838212
 20
280.7502088615
 11
233.0180846735
 21
279.4713320169
  0
LINE
  5
30F
100
AcDbEntity
  8
RUNDUNGEN
100
AcDbLine
 62
7
  6
CONTINUOUS
 10
196.3974014909
 20
345.136171408
 11
152.5930756536
 21
363.2928238127
  0
LINE
  5
310
100
AcDbEntity
  8
0
100
AcDbLine
 62
7
  6
CONTINUOUS
 10
229.2796879726
 20
290.5054471907
 11
228.2087108968
 21
292.0914178993
  0
LINE
  5
311
100
AcDbEntity
  8
0
100
AcDbLine
 62
7
  6
CONTINUOUS
 10
221.8498612872
 20
302.4466995441
 11
222.7104005546
 21
300.3677641989
  0
LINE
  5
312
100
AcDbEntity
  8
0
100
AcDbLine
 62
7
  6
CONTINUOUS
 10
225.93272624
 20
293.5844541489
 11
226.4394041832
 21
291.3590440395
  0
LINE
  5
313
100
AcDbEntity
  8
0
100
AcDbLine
 62
7
  6
CONTINUOUS
 10
232.7406316589
 20
278.1389148158
 11
232.8170399684
 21
276.9529723789
  0
LINE
  5
314
100
AcDbEntity
  8
BEZUGSACHSEN
100
AcDbLine
 62
7
  6
CONTINUOUS
 10
226.8071430832
 20
245.0256348893
 11
226.8071430832
 21
255.0256348893
  0
LINE
  5
315
100
AcDbEntity
  8
0
100
AcDbLine
 62
7
  6
CONTINUOUS
 10
229.8098300956
 20
255.0256348893
 11
229.8098300956
 21
257.0256348893
  0
LINE
  5
316
100
AcDbEntity
  8
0
100
AcDbLine
 62
7
  6
CONTINUOUS
 10
233.0180846735
 20
279.4713320169
 11
232.7406316589
 21
278.1389148158
  0
LINE
  5
317
100
AcDbEntity
  8
0
100
AcDbLine
 62
7
  6
CONTINUOUS
 10
234.3759088427
 20
277.1923815894
 11
234.6533617953
 21
278.5247987649
  0
LINE
  5
318
100
AcDbEntity
  8
0
100
AcDbLine
 62
7
  6
CONTINUOUS
 10
242.6017829863
 20
292.3671854489
 11
243.2330972321
 21
293.8460773759
  0
LINE
  5
319
100
AcDbEntity
  8
0
100
AcDbLine
 62
7
  6
CONTINUOUS
 10
240.2306029926
 20
299.0969561209
 11
241.3015804787
 21
297.510984421
  0
LINE
  5
31A
100
AcDbEntity
  8
0
100
AcDbLine
 62
7
  6
CONTINUOUS
 10
243.0708869445
 20
298.2433581782
 11
241.856486384
 21
300.1758187719
  0
LINE
  5
31B
100
AcDbEntity
  8
0
100
AcDbLine
 62
7
  6
CONTINUOUS
 10
240.0765250117
 20
286.4516173309
 11
241.2239104279
 21
283.6797041982
  0
LINE
  5
31C
100
AcDbEntity
  8
0
100
AcDbLine
 62
7
  6
CONTINUOUS
 10
241.9410262105
 20
281.9472587381
 11
243.5186820811
 21
278.1358759503
  0
LINE
  5
31D
100
AcDbEntity
  8
0
100
AcDbLine
 62
7
  6
CONTINUOUS
 10
244.9341272537
 20
278.7217749561
 11
243.3564713831
 21
282.5331577439
  0
LINE
  5
31E
100
AcDbEntity
  8
0
100
AcDbLine
 62
7
  6
CONTINUOUS
 10
242.6393556006
 20
284.265603204
 11
241.4919701843
 21
287.0375163367
  0
LINE
  5
31F
100
AcDbEntity
  8
0
100
AcDbLine
 62
7
  6
CONTINUOUS
 10
232.8170399684
 20
276.9529723789
 11
233.3237179116
 21
274.7275622695
  0
LINE
  5
320
100
AcDbEntity
  8
0
100
AcDbLine
 62
7
  6
CONTINUOUS
 10
228.2087108968
 20
292.0914178993
 11
227.8454559971
 21
293.9703391022
  0
LINE
  5
321
100
AcDbEntity
  8
0
100
AcDbLine
 62
7
  6
CONTINUOUS
 10
234.7391632082
 20
275.3134613266
 11
234.3759088427
 21
277.1923815894
  0
LINE
  5
322
100
AcDbEntity
  8
0
100
AcDbLine
 62
7
  6
CONTINUOUS
 10
243.2330972321
 20
293.8460773759
 11
243.5775649187
 21
296.0179480816
  0
LINE
  5
323
100
AcDbEntity
  8
0
100
AcDbLine
 62
7
  6
CONTINUOUS
 10
241.6648349681
 20
295.6320642095
 11
241.3873820154
 21
294.299647034
  0
LINE
  5
324
100
AcDbEntity
  8
0
100
AcDbLine
 62
7
  6
CONTINUOUS
 10
246.1873627197
 20
283.7049561659
 11
245.4702469372
 21
285.437401626
  0
LINE
  5
325
100
AcDbEntity
  8
0
100
AcDbLine
 62
7
  6
CONTINUOUS
 10
239.3418833159
 20
307.2520783377
 11
238.4813440485
 21
309.3310136829
  0
LINE
  5
326
100
AcDbEntity
  8
0
100
AcDbLine
 62
7
  6
CONTINUOUS
 10
243.5775649187
 20
296.0179480816
 11
243.0708869445
 21
298.2433581782
  0
LINE
  5
327
100
AcDbEntity
  8
0
100
AcDbLine
 62
7
  6
CONTINUOUS
 10
241.3015804787
 20
297.510984421
 11
241.6648349681
 21
295.6320642095
  0
LINE
  5
328
100
AcDbEntity
  8
RUNDUNGEN
100
AcDbLine
 62
7
  6
CONTINUOUS
 10
261.4043450134
 20
271.8157955579
 11
247.2438974049
 21
306.0253385197
  0
LINE
  5
329
100
AcDbEntity
  8
RUNDUNGEN
100
AcDbLine
 62
7
  6
CONTINUOUS
 10
263.9893220199
 20
230.0256348893
 11
263.9893220199
 21
258.8120910735
  0
LINE
  5
32A
100
AcDbEntity
  8
FASEN
100
AcDbLine
 62
7
  6
CONTINUOUS
 10
220.4893220154
 20
205.0256348848
 11
222.4893220143
 21
207.0256348836
  0
LINE
  5
32B
100
AcDbEntity
  8
FASEN
100
AcDbLine
 62
7
  6
CONTINUOUS
 10
359.4356430142
 20
205.0256348893
 11
357.4356430142
 21
207.0256348893
  0
LINE
  5
32C
100
AcDbEntity
  8
FASEN
100
AcDbLine
 62
7
  6
CONTINUOUS
 10
485.4356430142
 20
205.0256348893
 11
469.4356430142
 21
205.0256348893
  0
LINE
  5
32D
100
AcDbEntity
  8
FASEN
100
AcDbLine
 62
7
  6
CONTINUOUS
 10
375.4356430142
 20
205.0256348893
 11
359.4356430142
 21
205.0256348893
  0
LINE
  5
32E
100
AcDbEntity
  8
FASEN
100
AcDbLine
 62
7
  6
CONTINUOUS
 10
487.4356430142
 20
207.0256348893
 11
467.4356430142
 21
207.0256348893
  0
LINE
  5
32F
100
AcDbEntity
  8
FASEN
100
AcDbLine
 62
7
  6
CONTINUOUS
 10
377.4356430142
 20
207.0256348893
 11
357.4356430142
 21
207.0256348893
  0
LINE
  5
330
100
AcDbEntity
  8
RUNDUNGEN
100
AcDbLine
 62
7
  6
CONTINUOUS
 10
349.4356430142
 20
230.0256348893
 11
349.4356430142
 21
255.0256348893
  0
LINE
  5
331
100
AcDbEntity
  8
0
100
AcDbLine
 62
7
  6
CONTINUOUS
 10
352.4356430142
 20
255.0256348893
 11
352.4356430142
 21
257.0256348893
  0
LINE
  5
332
100
AcDbEntity
  8
BEZUGSACHSEN
100
AcDbLine
 62
7
  6
CONTINUOUS
 10
357.4356430142
 20
207.0256348893
 11
357.4356430142
 21
230.0256348893
  0
LINE
  5
333
100
AcDbEntity
  8
RUNDUNGEN
100
AcDbLine
 62
7
  6
CONTINUOUS
 10
495.4356430142
 20
230.0256348893
 11
349.4356430142
 21
230.0256348893
  0
LINE
  5
334
100
AcDbEntity
  8
0
100
AcDbLine
 62
7
  6
CONTINUOUS
 10
367.4356430142
 20
255.0256348893
 11
367.4356430142
 21
257.0256348893
  0
LINE
  5
335
100
AcDbEntity
  8
0
100
AcDbLine
 62
7
  6
CONTINUOUS
 10
367.4538924869
 20
257.0256348893
 11
367.4538924869
 21
257.2256348893
  0
LINE
  5
336
100
AcDbEntity
  8
0
100
AcDbLine
 62
7
  6
CONTINUOUS
 10
367.5789041323
 20
257.0256348893
 11
367.5789041323
 21
257.2256348893
  0
LINE
  5
337
100
AcDbEntity
  8
0
100
AcDbLine
 62
7
  6
CONTINUOUS
 10
367.7018427242
 20
257.0256348893
 11
367.7018427242
 21
257.2256348893
  0
LINE
  5
338
100
AcDbEntity
  8
0
100
AcDbLine
 62
7
  6
CONTINUOUS
 10
367.8523955131
 20
257.0256348893
 11
367.8523955131
 21
257.2256348893
  0
LINE
  5
339
100
AcDbEntity
  8
0
100
AcDbLine
 62
7
  6
CONTINUOUS
 10
367.9756286532
 20
257.0256348893
 11
367.9756286532
 21
257.2256348893
  0
LINE
  5
33A
100
AcDbEntity
  8
0
100
AcDbLine
 62
7
  6
CONTINUOUS
 10
368.194773287
 20
257.0256348893
 11
368.194773287
 21
257.2256348893
  0
LINE
  5
33B
100
AcDbEntity
  8
0
100
AcDbLine
 62
7
  6
CONTINUOUS
 10
368.4825116484
 20
257.0256348893
 11
368.4825116484
 21
257.2256348893
  0
LINE
  5
33C
100
AcDbEntity
  8
0
100
AcDbLine
 62
7
  6
CONTINUOUS
 10
368.9347552694
 20
257.0256348893
 11
368.9347552694
 21
257.2256348893
  0
LINE
  5
33D
100
AcDbEntity
  8
0
100
AcDbLine
 62
7
  6
CONTINUOUS
 10
369.4419327745
 20
257.0256348893
 11
369.4419327745
 21
257.2256348893
  0
LINE
  5
33E
100
AcDbEntity
  8
0
100
AcDbLine
 62
7
  6
CONTINUOUS
 10
369.9217905925
 20
257.0256348893
 11
369.9217905925
 21
257.2256348893
  0
LINE
  5
33F
100
AcDbEntity
  8
0
100
AcDbLine
 62
7
  6
CONTINUOUS
 10
370.2920770348
 20
257.0256348893
 11
370.2920770348
 21
257.2256348893
  0
LINE
  5
340
100
AcDbEntity
  8
0
100
AcDbLine
 62
7
  6
CONTINUOUS
 10
370.497856335
 20
257.0256348893
 11
370.497856335
 21
257.2256348893
  0
LINE
  5
341
100
AcDbEntity
  8
0
100
AcDbLine
 62
7
  6
CONTINUOUS
 10
370.6077222204
 20
257.0256348893
 11
370.6077222204
 21
257.2256348893
  0
LINE
  5
342
100
AcDbEntity
  8
0
100
AcDbLine
 62
7
  6
CONTINUOUS
 10
370.6489962226
 20
257.0256348893
 11
370.6489962226
 21
257.2256348893
  0
LINE
  5
343
100
AcDbEntity
  8
0
100
AcDbLine
 62
7
  6
CONTINUOUS
 10
370.6629486934
 20
257.0256348893
 11
370.6629486934
 21
257.2256348893
  0
LINE
  5
344
100
AcDbEntity
  8
0
100
AcDbLine
 62
7
  6
CONTINUOUS
 10
370.8590827706
 20
257.0256348893
 11
370.8590827706
 21
257.2256348893
  0
LINE
  5
345
100
AcDbEntity
  8
0
100
AcDbLine
 62
7
  6
CONTINUOUS
 10
370.9386104542
 20
257.0256348893
 11
370.9386104542
 21
257.2256348893
  0
LINE
  5
346
100
AcDbEntity
  8
0
100
AcDbLine
 62
7
  6
CONTINUOUS
 10
371.1762688801
 20
257.0256348893
 11
371.1762688801
 21
257.2256348893
  0
LINE
  5
347
100
AcDbEntity
  8
0
100
AcDbLine
 62
7
  6
CONTINUOUS
 10
372.4336854172
 20
257.0256348893
 11
372.4336854172
 21
257.2256348893
  0
LINE
  5
348
100
AcDbEntity
  8
0
100
AcDbLine
 62
7
  6
CONTINUOUS
 10
372.5546876573
 20
257.0256348893
 11
372.5546876573
 21
257.2256348893
  0
LINE
  5
349
100
AcDbEntity
  8
0
100
AcDbLine
 62
7
  6
CONTINUOUS
 10
372.6497511475
 20
257.0256348893
 11
372.6497511475
 21
257.2256348893
  0
LINE
  5
34A
100
AcDbEntity
  8
0
100
AcDbLine
 62
7
  6
CONTINUOUS
 10
372.9090023356
 20
257.0256348893
 11
372.9090023356
 21
257.2256348893
  0
LINE
  5
34B
100
AcDbEntity
  8
0
100
AcDbLine
 62
7
  6
CONTINUOUS
 10
373.3756316924
 20
257.0256348893
 11
373.3756316924
 21
257.2256348893
  0
LINE
  5
34C
100
AcDbEntity
  8
0
100
AcDbLine
 62
7
  6
CONTINUOUS
 10
373.7471976922
 20
257.0256348893
 11
373.7471976922
 21
257.2256348893
  0
LINE
  5
34D
100
AcDbEntity
  8
0
100
AcDbLine
 62
7
  6
CONTINUOUS
 10
374.2094825436
 20
257.0256348893
 11
374.2094825436
 21
257.2256348893
  0
LINE
  5
34E
100
AcDbEntity
  8
0
100
AcDbLine
 62
7
  6
CONTINUOUS
 10
374.4859836042
 20
257.0256348893
 11
374.4859836042
 21
257.2256348893
  0
LINE
  5
34F
100
AcDbEntity
  8
0
100
AcDbLine
 62
7
  6
CONTINUOUS
 10
374.9223311548
 20
257.0256348893
 11
374.9223311548
 21
257.2256348893
  0
LINE
  5
350
100
AcDbEntity
  8
0
100
AcDbLine
 62
7
  6
CONTINUOUS
 10
375.1037704404
 20
257.0256348893
 11
375.1037704404
 21
257.2256348893
  0
LINE
  5
351
100
AcDbEntity
  8
0
100
AcDbLine
 62
7
  6
CONTINUOUS
 10
375.1901447868
 20
257.0256348893
 11
375.1901447868
 21
257.2256348893
  0
LINE
  5
352
100
AcDbEntity
  8
BEZUGSACHSEN
100
AcDbLine
 62
7
  6
CONTINUOUS
 10
377.4356430142
 20
207.0256348893
 11
377.4356430142
 21
230.0256348893
  0
LINE
  5
353
100
AcDbEntity
  8
0
100
AcDbLine
 62
7
  6
CONTINUOUS
 10
377.538619277
 20
257.0256348893
 11
377.538619277
 21
257.2256348893
  0
LINE
  5
354
100
AcDbEntity
  8
0
100
AcDbLine
 62
7
  6
CONTINUOUS
 10
377.8902825091
 20
257.0256348893
 11
377.8902825091
 21
257.2256348893
  0
LINE
  5
355
100
AcDbEntity
  8
0
100
AcDbLine
 62
7
  6
CONTINUOUS
 10
379.0624932829
 20
257.0256348893
 11
379.0624932829
 21
257.2256348893
  0
LINE
  5
356
100
AcDbEntity
  8
0
100
AcDbLine
 62
7
  6
CONTINUOUS
 10
379.414156515
 20
257.0256348893
 11
379.414156515
 21
257.2256348893
  0
LINE
  5
357
100
AcDbEntity
  8
0
100
AcDbLine
 62
7
  6
CONTINUOUS
 10
382.4356430142
 20
255.4118517233
 11
382.4356430142
 21
257.0256348893
  0
LINE
  5
358
100
AcDbEntity
  8
RUNDUNGEN
100
AcDbLine
 62
7
  6
CONTINUOUS
 10
349.4356430142
 20
255.0256348893
 11
417.4356430142
 21
255.0256348893
  0
LINE
  5
359
100
AcDbEntity
  8
RUNDUNGEN
100
AcDbLine
 62
7
  6
CONTINUOUS
 10
427.4356430142
 20
255.0256348893
 11
495.4356430142
 21
255.0256348893
  0
LINE
  5
35A
100
AcDbEntity
  8
0
100
AcDbLine
 62
7
  6
CONTINUOUS
 10
352.4356430142
 20
257.0256348893
 11
382.4356430142
 21
257.0256348893
  0
LINE
  5
35B
100
AcDbEntity
  8
0
100
AcDbLine
 62
7
  6
CONTINUOUS
 10
462.4356430142
 20
257.0256348893
 11
492.4356430142
 21
257.0256348893
  0
LINE
  5
35C
100
AcDbEntity
  8
0
100
AcDbLine
 62
7
  6
CONTINUOUS
 10
367.4538924869
 20
257.2256348893
 11
379.414156515
 21
257.2256348893
  0
LINE
  5
35D
100
AcDbEntity
  8
0
100
AcDbLine
 62
7
  6
CONTINUOUS
 10
477.4538924869
 20
257.2256348893
 11
489.414156515
 21
257.2256348893
  0
LINE
  5
35E
100
AcDbEntity
  8
0
100
AcDbLine
 62
7
  6
CONTINUOUS
 10
432.4356430142
 20
265.5556348893
 11
433.9356430142
 21
265.5556348893
  0
LINE
  5
35F
100
AcDbEntity
  8
FASEN
100
AcDbLine
 62
7
  6
CONTINUOUS
 10
469.4356430142
 20
205.0256348893
 11
467.4356430142
 21
207.0256348893
  0
LINE
  5
360
100
AcDbEntity
  8
BEZUGSACHSEN
100
AcDbLine
 62
7
  6
CONTINUOUS
 10
403.4356430142
 20
358.8107227285
 11
403.4356430142
 21
300.6471011352
  0
LINE
  5
361
100
AcDbEntity
  8
BEZUGSACHSEN
100
AcDbLine
 62
7
  6
CONTINUOUS
 10
401.3248786032
 20
288.6763573321
 11
392.6692926425
 21
264.895330353
  0
LINE
  5
362
100
AcDbEntity
  8
0
100
AcDbLine
 62
7
  6
CONTINUOUS
 10
432.4356430142
 20
270.8254987957
 11
433.9356430142
 21
270.8254987957
  0
LINE
  5
363
100
AcDbEntity
  8
0
100
AcDbLine
 62
7
  6
CONTINUOUS
 10
410.9356430142
 20
297.4846284217
 11
410.9356430142
 21
304.9166783208
  0
LINE
  5
364
100
AcDbEntity
  8
0
100
AcDbLine
 62
7
  6
CONTINUOUS
 10
410.9356430142
 20
305.2816394486
 11
410.9356430142
 21
312.7136893478
  0
LINE
  5
365
100
AcDbEntity
  8
RUNDUNGEN
100
AcDbLine
 62
7
  6
CONTINUOUS
 10
412.4356430142
 20
255.0256348893
 11
412.4356430142
 21
366.0256348893
  0
LINE
  5
366
100
AcDbEntity
  8
0
100
AcDbLine
 62
7
  6
CONTINUOUS
 10
432.4356430142
 20
276.2159657145
 11
433.9356430142
 21
276.2159657145
  0
LINE
  5
367
100
AcDbEntity
  8
0
100
AcDbLine
 62
7
  6
CONTINUOUS
 10
432.4356430142
 20
277.2268551195
 11
433.9356430142
 21
277.2268551195
  0
LINE
  5
368
100
AcDbEntity
  8
0
100
AcDbLine
 62
7
  6
CONTINUOUS
 10
432.4356430142
 20
277.7888918066
 11
433.9356430142
 21
277.7888918066
  0
LINE
  5
369
100
AcDbEntity
  8
0
100
AcDbLine
 62
7
  6
CONTINUOUS
 10
432.4356430142
 20
278.014201169
 11
433.9356430142
 21
278.014201169
  0
LINE
  5
36A
100
AcDbEntity
  8
0
100
AcDbLine
 62
7
  6
CONTINUOUS
 10
432.4356430142
 20
281.1572268424
 11
433.9356430142
 21
281.1572268424
  0
LINE
  5
36B
100
AcDbEntity
  8
0
100
AcDbLine
 62
7
  6
CONTINUOUS
 10
432.4356430142
 20
282.5048442147
 11
433.9356430142
 21
282.5048442147
  0
LINE
  5
36C
100
AcDbEntity
  8
0
100
AcDbLine
 62
7
  6
CONTINUOUS
 10
432.4356430142
 20
282.9607617746
 11
433.9356430142
 21
282.9607617746
  0
LINE
  5
36D
100
AcDbEntity
  8
0
100
AcDbLine
 62
7
  6
CONTINUOUS
 10
432.4356430142
 20
283.7463411745
 11
433.9356430142
 21
283.7463411745
  0
LINE
  5
36E
100
AcDbEntity
  8
0
100
AcDbLine
 62
7
  6
CONTINUOUS
 10
432.4356430142
 20
284.4194433936
 11
433.9356430142
 21
284.4194433936
  0
LINE
  5
36F
100
AcDbEntity
  8
0
100
AcDbLine
 62
7
  6
CONTINUOUS
 10
432.4356430142
 20
287.8953111334
 11
433.9356430142
 21
287.8953111334
  0
LINE
  5
370
100
AcDbEntity
  8
0
100
AcDbLine
 62
7
  6
CONTINUOUS
 10
432.4356430142
 20
289.2429278631
 11
433.9356430142
 21
289.2429278631
  0
LINE
  5
371
100
AcDbEntity
  8
0
100
AcDbLine
 62
7
  6
CONTINUOUS
 10
432.4356430142
 20
291.0397497409
 11
433.9356430142
 21
291.0397497409
  0
LINE
  5
372
100
AcDbEntity
  8
RUNDUNGEN
100
AcDbLine
 62
7
  6
CONTINUOUS
 10
432.4356430142
 20
366.0256348893
 11
432.4356430142
 21
255.0256348893
  0
LINE
  5
373
100
AcDbEntity
  8
0
100
AcDbLine
 62
7
  6
CONTINUOUS
 10
433.9356430142
 20
298.5651787963
 11
433.9356430142
 21
265.5556348893
  0
LINE
  5
374
100
AcDbEntity
  8
0
100
AcDbLine
 62
7
  6
CONTINUOUS
 10
432.4356430142
 20
296.4302166597
 11
433.9356430142
 21
296.4302166597
  0
LINE
  5
375
100
AcDbEntity
  8
0
100
AcDbLine
 62
7
  6
CONTINUOUS
 10
432.4356430142
 20
297.4411067072
 11
433.9356430142
 21
297.4411067072
  0
LINE
  5
376
100
AcDbEntity
  8
0
100
AcDbLine
 62
7
  6
CONTINUOUS
 10
412.4356430142
 20
297.4846284217
 11
410.9356430142
 21
297.4846284217
  0
LINE
  5
377
100
AcDbEntity
  8
0
100
AcDbLine
 62
7
  6
CONTINUOUS
 10
412.4356430142
 20
298.0840440869
 11
410.9356430142
 21
298.0840440869
  0
LINE
  5
378
100
AcDbEntity
  8
0
100
AcDbLine
 62
7
  6
CONTINUOUS
 10
432.4356430142
 20
298.1152675024
 11
433.9356430142
 21
298.1152675024
  0
LINE
  5
379
100
AcDbEntity
  8
0
100
AcDbLine
 62
7
  6
CONTINUOUS
 10
432.4356430142
 20
298.5651787963
 11
433.9356430142
 21
298.5651787963
  0
LINE
  5
37A
100
AcDbEntity
  8
0
100
AcDbLine
 62
7
  6
CONTINUOUS
 10
412.4356430142
 20
300.0787780013
 11
410.9356430142
 21
300.0787780013
  0
LINE
  5
37B
100
AcDbEntity
  8
0
100
AcDbLine
 62
7
  6
CONTINUOUS
 10
412.4356430142
 20
300.6781936665
 11
410.9356430142
 21
300.6781936665
  0
LINE
  5
37C
100
AcDbEntity
  8
0
100
AcDbLine
 62
7
  6
CONTINUOUS
 10
412.4356430142
 20
300.8327704403
 11
410.9356430142
 21
300.8327704403
  0
LINE
  5
37D
100
AcDbEntity
  8
0
100
AcDbLine
 62
7
  6
CONTINUOUS
 10
412.4356430142
 20
301.4321861056
 11
410.9356430142
 21
301.4321861056
  0
LINE
  5
37E
100
AcDbEntity
  8
RUNDUNGEN
100
AcDbLine
 62
7
  6
CONTINUOUS
 10
441.4356430142
 20
358.8107227285
 11
441.4356430142
 21
300.6471011352
  0
LINE
  5
37F
100
AcDbEntity
  8
0
100
AcDbLine
 62
7
  6
CONTINUOUS
 10
412.4356430142
 20
304.9173718106
 11
410.9356430142
 21
304.9173718106
  0
LINE
  5
380
100
AcDbEntity
  8
0
100
AcDbLine
 62
7
  6
CONTINUOUS
 10
412.4356430142
 20
305.2816394486
 11
410.9356430142
 21
305.2816394486
  0
LINE
  5
381
100
AcDbEntity
  8
0
100
AcDbLine
 62
7
  6
CONTINUOUS
 10
412.4356430142
 20
305.8810551139
 11
410.9356430142
 21
305.8810551139
  0
LINE
  5
382
100
AcDbEntity
  8
0
100
AcDbLine
 62
7
  6
CONTINUOUS
 10
412.4356430142
 20
308.6297814673
 11
410.9356430142
 21
308.6297814673
  0
LINE
  5
383
100
AcDbEntity
  8
0
100
AcDbLine
 62
7
  6
CONTINUOUS
 10
412.4356430142
 20
309.2291971325
 11
410.9356430142
 21
309.2291971325
  0
LINE
  5
384
100
AcDbEntity
  8
BEZUGSACHSEN
100
AcDbLine
 62
7
  6
CONTINUOUS
 10
443.7865732233
 20
288.0165072252
 11
448.3803293165
 21
275.3952660887
  0
LINE
  5
385
100
AcDbEntity
  8
RUNDUNGEN
100
AcDbLine
 62
7
  6
CONTINUOUS
 10
443.5464074253
 20
288.6763573321
 11
452.201993386
 21
264.895330353
  0
LINE
  5
386
100
AcDbEntity
  8
FASEN
100
AcDbLine
 62
7
  6
CONTINUOUS
 10
375.4356430142
 20
205.0256348893
 11
377.4356430142
 21
207.0256348893
  0
LINE
  5
387
100
AcDbEntity
  8
0
100
AcDbLine
 62
7
  6
CONTINUOUS
 10
412.4356430142
 20
312.7143828376
 11
410.9356430142
 21
312.7143828376
  0
LINE
  5
388
100
AcDbEntity
  8
0
100
AcDbLine
 62
7
  6
CONTINUOUS
 10
462.4356430142
 20
255.411763337
 11
462.4356430142
 21
257.0256348893
  0
LINE
  5
389
100
AcDbEntity
  8
BEZUGSACHSEN
100
AcDbLine
 62
7
  6
CONTINUOUS
 10
467.4356430142
 20
230.0256348893
 11
467.4356430142
 21
207.0256348893
  0
LINE
  5
38A
100
AcDbEntity
  8
0
100
AcDbLine
 62
7
  6
CONTINUOUS
 10
477.4356430142
 20
255.0256348893
 11
477.4356430142
 21
257.0256348893
  0
LINE
  5
38B
100
AcDbEntity
  8
0
100
AcDbLine
 62
7
  6
CONTINUOUS
 10
477.4538924869
 20
257.0256348893
 11
477.4538924869
 21
257.2256348893
  0
LINE
  5
38C
100
AcDbEntity
  8
0
100
AcDbLine
 62
7
  6
CONTINUOUS
 10
477.5789041323
 20
257.0256348893
 11
477.5789041323
 21
257.2256348893
  0
LINE
  5
38D
100
AcDbEntity
  8
0
100
AcDbLine
 62
7
  6
CONTINUOUS
 10
477.7018427242
 20
257.0256348893
 11
477.7018427242
 21
257.2256348893
  0
LINE
  5
38E
100
AcDbEntity
  8
0
100
AcDbLine
 62
7
  6
CONTINUOUS
 10
477.8523955131
 20
257.0256348893
 11
477.8523955131
 21
257.2256348893
  0
LINE
  5
38F
100
AcDbEntity
  8
0
100
AcDbLine
 62
7
  6
CONTINUOUS
 10
477.9756286532
 20
257.0256348893
 11
477.9756286532
 21
257.2256348893
  0
LINE
  5
390
100
AcDbEntity
  8
0
100
AcDbLine
 62
7
  6
CONTINUOUS
 10
478.194773287
 20
257.0256348893
 11
478.194773287
 21
257.2256348893
  0
LINE
  5
391
100
AcDbEntity
  8
0
100
AcDbLine
 62
7
  6
CONTINUOUS
 10
478.4825116484
 20
257.0256348893
 11
478.4825116484
 21
257.2256348893
  0
LINE
  5
392
100
AcDbEntity
  8
0
100
AcDbLine
 62
7
  6
CONTINUOUS
 10
478.9347552694
 20
257.0256348893
 11
478.9347552694
 21
257.2256348893
  0
LINE
  5
393
100
AcDbEntity
  8
0
100
AcDbLine
 62
7
  6
CONTINUOUS
 10
479.4419327745
 20
257.0256348893
 11
479.4419327745
 21
257.2256348893
  0
LINE
  5
394
100
AcDbEntity
  8
0
100
AcDbLine
 62
7
  6
CONTINUOUS
 10
479.9217905925
 20
257.0256348893
 11
479.9217905925
 21
257.2256348893
  0
LINE
  5
395
100
AcDbEntity
  8
0
100
AcDbLine
 62
7
  6
CONTINUOUS
 10
480.2920770348
 20
257.0256348893
 11
480.2920770348
 21
257.2256348893
  0
LINE
  5
396
100
AcDbEntity
  8
0
100
AcDbLine
 62
7
  6
CONTINUOUS
 10
480.497856335
 20
257.0256348893
 11
480.497856335
 21
257.2256348893
  0
LINE
  5
397
100
AcDbEntity
  8
0
100
AcDbLine
 62
7
  6
CONTINUOUS
 10
480.6077222204
 20
257.0256348893
 11
480.6077222204
 21
257.2256348893
  0
LINE
  5
398
100
AcDbEntity
  8
0
100
AcDbLine
 62
7
  6
CONTINUOUS
 10
480.6489962226
 20
257.0256348893
 11
480.6489962226
 21
257.2256348893
  0
LINE
  5
399
100
AcDbEntity
  8
0
100
AcDbLine
 62
7
  6
CONTINUOUS
 10
480.6629486934
 20
257.0256348893
 11
480.6629486934
 21
257.2256348893
  0
LINE
  5
39A
100
AcDbEntity
  8
0
100
AcDbLine
 62
7
  6
CONTINUOUS
 10
480.8590827706
 20
257.0256348893
 11
480.8590827706
 21
257.2256348893
  0
LINE
  5
39B
100
AcDbEntity
  8
0
100
AcDbLine
 62
7
  6
CONTINUOUS
 10
480.9386104542
 20
257.0256348893
 11
480.9386104542
 21
257.2256348893
  0
LINE
  5
39C
100
AcDbEntity
  8
0
100
AcDbLine
 62
7
  6
CONTINUOUS
 10
481.1762688801
 20
257.0256348893
 11
481.1762688801
 21
257.2256348893
  0
LINE
  5
39D
100
AcDbEntity
  8
0
100
AcDbLine
 62
7
  6
CONTINUOUS
 10
482.4336854172
 20
257.0256348893
 11
482.4336854172
 21
257.2256348893
  0
LINE
  5
39E
100
AcDbEntity
  8
0
100
AcDbLine
 62
7
  6
CONTINUOUS
 10
482.5546876573
 20
257.0256348893
 11
482.5546876573
 21
257.2256348893
  0
LINE
  5
39F
100
AcDbEntity
  8
0
100
AcDbLine
 62
7
  6
CONTINUOUS
 10
482.6497511475
 20
257.0256348893
 11
482.6497511475
 21
257.2256348893
  0
LINE
  5
3A0
100
AcDbEntity
  8
0
100
AcDbLine
 62
7
  6
CONTINUOUS
 10
482.9090023356
 20
257.0256348893
 11
482.9090023356
 21
257.2256348893
  0
LINE
  5
3A1
100
AcDbEntity
  8
0
100
AcDbLine
 62
7
  6
CONTINUOUS
 10
483.3756316924
 20
257.0256348893
 11
483.3756316924
 21
257.2256348893
  0
LINE
  5
3A2
100
AcDbEntity
  8
0
100
AcDbLine
 62
7
  6
CONTINUOUS
 10
483.7471976922
 20
257.0256348893
 11
483.7471976922
 21
257.2256348893
  0
LINE
  5
3A3
100
AcDbEntity
  8
0
100
AcDbLine
 62
7
  6
CONTINUOUS
 10
484.2094825436
 20
257.0256348893
 11
484.2094825436
 21
257.2256348893
  0
LINE
  5
3A4
100
AcDbEntity
  8
0
100
AcDbLine
 62
7
  6
CONTINUOUS
 10
484.4859836042
 20
257.0256348893
 11
484.4859836042
 21
257.2256348893
  0
LINE
  5
3A5
100
AcDbEntity
  8
0
100
AcDbLine
 62
7
  6
CONTINUOUS
 10
484.9223311548
 20
257.0256348893
 11
484.9223311548
 21
257.2256348893
  0
LINE
  5
3A6
100
AcDbEntity
  8
0
100
AcDbLine
 62
7
  6
CONTINUOUS
 10
485.1037704404
 20
257.0256348893
 11
485.1037704404
 21
257.2256348893
  0
LINE
  5
3A7
100
AcDbEntity
  8
0
100
AcDbLine
 62
7
  6
CONTINUOUS
 10
485.1901447868
 20
257.0256348893
 11
485.1901447868
 21
257.2256348893
  0
LINE
  5
3A8
100
AcDbEntity
  8
BEZUGSACHSEN
100
AcDbLine
 62
7
  6
CONTINUOUS
 10
487.4356430142
 20
230.0256348893
 11
487.4356430142
 21
207.0256348893
  0
LINE
  5
3A9
100
AcDbEntity
  8
0
100
AcDbLine
 62
7
  6
CONTINUOUS
 10
487.538619277
 20
257.0256348893
 11
487.538619277
 21
257.2256348893
  0
LINE
  5
3AA
100
AcDbEntity
  8
0
100
AcDbLine
 62
7
  6
CONTINUOUS
 10
487.8902825091
 20
257.0256348893
 11
487.8902825091
 21
257.2256348893
  0
LINE
  5
3AB
100
AcDbEntity
  8
0
100
AcDbLine
 62
7
  6
CONTINUOUS
 10
489.0624932829
 20
257.0256348893
 11
489.0624932829
 21
257.2256348893
  0
LINE
  5
3AC
100
AcDbEntity
  8
0
100
AcDbLine
 62
7
  6
CONTINUOUS
 10
489.414156515
 20
257.0256348893
 11
489.414156515
 21
257.2256348893
  0
LINE
  5
3AD
100
AcDbEntity
  8
0
100
AcDbLine
 62
7
  6
CONTINUOUS
 10
492.4356430142
 20
255.0256348893
 11
492.4356430142
 21
257.0256348893
  0
LINE
  5
3AE
100
AcDbEntity
  8
RUNDUNGEN
100
AcDbLine
 62
7
  6
CONTINUOUS
 10
495.4356430142
 20
255.0256348893
 11
495.4356430142
 21
230.0256348893
  0
LINE
  5
3AF
100
AcDbEntity
  8
BEZUGSACHSEN
100
AcDbLine
 62
7
  6
CONTINUOUS
 10
408.4356430142
 20
363.8110671304
 11
412.4356430142
 21
363.8110671304
  0
LINE
  5
3B0
100
AcDbEntity
  8
RUNDUNGEN
100
AcDbLine
 62
7
  6
CONTINUOUS
 10
432.4356430142
 20
363.8110671304
 11
436.4356430142
 21
363.8110671304
  0
LINE
  5
3B1
100
AcDbEntity
  8
0
100
AcDbLine
 62
7
  6
CONTINUOUS
 10
417.4356430142
 20
371.0256348893
 11
427.4356430142
 21
371.0256348893
  0
LINE
  5
3B2
100
AcDbEntity
  8
FASEN
100
AcDbLine
 62
7
  6
CONTINUOUS
 10
485.4356430142
 20
205.0256348893
 11
487.4356430142
 21
207.0256348893
  0
LINE
  5
3B3
100
AcDbEntity
  8
RUNDUNGEN
100
AcDbLine
 62
7
  6
CONTINUOUS
 10
35.9893220199
 20
67.03
 11
35.9893220199
 21
143.03
  0
LINE
  5
3B4
100
AcDbEntity
  8
0
100
AcDbLine
 62
7
  6
CONTINUOUS
 10
51.1983881825
 20
95.03
 11
51.1983881825
 21
93.53
  0
LINE
  5
3B5
100
AcDbEntity
  8
0
100
AcDbLine
 62
7
  6
CONTINUOUS
 10
53.8333201357
 20
95.03
 11
53.8333201357
 21
93.53
  0
LINE
  5
3B6
100
AcDbEntity
  8
0
100
AcDbLine
 62
7
  6
CONTINUOUS
 10
54.611645941
 20
95.03
 11
54.611645941
 21
93.53
  0
LINE
  5
3B7
100
AcDbEntity
  8
0
100
AcDbLine
 62
7
  6
CONTINUOUS
 10
55.7389457928
 20
95.03
 11
55.7389457928
 21
93.53
  0
LINE
  5
3B8
100
AcDbEntity
  8
0
100
AcDbLine
 62
7
  6
CONTINUOUS
 10
56.2486743215
 20
95.03
 11
56.2486743215
 21
93.53
  0
LINE
  5
3B9
100
AcDbEntity
  8
0
100
AcDbLine
 62
7
  6
CONTINUOUS
 10
56.9074076239
 20
95.03
 11
56.9074076239
 21
93.53
  0
LINE
  5
3BA
100
AcDbEntity
  8
0
100
AcDbLine
 62
7
  6
CONTINUOUS
 10
59.5423395771
 20
95.03
 11
59.5423395771
 21
93.53
  0
LINE
  5
3BB
100
AcDbEntity
  8
0
100
AcDbLine
 62
7
  6
CONTINUOUS
 10
60.2010725654
 20
95.03
 11
60.2010725654
 21
93.53
  0
LINE
  5
3BC
100
AcDbEntity
  8
0
100
AcDbLine
 62
7
  6
CONTINUOUS
 10
75.3402646529
 20
158.9831313659
 11
75.1551318876
 21
158.5308877448
  0
LINE
  5
3BD
100
AcDbEntity
  8
0
100
AcDbLine
 62
7
  6
CONTINUOUS
 10
75.5885222357
 20
158.5169333914
 11
75.7164024329
 21
158.7910119093
  0
LINE
  5
3BE
100
AcDbEntity
  8
0
100
AcDbLine
 62
7
  6
CONTINUOUS
 10
78.829067982
 20
175.03
 11
70.1688139442
 21
160.03
  0
LINE
  5
3BF
100
AcDbEntity
  8
0
100
AcDbLine
 62
7
  6
CONTINUOUS
 10
75.5521478463
 20
159.2708697273
 11
75.3402646529
 21
158.9831313659
  0
LINE
  5
3C0
100
AcDbEntity
  8
0
100
AcDbLine
 62
7
  6
CONTINUOUS
 10
75.7164024329
 20
158.7910119093
 11
76.1669194831
 21
159.2019834107
  0
LINE
  5
3C1
100
AcDbEntity
  8
0
100
AcDbLine
 62
7
  6
CONTINUOUS
 10
79.8617489698
 20
39.9270237373
 11
80.5241936627
 21
39.5753605051
  0
LINE
  5
3C2
100
AcDbEntity
  8
0
100
AcDbLine
 62
7
  6
CONTINUOUS
 10
82.732342639
 20
38.4031497313
 11
83.3947873319
 21
38.0514864992
  0
LINE
  5
3C3
100
AcDbEntity
  8
0
100
AcDbLine
 62
7
  6
CONTINUOUS
 10
77.5634201436
 20
42.5433118595
 11
77.8907788145
 21
42.3618725738
  0
LINE
  5
3C4
100
AcDbEntity
  8
0
100
AcDbLine
 62
7
  6
CONTINUOUS
 10
75.6345205864
 20
47.1735659794
 11
75.9266553702
 21
46.9677866793
  0
LINE
  5
3C5
100
AcDbEntity
  8
0
100
AcDbLine
 62
7
  6
CONTINUOUS
 10
77.8698597295
 20
42.8500963083
 11
77.5665566044
 21
43.1481917465
  0
LINE
  5
3C6
100
AcDbEntity
  8
0
100
AcDbLine
 62
7
  6
CONTINUOUS
 10
75.930406776
 20
47.4749641843
 11
75.7222749884
 21
47.694403328
  0
LINE
  5
3C7
100
AcDbEntity
  8
0
100
AcDbLine
 62
7
  6
CONTINUOUS
 10
78.320495727
 20
49.2144671262
 11
78.5286275146
 21
48.9950279826
  0
LINE
  5
3C8
100
AcDbEntity
  8
0
100
AcDbLine
 62
7
  6
CONTINUOUS
 10
77.1670334268
 20
42.9796594101
 11
77.5634201436
 21
42.5433118595
  0
LINE
  5
3C9
100
AcDbEntity
  8
0
100
AcDbLine
 62
7
  6
CONTINUOUS
 10
75.3156350684
 20
47.5438524218
 11
75.6345205864
 21
47.1735659794
  0
LINE
  5
3CA
100
AcDbEntity
  8
0
100
AcDbLine
 62
7
  6
CONTINUOUS
 10
78.93526718
 20
49.1455807798
 11
78.616381946
 21
49.515865336
  0
LINE
  5
3CB
100
AcDbEntity
  8
0
100
AcDbLine
 62
7
  6
CONTINUOUS
 10
76.9808683739
 20
43.2561604706
 11
77.1670334268
 21
42.9796594101
  0
LINE
  5
3CC
100
AcDbEntity
  8
0
100
AcDbLine
 62
7
  6
CONTINUOUS
 10
77.5665566044
 20
43.1481917465
 11
77.3803904862
 21
43.4246943892
  0
LINE
  5
3CD
100
AcDbEntity
  8
0
100
AcDbLine
 62
7
  6
CONTINUOUS
 10
78.688255874
 20
42.3964988853
 11
78.4555490252
 21
42.742126002
  0
LINE
  5
3CE
100
AcDbEntity
  8
0
100
AcDbLine
 62
7
  6
CONTINUOUS
 10
79.2477907147
 20
46.2893741341
 11
80.5509503462
 21
44.3538603818
  0
LINE
  5
3CF
100
AcDbEntity
  8
0
100
AcDbLine
 62
7
  6
CONTINUOUS
 10
81.2762640137
 20
44.0385135224
 11
79.6007721459
 21
46.5270325601
  0
LINE
  5
3D0
100
AcDbEntity
  8
0
100
AcDbLine
 62
7
  6
CONTINUOUS
 10
70.1688139442
 20
50.03
 11
78.829067982
 21
35.03
  0
LINE
  5
3D1
100
AcDbEntity
  8
0
100
AcDbLine
 62
7
  6
CONTINUOUS
 10
76.7722160056
 20
43.7184453221
 11
76.9808683739
 21
43.2561604706
  0
LINE
  5
3D2
100
AcDbEntity
  8
0
100
AcDbLine
 62
7
  6
CONTINUOUS
 10
77.3803904862
 20
43.4246943892
 11
77.2182799138
 21
43.8178531845
  0
LINE
  5
3D3
100
AcDbEntity
  8
0
100
AcDbLine
 62
7
  6
CONTINUOUS
 10
75.7222749884
 20
47.694403328
 11
75.5713954628
 21
48.0920094575
  0
LINE
  5
3D4
100
AcDbEntity
  8
0
100
AcDbLine
 62
7
  6
CONTINUOUS
 10
75.1513804818
 20
48.0237102397
 11
75.3156350684
 21
47.5438524218
  0
LINE
  5
3D5
100
AcDbEntity
  8
0
100
AcDbLine
 62
7
  6
CONTINUOUS
 10
61.0793830071
 20
95.03
 11
61.0793830071
 21
93.53
  0
LINE
  5
3D6
100
AcDbEntity
  8
0
100
AcDbLine
 62
7
  6
CONTINUOUS
 10
62.9821595117
 20
115.03
 11
62.9821595117
 21
116.53
  0
LINE
  5
3D7
100
AcDbEntity
  8
0
100
AcDbLine
 62
7
  6
CONTINUOUS
 10
63.7143149604
 20
95.03
 11
63.7143149604
 21
93.53
  0
LINE
  5
3D8
100
AcDbEntity
  8
0
100
AcDbLine
 62
7
  6
CONTINUOUS
 10
64.4926410798
 20
95.03
 11
64.4926410798
 21
93.53
  0
LINE
  5
3D9
100
AcDbEntity
  8
0
100
AcDbLine
 62
7
  6
CONTINUOUS
 10
65.3905590738
 20
95.03
 11
65.3905590738
 21
93.53
  0
LINE
  5
3DA
100
AcDbEntity
  8
0
100
AcDbLine
 62
7
  6
CONTINUOUS
 10
66.3521595117
 20
115.03
 11
66.3521595117
 21
116.53
  0
LINE
  5
3DB
100
AcDbEntity
  8
0
100
AcDbLine
 62
7
  6
CONTINUOUS
 10
66.7472401552
 20
95.03
 11
66.7472401552
 21
93.53
  0
LINE
  5
3DC
100
AcDbEntity
  8
0
100
AcDbLine
 62
7
  6
CONTINUOUS
 10
67.8843444115
 20
95.03
 11
67.8843444115
 21
93.53
  0
LINE
  5
3DD
100
AcDbEntity
  8
0
100
AcDbLine
 62
7
  6
CONTINUOUS
 10
69.1410411849
 20
95.03
 11
69.1410411849
 21
93.53
  0
LINE
  5
3DE
100
AcDbEntity
  8
0
100
AcDbLine
 62
7
  6
CONTINUOUS
 10
76.8234614273
 20
154.5566406786
 11
76.7272424401
 21
154.0900113218
  0
LINE
  5
3DF
100
AcDbEntity
  8
0
100
AcDbLine
 62
7
  6
CONTINUOUS
 10
78.9106378796
 20
157.7062999495
 11
79.0957703608
 21
158.1585454568
  0
LINE
  5
3E0
100
AcDbEntity
  8
0
100
AcDbLine
 62
7
  6
CONTINUOUS
 10
77.2198481441
 20
154.120293128
 11
77.3385544467
 21
154.4011386938
  0
LINE
  5
3E1
100
AcDbEntity
  8
0
100
AcDbLine
 62
7
  6
CONTINUOUS
 10
78.6623802674
 20
158.1724979192
 11
78.5345000702
 21
157.8984194013
  0
LINE
  5
3E2
100
AcDbEntity
  8
0
100
AcDbLine
 62
7
  6
CONTINUOUS
 10
81.7372862079
 20
153.4600620995
 11
79.8617489698
 21
149.9270237373
  0
LINE
  5
3E3
100
AcDbEntity
  8
0
100
AcDbLine
 62
7
  6
CONTINUOUS
 10
80.7024291936
 20
150.4442917827
 11
82.1789160031
 21
153.2256199447
  0
LINE
  5
3E4
100
AcDbEntity
  8
0
100
AcDbLine
 62
7
  6
CONTINUOUS
 10
84.0252204048
 20
166.03
 11
80.5611187896
 21
160.03
  0
LINE
  5
3E5
100
AcDbEntity
  8
0
100
AcDbLine
 62
7
  6
CONTINUOUS
 10
78.6987546568
 20
157.4185615833
 11
78.9106378796
 21
157.7062999495
  0
LINE
  5
3E6
100
AcDbEntity
  8
0
100
AcDbLine
 62
7
  6
CONTINUOUS
 10
77.0593058021
 20
154.8158918668
 11
76.8234614273
 21
154.5566406786
  0
LINE
  5
3E7
100
AcDbEntity
  8
0
100
AcDbLine
 62
7
  6
CONTINUOUS
 10
78.5345000702
 20
157.8984194013
 11
78.0839828903
 21
157.4874498112
  0
LINE
  5
3E8
100
AcDbEntity
  8
0
100
AcDbLine
 62
7
  6
CONTINUOUS
 10
75.861409403
 20
159.4900143611
 11
75.5521478463
 21
159.2708697273
  0
LINE
  5
3E9
100
AcDbEntity
  8
0
100
AcDbLine
 62
7
  6
CONTINUOUS
 10
78.3894930412
 20
157.1994169399
 11
78.6987546568
 21
157.4185615833
  0
LINE
  5
3EA
100
AcDbEntity
  8
0
100
AcDbLine
 62
7
  6
CONTINUOUS
 10
79.6007721459
 20
156.5270325601
 11
79.2477907147
 21
156.2893741341
  0
LINE
  5
3EB
100
AcDbEntity
  8
0
100
AcDbLine
 62
7
  6
CONTINUOUS
 10
77.2004985525
 20
154.910955357
 11
77.0593058021
 21
154.8158918668
  0
LINE
  5
3EC
100
AcDbEntity
  8
0
100
AcDbLine
 62
7
  6
CONTINUOUS
 10
77.3385544467
 20
154.4011386938
 11
77.4797471971
 21
154.496202184
  0
LINE
  5
3ED
100
AcDbEntity
  8
0
100
AcDbLine
 62
7
  6
CONTINUOUS
 10
76.1000432598
 20
159.6132475011
 11
75.861409403
 21
159.4900143611
  0
LINE
  5
3EE
100
AcDbEntity
  8
0
100
AcDbLine
 62
7
  6
CONTINUOUS
 10
217.8630891017
 20
39.307195607
 11
217.529119516
 21
39.2246225505
  0
LINE
  5
3EF
100
AcDbEntity
  8
0
100
AcDbLine
 62
7
  6
CONTINUOUS
 10
91.868206485
 20
38.8700891029
 11
92.3228682938
 21
38.7276705161
  0
LINE
  5
3F0
100
AcDbEntity
  8
0
100
AcDbLine
 62
7
  6
CONTINUOUS
 10
78.1506766045
 20
42.7377830789
 11
77.8698597295
 21
42.8500963083
  0
LINE
  5
3F1
100
AcDbEntity
  8
0
100
AcDbLine
 62
7
  6
CONTINUOUS
 10
76.4879258448
 20
47.2279127646
 11
75.930406776
 21
47.4749641843
  0
LINE
  5
3F2
100
AcDbEntity
  8
0
100
AcDbLine
 62
7
  6
CONTINUOUS
 10
77.7629765286
 20
49.4615204573
 11
78.320495727
 21
49.2144671262
  0
LINE
  5
3F3
100
AcDbEntity
  8
0
100
AcDbLine
 62
7
  6
CONTINUOUS
 10
85.27032457
 20
41.5845248614
 11
84.8286947747
 21
41.8189670161
  0
LINE
  5
3F4
100
AcDbEntity
  8
0
100
AcDbLine
 62
7
  6
CONTINUOUS
 10
83.798225814
 20
42.3659984125
 11
83.2093849639
 21
42.6785885484
  0
LINE
  5
3F5
100
AcDbEntity
  8
0
100
AcDbLine
 62
7
  6
CONTINUOUS
 10
82.1789160031
 20
43.2256199447
 11
81.7372862079
 21
43.4600620995
  0
LINE
  5
3F6
100
AcDbEntity
  8
0
100
AcDbLine
 62
7
  6
CONTINUOUS
 10
92.2283536902
 20
39.2564391635
 11
91.9607915119
 21
39.4026456561
  0
LINE
  5
3F7
100
AcDbEntity
  8
0
100
AcDbLine
 62
7
  6
CONTINUOUS
 10
78.616381946
 20
49.515865336
 11
78.3242471328
 21
49.7216446313
  0
LINE
  5
3F8
100
AcDbEntity
  8
0
100
AcDbLine
 62
7
  6
CONTINUOUS
 10
91.5604136783
 20
39.0912925998
 11
91.868206485
 21
38.8700891029
  0
LINE
  5
3F9
100
AcDbEntity
  8
0
100
AcDbLine
 62
7
  6
CONTINUOUS
 10
94.5920075518
 20
43.0260706317
 11
96.7277799469
 21
41.4771703227
  0
LINE
  5
3FA
100
AcDbEntity
  8
0
100
AcDbLine
 62
7
  6
CONTINUOUS
 10
97.0213215329
 20
41.881933633
 11
94.8855491378
 21
43.4308339419
  0
LINE
  5
3FB
100
AcDbEntity
  8
0
100
AcDbLine
 62
7
  6
CONTINUOUS
 10
96.0597154818
 20
45.0498871827
 11
98.195487877
 21
43.5009868738
  0
LINE
  5
3FC
100
AcDbEntity
  8
0
100
AcDbLine
 62
7
  6
CONTINUOUS
 10
94.2964518709
 20
43.3433539086
 11
94.5920075518
 21
43.0260706317
  0
LINE
  5
3FD
100
AcDbEntity
  8
0
100
AcDbLine
 62
7
  6
CONTINUOUS
 10
91.9607915119
 20
39.4026456561
 11
91.7264340467
 21
39.6632420588
  0
LINE
  5
3FE
100
AcDbEntity
  8
0
100
AcDbLine
 62
7
  6
CONTINUOUS
 10
94.8855491378
 20
43.4308339419
 11
94.6588893313
 21
43.6981526995
  0
LINE
  5
3FF
100
AcDbEntity
  8
0
100
AcDbLine
 62
7
  6
CONTINUOUS
 10
91.2858253593
 20
39.4268864271
 11
91.5604136783
 21
39.0912925998
  0
LINE
  5
400
100
AcDbEntity
  8
0
100
AcDbLine
 62
7
  6
CONTINUOUS
 10
80.5611187896
 20
50.03
 11
84.0252204048
 21
44.03
  0
LINE
  5
401
100
AcDbEntity
  8
0
100
AcDbLine
 62
7
  6
CONTINUOUS
 10
90.6823641875
 20
40.5518447487
 11
91.2858253593
 21
39.4268864271
  0
LINE
  5
402
100
AcDbEntity
  8
0
100
AcDbLine
 62
7
  6
CONTINUOUS
 10
91.7264340467
 20
39.6632420588
 11
91.1229728749
 21
40.7882003804
  0
LINE
  5
403
100
AcDbEntity
  8
0
100
AcDbLine
 62
7
  6
CONTINUOUS
 10
78.5286275146
 20
48.9950279826
 11
78.6795067341
 21
48.5974237357
  0
LINE
  5
404
100
AcDbEntity
  8
0
100
AcDbLine
 62
7
  6
CONTINUOUS
 10
79.099521774
 20
48.665722963
 11
78.93526718
 21
49.1455807798
  0
LINE
  5
405
100
AcDbEntity
  8
0
100
AcDbLine
 62
7
  6
CONTINUOUS
 10
76.7272424401
 20
44.0900113218
 11
76.7722160056
 21
43.7184453221
  0
LINE
  5
406
100
AcDbEntity
  8
0
100
AcDbLine
 62
7
  6
CONTINUOUS
 10
72.5817646612
 20
95.03
 11
72.5817646612
 21
93.53
  0
LINE
  5
407
100
AcDbEntity
  8
0
100
AcDbLine
 62
7
  6
CONTINUOUS
 10
73.618883967
 20
95.03
 11
73.618883967
 21
93.53
  0
LINE
  5
408
100
AcDbEntity
  8
0
100
AcDbLine
 62
7
  6
CONTINUOUS
 10
74.3168322207
 20
95.03
 11
74.3168322207
 21
93.53
  0
LINE
  5
409
100
AcDbEntity
  8
0
100
AcDbLine
 62
7
  6
CONTINUOUS
 10
74.7952035689
 20
95.03
 11
74.7952035689
 21
93.53
  0
LINE
  5
40A
100
AcDbEntity
  8
0
100
AcDbLine
 62
7
  6
CONTINUOUS
 10
74.8148118098
 20
95.03
 11
74.8148118098
 21
93.53
  0
LINE
  5
40B
100
AcDbEntity
  8
0
100
AcDbLine
 62
7
  6
CONTINUOUS
 10
76.1171713324
 20
115.03
 11
76.1171713324
 21
116.53
  0
LINE
  5
40C
100
AcDbEntity
  8
0
100
AcDbLine
 62
7
  6
CONTINUOUS
 10
77.2182799138
 20
153.8178531845
 11
77.2198481441
 21
154.120293128
  0
LINE
  5
40D
100
AcDbEntity
  8
0
100
AcDbLine
 62
7
  6
CONTINUOUS
 10
77.2182799138
 20
43.8178531845
 11
77.2198481441
 21
44.120293128
  0
LINE
  5
40E
100
AcDbEntity
  8
0
100
AcDbLine
 62
7
  6
CONTINUOUS
 10
75.1551318876
 20
158.5308877448
 11
75.1513804818
 21
158.0237102397
  0
LINE
  5
40F
100
AcDbEntity
  8
0
100
AcDbLine
 62
7
  6
CONTINUOUS
 10
75.1551318876
 20
48.5308877448
 11
75.1513804818
 21
48.0237102397
  0
LINE
  5
410
100
AcDbEntity
  8
0
100
AcDbLine
 62
7
  6
CONTINUOUS
 10
79.0957703608
 20
158.1585454568
 11
79.099521774
 21
158.665722963
  0
LINE
  5
411
100
AcDbEntity
  8
0
100
AcDbLine
 62
7
  6
CONTINUOUS
 10
75.5713954628
 20
158.0920094575
 11
75.5885222357
 21
158.5169333914
  0
LINE
  5
412
100
AcDbEntity
  8
0
100
AcDbLine
 62
7
  6
CONTINUOUS
 10
78.6795067341
 20
158.5974237357
 11
78.6623802674
 21
158.1724979192
  0
LINE
  5
413
100
AcDbEntity
  8
0
100
AcDbLine
 62
7
  6
CONTINUOUS
 10
75.5713954628
 20
48.0920094575
 11
75.5885222357
 21
48.5169333914
  0
LINE
  5
414
100
AcDbEntity
  8
0
100
AcDbLine
 62
7
  6
CONTINUOUS
 10
83.3522079653
 20
149.0376388542
 11
83.798225814
 21
152.3659984125
  0
LINE
  5
415
100
AcDbEntity
  8
0
100
AcDbLine
 62
7
  6
CONTINUOUS
 10
83.3042801467
 20
152.1464383277
 11
82.732342639
 21
148.4031497313
  0
LINE
  5
416
100
AcDbEntity
  8
0
100
AcDbLine
 62
7
  6
CONTINUOUS
 10
94.2724511213
 20
154.9048719667
 11
94.0967291067
 21
154.5176048131
  0
LINE
  5
417
100
AcDbEntity
  8
0
100
AcDbLine
 62
7
  6
CONTINUOUS
 10
91.0616620313
 20
151.4313586973
 11
91.2015048648
 21
151.6995309946
  0
LINE
  5
418
100
AcDbEntity
  8
0
100
AcDbLine
 62
7
  6
CONTINUOUS
 10
84.8286947747
 20
151.8189670161
 11
83.3522079653
 21
149.0376388542
  0
LINE
  5
419
100
AcDbEntity
  8
0
100
AcDbLine
 62
7
  6
CONTINUOUS
 10
83.3947873319
 20
148.0514864992
 11
85.27032457
 21
151.5845248614
  0
LINE
  5
41A
100
AcDbEntity
  8
0
100
AcDbLine
 62
7
  6
CONTINUOUS
 10
90.953423635
 20
154.03
 11
94.4175252502
 21
160.03
  0
LINE
  5
41B
100
AcDbEntity
  8
0
100
AcDbLine
 62
7
  6
CONTINUOUS
 10
90.8866850525
 20
152.1101214213
 11
90.6734077003
 21
151.8025567019
  0
LINE
  5
41C
100
AcDbEntity
  8
0
100
AcDbLine
 62
7
  6
CONTINUOUS
 10
94.4681456053
 20
155.1747143021
 11
94.2724511213
 21
154.9048719667
  0
LINE
  5
41D
100
AcDbEntity
  8
0
100
AcDbLine
 62
7
  6
CONTINUOUS
 10
94.6858264158
 20
154.6050848157
 11
94.8815208998
 21
154.8749271512
  0
LINE
  5
41E
100
AcDbEntity
  8
0
100
AcDbLine
 62
7
  6
CONTINUOUS
 10
80.5241936627
 20
149.5753605051
 11
83.3042801467
 21
152.1464383277
  0
LINE
  5
41F
100
AcDbEntity
  8
0
100
AcDbLine
 62
7
  6
CONTINUOUS
 10
91.2015048648
 20
151.6995309946
 11
91.4550129685
 21
151.9320984799
  0
LINE
  5
420
100
AcDbEntity
  8
0
100
AcDbLine
 62
7
  6
CONTINUOUS
 10
94.7816593807
 20
155.4620524083
 11
94.4681456053
 21
155.1747143021
  0
LINE
  5
421
100
AcDbEntity
  8
0
100
AcDbLine
 62
7
  6
CONTINUOUS
 10
99.2224825008
 20
156.6315726609
 11
99.5351178918
 21
156.9118547023
  0
LINE
  5
422
100
AcDbEntity
  8
0
100
AcDbLine
 62
7
  6
CONTINUOUS
 10
83.2093849639
 20
152.6785885484
 11
80.7024291936
 21
150.4442917827
  0
LINE
  5
423
100
AcDbEntity
  8
0
100
AcDbLine
 62
7
  6
CONTINUOUS
 10
91.2136284942
 20
152.382081819
 11
90.8866850525
 21
152.1101214213
  0
LINE
  5
424
100
AcDbEntity
  8
0
100
AcDbLine
 62
7
  6
CONTINUOUS
 10
94.8815208998
 20
154.8749271512
 11
95.1461109782
 21
155.0948045814
  0
LINE
  5
425
100
AcDbEntity
  8
0
100
AcDbLine
 62
7
  6
CONTINUOUS
 10
80.9232825825
 20
153.8008550965
 11
81.2762640137
 21
154.0385135224
  0
LINE
  5
426
100
AcDbEntity
  8
0
100
AcDbLine
 62
7
  6
CONTINUOUS
 10
99.1323805911
 20
157.072554749
 11
98.9342458143
 21
156.9402944251
  0
LINE
  5
427
100
AcDbEntity
  8
0
100
AcDbLine
 62
7
  6
CONTINUOUS
 10
78.1508594197
 20
157.0761838382
 11
78.3894930412
 21
157.1994169399
  0
LINE
  5
428
100
AcDbEntity
  8
0
100
AcDbLine
 62
7
  6
CONTINUOUS
 10
76.5066828737
 20
159.76380029
 11
76.1000432598
 21
159.6132475011
  0
LINE
  5
429
100
AcDbEntity
  8
0
100
AcDbLine
 62
7
  6
CONTINUOUS
 10
77.744219382
 20
156.9256329128
 11
78.1508594197
 21
157.0761838382
  0
LINE
  5
42A
100
AcDbEntity
  8
0
100
AcDbLine
 62
7
  6
CONTINUOUS
 10
77.5294243885
 20
155.031957597
 11
77.2004985525
 21
154.910955357
  0
LINE
  5
42B
100
AcDbEntity
  8
0
100
AcDbLine
 62
7
  6
CONTINUOUS
 10
76.1669194831
 20
159.2019834107
 11
76.6575623994
 21
159.3661941605
  0
LINE
  5
42C
100
AcDbEntity
  8
0
100
AcDbLine
 62
7
  6
CONTINUOUS
 10
78.0839828903
 20
157.4874498112
 11
77.5933401625
 21
157.3232371596
  0
LINE
  5
42D
100
AcDbEntity
  8
RUNDUNGEN
100
AcDbLine
 62
7
  6
CONTINUOUS
 10
228.9893220199
 20
32.03
 11
226.8071430832
 21
32.03
  0
LINE
  5
42E
100
AcDbEntity
  8
RUNDUNGEN
100
AcDbLine
 62
7
  6
CONTINUOUS
 10
73.1715009566
 20
32.03
 11
70.9893220199
 21
32.03
  0
LINE
  5
42F
100
AcDbEntity
  8
BEZUGSACHSEN
100
AcDbLine
 62
7
  6
CONTINUOUS
 10
73.1715009566
 20
32.03
 11
226.8071430832
 21
32.03
  0
LINE
  5
430
100
AcDbEntity
  8
0
100
AcDbLine
 62
7
  6
CONTINUOUS
 10
92.529119516
 20
39.2246225505
 11
92.2283536902
 21
39.2564391635
  0
LINE
  5
431
100
AcDbEntity
  8
0
100
AcDbLine
 62
7
  6
CONTINUOUS
 10
77.8907788145
 20
42.3618725738
 11
78.3593289728
 21
42.2754982274
  0
LINE
  5
432
100
AcDbEntity
  8
0
100
AcDbLine
 62
7
  6
CONTINUOUS
 10
77.855214829
 20
44.5480783679
 11
80.9232825825
 21
43.8008550965
  0
LINE
  5
433
100
AcDbEntity
  8
0
100
AcDbLine
 62
7
  6
CONTINUOUS
 10
80.5509503462
 20
44.3538603818
 11
77.8342968092
 21
45.0363005202
  0
LINE
  5
434
100
AcDbEntity
  8
0
100
AcDbLine
 62
7
  6
CONTINUOUS
 10
75.9266553702
 20
46.9677866793
 11
76.2894177831
 21
46.8579207938
  0
LINE
  5
435
100
AcDbEntity
  8
0
100
AcDbLine
 62
7
  6
CONTINUOUS
 10
78.3242471328
 20
49.7216446313
 11
77.9614846611
 21
49.8315105072
  0
LINE
  5
436
100
AcDbEntity
  8
0
100
AcDbLine
 62
7
  6
CONTINUOUS
 10
95.7352085733
 20
45.1822849656
 11
96.0597154818
 21
45.0498871827
  0
LINE
  5
437
100
AcDbEntity
  8
0
100
AcDbLine
 62
7
  6
CONTINUOUS
 10
96.3532572078
 20
45.4546506859
 11
95.959854145
 21
45.6370126021
  0
LINE
  5
438
100
AcDbEntity
  8
0
100
AcDbLine
 62
7
  6
CONTINUOUS
 10
98.0053048196
 20
46.6065602436
 11
98.2407739274
 21
46.4773836871
  0
LINE
  5
439
100
AcDbEntity
  8
0
100
AcDbLine
 62
7
  6
CONTINUOUS
 10
98.417007621
 20
46.9529725641
 11
98.1815385132
 21
47.0821491206
  0
LINE
  5
43A
100
AcDbEntity
  8
0
100
AcDbLine
 62
7
  6
CONTINUOUS
 10
98.4890296029
 20
43.905750377
 11
96.3532572078
 21
45.4546506859
  0
LINE
  5
43B
100
AcDbEntity
  8
0
100
AcDbLine
 62
7
  6
CONTINUOUS
 10
97.717068133
 20
46.9152820078
 11
98.0053048196
 21
46.6065602436
  0
LINE
  5
43C
100
AcDbEntity
  8
0
100
AcDbLine
 62
7
  6
CONTINUOUS
 10
98.1815385132
 20
47.0821491206
 11
98.0451368159
 21
47.2774559562
  0
LINE
  5
43D
100
AcDbEntity
  8
0
100
AcDbLine
 62
7
  6
CONTINUOUS
 10
94.4175252502
 20
50.03
 11
90.953423635
 21
56.03
  0
LINE
  5
43E
100
AcDbEntity
  8
0
100
AcDbLine
 62
7
  6
CONTINUOUS
 10
92.7768390305
 20
42.641165375
 11
94.1849151637
 21
40.0162625021
  0
LINE
  5
43F
100
AcDbEntity
  8
0
100
AcDbLine
 62
7
  6
CONTINUOUS
 10
94.8669082973
 20
39.8026348472
 11
92.9760632435
 21
43.3275043459
  0
LINE
  5
440
100
AcDbEntity
  8
0
100
AcDbLine
 62
7
  6
CONTINUOUS
 10
94.1187154272
 20
43.6781329957
 11
94.2964518709
 21
43.3433539086
  0
LINE
  5
441
100
AcDbEntity
  8
0
100
AcDbLine
 62
7
  6
CONTINUOUS
 10
94.6588893313
 20
43.6981526995
 11
94.5500488102
 21
43.9829672322
  0
LINE
  5
442
100
AcDbEntity
  8
0
100
AcDbLine
 62
7
  6
CONTINUOUS
 10
90.5546449835
 20
40.9662232759
 11
90.6823641875
 21
40.5518447487
  0
LINE
  5
443
100
AcDbEntity
  8
0
100
AcDbLine
 62
7
  6
CONTINUOUS
 10
91.1229728749
 20
40.7882003804
 11
91.0354844119
 21
41.1275816932
  0
LWPOLYLINE
  5
444
100
AcDbEntity
  8
RUNDUNGEN
100
AcDbPolyline
 62
7
  6
CONTINUOUS
 90
16
 70
0
 10
81.2689060459
 20
90.6335784514
 10
81.2897246713
 20
90.1760893666
 10
81.3619647024
 20
89.6698203093
 10
81.4789589359
 20
89.1940612192
 10
81.6356939253
 20
88.7463793203
 10
81.8283608138
 20
88.3258321195
 10
82.0560541814
 20
87.9287568435
 10
82.3137573417
 20
87.5602340361
 10
82.5973884483
 20
87.2221078171
 10
82.9019542436
 20
86.9164224411
 10
83.2228130231
 20
86.6438923478
 10
83.5544690203
 20
86.4051292939
 10
83.8931973679
 20
86.1987564524
 10
84.2313769967
 20
86.0249566761
 10
84.5617533619
 20
85.8821812861
 10
84.604779547
 20
85.8653727461
  0
LINE
  5
445
100
AcDbEntity
  8
BEZUGSACHSEN
100
AcDbLine
 62
7
  6
CONTINUOUS
 10
81.2689056603
 20
90.6335281292
 11
81.2689056603
 21
95.03
  0
LINE
  5
446
100
AcDbEntity
  8
BEZUGSACHSEN
100
AcDbLine
 62
7
  6
CONTINUOUS
 10
81.2689056603
 20
115.03
 11
81.2689056603
 21
119.4264718708
  0
LINE
  5
447
100
AcDbEntity
  8
0
100
AcDbLine
 62
7
  6
CONTINUOUS
 10
79.0957703608
 20
48.1585454568
 11
79.099521774
 21
48.665722963
  0
LINE
  5
448
100
AcDbEntity
  8
0
100
AcDbLine
 62
7
  6
CONTINUOUS
 10
78.6795067341
 20
48.5974237357
 11
78.6623802674
 21
48.1724979192
  0
LINE
  5
449
100
AcDbEntity
  8
0
100
AcDbLine
 62
7
  6
CONTINUOUS
 10
91.0354844119
 20
151.1275816932
 11
91.0616620313
 21
151.4313586973
  0
LINE
  5
44A
100
AcDbEntity
  8
0
100
AcDbLine
 62
7
  6
CONTINUOUS
 10
94.0967291067
 20
154.5176048131
 11
94.0388263896
 21
154.1478334259
  0
LINE
  5
44B
100
AcDbEntity
  8
0
100
AcDbLine
 62
7
  6
CONTINUOUS
 10
96.1355125988
 20
160.0117505273
 11
96.0429130237
 21
159.5204000224
  0
LINE
  5
44C
100
AcDbEntity
  8
0
100
AcDbLine
 62
7
  6
CONTINUOUS
 10
95.6570814753
 20
157.47310633
 11
95.5490486082
 21
156.8998639181
  0
LINE
  5
44D
100
AcDbEntity
  8
0
100
AcDbLine
 62
7
  6
CONTINUOUS
 10
90.6734077003
 20
151.8025567019
 11
90.5405918338
 21
151.344997547
  0
LINE
  5
44E
100
AcDbEntity
  8
0
100
AcDbLine
 62
7
  6
CONTINUOUS
 10
94.5590278062
 20
154.285277961
 11
94.6858264158
 21
154.6050848157
  0
LINE
  5
44F
100
AcDbEntity
  8
0
100
AcDbLine
 62
7
  6
CONTINUOUS
 10
99.5351178918
 20
156.9118547023
 11
99.6959183376
 21
157.3055519066
  0
LINE
  5
450
100
AcDbEntity
  8
0
100
AcDbLine
 62
7
  6
CONTINUOUS
 10
99.2623144972
 20
157.3024683735
 11
99.1323805911
 21
157.072554749
  0
LINE
  5
451
100
AcDbEntity
  8
0
100
AcDbLine
 62
7
  6
CONTINUOUS
 10
96.1495760577
 20
145.03
 11
104.8098300956
 21
160.03
  0
LINE
  5
452
100
AcDbEntity
  8
0
100
AcDbLine
 62
7
  6
CONTINUOUS
 10
96.7277799469
 20
151.4771703227
 11
97.0213215329
 21
151.881933633
  0
LINE
  5
453
100
AcDbEntity
  8
0
100
AcDbLine
 62
7
  6
CONTINUOUS
 10
98.195487877
 20
153.5009868738
 11
98.4890296029
 21
153.905750377
  0
LINE
  5
454
100
AcDbEntity
  8
0
100
AcDbLine
 62
7
  6
CONTINUOUS
 10
92.9760632435
 20
153.3275043459
 11
91.2136284942
 21
152.382081819
  0
LINE
  5
455
100
AcDbEntity
  8
0
100
AcDbLine
 62
7
  6
CONTINUOUS
 10
91.4550129685
 20
151.9320984799
 11
92.7768390305
 21
152.641165375
  0
LINE
  5
456
100
AcDbEntity
  8
0
100
AcDbLine
 62
7
  6
CONTINUOUS
 10
94.1849151637
 20
150.0162625021
 11
92.8630891017
 21
149.307195607
  0
LINE
  5
457
100
AcDbEntity
  8
0
100
AcDbLine
 62
7
  6
CONTINUOUS
 10
93.1044735479
 20
148.8572123204
 11
94.8669082973
 21
149.8026348472
  0
LINE
  5
458
100
AcDbEntity
  8
0
100
AcDbLine
 62
7
  6
CONTINUOUS
 10
95.1151456316
 20
155.631965692
 11
94.7816593807
 21
155.4620524083
  0
LINE
  5
459
100
AcDbEntity
  8
0
100
AcDbLine
 62
7
  6
CONTINUOUS
 10
98.8416462391
 20
156.4489439202
 11
99.2224825008
 21
156.6315726609
  0
LINE
  5
45A
100
AcDbEntity
  8
0
100
AcDbLine
 62
7
  6
CONTINUOUS
 10
78.3593289728
 20
152.2754982274
 11
78.688255874
 21
152.3964988853
  0
LINE
  5
45B
100
AcDbEntity
  8
0
100
AcDbLine
 62
7
  6
CONTINUOUS
 10
95.1461109782
 20
155.0948045814
 11
95.4306735682
 21
155.1972571628
  0
LINE
  5
45C
100
AcDbEntity
  8
0
100
AcDbLine
 62
7
  6
CONTINUOUS
 10
220.5490486082
 20
46.8998639181
 11
222.6115329314
 21
47.2743721889
  0
LINE
  5
45D
100
AcDbEntity
  8
0
100
AcDbLine
 62
7
  6
CONTINUOUS
 10
222.5368642915
 20
47.7972460668
 11
220.6570814753
 21
47.47310633
  0
LINE
  5
45E
100
AcDbEntity
  8
0
100
AcDbLine
 62
7
  6
CONTINUOUS
 10
201.9881924162
 20
46.8026943208
 11
202.744219382
 21
46.9256329128
  0
LINE
  5
45F
100
AcDbEntity
  8
0
100
AcDbLine
 62
7
  6
CONTINUOUS
 10
202.5933401625
 20
47.3232371596
 11
202.0053191891
 21
47.2276182548
  0
LINE
  5
460
100
AcDbEntity
  8
0
100
AcDbLine
 62
7
  6
CONTINUOUS
 10
201.6575623994
 20
49.3661941605
 11
202.2455833728
 21
49.4618130654
  0
LINE
  5
461
100
AcDbEntity
  8
0
100
AcDbLine
 62
7
  6
CONTINUOUS
 10
202.2627098396
 20
49.8867388819
 11
201.5066828737
 21
49.76380029
  0
LINE
  5
462
100
AcDbEntity
  8
0
100
AcDbLine
 62
7
  6
CONTINUOUS
 10
220.5864233572
 20
45.7019495467
 11
220.1151456316
 21
45.631965692
  0
LINE
  5
463
100
AcDbEntity
  8
0
100
AcDbLine
 62
7
  6
CONTINUOUS
 10
202.4797471971
 20
44.496202184
 11
202.855214829
 21
44.5480783679
  0
LINE
  5
464
100
AcDbEntity
  8
0
100
AcDbLine
 62
7
  6
CONTINUOUS
 10
223.5753106358
 20
46.4143371312
 11
223.8416462391
 21
46.4489439202
  0
LINE
  5
465
100
AcDbEntity
  8
0
100
AcDbLine
 62
7
  6
CONTINUOUS
 10
223.9342458143
 20
46.9402944251
 11
223.6679102109
 21
46.9056876362
  0
LINE
  5
466
100
AcDbEntity
  8
0
100
AcDbLine
 62
7
  6
CONTINUOUS
 10
217.3228682938
 20
38.7276705161
 11
217.6970686206
 21
38.7352463581
  0
LINE
  5
467
100
AcDbEntity
  8
0
100
AcDbLine
 62
7
  6
CONTINUOUS
 10
92.3228682938
 20
38.7276705161
 11
92.6970686206
 21
38.7352463581
  0
LINE
  5
468
100
AcDbEntity
  8
0
100
AcDbLine
 62
7
  6
CONTINUOUS
 10
203.4555490252
 20
42.742126002
 11
203.1506766045
 21
42.7377830789
  0
LINE
  5
469
100
AcDbEntity
  8
0
100
AcDbLine
 62
7
  6
CONTINUOUS
 10
78.829067982
 20
35.03
 11
96.1495760577
 21
35.03
  0
LINE
  5
46A
100
AcDbEntity
  8
0
100
AcDbLine
 62
7
  6
CONTINUOUS
 10
203.829067982
 20
35.03
 11
221.1495760577
 21
35.03
  0
LINE
  5
46B
100
AcDbEntity
  8
0
100
AcDbLine
 62
7
  6
CONTINUOUS
 10
95.4306735682
 20
45.1972571628
 11
95.7352085733
 21
45.1822849656
  0
LINE
  5
46C
100
AcDbEntity
  8
0
100
AcDbLine
 62
7
  6
CONTINUOUS
 10
76.2894177831
 20
46.8579207938
 11
76.5548023742
 21
46.8166467916
  0
LINE
  5
46D
100
AcDbEntity
  8
0
100
AcDbLine
 62
7
  6
CONTINUOUS
 10
77.9614846611
 20
49.8315105072
 11
77.6961003054
 21
49.8727845477
  0
LINE
  5
46E
100
AcDbEntity
  8
0
100
AcDbLine
 62
7
  6
CONTINUOUS
 10
95.959854145
 20
45.6370126021
 11
95.5864233572
 21
45.7019495467
  0
LINE
  5
46F
100
AcDbEntity
  8
0
100
AcDbLine
 62
7
  6
CONTINUOUS
 10
98.2407739274
 20
46.4773836871
 11
98.5753106358
 21
46.4143371312
  0
LINE
  5
470
100
AcDbEntity
  8
0
100
AcDbLine
 62
7
  6
CONTINUOUS
 10
98.6679102109
 20
46.9056876362
 11
98.417007621
 21
46.9529725641
  0
LINE
  5
471
100
AcDbEntity
  8
0
100
AcDbLine
 62
7
  6
CONTINUOUS
 10
96.0429130237
 20
49.5204000224
 11
97.799229747
 21
49.1894057917
  0
LINE
  5
472
100
AcDbEntity
  8
0
100
AcDbLine
 62
7
  6
CONTINUOUS
 10
98.3010344582
 20
49.0948360241
 11
99.5555464704
 21
48.858411561
  0
LINE
  5
473
100
AcDbEntity
  8
0
100
AcDbLine
 62
7
  6
CONTINUOUS
 10
100.0663166382
 20
49.2709539262
 11
96.1355125988
 21
50.0117505273
  0
LINE
  5
474
100
AcDbEntity
  8
0
100
AcDbLine
 62
7
  6
CONTINUOUS
 10
104.8098300956
 20
50.03
 11
96.1495760577
 21
65.03
  0
LINE
  5
475
100
AcDbEntity
  8
0
100
AcDbLine
 62
7
  6
CONTINUOUS
 10
97.6115329314
 20
47.2743721889
 11
97.717068133
 21
46.9152820078
  0
LINE
  5
476
100
AcDbEntity
  8
0
100
AcDbLine
 62
7
  6
CONTINUOUS
 10
94.0388263896
 20
44.1478334259
 11
94.1187154272
 21
43.6781329957
  0
LINE
  5
477
100
AcDbEntity
  8
0
100
AcDbLine
 62
7
  6
CONTINUOUS
 10
76.7272424401
 20
154.0900113218
 11
76.7722160056
 21
153.7184453221
  0
LINE
  5
478
100
AcDbEntity
  8
0
100
AcDbLine
 62
7
  6
CONTINUOUS
 10
90.5405918338
 20
41.344997547
 11
90.5546449835
 21
40.9662232759
  0
LINE
  5
479
100
AcDbEntity
  8
0
100
AcDbLine
 62
7
  6
CONTINUOUS
 10
90.5405918338
 20
151.344997547
 11
90.5546449835
 21
150.9662232759
  0
LINE
  5
47A
100
AcDbEntity
  8
0
100
AcDbLine
 62
7
  6
CONTINUOUS
 10
94.5500488102
 20
153.9829672322
 11
94.5590278062
 21
154.285277961
  0
LINE
  5
47B
100
AcDbEntity
  8
0
100
AcDbLine
 62
7
  6
CONTINUOUS
 10
94.5500488102
 20
43.9829672322
 11
94.5590278062
 21
44.285277961
  0
LINE
  5
47C
100
AcDbEntity
  8
0
100
AcDbLine
 62
7
  6
CONTINUOUS
 10
91.0354844119
 20
41.1275816932
 11
91.0616620313
 21
41.4313586973
  0
LINE
  5
47D
100
AcDbEntity
  8
0
100
AcDbLine
 62
7
  6
CONTINUOUS
 10
83.3522079653
 20
39.0376388542
 11
83.798225814
 21
42.3659984125
  0
LINE
  5
47E
100
AcDbEntity
  8
0
100
AcDbLine
 62
7
  6
CONTINUOUS
 10
83.3042801467
 20
42.1464383277
 11
82.732342639
 21
38.4031497313
  0
LINE
  5
47F
100
AcDbEntity
  8
0
100
AcDbLine
 62
7
  6
CONTINUOUS
 10
97.799229747
 20
159.1894057917
 11
97.5368642915
 21
157.7972460668
  0
LINE
  5
480
100
AcDbEntity
  8
0
100
AcDbLine
 62
7
  6
CONTINUOUS
 10
98.007802485
 20
157.5388928366
 11
98.3010344582
 21
159.0948360241
  0
LINE
  5
481
100
AcDbEntity
  8
0
100
AcDbLine
 62
7
  6
CONTINUOUS
 10
99.5555464704
 20
158.858411561
 11
99.2623144972
 21
157.3024683735
  0
LINE
  5
482
100
AcDbEntity
  8
0
100
AcDbLine
 62
7
  6
CONTINUOUS
 10
99.6959183376
 20
157.3055519066
 11
100.0663166382
 21
159.2709539262
  0
LINE
  5
483
100
AcDbEntity
  8
0
100
AcDbLine
 62
7
  6
CONTINUOUS
 10
76.8234614273
 20
44.5566406786
 11
76.7272424401
 21
44.0900113218
  0
LINE
  5
484
100
AcDbEntity
  8
BEZUGSACHSEN
100
AcDbLine
 62
7
  6
CONTINUOUS
 10
86.4368134658
 20
125.4395611732
 11
86.1633021427
 21
125.1993891591
  0
LWPOLYLINE
  5
485
100
AcDbEntity
  8
BEZUGSACHSEN
100
AcDbPolyline
 62
7
  6
CONTINUOUS
 90
7
 70
0
 10
86.1630003912
 20
125.199124558
 10
85.9376401576
 20
125.0083850689
 10
85.6383219052
 20
124.777468794
 10
85.353897595
 20
124.582563793
 10
85.0790422205
 20
124.4180959995
 10
84.8097270231
 20
124.2812872541
 10
84.6093075788
 20
124.1963838213
  0
LINE
  5
486
100
AcDbEntity
  8
0
100
AcDbLine
 62
7
  6
CONTINUOUS
 10
92.6970686206
 20
148.7352463581
 11
93.1044735479
 21
148.8572123204
  0
LINE
  5
487
100
AcDbEntity
  8
0
100
AcDbLine
 62
7
  6
CONTINUOUS
 10
78.4555490252
 20
42.742126002
 11
78.1506766045
 21
42.7377830789
  0
LINE
  5
488
100
AcDbEntity
  8
0
100
AcDbLine
 62
7
  6
CONTINUOUS
 10
202.8342968092
 20
45.0363005202
 11
202.5294243885
 21
45.031957597
  0
LINE
  5
489
100
AcDbEntity
  8
0
100
AcDbLine
 62
7
  6
CONTINUOUS
 10
77.8342968092
 20
45.0363005202
 11
77.5294243885
 21
45.031957597
  0
LINE
  5
48A
100
AcDbEntity
  8
0
100
AcDbLine
 62
7
  6
CONTINUOUS
 10
84.0252204048
 20
44.03
 11
90.953423635
 21
44.03
  0
LINE
  5
48B
100
AcDbEntity
  8
0
100
AcDbLine
 62
7
  6
CONTINUOUS
 10
209.0252204048
 20
44.03
 11
215.953423635
 21
44.03
  0
LINE
  5
48C
100
AcDbEntity
  8
0
100
AcDbLine
 62
7
  6
CONTINUOUS
 10
77.0053191891
 20
47.2276182548
 11
76.4879258448
 21
47.2279127646
  0
LINE
  5
48D
100
AcDbEntity
  8
0
100
AcDbLine
 62
7
  6
CONTINUOUS
 10
202.0053191891
 20
47.2276182548
 11
201.4879258448
 21
47.2279127646
  0
LINE
  5
48E
100
AcDbEntity
  8
0
100
AcDbLine
 62
7
  6
CONTINUOUS
 10
77.2455833728
 20
49.4618130654
 11
77.7629765286
 21
49.4615204573
  0
LINE
  5
48F
100
AcDbEntity
  8
0
100
AcDbLine
 62
7
  6
CONTINUOUS
 10
202.2455833728
 20
49.4618130654
 11
202.7629765286
 21
49.4615204573
  0
LINE
  5
490
100
AcDbEntity
  8
0
100
AcDbLine
 62
7
  6
CONTINUOUS
 10
76.5548023742
 20
46.8166467916
 11
76.9881924162
 21
46.8026943208
  0
LINE
  5
491
100
AcDbEntity
  8
0
100
AcDbLine
 62
7
  6
CONTINUOUS
 10
77.6961003054
 20
49.8727845477
 11
77.2627098396
 21
49.8867388819
  0
LINE
  5
492
100
AcDbEntity
  8
0
100
AcDbLine
 62
7
  6
CONTINUOUS
 10
201.5548023742
 20
46.8166467916
 11
201.9881924162
 21
46.8026943208
  0
LINE
  5
493
100
AcDbEntity
  8
0
100
AcDbLine
 62
7
  6
CONTINUOUS
 10
202.6961003054
 20
49.8727845477
 11
202.2627098396
 21
49.8867388819
  0
LINE
  5
494
100
AcDbEntity
  8
0
100
AcDbLine
 62
7
  6
CONTINUOUS
 10
220.4306735682
 20
45.1972571628
 11
220.7352085733
 21
45.1822849656
  0
LINE
  5
495
100
AcDbEntity
  8
0
100
AcDbLine
 62
7
  6
CONTINUOUS
 10
217.529119516
 20
39.2246225505
 11
217.2283536902
 21
39.2564391635
  0
LINE
  5
496
100
AcDbEntity
  8
RUNDUNGEN
100
AcDbLine
 62
7
  6
CONTINUOUS
 10
86.1630032666
 20
84.8608733133
 11
86.4368134658
 21
84.6204388268
  0
LWPOLYLINE
  5
497
100
AcDbEntity
  8
RUNDUNGEN
100
AcDbPolyline
 62
7
  6
CONTINUOUS
 90
3
 70
0
 10
86.4376351786
 20
84.6196979451
 10
86.4598433911
 20
84.5993698762
 10
86.462561198
 20
84.5967337742
  0
LINE
  5
498
100
AcDbEntity
  8
0
100
AcDbLine
 62
7
  6
CONTINUOUS
 10
75.1513804818
 20
158.0237102397
 11
75.3156350684
 21
157.5438524218
  0
LINE
  5
499
100
AcDbEntity
  8
0
100
AcDbLine
 62
7
  6
CONTINUOUS
 10
98.0451368159
 20
47.2774559562
 11
98.007802485
 21
47.5388928366
  0
LINE
  5
49A
100
AcDbEntity
  8
0
100
AcDbLine
 62
7
  6
CONTINUOUS
 10
94.0967291067
 20
44.5176048131
 11
94.0388263896
 21
44.1478334259
  0
LINE
  5
49B
100
AcDbEntity
  8
0
100
AcDbLine
 62
7
  6
CONTINUOUS
 10
75.3402646529
 20
48.9831313659
 11
75.1551318876
 21
48.5308877448
  0
LINE
  5
49C
100
AcDbEntity
  8
0
100
AcDbLine
 62
7
  6
CONTINUOUS
 10
78.9106378796
 20
47.7062999495
 11
79.0957703608
 21
48.1585454568
  0
LINE
  5
49D
100
AcDbEntity
  8
0
100
AcDbLine
 62
7
  6
CONTINUOUS
 10
92.8630891017
 20
39.307195607
 11
92.529119516
 21
39.2246225505
  0
LINE
  5
49E
100
AcDbEntity
  8
0
100
AcDbLine
 62
7
  6
CONTINUOUS
 10
95.5490486082
 20
46.8998639181
 11
97.6115329314
 21
47.2743721889
  0
LINE
  5
49F
100
AcDbEntity
  8
0
100
AcDbLine
 62
7
  6
CONTINUOUS
 10
97.5368642915
 20
47.7972460668
 11
95.6570814753
 21
47.47310633
  0
LINE
  5
4A0
100
AcDbEntity
  8
0
100
AcDbLine
 62
7
  6
CONTINUOUS
 10
76.9881924162
 20
46.8026943208
 11
77.744219382
 21
46.9256329128
  0
LINE
  5
4A1
100
AcDbEntity
  8
0
100
AcDbLine
 62
7
  6
CONTINUOUS
 10
77.5933401625
 20
47.3232371596
 11
77.0053191891
 21
47.2276182548
  0
LINE
  5
4A2
100
AcDbEntity
  8
0
100
AcDbLine
 62
7
  6
CONTINUOUS
 10
95.5864233572
 20
45.7019495467
 11
95.1151456316
 21
45.631965692
  0
LINE
  5
4A3
100
AcDbEntity
  8
0
100
AcDbLine
 62
7
  6
CONTINUOUS
 10
77.4797471971
 20
44.496202184
 11
77.855214829
 21
44.5480783679
  0
LINE
  5
4A4
100
AcDbEntity
  8
0
100
AcDbLine
 62
7
  6
CONTINUOUS
 10
98.5753106358
 20
46.4143371312
 11
98.8416462391
 21
46.4489439202
  0
LINE
  5
4A5
100
AcDbEntity
  8
0
100
AcDbLine
 62
7
  6
CONTINUOUS
 10
98.9342458143
 20
46.9402944251
 11
98.6679102109
 21
46.9056876362
  0
LINE
  5
4A6
100
AcDbEntity
  8
0
100
AcDbLine
 62
7
  6
CONTINUOUS
 10
215.953423635
 20
56.03
 11
209.0252204048
 21
56.03
  0
LINE
  5
4A7
100
AcDbEntity
  8
0
100
AcDbLine
 62
7
  6
CONTINUOUS
 10
90.953423635
 20
56.03
 11
84.0252204048
 21
56.03
  0
LINE
  5
4A8
100
AcDbEntity
  8
0
100
AcDbLine
 62
7
  6
CONTINUOUS
 10
201.2894177831
 20
46.8579207938
 11
201.5548023742
 21
46.8166467916
  0
LINE
  5
4A9
100
AcDbEntity
  8
0
100
AcDbLine
 62
7
  6
CONTINUOUS
 10
202.9614846611
 20
49.8315105072
 11
202.6961003054
 21
49.8727845477
  0
LINE
  5
4AA
100
AcDbEntity
  8
0
100
AcDbLine
 62
7
  6
CONTINUOUS
 10
220.959854145
 20
45.6370126021
 11
220.5864233572
 21
45.7019495467
  0
LINE
  5
4AB
100
AcDbEntity
  8
0
100
AcDbLine
 62
7
  6
CONTINUOUS
 10
202.8907788145
 20
42.3618725738
 11
203.3593289728
 21
42.2754982274
  0
LINE
  5
4AC
100
AcDbEntity
  8
0
100
AcDbLine
 62
7
  6
CONTINUOUS
 10
223.2407739274
 20
46.4773836871
 11
223.5753106358
 21
46.4143371312
  0
LINE
  5
4AD
100
AcDbEntity
  8
0
100
AcDbLine
 62
7
  6
CONTINUOUS
 10
202.855214829
 20
44.5480783679
 11
205.9232825825
 21
43.8008550965
  0
LINE
  5
4AE
100
AcDbEntity
  8
0
100
AcDbLine
 62
7
  6
CONTINUOUS
 10
205.5509503462
 20
44.3538603818
 11
202.8342968092
 21
45.0363005202
  0
LINE
  5
4AF
100
AcDbEntity
  8
0
100
AcDbLine
 62
7
  6
CONTINUOUS
 10
76.7722160056
 20
153.7184453221
 11
76.9808683739
 21
153.2561604706
  0
LINE
  5
4B0
100
AcDbEntity
  8
0
100
AcDbLine
 62
7
  6
CONTINUOUS
 10
77.3803904862
 20
153.4246943892
 11
77.2182799138
 21
153.8178531845
  0
LINE
  5
4B1
100
AcDbEntity
  8
0
100
AcDbLine
 62
7
  6
CONTINUOUS
 10
75.7222749884
 20
157.694403328
 11
75.5713954628
 21
158.0920094575
  0
LINE
  5
4B2
100
AcDbEntity
  8
0
100
AcDbLine
 62
7
  6
CONTINUOUS
 10
78.5286275146
 20
158.9950279826
 11
78.6795067341
 21
158.5974237357
  0
LINE
  5
4B3
100
AcDbEntity
  8
0
100
AcDbLine
 62
7
  6
CONTINUOUS
 10
79.099521774
 20
158.665722963
 11
78.93526718
 21
159.1455807798
  0
LINE
  5
4B4
100
AcDbEntity
  8
0
100
AcDbLine
 62
7
  6
CONTINUOUS
 10
91.1229728749
 20
150.7882003804
 11
91.0354844119
 21
151.1275816932
  0
LINE
  5
4B5
100
AcDbEntity
  8
0
100
AcDbLine
 62
7
  6
CONTINUOUS
 10
94.0388263896
 20
154.1478334259
 11
94.1187154272
 21
153.6781329957
  0
LINE
  5
4B6
100
AcDbEntity
  8
0
100
AcDbLine
 62
7
  6
CONTINUOUS
 10
98.0451368159
 20
157.2774559562
 11
98.007802485
 21
157.5388928366
  0
LINE
  5
4B7
100
AcDbEntity
  8
0
100
AcDbLine
 62
7
  6
CONTINUOUS
 10
96.1355125988
 20
50.0117505273
 11
96.0429130237
 21
49.5204000224
  0
LINE
  5
4B8
100
AcDbEntity
  8
0
100
AcDbLine
 62
7
  6
CONTINUOUS
 10
95.6570814753
 20
47.47310633
 11
95.5490486082
 21
46.8998639181
  0
LINE
  5
4B9
100
AcDbEntity
  8
0
100
AcDbLine
 62
7
  6
CONTINUOUS
 10
97.799229747
 20
49.1894057917
 11
97.5368642915
 21
47.7972460668
  0
LINE
  5
4BA
100
AcDbEntity
  8
0
100
AcDbLine
 62
7
  6
CONTINUOUS
 10
98.007802485
 20
47.5388928366
 11
98.3010344582
 21
49.0948360241
  0
LINE
  5
4BB
100
AcDbEntity
  8
0
100
AcDbLine
 62
7
  6
CONTINUOUS
 10
99.5555464704
 20
48.858411561
 11
99.2623144972
 21
47.3024683735
  0
LINE
  5
4BC
100
AcDbEntity
  8
0
100
AcDbLine
 62
7
  6
CONTINUOUS
 10
99.6959183376
 20
47.3055519066
 11
100.0663166382
 21
49.2709539262
  0
LINE
  5
4BD
100
AcDbEntity
  8
0
100
AcDbLine
 62
7
  6
CONTINUOUS
 10
90.6734077003
 20
41.8025567019
 11
90.5405918338
 21
41.344997547
  0
LINE
  5
4BE
100
AcDbEntity
  8
0
100
AcDbLine
 62
7
  6
CONTINUOUS
 10
77.2198481441
 20
44.120293128
 11
77.3385544467
 21
44.4011386938
  0
LINE
  5
4BF
100
AcDbEntity
  8
0
100
AcDbLine
 62
7
  6
CONTINUOUS
 10
75.5885222357
 20
48.5169333914
 11
75.7164024329
 21
48.7910119093
  0
LINE
  5
4C0
100
AcDbEntity
  8
0
100
AcDbLine
 62
7
  6
CONTINUOUS
 10
78.6623802674
 20
48.1724979192
 11
78.5345000702
 21
47.8984194013
  0
LINE
  5
4C1
100
AcDbEntity
  8
0
100
AcDbLine
 62
7
  6
CONTINUOUS
 10
78.829067982
 20
65.03
 11
70.1688139442
 21
50.03
  0
LWPOLYLINE
  5
4C2
100
AcDbEntity
  8
BEZUGSACHSEN
100
AcDbPolyline
 62
7
  6
CONTINUOUS
 90
16
 70
0
 10
84.6047091635
 20
124.1946000574
 10
84.5606195868
 20
124.177370449
 10
84.2291962519
 20
124.0340161952
 10
83.8900774849
 20
123.8594975586
 10
83.5504892861
 20
123.6522333709
 10
83.2180452095
 20
123.4123774692
 10
82.8965169313
 20
123.1385547463
 10
82.5914621451
 20
122.8314077704
 10
82.3074876288
 20
122.4915791588
 10
82.0495813762
 20
122.1210256065
 10
81.8219244167
 20
121.7216213519
 10
81.6296001032
 20
121.298459085
 10
81.4736242418
 20
120.8479220434
 10
81.3579156627
 20
120.3691694005
 10
81.287579308
 20
119.8597453095
 10
81.2689060441
 20
119.4264220416
  0
LINE
  5
4C3
100
AcDbEntity
  8
BEZUGSACHSEN
100
AcDbLine
 62
7
  6
CONTINUOUS
 10
84.6093075788
 20
124.1963838213
 11
84.6047057697
 21
124.1946087774
  0
LINE
  5
4C4
100
AcDbEntity
  8
0
100
AcDbLine
 62
7
  6
CONTINUOUS
 10
201.1669194831
 20
159.2019834107
 11
201.6575623994
 21
159.3661941605
  0
LINE
  5
4C5
100
AcDbEntity
  8
0
100
AcDbLine
 62
7
  6
CONTINUOUS
 10
76.6575623994
 20
49.3661941605
 11
77.2455833728
 21
49.4618130654
  0
LINE
  5
4C6
100
AcDbEntity
  8
0
100
AcDbLine
 62
7
  6
CONTINUOUS
 10
77.2627098396
 20
49.8867388819
 11
76.5066828737
 21
49.76380029
  0
LINE
  5
4C7
100
AcDbEntity
  8
0
100
AcDbLine
 62
7
  6
CONTINUOUS
 10
221.1495760577
 20
65.03
 11
203.829067982
 21
65.03
  0
LINE
  5
4C8
100
AcDbEntity
  8
0
100
AcDbLine
 62
7
  6
CONTINUOUS
 10
96.1495760577
 20
65.03
 11
78.829067982
 21
65.03
  0
LINE
  5
4C9
100
AcDbEntity
  8
0
100
AcDbLine
 62
7
  6
CONTINUOUS
 10
223.6679102109
 20
46.9056876362
 11
223.417007621
 21
46.9529725641
  0
LINE
  5
4CA
100
AcDbEntity
  8
0
100
AcDbLine
 62
7
  6
CONTINUOUS
 10
221.0429130237
 20
49.5204000224
 11
222.799229747
 21
49.1894057917
  0
LINE
  5
4CB
100
AcDbEntity
  8
0
100
AcDbLine
 62
7
  6
CONTINUOUS
 10
223.3010344582
 20
49.0948360241
 11
224.5555464704
 21
48.858411561
  0
LINE
  5
4CC
100
AcDbEntity
  8
0
100
AcDbLine
 62
7
  6
CONTINUOUS
 10
225.0663166382
 20
49.2709539262
 11
221.1355125988
 21
50.0117505273
  0
LINE
  5
4CD
100
AcDbEntity
  8
0
100
AcDbLine
 62
7
  6
CONTINUOUS
 10
200.9266553702
 20
46.9677866793
 11
201.2894177831
 21
46.8579207938
  0
LINE
  5
4CE
100
AcDbEntity
  8
0
100
AcDbLine
 62
7
  6
CONTINUOUS
 10
203.3242471328
 20
49.7216446313
 11
202.9614846611
 21
49.8315105072
  0
LINE
  5
4CF
100
AcDbEntity
  8
0
100
AcDbLine
 62
7
  6
CONTINUOUS
 10
216.868206485
 20
38.8700891029
 11
217.3228682938
 21
38.7276705161
  0
LINE
  5
4D0
100
AcDbEntity
  8
0
100
AcDbLine
 62
7
  6
CONTINUOUS
 10
203.1506766045
 20
42.7377830789
 11
202.8698597295
 21
42.8500963083
  0
LWPOLYLINE
  5
4D1
100
AcDbEntity
  8
RUNDUNGEN
100
AcDbPolyline
 62
7
  6
CONTINUOUS
 90
7
 70
0
 10
84.6093092619
 20
85.8636155306
 10
84.8097491942
 20
85.7787025329
 10
85.0790489843
 20
85.6419002542
 10
85.353819954
 20
85.4774860464
 10
85.6381737866
 20
85.2826390162
 10
85.9375259333
 20
85.0517079668
 10
86.1630030698
 20
84.8608730894
  0
LINE
  5
4D2
100
AcDbEntity
  8
0
100
AcDbLine
 62
7
  6
CONTINUOUS
 10
70.1688139442
 20
160.03
 11
78.829067982
 21
145.03
  0
LINE
  5
4D3
100
AcDbEntity
  8
0
100
AcDbLine
 62
7
  6
CONTINUOUS
 10
90.5546449835
 20
150.9662232759
 11
90.6823641875
 21
150.5518447487
  0
LINE
  5
4D4
100
AcDbEntity
  8
0
100
AcDbLine
 62
7
  6
CONTINUOUS
 10
97.6115329314
 20
157.2743721889
 11
97.717068133
 21
156.9152820078
  0
LINE
  5
4D5
100
AcDbEntity
  8
0
100
AcDbLine
 62
7
  6
CONTINUOUS
 10
94.5590278062
 20
44.285277961
 11
94.6858264158
 21
44.6050848157
  0
LINE
  5
4D6
100
AcDbEntity
  8
0
100
AcDbLine
 62
7
  6
CONTINUOUS
 10
94.2724511213
 20
44.9048719667
 11
94.0967291067
 21
44.5176048131
  0
LINE
  5
4D7
100
AcDbEntity
  8
0
100
AcDbLine
 62
7
  6
CONTINUOUS
 10
81.7372862079
 20
43.4600620995
 11
79.8617489698
 21
39.9270237373
  0
LINE
  5
4D8
100
AcDbEntity
  8
0
100
AcDbLine
 62
7
  6
CONTINUOUS
 10
80.7024291936
 20
40.4442917827
 11
82.1789160031
 21
43.2256199447
  0
LINE
  5
4D9
100
AcDbEntity
  8
0
100
AcDbLine
 62
7
  6
CONTINUOUS
 10
84.8286947747
 20
41.8189670161
 11
83.3522079653
 21
39.0376388542
  0
LINE
  5
4DA
100
AcDbEntity
  8
0
100
AcDbLine
 62
7
  6
CONTINUOUS
 10
83.3947873319
 20
38.0514864992
 11
85.27032457
 21
41.5845248614
  0
LINE
  5
4DB
100
AcDbEntity
  8
0
100
AcDbLine
 62
7
  6
CONTINUOUS
 10
84.0252204048
 20
56.03
 11
80.5611187896
 21
50.03
  0
LINE
  5
4DC
100
AcDbEntity
  8
0
100
AcDbLine
 62
7
  6
CONTINUOUS
 10
75.5521478463
 20
49.2708697273
 11
75.3402646529
 21
48.9831313659
  0
LINE
  5
4DD
100
AcDbEntity
  8
0
100
AcDbLine
 62
7
  6
CONTINUOUS
 10
201.5066828737
 20
159.76380029
 11
201.1000432598
 21
159.6132475011
  0
LINE
  5
4DE
100
AcDbEntity
  8
0
100
AcDbLine
 62
7
  6
CONTINUOUS
 10
202.744219382
 20
156.9256329128
 11
203.1508594197
 21
157.0761838382
  0
LINE
  5
4DF
100
AcDbEntity
  8
0
100
AcDbLine
 62
7
  6
CONTINUOUS
 10
202.5294243885
 20
155.031957597
 11
202.2004985525
 21
154.910955357
  0
LINE
  5
4E0
100
AcDbEntity
  8
0
100
AcDbLine
 62
7
  6
CONTINUOUS
 10
203.3593289728
 20
152.2754982274
 11
203.688255874
 21
152.3964988853
  0
LINE
  5
4E1
100
AcDbEntity
  8
0
100
AcDbLine
 62
7
  6
CONTINUOUS
 10
203.0839828903
 20
157.4874498112
 11
202.5933401625
 21
157.3232371596
  0
LINE
  5
4E2
100
AcDbEntity
  8
0
100
AcDbLine
 62
7
  6
CONTINUOUS
 10
220.7352085733
 20
45.1822849656
 11
221.0597154818
 21
45.0498871827
  0
LINE
  5
4E3
100
AcDbEntity
  8
0
100
AcDbLine
 62
7
  6
CONTINUOUS
 10
201.4879258448
 20
47.2279127646
 11
200.930406776
 21
47.4749641843
  0
LINE
  5
4E4
100
AcDbEntity
  8
0
100
AcDbLine
 62
7
  6
CONTINUOUS
 10
202.7629765286
 20
49.4615204573
 11
203.320495727
 21
49.2144671262
  0
LINE
  5
4E5
100
AcDbEntity
  8
0
100
AcDbLine
 62
7
  6
CONTINUOUS
 10
204.8617489698
 20
39.9270237373
 11
205.5241936627
 21
39.5753605051
  0
LINE
  5
4E6
100
AcDbEntity
  8
0
100
AcDbLine
 62
7
  6
CONTINUOUS
 10
207.732342639
 20
38.4031497313
 11
208.3947873319
 21
38.0514864992
  0
LINE
  5
4E7
100
AcDbEntity
  8
0
100
AcDbLine
 62
7
  6
CONTINUOUS
 10
210.27032457
 20
41.5845248614
 11
209.8286947747
 21
41.8189670161
  0
LINE
  5
4E8
100
AcDbEntity
  8
0
100
AcDbLine
 62
7
  6
CONTINUOUS
 10
208.798225814
 20
42.3659984125
 11
208.2093849639
 21
42.6785885484
  0
LINE
  5
4E9
100
AcDbEntity
  8
0
100
AcDbLine
 62
7
  6
CONTINUOUS
 10
207.1789160031
 20
43.2256199447
 11
206.7372862079
 21
43.4600620995
  0
LINE
  5
4EA
100
AcDbEntity
  8
0
100
AcDbLine
 62
7
  6
CONTINUOUS
 10
202.5634201436
 20
42.5433118595
 11
202.8907788145
 21
42.3618725738
  0
LINE
  5
4EB
100
AcDbEntity
  8
0
100
AcDbLine
 62
7
  6
CONTINUOUS
 10
76.9808683739
 20
153.2561604706
 11
77.1670334268
 21
152.9796594101
  0
LINE
  5
4EC
100
AcDbEntity
  8
0
100
AcDbLine
 62
7
  6
CONTINUOUS
 10
77.5665566044
 20
153.1481917465
 11
77.3803904862
 21
153.4246943892
  0
LINE
  5
4ED
100
AcDbEntity
  8
0
100
AcDbLine
 62
7
  6
CONTINUOUS
 10
78.688255874
 20
152.3964988853
 11
78.4555490252
 21
152.742126002
  0
LINE
  5
4EE
100
AcDbEntity
  8
0
100
AcDbLine
 62
7
  6
CONTINUOUS
 10
79.2477907147
 20
156.2893741341
 11
80.5509503462
 21
154.3538603818
  0
LINE
  5
4EF
100
AcDbEntity
  8
0
100
AcDbLine
 62
7
  6
CONTINUOUS
 10
81.2762640137
 20
154.0385135224
 11
79.6007721459
 21
156.5270325601
  0
LINE
  5
4F0
100
AcDbEntity
  8
0
100
AcDbLine
 62
7
  6
CONTINUOUS
 10
80.5611187896
 20
160.03
 11
84.0252204048
 21
154.03
  0
LINE
  5
4F1
100
AcDbEntity
  8
0
100
AcDbLine
 62
7
  6
CONTINUOUS
 10
90.6823641875
 20
150.5518447487
 11
91.2858253593
 21
149.4268864271
  0
LINE
  5
4F2
100
AcDbEntity
  8
0
100
AcDbLine
 62
7
  6
CONTINUOUS
 10
91.7264340467
 20
149.6632420588
 11
91.1229728749
 21
150.7882003804
  0
LINE
  5
4F3
100
AcDbEntity
  8
0
100
AcDbLine
 62
7
  6
CONTINUOUS
 10
92.7768390305
 20
152.641165375
 11
94.1849151637
 21
150.0162625021
  0
LINE
  5
4F4
100
AcDbEntity
  8
0
100
AcDbLine
 62
7
  6
CONTINUOUS
 10
94.8669082973
 20
149.8026348472
 11
92.9760632435
 21
153.3275043459
  0
LINE
  5
4F5
100
AcDbEntity
  8
0
100
AcDbLine
 62
7
  6
CONTINUOUS
 10
94.1187154272
 20
153.6781329957
 11
94.2964518709
 21
153.3433539086
  0
LINE
  5
4F6
100
AcDbEntity
  8
0
100
AcDbLine
 62
7
  6
CONTINUOUS
 10
94.6588893313
 20
153.6981526995
 11
94.5500488102
 21
153.9829672322
  0
LINE
  5
4F7
100
AcDbEntity
  8
0
100
AcDbLine
 62
7
  6
CONTINUOUS
 10
99.5351178918
 20
46.9118547023
 11
99.6959183376
 21
47.3055519066
  0
LINE
  5
4F8
100
AcDbEntity
  8
0
100
AcDbLine
 62
7
  6
CONTINUOUS
 10
91.0616620313
 20
41.4313586973
 11
91.2015048648
 21
41.6995309946
  0
LINE
  5
4F9
100
AcDbEntity
  8
0
100
AcDbLine
 62
7
  6
CONTINUOUS
 10
90.953423635
 20
44.03
 11
94.4175252502
 21
50.03
  0
LINE
  5
4FA
100
AcDbEntity
  8
0
100
AcDbLine
 62
7
  6
CONTINUOUS
 10
78.6987546568
 20
47.4185615833
 11
78.9106378796
 21
47.7062999495
  0
LINE
  5
4FB
100
AcDbEntity
  8
0
100
AcDbLine
 62
7
  6
CONTINUOUS
 10
201.1000432598
 20
159.6132475011
 11
200.861409403
 21
159.4900143611
  0
LINE
  5
4FC
100
AcDbEntity
  8
0
100
AcDbLine
 62
7
  6
CONTINUOUS
 10
203.1508594197
 20
157.0761838382
 11
203.3894930412
 21
157.1994169399
  0
LINE
  5
4FD
100
AcDbEntity
  8
0
100
AcDbLine
 62
7
  6
CONTINUOUS
 10
220.1461109782
 20
155.0948045814
 11
220.4306735682
 21
155.1972571628
  0
LINE
  5
4FE
100
AcDbEntity
  8
0
100
AcDbLine
 62
7
  6
CONTINUOUS
 10
217.6970686206
 20
148.7352463581
 11
218.1044735479
 21
148.8572123204
  0
LINE
  5
4FF
100
AcDbEntity
  8
RUNDUNGEN
100
AcDbLine
 62
7
  6
CONTINUOUS
 10
211.5351719217
 20
86.03
 11
88.4434721193
 21
86.03
  0
LINE
  5
500
100
AcDbEntity
  8
0
100
AcDbLine
 62
7
  6
CONTINUOUS
 10
221.3532572078
 20
45.4546506859
 11
220.959854145
 21
45.6370126021
  0
LINE
  5
501
100
AcDbEntity
  8
0
100
AcDbLine
 62
7
  6
CONTINUOUS
 10
217.2283536902
 20
39.2564391635
 11
216.9607915119
 21
39.4026456561
  0
LINE
  5
502
100
AcDbEntity
  8
0
100
AcDbLine
 62
7
  6
CONTINUOUS
 10
200.6345205864
 20
47.1735659794
 11
200.9266553702
 21
46.9677866793
  0
LINE
  5
503
100
AcDbEntity
  8
0
100
AcDbLine
 62
7
  6
CONTINUOUS
 10
75.930406776
 20
157.4749641843
 11
75.7222749884
 21
157.694403328
  0
LINE
  5
504
100
AcDbEntity
  8
0
100
AcDbLine
 62
7
  6
CONTINUOUS
 10
77.1670334268
 20
152.9796594101
 11
77.5634201436
 21
152.5433118595
  0
LINE
  5
505
100
AcDbEntity
  8
0
100
AcDbLine
 62
7
  6
CONTINUOUS
 10
75.3156350684
 20
157.5438524218
 11
75.6345205864
 21
157.1735659794
  0
LINE
  5
506
100
AcDbEntity
  8
0
100
AcDbLine
 62
7
  6
CONTINUOUS
 10
78.93526718
 20
159.1455807798
 11
78.616381946
 21
159.515865336
  0
LINE
  5
507
100
AcDbEntity
  8
0
100
AcDbLine
 62
7
  6
CONTINUOUS
 10
91.2858253593
 20
149.4268864271
 11
91.5604136783
 21
149.0912925998
  0
LINE
  5
508
100
AcDbEntity
  8
0
100
AcDbLine
 62
7
  6
CONTINUOUS
 10
94.4175252502
 20
160.03
 11
90.953423635
 21
166.03
  0
LINE
  5
509
100
AcDbEntity
  8
0
100
AcDbLine
 62
7
  6
CONTINUOUS
 10
99.2623144972
 20
47.3024683735
 11
99.1323805911
 21
47.072554749
  0
LINE
  5
50A
100
AcDbEntity
  8
0
100
AcDbLine
 62
7
  6
CONTINUOUS
 10
96.1495760577
 20
35.03
 11
104.8098300956
 21
50.03
  0
LINE
  5
50B
100
AcDbEntity
  8
0
100
AcDbLine
 62
7
  6
CONTINUOUS
 10
90.8866850525
 20
42.1101214213
 11
90.6734077003
 21
41.8025567019
  0
LINE
  5
50C
100
AcDbEntity
  8
0
100
AcDbLine
 62
7
  6
CONTINUOUS
 10
94.4681456053
 20
45.1747143021
 11
94.2724511213
 21
44.9048719667
  0
LINE
  5
50D
100
AcDbEntity
  8
0
100
AcDbLine
 62
7
  6
CONTINUOUS
 10
94.6858264158
 20
44.6050848157
 11
94.8815208998
 21
44.8749271512
  0
LINE
  5
50E
100
AcDbEntity
  8
0
100
AcDbLine
 62
7
  6
CONTINUOUS
 10
77.0593058021
 20
44.8158918668
 11
76.8234614273
 21
44.5566406786
  0
LINE
  5
50F
100
AcDbEntity
  8
0
100
AcDbLine
 62
7
  6
CONTINUOUS
 10
75.7164024329
 20
48.7910119093
 11
76.1669194831
 21
49.2019834107
  0
LINE
  5
510
100
AcDbEntity
  8
0
100
AcDbLine
 62
7
  6
CONTINUOUS
 10
200.861409403
 20
159.4900143611
 11
200.5521478463
 21
159.2708697273
  0
LINE
  5
511
100
AcDbEntity
  8
0
100
AcDbLine
 62
7
  6
CONTINUOUS
 10
203.3894930412
 20
157.1994169399
 11
203.6987546568
 21
157.4185615833
  0
LINE
  5
512
100
AcDbEntity
  8
0
100
AcDbLine
 62
7
  6
CONTINUOUS
 10
204.6007721459
 20
156.5270325601
 11
204.2477907147
 21
156.2893741341
  0
LINE
  5
513
100
AcDbEntity
  8
0
100
AcDbLine
 62
7
  6
CONTINUOUS
 10
202.2004985525
 20
154.910955357
 11
202.0593058021
 21
154.8158918668
  0
LINE
  5
514
100
AcDbEntity
  8
0
100
AcDbLine
 62
7
  6
CONTINUOUS
 10
202.3385544467
 20
154.4011386938
 11
202.4797471971
 21
154.496202184
  0
LINE
  5
515
100
AcDbEntity
  8
0
100
AcDbLine
 62
7
  6
CONTINUOUS
 10
205.9232825825
 20
153.8008550965
 11
206.2762640137
 21
154.0385135224
  0
LINE
  5
516
100
AcDbEntity
  8
0
100
AcDbLine
 62
7
  6
CONTINUOUS
 10
217.9760632435
 20
153.3275043459
 11
216.2136284942
 21
152.382081819
  0
LINE
  5
517
100
AcDbEntity
  8
0
100
AcDbLine
 62
7
  6
CONTINUOUS
 10
216.4550129685
 20
151.9320984799
 11
217.7768390305
 21
152.641165375
  0
LINE
  5
518
100
AcDbEntity
  8
0
100
AcDbLine
 62
7
  6
CONTINUOUS
 10
220.1151456316
 20
155.631965692
 11
219.7816593807
 21
155.4620524083
  0
LINE
  5
519
100
AcDbEntity
  8
0
100
AcDbLine
 62
7
  6
CONTINUOUS
 10
223.8416462391
 20
156.4489439202
 11
224.2224825008
 21
156.6315726609
  0
LINE
  5
51A
100
AcDbEntity
  8
0
100
AcDbLine
 62
7
  6
CONTINUOUS
 10
246.1873627197
 20
93.53
 11
221.8498612872
 21
93.53
  0
LINE
  5
51B
100
AcDbEntity
  8
0
100
AcDbLine
 62
7
  6
CONTINUOUS
 10
74.8148118098
 20
93.53
 11
51.1983881825
 21
93.53
  0
LINE
  5
51C
100
AcDbEntity
  8
RUNDUNGEN
100
AcDbLine
 62
7
  6
CONTINUOUS
 10
258.9893220199
 20
95.03
 11
40.9893220199
 21
95.03
  0
LINE
  5
51D
100
AcDbEntity
  8
0
100
AcDbLine
 62
7
  6
CONTINUOUS
 10
223.0053048196
 20
46.6065602436
 11
223.2407739274
 21
46.4773836871
  0
LINE
  5
51E
100
AcDbEntity
  8
0
100
AcDbLine
 62
7
  6
CONTINUOUS
 10
223.417007621
 20
46.9529725641
 11
223.1815385132
 21
47.0821491206
  0
LINE
  5
51F
100
AcDbEntity
  8
0
100
AcDbLine
 62
7
  6
CONTINUOUS
 10
203.616381946
 20
49.515865336
 11
203.3242471328
 21
49.7216446313
  0
LINE
  5
520
100
AcDbEntity
  8
0
100
AcDbLine
 62
7
  6
CONTINUOUS
 10
216.5604136783
 20
39.0912925998
 11
216.868206485
 21
38.8700891029
  0
LINE
  5
521
100
AcDbEntity
  8
0
100
AcDbLine
 62
7
  6
CONTINUOUS
 10
219.5920075518
 20
43.0260706317
 11
221.7277799469
 21
41.4771703227
  0
LINE
  5
522
100
AcDbEntity
  8
0
100
AcDbLine
 62
7
  6
CONTINUOUS
 10
222.0213215329
 20
41.881933633
 11
219.8855491378
 21
43.4308339419
  0
LINE
  5
523
100
AcDbEntity
  8
0
100
AcDbLine
 62
7
  6
CONTINUOUS
 10
77.8698597295
 20
152.8500963083
 11
77.5665566044
 21
153.1481917465
  0
LINE
  5
524
100
AcDbEntity
  8
0
100
AcDbLine
 62
7
  6
CONTINUOUS
 10
78.320495727
 20
159.2144671262
 11
78.5286275146
 21
158.9950279826
  0
LINE
  5
525
100
AcDbEntity
  8
0
100
AcDbLine
 62
7
  6
CONTINUOUS
 10
94.2964518709
 20
153.3433539086
 11
94.5920075518
 21
153.0260706317
  0
LINE
  5
526
100
AcDbEntity
  8
0
100
AcDbLine
 62
7
  6
CONTINUOUS
 10
91.9607915119
 20
149.4026456561
 11
91.7264340467
 21
149.6632420588
  0
LINE
  5
527
100
AcDbEntity
  8
0
100
AcDbLine
 62
7
  6
CONTINUOUS
 10
94.8855491378
 20
153.4308339419
 11
94.6588893313
 21
153.6981526995
  0
LINE
  5
528
100
AcDbEntity
  8
0
100
AcDbLine
 62
7
  6
CONTINUOUS
 10
98.1815385132
 20
157.0821491206
 11
98.0451368159
 21
157.2774559562
  0
LINE
  5
529
100
AcDbEntity
  8
0
100
AcDbLine
 62
7
  6
CONTINUOUS
 10
104.8098300956
 20
160.03
 11
96.1495760577
 21
175.03
  0
LINE
  5
52A
100
AcDbEntity
  8
0
100
AcDbLine
 62
7
  6
CONTINUOUS
 10
96.7277799469
 20
41.4771703227
 11
97.0213215329
 21
41.881933633
  0
LINE
  5
52B
100
AcDbEntity
  8
0
100
AcDbLine
 62
7
  6
CONTINUOUS
 10
98.195487877
 20
43.5009868738
 11
98.4890296029
 21
43.905750377
  0
LINE
  5
52C
100
AcDbEntity
  8
0
100
AcDbLine
 62
7
  6
CONTINUOUS
 10
80.5241936627
 20
39.5753605051
 11
83.3042801467
 21
42.1464383277
  0
LINE
  5
52D
100
AcDbEntity
  8
0
100
AcDbLine
 62
7
  6
CONTINUOUS
 10
78.5345000702
 20
47.8984194013
 11
78.0839828903
 21
47.4874498112
  0
LINE
  5
52E
100
AcDbEntity
  8
0
100
AcDbLine
 62
7
  6
CONTINUOUS
 10
200.7164024329
 20
158.7910119093
 11
201.1669194831
 21
159.2019834107
  0
LINE
  5
52F
100
AcDbEntity
  8
0
100
AcDbLine
 62
7
  6
CONTINUOUS
 10
203.5345000702
 20
157.8984194013
 11
203.0839828903
 21
157.4874498112
  0
LINE
  5
530
100
AcDbEntity
  8
0
100
AcDbLine
 62
7
  6
CONTINUOUS
 10
224.1323805911
 20
157.072554749
 11
223.9342458143
 21
156.9402944251
  0
LINE
  5
531
100
AcDbEntity
  8
0
100
AcDbLine
 62
7
  6
CONTINUOUS
 10
219.1849151637
 20
150.0162625021
 11
217.8630891017
 21
149.307195607
  0
LINE
  5
532
100
AcDbEntity
  8
0
100
AcDbLine
 62
7
  6
CONTINUOUS
 10
218.1044735479
 20
148.8572123204
 11
219.8669082973
 21
149.8026348472
  0
LINE
  5
533
100
AcDbEntity
  8
0
100
AcDbLine
 62
7
  6
CONTINUOUS
 10
75.6345205864
 20
157.1735659794
 11
75.9266553702
 21
156.9677866793
  0
LINE
  5
534
100
AcDbEntity
  8
0
100
AcDbLine
 62
7
  6
CONTINUOUS
 10
221.0597154818
 20
45.0498871827
 11
223.195487877
 21
43.5009868738
  0
LINE
  5
535
100
AcDbEntity
  8
0
100
AcDbLine
 62
7
  6
CONTINUOUS
 10
223.4890296029
 20
43.905750377
 11
221.3532572078
 21
45.4546506859
  0
LINE
  5
536
100
AcDbEntity
  8
0
100
AcDbLine
 62
7
  6
CONTINUOUS
 10
202.8698597295
 20
42.8500963083
 11
202.5665566044
 21
43.1481917465
  0
LINE
  5
537
100
AcDbEntity
  8
0
100
AcDbLine
 62
7
  6
CONTINUOUS
 10
200.930406776
 20
47.4749641843
 11
200.7222749884
 21
47.694403328
  0
LINE
  5
538
100
AcDbEntity
  8
0
100
AcDbLine
 62
7
  6
CONTINUOUS
 10
203.320495727
 20
49.2144671262
 11
203.5286275146
 21
48.9950279826
  0
LINE
  5
539
100
AcDbEntity
  8
0
100
AcDbLine
 62
7
  6
CONTINUOUS
 10
97.717068133
 20
156.9152820078
 11
98.0053048196
 21
156.6065602436
  0
LINE
  5
53A
100
AcDbEntity
  8
0
100
AcDbLine
 62
7
  6
CONTINUOUS
 10
202.1670334268
 20
42.9796594101
 11
202.5634201436
 21
42.5433118595
  0
LINE
  5
53B
100
AcDbEntity
  8
0
100
AcDbLine
 62
7
  6
CONTINUOUS
 10
200.3156350684
 20
47.5438524218
 11
200.6345205864
 21
47.1735659794
  0
LINE
  5
53C
100
AcDbEntity
  8
0
100
AcDbLine
 62
7
  6
CONTINUOUS
 10
200.5521478463
 20
159.2708697273
 11
200.3402646529
 21
158.9831313659
  0
LINE
  5
53D
100
AcDbEntity
  8
0
100
AcDbLine
 62
7
  6
CONTINUOUS
 10
202.0593058021
 20
154.8158918668
 11
201.8234614273
 21
154.5566406786
  0
LINE
  5
53E
100
AcDbEntity
  8
0
100
AcDbLine
 62
7
  6
CONTINUOUS
 10
205.5241936627
 20
149.5753605051
 11
208.3042801467
 21
152.1464383277
  0
LINE
  5
53F
100
AcDbEntity
  8
0
100
AcDbLine
 62
7
  6
CONTINUOUS
 10
91.2015048648
 20
41.6995309946
 11
91.4550129685
 21
41.9320984799
  0
LINE
  5
540
100
AcDbEntity
  8
0
100
AcDbLine
 62
7
  6
CONTINUOUS
 10
94.7816593807
 20
45.4620524083
 11
94.4681456053
 21
45.1747143021
  0
LINE
  5
541
100
AcDbEntity
  8
0
100
AcDbLine
 62
7
  6
CONTINUOUS
 10
219.7816593807
 20
155.4620524083
 11
219.4681456053
 21
155.1747143021
  0
LINE
  5
542
100
AcDbEntity
  8
0
100
AcDbLine
 62
7
  6
CONTINUOUS
 10
99.2224825008
 20
46.6315726609
 11
99.5351178918
 21
46.9118547023
  0
LINE
  5
543
100
AcDbEntity
  8
0
100
AcDbLine
 62
7
  6
CONTINUOUS
 10
83.2093849639
 20
42.6785885484
 11
80.7024291936
 21
40.4442917827
  0
LINE
  5
544
100
AcDbEntity
  8
0
100
AcDbLine
 62
7
  6
CONTINUOUS
 10
208.2093849639
 20
152.6785885484
 11
205.7024291936
 21
150.4442917827
  0
LINE
  5
545
100
AcDbEntity
  8
0
100
AcDbLine
 62
7
  6
CONTINUOUS
 10
216.2136284942
 20
152.382081819
 11
215.8866850525
 21
152.1101214213
  0
LINE
  5
546
100
AcDbEntity
  8
0
100
AcDbLine
 62
7
  6
CONTINUOUS
 10
219.8815208998
 20
154.8749271512
 11
220.1461109782
 21
155.0948045814
  0
LINE
  5
547
100
AcDbEntity
  8
0
100
AcDbLine
 62
7
  6
CONTINUOUS
 10
75.861409403
 20
49.4900143611
 11
75.5521478463
 21
49.2708697273
  0
LINE
  5
548
100
AcDbEntity
  8
0
100
AcDbLine
 62
7
  6
CONTINUOUS
 10
78.3894930412
 20
47.1994169399
 11
78.6987546568
 21
47.4185615833
  0
LINE
  5
549
100
AcDbEntity
  8
0
100
AcDbLine
 62
7
  6
CONTINUOUS
 10
79.6007721459
 20
46.5270325601
 11
79.2477907147
 21
46.2893741341
  0
LINE
  5
54A
100
AcDbEntity
  8
0
100
AcDbLine
 62
7
  6
CONTINUOUS
 10
77.2004985525
 20
44.910955357
 11
77.0593058021
 21
44.8158918668
  0
LINE
  5
54B
100
AcDbEntity
  8
0
100
AcDbLine
 62
7
  6
CONTINUOUS
 10
77.3385544467
 20
44.4011386938
 11
77.4797471971
 21
44.496202184
  0
LINE
  5
54C
100
AcDbEntity
  8
RUNDUNGEN
100
AcDbLine
 62
7
  6
CONTINUOUS
 10
40.9893220199
 20
115.03
 11
258.9893220199
 21
115.03
  0
LINE
  5
54D
100
AcDbEntity
  8
0
100
AcDbLine
 62
7
  6
CONTINUOUS
 10
79.8617489698
 20
149.9270237373
 11
80.5241936627
 21
149.5753605051
  0
LINE
  5
54E
100
AcDbEntity
  8
0
100
AcDbLine
 62
7
  6
CONTINUOUS
 10
82.732342639
 20
148.4031497313
 11
83.3947873319
 21
148.0514864992
  0
LINE
  5
54F
100
AcDbEntity
  8
0
100
AcDbLine
 62
7
  6
CONTINUOUS
 10
77.5634201436
 20
152.5433118595
 11
77.8907788145
 21
152.3618725738
  0
LINE
  5
550
100
AcDbEntity
  8
0
100
AcDbLine
 62
7
  6
CONTINUOUS
 10
78.616381946
 20
159.515865336
 11
78.3242471328
 21
159.7216446313
  0
LINE
  5
551
100
AcDbEntity
  8
0
100
AcDbLine
 62
7
  6
CONTINUOUS
 10
91.5604136783
 20
149.0912925998
 11
91.868206485
 21
148.8700891029
  0
LINE
  5
552
100
AcDbEntity
  8
0
100
AcDbLine
 62
7
  6
CONTINUOUS
 10
94.5920075518
 20
153.0260706317
 11
96.7277799469
 21
151.4771703227
  0
LINE
  5
553
100
AcDbEntity
  8
0
100
AcDbLine
 62
7
  6
CONTINUOUS
 10
97.0213215329
 20
151.881933633
 11
94.8855491378
 21
153.4308339419
  0
LINE
  5
554
100
AcDbEntity
  8
0
100
AcDbLine
 62
7
  6
CONTINUOUS
 10
96.0597154818
 20
155.0498871827
 11
98.195487877
 21
153.5009868738
  0
LINE
  5
555
100
AcDbEntity
  8
0
100
AcDbLine
 62
7
  6
CONTINUOUS
 10
98.4890296029
 20
153.905750377
 11
96.3532572078
 21
155.4546506859
  0
LINE
  5
556
100
AcDbEntity
  8
0
100
AcDbLine
 62
7
  6
CONTINUOUS
 10
219.2964518709
 20
43.3433539086
 11
219.5920075518
 21
43.0260706317
  0
LINE
  5
557
100
AcDbEntity
  8
0
100
AcDbLine
 62
7
  6
CONTINUOUS
 10
216.9607915119
 20
39.4026456561
 11
216.7264340467
 21
39.6632420588
  0
LINE
  5
558
100
AcDbEntity
  8
0
100
AcDbLine
 62
7
  6
CONTINUOUS
 10
203.93526718
 20
49.1455807798
 11
203.616381946
 21
49.515865336
  0
LINE
  5
559
100
AcDbEntity
  8
0
100
AcDbLine
 62
7
  6
CONTINUOUS
 10
216.2858253593
 20
39.4268864271
 11
216.5604136783
 21
39.0912925998
  0
LINE
  5
55A
100
AcDbEntity
  8
0
100
AcDbLine
 62
7
  6
CONTINUOUS
 10
201.9808683739
 20
43.2561604706
 11
202.1670334268
 21
42.9796594101
  0
LINE
  5
55B
100
AcDbEntity
  8
0
100
AcDbLine
 62
7
  6
CONTINUOUS
 10
202.5665566044
 20
43.1481917465
 11
202.3803904862
 21
43.4246943892
  0
LINE
  5
55C
100
AcDbEntity
  8
0
100
AcDbLine
 62
7
  6
CONTINUOUS
 10
203.688255874
 20
42.3964988853
 11
203.4555490252
 21
42.742126002
  0
LINE
  5
55D
100
AcDbEntity
  8
0
100
AcDbLine
 62
7
  6
CONTINUOUS
 10
203.829067982
 20
175.03
 11
195.1688139442
 21
160.03
  0
LINE
  5
55E
100
AcDbEntity
  8
0
100
AcDbLine
 62
7
  6
CONTINUOUS
 10
203.6987546568
 20
157.4185615833
 11
203.9106378796
 21
157.7062999495
  0
LINE
  5
55F
100
AcDbEntity
  8
0
100
AcDbLine
 62
7
  6
CONTINUOUS
 10
216.2015048648
 20
151.6995309946
 11
216.4550129685
 21
151.9320984799
  0
LINE
  5
560
100
AcDbEntity
  8
0
100
AcDbLine
 62
7
  6
CONTINUOUS
 10
224.2224825008
 20
156.6315726609
 11
224.5351178918
 21
156.9118547023
  0
LINE
  5
561
100
AcDbEntity
  8
0
100
AcDbLine
 62
7
  6
CONTINUOUS
 10
91.2136284942
 20
42.382081819
 11
90.8866850525
 21
42.1101214213
  0
LINE
  5
562
100
AcDbEntity
  8
0
100
AcDbLine
 62
7
  6
CONTINUOUS
 10
94.8815208998
 20
44.8749271512
 11
95.1461109782
 21
45.0948045814
  0
LINE
  5
563
100
AcDbEntity
  8
0
100
AcDbLine
 62
7
  6
CONTINUOUS
 10
80.9232825825
 20
43.8008550965
 11
81.2762640137
 21
44.0385135224
  0
LINE
  5
564
100
AcDbEntity
  8
0
100
AcDbLine
 62
7
  6
CONTINUOUS
 10
76.1000432598
 20
49.6132475011
 11
75.861409403
 21
49.4900143611
  0
LINE
  5
565
100
AcDbEntity
  8
0
100
AcDbLine
 62
7
  6
CONTINUOUS
 10
78.1508594197
 20
47.0761838382
 11
78.3894930412
 21
47.1994169399
  0
LINE
  5
566
100
AcDbEntity
  8
0
100
AcDbLine
 62
7
  6
CONTINUOUS
 10
62.9821595117
 20
116.53
 11
76.1169372231
 21
116.53
  0
LINE
  5
567
100
AcDbEntity
  8
0
100
AcDbLine
 62
7
  6
CONTINUOUS
 10
217.6790455694
 20
116.53
 11
252.9249197231
 21
116.53
  0
LINE
  5
568
100
AcDbEntity
  8
BEZUGSACHSEN
100
AcDbLine
 62
7
  6
CONTINUOUS
 10
211.5351719217
 20
124.03
 11
88.4434721193
 21
124.03
  0
LINE
  5
569
100
AcDbEntity
  8
0
100
AcDbLine
 62
7
  6
CONTINUOUS
 10
78.1506766045
 20
152.7377830789
 11
77.8698597295
 21
152.8500963083
  0
LINE
  5
56A
100
AcDbEntity
  8
0
100
AcDbLine
 62
7
  6
CONTINUOUS
 10
76.4879258448
 20
157.2279127646
 11
75.930406776
 21
157.4749641843
  0
LINE
  5
56B
100
AcDbEntity
  8
0
100
AcDbLine
 62
7
  6
CONTINUOUS
 10
85.27032457
 20
151.5845248614
 11
84.8286947747
 21
151.8189670161
  0
LINE
  5
56C
100
AcDbEntity
  8
0
100
AcDbLine
 62
7
  6
CONTINUOUS
 10
83.798225814
 20
152.3659984125
 11
83.2093849639
 21
152.6785885484
  0
LINE
  5
56D
100
AcDbEntity
  8
0
100
AcDbLine
 62
7
  6
CONTINUOUS
 10
82.1789160031
 20
153.2256199447
 11
81.7372862079
 21
153.4600620995
  0
LINE
  5
56E
100
AcDbEntity
  8
0
100
AcDbLine
 62
7
  6
CONTINUOUS
 10
92.2283536902
 20
149.2564391635
 11
91.9607915119
 21
149.4026456561
  0
LINE
  5
56F
100
AcDbEntity
  8
0
100
AcDbLine
 62
7
  6
CONTINUOUS
 10
222.717068133
 20
46.9152820078
 11
223.0053048196
 21
46.6065602436
  0
LINE
  5
570
100
AcDbEntity
  8
0
100
AcDbLine
 62
7
  6
CONTINUOUS
 10
219.8855491378
 20
43.4308339419
 11
219.6588893313
 21
43.6981526995
  0
LINE
  5
571
100
AcDbEntity
  8
0
100
AcDbLine
 62
7
  6
CONTINUOUS
 10
204.2477907147
 20
46.2893741341
 11
205.5509503462
 21
44.3538603818
  0
LINE
  5
572
100
AcDbEntity
  8
0
100
AcDbLine
 62
7
  6
CONTINUOUS
 10
206.2762640137
 20
44.0385135224
 11
204.6007721459
 21
46.5270325601
  0
LINE
  5
573
100
AcDbEntity
  8
0
100
AcDbLine
 62
7
  6
CONTINUOUS
 10
195.1688139442
 20
50.03
 11
203.829067982
 21
35.03
  0
LINE
  5
574
100
AcDbEntity
  8
0
100
AcDbLine
 62
7
  6
CONTINUOUS
 10
200.3402646529
 20
158.9831313659
 11
200.1551318876
 21
158.5308877448
  0
LINE
  5
575
100
AcDbEntity
  8
0
100
AcDbLine
 62
7
  6
CONTINUOUS
 10
200.5885222357
 20
158.5169333914
 11
200.7164024329
 21
158.7910119093
  0
LINE
  5
576
100
AcDbEntity
  8
0
100
AcDbLine
 62
7
  6
CONTINUOUS
 10
203.6623802674
 20
158.1724979192
 11
203.5345000702
 21
157.8984194013
  0
LINE
  5
577
100
AcDbEntity
  8
0
100
AcDbLine
 62
7
  6
CONTINUOUS
 10
206.7372862079
 20
153.4600620995
 11
204.8617489698
 21
149.9270237373
  0
LINE
  5
578
100
AcDbEntity
  8
0
100
AcDbLine
 62
7
  6
CONTINUOUS
 10
205.7024291936
 20
150.4442917827
 11
207.1789160031
 21
153.2256199447
  0
LINE
  5
579
100
AcDbEntity
  8
0
100
AcDbLine
 62
7
  6
CONTINUOUS
 10
209.0252204048
 20
166.03
 11
205.5611187896
 21
160.03
  0
LINE
  5
57A
100
AcDbEntity
  8
0
100
AcDbLine
 62
7
  6
CONTINUOUS
 10
215.8866850525
 20
152.1101214213
 11
215.6734077003
 21
151.8025567019
  0
LINE
  5
57B
100
AcDbEntity
  8
0
100
AcDbLine
 62
7
  6
CONTINUOUS
 10
219.4681456053
 20
155.1747143021
 11
219.2724511213
 21
154.9048719667
  0
LINE
  5
57C
100
AcDbEntity
  8
0
100
AcDbLine
 62
7
  6
CONTINUOUS
 10
219.6858264158
 20
154.6050848157
 11
219.8815208998
 21
154.8749271512
  0
LINE
  5
57D
100
AcDbEntity
  8
0
100
AcDbLine
 62
7
  6
CONTINUOUS
 10
99.1323805911
 20
47.072554749
 11
98.9342458143
 21
46.9402944251
  0
LINE
  5
57E
100
AcDbEntity
  8
0
100
AcDbLine
 62
7
  6
CONTINUOUS
 10
92.9760632435
 20
43.3275043459
 11
91.2136284942
 21
42.382081819
  0
LINE
  5
57F
100
AcDbEntity
  8
0
100
AcDbLine
 62
7
  6
CONTINUOUS
 10
91.4550129685
 20
41.9320984799
 11
92.7768390305
 21
42.641165375
  0
LINE
  5
580
100
AcDbEntity
  8
0
100
AcDbLine
 62
7
  6
CONTINUOUS
 10
95.1151456316
 20
45.631965692
 11
94.7816593807
 21
45.4620524083
  0
LINE
  5
581
100
AcDbEntity
  8
0
100
AcDbLine
 62
7
  6
CONTINUOUS
 10
76.5066828737
 20
49.76380029
 11
76.1000432598
 21
49.6132475011
  0
LINE
  5
582
100
AcDbEntity
  8
0
100
AcDbLine
 62
7
  6
CONTINUOUS
 10
217.8630891017
 20
149.307195607
 11
217.529119516
 21
149.2246225505
  0
LINE
  5
583
100
AcDbEntity
  8
0
100
AcDbLine
 62
7
  6
CONTINUOUS
 10
75.9266553702
 20
156.9677866793
 11
76.2894177831
 21
156.8579207938
  0
LINE
  5
584
100
AcDbEntity
  8
0
100
AcDbLine
 62
7
  6
CONTINUOUS
 10
91.868206485
 20
148.8700891029
 11
92.3228682938
 21
148.7276705161
  0
LINE
  5
585
100
AcDbEntity
  8
0
100
AcDbLine
 62
7
  6
CONTINUOUS
 10
95.7352085733
 20
155.1822849656
 11
96.0597154818
 21
155.0498871827
  0
LINE
  5
586
100
AcDbEntity
  8
0
100
AcDbLine
 62
7
  6
CONTINUOUS
 10
77.7629765286
 20
159.4615204573
 11
78.320495727
 21
159.2144671262
  0
LINE
  5
587
100
AcDbEntity
  8
0
100
AcDbLine
 62
7
  6
CONTINUOUS
 10
96.3532572078
 20
155.4546506859
 11
95.959854145
 21
155.6370126021
  0
LINE
  5
588
100
AcDbEntity
  8
0
100
AcDbLine
 62
7
  6
CONTINUOUS
 10
98.0053048196
 20
156.6065602436
 11
98.2407739274
 21
156.4773836871
  0
LINE
  5
589
100
AcDbEntity
  8
0
100
AcDbLine
 62
7
  6
CONTINUOUS
 10
98.417007621
 20
156.9529725641
 11
98.1815385132
 21
157.0821491206
  0
LINE
  5
58A
100
AcDbEntity
  8
0
100
AcDbLine
 62
7
  6
CONTINUOUS
 10
223.1815385132
 20
47.0821491206
 11
223.0451368159
 21
47.2774559562
  0
LINE
  5
58B
100
AcDbEntity
  8
0
100
AcDbLine
 62
7
  6
CONTINUOUS
 10
205.5611187896
 20
50.03
 11
209.0252204048
 21
44.03
  0
LINE
  5
58C
100
AcDbEntity
  8
0
100
AcDbLine
 62
7
  6
CONTINUOUS
 10
215.6823641875
 20
40.5518447487
 11
216.2858253593
 21
39.4268864271
  0
LINE
  5
58D
100
AcDbEntity
  8
0
100
AcDbLine
 62
7
  6
CONTINUOUS
 10
216.7264340467
 20
39.6632420588
 11
216.1229728749
 21
40.7882003804
  0
LINE
  5
58E
100
AcDbEntity
  8
0
100
AcDbLine
 62
7
  6
CONTINUOUS
 10
201.7722160056
 20
43.7184453221
 11
201.9808683739
 21
43.2561604706
  0
LINE
  5
58F
100
AcDbEntity
  8
0
100
AcDbLine
 62
7
  6
CONTINUOUS
 10
202.3803904862
 20
43.4246943892
 11
202.2182799138
 21
43.8178531845
  0
LINE
  5
590
100
AcDbEntity
  8
0
100
AcDbLine
 62
7
  6
CONTINUOUS
 10
200.7222749884
 20
47.694403328
 11
200.5713954628
 21
48.0920094575
  0
LINE
  5
591
100
AcDbEntity
  8
0
100
AcDbLine
 62
7
  6
CONTINUOUS
 10
203.9106378796
 20
157.7062999495
 11
204.0957703608
 21
158.1585454568
  0
LINE
  5
592
100
AcDbEntity
  8
0
100
AcDbLine
 62
7
  6
CONTINUOUS
 10
202.2198481441
 20
154.120293128
 11
202.3385544467
 21
154.4011386938
  0
LINE
  5
593
100
AcDbEntity
  8
0
100
AcDbLine
 62
7
  6
CONTINUOUS
 10
216.0616620313
 20
151.4313586973
 11
216.2015048648
 21
151.6995309946
  0
LINE
  5
594
100
AcDbEntity
  8
0
100
AcDbLine
 62
7
  6
CONTINUOUS
 10
209.8286947747
 20
151.8189670161
 11
208.3522079653
 21
149.0376388542
  0
LINE
  5
595
100
AcDbEntity
  8
0
100
AcDbLine
 62
7
  6
CONTINUOUS
 10
208.3947873319
 20
148.0514864992
 11
210.27032457
 21
151.5845248614
  0
LINE
  5
596
100
AcDbEntity
  8
0
100
AcDbLine
 62
7
  6
CONTINUOUS
 10
215.953423635
 20
154.03
 11
219.4175252502
 21
160.03
  0
LINE
  5
597
100
AcDbEntity
  8
0
100
AcDbLine
 62
7
  6
CONTINUOUS
 10
221.7277799469
 20
151.4771703227
 11
222.0213215329
 21
151.881933633
  0
LINE
  5
598
100
AcDbEntity
  8
0
100
AcDbLine
 62
7
  6
CONTINUOUS
 10
223.195487877
 20
153.5009868738
 11
223.4890296029
 21
153.905750377
  0
LINE
  5
599
100
AcDbEntity
  8
0
100
AcDbLine
 62
7
  6
CONTINUOUS
 10
94.1849151637
 20
40.0162625021
 11
92.8630891017
 21
39.307195607
  0
LINE
  5
59A
100
AcDbEntity
  8
0
100
AcDbLine
 62
7
  6
CONTINUOUS
 10
93.1044735479
 20
38.8572123204
 11
94.8669082973
 21
39.8026348472
  0
LINE
  5
59B
100
AcDbEntity
  8
0
100
AcDbLine
 62
7
  6
CONTINUOUS
 10
98.8416462391
 20
46.4489439202
 11
99.2224825008
 21
46.6315726609
  0
LINE
  5
59C
100
AcDbEntity
  8
0
100
AcDbLine
 62
7
  6
CONTINUOUS
 10
77.744219382
 20
46.9256329128
 11
78.1508594197
 21
47.0761838382
  0
LINE
  5
59D
100
AcDbEntity
  8
0
100
AcDbLine
 62
7
  6
CONTINUOUS
 10
77.5294243885
 20
45.031957597
 11
77.2004985525
 21
44.910955357
  0
LINE
  5
59E
100
AcDbEntity
  8
0
100
AcDbLine
 62
7
  6
CONTINUOUS
 10
78.3593289728
 20
42.2754982274
 11
78.688255874
 21
42.3964988853
  0
LINE
  5
59F
100
AcDbEntity
  8
0
100
AcDbLine
 62
7
  6
CONTINUOUS
 10
76.1669194831
 20
49.2019834107
 11
76.6575623994
 21
49.3661941605
  0
LINE
  5
5A0
100
AcDbEntity
  8
0
100
AcDbLine
 62
7
  6
CONTINUOUS
 10
78.0839828903
 20
47.4874498112
 11
77.5933401625
 21
47.3232371596
  0
LINE
  5
5A1
100
AcDbEntity
  8
0
100
AcDbLine
 62
7
  6
CONTINUOUS
 10
77.8907788145
 20
152.3618725738
 11
78.3593289728
 21
152.2754982274
  0
LINE
  5
5A2
100
AcDbEntity
  8
0
100
AcDbLine
 62
7
  6
CONTINUOUS
 10
77.855214829
 20
154.5480783679
 11
80.9232825825
 21
153.8008550965
  0
LINE
  5
5A3
100
AcDbEntity
  8
0
100
AcDbLine
 62
7
  6
CONTINUOUS
 10
80.5509503462
 20
154.3538603818
 11
77.8342968092
 21
155.0363005202
  0
LINE
  5
5A4
100
AcDbEntity
  8
0
100
AcDbLine
 62
7
  6
CONTINUOUS
 10
78.3242471328
 20
159.7216446313
 11
77.9614846611
 21
159.8315105072
  0
LINE
  5
5A5
100
AcDbEntity
  8
0
100
AcDbLine
 62
7
  6
CONTINUOUS
 10
219.4175252502
 20
50.03
 11
215.953423635
 21
56.03
  0
LINE
  5
5A6
100
AcDbEntity
  8
0
100
AcDbLine
 62
7
  6
CONTINUOUS
 10
217.7768390305
 20
42.641165375
 11
219.1849151637
 21
40.0162625021
  0
LINE
  5
5A7
100
AcDbEntity
  8
0
100
AcDbLine
 62
7
  6
CONTINUOUS
 10
219.8669082973
 20
39.8026348472
 11
217.9760632435
 21
43.3275043459
  0
LINE
  5
5A8
100
AcDbEntity
  8
0
100
AcDbLine
 62
7
  6
CONTINUOUS
 10
219.1187154272
 20
43.6781329957
 11
219.2964518709
 21
43.3433539086
  0
LINE
  5
5A9
100
AcDbEntity
  8
0
100
AcDbLine
 62
7
  6
CONTINUOUS
 10
203.5286275146
 20
48.9950279826
 11
203.6795067341
 21
48.5974237357
  0
LINE
  5
5AA
100
AcDbEntity
  8
0
100
AcDbLine
 62
7
  6
CONTINUOUS
 10
200.1513804818
 20
48.0237102397
 11
200.3156350684
 21
47.5438524218
  0
LINE
  5
5AB
100
AcDbEntity
  8
0
100
AcDbLine
 62
7
  6
CONTINUOUS
 10
204.099521774
 20
48.665722963
 11
203.93526718
 21
49.1455807798
  0
LINE
  5
5AC
100
AcDbEntity
  8
0
100
AcDbLine
 62
7
  6
CONTINUOUS
 10
201.8234614273
 20
154.5566406786
 11
201.7272424401
 21
154.0900113218
  0
LINE
  5
5AD
100
AcDbEntity
  8
0
100
AcDbLine
 62
7
  6
CONTINUOUS
 10
219.2724511213
 20
154.9048719667
 11
219.0967291067
 21
154.5176048131
  0
LINE
  5
5AE
100
AcDbEntity
  8
0
100
AcDbLine
 62
7
  6
CONTINUOUS
 10
224.2623144972
 20
157.3024683735
 11
224.1323805911
 21
157.072554749
  0
LINE
  5
5AF
100
AcDbEntity
  8
0
100
AcDbLine
 62
7
  6
CONTINUOUS
 10
221.1495760577
 20
145.03
 11
229.8098300956
 21
160.03
  0
LINE
  5
5B0
100
AcDbEntity
  8
RUNDUNGEN
100
AcDbLine
 62
7
  6
CONTINUOUS
 10
215.3693773455
 20
85.8636419125
 11
215.3738659883
 21
85.8653733241
  0
LINE
  5
5B1
100
AcDbEntity
  8
0
100
AcDbLine
 62
7
  6
CONTINUOUS
 10
95.1461109782
 20
45.0948045814
 11
95.4306735682
 21
45.1972571628
  0
LINE
  5
5B2
100
AcDbEntity
  8
0
100
AcDbLine
 62
7
  6
CONTINUOUS
 10
220.5490486082
 20
156.8998639181
 11
222.6115329314
 21
157.2743721889
  0
LINE
  5
5B3
100
AcDbEntity
  8
0
100
AcDbLine
 62
7
  6
CONTINUOUS
 10
222.5368642915
 20
157.7972460668
 11
220.6570814753
 21
157.47310633
  0
LINE
  5
5B4
100
AcDbEntity
  8
0
100
AcDbLine
 62
7
  6
CONTINUOUS
 10
201.9881924162
 20
156.8026943208
 11
202.744219382
 21
156.9256329128
  0
LINE
  5
5B5
100
AcDbEntity
  8
0
100
AcDbLine
 62
7
  6
CONTINUOUS
 10
202.5933401625
 20
157.3232371596
 11
202.0053191891
 21
157.2276182548
  0
LINE
  5
5B6
100
AcDbEntity
  8
0
100
AcDbLine
 62
7
  6
CONTINUOUS
 10
201.6575623994
 20
159.3661941605
 11
202.2455833728
 21
159.4618130654
  0
LINE
  5
5B7
100
AcDbEntity
  8
0
100
AcDbLine
 62
7
  6
CONTINUOUS
 10
202.2627098396
 20
159.8867388819
 11
201.5066828737
 21
159.76380029
  0
LINE
  5
5B8
100
AcDbEntity
  8
0
100
AcDbLine
 62
7
  6
CONTINUOUS
 10
220.5864233572
 20
155.7019495467
 11
220.1151456316
 21
155.631965692
  0
LINE
  5
5B9
100
AcDbEntity
  8
0
100
AcDbLine
 62
7
  6
CONTINUOUS
 10
202.4797471971
 20
154.496202184
 11
202.855214829
 21
154.5480783679
  0
LINE
  5
5BA
100
AcDbEntity
  8
0
100
AcDbLine
 62
7
  6
CONTINUOUS
 10
223.5753106358
 20
156.4143371312
 11
223.8416462391
 21
156.4489439202
  0
LINE
  5
5BB
100
AcDbEntity
  8
0
100
AcDbLine
 62
7
  6
CONTINUOUS
 10
223.9342458143
 20
156.9402944251
 11
223.6679102109
 21
156.9056876362
  0
LINE
  5
5BC
100
AcDbEntity
  8
0
100
AcDbLine
 62
7
  6
CONTINUOUS
 10
217.3228682938
 20
148.7276705161
 11
217.6970686206
 21
148.7352463581
  0
LINE
  5
5BD
100
AcDbEntity
  8
0
100
AcDbLine
 62
7
  6
CONTINUOUS
 10
92.3228682938
 20
148.7276705161
 11
92.6970686206
 21
148.7352463581
  0
LINE
  5
5BE
100
AcDbEntity
  8
0
100
AcDbLine
 62
7
  6
CONTINUOUS
 10
78.829067982
 20
145.03
 11
96.1495760577
 21
145.03
  0
LINE
  5
5BF
100
AcDbEntity
  8
0
100
AcDbLine
 62
7
  6
CONTINUOUS
 10
203.829067982
 20
145.03
 11
221.1495760577
 21
145.03
  0
LINE
  5
5C0
100
AcDbEntity
  8
0
100
AcDbLine
 62
7
  6
CONTINUOUS
 10
92.529119516
 20
149.2246225505
 11
92.2283536902
 21
149.2564391635
  0
LINE
  5
5C1
100
AcDbEntity
  8
0
100
AcDbLine
 62
7
  6
CONTINUOUS
 10
76.2894177831
 20
156.8579207938
 11
76.5548023742
 21
156.8166467916
  0
LINE
  5
5C2
100
AcDbEntity
  8
0
100
AcDbLine
 62
7
  6
CONTINUOUS
 10
77.9614846611
 20
159.8315105072
 11
77.6961003054
 21
159.8727845477
  0
LINE
  5
5C3
100
AcDbEntity
  8
0
100
AcDbLine
 62
7
  6
CONTINUOUS
 10
95.959854145
 20
155.6370126021
 11
95.5864233572
 21
155.7019495467
  0
LINE
  5
5C4
100
AcDbEntity
  8
0
100
AcDbLine
 62
7
  6
CONTINUOUS
 10
98.2407739274
 20
156.4773836871
 11
98.5753106358
 21
156.4143371312
  0
LINE
  5
5C5
100
AcDbEntity
  8
0
100
AcDbLine
 62
7
  6
CONTINUOUS
 10
98.6679102109
 20
156.9056876362
 11
98.417007621
 21
156.9529725641
  0
LINE
  5
5C6
100
AcDbEntity
  8
0
100
AcDbLine
 62
7
  6
CONTINUOUS
 10
96.0429130237
 20
159.5204000224
 11
97.799229747
 21
159.1894057917
  0
LINE
  5
5C7
100
AcDbEntity
  8
0
100
AcDbLine
 62
7
  6
CONTINUOUS
 10
98.3010344582
 20
159.0948360241
 11
99.5555464704
 21
158.858411561
  0
LINE
  5
5C8
100
AcDbEntity
  8
0
100
AcDbLine
 62
7
  6
CONTINUOUS
 10
100.0663166382
 20
159.2709539262
 11
96.1355125988
 21
160.0117505273
  0
LINE
  5
5C9
100
AcDbEntity
  8
BEZUGSACHSEN
100
AcDbLine
 62
7
  6
CONTINUOUS
 10
215.3693789242
 20
124.1963574796
 11
215.3739423099
 21
124.1945971848
  0
LINE
  5
5CA
100
AcDbEntity
  8
0
100
AcDbLine
 62
7
  6
CONTINUOUS
 10
229.8098300956
 20
50.03
 11
221.1495760577
 21
65.03
  0
LINE
  5
5CB
100
AcDbEntity
  8
0
100
AcDbLine
 62
7
  6
CONTINUOUS
 10
219.6588893313
 20
43.6981526995
 11
219.5500488102
 21
43.9829672322
  0
LINE
  5
5CC
100
AcDbEntity
  8
0
100
AcDbLine
 62
7
  6
CONTINUOUS
 10
215.5546449835
 20
40.9662232759
 11
215.6823641875
 21
40.5518447487
  0
LINE
  5
5CD
100
AcDbEntity
  8
0
100
AcDbLine
 62
7
  6
CONTINUOUS
 10
201.7272424401
 20
44.0900113218
 11
201.7722160056
 21
43.7184453221
  0
LINE
  5
5CE
100
AcDbEntity
  8
0
100
AcDbLine
 62
7
  6
CONTINUOUS
 10
202.2182799138
 20
153.8178531845
 11
202.2198481441
 21
154.120293128
  0
LINE
  5
5CF
100
AcDbEntity
  8
0
100
AcDbLine
 62
7
  6
CONTINUOUS
 10
202.2182799138
 20
43.8178531845
 11
202.2198481441
 21
44.120293128
  0
LINE
  5
5D0
100
AcDbEntity
  8
0
100
AcDbLine
 62
7
  6
CONTINUOUS
 10
200.1551318876
 20
158.5308877448
 11
200.1513804818
 21
158.0237102397
  0
LINE
  5
5D1
100
AcDbEntity
  8
0
100
AcDbLine
 62
7
  6
CONTINUOUS
 10
200.1551318876
 20
48.5308877448
 11
200.1513804818
 21
48.0237102397
  0
LINE
  5
5D2
100
AcDbEntity
  8
0
100
AcDbLine
 62
7
  6
CONTINUOUS
 10
204.0957703608
 20
158.1585454568
 11
204.099521774
 21
158.665722963
  0
LINE
  5
5D3
100
AcDbEntity
  8
0
100
AcDbLine
 62
7
  6
CONTINUOUS
 10
204.0957703608
 20
48.1585454568
 11
204.099521774
 21
48.665722963
  0
LINE
  5
5D4
100
AcDbEntity
  8
0
100
AcDbLine
 62
7
  6
CONTINUOUS
 10
200.5713954628
 20
158.0920094575
 11
200.5885222357
 21
158.5169333914
  0
LINE
  5
5D5
100
AcDbEntity
  8
0
100
AcDbLine
 62
7
  6
CONTINUOUS
 10
203.6795067341
 20
158.5974237357
 11
203.6623802674
 21
158.1724979192
  0
LINE
  5
5D6
100
AcDbEntity
  8
0
100
AcDbLine
 62
7
  6
CONTINUOUS
 10
200.5713954628
 20
48.0920094575
 11
200.5885222357
 21
48.5169333914
  0
LINE
  5
5D7
100
AcDbEntity
  8
0
100
AcDbLine
 62
7
  6
CONTINUOUS
 10
208.3522079653
 20
149.0376388542
 11
208.798225814
 21
152.3659984125
  0
LINE
  5
5D8
100
AcDbEntity
  8
0
100
AcDbLine
 62
7
  6
CONTINUOUS
 10
208.3042801467
 20
152.1464383277
 11
207.732342639
 21
148.4031497313
  0
LINE
  5
5D9
100
AcDbEntity
  8
0
100
AcDbLine
 62
7
  6
CONTINUOUS
 10
215.6734077003
 20
151.8025567019
 11
215.5405918338
 21
151.344997547
  0
LINE
  5
5DA
100
AcDbEntity
  8
0
100
AcDbLine
 62
7
  6
CONTINUOUS
 10
219.5590278062
 20
154.285277961
 11
219.6858264158
 21
154.6050848157
  0
LINE
  5
5DB
100
AcDbEntity
  8
0
100
AcDbLine
 62
7
  6
CONTINUOUS
 10
224.5351178918
 20
156.9118547023
 11
224.6959183376
 21
157.3055519066
  0
LWPOLYLINE
  5
5DC
100
AcDbEntity
  8
RUNDUNGEN
100
AcDbPolyline
 62
7
  6
CONTINUOUS
 90
14
 70
0
 10
215.7247728204
 20
86.014429406
 10
216.0628959916
 20
86.1862173621
 10
216.401672548
 20
86.390314812
 10
216.7336561001
 20
86.6266610152
 10
217.0552692024
 20
86.8967754343
 10
217.361066831
 20
87.2001849029
 10
217.6465587899
 20
87.5364976579
 10
217.9068114707
 20
87.9040737709
 10
218.1375211095
 20
88.301206274
 10
218.3334640365
 20
88.7230553797
 10
218.4934268104
 20
89.173233137
 10
218.6132942967
 20
89.6526134956
 10
218.6877676703
 20
90.1636330298
 10
218.7097379875
 20
90.6335798059
  0
LINE
  5
5DD
100
AcDbEntity
  8
0
100
AcDbLine
 62
7
  6
CONTINUOUS
 10
92.6970686206
 20
38.7352463581
 11
93.1044735479
 21
38.8572123204
  0
LINE
  5
5DE
100
AcDbEntity
  8
0
100
AcDbLine
 62
7
  6
CONTINUOUS
 10
203.4555490252
 20
152.742126002
 11
203.1506766045
 21
152.7377830789
  0
LINE
  5
5DF
100
AcDbEntity
  8
0
100
AcDbLine
 62
7
  6
CONTINUOUS
 10
78.4555490252
 20
152.742126002
 11
78.1506766045
 21
152.7377830789
  0
LINE
  5
5E0
100
AcDbEntity
  8
0
100
AcDbLine
 62
7
  6
CONTINUOUS
 10
202.8342968092
 20
155.0363005202
 11
202.5294243885
 21
155.031957597
  0
LINE
  5
5E1
100
AcDbEntity
  8
0
100
AcDbLine
 62
7
  6
CONTINUOUS
 10
77.8342968092
 20
155.0363005202
 11
77.5294243885
 21
155.031957597
  0
LINE
  5
5E2
100
AcDbEntity
  8
0
100
AcDbLine
 62
7
  6
CONTINUOUS
 10
84.0252204048
 20
154.03
 11
90.953423635
 21
154.03
  0
LINE
  5
5E3
100
AcDbEntity
  8
0
100
AcDbLine
 62
7
  6
CONTINUOUS
 10
209.0252204048
 20
154.03
 11
215.953423635
 21
154.03
  0
LINE
  5
5E4
100
AcDbEntity
  8
0
100
AcDbLine
 62
7
  6
CONTINUOUS
 10
77.0053191891
 20
157.2276182548
 11
76.4879258448
 21
157.2279127646
  0
LINE
  5
5E5
100
AcDbEntity
  8
0
100
AcDbLine
 62
7
  6
CONTINUOUS
 10
202.0053191891
 20
157.2276182548
 11
201.4879258448
 21
157.2279127646
  0
LINE
  5
5E6
100
AcDbEntity
  8
0
100
AcDbLine
 62
7
  6
CONTINUOUS
 10
77.2455833728
 20
159.4618130654
 11
77.7629765286
 21
159.4615204573
  0
LINE
  5
5E7
100
AcDbEntity
  8
0
100
AcDbLine
 62
7
  6
CONTINUOUS
 10
202.2455833728
 20
159.4618130654
 11
202.7629765286
 21
159.4615204573
  0
LINE
  5
5E8
100
AcDbEntity
  8
0
100
AcDbLine
 62
7
  6
CONTINUOUS
 10
76.5548023742
 20
156.8166467916
 11
76.9881924162
 21
156.8026943208
  0
LINE
  5
5E9
100
AcDbEntity
  8
0
100
AcDbLine
 62
7
  6
CONTINUOUS
 10
77.6961003054
 20
159.8727845477
 11
77.2627098396
 21
159.8867388819
  0
LINE
  5
5EA
100
AcDbEntity
  8
0
100
AcDbLine
 62
7
  6
CONTINUOUS
 10
201.5548023742
 20
156.8166467916
 11
201.9881924162
 21
156.8026943208
  0
LINE
  5
5EB
100
AcDbEntity
  8
0
100
AcDbLine
 62
7
  6
CONTINUOUS
 10
95.4306735682
 20
155.1972571628
 11
95.7352085733
 21
155.1822849656
  0
LINE
  5
5EC
100
AcDbEntity
  8
0
100
AcDbLine
 62
7
  6
CONTINUOUS
 10
220.4306735682
 20
155.1972571628
 11
220.7352085733
 21
155.1822849656
  0
LINE
  5
5ED
100
AcDbEntity
  8
0
100
AcDbLine
 62
7
  6
CONTINUOUS
 10
217.529119516
 20
149.2246225505
 11
217.2283536902
 21
149.2564391635
  0
LWPOLYLINE
  5
5EE
100
AcDbEntity
  8
BEZUGSACHSEN
100
AcDbPolyline
 62
7
  6
CONTINUOUS
 90
6
 70
0
 10
215.1638666871
 20
124.2836189201
 10
214.8941361015
 20
124.4211282417
 10
214.6187856694
 20
124.5863956238
 10
214.3338179381
 20
124.7822093501
 10
214.0339474049
 20
125.0141398933
 10
213.8156635041
 20
125.1991071042
  0
LINE
  5
5EF
100
AcDbEntity
  8
0
100
AcDbLine
 62
7
  6
CONTINUOUS
 10
222.6115329314
 20
47.2743721889
 11
222.717068133
 21
46.9152820078
  0
LINE
  5
5F0
100
AcDbEntity
  8
0
100
AcDbLine
 62
7
  6
CONTINUOUS
 10
216.1229728749
 20
40.7882003804
 11
216.0354844119
 21
41.1275816932
  0
LINE
  5
5F1
100
AcDbEntity
  8
0
100
AcDbLine
 62
7
  6
CONTINUOUS
 10
215.5405918338
 20
41.344997547
 11
215.5546449835
 21
40.9662232759
  0
LINE
  5
5F2
100
AcDbEntity
  8
0
100
AcDbLine
 62
7
  6
CONTINUOUS
 10
203.6795067341
 20
48.5974237357
 11
203.6623802674
 21
48.1724979192
  0
LINE
  5
5F3
100
AcDbEntity
  8
0
100
AcDbLine
 62
7
  6
CONTINUOUS
 10
216.0354844119
 20
151.1275816932
 11
216.0616620313
 21
151.4313586973
  0
LINE
  5
5F4
100
AcDbEntity
  8
0
100
AcDbLine
 62
7
  6
CONTINUOUS
 10
219.0967291067
 20
154.5176048131
 11
219.0388263896
 21
154.1478334259
  0
LINE
  5
5F5
100
AcDbEntity
  8
0
100
AcDbLine
 62
7
  6
CONTINUOUS
 10
221.1355125988
 20
160.0117505273
 11
221.0429130237
 21
159.5204000224
  0
LINE
  5
5F6
100
AcDbEntity
  8
0
100
AcDbLine
 62
7
  6
CONTINUOUS
 10
220.6570814753
 20
157.47310633
 11
220.5490486082
 21
156.8998639181
  0
LINE
  5
5F7
100
AcDbEntity
  8
0
100
AcDbLine
 62
7
  6
CONTINUOUS
 10
222.799229747
 20
159.1894057917
 11
222.5368642915
 21
157.7972460668
  0
LINE
  5
5F8
100
AcDbEntity
  8
0
100
AcDbLine
 62
7
  6
CONTINUOUS
 10
223.007802485
 20
157.5388928366
 11
223.3010344582
 21
159.0948360241
  0
LINE
  5
5F9
100
AcDbEntity
  8
0
100
AcDbLine
 62
7
  6
CONTINUOUS
 10
224.5555464704
 20
158.858411561
 11
224.2623144972
 21
157.3024683735
  0
LINE
  5
5FA
100
AcDbEntity
  8
0
100
AcDbLine
 62
7
  6
CONTINUOUS
 10
224.6959183376
 20
157.3055519066
 11
225.0663166382
 21
159.2709539262
  0
LINE
  5
5FB
100
AcDbEntity
  8
0
100
AcDbLine
 62
7
  6
CONTINUOUS
 10
201.8234614273
 20
44.5566406786
 11
201.7272424401
 21
44.0900113218
  0
LINE
  5
5FC
100
AcDbEntity
  8
RUNDUNGEN
100
AcDbLine
 62
7
  6
CONTINUOUS
 10
213.5410776697
 20
84.6197778711
 11
213.8153418975
 21
84.8606108412
  0
LWPOLYLINE
  5
5FD
100
AcDbEntity
  8
RUNDUNGEN
100
AcDbPolyline
 62
7
  6
CONTINUOUS
 90
7
 70
0
 10
213.8156606875
 20
84.8608904219
 10
214.0340596682
 20
85.0459517705
 10
214.3339631864
 20
85.2778966498
 10
214.6188606915
 20
85.4736526731
 10
214.8941275354
 20
85.6388669982
 10
215.1638435387
 20
85.7763703743
 10
215.7247728204
 20
86.014429406
  0
LINE
  5
5FE
100
AcDbEntity
  8
0
100
AcDbLine
 62
7
  6
CONTINUOUS
 10
92.8630891017
 20
149.307195607
 11
92.529119516
 21
149.2246225505
  0
LINE
  5
5FF
100
AcDbEntity
  8
0
100
AcDbLine
 62
7
  6
CONTINUOUS
 10
95.5490486082
 20
156.8998639181
 11
97.6115329314
 21
157.2743721889
  0
LINE
  5
600
100
AcDbEntity
  8
0
100
AcDbLine
 62
7
  6
CONTINUOUS
 10
97.5368642915
 20
157.7972460668
 11
95.6570814753
 21
157.47310633
  0
LINE
  5
601
100
AcDbEntity
  8
0
100
AcDbLine
 62
7
  6
CONTINUOUS
 10
76.9881924162
 20
156.8026943208
 11
77.744219382
 21
156.9256329128
  0
LINE
  5
602
100
AcDbEntity
  8
0
100
AcDbLine
 62
7
  6
CONTINUOUS
 10
77.5933401625
 20
157.3232371596
 11
77.0053191891
 21
157.2276182548
  0
LINE
  5
603
100
AcDbEntity
  8
0
100
AcDbLine
 62
7
  6
CONTINUOUS
 10
95.5864233572
 20
155.7019495467
 11
95.1151456316
 21
155.631965692
  0
LINE
  5
604
100
AcDbEntity
  8
0
100
AcDbLine
 62
7
  6
CONTINUOUS
 10
77.4797471971
 20
154.496202184
 11
77.855214829
 21
154.5480783679
  0
LINE
  5
605
100
AcDbEntity
  8
0
100
AcDbLine
 62
7
  6
CONTINUOUS
 10
98.5753106358
 20
156.4143371312
 11
98.8416462391
 21
156.4489439202
  0
LINE
  5
606
100
AcDbEntity
  8
0
100
AcDbLine
 62
7
  6
CONTINUOUS
 10
98.9342458143
 20
156.9402944251
 11
98.6679102109
 21
156.9056876362
  0
LINE
  5
607
100
AcDbEntity
  8
0
100
AcDbLine
 62
7
  6
CONTINUOUS
 10
215.953423635
 20
166.03
 11
209.0252204048
 21
166.03
  0
LINE
  5
608
100
AcDbEntity
  8
0
100
AcDbLine
 62
7
  6
CONTINUOUS
 10
90.953423635
 20
166.03
 11
84.0252204048
 21
166.03
  0
LINE
  5
609
100
AcDbEntity
  8
0
100
AcDbLine
 62
7
  6
CONTINUOUS
 10
202.6961003054
 20
159.8727845477
 11
202.2627098396
 21
159.8867388819
  0
LINE
  5
60A
100
AcDbEntity
  8
0
100
AcDbLine
 62
7
  6
CONTINUOUS
 10
201.2894177831
 20
156.8579207938
 11
201.5548023742
 21
156.8166467916
  0
LINE
  5
60B
100
AcDbEntity
  8
0
100
AcDbLine
 62
7
  6
CONTINUOUS
 10
202.9614846611
 20
159.8315105072
 11
202.6961003054
 21
159.8727845477
  0
LINE
  5
60C
100
AcDbEntity
  8
0
100
AcDbLine
 62
7
  6
CONTINUOUS
 10
220.959854145
 20
155.6370126021
 11
220.5864233572
 21
155.7019495467
  0
LINE
  5
60D
100
AcDbEntity
  8
0
100
AcDbLine
 62
7
  6
CONTINUOUS
 10
202.8907788145
 20
152.3618725738
 11
203.3593289728
 21
152.2754982274
  0
LINE
  5
60E
100
AcDbEntity
  8
0
100
AcDbLine
 62
7
  6
CONTINUOUS
 10
223.2407739274
 20
156.4773836871
 11
223.5753106358
 21
156.4143371312
  0
LINE
  5
60F
100
AcDbEntity
  8
0
100
AcDbLine
 62
7
  6
CONTINUOUS
 10
202.855214829
 20
154.5480783679
 11
205.9232825825
 21
153.8008550965
  0
LINE
  5
610
100
AcDbEntity
  8
0
100
AcDbLine
 62
7
  6
CONTINUOUS
 10
205.5509503462
 20
154.3538603818
 11
202.8342968092
 21
155.0363005202
  0
LINE
  5
611
100
AcDbEntity
  8
0
100
AcDbLine
 62
7
  6
CONTINUOUS
 10
216.868206485
 20
148.8700891029
 11
217.3228682938
 21
148.7276705161
  0
LINE
  5
612
100
AcDbEntity
  8
0
100
AcDbLine
 62
7
  6
CONTINUOUS
 10
203.1506766045
 20
152.7377830789
 11
202.8698597295
 21
152.8500963083
  0
LINE
  5
613
100
AcDbEntity
  8
BEZUGSACHSEN
100
AcDbLine
 62
7
  6
CONTINUOUS
 10
213.8153418975
 20
125.1993891588
 11
213.5418306623
 21
125.4395610957
  0
LINE
  5
614
100
AcDbEntity
  8
BEZUGSACHSEN
100
AcDbLine
 62
7
  6
CONTINUOUS
 10
213.54109439
 20
125.4402271677
 11
213.5166366147
 21
125.4626797503
  0
LINE
  5
615
100
AcDbEntity
  8
0
100
AcDbLine
 62
7
  6
CONTINUOUS
 10
219.0388263896
 20
44.1478334259
 11
219.1187154272
 21
43.6781329957
  0
LINE
  5
616
100
AcDbEntity
  8
0
100
AcDbLine
 62
7
  6
CONTINUOUS
 10
223.0451368159
 20
47.2774559562
 11
223.007802485
 21
47.5388928366
  0
LINE
  5
617
100
AcDbEntity
  8
0
100
AcDbLine
 62
7
  6
CONTINUOUS
 10
201.7272424401
 20
154.0900113218
 11
201.7722160056
 21
153.7184453221
  0
LWPOLYLINE
  5
618
100
AcDbEntity
  8
BEZUGSACHSEN
100
AcDbPolyline
 62
7
  6
CONTINUOUS
 90
15
 70
0
 10
218.7097379893
 20
119.4264206408
 10
218.6899680591
 20
119.8722631309
 10
218.6174019265
 20
120.3864651283
 10
218.4988139246
 20
120.8688577427
 10
218.3395989434
 20
121.3218985251
 10
218.1439882625
 20
121.7463560013
 10
217.913315791
 20
122.1457892039
 10
217.6528683303
 20
122.5153635405
 10
217.3670404543
 20
122.8533550952
 10
217.0607623336
 20
123.1582075278
 10
216.7384891889
 20
123.429599786
 10
216.4057237255
 20
123.6670303095
 10
216.0660852118
 20
123.8720179182
 10
215.7270117978
 20
124.0445282532
 10
215.1638666871
 20
124.2836189201
  0
LINE
  5
619
100
AcDbEntity
  8
0
100
AcDbLine
 62
7
  6
CONTINUOUS
 10
215.5405918338
 20
151.344997547
 11
215.5546449835
 21
150.9662232759
  0
LINE
  5
61A
100
AcDbEntity
  8
0
100
AcDbLine
 62
7
  6
CONTINUOUS
 10
217.6790455694
 20
115.03
 11
217.6790455694
 21
116.53
  0
LINE
  5
61B
100
AcDbEntity
  8
BEZUGSACHSEN
100
AcDbLine
 62
7
  6
CONTINUOUS
 10
218.7097383795
 20
119.4264718608
 11
218.7097383795
 21
116.53
  0
LINE
  5
61C
100
AcDbEntity
  8
RUNDUNGEN
100
AcDbLine
 62
7
  6
CONTINUOUS
 10
218.7097383795
 20
95.03
 11
218.7097383795
 21
90.6335281392
  0
LINE
  5
61D
100
AcDbEntity
  8
0
100
AcDbLine
 62
7
  6
CONTINUOUS
 10
221.8498612872
 20
95.03
 11
221.8498612872
 21
93.53
  0
LINE
  5
61E
100
AcDbEntity
  8
0
100
AcDbLine
 62
7
  6
CONTINUOUS
 10
219.5500488102
 20
153.9829672322
 11
219.5590278062
 21
154.285277961
  0
LINE
  5
61F
100
AcDbEntity
  8
0
100
AcDbLine
 62
7
  6
CONTINUOUS
 10
219.5500488102
 20
43.9829672322
 11
219.5590278062
 21
44.285277961
  0
LINE
  5
620
100
AcDbEntity
  8
0
100
AcDbLine
 62
7
  6
CONTINUOUS
 10
216.0354844119
 20
41.1275816932
 11
216.0616620313
 21
41.4313586973
  0
LINE
  5
621
100
AcDbEntity
  8
0
100
AcDbLine
 62
7
  6
CONTINUOUS
 10
208.3522079653
 20
39.0376388542
 11
208.798225814
 21
42.3659984125
  0
LINE
  5
622
100
AcDbEntity
  8
0
100
AcDbLine
 62
7
  6
CONTINUOUS
 10
208.3042801467
 20
42.1464383277
 11
207.732342639
 21
38.4031497313
  0
LINE
  5
623
100
AcDbEntity
  8
0
100
AcDbLine
 62
7
  6
CONTINUOUS
 10
200.3402646529
 20
48.9831313659
 11
200.1551318876
 21
48.5308877448
  0
LINE
  5
624
100
AcDbEntity
  8
0
100
AcDbLine
 62
7
  6
CONTINUOUS
 10
203.9106378796
 20
47.7062999495
 11
204.0957703608
 21
48.1585454568
  0
LINE
  5
625
100
AcDbEntity
  8
0
100
AcDbLine
 62
7
  6
CONTINUOUS
 10
202.2198481441
 20
44.120293128
 11
202.3385544467
 21
44.4011386938
  0
LINE
  5
626
100
AcDbEntity
  8
0
100
AcDbLine
 62
7
  6
CONTINUOUS
 10
200.5885222357
 20
48.5169333914
 11
200.7164024329
 21
48.7910119093
  0
LINE
  5
627
100
AcDbEntity
  8
0
100
AcDbLine
 62
7
  6
CONTINUOUS
 10
203.6623802674
 20
48.1724979192
 11
203.5345000702
 21
47.8984194013
  0
LINE
  5
628
100
AcDbEntity
  8
0
100
AcDbLine
 62
7
  6
CONTINUOUS
 10
203.829067982
 20
65.03
 11
195.1688139442
 21
50.03
  0
LINE
  5
629
100
AcDbEntity
  8
0
100
AcDbLine
 62
7
  6
CONTINUOUS
 10
201.1000432598
 20
49.6132475011
 11
200.861409403
 21
49.4900143611
  0
LINE
  5
62A
100
AcDbEntity
  8
0
100
AcDbLine
 62
7
  6
CONTINUOUS
 10
201.5066828737
 20
49.76380029
 11
201.1000432598
 21
49.6132475011
  0
LINE
  5
62B
100
AcDbEntity
  8
0
100
AcDbLine
 62
7
  6
CONTINUOUS
 10
202.744219382
 20
46.9256329128
 11
203.1508594197
 21
47.0761838382
  0
LINE
  5
62C
100
AcDbEntity
  8
0
100
AcDbLine
 62
7
  6
CONTINUOUS
 10
201.1669194831
 20
49.2019834107
 11
201.6575623994
 21
49.3661941605
  0
LINE
  5
62D
100
AcDbEntity
  8
0
100
AcDbLine
 62
7
  6
CONTINUOUS
 10
203.0839828903
 20
47.4874498112
 11
202.5933401625
 21
47.3232371596
  0
LINE
  5
62E
100
AcDbEntity
  8
0
100
AcDbLine
 62
7
  6
CONTINUOUS
 10
76.6575623994
 20
159.3661941605
 11
77.2455833728
 21
159.4618130654
  0
LINE
  5
62F
100
AcDbEntity
  8
0
100
AcDbLine
 62
7
  6
CONTINUOUS
 10
77.2627098396
 20
159.8867388819
 11
76.5066828737
 21
159.76380029
  0
LINE
  5
630
100
AcDbEntity
  8
0
100
AcDbLine
 62
7
  6
CONTINUOUS
 10
221.1495760577
 20
175.03
 11
203.829067982
 21
175.03
  0
LINE
  5
631
100
AcDbEntity
  8
0
100
AcDbLine
 62
7
  6
CONTINUOUS
 10
96.1495760577
 20
175.03
 11
78.829067982
 21
175.03
  0
LINE
  5
632
100
AcDbEntity
  8
RUNDUNGEN
100
AcDbLine
 62
7
  6
CONTINUOUS
 10
228.9893220199
 20
178.03
 11
226.8071430832
 21
178.03
  0
LINE
  5
633
100
AcDbEntity
  8
RUNDUNGEN
100
AcDbLine
 62
7
  6
CONTINUOUS
 10
73.1715009566
 20
178.03
 11
70.9893220199
 21
178.03
  0
LINE
  5
634
100
AcDbEntity
  8
BEZUGSACHSEN
100
AcDbLine
 62
7
  6
CONTINUOUS
 10
73.1715009566
 20
178.03
 11
226.8071430832
 21
178.03
  0
LINE
  5
635
100
AcDbEntity
  8
0
100
AcDbLine
 62
7
  6
CONTINUOUS
 10
223.6679102109
 20
156.9056876362
 11
223.417007621
 21
156.9529725641
  0
LINE
  5
636
100
AcDbEntity
  8
0
100
AcDbLine
 62
7
  6
CONTINUOUS
 10
221.0429130237
 20
159.5204000224
 11
222.799229747
 21
159.1894057917
  0
LINE
  5
637
100
AcDbEntity
  8
0
100
AcDbLine
 62
7
  6
CONTINUOUS
 10
223.3010344582
 20
159.0948360241
 11
224.5555464704
 21
158.858411561
  0
LINE
  5
638
100
AcDbEntity
  8
0
100
AcDbLine
 62
7
  6
CONTINUOUS
 10
225.0663166382
 20
159.2709539262
 11
221.1355125988
 21
160.0117505273
  0
LINE
  5
639
100
AcDbEntity
  8
0
100
AcDbLine
 62
7
  6
CONTINUOUS
 10
200.9266553702
 20
156.9677866793
 11
201.2894177831
 21
156.8579207938
  0
LINE
  5
63A
100
AcDbEntity
  8
0
100
AcDbLine
 62
7
  6
CONTINUOUS
 10
203.3242471328
 20
159.7216446313
 11
202.9614846611
 21
159.8315105072
  0
LINE
  5
63B
100
AcDbEntity
  8
0
100
AcDbLine
 62
7
  6
CONTINUOUS
 10
220.7352085733
 20
155.1822849656
 11
221.0597154818
 21
155.0498871827
  0
LINE
  5
63C
100
AcDbEntity
  8
0
100
AcDbLine
 62
7
  6
CONTINUOUS
 10
201.4879258448
 20
157.2279127646
 11
200.930406776
 21
157.4749641843
  0
LINE
  5
63D
100
AcDbEntity
  8
0
100
AcDbLine
 62
7
  6
CONTINUOUS
 10
202.7629765286
 20
159.4615204573
 11
203.320495727
 21
159.2144671262
  0
LINE
  5
63E
100
AcDbEntity
  8
0
100
AcDbLine
 62
7
  6
CONTINUOUS
 10
204.8617489698
 20
149.9270237373
 11
205.5241936627
 21
149.5753605051
  0
LINE
  5
63F
100
AcDbEntity
  8
0
100
AcDbLine
 62
7
  6
CONTINUOUS
 10
207.732342639
 20
148.4031497313
 11
208.3947873319
 21
148.0514864992
  0
LINE
  5
640
100
AcDbEntity
  8
0
100
AcDbLine
 62
7
  6
CONTINUOUS
 10
210.27032457
 20
151.5845248614
 11
209.8286947747
 21
151.8189670161
  0
LINE
  5
641
100
AcDbEntity
  8
0
100
AcDbLine
 62
7
  6
CONTINUOUS
 10
208.798225814
 20
152.3659984125
 11
208.2093849639
 21
152.6785885484
  0
LINE
  5
642
100
AcDbEntity
  8
0
100
AcDbLine
 62
7
  6
CONTINUOUS
 10
207.1789160031
 20
153.2256199447
 11
206.7372862079
 21
153.4600620995
  0
LINE
  5
643
100
AcDbEntity
  8
0
100
AcDbLine
 62
7
  6
CONTINUOUS
 10
217.2283536902
 20
149.2564391635
 11
216.9607915119
 21
149.4026456561
  0
LINE
  5
644
100
AcDbEntity
  8
0
100
AcDbLine
 62
7
  6
CONTINUOUS
 10
202.5634201436
 20
152.5433118595
 11
202.8907788145
 21
152.3618725738
  0
LINE
  5
645
100
AcDbEntity
  8
0
100
AcDbLine
 62
7
  6
CONTINUOUS
 10
200.6345205864
 20
157.1735659794
 11
200.9266553702
 21
156.9677866793
  0
LINE
  5
646
100
AcDbEntity
  8
0
100
AcDbLine
 62
7
  6
CONTINUOUS
 10
202.8698597295
 20
152.8500963083
 11
202.5665566044
 21
153.1481917465
  0
LINE
  5
647
100
AcDbEntity
  8
0
100
AcDbLine
 62
7
  6
CONTINUOUS
 10
200.930406776
 20
157.4749641843
 11
200.7222749884
 21
157.694403328
  0
LINE
  5
648
100
AcDbEntity
  8
0
100
AcDbLine
 62
7
  6
CONTINUOUS
 10
202.1670334268
 20
152.9796594101
 11
202.5634201436
 21
152.5433118595
  0
LINE
  5
649
100
AcDbEntity
  8
0
100
AcDbLine
 62
7
  6
CONTINUOUS
 10
200.3156350684
 20
157.5438524218
 11
200.6345205864
 21
157.1735659794
  0
LINE
  5
64A
100
AcDbEntity
  8
0
100
AcDbLine
 62
7
  6
CONTINUOUS
 10
201.9808683739
 20
153.2561604706
 11
202.1670334268
 21
152.9796594101
  0
LINE
  5
64B
100
AcDbEntity
  8
0
100
AcDbLine
 62
7
  6
CONTINUOUS
 10
202.5665566044
 20
153.1481917465
 11
202.3803904862
 21
153.4246943892
  0
LINE
  5
64C
100
AcDbEntity
  8
0
100
AcDbLine
 62
7
  6
CONTINUOUS
 10
203.688255874
 20
152.3964988853
 11
203.4555490252
 21
152.742126002
  0
LINE
  5
64D
100
AcDbEntity
  8
0
100
AcDbLine
 62
7
  6
CONTINUOUS
 10
195.1688139442
 20
160.03
 11
203.829067982
 21
145.03
  0
LINE
  5
64E
100
AcDbEntity
  8
0
100
AcDbLine
 62
7
  6
CONTINUOUS
 10
201.7722160056
 20
153.7184453221
 11
201.9808683739
 21
153.2561604706
  0
LINE
  5
64F
100
AcDbEntity
  8
0
100
AcDbLine
 62
7
  6
CONTINUOUS
 10
202.3803904862
 20
153.4246943892
 11
202.2182799138
 21
153.8178531845
  0
LINE
  5
650
100
AcDbEntity
  8
0
100
AcDbLine
 62
7
  6
CONTINUOUS
 10
200.7222749884
 20
157.694403328
 11
200.5713954628
 21
158.0920094575
  0
LINE
  5
651
100
AcDbEntity
  8
0
100
AcDbLine
 62
7
  6
CONTINUOUS
 10
203.5286275146
 20
158.9950279826
 11
203.6795067341
 21
158.5974237357
  0
LINE
  5
652
100
AcDbEntity
  8
0
100
AcDbLine
 62
7
  6
CONTINUOUS
 10
200.1513804818
 20
158.0237102397
 11
200.3156350684
 21
157.5438524218
  0
LINE
  5
653
100
AcDbEntity
  8
0
100
AcDbLine
 62
7
  6
CONTINUOUS
 10
204.099521774
 20
158.665722963
 11
203.93526718
 21
159.1455807798
  0
LINE
  5
654
100
AcDbEntity
  8
0
100
AcDbLine
 62
7
  6
CONTINUOUS
 10
232.3128843924
 20
95.03
 11
232.3128843924
 21
93.53
  0
LINE
  5
655
100
AcDbEntity
  8
0
100
AcDbLine
 62
7
  6
CONTINUOUS
 10
232.3994650312
 20
115.03
 11
232.3994650312
 21
116.53
  0
LINE
  5
656
100
AcDbEntity
  8
0
100
AcDbLine
 62
7
  6
CONTINUOUS
 10
219.0967291067
 20
44.5176048131
 11
219.0388263896
 21
44.1478334259
  0
LINE
  5
657
100
AcDbEntity
  8
0
100
AcDbLine
 62
7
  6
CONTINUOUS
 10
221.1355125988
 20
50.0117505273
 11
221.0429130237
 21
49.5204000224
  0
LINE
  5
658
100
AcDbEntity
  8
0
100
AcDbLine
 62
7
  6
CONTINUOUS
 10
220.6570814753
 20
47.47310633
 11
220.5490486082
 21
46.8998639181
  0
LINE
  5
659
100
AcDbEntity
  8
0
100
AcDbLine
 62
7
  6
CONTINUOUS
 10
222.799229747
 20
49.1894057917
 11
222.5368642915
 21
47.7972460668
  0
LINE
  5
65A
100
AcDbEntity
  8
0
100
AcDbLine
 62
7
  6
CONTINUOUS
 10
223.007802485
 20
47.5388928366
 11
223.3010344582
 21
49.0948360241
  0
LINE
  5
65B
100
AcDbEntity
  8
0
100
AcDbLine
 62
7
  6
CONTINUOUS
 10
215.6734077003
 20
41.8025567019
 11
215.5405918338
 21
41.344997547
  0
LINE
  5
65C
100
AcDbEntity
  8
0
100
AcDbLine
 62
7
  6
CONTINUOUS
 10
206.7372862079
 20
43.4600620995
 11
204.8617489698
 21
39.9270237373
  0
LINE
  5
65D
100
AcDbEntity
  8
0
100
AcDbLine
 62
7
  6
CONTINUOUS
 10
205.7024291936
 20
40.4442917827
 11
207.1789160031
 21
43.2256199447
  0
LINE
  5
65E
100
AcDbEntity
  8
0
100
AcDbLine
 62
7
  6
CONTINUOUS
 10
209.0252204048
 20
56.03
 11
205.5611187896
 21
50.03
  0
LINE
  5
65F
100
AcDbEntity
  8
0
100
AcDbLine
 62
7
  6
CONTINUOUS
 10
200.5521478463
 20
49.2708697273
 11
200.3402646529
 21
48.9831313659
  0
LINE
  5
660
100
AcDbEntity
  8
0
100
AcDbLine
 62
7
  6
CONTINUOUS
 10
203.6987546568
 20
47.4185615833
 11
203.9106378796
 21
47.7062999495
  0
LINE
  5
661
100
AcDbEntity
  8
0
100
AcDbLine
 62
7
  6
CONTINUOUS
 10
202.0593058021
 20
44.8158918668
 11
201.8234614273
 21
44.5566406786
  0
LINE
  5
662
100
AcDbEntity
  8
0
100
AcDbLine
 62
7
  6
CONTINUOUS
 10
200.7164024329
 20
48.7910119093
 11
201.1669194831
 21
49.2019834107
  0
LINE
  5
663
100
AcDbEntity
  8
0
100
AcDbLine
 62
7
  6
CONTINUOUS
 10
203.5345000702
 20
47.8984194013
 11
203.0839828903
 21
47.4874498112
  0
LINE
  5
664
100
AcDbEntity
  8
0
100
AcDbLine
 62
7
  6
CONTINUOUS
 10
200.861409403
 20
49.4900143611
 11
200.5521478463
 21
49.2708697273
  0
LINE
  5
665
100
AcDbEntity
  8
0
100
AcDbLine
 62
7
  6
CONTINUOUS
 10
203.3894930412
 20
47.1994169399
 11
203.6987546568
 21
47.4185615833
  0
LINE
  5
666
100
AcDbEntity
  8
0
100
AcDbLine
 62
7
  6
CONTINUOUS
 10
204.6007721459
 20
46.5270325601
 11
204.2477907147
 21
46.2893741341
  0
LINE
  5
667
100
AcDbEntity
  8
0
100
AcDbLine
 62
7
  6
CONTINUOUS
 10
202.2004985525
 20
44.910955357
 11
202.0593058021
 21
44.8158918668
  0
LINE
  5
668
100
AcDbEntity
  8
0
100
AcDbLine
 62
7
  6
CONTINUOUS
 10
202.3385544467
 20
44.4011386938
 11
202.4797471971
 21
44.496202184
  0
LINE
  5
669
100
AcDbEntity
  8
0
100
AcDbLine
 62
7
  6
CONTINUOUS
 10
205.9232825825
 20
43.8008550965
 11
206.2762640137
 21
44.0385135224
  0
LINE
  5
66A
100
AcDbEntity
  8
0
100
AcDbLine
 62
7
  6
CONTINUOUS
 10
203.1508594197
 20
47.0761838382
 11
203.3894930412
 21
47.1994169399
  0
LINE
  5
66B
100
AcDbEntity
  8
0
100
AcDbLine
 62
7
  6
CONTINUOUS
 10
202.5294243885
 20
45.031957597
 11
202.2004985525
 21
44.910955357
  0
LINE
  5
66C
100
AcDbEntity
  8
0
100
AcDbLine
 62
7
  6
CONTINUOUS
 10
203.3593289728
 20
42.2754982274
 11
203.688255874
 21
42.3964988853
  0
LINE
  5
66D
100
AcDbEntity
  8
0
100
AcDbLine
 62
7
  6
CONTINUOUS
 10
220.1461109782
 20
45.0948045814
 11
220.4306735682
 21
45.1972571628
  0
LINE
  5
66E
100
AcDbEntity
  8
0
100
AcDbLine
 62
7
  6
CONTINUOUS
 10
221.3532572078
 20
155.4546506859
 11
220.959854145
 21
155.6370126021
  0
LINE
  5
66F
100
AcDbEntity
  8
0
100
AcDbLine
 62
7
  6
CONTINUOUS
 10
223.0053048196
 20
156.6065602436
 11
223.2407739274
 21
156.4773836871
  0
LINE
  5
670
100
AcDbEntity
  8
0
100
AcDbLine
 62
7
  6
CONTINUOUS
 10
223.417007621
 20
156.9529725641
 11
223.1815385132
 21
157.0821491206
  0
LINE
  5
671
100
AcDbEntity
  8
0
100
AcDbLine
 62
7
  6
CONTINUOUS
 10
203.616381946
 20
159.515865336
 11
203.3242471328
 21
159.7216446313
  0
LINE
  5
672
100
AcDbEntity
  8
0
100
AcDbLine
 62
7
  6
CONTINUOUS
 10
216.5604136783
 20
149.0912925998
 11
216.868206485
 21
148.8700891029
  0
LINE
  5
673
100
AcDbEntity
  8
0
100
AcDbLine
 62
7
  6
CONTINUOUS
 10
219.5920075518
 20
153.0260706317
 11
221.7277799469
 21
151.4771703227
  0
LINE
  5
674
100
AcDbEntity
  8
0
100
AcDbLine
 62
7
  6
CONTINUOUS
 10
222.0213215329
 20
151.881933633
 11
219.8855491378
 21
153.4308339419
  0
LINE
  5
675
100
AcDbEntity
  8
0
100
AcDbLine
 62
7
  6
CONTINUOUS
 10
221.0597154818
 20
155.0498871827
 11
223.195487877
 21
153.5009868738
  0
LINE
  5
676
100
AcDbEntity
  8
0
100
AcDbLine
 62
7
  6
CONTINUOUS
 10
203.320495727
 20
159.2144671262
 11
203.5286275146
 21
158.9950279826
  0
LINE
  5
677
100
AcDbEntity
  8
0
100
AcDbLine
 62
7
  6
CONTINUOUS
 10
216.9607915119
 20
149.4026456561
 11
216.7264340467
 21
149.6632420588
  0
LINE
  5
678
100
AcDbEntity
  8
0
100
AcDbLine
 62
7
  6
CONTINUOUS
 10
203.93526718
 20
159.1455807798
 11
203.616381946
 21
159.515865336
  0
LINE
  5
679
100
AcDbEntity
  8
0
100
AcDbLine
 62
7
  6
CONTINUOUS
 10
216.2858253593
 20
149.4268864271
 11
216.5604136783
 21
149.0912925998
  0
LINE
  5
67A
100
AcDbEntity
  8
0
100
AcDbLine
 62
7
  6
CONTINUOUS
 10
204.2477907147
 20
156.2893741341
 11
205.5509503462
 21
154.3538603818
  0
LINE
  5
67B
100
AcDbEntity
  8
0
100
AcDbLine
 62
7
  6
CONTINUOUS
 10
206.2762640137
 20
154.0385135224
 11
204.6007721459
 21
156.5270325601
  0
LINE
  5
67C
100
AcDbEntity
  8
0
100
AcDbLine
 62
7
  6
CONTINUOUS
 10
205.5611187896
 20
160.03
 11
209.0252204048
 21
154.03
  0
LINE
  5
67D
100
AcDbEntity
  8
0
100
AcDbLine
 62
7
  6
CONTINUOUS
 10
215.6823641875
 20
150.5518447487
 11
216.2858253593
 21
149.4268864271
  0
LINE
  5
67E
100
AcDbEntity
  8
0
100
AcDbLine
 62
7
  6
CONTINUOUS
 10
216.7264340467
 20
149.6632420588
 11
216.1229728749
 21
150.7882003804
  0
LINE
  5
67F
100
AcDbEntity
  8
0
100
AcDbLine
 62
7
  6
CONTINUOUS
 10
217.7768390305
 20
152.641165375
 11
219.1849151637
 21
150.0162625021
  0
LINE
  5
680
100
AcDbEntity
  8
0
100
AcDbLine
 62
7
  6
CONTINUOUS
 10
215.5546449835
 20
150.9662232759
 11
215.6823641875
 21
150.5518447487
  0
LINE
  5
681
100
AcDbEntity
  8
0
100
AcDbLine
 62
7
  6
CONTINUOUS
 10
216.1229728749
 20
150.7882003804
 11
216.0354844119
 21
151.1275816932
  0
LINE
  5
682
100
AcDbEntity
  8
0
100
AcDbLine
 62
7
  6
CONTINUOUS
 10
219.0388263896
 20
154.1478334259
 11
219.1187154272
 21
153.6781329957
  0
LINE
  5
683
100
AcDbEntity
  8
0
100
AcDbLine
 62
7
  6
CONTINUOUS
 10
223.0451368159
 20
157.2774559562
 11
223.007802485
 21
157.5388928366
  0
LINE
  5
684
100
AcDbEntity
  8
0
100
AcDbLine
 62
7
  6
CONTINUOUS
 10
233.2918752722
 20
115.03
 11
233.2918752722
 21
116.53
  0
LINE
  5
685
100
AcDbEntity
  8
0
100
AcDbLine
 62
7
  6
CONTINUOUS
 10
233.8788571841
 20
115.03
 11
233.8788571841
 21
116.53
  0
LINE
  5
686
100
AcDbEntity
  8
0
100
AcDbLine
 62
7
  6
CONTINUOUS
 10
235.143775729
 20
95.03
 11
235.143775729
 21
93.53
  0
LINE
  5
687
100
AcDbEntity
  8
0
100
AcDbLine
 62
7
  6
CONTINUOUS
 10
235.3144131446
 20
115.03
 11
235.3144131446
 21
116.53
  0
LINE
  5
688
100
AcDbEntity
  8
0
100
AcDbLine
 62
7
  6
CONTINUOUS
 10
236.5862946158
 20
115.03
 11
236.5862946158
 21
116.53
  0
LINE
  5
689
100
AcDbEntity
  8
0
100
AcDbLine
 62
7
  6
CONTINUOUS
 10
237.4192774241
 20
115.03
 11
237.4192774241
 21
116.53
  0
LINE
  5
68A
100
AcDbEntity
  8
0
100
AcDbLine
 62
7
  6
CONTINUOUS
 10
238.4813440485
 20
95.03
 11
238.4813440485
 21
93.53
  0
LINE
  5
68B
100
AcDbEntity
  8
0
100
AcDbLine
 62
7
  6
CONTINUOUS
 10
239.3418833159
 20
95.03
 11
239.3418833159
 21
93.53
  0
LINE
  5
68C
100
AcDbEntity
  8
0
100
AcDbLine
 62
7
  6
CONTINUOUS
 10
240.0777863116
 20
95.03
 11
240.0777863116
 21
93.53
  0
LINE
  5
68D
100
AcDbEntity
  8
0
100
AcDbLine
 62
7
  6
CONTINUOUS
 10
240.0965107003
 20
115.03
 11
240.0965107003
 21
116.53
  0
LINE
  5
68E
100
AcDbEntity
  8
0
100
AcDbLine
 62
7
  6
CONTINUOUS
 10
224.5555464704
 20
48.858411561
 11
224.2623144972
 21
47.3024683735
  0
LINE
  5
68F
100
AcDbEntity
  8
0
100
AcDbLine
 62
7
  6
CONTINUOUS
 10
224.6959183376
 20
47.3055519066
 11
225.0663166382
 21
49.2709539262
  0
LINE
  5
690
100
AcDbEntity
  8
0
100
AcDbLine
 62
7
  6
CONTINUOUS
 10
219.5590278062
 20
44.285277961
 11
219.6858264158
 21
44.6050848157
  0
LINE
  5
691
100
AcDbEntity
  8
0
100
AcDbLine
 62
7
  6
CONTINUOUS
 10
224.5351178918
 20
46.9118547023
 11
224.6959183376
 21
47.3055519066
  0
LINE
  5
692
100
AcDbEntity
  8
0
100
AcDbLine
 62
7
  6
CONTINUOUS
 10
219.2724511213
 20
44.9048719667
 11
219.0967291067
 21
44.5176048131
  0
LINE
  5
693
100
AcDbEntity
  8
0
100
AcDbLine
 62
7
  6
CONTINUOUS
 10
216.0616620313
 20
41.4313586973
 11
216.2015048648
 21
41.6995309946
  0
LINE
  5
694
100
AcDbEntity
  8
0
100
AcDbLine
 62
7
  6
CONTINUOUS
 10
209.8286947747
 20
41.8189670161
 11
208.3522079653
 21
39.0376388542
  0
LINE
  5
695
100
AcDbEntity
  8
0
100
AcDbLine
 62
7
  6
CONTINUOUS
 10
208.3947873319
 20
38.0514864992
 11
210.27032457
 21
41.5845248614
  0
LINE
  5
696
100
AcDbEntity
  8
0
100
AcDbLine
 62
7
  6
CONTINUOUS
 10
215.953423635
 20
44.03
 11
219.4175252502
 21
50.03
  0
LINE
  5
697
100
AcDbEntity
  8
0
100
AcDbLine
 62
7
  6
CONTINUOUS
 10
215.8866850525
 20
42.1101214213
 11
215.6734077003
 21
41.8025567019
  0
LINE
  5
698
100
AcDbEntity
  8
0
100
AcDbLine
 62
7
  6
CONTINUOUS
 10
219.4681456053
 20
45.1747143021
 11
219.2724511213
 21
44.9048719667
  0
LINE
  5
699
100
AcDbEntity
  8
0
100
AcDbLine
 62
7
  6
CONTINUOUS
 10
205.5241936627
 20
39.5753605051
 11
208.3042801467
 21
42.1464383277
  0
LINE
  5
69A
100
AcDbEntity
  8
0
100
AcDbLine
 62
7
  6
CONTINUOUS
 10
216.2015048648
 20
41.6995309946
 11
216.4550129685
 21
41.9320984799
  0
LINE
  5
69B
100
AcDbEntity
  8
0
100
AcDbLine
 62
7
  6
CONTINUOUS
 10
219.7816593807
 20
45.4620524083
 11
219.4681456053
 21
45.1747143021
  0
LINE
  5
69C
100
AcDbEntity
  8
0
100
AcDbLine
 62
7
  6
CONTINUOUS
 10
208.2093849639
 20
42.6785885484
 11
205.7024291936
 21
40.4442917827
  0
LINE
  5
69D
100
AcDbEntity
  8
0
100
AcDbLine
 62
7
  6
CONTINUOUS
 10
216.2136284942
 20
42.382081819
 11
215.8866850525
 21
42.1101214213
  0
LINE
  5
69E
100
AcDbEntity
  8
0
100
AcDbLine
 62
7
  6
CONTINUOUS
 10
219.8815208998
 20
44.8749271512
 11
220.1461109782
 21
45.0948045814
  0
LINE
  5
69F
100
AcDbEntity
  8
0
100
AcDbLine
 62
7
  6
CONTINUOUS
 10
224.1323805911
 20
47.072554749
 11
223.9342458143
 21
46.9402944251
  0
LINE
  5
6A0
100
AcDbEntity
  8
0
100
AcDbLine
 62
7
  6
CONTINUOUS
 10
217.9760632435
 20
43.3275043459
 11
216.2136284942
 21
42.382081819
  0
LINE
  5
6A1
100
AcDbEntity
  8
0
100
AcDbLine
 62
7
  6
CONTINUOUS
 10
216.4550129685
 20
41.9320984799
 11
217.7768390305
 21
42.641165375
  0
LINE
  5
6A2
100
AcDbEntity
  8
0
100
AcDbLine
 62
7
  6
CONTINUOUS
 10
219.1849151637
 20
40.0162625021
 11
217.8630891017
 21
39.307195607
  0
LINE
  5
6A3
100
AcDbEntity
  8
0
100
AcDbLine
 62
7
  6
CONTINUOUS
 10
218.1044735479
 20
38.8572123204
 11
219.8669082973
 21
39.8026348472
  0
LINE
  5
6A4
100
AcDbEntity
  8
0
100
AcDbLine
 62
7
  6
CONTINUOUS
 10
220.1151456316
 20
45.631965692
 11
219.7816593807
 21
45.4620524083
  0
LINE
  5
6A5
100
AcDbEntity
  8
0
100
AcDbLine
 62
7
  6
CONTINUOUS
 10
223.8416462391
 20
46.4489439202
 11
224.2224825008
 21
46.6315726609
  0
LINE
  5
6A6
100
AcDbEntity
  8
0
100
AcDbLine
 62
7
  6
CONTINUOUS
 10
217.6970686206
 20
38.7352463581
 11
218.1044735479
 21
38.8572123204
  0
LINE
  5
6A7
100
AcDbEntity
  8
0
100
AcDbLine
 62
7
  6
CONTINUOUS
 10
223.4890296029
 20
153.905750377
 11
221.3532572078
 21
155.4546506859
  0
LINE
  5
6A8
100
AcDbEntity
  8
0
100
AcDbLine
 62
7
  6
CONTINUOUS
 10
222.717068133
 20
156.9152820078
 11
223.0053048196
 21
156.6065602436
  0
LINE
  5
6A9
100
AcDbEntity
  8
0
100
AcDbLine
 62
7
  6
CONTINUOUS
 10
219.2964518709
 20
153.3433539086
 11
219.5920075518
 21
153.0260706317
  0
LINE
  5
6AA
100
AcDbEntity
  8
0
100
AcDbLine
 62
7
  6
CONTINUOUS
 10
219.8855491378
 20
153.4308339419
 11
219.6588893313
 21
153.6981526995
  0
LINE
  5
6AB
100
AcDbEntity
  8
0
100
AcDbLine
 62
7
  6
CONTINUOUS
 10
223.1815385132
 20
157.0821491206
 11
223.0451368159
 21
157.2774559562
  0
LINE
  5
6AC
100
AcDbEntity
  8
0
100
AcDbLine
 62
7
  6
CONTINUOUS
 10
219.4175252502
 20
160.03
 11
215.953423635
 21
166.03
  0
LINE
  5
6AD
100
AcDbEntity
  8
0
100
AcDbLine
 62
7
  6
CONTINUOUS
 10
219.8669082973
 20
149.8026348472
 11
217.9760632435
 21
153.3275043459
  0
LINE
  5
6AE
100
AcDbEntity
  8
0
100
AcDbLine
 62
7
  6
CONTINUOUS
 10
219.1187154272
 20
153.6781329957
 11
219.2964518709
 21
153.3433539086
  0
LINE
  5
6AF
100
AcDbEntity
  8
0
100
AcDbLine
 62
7
  6
CONTINUOUS
 10
219.6588893313
 20
153.6981526995
 11
219.5500488102
 21
153.9829672322
  0
LINE
  5
6B0
100
AcDbEntity
  8
0
100
AcDbLine
 62
7
  6
CONTINUOUS
 10
222.6115329314
 20
157.2743721889
 11
222.717068133
 21
156.9152820078
  0
LINE
  5
6B1
100
AcDbEntity
  8
0
100
AcDbLine
 62
7
  6
CONTINUOUS
 10
241.856486384
 20
95.03
 11
241.856486384
 21
93.53
  0
LINE
  5
6B2
100
AcDbEntity
  8
0
100
AcDbLine
 62
7
  6
CONTINUOUS
 10
242.7737433381
 20
115.03
 11
242.7737433381
 21
116.53
  0
LINE
  5
6B3
100
AcDbEntity
  8
0
100
AcDbLine
 62
7
  6
CONTINUOUS
 10
243.0708869445
 20
95.03
 11
243.0708869445
 21
93.53
  0
LINE
  5
6B4
100
AcDbEntity
  8
0
100
AcDbLine
 62
7
  6
CONTINUOUS
 10
243.5775649187
 20
95.03
 11
243.5775649187
 21
93.53
  0
LINE
  5
6B5
100
AcDbEntity
  8
0
100
AcDbLine
 62
7
  6
CONTINUOUS
 10
243.6661548557
 20
115.03
 11
243.6661548557
 21
116.53
  0
LINE
  5
6B6
100
AcDbEntity
  8
0
100
AcDbLine
 62
7
  6
CONTINUOUS
 10
243.9550109335
 20
115.03
 11
243.9550109335
 21
116.53
  0
LINE
  5
6B7
100
AcDbEntity
  8
0
100
AcDbLine
 62
7
  6
CONTINUOUS
 10
244.6691360041
 20
115.03
 11
244.6691360041
 21
116.53
  0
LINE
  5
6B8
100
AcDbEntity
  8
0
100
AcDbLine
 62
7
  6
CONTINUOUS
 10
245.4702469372
 20
95.03
 11
245.4702469372
 21
93.53
  0
LINE
  5
6B9
100
AcDbEntity
  8
0
100
AcDbLine
 62
7
  6
CONTINUOUS
 10
245.7700385761
 20
115.03
 11
245.7700385761
 21
116.53
  0
LINE
  5
6BA
100
AcDbEntity
  8
0
100
AcDbLine
 62
7
  6
CONTINUOUS
 10
246.1873627197
 20
95.03
 11
246.1873627197
 21
93.53
  0
LINE
  5
6BB
100
AcDbEntity
  8
0
100
AcDbLine
 62
7
  6
CONTINUOUS
 10
246.7072662069
 20
115.03
 11
246.7072662069
 21
116.53
  0
LINE
  5
6BC
100
AcDbEntity
  8
0
100
AcDbLine
 62
7
  6
CONTINUOUS
 10
248.1428221674
 20
115.03
 11
248.1428221674
 21
116.53
  0
LINE
  5
6BD
100
AcDbEntity
  8
0
100
AcDbLine
 62
7
  6
CONTINUOUS
 10
249.4147039578
 20
115.03
 11
249.4147039578
 21
116.53
  0
LINE
  5
6BE
100
AcDbEntity
  8
0
100
AcDbLine
 62
7
  6
CONTINUOUS
 10
250.2476864469
 20
115.03
 11
250.2476864469
 21
116.53
  0
LINE
  5
6BF
100
AcDbEntity
  8
0
100
AcDbLine
 62
7
  6
CONTINUOUS
 10
224.2623144972
 20
47.3024683735
 11
224.1323805911
 21
47.072554749
  0
LINE
  5
6C0
100
AcDbEntity
  8
0
100
AcDbLine
 62
7
  6
CONTINUOUS
 10
221.1495760577
 20
35.03
 11
229.8098300956
 21
50.03
  0
LINE
  5
6C1
100
AcDbEntity
  8
0
100
AcDbLine
 62
7
  6
CONTINUOUS
 10
219.6858264158
 20
44.6050848157
 11
219.8815208998
 21
44.8749271512
  0
LINE
  5
6C2
100
AcDbEntity
  8
0
100
AcDbLine
 62
7
  6
CONTINUOUS
 10
221.7277799469
 20
41.4771703227
 11
222.0213215329
 21
41.881933633
  0
LINE
  5
6C3
100
AcDbEntity
  8
0
100
AcDbLine
 62
7
  6
CONTINUOUS
 10
223.195487877
 20
43.5009868738
 11
223.4890296029
 21
43.905750377
  0
LINE
  5
6C4
100
AcDbEntity
  8
0
100
AcDbLine
 62
7
  6
CONTINUOUS
 10
224.2224825008
 20
46.6315726609
 11
224.5351178918
 21
46.9118547023
  0
LINE
  5
6C5
100
AcDbEntity
  8
0
100
AcDbLine
 62
7
  6
CONTINUOUS
 10
229.8098300956
 20
160.03
 11
221.1495760577
 21
175.03
  0
LINE
  5
6C6
100
AcDbEntity
  8
0
100
AcDbLine
 62
7
  6
CONTINUOUS
 10
252.9249197231
 20
115.03
 11
252.9249197231
 21
116.53
  0
LINE
  5
6C7
100
AcDbEntity
  8
RUNDUNGEN
100
AcDbLine
 62
7
  6
CONTINUOUS
 10
263.9893220199
 20
143.03
 11
263.9893220199
 21
67.03
  0
ARC
  5
6C8
100
AcDbEntity
  8
BEZUGSACHSEN
100
AcDbCircle
 62
7
  6
CONTINUOUS
 10
38.1265265901
 20
340.2760306172
 40
90.9625045164
100
AcDbArc
 50
294.4713788701
 51
294.6084109848
  0
ARC
  5
6C9
100
AcDbEntity
  8
BEZUGSACHSEN
100
AcDbCircle
 62
7
  6
CONTINUOUS
 10
48.3290821697
 20
317.7505331667
 40
66.2341290536
100
AcDbArc
 50
293.9605768756
 51
294.2316217848
  0
ARC
  5
6CA
100
AcDbEntity
  8
BEZUGSACHSEN
100
AcDbCircle
 62
7
  6
CONTINUOUS
 10
53.3478748233
 20
306.4090160216
 40
53.8317540628
100
AcDbArc
 50
293.4509035304
 51
293.7571777399
  0
ARC
  5
6CB
100
AcDbEntity
  8
RUNDUNGEN
100
AcDbCircle
 62
7
  6
CONTINUOUS
 10
69.9893220199
 20
258.8120910735
 40
34.0
100
AcDbArc
 50
157.5137381919
 51
180.0
  0
ARC
  5
6CC
100
AcDbEntity
  8
RUNDUNGEN
100
AcDbCircle
 62
7
  6
CONTINUOUS
 10
66.5878483832
 20
270.0256348893
 40
15.0
100
AcDbArc
 50
299.8509578399
 51
337.5437234161
  0
ARC
  5
6CD
100
AcDbEntity
  8
RUNDUNGEN
100
AcDbCircle
 62
7
  6
CONTINUOUS
 10
66.5878483832
 20
270.0256348893
 40
15.0
100
AcDbArc
 50
273.0027994821
 51
276.0082741173
  0
ARC
  5
6CE
100
AcDbEntity
  8
RUNDUNGEN
100
AcDbCircle
 62
7
  6
CONTINUOUS
 10
74.4934434222
 20
279.9884748974
 40
11.5
100
AcDbArc
 50
337.5395235166
 51
22.5153528682
  0
ARC
  5
6CF
100
AcDbEntity
  8
RUNDUNGEN
100
AcDbCircle
 62
7
  6
CONTINUOUS
 10
106.1849961825
 20
338.8544147258
 40
6.8
100
AcDbArc
 50
112.5137381919
 51
157.5412145757
  0
ARC
  5
6D0
100
AcDbEntity
  8
RUNDUNGEN
100
AcDbCircle
 62
7
  6
CONTINUOUS
 10
88.0689056603
 20
295.0291641795
 40
6.8
100
AcDbArc
 50
157.5412106142
 51
202.5180073091
  0
ARC
  5
6D1
100
AcDbEntity
  8
BEZUGSACHSEN
100
AcDbCircle
 62
7
  6
CONTINUOUS
 10
65.4525654893
 20
576.7598077341
 40
346.4997843006
100
AcDbArc
 50
292.6653238816
 51
292.8407163349
  0
ARC
  5
6D2
100
AcDbEntity
  8
RUNDUNGEN
100
AcDbCircle
 62
7
  6
CONTINUOUS
 10
149.9893220199
 20
265.7684920321
 40
105.2571428571
100
AcDbArc
 50
22.4862618081
 51
157.5137381919
  0
ARC
  5
6D3
100
AcDbEntity
  8
RUNDUNGEN
100
AcDbCircle
 62
7
  6
CONTINUOUS
 10
149.9893220199
 20
295.0256348893
 40
40.0
100
AcDbArc
 50
318.3514758921
 51
6.328251318
  0
ARC
  5
6D4
100
AcDbEntity
  8
BEZUGSACHSEN
100
AcDbCircle
 62
7
  6
CONTINUOUS
 10
149.9893220199
 20
295.0256348893
 40
40.0
100
AcDbArc
 50
348.5645182538
 51
318.3514758921
  0
ARC
  5
6D5
100
AcDbEntity
  8
RUNDUNGEN
100
AcDbCircle
 62
7
  6
CONTINUOUS
 10
193.7936478572
 20
338.8544147258
 40
6.8
100
AcDbArc
 50
22.4587853611
 51
67.48626189
  0
ARC
  5
6D6
100
AcDbEntity
  8
RUNDUNGEN
100
AcDbCircle
 62
7
  6
CONTINUOUS
 10
149.9893220199
 20
357.0110671304
 40
6.8
100
AcDbArc
 50
67.4862618081
 51
112.5137381919
  0
ARC
  5
6D7
100
AcDbEntity
  8
BEZUGSACHSEN
100
AcDbCircle
 62
7
  6
CONTINUOUS
 10
245.9552181168
 20
304.8563496092
 40
52.1384954425
100
AcDbArc
 50
246.4094772488
 51
246.5510514659
  0
ARC
  5
6D8
100
AcDbEntity
  8
RUNDUNGEN
100
AcDbCircle
 62
7
  6
CONTINUOUS
 10
229.9893220199
 20
258.8120910735
 40
34.0
100
AcDbArc
 50
0.0
 51
22.4862618081
  0
ARC
  5
6D9
100
AcDbEntity
  8
RUNDUNGEN
100
AcDbCircle
 62
7
  6
CONTINUOUS
 10
233.3907956565
 20
270.0256348893
 40
15.0
100
AcDbArc
 50
263.9917258197
 51
266.9972005119
  0
ARC
  5
6DA
100
AcDbEntity
  8
RUNDUNGEN
100
AcDbCircle
 62
7
  6
CONTINUOUS
 10
233.3907956565
 20
270.0256348893
 40
15.0
100
AcDbArc
 50
202.4562441963
 51
240.149042169
  0
ARC
  5
6DB
100
AcDbEntity
  8
RUNDUNGEN
100
AcDbCircle
 62
7
  6
CONTINUOUS
 10
225.4852006176
 20
279.9884748974
 40
11.5
100
AcDbArc
 50
157.4846488454
 51
202.4604732387
  0
ARC
  5
6DC
100
AcDbEntity
  8
RUNDUNGEN
100
AcDbCircle
 62
7
  6
CONTINUOUS
 10
211.9097383795
 20
295.0291641795
 40
6.8
100
AcDbArc
 50
337.4819932187
 51
22.4587893855
  0
ARC
  5
6DD
100
AcDbEntity
  8
BEZUGSACHSEN
100
AcDbCircle
 62
7
  6
CONTINUOUS
 10
253.8908309152
 20
322.7435518996
 40
71.7071048861
100
AcDbArc
 50
245.6375581262
 51
245.8812236525
  0
ARC
  5
6DE
100
AcDbEntity
  8
BEZUGSACHSEN
100
AcDbCircle
 62
7
  6
CONTINUOUS
 10
251.7468637962
 20
617.7496704504
 40
390.9600610508
100
AcDbArc
 50
247.1944000433
 51
247.3206787698
  0
ARC
  5
6DF
100
AcDbEntity
  8
BEZUGSACHSEN
100
AcDbCircle
 62
7
  6
CONTINUOUS
 10
368.4356430142
 20
300.6470792141
 40
35.0
100
AcDbArc
 50
339.9999706189
 51
0.0000358854
  0
ARC
  5
6E0
100
AcDbEntity
  8
BEZUGSACHSEN
100
AcDbCircle
 62
7
  6
CONTINUOUS
 10
378.5739041993
 20
270.0256348893
 40
15.0
100
AcDbArc
 50
317.170989905
 51
339.9999902997
  0
ARC
  5
6E1
100
AcDbEntity
  8
BEZUGSACHSEN
100
AcDbCircle
 62
7
  6
CONTINUOUS
 10
378.5739041993
 20
270.0256348893
 40
15.0
100
AcDbArc
 50
284.9221848687
 51
317.0658209327
  0
ARC
  5
6E2
100
AcDbEntity
  8
RUNDUNGEN
100
AcDbCircle
 62
7
  6
CONTINUOUS
 10
417.4356430142
 20
366.0256348893
 40
5.0
100
AcDbArc
 50
90.0
 51
180.0
  0
ARC
  5
6E3
100
AcDbEntity
  8
BEZUGSACHSEN
100
AcDbCircle
 62
7
  6
CONTINUOUS
 10
408.4356430142
 20
358.8110671304
 40
5.0
100
AcDbArc
 50
90.0
 51
180.0
  0
ARC
  5
6E4
100
AcDbEntity
  8
RUNDUNGEN
100
AcDbCircle
 62
7
  6
CONTINUOUS
 10
476.4356430142
 20
300.6470792141
 40
35.0
100
AcDbArc
 50
179.9999641146
 51
200.0000293811
  0
ARC
  5
6E5
100
AcDbEntity
  8
BEZUGSACHSEN
100
AcDbCircle
 62
7
  6
CONTINUOUS
 10
476.4356430142
 20
300.6470792141
 40
35.0
100
AcDbArc
 50
183.0482065368
 51
186.292069902
  0
ARC
  5
6E6
100
AcDbEntity
  8
BEZUGSACHSEN
100
AcDbCircle
 62
7
  6
CONTINUOUS
 10
476.4356430142
 20
300.6470792141
 40
35.0
100
AcDbArc
 50
192.9081170232
 51
193.1946541484
  0
ARC
  5
6E7
100
AcDbEntity
  8
BEZUGSACHSEN
100
AcDbCircle
 62
7
  6
CONTINUOUS
 10
466.2973818292
 20
270.0256348893
 40
15.0
100
AcDbArc
 50
222.9360178848
 51
255.0778303033
  0
ARC
  5
6E8
100
AcDbEntity
  8
RUNDUNGEN
100
AcDbCircle
 62
7
  6
CONTINUOUS
 10
466.2973818292
 20
270.0256348893
 40
15.0
100
AcDbArc
 50
208.1988943076
 51
217.5030858129
  0
ARC
  5
6E9
100
AcDbEntity
  8
RUNDUNGEN
100
AcDbCircle
 62
7
  6
CONTINUOUS
 10
466.2973818292
 20
270.0256348893
 40
15.0
100
AcDbArc
 50
200.0000097003
 51
202.4587854243
  0
ARC
  5
6EA
100
AcDbEntity
  8
BEZUGSACHSEN
100
AcDbCircle
 62
7
  6
CONTINUOUS
 10
466.2973818292
 20
270.0256348893
 40
15.0
100
AcDbArc
 50
202.4587854243
 51
222.829010095
  0
ARC
  5
6EB
100
AcDbEntity
  8
RUNDUNGEN
100
AcDbCircle
 62
7
  6
CONTINUOUS
 10
427.4356430142
 20
366.0256348893
 40
5.0
100
AcDbArc
 50
0.0
 51
90.0
  0
ARC
  5
6EC
100
AcDbEntity
  8
RUNDUNGEN
100
AcDbCircle
 62
7
  6
CONTINUOUS
 10
436.4356430142
 20
358.8110671304
 40
5.0
100
AcDbArc
 50
0.0
 51
90.0
  0
ARC
  5
6ED
100
AcDbEntity
  8
RUNDUNGEN
100
AcDbCircle
 62
7
  6
CONTINUOUS
 10
228.9893220199
 20
67.03
 40
35.0
100
AcDbArc
 50
270.0
 51
360.0
  0
ARC
  5
6EE
100
AcDbEntity
  8
RUNDUNGEN
100
AcDbCircle
 62
7
  6
CONTINUOUS
 10
70.9893220199
 20
67.03
 40
35.0
100
AcDbArc
 50
180.0
 51
270.0
  0
ARC
  5
6EF
100
AcDbEntity
  8
RUNDUNGEN
100
AcDbCircle
 62
7
  6
CONTINUOUS
 10
70.9893220199
 20
143.03
 40
35.0
100
AcDbArc
 50
90.0
 51
180.0
  0
ARC
  5
6F0
100
AcDbEntity
  8
RUNDUNGEN
100
AcDbCircle
 62
7
  6
CONTINUOUS
 10
228.9893220199
 20
143.03
 40
35.0
100
AcDbArc
 50
0.0
 51
90.0
  0
ARC
  5
6F1
100
AcDbEntity
  8
BEZUGSACHSEN
100
AcDbCircle
 62
7
  6
CONTINUOUS
 10
87.4893220199
 20
50.03
 40
23.0
100
AcDbArc
 50
308.4999504092
 51
231.5000495908
  0
ARC
  5
6F2
100
AcDbEntity
  8
BEZUGSACHSEN
100
AcDbCircle
 62
7
  6
CONTINUOUS
 10
87.4893220199
 20
160.03
 40
23.0
100
AcDbArc
 50
128.4999504092
 51
51.5000495908
  0
ARC
  5
6F3
100
AcDbEntity
  8
BEZUGSACHSEN
100
AcDbCircle
 62
7
  6
CONTINUOUS
 10
212.4893220199
 20
160.03
 40
23.0
100
AcDbArc
 50
128.4999504092
 51
51.5000495908
  0
ARC
  5
6F4
100
AcDbEntity
  8
BEZUGSACHSEN
100
AcDbCircle
 62
7
  6
CONTINUOUS
 10
212.4893220199
 20
50.03
 40
23.0
100
AcDbArc
 50
308.4999504092
 51
231.5000495908
  0
ARC
  5
6F5
100
AcDbEntity
  8
RUNDUNGEN
100
AcDbCircle
 62
7
  6
CONTINUOUS
 10
40.9893220199
 20
110.03
 40
5.0
100
AcDbArc
 50
90.0
 51
180.0
  0
ARC
  5
6F6
100
AcDbEntity
  8
RUNDUNGEN
100
AcDbCircle
 62
7
  6
CONTINUOUS
 10
258.9893220199
 20
110.03
 40
5.0
100
AcDbArc
 50
0.0
 51
90.0
  0
ARC
  5
6F7
100
AcDbEntity
  8
RUNDUNGEN
100
AcDbCircle
 62
7
  6
CONTINUOUS
 10
258.9893220199
 20
100.03
 40
5.0
100
AcDbArc
 50
270.0
 51
360.0
  0
ARC
  5
6F8
100
AcDbEntity
  8
RUNDUNGEN
100
AcDbCircle
 62
7
  6
CONTINUOUS
 10
40.9893220199
 20
100.03
 40
5.0
100
AcDbArc
 50
180.0
 51
270.0
  0
SPLINE
  5
6F9
100
AcDbEntity
  8
BEZUGSACHSEN
100
AcDbSpline
 62
7
  6
CONTINUOUS
 70
0
 71
3
 72
9
 73
5
 74
0
 42
0.0000001
 43
0.0000001
 44
0.0000000001
 40
0.0
 40
0.0
 40
0.0
 40
0.0
 40
0.2287114844
 40
1.0
 40
1.0
 40
1.0
 40
1.0
 10
67.9787326716
 20
255.061834354
 30
0.0
 10
68.1467782783
 20
255.0805915243
 30
0.0
 10
68.8806431666
 20
255.1701129962
 30
0.0
 10
69.6094960075
 20
255.3026015826
 30
0.0
 10
70.1650051272
 20
255.4313025233
 30
0.0
  0
LINE
  5
6FA
100
AcDbEntity
  8
BEZUGSACHSEN
100
AcDbLine
 62
7
  6
CONTINUOUS
 10
75.0346080737
 20
257.1389100099
 11
75.0893468078
 21
257.1630346308
  0
LINE
  5
6FB
100
AcDbEntity
  8
BEZUGSACHSEN
100
AcDbLine
 62
7
  6
CONTINUOUS
 10
75.0893468078
 20
257.1630346308
 11
75.1634273686
 21
257.1957901784
  0
LINE
  5
6FC
100
AcDbEntity
  8
BEZUGSACHSEN
100
AcDbLine
 62
7
  6
CONTINUOUS
 10
75.5133156162
 20
257.3520455745
 11
75.5661316315
 21
257.3758394295
  0
LINE
  5
6FD
100
AcDbEntity
  8
BEZUGSACHSEN
100
AcDbLine
 62
7
  6
CONTINUOUS
 10
75.5661316315
 20
257.3758394295
 11
75.634726124
 21
257.4068168645
  0
LINE
  5
6FE
100
AcDbEntity
  8
BEZUGSACHSEN
100
AcDbLine
 62
7
  6
CONTINUOUS
 10
75.634726124
 20
257.4068168645
 11
75.7049079604
 21
257.4385965475
  0
LINE
  5
6FF
100
AcDbEntity
  8
BEZUGSACHSEN
100
AcDbLine
 62
7
  6
CONTINUOUS
 10
75.7049079604
 20
257.4385965475
 11
75.8067103241
 21
257.4848415831
  0
LINE
  5
700
100
AcDbEntity
  8
BEZUGSACHSEN
100
AcDbLine
 62
7
  6
CONTINUOUS
 10
76.0046108753
 20
257.5751965296
 11
76.1058341239
 21
257.6216212706
  0
SPLINE
  5
701
100
AcDbEntity
  8
BEZUGSACHSEN
100
AcDbSpline
 62
7
  6
CONTINUOUS
 70
0
 71
3
 72
10
 73
6
 74
0
 42
0.0000001
 43
0.0000001
 44
0.0000000001
 40
0.0
 40
0.0
 40
0.0
 40
0.0
 40
0.4897447437
 40
0.7427852102
 40
1.0
 40
1.0
 40
1.0
 40
1.0
 10
76.1058341239
 20
257.6216212706
 30
0.0
 10
76.9375409813
 20
258.0036076548
 30
0.0
 10
78.1908172948
 20
258.6009427676
 30
0.0
 10
79.9014402963
 20
259.3532605853
 30
0.0
 10
80.7957931063
 20
259.6888205406
 30
0.0
 10
81.255724669
 20
259.8285262223
 30
0.0
  0
SPLINE
  5
702
100
AcDbEntity
  8
BEZUGSACHSEN
100
AcDbSpline
 62
7
  6
CONTINUOUS
 70
0
 71
3
 72
10
 73
6
 74
0
 42
0.0000001
 43
0.0000001
 44
0.0000000001
 40
0.0
 40
0.0
 40
0.0
 40
0.0
 40
0.2579666587
 40
0.5113703705
 40
1.0
 40
1.0
 40
1.0
 40
1.0
 10
218.7229187601
 20
259.8285259775
 30
0.0
 10
219.2161296233
 20
259.6787116517
 30
0.0
 10
220.1731227909
 20
259.3150225334
 30
0.0
 10
221.9987151772
 20
258.503101873
 30
0.0
 10
223.3369594787
 20
257.8640654135
 30
0.0
 10
224.2259259673
 20
257.4602945482
 30
0.0
  0
LINE
  5
703
100
AcDbEntity
  8
BEZUGSACHSEN
100
AcDbLine
 62
7
  6
CONTINUOUS
 10
224.2259259673
 20
257.4602945482
 11
224.3111212261
 21
257.4216592
  0
LINE
  5
704
100
AcDbEntity
  8
BEZUGSACHSEN
100
AcDbLine
 62
7
  6
CONTINUOUS
 10
224.5891865831
 20
257.2964547097
 11
224.7058762931
 21
257.2443539175
  0
LINE
  5
705
100
AcDbEntity
  8
BEZUGSACHSEN
100
AcDbLine
 62
7
  6
CONTINUOUS
 10
225.0672693634
 20
257.0848482069
 11
225.089525076
 21
257.075123579
  0
SPLINE
  5
706
100
AcDbEntity
  8
BEZUGSACHSEN
100
AcDbSpline
 62
7
  6
CONTINUOUS
 70
0
 71
3
 72
9
 73
5
 74
0
 42
0.0000001
 43
0.0000001
 44
0.0000000001
 40
0.0
 40
0.0
 40
0.0
 40
0.0
 40
0.2711337201
 40
1.0
 40
1.0
 40
1.0
 40
1.0
 10
229.8138379673
 20
255.4312618337
 30
0.0
 10
230.0091113773
 20
255.3860239097
 30
0.0
 10
230.7319547128
 20
255.2304734485
 30
0.0
 10
231.4643854203
 20
255.1216090523
 30
0.0
 10
231.9998993008
 20
255.0618353793
 30
0.0
  0
SPLINE
  5
707
100
AcDbEntity
  8
BEZUGSACHSEN
100
AcDbSpline
 62
7
  6
CONTINUOUS
 70
0
 71
3
 72
9
 73
5
 74
0
 42
0.0000001
 43
0.0000001
 44
0.0000000001
 40
0.0
 40
0.0
 40
0.0
 40
0.0
 40
0.4581184533
 40
1.0
 40
1.0
 40
1.0
 40
1.0
 10
192.3662224134
 20
255.0256348893
 30
0.0
 10
192.8020240368
 20
255.0256348893
 30
0.0
 10
193.7520408958
 20
255.1547263194
 30
0.0
 10
194.6693510513
 20
255.4094892561
 30
0.0
 10
195.160901461
 20
255.5647381859
 30
0.0
  0
LINE
  5
708
100
AcDbEntity
  8
BEZUGSACHSEN
100
AcDbLine
 62
7
  6
CONTINUOUS
 10
199.9535932552
 20
257.4299249322
 11
199.9779978123
 21
257.4401831934
  0
LINE
  5
709
100
AcDbEntity
  8
BEZUGSACHSEN
100
AcDbLine
 62
7
  6
CONTINUOUS
 10
199.9779978123
 20
257.4401831934
 11
200.0473564722
 21
257.4693357842
  0
LINE
  5
70A
100
AcDbEntity
  8
BEZUGSACHSEN
100
AcDbLine
 62
7
  6
CONTINUOUS
 10
200.0473564722
 20
257.4693357842
 11
200.1847970016
 21
257.5270895357
  0
SPLINE
  5
70B
100
AcDbEntity
  8
BEZUGSACHSEN
100
AcDbSpline
 62
7
  6
CONTINUOUS
 70
0
 71
3
 72
14
 73
10
 74
0
 42
0.0000001
 43
0.0000001
 44
0.0000000001
 40
0.0
 40
0.0
 40
0.0
 40
0.0
 40
0.2349888094
 40
0.3590285064
 40
0.4860768121
 40
0.6150428512
 40
0.7446118186
 40
0.8733757953
 40
1.0
 40
1.0
 40
1.0
 40
1.0
 10
200.1847970016
 20
257.5270895357
 30
0.0
 10
201.5689071601
 20
258.1085645168
 30
0.0
 10
203.6877560171
 20
258.9913209303
 30
0.0
 10
206.6354620269
 20
259.9751165961
 30
0.0
 10
208.996689817
 20
260.556929132
 30
0.0
 10
211.4469522467
 20
260.8709529899
 30
0.0
 10
213.9296061356
 20
260.8425823643
 30
0.0
 10
216.3684236295
 20
260.4792403892
 30
0.0
 10
217.9488666857
 20
260.0636466893
 30
0.0
 10
218.7229187601
 20
259.8285259775
 30
0.0
  0
SPLINE
  5
70C
100
AcDbEntity
  8
BEZUGSACHSEN
100
AcDbSpline
 62
7
  6
CONTINUOUS
 70
0
 71
3
 72
14
 73
10
 74
0
 42
0.0000001
 43
0.0000001
 44
0.0000000001
 40
0.0
 40
0.0
 40
0.0
 40
0.0
 40
0.1266493836
 40
0.2554402204
 40
0.3850329607
 40
0.5140139852
 40
0.641065225
 40
0.7650939611
 40
1.0
 40
1.0
 40
1.0
 40
1.0
 10
81.255724669
 20
259.8285262223
 30
0.0
 10
82.0311383793
 20
260.0640606135
 30
0.0
 10
83.6144074293
 20
260.4802836075
 30
0.0
 10
86.0576551166
 20
260.8434998775
 30
0.0
 10
88.5446529951
 20
260.8703740489
 30
0.0
 10
90.9987562456
 20
260.5538471082
 30
0.0
 10
93.3632493714
 20
259.9692877613
 30
0.0
 10
96.3143806484
 20
258.9823172242
 30
0.0
 10
98.4356711835
 20
258.0977329959
 30
0.0
 10
99.8214292691
 20
257.5155014182
 30
0.0
  0
LINE
  5
70D
100
AcDbEntity
  8
BEZUGSACHSEN
100
AcDbLine
 62
7
  6
CONTINUOUS
 10
99.8214292691
 20
257.5155014182
 11
100.0248217158
 21
257.4300212443
  0
LINE
  5
70E
100
AcDbEntity
  8
BEZUGSACHSEN
100
AcDbLine
 62
7
  6
CONTINUOUS
 10
100.0248217158
 20
257.4300212443
 11
100.1357485797
 21
257.3833932723
  0
LINE
  5
70F
100
AcDbEntity
  8
BEZUGSACHSEN
100
AcDbLine
 62
7
  6
CONTINUOUS
 10
100.1357485797
 20
257.3833932723
 11
100.2085213809
 21
257.3528057098
  0
SPLINE
  5
710
100
AcDbEntity
  8
BEZUGSACHSEN
100
AcDbSpline
 62
7
  6
CONTINUOUS
 70
0
 71
3
 72
9
 73
5
 74
0
 42
0.0000001
 43
0.0000001
 44
0.0000000001
 40
0.0
 40
0.0
 40
0.0
 40
0.0
 40
0.5418815415
 40
1.0
 40
1.0
 40
1.0
 40
1.0
 10
104.8177421319
 20
255.5647383142
 30
0.0
 10
105.3092926129
 20
255.4094893489
 30
0.0
 10
106.2266029199
 20
255.1547263886
 30
0.0
 10
107.1766199274
 20
255.0256348893
 30
0.0
 10
107.6124216264
 20
255.0256348893
 30
0.0
  0
SPLINE
  5
711
100
AcDbEntity
  8
BEZUGSACHSEN
100
AcDbSpline
 62
7
  6
CONTINUOUS
 70
0
 71
3
 72
15
 73
11
 74
0
 42
0.0000001
 43
0.0000001
 44
0.0000000001
 40
0.0
 40
0.0
 40
0.0
 40
0.0
 40
0.308431384
 40
0.4470713187
 40
0.5761579644
 40
0.6968256711
 40
0.8095097962
 40
0.9127213977
 40
0.9591644861
 40
1.0
 40
1.0
 40
1.0
 40
1.0
 10
465.2562791851
 20
255.061834354
 30
0.0
 10
464.0834114601
 20
255.1435571866
 30
0.0
 10
462.3777735395
 20
255.3343169084
 30
0.0
 10
460.2699847825
 20
255.9731615916
 30
0.0
 10
458.9209166169
 20
256.5950704515
 30
0.0
 10
457.7567816785
 20
257.3472460309
 30
0.0
 10
456.7773169192
 20
258.1809212809
 30
0.0
 10
456.0907064802
 20
258.9098311534
 30
0.0
 10
455.6184873626
 20
259.4613016176
 30
0.0
 10
455.4023066288
 20
259.7143665623
 30
0.0
 10
455.2964862085
 20
259.8285262223
 30
0.0
  0
SPLINE
  5
712
100
AcDbEntity
  8
BEZUGSACHSEN
100
AcDbSpline
 62
7
  6
CONTINUOUS
 70
0
 71
3
 72
15
 73
11
 74
0
 42
0.0000001
 43
0.0000001
 44
0.0000000001
 40
0.0
 40
0.0
 40
0.0
 40
0.0
 40
0.0408346975
 40
0.0872794135
 40
0.1904900974
 40
0.3031733804
 40
0.4238401914
 40
0.5529267094
 40
0.6915673385
 40
1.0
 40
1.0
 40
1.0
 40
1.0
 10
389.5747994924
 20
259.8285259337
 30
0.0
 10
389.4689812402
 20
259.7143686125
 30
0.0
 10
389.2527857368
 20
259.4613127053
 30
0.0
 10
388.7805946711
 20
258.9098188935
 30
0.0
 10
388.0939659485
 20
258.1809265123
 30
0.0
 10
387.1145151173
 20
257.3472534548
 30
0.0
 10
385.9503858961
 20
256.5950828307
 30
0.0
 10
384.601324204
 20
255.9731653454
 30
0.0
 10
382.4935293357
 20
255.3343180416
 30
0.0
 10
380.7878849229
 20
255.143557811
 30
0.0
 10
379.6150129195
 20
255.0618346804
 30
0.0
  0
ENDSEC
  0
SECTION
  2
OBJECTS
  0
DICTIONARY
  5
C
100
AcDbDictionary
280
0
281
1
  3
ACAD_GROUP
350
D
  3
ACAD_MLINESTYLE
350
17
  3
ACAD_LAYOUT
350
1A
  3
ACAD_PLOTSETTINGS
350
19
  3
ACAD_PLOTSTYLENAME
350
E
  0
DICTIONARY
  5
D
102
{ACAD_REACTORS
330
C
102
}
100
AcDbDictionary
280
0
281
1
  0
ACDBDICTIONARYWDFLT
  5
E
102
{ACAD_REACTORS
330
C
102
}
100
AcDbDictionary
281
1
  3
Normal
350
F
100
AcDbDictionaryWithDefault
340
F
  0
DICTIONARY
  5
17
102
{ACAD_REACTORS
330
C
102
}
100
AcDbDictionary
280
0
281
1
  3
Standard
350
18
  0
DICTIONARY
  5
19
102
{ACAD_REACTORS
330
C
102
}
100
AcDbDictionary
281
1
  0
DICTIONARY
  5
1A
102
{ACAD_REACTORS
330
C
102
}
100
AcDbDictionary
281
1
  3
Model
350
713
  3
Layout1
350
714
  0
ACDBPLACEHOLDER
  5
F
102
{ACAD_REACTORS
330
E
102
}
  0
MLINESTYLE
  5
18
102
{ACAD_REACTORS
330
17
102
}
100
AcDbMlineStyle
  2
STANDARD
 70
0
  3

 62
256
 51
90.0
 52
90.0
 71
2
 49
0.5
 62
256
  6
BYLAYER
 49
-0.5
 62
256
  6
BYLAYER
  0
LAYOUT
  5
713
102
{ACAD_REACTORS
330
1A
102
}
100
AcDbPlotSettings
  1

  2
none_device
  4
ISO_A2_(594.00_x_420.00_MM)
  6

 40
0.0
 41
0.0
 42
0.0
 43
0.0
 44
594.0
 45
420.0
 46
0.0
 47
0.0
 48
0.0
 49
0.0
140
0.0
141
0.0
142
1.0
143
1.0
 70
1024
 72
1
 73
0
 74
0
  7

 75
0
147
1.0
148
0.0
149
0.0
100
AcDbLayout
  1
Model
 70
0
 71
0
 10
0.0
 20
0.0
 11
594.0
 21
420.0
 12
0.0
 22
0.0
 32
0.0
 14
0.0
 24
0.0
 34
0.0
 15
0.0
 25
0.0
 35
0.0
146
0.0
 13
0.0
 23
0.0
 33
0.0
 16
1.0
 26
0.0
 36
0.0
 17
0.0
 27
1.0
 37
0.0
 76
0
330
20B
345
0
346
0
  0
LAYOUT
  5
714
102
{ACAD_REACTORS
330
1A
102
}
100
AcDbPlotSettings
  1

  2
none_device
  4
ISO_A2_(594.00_x_420.00_MM)
  6

 40
0.0
 41
0.0
 42
0.0
 43
0.0
 44
594.0
 45
420.0
 46
0.0
 47
0.0
 48
0.0
 49
0.0
140
0.0
141
0.0
142
1.0
143
1.0
 70
0
 72
1
 73
0
 74
0
  7

 75
0
147
1.0
148
0.0
149
0.0
100
AcDbLayout
  1
Layout1
 70
0
 71
1
 10
0.0
 20
0.0
 11
594.0
 21
420.0
 12
0.0
 22
0.0
 32
0.0
 14
0.0
 24
0.0
 34
0.0
 15
0.0
 25
0.0
 35
0.0
146
0.0
 13
0.0
 23
0.0
 33
0.0
 16
1.0
 26
0.0
 36
0.0
 17
0.0
 27
1.0
 37
0.0
 76
0
330
20C
345
0
346
0
  0
ENDSEC
  0
EOF
