999
DXF file: B-ABA-M16-5t-7906268-M35157-P-2.dxf
999
Pro/ENGINEER 2011490 by Parametric Technology Corporation
  0
SECTION
  2
HEADER
  9
$ACADVER
  1
AC1015
  9
$DWGCODEPAGE
  3
ANSI_1252
  9
$EXTMAX
 10
420.0
 20
297.0
 30
0.0
  9
$EXTMIN
 10
0.0
 20
0.0
 30
0.0
  9
$LIMMIN
 10
0.0
 20
0.0
  9
$LIMMAX
 10
420.0
 20
297.0
  9
$VIEWCTR
 10
210.0
 20
148.5
  9
$VIEWSIZE
 40
297.0
  9
$CLAYER
  8
0
  9
$LTSCALE
 40
23.1
  9
$CELTYPE
  6
BYLAYER
  9
$DIMSCALE
 40
1.0
  9
$DIMASZ
 40
3.5
  9
$DIMEXO
 40
2.625
  9
$DIMDLI
 40
15.96
  9
$DIMEXE
 40
7.56
  9
$DIMCEN
 40
3.78
  9
$DIMLFAC
 40
1.0
  9
$DIMBLK
  1
_FILLED
  9
$DIMTXT
 40
3.5
  9
$DIMTOL
 70
1
  9
$DIMLIM
 70
0
  9
$DIMTFAC
 40
1.0
  9
$DIMTP
 40
0.005
  9
$DIMTM
 40
0.005
  9
$PDMODE
 70
3
  9
$PDSIZE
 40
0.3125
  9
$HANDSEED
  5
6D1
  9
$TILEMODE
 70
1
  9
$MEASUREMENT
 70
1
  9
$INSUNITS
 70
4
  0
ENDSEC
  0
SECTION
  2
CLASSES
  0
CLASS
  1
ACDBDICTIONARYWDFLT
  2
AcDbDictionaryWithDefault
  3
AutoCAD 2000
 90
0
280
0
281
0
  0
CLASS
  1
ACDBPLACEHOLDER
  2
AcDbPlaceHolder
  3
AutoCAD 2000
 90
0
280
0
281
0
  0
CLASS
  1
LAYOUT
  2
AcDbLayout
  3
AutoCAD 2000
 90
0
280
0
281
0
  0
ENDSEC
  0
SECTION
  2
TABLES
  0
TABLE
  2
VPORT
  5
8
100
AcDbSymbolTable
 70
2
  0
VPORT
  5
1F4
100
AcDbSymbolTableRecord
100
AcDbViewportTableRecord
  2
*ACTIVE
 70
0
 10
0.0
 20
0.0
 11
1.0
 21
1.0
 12
210.0
 22
148.5
 13
0.0
 23
0.0
 14
1.0
 24
1.0
 15
0.0
 25
0.0
 16
0.0
 26
0.0
 36
1.0
 17
0.0
 27
0.0
 37
0.0
 40
297.0
 41
1.4141414141
 42
50.0
 43
0.0
 44
0.0
 50
0.0
 51
0.0
 71
0
 72
100
 73
1
 74
1
 75
0
 76
0
 77
0
 78
0
  0
ENDTAB
  0
TABLE
  2
LTYPE
  5
5
100
AcDbSymbolTable
 70
6
  0
LTYPE
  5
14
100
AcDbSymbolTableRecord
100
AcDbLinetypeTableRecord
  2
BYBLOCK
 70
0
  3

 72
65
 73
0
 40
0.0
  0
LTYPE
  5
15
100
AcDbSymbolTableRecord
100
AcDbLinetypeTableRecord
  2
BYLAYER
 70
0
  3

 72
65
 73
0
 40
0.0
  0
LTYPE
  5
16
100
AcDbSymbolTableRecord
100
AcDbLinetypeTableRecord
  2
CONTINUOUS
 70
64
  3
Solid line
 72
65
 73
0
 40
0.0
  0
LTYPE
  5
1F5
100
AcDbSymbolTableRecord
100
AcDbLinetypeTableRecord
  2
CENTER
 70
64
  3
____ _ ____ _ ____ _ ____ _ ____ _ ____ _ ____
 72
65
 73
4
 40
0.6
 49
0.375
 74
0
 49
-0.075
 74
0
 49
0.075
 74
0
 49
-0.075
 74
0
  0
LTYPE
  5
1F6
100
AcDbSymbolTableRecord
100
AcDbLinetypeTableRecord
  2
HIDDEN
 70
64
  3
- - - - - - - - - - - - - - - - - - - -
 72
65
 73
2
 40
0.2
 49
0.1
 74
0
 49
-0.1
 74
0
  0
LTYPE
  5
1F7
100
AcDbSymbolTableRecord
100
AcDbLinetypeTableRecord
  2
PHANTOM
 70
64
  3
_____ _ _ _____ _ _ _____ _ _ _____
 72
65
 73
6
 40
0.8
 49
0.45
 74
0
 49
-0.05
 74
0
 49
0.1
 74
0
 49
-0.05
 74
0
 49
0.1
 74
0
 49
-0.05
 74
0
  0
LTYPE
  5
1F8
100
AcDbSymbolTableRecord
100
AcDbLinetypeTableRecord
  2
DOT
 70
64
  3
. . . . . . . . . . . . . . . . . . . .
 72
65
 73
2
 40
0.2
 49
0.1
 74
0
 49
-0.1
 74
0
  0
LTYPE
  5
1F9
100
AcDbSymbolTableRecord
100
AcDbLinetypeTableRecord
  2
DASHED
 70
64
  3
- - - - - - - - - - - - - - - - - - - -
 72
65
 73
2
 40
0.2
 49
0.1
 74
0
 49
-0.1
 74
0
  0
ENDTAB
  0
TABLE
  2
LAYER
  5
2
100
AcDbSymbolTable
 70
36
  0
LAYER
  5
10
100
AcDbSymbolTableRecord
100
AcDbLayerTableRecord
  2
0
 70
0
 62
7
  6
CONTINUOUS
370
-3
390
F
  0
LAYER
  5
1FA
100
AcDbSymbolTableRecord
100
AcDbLayerTableRecord
  2
DEFAULT_1
 70
0
 62
7
  6
CENTER
370
-3
390
F
  0
LAYER
  5
1FB
100
AcDbSymbolTableRecord
100
AcDbLayerTableRecord
  2
DEFAULT_2
 70
0
 62
8
  6
HIDDEN
370
-3
390
F
  0
LAYER
  5
1FC
100
AcDbSymbolTableRecord
100
AcDbLayerTableRecord
  2
DEFAULT_3
 70
0
 62
7
  6
PHANTOM
370
-3
390
F
  0
LAYER
  5
1FD
100
AcDbSymbolTableRecord
100
AcDbLayerTableRecord
  2
AUSFORMSCHRAEGEN
 70
0
 62
7
  6
CONTINUOUS
370
-3
390
F
  0
LAYER
  5
1FE
100
AcDbSymbolTableRecord
100
AcDbLayerTableRecord
  2
BEZUGSACHSEN
 70
0
 62
7
  6
CONTINUOUS
370
-3
390
F
  0
LAYER
  5
1FF
100
AcDbSymbolTableRecord
100
AcDbLayerTableRecord
  2
BEZUGSEBENEN
 70
0
 62
7
  6
CONTINUOUS
370
-3
390
F
  0
LAYER
  5
200
100
AcDbSymbolTableRecord
100
AcDbLayerTableRecord
  2
FASEN
 70
0
 62
7
  6
CONTINUOUS
370
-3
390
F
  0
LAYER
  5
201
100
AcDbSymbolTableRecord
100
AcDbLayerTableRecord
  2
FLAECHEN
 70
0
 62
7
  6
CONTINUOUS
370
-3
390
F
  0
LAYER
  5
202
100
AcDbSymbolTableRecord
100
AcDbLayerTableRecord
  2
GEWINDE
 70
0
 62
7
  6
CONTINUOUS
370
-3
390
F
  0
LAYER
  5
203
100
AcDbSymbolTableRecord
100
AcDbLayerTableRecord
  2
HILFEN
 70
0
 62
7
  6
CONTINUOUS
370
-3
390
F
  0
LAYER
  5
204
100
AcDbSymbolTableRecord
100
AcDbLayerTableRecord
  2
KURVEN
 70
0
 62
7
  6
CONTINUOUS
370
-3
390
F
  0
LAYER
  5
205
100
AcDbSymbolTableRecord
100
AcDbLayerTableRecord
  2
PLATZIERUNG
 70
0
 62
7
  6
CONTINUOUS
370
-3
390
F
  0
LAYER
  5
206
100
AcDbSymbolTableRecord
100
AcDbLayerTableRecord
  2
RUNDUNGEN
 70
0
 62
7
  6
CONTINUOUS
370
-3
390
F
  0
LAYER
  5
207
100
AcDbSymbolTableRecord
100
AcDbLayerTableRecord
  2
TEIL_STARTBEZUEGE
 70
0
 62
7
  6
CONTINUOUS
370
-3
390
F
  0
LAYER
  5
208
100
AcDbSymbolTableRecord
100
AcDbLayerTableRecord
  2
ZEICHNUNGSBEMASSUNGEN
 70
0
 62
7
  6
CONTINUOUS
370
-3
390
F
  0
ENDTAB
  0
TABLE
  2
STYLE
  5
3
100
AcDbSymbolTable
 70
1
  0
STYLE
  5
11
100
AcDbSymbolTableRecord
100
AcDbTextStyleTableRecord
  2
STANDARD
 70
0
 40
0.0
 41
0.7
 50
0.0
 71
0
 42
0.2
  3
txt
  4

  0
STYLE
  5
209
100
AcDbSymbolTableRecord
100
AcDbTextStyleTableRecord
  2
TEXTSTYLE_1
 70
0
 40
0.0
 41
0.8
 50
0.0
 71
0
 42
0.2
  3
gdt
  4

  0
ENDTAB
  0
TABLE
  2
VIEW
  5
6
100
AcDbSymbolTable
 70
0
  0
ENDTAB
  0
TABLE
  2
UCS
  5
7
100
AcDbSymbolTable
 70
0
  0
ENDTAB
  0
TABLE
  2
APPID
  5
9
100
AcDbSymbolTable
 70
1
  0
APPID
  5
20A
100
AcDbSymbolTableRecord
100
AcDbRegAppTableRecord
  2
ACAD
 70
0
  0
ENDTAB
  0
TABLE
  2
BLOCK_RECORD
  5
1
100
AcDbSymbolTable
 70
0
  0
BLOCK_RECORD
  5
20B
100
AcDbSymbolTableRecord
100
AcDbBlockTableRecord
  2
*Model_Space
  0
BLOCK_RECORD
  5
20C
100
AcDbSymbolTableRecord
100
AcDbBlockTableRecord
  2
*Paper_Space
  0
ENDTAB
  0
TABLE
  2
DIMSTYLE
  5
A
100
AcDbSymbolTable
 70
1
100
AcDbDimStyleTable
 71
0
  0
DIMSTYLE
105
20D
100
AcDbSymbolTableRecord
100
AcDbDimStyleTableRecord
  2
STANDARD
 70
0
  3

  4

 40
1.0
 41
3.5
 42
0.0625
 43
0.38
 44
0.18
 45
0.0
 46
0.0
 47
0.005
 48
0.005
140
3.5
141
0.09
142
0.0
143
25.4
144
1.0
145
0.0
146
1.0
147
0.09
 71
1.0
 72
0.0
 73
0
 74
0
 75
0
 76
0
 77
1
 78
8
170
0
171
2
172
0
173
0
174
0
175
0
176
0
177
0
178
5
270
2
271
3
272
3
273
2
274
2
275
0
280
0
281
0
282
0
283
1
284
8
285
0
286
0
287
3
288
0
340
11
  0
ENDTAB
  0
ENDSEC
  0
SECTION
  2
BLOCKS
  0
BLOCK
  5
20
100
AcDbEntity
  8
0
100
AcDbBlockBegin
  2
*Model_Space
 70
0
 10
0.0
 20
0.0
 30
0.0
  3
*Model_Space
  1

  0
ENDBLK
  5
21
100
AcDbEntity
  8
0
100
AcDbBlockEnd
  0
BLOCK
  5
1C
100
AcDbEntity
  8
0
100
AcDbBlockBegin
  2
*Paper_Space
 70
0
 10
0.0
 20
0.0
 30
0.0
  3
*Paper_Space
  1

  0
ENDBLK
  5
1D
100
AcDbEntity
  8
0
100
AcDbBlockEnd
  0
ENDSEC
  0
SECTION
  2
ENTITIES
  0
MTEXT
  5
20E
100
AcDbEntity
  8
0
100
AcDbMText
 62
5
  6
CONTINUOUS
  7
STANDARD
 71
1
 72
1
 10
276.9816248583
 20
188.6507561748
 30
0.0
 11
1.0
 21
0.0
 31
0.0
 44
0.9
  1
RUD B-ABA 5t
 40
5.0
 41
47.619047619
  0
MTEXT
  5
20F
100
AcDbEntity
  8
0
100
AcDbMText
 62
5
  6
CONTINUOUS
  7
STANDARD
 71
1
 72
1
 10
102.1453476321
 20
187.5878463931
 30
0.0
 11
1.0
 21
0.0
 31
0.0
 44
0.9
  1
RUD B-ABA 5t
 40
5.0
 41
47.619047619
  0
MTEXT
  5
210
100
AcDbEntity
  8
0
100
AcDbMText
 62
5
  6
CONTINUOUS
  7
STANDARD
 71
1
 72
1
 10
103.2436077921
 20
73.2910114443
 30
0.0
 11
1.0
 21
0.0
 31
0.0
 44
0.9
  1
RUD B-ABA 5t
 40
5.0
 41
47.619047619
  0
LINE
  5
211
100
AcDbEntity
  8
0
100
AcDbLine
 62
7
  6
CONTINUOUS
 10
0.0
 20
0.0
 11
0.0
 21
297.0
  0
LINE
  5
212
100
AcDbEntity
  8
0
100
AcDbLine
 62
7
  6
CONTINUOUS
 10
0.0
 20
0.0
 11
420.0
 21
0.0
  0
LINE
  5
213
100
AcDbEntity
  8
0
100
AcDbLine
 62
7
  6
CONTINUOUS
 10
0.0
 20
297.0
 11
420.0
 21
297.0
  0
LINE
  5
214
100
AcDbEntity
  8
0
100
AcDbLine
 62
7
  6
CONTINUOUS
 10
420.0
 20
0.0
 11
420.0
 21
297.0
  0
LINE
  5
215
100
AcDbEntity
  8
RUNDUNGEN
100
AcDbLine
 62
7
  6
CONTINUOUS
 10
38.9553775079
 20
199.7851124642
 11
38.9553775079
 21
177.2931177421
  0
LINE
  5
216
100
AcDbEntity
  8
FASEN
100
AcDbLine
 62
7
  6
CONTINUOUS
 10
70.9553775117
 20
153.2931177383
 11
69.4553775126
 21
154.7931177375
  0
LINE
  5
217
100
AcDbEntity
  8
RUNDUNGEN
100
AcDbLine
 62
7
  6
CONTINUOUS
 10
52.0027956947
 20
236.5101137263
 11
40.9274179546
 21
209.7177435206
  0
LINE
  5
218
100
AcDbEntity
  8
0
100
AcDbLine
 62
7
  6
CONTINUOUS
 10
58.4600684894
 20
214.2049725016
 11
58.4112514037
 21
215.1393912369
  0
LINE
  5
219
100
AcDbEntity
  8
0
100
AcDbLine
 62
7
  6
CONTINUOUS
 10
57.4037291682
 20
214.4484550024
 11
57.3432016118
 21
213.7910124142
  0
LINE
  5
21A
100
AcDbEntity
  8
FASEN
100
AcDbLine
 62
7
  6
CONTINUOUS
 10
178.9553775078
 20
153.2931177421
 11
165.9553775081
 21
153.2931177421
  0
LINE
  5
21B
100
AcDbEntity
  8
FASEN
100
AcDbLine
 62
7
  6
CONTINUOUS
 10
83.9553775077
 20
153.2931177421
 11
70.9553775081
 21
153.2931177421
  0
LINE
  5
21C
100
AcDbEntity
  8
FASEN
100
AcDbLine
 62
7
  6
CONTINUOUS
 10
180.4553775079
 20
154.7931177421
 11
164.4553775079
 21
154.7931177421
  0
LINE
  5
21D
100
AcDbEntity
  8
FASEN
100
AcDbLine
 62
7
  6
CONTINUOUS
 10
85.4553775079
 20
154.7931177421
 11
69.4553775079
 21
154.7931177421
  0
LINE
  5
21E
100
AcDbEntity
  8
0
100
AcDbLine
 62
7
  6
CONTINUOUS
 10
57.1850401268
 20
215.0024078408
 11
57.4037291682
 21
214.4484550024
  0
LINE
  5
21F
100
AcDbEntity
  8
0
100
AcDbLine
 62
7
  6
CONTINUOUS
 10
66.3015568867
 20
220.2864128037
 11
66.2527399929
 21
221.220832106
  0
LINE
  5
220
100
AcDbEntity
  8
0
100
AcDbLine
 62
7
  6
CONTINUOUS
 10
63.5989710474
 20
197.2931177421
 11
63.5989710474
 21
198.2931177421
  0
LINE
  5
221
100
AcDbEntity
  8
BEZUGSACHSEN
100
AcDbLine
 62
7
  6
CONTINUOUS
 10
63.6787897786
 20
197.2931177421
 11
63.6787897786
 21
188.2931177421
  0
LINE
  5
222
100
AcDbEntity
  8
0
100
AcDbLine
 62
7
  6
CONTINUOUS
 10
67.1413374307
 20
198.2931177421
 11
67.1413374307
 21
198.4931177421
  0
LINE
  5
223
100
AcDbEntity
  8
0
100
AcDbLine
 62
7
  6
CONTINUOUS
 10
65.0509373124
 20
220.6166396448
 11
64.9054735351
 21
219.768963564
  0
LINE
  5
224
100
AcDbEntity
  8
0
100
AcDbLine
 62
7
  6
CONTINUOUS
 10
66.0711573916
 20
219.2485043111
 11
66.3015568867
 21
220.2864128037
  0
LINE
  5
225
100
AcDbEntity
  8
0
100
AcDbLine
 62
7
  6
CONTINUOUS
 10
61.0168979841
 20
232.4566253675
 11
58.9784325719
 21
227.8910302516
  0
LINE
  5
226
100
AcDbEntity
  8
0
100
AcDbLine
 62
7
  6
CONTINUOUS
 10
58.2989442631
 20
226.3691655757
 11
57.7893279101
 21
225.2277667967
  0
LINE
  5
227
100
AcDbEntity
  8
0
100
AcDbLine
 62
7
  6
CONTINUOUS
 10
55.7508624978
 20
220.6621716808
 11
55.2412459018
 21
219.5207723575
  0
LINE
  5
228
100
AcDbEntity
  8
0
100
AcDbLine
 62
7
  6
CONTINUOUS
 10
53.3726526882
 20
215.3356436826
 11
51.334187276
 21
210.7700485666
  0
LINE
  5
229
100
AcDbEntity
  8
0
100
AcDbLine
 62
7
  6
CONTINUOUS
 10
52.8152067294
 20
211.4777313522
 11
54.4289917664
 21
215.0921606376
  0
LINE
  5
22A
100
AcDbEntity
  8
0
100
AcDbLine
 62
7
  6
CONTINUOUS
 10
60.6537326454
 20
228.5119698384
 11
62.1825817046
 21
231.9361661754
  0
LINE
  5
22B
100
AcDbEntity
  8
0
100
AcDbLine
 62
7
  6
CONTINUOUS
 10
57.3432016118
 20
213.7910124142
 11
55.7294165747
 21
210.1765831288
  0
LINE
  5
22C
100
AcDbEntity
  8
0
100
AcDbLine
 62
7
  6
CONTINUOUS
 10
56.8951002952
 20
209.6561239366
 11
58.339013255
 21
212.8900870531
  0
LINE
  5
22D
100
AcDbEntity
  8
0
100
AcDbLine
 62
7
  6
CONTINUOUS
 10
61.6358592224
 20
233.3210485437
 11
61.0168979841
 21
232.4566253675
  0
LINE
  5
22E
100
AcDbEntity
  8
0
100
AcDbLine
 62
7
  6
CONTINUOUS
 10
62.1825817046
 20
231.9361661754
 11
62.716606236
 21
232.6103547703
  0
LINE
  5
22F
100
AcDbEntity
  8
0
100
AcDbLine
 62
7
  6
CONTINUOUS
 10
58.4112514037
 20
215.1393912369
 11
57.8889370999
 21
216.0570634211
  0
LINE
  5
230
100
AcDbEntity
  8
0
100
AcDbLine
 62
7
  6
CONTINUOUS
 10
64.9171841127
 20
221.3608254925
 11
65.0509373124
 21
220.6166396448
  0
LINE
  5
231
100
AcDbEntity
  8
0
100
AcDbLine
 62
7
  6
CONTINUOUS
 10
70.3784881972
 20
229.4176041242
 11
70.3296708174
 21
230.352022338
  0
LINE
  5
232
100
AcDbEntity
  8
BEZUGSACHSEN
100
AcDbLine
 62
7
  6
CONTINUOUS
 10
69.4553775079
 20
177.2931177421
 11
69.4553775079
 21
154.7931177421
  0
LINE
  5
233
100
AcDbEntity
  8
FASEN
100
AcDbLine
 62
7
  6
CONTINUOUS
 10
69.4553775079
 20
177.2931177421
 11
69.4553775079
 21
154.7931177421
  0
LINE
  5
234
100
AcDbEntity
  8
0
100
AcDbLine
 62
7
  6
CONTINUOUS
 10
70.5271742776
 20
188.2931177421
 11
70.5271742776
 21
198.2931177421
  0
LINE
  5
235
100
AcDbEntity
  8
0
100
AcDbLine
 62
7
  6
CONTINUOUS
 10
70.5648379429
 20
198.2931177421
 11
70.5648379429
 21
198.4931177421
  0
LINE
  5
236
100
AcDbEntity
  8
0
100
AcDbLine
 62
7
  6
CONTINUOUS
 10
70.6558087695
 20
198.2931177421
 11
70.6558087695
 21
198.4931177421
  0
LINE
  5
237
100
AcDbEntity
  8
0
100
AcDbLine
 62
7
  6
CONTINUOUS
 10
71.0348538661
 20
198.2931177421
 11
71.0348538661
 21
198.4931177421
  0
LINE
  5
238
100
AcDbEntity
  8
0
100
AcDbLine
 62
7
  6
CONTINUOUS
 10
71.1409865261
 20
198.2931177421
 11
71.1409865261
 21
198.4931177421
  0
LINE
  5
239
100
AcDbEntity
  8
0
100
AcDbLine
 62
7
  6
CONTINUOUS
 10
71.1724118839
 20
198.2931177421
 11
71.1724118839
 21
198.4931177421
  0
LINE
  5
23A
100
AcDbEntity
  8
0
100
AcDbLine
 62
7
  6
CONTINUOUS
 10
71.587991721
 20
198.2931177421
 11
71.587991721
 21
198.4931177421
  0
LINE
  5
23B
100
AcDbEntity
  8
0
100
AcDbLine
 62
7
  6
CONTINUOUS
 10
71.8892355012
 20
198.2931177421
 11
71.8892355012
 21
198.4931177421
  0
LINE
  5
23C
100
AcDbEntity
  8
0
100
AcDbLine
 62
7
  6
CONTINUOUS
 10
72.1800377727
 20
198.2931177421
 11
72.1800377727
 21
198.4931177421
  0
LINE
  5
23D
100
AcDbEntity
  8
0
100
AcDbLine
 62
7
  6
CONTINUOUS
 10
72.3669452186
 20
198.2931177421
 11
72.3669452186
 21
198.4931177421
  0
LINE
  5
23E
100
AcDbEntity
  8
0
100
AcDbLine
 62
7
  6
CONTINUOUS
 10
72.5434111608
 20
198.2931177421
 11
72.5434111608
 21
198.4931177421
  0
LINE
  5
23F
100
AcDbEntity
  8
0
100
AcDbLine
 62
7
  6
CONTINUOUS
 10
72.6159822724
 20
198.2931177421
 11
72.6159822724
 21
198.4931177421
  0
LINE
  5
240
100
AcDbEntity
  8
0
100
AcDbLine
 62
7
  6
CONTINUOUS
 10
73.6070467252
 20
198.2931177421
 11
73.6070467252
 21
198.4931177421
  0
LINE
  5
241
100
AcDbEntity
  8
0
100
AcDbLine
 62
7
  6
CONTINUOUS
 10
75.2333044872
 20
198.2931177421
 11
75.2333044872
 21
198.4931177421
  0
LINE
  5
242
100
AcDbEntity
  8
0
100
AcDbLine
 62
7
  6
CONTINUOUS
 10
69.1278676509
 20
229.7478287883
 11
68.9824043596
 21
228.9001537959
  0
LINE
  5
243
100
AcDbEntity
  8
0
100
AcDbLine
 62
7
  6
CONTINUOUS
 10
70.1480882161
 20
228.379694543
 11
70.3784881972
 21
229.4176041242
  0
LINE
  5
244
100
AcDbEntity
  8
RUNDUNGEN
100
AcDbLine
 62
7
  6
CONTINUOUS
 10
87.4049486446
 20
262.1510221095
 11
73.7861223098
 21
229.2058128815
  0
LINE
  5
245
100
AcDbEntity
  8
0
100
AcDbLine
 62
7
  6
CONTINUOUS
 10
68.9824043596
 20
228.9001537959
 11
67.4535553004
 21
225.475957459
  0
LINE
  5
246
100
AcDbEntity
  8
0
100
AcDbLine
 62
7
  6
CONTINUOUS
 10
64.9054735351
 20
219.768963564
 11
64.5657291377
 21
219.0080306818
  0
LINE
  5
247
100
AcDbEntity
  8
0
100
AcDbLine
 62
7
  6
CONTINUOUS
 10
60.4653775079
 20
206.6931177421
 11
60.974993861
 21
207.8345165211
  0
LINE
  5
248
100
AcDbEntity
  8
0
100
AcDbLine
 62
7
  6
CONTINUOUS
 10
63.0983952511
 20
212.5903445855
 11
63.692947825
 21
213.9219768572
  0
LINE
  5
249
100
AcDbEntity
  8
0
100
AcDbLine
 62
7
  6
CONTINUOUS
 10
65.7314129942
 20
218.4875714289
 11
66.0711573916
 21
219.2485043111
  0
LINE
  5
24A
100
AcDbEntity
  8
0
100
AcDbLine
 62
7
  6
CONTINUOUS
 10
68.1096228038
 20
223.8140994271
 11
70.1480882161
 21
228.379694543
  0
LINE
  5
24B
100
AcDbEntity
  8
0
100
AcDbLine
 62
7
  6
CONTINUOUS
 10
53.9916136835
 20
216.2000663145
 11
53.3726526882
 21
215.3356436826
  0
LINE
  5
24C
100
AcDbEntity
  8
0
100
AcDbLine
 62
7
  6
CONTINUOUS
 10
62.3641643739
 20
233.90849394
 11
61.6358592224
 21
233.3210485437
  0
LINE
  5
24D
100
AcDbEntity
  8
RUNDUNGEN
100
AcDbLine
 62
7
  6
CONTINUOUS
 10
123.0408619608
 20
278.5089328065
 11
90.11119455
 21
264.8598432959
  0
LINE
  5
24E
100
AcDbEntity
  8
0
100
AcDbLine
 62
7
  6
CONTINUOUS
 10
66.2527399929
 20
221.220832106
 11
65.815361842
 21
222.3287378133
  0
LINE
  5
24F
100
AcDbEntity
  8
0
100
AcDbLine
 62
7
  6
CONTINUOUS
 10
68.9941144512
 20
230.4920146359
 11
69.1278676509
 21
229.7478287883
  0
LINE
  5
250
100
AcDbEntity
  8
0
100
AcDbLine
 62
7
  6
CONTINUOUS
 10
75.5446036199
 20
198.2931177421
 11
75.5446036199
 21
198.4931177421
  0
LINE
  5
251
100
AcDbEntity
  8
0
100
AcDbLine
 62
7
  6
CONTINUOUS
 10
75.760636667
 20
198.2931177421
 11
75.760636667
 21
198.4931177421
  0
LINE
  5
252
100
AcDbEntity
  8
0
100
AcDbLine
 62
7
  6
CONTINUOUS
 10
75.9216600641
 20
198.2931177421
 11
75.9216600641
 21
198.4931177421
  0
LINE
  5
253
100
AcDbEntity
  8
0
100
AcDbLine
 62
7
  6
CONTINUOUS
 10
75.9471624883
 20
198.2931177421
 11
75.9471624883
 21
198.4931177421
  0
LINE
  5
254
100
AcDbEntity
  8
0
100
AcDbLine
 62
7
  6
CONTINUOUS
 10
80.4775506039
 20
198.2931177421
 11
80.4775506039
 21
198.4931177421
  0
LINE
  5
255
100
AcDbEntity
  8
0
100
AcDbLine
 62
7
  6
CONTINUOUS
 10
80.8116225293
 20
198.2931177421
 11
80.8116225293
 21
198.4931177421
  0
LINE
  5
256
100
AcDbEntity
  8
0
100
AcDbLine
 62
7
  6
CONTINUOUS
 10
81.5911232636
 20
198.2931177421
 11
81.5911232636
 21
198.4931177421
  0
LINE
  5
257
100
AcDbEntity
  8
0
100
AcDbLine
 62
7
  6
CONTINUOUS
 10
82.036553347
 20
198.2931177421
 11
82.036553347
 21
198.4931177421
  0
LINE
  5
258
100
AcDbEntity
  8
RUNDUNGEN
100
AcDbLine
 62
7
  6
CONTINUOUS
 10
76.2949387604
 20
212.8380044194
 11
73.7011108941
 21
206.5632932471
  0
LINE
  5
259
100
AcDbEntity
  8
0
100
AcDbLine
 62
7
  6
CONTINUOUS
 10
65.1124522249
 20
217.6231493489
 11
65.7314129942
 21
218.4875714289
  0
LINE
  5
25A
100
AcDbEntity
  8
0
100
AcDbLine
 62
7
  6
CONTINUOUS
 10
64.5657291377
 20
219.0080306818
 11
64.0317046063
 21
218.3338420868
  0
LINE
  5
25B
100
AcDbEntity
  8
0
100
AcDbLine
 62
7
  6
CONTINUOUS
 10
54.4289917664
 20
215.0921606376
 11
54.878080563
 21
215.5761168284
  0
LINE
  5
25C
100
AcDbEntity
  8
0
100
AcDbLine
 62
7
  6
CONTINUOUS
 10
62.716606236
 20
232.6103547703
 11
63.3599756527
 21
233.0075677625
  0
LINE
  5
25D
100
AcDbEntity
  8
0
100
AcDbLine
 62
7
  6
CONTINUOUS
 10
56.6871342444
 20
215.4528703853
 11
57.1850401268
 21
215.0024078408
  0
LINE
  5
25E
100
AcDbEntity
  8
0
100
AcDbLine
 62
7
  6
CONTINUOUS
 10
57.8889370999
 20
216.0570634211
 11
57.3910312175
 21
216.5075259656
  0
LINE
  5
25F
100
AcDbEntity
  8
0
100
AcDbLine
 62
7
  6
CONTINUOUS
 10
65.815361842
 20
222.3287378133
 11
65.2081111813
 21
223.0561765657
  0
LINE
  5
260
100
AcDbEntity
  8
0
100
AcDbLine
 62
7
  6
CONTINUOUS
 10
64.5042142082
 20
222.0015209854
 11
64.9171841127
 21
221.3608254925
  0
LINE
  5
261
100
AcDbEntity
  8
RUNDUNGEN
100
AcDbLine
 62
7
  6
CONTINUOUS
 10
73.7880879308
 20
225.3808215579
 11
76.2919269386
 21
219.3400826709
  0
LINE
  5
262
100
AcDbEntity
  8
0
100
AcDbLine
 62
7
  6
CONTINUOUS
 10
70.3296708174
 20
230.352022338
 11
69.8922921805
 21
231.4599269568
  0
LINE
  5
263
100
AcDbEntity
  8
0
100
AcDbLine
 62
7
  6
CONTINUOUS
 10
82.8160540814
 20
198.2931177421
 11
82.8160540814
 21
198.4931177421
  0
LINE
  5
264
100
AcDbEntity
  8
0
100
AcDbLine
 62
7
  6
CONTINUOUS
 10
83.1501260067
 20
198.2931177421
 11
83.1501260067
 21
198.4931177421
  0
LINE
  5
265
100
AcDbEntity
  8
0
100
AcDbLine
 62
7
  6
CONTINUOUS
 10
83.5086212461
 20
198.2931177421
 11
83.5086212461
 21
198.4931177421
  0
LINE
  5
266
100
AcDbEntity
  8
0
100
AcDbLine
 62
7
  6
CONTINUOUS
 10
83.7022075961
 20
198.2931177421
 11
83.7022075961
 21
198.4931177421
  0
LINE
  5
267
100
AcDbEntity
  8
0
100
AcDbLine
 62
7
  6
CONTINUOUS
 10
84.1461674286
 20
198.2931177421
 11
84.1461674286
 21
198.4931177421
  0
LINE
  5
268
100
AcDbEntity
  8
0
100
AcDbLine
 62
7
  6
CONTINUOUS
 10
84.1871642844
 20
198.2931177421
 11
84.1871642844
 21
198.4931177421
  0
LINE
  5
269
100
AcDbEntity
  8
0
100
AcDbLine
 62
7
  6
CONTINUOUS
 10
84.3021567282
 20
198.2931177421
 11
84.3021567282
 21
198.4931177421
  0
LINE
  5
26A
100
AcDbEntity
  8
0
100
AcDbLine
 62
7
  6
CONTINUOUS
 10
84.3835807382
 20
188.2931177421
 11
84.3835807382
 21
198.2931177421
  0
LINE
  5
26B
100
AcDbEntity
  8
0
100
AcDbLine
 62
7
  6
CONTINUOUS
 10
84.5651407235
 20
198.2931177421
 11
84.5651407235
 21
198.4931177421
  0
LINE
  5
26C
100
AcDbEntity
  8
0
100
AcDbLine
 62
7
  6
CONTINUOUS
 10
84.8857218647
 20
198.2931177421
 11
84.8857218647
 21
198.4931177421
  0
LINE
  5
26D
100
AcDbEntity
  8
0
100
AcDbLine
 62
7
  6
CONTINUOUS
 10
85.27209958
 20
198.2931177421
 11
85.27209958
 21
198.4931177421
  0
LINE
  5
26E
100
AcDbEntity
  8
BEZUGSACHSEN
100
AcDbLine
 62
7
  6
CONTINUOUS
 10
85.4553775079
 20
177.2931177421
 11
85.4553775079
 21
154.7931177421
  0
LINE
  5
26F
100
AcDbEntity
  8
FASEN
100
AcDbLine
 62
7
  6
CONTINUOUS
 10
85.4553775079
 20
177.2931177421
 11
85.4553775079
 21
154.7931177421
  0
LINE
  5
270
100
AcDbEntity
  8
0
100
AcDbLine
 62
7
  6
CONTINUOUS
 10
85.6420785297
 20
198.2931177421
 11
85.6420785297
 21
198.4931177421
  0
LINE
  5
271
100
AcDbEntity
  8
0
100
AcDbLine
 62
7
  6
CONTINUOUS
 10
85.9956585584
 20
198.2931177421
 11
85.9956585584
 21
198.4931177421
  0
LINE
  5
272
100
AcDbEntity
  8
0
100
AcDbLine
 62
7
  6
CONTINUOUS
 10
86.1930478277
 20
198.2931177421
 11
86.1930478277
 21
198.4931177421
  0
LINE
  5
273
100
AcDbEntity
  8
0
100
AcDbLine
 62
7
  6
CONTINUOUS
 10
86.3740384672
 20
198.2931177421
 11
86.3740384672
 21
198.4931177421
  0
LINE
  5
274
100
AcDbEntity
  8
0
100
AcDbLine
 62
7
  6
CONTINUOUS
 10
86.4070375682
 20
198.2931177421
 11
86.4070375682
 21
198.4931177421
  0
LINE
  5
275
100
AcDbEntity
  8
0
100
AcDbLine
 62
7
  6
CONTINUOUS
 10
86.5060346838
 20
198.2931177421
 11
86.5060346838
 21
198.4931177421
  0
LINE
  5
276
100
AcDbEntity
  8
0
100
AcDbLine
 62
7
  6
CONTINUOUS
 10
86.7362214198
 20
198.2931177421
 11
86.7362214198
 21
198.4931177421
  0
LINE
  5
277
100
AcDbEntity
  8
0
100
AcDbLine
 62
7
  6
CONTINUOUS
 10
86.9166070974
 20
198.2931177421
 11
86.9166070974
 21
198.4931177421
  0
LINE
  5
278
100
AcDbEntity
  8
0
100
AcDbLine
 62
7
  6
CONTINUOUS
 10
86.9576037656
 20
198.2931177421
 11
86.9576037656
 21
198.4931177421
  0
LINE
  5
279
100
AcDbEntity
  8
0
100
AcDbLine
 62
7
  6
CONTINUOUS
 10
87.1713918522
 20
198.2931177421
 11
87.1713918522
 21
198.4931177421
  0
LINE
  5
27A
100
AcDbEntity
  8
0
100
AcDbLine
 62
7
  6
CONTINUOUS
 10
87.4427768906
 20
198.2931177421
 11
87.4427768906
 21
198.4931177421
  0
LINE
  5
27B
100
AcDbEntity
  8
0
100
AcDbLine
 62
7
  6
CONTINUOUS
 10
87.6237673425
 20
198.2931177421
 11
87.6237673425
 21
198.4931177421
  0
LINE
  5
27C
100
AcDbEntity
  8
0
100
AcDbLine
 62
7
  6
CONTINUOUS
 10
87.6567664436
 20
198.2931177421
 11
87.6567664436
 21
198.4931177421
  0
LINE
  5
27D
100
AcDbEntity
  8
0
100
AcDbLine
 62
7
  6
CONTINUOUS
 10
64.3841465364
 20
217.0357028869
 11
65.1124522249
 21
217.6231493489
  0
LINE
  5
27E
100
AcDbEntity
  8
0
100
AcDbLine
 62
7
  6
CONTINUOUS
 10
63.4810307656
 20
234.3224529388
 11
62.3641643739
 21
233.90849394
  0
LINE
  5
27F
100
AcDbEntity
  8
RUNDUNGEN
100
AcDbLine
 62
7
  6
CONTINUOUS
 10
38.9553775079
 20
177.2931177421
 11
210.9553775079
 21
177.2931177421
  0
LINE
  5
280
100
AcDbEntity
  8
0
100
AcDbLine
 62
7
  6
CONTINUOUS
 10
51.334187276
 20
210.7700485666
 11
60.4653775079
 21
206.6931177421
  0
LINE
  5
281
100
AcDbEntity
  8
0
100
AcDbLine
 62
7
  6
CONTINUOUS
 10
60.974993861
 20
207.8345165211
 11
56.8951002952
 21
209.6561239366
  0
LINE
  5
282
100
AcDbEntity
  8
0
100
AcDbLine
 62
7
  6
CONTINUOUS
 10
55.7294165747
 20
210.1765831288
 11
52.8152067294
 21
211.4777313522
  0
LINE
  5
283
100
AcDbEntity
  8
0
100
AcDbLine
 62
7
  6
CONTINUOUS
 10
68.5811450327
 20
231.1327112173
 11
68.9941144512
 21
230.4920146359
  0
LINE
  5
284
100
AcDbEntity
  8
BEZUGSACHSEN
100
AcDbLine
 62
7
  6
CONTINUOUS
 10
91.2303548219
 20
188.2931177421
 11
91.2303548219
 21
197.2931177421
  0
LINE
  5
285
100
AcDbEntity
  8
0
100
AcDbLine
 62
7
  6
CONTINUOUS
 10
91.3117839685
 20
197.2931177421
 11
91.3117839685
 21
198.2931177421
  0
LINE
  5
286
100
AcDbEntity
  8
0
100
AcDbLine
 62
7
  6
CONTINUOUS
 10
64.0317046063
 20
218.3338420868
 11
63.3883350535
 21
217.9366291555
  0
LINE
  5
287
100
AcDbEntity
  8
0
100
AcDbLine
 62
7
  6
CONTINUOUS
 10
54.9141996981
 20
216.7007690563
 11
53.9916136835
 21
216.2000663145
  0
LINE
  5
288
100
AcDbEntity
  8
BEZUGSACHSEN
100
AcDbLine
 62
7
  6
CONTINUOUS
 10
63.6787897786
 20
188.2931177421
 11
91.2303548219
 21
188.2931177421
  0
LINE
  5
289
100
AcDbEntity
  8
BEZUGSACHSEN
100
AcDbLine
 62
7
  6
CONTINUOUS
 10
158.680400194
 20
188.2931177421
 11
186.2319652373
 21
188.2931177421
  0
LINE
  5
28A
100
AcDbEntity
  8
0
100
AcDbLine
 62
7
  6
CONTINUOUS
 10
56.1042918399
 20
215.7131002244
 11
56.6871342444
 21
215.4528703853
  0
LINE
  5
28B
100
AcDbEntity
  8
0
100
AcDbLine
 62
7
  6
CONTINUOUS
 10
57.3910312175
 20
216.5075259656
 11
56.613908193
 21
216.8544990034
  0
LINE
  5
28C
100
AcDbEntity
  8
0
100
AcDbLine
 62
7
  6
CONTINUOUS
 10
55.2412459018
 20
219.5207723575
 11
61.2639459404
 21
216.8317328336
  0
LINE
  5
28D
100
AcDbEntity
  8
0
100
AcDbLine
 62
7
  6
CONTINUOUS
 10
65.2081111813
 20
223.0561765657
 11
64.3216443018
 21
223.6801260518
  0
LINE
  5
28E
100
AcDbEntity
  8
0
100
AcDbLine
 62
7
  6
CONTINUOUS
 10
63.8120279487
 20
222.5387272728
 11
64.5042142082
 21
222.0015209854
  0
LINE
  5
28F
100
AcDbEntity
  8
0
100
AcDbLine
 62
7
  6
CONTINUOUS
 10
69.8922921805
 20
231.4599269568
 11
69.2850420058
 21
232.1873667976
  0
LINE
  5
290
100
AcDbEntity
  8
0
100
AcDbLine
 62
7
  6
CONTINUOUS
 10
54.878080563
 20
215.5761168284
 11
55.4365140018
 21
215.7830968721
  0
LINE
  5
291
100
AcDbEntity
  8
BEZUGSACHSEN
100
AcDbLine
 62
7
  6
CONTINUOUS
 10
158.680400194
 20
197.2931177421
 11
91.2303548219
 21
197.2931177421
  0
LINE
  5
292
100
AcDbEntity
  8
BEZUGSACHSEN
100
AcDbLine
 62
7
  6
CONTINUOUS
 10
38.9553775079
 20
197.2931177421
 11
63.6787897786
 21
197.2931177421
  0
LINE
  5
293
100
AcDbEntity
  8
BEZUGSACHSEN
100
AcDbLine
 62
7
  6
CONTINUOUS
 10
186.2319652373
 20
197.2931177421
 11
210.9553775079
 21
197.2931177421
  0
LINE
  5
294
100
AcDbEntity
  8
0
100
AcDbLine
 62
7
  6
CONTINUOUS
 10
63.5989710474
 20
198.2931177421
 11
91.3117839685
 21
198.2931177421
  0
LINE
  5
295
100
AcDbEntity
  8
0
100
AcDbLine
 62
7
  6
CONTINUOUS
 10
158.5989710474
 20
198.2931177421
 11
186.3117839685
 21
198.2931177421
  0
LINE
  5
296
100
AcDbEntity
  8
0
100
AcDbLine
 62
7
  6
CONTINUOUS
 10
67.1413374307
 20
198.4931177421
 11
75.9471624883
 21
198.4931177421
  0
LINE
  5
297
100
AcDbEntity
  8
0
100
AcDbLine
 62
7
  6
CONTINUOUS
 10
80.4775506039
 20
198.4931177421
 11
87.6567664436
 21
198.4931177421
  0
LINE
  5
298
100
AcDbEntity
  8
0
100
AcDbLine
 62
7
  6
CONTINUOUS
 10
162.1406677935
 20
198.4931177421
 11
170.9406154303
 21
198.4931177421
  0
LINE
  5
299
100
AcDbEntity
  8
0
100
AcDbLine
 62
7
  6
CONTINUOUS
 10
175.4720964169
 20
198.4931177421
 11
182.6558881972
 21
198.4931177421
  0
LINE
  5
29A
100
AcDbEntity
  8
0
100
AcDbLine
 62
7
  6
CONTINUOUS
 10
61.7735625365
 20
217.9731321568
 11
55.7508624978
 21
220.6621716808
  0
LINE
  5
29B
100
AcDbEntity
  8
0
100
AcDbLine
 62
7
  6
CONTINUOUS
 10
57.7893279101
 20
225.2277667967
 11
63.8120279487
 21
222.5387272728
  0
LINE
  5
29C
100
AcDbEntity
  8
0
100
AcDbLine
 62
7
  6
CONTINUOUS
 10
64.3216443018
 20
223.6801260518
 11
58.2989442631
 21
226.3691655757
  0
LINE
  5
29D
100
AcDbEntity
  8
0
100
AcDbLine
 62
7
  6
CONTINUOUS
 10
69.2850420058
 20
232.1873667976
 11
68.3985746403
 21
232.8113151952
  0
LINE
  5
29E
100
AcDbEntity
  8
0
100
AcDbLine
 62
7
  6
CONTINUOUS
 10
67.8889582872
 20
231.6699164162
 11
68.5811450327
 21
231.1327112173
  0
LINE
  5
29F
100
AcDbEntity
  8
0
100
AcDbLine
 62
7
  6
CONTINUOUS
 10
63.2672800767
 20
216.6217439184
 11
64.3841465364
 21
217.0357028869
  0
LINE
  5
2A0
100
AcDbEntity
  8
0
100
AcDbLine
 62
7
  6
CONTINUOUS
 10
61.2639459404
 20
216.8317328336
 11
62.3202852616
 21
216.5882503328
  0
LINE
  5
2A1
100
AcDbEntity
  8
0
100
AcDbLine
 62
7
  6
CONTINUOUS
 10
58.9784325719
 20
227.8910302516
 11
68.1096228038
 21
223.8140994271
  0
LINE
  5
2A2
100
AcDbEntity
  8
0
100
AcDbLine
 62
7
  6
CONTINUOUS
 10
67.4535553004
 20
225.475957459
 11
60.6537326454
 21
228.5119698384
  0
LINE
  5
2A3
100
AcDbEntity
  8
FASEN
100
AcDbLine
 62
7
  6
CONTINUOUS
 10
165.9553775105
 20
153.2931177395
 11
164.4553775111
 21
154.7931177389
  0
LINE
  5
2A4
100
AcDbEntity
  8
0
100
AcDbLine
 62
7
  6
CONTINUOUS
 10
63.692947825
 20
213.9219768572
 11
58.4600684894
 21
214.2049725016
  0
LINE
  5
2A5
100
AcDbEntity
  8
0
100
AcDbLine
 62
7
  6
CONTINUOUS
 10
58.339013255
 20
212.8900870531
 11
63.0983952511
 21
212.5903445855
  0
LINE
  5
2A6
100
AcDbEntity
  8
0
100
AcDbLine
 62
7
  6
CONTINUOUS
 10
55.4365140018
 20
215.7830968721
 11
56.1042918399
 21
215.7131002244
  0
LINE
  5
2A7
100
AcDbEntity
  8
0
100
AcDbLine
 62
7
  6
CONTINUOUS
 10
56.613908193
 20
216.8544990034
 11
55.9461303549
 21
216.9244956511
  0
LINE
  5
2A8
100
AcDbEntity
  8
0
100
AcDbLine
 62
7
  6
CONTINUOUS
 10
62.6356207516
 20
217.8163917662
 11
61.7735625365
 21
217.9731321568
  0
LINE
  5
2A9
100
AcDbEntity
  8
0
100
AcDbLine
 62
7
  6
CONTINUOUS
 10
64.974748714
 20
232.9710645181
 11
67.8889582872
 21
231.6699164162
  0
LINE
  5
2AA
100
AcDbEntity
  8
0
100
AcDbLine
 62
7
  6
CONTINUOUS
 10
68.3985746403
 20
232.8113151952
 11
65.484365067
 21
234.1124632971
  0
LINE
  5
2AB
100
AcDbEntity
  8
0
100
AcDbLine
 62
7
  6
CONTINUOUS
 10
62.3202852616
 20
216.5882503328
 11
63.2672800767
 21
216.6217439184
  0
LINE
  5
2AC
100
AcDbEntity
  8
0
100
AcDbLine
 62
7
  6
CONTINUOUS
 10
189.8135704956
 20
238.7033692276
 11
182.1473361648
 21
235.5279109954
  0
LINE
  5
2AD
100
AcDbEntity
  8
0
100
AcDbLine
 62
7
  6
CONTINUOUS
 10
183.7905954451
 20
225.7228971581
 11
182.7864415822
 21
225.6452102494
  0
LINE
  5
2AE
100
AcDbEntity
  8
0
100
AcDbLine
 62
7
  6
CONTINUOUS
 10
182.3802301477
 20
224.1239620362
 11
184.0936832874
 21
224.1572021175
  0
LINE
  5
2AF
100
AcDbEntity
  8
0
100
AcDbLine
 62
7
  6
CONTINUOUS
 10
64.1126904988
 20
233.1278049087
 11
64.974748714
 21
232.9710645181
  0
LINE
  5
2B0
100
AcDbEntity
  8
0
100
AcDbLine
 62
7
  6
CONTINUOUS
 10
65.484365067
 20
234.1124632971
 11
64.4280256876
 21
234.3559471294
  0
LINE
  5
2B1
100
AcDbEntity
  8
0
100
AcDbLine
 62
7
  6
CONTINUOUS
 10
184.2195546876
 20
234.6950142392
 11
188.9372376704
 21
236.6491425136
  0
LINE
  5
2B2
100
AcDbEntity
  8
0
100
AcDbLine
 62
7
  6
CONTINUOUS
 10
55.9461303549
 20
216.9244956511
 11
54.9141996981
 21
216.7007690563
  0
LINE
  5
2B3
100
AcDbEntity
  8
0
100
AcDbLine
 62
7
  6
CONTINUOUS
 10
63.3883350535
 20
217.9366291555
 11
62.6356207516
 21
217.8163917662
  0
LINE
  5
2B4
100
AcDbEntity
  8
FASEN
100
AcDbLine
 62
7
  6
CONTINUOUS
 10
83.9553775053
 20
153.2931177395
 11
85.4553775047
 21
154.7931177389
  0
LINE
  5
2B5
100
AcDbEntity
  8
0
100
AcDbLine
 62
7
  6
CONTINUOUS
 10
184.3803057147
 20
225.9671631497
 11
183.7905954451
 21
225.7228971581
  0
LINE
  5
2B6
100
AcDbEntity
  8
0
100
AcDbLine
 62
7
  6
CONTINUOUS
 10
192.4053061764
 20
228.2764844912
 11
193.8795818504
 21
228.88714947
  0
LINE
  5
2B7
100
AcDbEntity
  8
0
100
AcDbLine
 62
7
  6
CONTINUOUS
 10
184.0936832874
 20
224.1572021175
 11
185.2731038266
 21
224.6457341005
  0
LINE
  5
2B8
100
AcDbEntity
  8
0
100
AcDbLine
 62
7
  6
CONTINUOUS
 10
190.6526399566
 20
224.1680301015
 11
189.4732194174
 21
223.6794981185
  0
LINE
  5
2B9
100
AcDbEntity
  8
0
100
AcDbLine
 62
7
  6
CONTINUOUS
 10
64.4280256876
 20
234.3559471294
 11
63.4810307656
 21
234.3224529388
  0
LINE
  5
2BA
100
AcDbEntity
  8
0
100
AcDbLine
 62
7
  6
CONTINUOUS
 10
182.7864415822
 20
225.6452102494
 11
181.662698712
 21
225.8562361597
  0
LINE
  5
2BB
100
AcDbEntity
  8
0
100
AcDbLine
 62
7
  6
CONTINUOUS
 10
180.8420437874
 20
224.5015670721
 11
182.3802301477
 21
224.1239620362
  0
LINE
  5
2BC
100
AcDbEntity
  8
0
100
AcDbLine
 62
7
  6
CONTINUOUS
 10
193.968190556
 20
222.8353953032
 11
191.6093486516
 21
221.8583309949
  0
LINE
  5
2BD
100
AcDbEntity
  8
0
100
AcDbLine
 62
7
  6
CONTINUOUS
 10
190.4299281124
 20
221.3697990118
 11
184.5328247969
 21
218.9271388398
  0
LINE
  5
2BE
100
AcDbEntity
  8
0
100
AcDbLine
 62
7
  6
CONTINUOUS
 10
185.7204779079
 20
217.727843698
 11
191.0278707474
 21
219.926237793
  0
LINE
  5
2BF
100
AcDbEntity
  8
0
100
AcDbLine
 62
7
  6
CONTINUOUS
 10
192.2072912866
 20
220.4147697761
 11
194.566133191
 21
221.3918340844
  0
LINE
  5
2C0
100
AcDbEntity
  8
0
100
AcDbLine
 62
7
  6
CONTINUOUS
 10
183.8482233004
 20
213.9081023841
 11
185.0276439429
 21
214.3966344099
  0
LINE
  5
2C1
100
AcDbEntity
  8
0
100
AcDbLine
 62
7
  6
CONTINUOUS
 10
192.343344818
 20
216.7504024506
 11
193.5227653572
 21
217.2389344337
  0
LINE
  5
2C2
100
AcDbEntity
  8
0
100
AcDbLine
 62
7
  6
CONTINUOUS
 10
63.3599756527
 20
233.0075677625
 11
64.1126904988
 21
233.1278049087
  0
LINE
  5
2C3
100
AcDbEntity
  8
0
100
AcDbLine
 62
7
  6
CONTINUOUS
 10
158.5989710474
 20
197.2931177421
 11
158.5989710474
 21
198.2931177421
  0
LINE
  5
2C4
100
AcDbEntity
  8
BEZUGSACHSEN
100
AcDbLine
 62
7
  6
CONTINUOUS
 10
158.680400194
 20
188.2931177421
 11
158.680400194
 21
197.2931177421
  0
LINE
  5
2C5
100
AcDbEntity
  8
0
100
AcDbLine
 62
7
  6
CONTINUOUS
 10
179.4936395385
 20
234.4287138624
 11
178.5533959452
 21
233.3627570688
  0
LINE
  5
2C6
100
AcDbEntity
  8
0
100
AcDbLine
 62
7
  6
CONTINUOUS
 10
179.2709274023
 20
231.6304828937
 11
180.2111709742
 21
232.696439739
  0
LINE
  5
2C7
100
AcDbEntity
  8
0
100
AcDbLine
 62
7
  6
CONTINUOUS
 10
185.1452830736
 20
226.6222743866
 11
184.3803057147
 21
225.9671631497
  0
LINE
  5
2C8
100
AcDbEntity
  8
0
100
AcDbLine
 62
7
  6
CONTINUOUS
 10
181.662698712
 20
225.8562361597
 11
180.7142227245
 21
226.4781072299
  0
LINE
  5
2C9
100
AcDbEntity
  8
0
100
AcDbLine
 62
7
  6
CONTINUOUS
 10
179.3595356705
 20
225.5787292716
 11
180.8420437874
 21
224.5015670721
  0
LINE
  5
2CA
100
AcDbEntity
  8
0
100
AcDbLine
 62
7
  6
CONTINUOUS
 10
162.1406677935
 20
198.2931177421
 11
162.1406677935
 21
198.4931177421
  0
LINE
  5
2CB
100
AcDbEntity
  8
FASEN
100
AcDbLine
 62
7
  6
CONTINUOUS
 10
164.4553775079
 20
177.2931177421
 11
164.4553775079
 21
154.7931177421
  0
LINE
  5
2CC
100
AcDbEntity
  8
BEZUGSACHSEN
100
AcDbLine
 62
7
  6
CONTINUOUS
 10
164.4553775079
 20
154.7931177421
 11
164.4553775079
 21
177.2931177421
  0
LINE
  5
2CD
100
AcDbEntity
  8
0
100
AcDbLine
 62
7
  6
CONTINUOUS
 10
165.5271742776
 20
188.2931177421
 11
165.5271742776
 21
198.2931177421
  0
LINE
  5
2CE
100
AcDbEntity
  8
0
100
AcDbLine
 62
7
  6
CONTINUOUS
 10
165.5647985262
 20
198.2931177421
 11
165.5647985262
 21
198.4931177421
  0
LINE
  5
2CF
100
AcDbEntity
  8
0
100
AcDbLine
 62
7
  6
CONTINUOUS
 10
165.6553979817
 20
198.2931177421
 11
165.6553979817
 21
198.4931177421
  0
LINE
  5
2D0
100
AcDbEntity
  8
0
100
AcDbLine
 62
7
  6
CONTINUOUS
 10
166.0328956983
 20
198.2931177421
 11
166.0328956983
 21
198.4931177421
  0
LINE
  5
2D1
100
AcDbEntity
  8
0
100
AcDbLine
 62
7
  6
CONTINUOUS
 10
166.1385950918
 20
198.2931177421
 11
166.1385950918
 21
198.4931177421
  0
LINE
  5
2D2
100
AcDbEntity
  8
0
100
AcDbLine
 62
7
  6
CONTINUOUS
 10
166.1690995312
 20
198.2931177421
 11
166.1690995312
 21
198.4931177421
  0
LINE
  5
2D3
100
AcDbEntity
  8
0
100
AcDbLine
 62
7
  6
CONTINUOUS
 10
166.5846505555
 20
198.2931177421
 11
166.5846505555
 21
198.4931177421
  0
LINE
  5
2D4
100
AcDbEntity
  8
0
100
AcDbLine
 62
7
  6
CONTINUOUS
 10
166.8857827471
 20
198.2931177421
 11
166.8857827471
 21
198.4931177421
  0
LINE
  5
2D5
100
AcDbEntity
  8
0
100
AcDbLine
 62
7
  6
CONTINUOUS
 10
167.1763834514
 20
198.2931177421
 11
167.1763834514
 21
198.4931177421
  0
LINE
  5
2D6
100
AcDbEntity
  8
0
100
AcDbLine
 62
7
  6
CONTINUOUS
 10
167.3630965331
 20
198.2931177421
 11
167.3630965331
 21
198.4931177421
  0
LINE
  5
2D7
100
AcDbEntity
  8
0
100
AcDbLine
 62
7
  6
CONTINUOUS
 10
167.5392781327
 20
198.2931177421
 11
167.5392781327
 21
198.4931177421
  0
LINE
  5
2D8
100
AcDbEntity
  8
0
100
AcDbLine
 62
7
  6
CONTINUOUS
 10
167.6115721046
 20
198.2931177421
 11
167.6115721046
 21
198.4931177421
  0
LINE
  5
2D9
100
AcDbEntity
  8
0
100
AcDbLine
 62
7
  6
CONTINUOUS
 10
168.6020725112
 20
198.2931177421
 11
168.6020725112
 21
198.4931177421
  0
LINE
  5
2DA
100
AcDbEntity
  8
0
100
AcDbLine
 62
7
  6
CONTINUOUS
 10
178.5533959452
 20
233.3627570688
 11
177.7327409992
 21
232.0080880328
  0
LINE
  5
2DB
100
AcDbEntity
  8
0
100
AcDbLine
 62
7
  6
CONTINUOUS
 10
185.2731038266
 20
224.6457341005
 11
186.5082026544
 21
225.8338242336
  0
LINE
  5
2DC
100
AcDbEntity
  8
0
100
AcDbLine
 62
7
  6
CONTINUOUS
 10
184.9555010977
 20
217.0727317206
 11
185.7204779079
 21
217.727843698
  0
LINE
  5
2DD
100
AcDbEntity
  8
0
100
AcDbLine
 62
7
  6
CONTINUOUS
 10
182.9844561445
 20
233.5069245869
 11
184.3473758964
 21
232.7184740209
  0
LINE
  5
2DE
100
AcDbEntity
  8
RUNDUNGEN
100
AcDbLine
 62
7
  6
CONTINUOUS
 10
176.2096401065
 20
206.5633029602
 11
173.6158161584
 21
212.838004654
  0
LINE
  5
2DF
100
AcDbEntity
  8
0
100
AcDbLine
 62
7
  6
CONTINUOUS
 10
170.227768788
 20
198.2931177421
 11
170.227768788
 21
198.4931177421
  0
LINE
  5
2E0
100
AcDbEntity
  8
0
100
AcDbLine
 62
7
  6
CONTINUOUS
 10
170.5388909054
 20
198.2931177421
 11
170.5388909054
 21
198.4931177421
  0
LINE
  5
2E1
100
AcDbEntity
  8
0
100
AcDbLine
 62
7
  6
CONTINUOUS
 10
170.7547102934
 20
198.2931177421
 11
170.7547102934
 21
198.4931177421
  0
LINE
  5
2E2
100
AcDbEntity
  8
0
100
AcDbLine
 62
7
  6
CONTINUOUS
 10
170.9153999531
 20
198.2931177421
 11
170.9153999531
 21
198.4931177421
  0
LINE
  5
2E3
100
AcDbEntity
  8
0
100
AcDbLine
 62
7
  6
CONTINUOUS
 10
170.9406154303
 20
198.2931177421
 11
170.9406154303
 21
198.4931177421
  0
LINE
  5
2E4
100
AcDbEntity
  8
0
100
AcDbLine
 62
7
  6
CONTINUOUS
 10
175.4720964169
 20
198.2931177421
 11
175.4720964169
 21
198.4931177421
  0
LINE
  5
2E5
100
AcDbEntity
  8
0
100
AcDbLine
 62
7
  6
CONTINUOUS
 10
175.8064133458
 20
198.2931177421
 11
175.8064133458
 21
198.4931177421
  0
LINE
  5
2E6
100
AcDbEntity
  8
0
100
AcDbLine
 62
7
  6
CONTINUOUS
 10
177.7327409992
 20
232.0080880328
 11
177.4461183662
 21
230.1981272783
  0
LINE
  5
2E7
100
AcDbEntity
  8
0
100
AcDbLine
 62
7
  6
CONTINUOUS
 10
179.0399828505
 20
230.5200798404
 11
179.2709274023
 21
231.6304828937
  0
LINE
  5
2E8
100
AcDbEntity
  8
RUNDUNGEN
100
AcDbLine
 62
7
  6
CONTINUOUS
 10
173.618828077
 20
219.3400826703
 11
176.1226670978
 21
225.3808215886
  0
LINE
  5
2E9
100
AcDbEntity
  8
0
100
AcDbLine
 62
7
  6
CONTINUOUS
 10
186.5082026544
 20
225.8338242336
 11
187.3288574757
 21
227.1884932784
  0
LINE
  5
2EA
100
AcDbEntity
  8
0
100
AcDbLine
 62
7
  6
CONTINUOUS
 10
185.7906712187
 20
227.5660983571
 11
185.1452830736
 21
226.6222743866
  0
LINE
  5
2EB
100
AcDbEntity
  8
0
100
AcDbLine
 62
7
  6
CONTINUOUS
 10
184.5328247969
 20
218.9271388398
 11
183.5925810715
 21
217.8611826568
  0
LINE
  5
2EC
100
AcDbEntity
  8
0
100
AcDbLine
 62
7
  6
CONTINUOUS
 10
185.7020629408
 20
233.6178514913
 11
184.2195546876
 21
234.6950142392
  0
LINE
  5
2ED
100
AcDbEntity
  8
0
100
AcDbLine
 62
7
  6
CONTINUOUS
 10
180.7142227245
 20
226.4781072299
 11
179.9410134133
 21
227.5108233744
  0
LINE
  5
2EE
100
AcDbEntity
  8
0
100
AcDbLine
 62
7
  6
CONTINUOUS
 10
178.4667375328
 20
226.90015831
 11
179.3595356705
 21
225.5787292716
  0
LINE
  5
2EF
100
AcDbEntity
  8
RUNDUNGEN
100
AcDbLine
 62
7
  6
CONTINUOUS
 10
176.124632706
 20
229.2058128814
 11
162.5058063712
 21
262.1510221095
  0
LINE
  5
2F0
100
AcDbEntity
  8
0
100
AcDbLine
 62
7
  6
CONTINUOUS
 10
183.3616364682
 20
216.7507795822
 11
183.4255470254
 21
215.762509514
  0
LINE
  5
2F1
100
AcDbEntity
  8
0
100
AcDbLine
 62
7
  6
CONTINUOUS
 10
176.5864857547
 20
198.2931177421
 11
176.5864857547
 21
198.4931177421
  0
LINE
  5
2F2
100
AcDbEntity
  8
0
100
AcDbLine
 62
7
  6
CONTINUOUS
 10
177.03224251
 20
198.2931177421
 11
177.03224251
 21
198.4931177421
  0
LINE
  5
2F3
100
AcDbEntity
  8
0
100
AcDbLine
 62
7
  6
CONTINUOUS
 10
177.8123149189
 20
198.2931177421
 11
177.8123149189
 21
198.4931177421
  0
LINE
  5
2F4
100
AcDbEntity
  8
0
100
AcDbLine
 62
7
  6
CONTINUOUS
 10
178.1466318478
 20
198.2931177421
 11
178.1466318478
 21
198.4931177421
  0
LINE
  5
2F5
100
AcDbEntity
  8
0
100
AcDbLine
 62
7
  6
CONTINUOUS
 10
178.5060272463
 20
198.2931177421
 11
178.5060272463
 21
198.4931177421
  0
LINE
  5
2F6
100
AcDbEntity
  8
0
100
AcDbLine
 62
7
  6
CONTINUOUS
 10
178.699953971
 20
198.2931177421
 11
178.699953971
 21
198.4931177421
  0
LINE
  5
2F7
100
AcDbEntity
  8
0
100
AcDbLine
 62
7
  6
CONTINUOUS
 10
179.1453805326
 20
198.2931177421
 11
179.1453805326
 21
198.4931177421
  0
LINE
  5
2F8
100
AcDbEntity
  8
0
100
AcDbLine
 62
7
  6
CONTINUOUS
 10
179.1866917297
 20
198.2931177421
 11
179.1866917297
 21
198.4931177421
  0
LINE
  5
2F9
100
AcDbEntity
  8
0
100
AcDbLine
 62
7
  6
CONTINUOUS
 10
179.3019912192
 20
198.2931177421
 11
179.3019912192
 21
198.4931177421
  0
LINE
  5
2FA
100
AcDbEntity
  8
0
100
AcDbLine
 62
7
  6
CONTINUOUS
 10
179.3835807382
 20
188.2931177421
 11
179.3835807382
 21
198.2931177421
  0
LINE
  5
2FB
100
AcDbEntity
  8
0
100
AcDbLine
 62
7
  6
CONTINUOUS
 10
179.5652676719
 20
198.2931177421
 11
179.5652676719
 21
198.4931177421
  0
LINE
  5
2FC
100
AcDbEntity
  8
0
100
AcDbLine
 62
7
  6
CONTINUOUS
 10
179.8860082408
 20
198.2931177421
 11
179.8860082408
 21
198.4931177421
  0
LINE
  5
2FD
100
AcDbEntity
  8
0
100
AcDbLine
 62
7
  6
CONTINUOUS
 10
180.2724752227
 20
198.2931177421
 11
180.2724752227
 21
198.4931177421
  0
LINE
  5
2FE
100
AcDbEntity
  8
FASEN
100
AcDbLine
 62
7
  6
CONTINUOUS
 10
180.4553775079
 20
177.2931177421
 11
180.4553775079
 21
154.7931177421
  0
LINE
  5
2FF
100
AcDbEntity
  8
BEZUGSACHSEN
100
AcDbLine
 62
7
  6
CONTINUOUS
 10
180.4553775079
 20
154.7931177421
 11
180.4553775079
 21
177.2931177421
  0
LINE
  5
300
100
AcDbEntity
  8
0
100
AcDbLine
 62
7
  6
CONTINUOUS
 10
180.6424177018
 20
198.2931177421
 11
180.6424177018
 21
198.4931177421
  0
LINE
  5
301
100
AcDbEntity
  8
0
100
AcDbLine
 62
7
  6
CONTINUOUS
 10
180.9958355229
 20
198.2931177421
 11
180.9958355229
 21
198.4931177421
  0
LINE
  5
302
100
AcDbEntity
  8
0
100
AcDbLine
 62
7
  6
CONTINUOUS
 10
181.1930143057
 20
198.2931177421
 11
181.1930143057
 21
198.4931177421
  0
LINE
  5
303
100
AcDbEntity
  8
0
100
AcDbLine
 62
7
  6
CONTINUOUS
 10
181.3736687231
 20
198.2931177421
 11
181.3736687231
 21
198.4931177421
  0
LINE
  5
304
100
AcDbEntity
  8
0
100
AcDbLine
 62
7
  6
CONTINUOUS
 10
181.4063461903
 20
198.2931177421
 11
181.4063461903
 21
198.4931177421
  0
LINE
  5
305
100
AcDbEntity
  8
0
100
AcDbLine
 62
7
  6
CONTINUOUS
 10
181.5043784027
 20
198.2931177421
 11
181.5043784027
 21
198.4931177421
  0
LINE
  5
306
100
AcDbEntity
  8
0
100
AcDbLine
 62
7
  6
CONTINUOUS
 10
181.7346061234
 20
198.2931177421
 11
181.7346061234
 21
198.4931177421
  0
LINE
  5
307
100
AcDbEntity
  8
0
100
AcDbLine
 62
7
  6
CONTINUOUS
 10
181.9163748987
 20
198.2931177421
 11
181.9163748987
 21
198.4931177421
  0
LINE
  5
308
100
AcDbEntity
  8
0
100
AcDbLine
 62
7
  6
CONTINUOUS
 10
181.9576859067
 20
198.2931177421
 11
181.9576859067
 21
198.4931177421
  0
LINE
  5
309
100
AcDbEntity
  8
0
100
AcDbLine
 62
7
  6
CONTINUOUS
 10
182.1713892439
 20
198.2931177421
 11
182.1713892439
 21
198.4931177421
  0
LINE
  5
30A
100
AcDbEntity
  8
0
100
AcDbLine
 62
7
  6
CONTINUOUS
 10
182.4425565017
 20
198.2931177421
 11
182.4425565017
 21
198.4931177421
  0
LINE
  5
30B
100
AcDbEntity
  8
0
100
AcDbLine
 62
7
  6
CONTINUOUS
 10
182.62321073
 20
198.2931177421
 11
182.62321073
 21
198.4931177421
  0
LINE
  5
30C
100
AcDbEntity
  8
0
100
AcDbLine
 62
7
  6
CONTINUOUS
 10
182.6558881972
 20
198.2931177421
 11
182.6558881972
 21
198.4931177421
  0
LINE
  5
30D
100
AcDbEntity
  8
0
100
AcDbLine
 62
7
  6
CONTINUOUS
 10
183.5925810715
 20
217.8611826568
 11
183.3616364682
 21
216.7507795822
  0
LINE
  5
30E
100
AcDbEntity
  8
0
100
AcDbLine
 62
7
  6
CONTINUOUS
 10
186.0216157705
 20
228.6765014103
 11
185.7906712187
 21
227.5660983571
  0
LINE
  5
30F
100
AcDbEntity
  8
RUNDUNGEN
100
AcDbLine
 62
7
  6
CONTINUOUS
 10
159.7995604658
 20
264.8598432959
 11
126.8698930551
 21
278.5089328065
  0
LINE
  5
310
100
AcDbEntity
  8
0
100
AcDbLine
 62
7
  6
CONTINUOUS
 10
184.3473758964
 20
232.7184740209
 11
185.1205852932
 21
231.6857576699
  0
LINE
  5
311
100
AcDbEntity
  8
0
100
AcDbLine
 62
7
  6
CONTINUOUS
 10
186.5948609672
 20
232.2964226487
 11
185.7020629408
 21
233.6178514913
  0
LINE
  5
312
100
AcDbEntity
  8
0
100
AcDbLine
 62
7
  6
CONTINUOUS
 10
177.7492060971
 20
228.6324324335
 11
178.4667375328
 21
226.90015831
  0
LINE
  5
313
100
AcDbEntity
  8
0
100
AcDbLine
 62
7
  6
CONTINUOUS
 10
179.9410134133
 20
227.5108233744
 11
179.2234819776
 21
229.2430974979
  0
LINE
  5
314
100
AcDbEntity
  8
0
100
AcDbLine
 62
7
  6
CONTINUOUS
 10
180.2111709742
 20
232.696439739
 11
179.4936395385
 21
234.4287138624
  0
LINE
  5
315
100
AcDbEntity
  8
0
100
AcDbLine
 62
7
  6
CONTINUOUS
 10
183.4255470254
 20
215.762509514
 11
183.8482233004
 21
213.9081023841
  0
LINE
  5
316
100
AcDbEntity
  8
0
100
AcDbLine
 62
7
  6
CONTINUOUS
 10
177.4461183662
 20
230.1981272783
 11
177.7492060971
 21
228.6324324335
  0
LINE
  5
317
100
AcDbEntity
  8
0
100
AcDbLine
 62
7
  6
CONTINUOUS
 10
185.0276439429
 20
214.3966344099
 11
184.724556546
 21
215.9623286673
  0
LINE
  5
318
100
AcDbEntity
  8
0
100
AcDbLine
 62
7
  6
CONTINUOUS
 10
179.2234819776
 20
229.2430974979
 11
179.0399828505
 21
230.5200798404
  0
LINE
  5
319
100
AcDbEntity
  8
BEZUGSACHSEN
100
AcDbLine
 62
7
  6
CONTINUOUS
 10
186.2319652373
 20
188.2931177421
 11
186.2319652373
 21
197.2931177421
  0
LINE
  5
31A
100
AcDbEntity
  8
0
100
AcDbLine
 62
7
  6
CONTINUOUS
 10
186.3117839685
 20
197.2931177421
 11
186.3117839685
 21
198.2931177421
  0
LINE
  5
31B
100
AcDbEntity
  8
0
100
AcDbLine
 62
7
  6
CONTINUOUS
 10
187.3288574757
 20
227.1884932784
 11
187.6154802452
 21
228.9984534846
  0
LINE
  5
31C
100
AcDbEntity
  8
0
100
AcDbLine
 62
7
  6
CONTINUOUS
 10
184.724556546
 20
215.9623286673
 11
184.9555010977
 21
217.0727317206
  0
LINE
  5
31D
100
AcDbEntity
  8
0
100
AcDbLine
 62
7
  6
CONTINUOUS
 10
182.1473361648
 20
235.5279109954
 11
182.9844561445
 21
233.5069245869
  0
LINE
  5
31E
100
AcDbEntity
  8
0
100
AcDbLine
 62
7
  6
CONTINUOUS
 10
185.1205852932
 20
231.6857576699
 11
185.8381167289
 21
229.9534835464
  0
LINE
  5
31F
100
AcDbEntity
  8
0
100
AcDbLine
 62
7
  6
CONTINUOUS
 10
189.4732194174
 20
223.6794981185
 11
190.4299281124
 21
221.3697990118
  0
LINE
  5
320
100
AcDbEntity
  8
0
100
AcDbLine
 62
7
  6
CONTINUOUS
 10
191.0278707474
 20
219.926237793
 11
192.343344818
 21
216.7504024506
  0
LINE
  5
321
100
AcDbEntity
  8
0
100
AcDbLine
 62
7
  6
CONTINUOUS
 10
187.3123924029
 20
230.5641485253
 11
186.5948609672
 21
232.2964226487
  0
LINE
  5
322
100
AcDbEntity
  8
0
100
AcDbLine
 62
7
  6
CONTINUOUS
 10
193.5227653572
 20
217.2389344337
 11
192.2072912866
 21
220.4147697761
  0
LINE
  5
323
100
AcDbEntity
  8
0
100
AcDbLine
 62
7
  6
CONTINUOUS
 10
191.6093486516
 20
221.8583309949
 11
190.6526399566
 21
224.1680301015
  0
LINE
  5
324
100
AcDbEntity
  8
0
100
AcDbLine
 62
7
  6
CONTINUOUS
 10
194.566133191
 20
221.3918340844
 11
193.968190556
 21
222.8353953032
  0
LINE
  5
325
100
AcDbEntity
  8
0
100
AcDbLine
 62
7
  6
CONTINUOUS
 10
188.9372376704
 20
236.6491425136
 11
192.4053061764
 21
228.2764844912
  0
LINE
  5
326
100
AcDbEntity
  8
0
100
AcDbLine
 62
7
  6
CONTINUOUS
 10
187.6154802452
 20
228.9984534846
 11
187.3123924029
 21
230.5641485253
  0
LINE
  5
327
100
AcDbEntity
  8
0
100
AcDbLine
 62
7
  6
CONTINUOUS
 10
185.8381167289
 20
229.9534835464
 11
186.0216157705
 21
228.6765014103
  0
LINE
  5
328
100
AcDbEntity
  8
0
100
AcDbLine
 62
7
  6
CONTINUOUS
 10
193.8795818504
 20
228.88714947
 11
189.8135704956
 21
238.7033692276
  0
LINE
  5
329
100
AcDbEntity
  8
RUNDUNGEN
100
AcDbLine
 62
7
  6
CONTINUOUS
 10
208.9833370613
 20
209.7177435206
 11
197.9079593211
 21
236.5101137263
  0
LINE
  5
32A
100
AcDbEntity
  8
RUNDUNGEN
100
AcDbLine
 62
7
  6
CONTINUOUS
 10
210.9553775079
 20
177.2931177421
 11
210.9553775079
 21
199.7851124642
  0
LINE
  5
32B
100
AcDbEntity
  8
FASEN
100
AcDbLine
 62
7
  6
CONTINUOUS
 10
178.9553775041
 20
153.2931177383
 11
180.4553775033
 21
154.7931177375
  0
LINE
  5
32C
100
AcDbEntity
  8
FASEN
100
AcDbLine
 62
7
  6
CONTINUOUS
 10
252.2160622169
 20
153.2931177421
 11
250.7160622169
 21
154.7931177421
  0
LINE
  5
32D
100
AcDbEntity
  8
FASEN
100
AcDbLine
 62
7
  6
CONTINUOUS
 10
349.2157699588
 20
153.2931177421
 11
336.216354475
 21
153.2931177421
  0
LINE
  5
32E
100
AcDbEntity
  8
FASEN
100
AcDbLine
 62
7
  6
CONTINUOUS
 10
265.2157699588
 20
153.2931177421
 11
252.216354475
 21
153.2931177421
  0
LINE
  5
32F
100
AcDbEntity
  8
FASEN
100
AcDbLine
 62
7
  6
CONTINUOUS
 10
350.7160622169
 20
154.7931177421
 11
334.7160622169
 21
154.7931177421
  0
LINE
  5
330
100
AcDbEntity
  8
FASEN
100
AcDbLine
 62
7
  6
CONTINUOUS
 10
266.7160622169
 20
154.7931177421
 11
250.7160622169
 21
154.7931177421
  0
LINE
  5
331
100
AcDbEntity
  8
RUNDUNGEN
100
AcDbLine
 62
7
  6
CONTINUOUS
 10
244.2160622169
 20
177.2931177421
 11
244.2160622169
 21
188.2931177421
  0
LINE
  5
332
100
AcDbEntity
  8
BEZUGSACHSEN
100
AcDbLine
 62
7
  6
CONTINUOUS
 10
244.2160622169
 20
177.2931177421
 11
244.2175922792
 21
197.2931177421
  0
LINE
  5
333
100
AcDbEntity
  8
0
100
AcDbLine
 62
7
  6
CONTINUOUS
 10
246.7160622169
 20
197.2931177421
 11
246.7160622169
 21
198.2931177421
  0
LINE
  5
334
100
AcDbEntity
  8
0
100
AcDbLine
 62
7
  6
CONTINUOUS
 10
249.0649990326
 20
198.2931177421
 11
249.0649990326
 21
198.4931177421
  0
LINE
  5
335
100
AcDbEntity
  8
0
100
AcDbLine
 62
7
  6
CONTINUOUS
 10
249.1358349669
 20
198.2931177421
 11
249.1358349669
 21
198.4931177421
  0
LINE
  5
336
100
AcDbEntity
  8
0
100
AcDbLine
 62
7
  6
CONTINUOUS
 10
249.80604148
 20
198.2931177421
 11
249.80604148
 21
198.4931177421
  0
LINE
  5
337
100
AcDbEntity
  8
BEZUGSACHSEN
100
AcDbLine
 62
7
  6
CONTINUOUS
 10
250.7160622169
 20
154.7931177421
 11
250.7160622169
 21
177.2931177421
  0
LINE
  5
338
100
AcDbEntity
  8
0
100
AcDbLine
 62
7
  6
CONTINUOUS
 10
251.2441711423
 20
198.2931177421
 11
251.2441711423
 21
198.4931177421
  0
LINE
  5
339
100
AcDbEntity
  8
0
100
AcDbLine
 62
7
  6
CONTINUOUS
 10
251.5841203174
 20
198.2931177421
 11
251.5841203174
 21
198.4931177421
  0
LINE
  5
33A
100
AcDbEntity
  8
0
100
AcDbLine
 62
7
  6
CONTINUOUS
 10
252.943917018
 20
198.2931177421
 11
252.943917018
 21
198.4931177421
  0
LINE
  5
33B
100
AcDbEntity
  8
0
100
AcDbLine
 62
7
  6
CONTINUOUS
 10
253.2838663552
 20
198.2931177421
 11
253.2838663552
 21
198.4931177421
  0
LINE
  5
33C
100
AcDbEntity
  8
0
100
AcDbLine
 62
7
  6
CONTINUOUS
 10
254.736999158
 20
198.2931177421
 11
254.736999158
 21
198.4931177421
  0
LINE
  5
33D
100
AcDbEntity
  8
0
100
AcDbLine
 62
7
  6
CONTINUOUS
 10
254.9147170808
 20
198.2931177421
 11
254.9147170808
 21
198.4931177421
  0
LINE
  5
33E
100
AcDbEntity
  8
0
100
AcDbLine
 62
7
  6
CONTINUOUS
 10
254.9889016493
 20
198.2931177421
 11
254.9889016493
 21
198.4931177421
  0
LINE
  5
33F
100
AcDbEntity
  8
0
100
AcDbLine
 62
7
  6
CONTINUOUS
 10
255.6032422077
 20
198.2931177421
 11
255.6032422077
 21
198.4931177421
  0
LINE
  5
340
100
AcDbEntity
  8
0
100
AcDbLine
 62
7
  6
CONTINUOUS
 10
255.6315453383
 20
198.2931177421
 11
255.6315453383
 21
198.4931177421
  0
LINE
  5
341
100
AcDbEntity
  8
0
100
AcDbLine
 62
7
  6
CONTINUOUS
 10
255.7885132031
 20
198.2931177421
 11
255.7885132031
 21
198.4931177421
  0
LINE
  5
342
100
AcDbEntity
  8
0
100
AcDbLine
 62
7
  6
CONTINUOUS
 10
256.0314308132
 20
198.2931177421
 11
256.0314308132
 21
198.4931177421
  0
LINE
  5
343
100
AcDbEntity
  8
0
100
AcDbLine
 62
7
  6
CONTINUOUS
 10
256.3747100269
 20
198.2931177421
 11
256.3747100269
 21
198.4931177421
  0
LINE
  5
344
100
AcDbEntity
  8
0
100
AcDbLine
 62
7
  6
CONTINUOUS
 10
258.091625863
 20
198.2931177421
 11
258.091625863
 21
198.4931177421
  0
LINE
  5
345
100
AcDbEntity
  8
0
100
AcDbLine
 62
7
  6
CONTINUOUS
 10
258.7160622169
 20
197.2931177421
 11
258.7160622169
 21
198.2931177421
  0
LINE
  5
346
100
AcDbEntity
  8
0
100
AcDbLine
 62
7
  6
CONTINUOUS
 10
258.7689736666
 20
198.2931177421
 11
258.7689736666
 21
198.4931177421
  0
LINE
  5
347
100
AcDbEntity
  8
0
100
AcDbLine
 62
7
  6
CONTINUOUS
 10
258.940018783
 20
198.2931177421
 11
258.940018783
 21
198.4931177421
  0
LINE
  5
348
100
AcDbEntity
  8
0
100
AcDbLine
 62
7
  6
CONTINUOUS
 10
259.0373667366
 20
198.2931177421
 11
259.0373667366
 21
198.4931177421
  0
LINE
  5
349
100
AcDbEntity
  8
RUNDUNGEN
100
AcDbLine
 62
7
  6
CONTINUOUS
 10
357.2160622169
 20
177.2931177421
 11
244.2160622169
 21
177.2931177421
  0
LINE
  5
34A
100
AcDbEntity
  8
BEZUGSACHSEN
100
AcDbLine
 62
7
  6
CONTINUOUS
 10
266.7160622169
 20
154.7931177421
 11
266.7160622169
 21
177.2931177421
  0
LINE
  5
34B
100
AcDbEntity
  8
0
100
AcDbLine
 62
7
  6
CONTINUOUS
 10
270.7160622169
 20
197.3858427928
 11
270.7160622169
 21
198.2931177421
  0
LINE
  5
34C
100
AcDbEntity
  8
RUNDUNGEN
100
AcDbLine
 62
7
  6
CONTINUOUS
 10
332.2160622169
 20
197.2931177421
 11
303.9160622169
 21
197.2931177421
  0
LINE
  5
34D
100
AcDbEntity
  8
RUNDUNGEN
100
AcDbLine
 62
7
  6
CONTINUOUS
 10
297.5160622169
 20
197.2931177421
 11
269.2160622169
 21
197.2931177421
  0
LINE
  5
34E
100
AcDbEntity
  8
BEZUGSACHSEN
100
AcDbLine
 62
7
  6
CONTINUOUS
 10
244.2175922792
 20
197.2931177421
 11
269.2160622169
 21
197.2931177421
  0
LINE
  5
34F
100
AcDbEntity
  8
BEZUGSACHSEN
100
AcDbLine
 62
7
  6
CONTINUOUS
 10
332.2160622169
 20
197.2931177421
 11
357.2145321546
 21
197.2931177421
  0
LINE
  5
350
100
AcDbEntity
  8
0
100
AcDbLine
 62
7
  6
CONTINUOUS
 10
246.7160622169
 20
198.2931177421
 11
270.7160622169
 21
198.2931177421
  0
LINE
  5
351
100
AcDbEntity
  8
0
100
AcDbLine
 62
7
  6
CONTINUOUS
 10
330.7160622169
 20
198.2931177421
 11
354.7160622169
 21
198.2931177421
  0
LINE
  5
352
100
AcDbEntity
  8
0
100
AcDbLine
 62
7
  6
CONTINUOUS
 10
249.0649990326
 20
198.4931177421
 11
259.0373667366
 21
198.4931177421
  0
LINE
  5
353
100
AcDbEntity
  8
0
100
AcDbLine
 62
7
  6
CONTINUOUS
 10
333.0176541892
 20
198.4931177421
 11
343.1523532164
 21
198.4931177421
  0
LINE
  5
354
100
AcDbEntity
  8
FASEN
100
AcDbLine
 62
7
  6
CONTINUOUS
 10
336.2160622169
 20
153.2931177421
 11
334.7160622169
 21
154.7931177421
  0
LINE
  5
355
100
AcDbEntity
  8
BEZUGSACHSEN
100
AcDbLine
 62
7
  6
CONTINUOUS
 10
287.2160622169
 20
274.8897989377
 11
287.2160622169
 21
230.8476301875
  0
LINE
  5
356
100
AcDbEntity
  8
BEZUGSACHSEN
100
AcDbLine
 62
7
  6
CONTINUOUS
 10
285.6478046369
 20
221.9543654532
 11
280.2641204041
 21
207.1628145901
  0
LINE
  5
357
100
AcDbEntity
  8
0
100
AcDbLine
 62
7
  6
CONTINUOUS
 10
308.4160622169
 20
206.6931177421
 11
309.4160622169
 21
206.6931177421
  0
LINE
  5
358
100
AcDbEntity
  8
0
100
AcDbLine
 62
7
  6
CONTINUOUS
 10
292.0160622169
 20
235.1323272139
 11
292.0160622169
 21
243.9117911817
  0
LINE
  5
359
100
AcDbEntity
  8
0
100
AcDbLine
 62
7
  6
CONTINUOUS
 10
292.0160622169
 20
244.6032750512
 11
292.0160622169
 21
253.382739019
  0
LINE
  5
35A
100
AcDbEntity
  8
RUNDUNGEN
100
AcDbLine
 62
7
  6
CONTINUOUS
 10
293.0160622169
 20
197.2931177421
 11
293.0160622169
 21
280.7931177421
  0
LINE
  5
35B
100
AcDbEntity
  8
0
100
AcDbLine
 62
7
  6
CONTINUOUS
 10
308.4160622169
 20
210.7700485666
 11
309.4160622169
 21
210.7700485666
  0
LINE
  5
35C
100
AcDbEntity
  8
0
100
AcDbLine
 62
7
  6
CONTINUOUS
 10
308.4160622169
 20
215.3356436826
 11
309.4160622169
 21
215.3356436826
  0
LINE
  5
35D
100
AcDbEntity
  8
0
100
AcDbLine
 62
7
  6
CONTINUOUS
 10
308.4160622169
 20
216.2000663145
 11
309.4160622169
 21
216.2000663145
  0
LINE
  5
35E
100
AcDbEntity
  8
0
100
AcDbLine
 62
7
  6
CONTINUOUS
 10
308.4160622169
 20
216.7007690563
 11
309.4160622169
 21
216.7007690563
  0
LINE
  5
35F
100
AcDbEntity
  8
0
100
AcDbLine
 62
7
  6
CONTINUOUS
 10
308.4160622169
 20
216.9244956511
 11
309.4160622169
 21
216.9244956511
  0
LINE
  5
360
100
AcDbEntity
  8
0
100
AcDbLine
 62
7
  6
CONTINUOUS
 10
308.4160622169
 20
219.5207723575
 11
309.4160622169
 21
219.5207723575
  0
LINE
  5
361
100
AcDbEntity
  8
0
100
AcDbLine
 62
7
  6
CONTINUOUS
 10
308.4160622169
 20
220.6621716808
 11
309.4160622169
 21
220.6621716808
  0
LINE
  5
362
100
AcDbEntity
  8
0
100
AcDbLine
 62
7
  6
CONTINUOUS
 10
308.4160622169
 20
221.3608254925
 11
309.4160622169
 21
221.3608254925
  0
LINE
  5
363
100
AcDbEntity
  8
0
100
AcDbLine
 62
7
  6
CONTINUOUS
 10
308.4160622169
 20
222.0015209854
 11
309.4160622169
 21
222.0015209854
  0
LINE
  5
364
100
AcDbEntity
  8
0
100
AcDbLine
 62
7
  6
CONTINUOUS
 10
308.4160622169
 20
222.5387272728
 11
309.4160622169
 21
222.5387272728
  0
LINE
  5
365
100
AcDbEntity
  8
0
100
AcDbLine
 62
7
  6
CONTINUOUS
 10
308.4160622169
 20
225.2277667967
 11
309.4160622169
 21
225.2277667967
  0
LINE
  5
366
100
AcDbEntity
  8
RUNDUNGEN
100
AcDbLine
 62
7
  6
CONTINUOUS
 10
308.4160622169
 20
280.7931177421
 11
308.4160622169
 21
197.2931177421
  0
LINE
  5
367
100
AcDbEntity
  8
0
100
AcDbLine
 62
7
  6
CONTINUOUS
 10
309.4160622169
 20
234.3559471294
 11
309.4160622169
 21
206.6931177421
  0
LINE
  5
368
100
AcDbEntity
  8
0
100
AcDbLine
 62
7
  6
CONTINUOUS
 10
308.4160622169
 20
226.3691655757
 11
309.4160622169
 21
226.3691655757
  0
LINE
  5
369
100
AcDbEntity
  8
0
100
AcDbLine
 62
7
  6
CONTINUOUS
 10
308.4160622169
 20
227.8910302516
 11
309.4160622169
 21
227.8910302516
  0
LINE
  5
36A
100
AcDbEntity
  8
RUNDUNGEN
100
AcDbLine
 62
7
  6
CONTINUOUS
 10
314.2160622169
 20
274.8897989377
 11
314.2160622169
 21
230.8476301875
  0
LINE
  5
36B
100
AcDbEntity
  8
0
100
AcDbLine
 62
7
  6
CONTINUOUS
 10
308.4160622169
 20
232.4566253675
 11
309.4160622169
 21
232.4566253675
  0
LINE
  5
36C
100
AcDbEntity
  8
0
100
AcDbLine
 62
7
  6
CONTINUOUS
 10
308.4160622169
 20
233.3210485437
 11
309.4160622169
 21
233.3210485437
  0
LINE
  5
36D
100
AcDbEntity
  8
0
100
AcDbLine
 62
7
  6
CONTINUOUS
 10
308.4160622169
 20
233.90849394
 11
309.4160622169
 21
233.90849394
  0
LINE
  5
36E
100
AcDbEntity
  8
0
100
AcDbLine
 62
7
  6
CONTINUOUS
 10
308.4160622169
 20
234.3224529388
 11
309.4160622169
 21
234.3224529388
  0
LINE
  5
36F
100
AcDbEntity
  8
0
100
AcDbLine
 62
7
  6
CONTINUOUS
 10
308.4160622169
 20
234.3559471294
 11
309.4160622169
 21
234.3559471294
  0
LINE
  5
370
100
AcDbEntity
  8
0
100
AcDbLine
 62
7
  6
CONTINUOUS
 10
293.0160622169
 20
235.1323272139
 11
292.0160622169
 21
235.1323272139
  0
LINE
  5
371
100
AcDbEntity
  8
0
100
AcDbLine
 62
7
  6
CONTINUOUS
 10
293.0160622169
 20
235.8074389362
 11
292.0160622169
 21
235.8074389362
  0
LINE
  5
372
100
AcDbEntity
  8
BEZUGSACHSEN
100
AcDbLine
 62
7
  6
CONTINUOUS
 10
315.7843197969
 20
221.9543654532
 11
319.1605741628
 21
212.6781828204
  0
LINE
  5
373
100
AcDbEntity
  8
RUNDUNGEN
100
AcDbLine
 62
7
  6
CONTINUOUS
 10
315.7839870099
 20
221.9552797779
 11
321.1680040297
 21
207.1628145901
  0
LINE
  5
374
100
AcDbEntity
  8
FASEN
100
AcDbLine
 62
7
  6
CONTINUOUS
 10
265.2160622169
 20
153.2931177421
 11
266.7160622169
 21
154.7931177421
  0
LINE
  5
375
100
AcDbEntity
  8
0
100
AcDbLine
 62
7
  6
CONTINUOUS
 10
293.0160622169
 20
238.1339261825
 11
292.0160622169
 21
238.1339261825
  0
LINE
  5
376
100
AcDbEntity
  8
0
100
AcDbLine
 62
7
  6
CONTINUOUS
 10
293.0160622169
 20
238.8090379047
 11
292.0160622169
 21
238.8090379047
  0
LINE
  5
377
100
AcDbEntity
  8
0
100
AcDbLine
 62
7
  6
CONTINUOUS
 10
293.0160622169
 20
238.9032829225
 11
292.0160622169
 21
238.9032829225
  0
LINE
  5
378
100
AcDbEntity
  8
0
100
AcDbLine
 62
7
  6
CONTINUOUS
 10
293.0160622169
 20
239.5783946448
 11
292.0160622169
 21
239.5783946448
  0
LINE
  5
379
100
AcDbEntity
  8
0
100
AcDbLine
 62
7
  6
CONTINUOUS
 10
293.0160622169
 20
243.912211027
 11
292.0160622169
 21
243.912211027
  0
LINE
  5
37A
100
AcDbEntity
  8
0
100
AcDbLine
 62
7
  6
CONTINUOUS
 10
293.0160622169
 20
244.6032750512
 11
292.0160622169
 21
244.6032750512
  0
LINE
  5
37B
100
AcDbEntity
  8
0
100
AcDbLine
 62
7
  6
CONTINUOUS
 10
293.0160622169
 20
245.2783867735
 11
292.0160622169
 21
245.2783867735
  0
LINE
  5
37C
100
AcDbEntity
  8
0
100
AcDbLine
 62
7
  6
CONTINUOUS
 10
293.0160622169
 20
248.3742307599
 11
292.0160622169
 21
248.3742307599
  0
LINE
  5
37D
100
AcDbEntity
  8
0
100
AcDbLine
 62
7
  6
CONTINUOUS
 10
330.7160622169
 20
197.3858449928
 11
330.7160622169
 21
198.2931177421
  0
LINE
  5
37E
100
AcDbEntity
  8
0
100
AcDbLine
 62
7
  6
CONTINUOUS
 10
333.0176541892
 20
198.2931177421
 11
333.0176541892
 21
198.4931177421
  0
LINE
  5
37F
100
AcDbEntity
  8
0
100
AcDbLine
 62
7
  6
CONTINUOUS
 10
333.0831108914
 20
198.2931177421
 11
333.0831108914
 21
198.4931177421
  0
LINE
  5
380
100
AcDbEntity
  8
0
100
AcDbLine
 62
7
  6
CONTINUOUS
 10
333.7294743274
 20
198.2931177421
 11
333.7294743274
 21
198.4931177421
  0
LINE
  5
381
100
AcDbEntity
  8
BEZUGSACHSEN
100
AcDbLine
 62
7
  6
CONTINUOUS
 10
334.7160622169
 20
177.2931177421
 11
334.7160622169
 21
154.7931177421
  0
LINE
  5
382
100
AcDbEntity
  8
0
100
AcDbLine
 62
7
  6
CONTINUOUS
 10
335.1400146645
 20
198.2931177421
 11
335.1400146645
 21
198.4931177421
  0
LINE
  5
383
100
AcDbEntity
  8
0
100
AcDbLine
 62
7
  6
CONTINUOUS
 10
335.4758776424
 20
198.2931177421
 11
335.4758776424
 21
198.4931177421
  0
LINE
  5
384
100
AcDbEntity
  8
0
100
AcDbLine
 62
7
  6
CONTINUOUS
 10
293.0160622169
 20
249.0493424821
 11
292.0160622169
 21
249.0493424821
  0
LINE
  5
385
100
AcDbEntity
  8
0
100
AcDbLine
 62
7
  6
CONTINUOUS
 10
293.0160622169
 20
253.3831588644
 11
292.0160622169
 21
253.3831588644
  0
LINE
  5
386
100
AcDbEntity
  8
0
100
AcDbLine
 62
7
  6
CONTINUOUS
 10
336.8193295542
 20
198.2931177421
 11
336.8193295542
 21
198.4931177421
  0
LINE
  5
387
100
AcDbEntity
  8
0
100
AcDbLine
 62
7
  6
CONTINUOUS
 10
337.1551926923
 20
198.2931177421
 11
337.1551926923
 21
198.4931177421
  0
LINE
  5
388
100
AcDbEntity
  8
0
100
AcDbLine
 62
7
  6
CONTINUOUS
 10
338.6345445617
 20
198.2931177421
 11
338.6345445617
 21
198.4931177421
  0
LINE
  5
389
100
AcDbEntity
  8
0
100
AcDbLine
 62
7
  6
CONTINUOUS
 10
338.8171723998
 20
198.2931177421
 11
338.8171723998
 21
198.4931177421
  0
LINE
  5
38A
100
AcDbEntity
  8
0
100
AcDbLine
 62
7
  6
CONTINUOUS
 10
338.8961021402
 20
198.2931177421
 11
338.8961021402
 21
198.4931177421
  0
LINE
  5
38B
100
AcDbEntity
  8
0
100
AcDbLine
 62
7
  6
CONTINUOUS
 10
339.4712614527
 20
198.2931177421
 11
339.4712614527
 21
198.4931177421
  0
LINE
  5
38C
100
AcDbEntity
  8
0
100
AcDbLine
 62
7
  6
CONTINUOUS
 10
339.4961311295
 20
198.2931177421
 11
339.4961311295
 21
198.4931177421
  0
LINE
  5
38D
100
AcDbEntity
  8
0
100
AcDbLine
 62
7
  6
CONTINUOUS
 10
339.6481623348
 20
198.2931177421
 11
339.6481623348
 21
198.4931177421
  0
LINE
  5
38E
100
AcDbEntity
  8
0
100
AcDbLine
 62
7
  6
CONTINUOUS
 10
339.8870007936
 20
198.2931177421
 11
339.8870007936
 21
198.4931177421
  0
LINE
  5
38F
100
AcDbEntity
  8
0
100
AcDbLine
 62
7
  6
CONTINUOUS
 10
340.2281311041
 20
198.2931177421
 11
340.2281311041
 21
198.4931177421
  0
LINE
  5
390
100
AcDbEntity
  8
0
100
AcDbLine
 62
7
  6
CONTINUOUS
 10
341.9398813601
 20
198.2931177421
 11
341.9398813601
 21
198.4931177421
  0
LINE
  5
391
100
AcDbEntity
  8
0
100
AcDbLine
 62
7
  6
CONTINUOUS
 10
342.6676479734
 20
198.2931177421
 11
342.6676479734
 21
198.4931177421
  0
LINE
  5
392
100
AcDbEntity
  8
0
100
AcDbLine
 62
7
  6
CONTINUOUS
 10
342.7160622169
 20
197.2931177421
 11
342.7160622169
 21
198.2931177421
  0
LINE
  5
393
100
AcDbEntity
  8
0
100
AcDbLine
 62
7
  6
CONTINUOUS
 10
342.8654453169
 20
198.2931177421
 11
342.8654453169
 21
198.4931177421
  0
LINE
  5
394
100
AcDbEntity
  8
0
100
AcDbLine
 62
7
  6
CONTINUOUS
 10
343.0493127147
 20
198.2931177421
 11
343.0493127147
 21
198.4931177421
  0
LINE
  5
395
100
AcDbEntity
  8
0
100
AcDbLine
 62
7
  6
CONTINUOUS
 10
343.1523532164
 20
198.2931177421
 11
343.1523532164
 21
198.4931177421
  0
LINE
  5
396
100
AcDbEntity
  8
BEZUGSACHSEN
100
AcDbLine
 62
7
  6
CONTINUOUS
 10
350.7160622169
 20
177.2931177421
 11
350.7160622169
 21
154.7931177421
  0
LINE
  5
397
100
AcDbEntity
  8
0
100
AcDbLine
 62
7
  6
CONTINUOUS
 10
354.7160622169
 20
197.2931177421
 11
354.7160622169
 21
198.2931177421
  0
LINE
  5
398
100
AcDbEntity
  8
BEZUGSACHSEN
100
AcDbLine
 62
7
  6
CONTINUOUS
 10
357.2145321546
 20
197.2931177421
 11
357.2160622169
 21
177.2931177421
  0
LINE
  5
399
100
AcDbEntity
  8
RUNDUNGEN
100
AcDbLine
 62
7
  6
CONTINUOUS
 10
357.2160622169
 20
188.2931177421
 11
357.2160622169
 21
177.2931177421
  0
LINE
  5
39A
100
AcDbEntity
  8
BEZUGSACHSEN
100
AcDbLine
 62
7
  6
CONTINUOUS
 10
291.2160622169
 20
278.8899902631
 11
293.0160622169
 21
278.8899902631
  0
LINE
  5
39B
100
AcDbEntity
  8
RUNDUNGEN
100
AcDbLine
 62
7
  6
CONTINUOUS
 10
308.4160622169
 20
278.8899902631
 11
310.2160622169
 21
278.8899902631
  0
LINE
  5
39C
100
AcDbEntity
  8
BEZUGSACHSEN
100
AcDbLine
 62
7
  6
CONTINUOUS
 10
303.9160622169
 20
285.2931177421
 11
297.5160622169
 21
285.2931177421
  0
LINE
  5
39D
100
AcDbEntity
  8
FASEN
100
AcDbLine
 62
7
  6
CONTINUOUS
 10
349.2160622169
 20
153.2931177421
 11
350.7160622169
 21
154.7931177421
  0
LINE
  5
39E
100
AcDbEntity
  8
RUNDUNGEN
100
AcDbLine
 62
7
  6
CONTINUOUS
 10
38.9553775079
 20
39.6828992796
 11
38.9553775079
 21
102.6828992796
  0
LINE
  5
39F
100
AcDbEntity
  8
0
100
AcDbLine
 62
7
  6
CONTINUOUS
 10
51.334187276
 20
63.4828992796
 11
51.334187276
 21
62.4828992796
  0
LINE
  5
3A0
100
AcDbEntity
  8
0
100
AcDbLine
 62
7
  6
CONTINUOUS
 10
53.3726526882
 20
63.4828992796
 11
53.3726526882
 21
62.4828992796
  0
LINE
  5
3A1
100
AcDbEntity
  8
0
100
AcDbLine
 62
7
  6
CONTINUOUS
 10
53.9916136835
 20
63.4828992796
 11
53.9916136835
 21
62.4828992796
  0
LINE
  5
3A2
100
AcDbEntity
  8
0
100
AcDbLine
 62
7
  6
CONTINUOUS
 10
54.9141996981
 20
63.4828992796
 11
54.9141996981
 21
62.4828992796
  0
LINE
  5
3A3
100
AcDbEntity
  8
0
100
AcDbLine
 62
7
  6
CONTINUOUS
 10
55.2412459018
 20
63.4828992796
 11
55.2412459018
 21
62.4828992796
  0
LINE
  5
3A4
100
AcDbEntity
  8
0
100
AcDbLine
 62
7
  6
CONTINUOUS
 10
55.7508624978
 20
63.4828992796
 11
55.7508624978
 21
62.4828992796
  0
LINE
  5
3A5
100
AcDbEntity
  8
0
100
AcDbLine
 62
7
  6
CONTINUOUS
 10
67.6133305543
 20
115.8675306833
 11
67.4697132384
 21
115.5242514695
  0
LINE
  5
3A6
100
AcDbEntity
  8
0
100
AcDbLine
 62
7
  6
CONTINUOUS
 10
72.3022447219
 20
117.5451223184
 11
72.4738743628
 21
117.8752884391
  0
LINE
  5
3A7
100
AcDbEntity
  8
0
100
AcDbLine
 62
7
  6
CONTINUOUS
 10
67.8491258357
 20
115.5237312928
 11
67.964520313
 21
115.7239341186
  0
LINE
  5
3A8
100
AcDbEntity
  8
0
100
AcDbLine
 62
7
  6
CONTINUOUS
 10
70.5271742776
 20
125.1828992796
 11
63.5989710474
 21
113.1828992796
  0
LINE
  5
3A9
100
AcDbEntity
  8
0
100
AcDbLine
 62
7
  6
CONTINUOUS
 10
75.3545516835
 20
120.3445629243
 11
75.2095183453
 21
120.1232060036
  0
LINE
  5
3AA
100
AcDbEntity
  8
0
100
AcDbLine
 62
7
  6
CONTINUOUS
 10
70.3170303397
 20
120.6547903541
 11
70.0416382405
 21
120.314841179
  0
LINE
  5
3AB
100
AcDbEntity
  8
0
100
AcDbLine
 62
7
  6
CONTINUOUS
 10
68.9400698435
 20
118.9550444785
 11
68.6646776129
 21
118.6150951413
  0
LINE
  5
3AC
100
AcDbEntity
  8
0
100
AcDbLine
 62
7
  6
CONTINUOUS
 10
71.9550625865
 20
117.8263738233
 11
71.7714677661
 21
117.5997409318
  0
LINE
  5
3AD
100
AcDbEntity
  8
0
100
AcDbLine
 62
7
  6
CONTINUOUS
 10
72.1186499015
 20
117.3184894269
 11
72.3022447219
 21
117.5451223184
  0
LINE
  5
3AE
100
AcDbEntity
  8
0
100
AcDbLine
 62
7
  6
CONTINUOUS
 10
75.447992814
 20
119.7383882707
 11
75.660383309
 21
119.9876703262
  0
LINE
  5
3AF
100
AcDbEntity
  8
0
100
AcDbLine
 62
7
  6
CONTINUOUS
 10
67.8889569101
 20
116.1104482934
 11
67.6133305543
 21
115.8675306833
  0
LINE
  5
3B0
100
AcDbEntity
  8
0
100
AcDbLine
 62
7
  6
CONTINUOUS
 10
71.8312928855
 20
117.0820738052
 11
72.1186499015
 21
117.3184894269
  0
LINE
  5
3B1
100
AcDbEntity
  8
0
100
AcDbLine
 62
7
  6
CONTINUOUS
 10
75.2095183453
 20
120.1232060036
 11
74.9686084201
 21
119.9427144954
  0
LINE
  5
3B2
100
AcDbEntity
  8
0
100
AcDbLine
 62
7
  6
CONTINUOUS
 10
71.7714677661
 20
117.5997409318
 11
71.5300095258
 21
117.4199836099
  0
LINE
  5
3B3
100
AcDbEntity
  8
0
100
AcDbLine
 62
7
  6
CONTINUOUS
 10
75.1397249763
 20
119.5299712721
 11
75.447992814
 21
119.7383882707
  0
LINE
  5
3B4
100
AcDbEntity
  8
0
100
AcDbLine
 62
7
  6
CONTINUOUS
 10
67.964520313
 20
115.7239341186
 11
68.1388636309
 21
115.8381871991
  0
LINE
  5
3B5
100
AcDbEntity
  8
0
100
AcDbLine
 62
7
  6
CONTINUOUS
 10
69.2441665918
 20
31.9720800231
 11
68.9982902941
 21
32.2479863818
  0
LINE
  5
3B6
100
AcDbEntity
  8
0
100
AcDbLine
 62
7
  6
CONTINUOUS
 10
68.8344790397
 20
31.835533212
 11
68.9498362719
 21
31.6619185009
  0
LINE
  5
3B7
100
AcDbEntity
  8
0
100
AcDbLine
 62
7
  6
CONTINUOUS
 10
63.5989710474
 20
29.1828992796
 11
70.5271742776
 21
17.1828992796
  0
LINE
  5
3B8
100
AcDbEntity
  8
0
100
AcDbLine
 62
7
  6
CONTINUOUS
 10
57.7893279101
 20
63.4828992796
 11
57.7893279101
 21
62.4828992796
  0
LINE
  5
3B9
100
AcDbEntity
  8
0
100
AcDbLine
 62
7
  6
CONTINUOUS
 10
58.2989442631
 20
63.4828992796
 11
58.2989442631
 21
62.4828992796
  0
LINE
  5
3BA
100
AcDbEntity
  8
0
100
AcDbLine
 62
7
  6
CONTINUOUS
 10
58.9784325719
 20
63.4828992796
 11
58.9784325719
 21
62.4828992796
  0
LINE
  5
3BB
100
AcDbEntity
  8
0
100
AcDbLine
 62
7
  6
CONTINUOUS
 10
61.0168979841
 20
63.4828992796
 11
61.0168979841
 21
62.4828992796
  0
LINE
  5
3BC
100
AcDbEntity
  8
0
100
AcDbLine
 62
7
  6
CONTINUOUS
 10
61.6358592224
 20
63.4828992796
 11
61.6358592224
 21
62.4828992796
  0
LINE
  5
3BD
100
AcDbEntity
  8
0
100
AcDbLine
 62
7
  6
CONTINUOUS
 10
62.3641643739
 20
63.4828992796
 11
62.3641643739
 21
62.4828992796
  0
LINE
  5
3BE
100
AcDbEntity
  8
0
100
AcDbLine
 62
7
  6
CONTINUOUS
 10
63.4541072227
 20
78.8828992796
 11
63.4541072227
 21
79.8828992796
  0
LINE
  5
3BF
100
AcDbEntity
  8
0
100
AcDbLine
 62
7
  6
CONTINUOUS
 10
63.4810307656
 20
63.4828992796
 11
63.4810307656
 21
62.4828992796
  0
LINE
  5
3C0
100
AcDbEntity
  8
0
100
AcDbLine
 62
7
  6
CONTINUOUS
 10
67.4697132384
 20
115.5242514695
 11
67.1310393366
 21
113.8073356334
  0
LINE
  5
3C1
100
AcDbEntity
  8
0
100
AcDbLine
 62
7
  6
CONTINUOUS
 10
67.5810090102
 20
114.1645063241
 11
67.8491258357
 21
115.5237312928
  0
LINE
  5
3C2
100
AcDbEntity
  8
0
100
AcDbLine
 62
7
  6
CONTINUOUS
 10
68.9450296349
 20
115.3075564472
 11
68.6769128094
 21
113.9483314785
  0
LINE
  5
3C3
100
AcDbEntity
  8
0
100
AcDbLine
 62
7
  6
CONTINUOUS
 10
69.1152742472
 20
113.8618615565
 11
69.3551682543
 21
115.0780102396
  0
LINE
  5
3C4
100
AcDbEntity
  8
0
100
AcDbLine
 62
7
  6
CONTINUOUS
 10
70.5648710087
 20
113.1299878298
 11
70.6495394842
 21
113.5592167888
  0
LINE
  5
3C5
100
AcDbEntity
  8
0
100
AcDbLine
 62
7
  6
CONTINUOUS
 10
71.0023247851
 20
115.3476707166
 11
71.1011047001
 21
115.8484379719
  0
LINE
  5
3C6
100
AcDbEntity
  8
0
100
AcDbLine
 62
7
  6
CONTINUOUS
 10
72.4738743628
 20
117.8752884391
 11
72.541741803
 21
118.1956718336
  0
LINE
  5
3C7
100
AcDbEntity
  8
0
100
AcDbLine
 62
7
  6
CONTINUOUS
 10
75.660383309
 20
119.9876703262
 11
75.8157349561
 21
120.374533446
  0
LINE
  5
3C8
100
AcDbEntity
  8
0
100
AcDbLine
 62
7
  6
CONTINUOUS
 10
72.0807937243
 20
118.0998819602
 11
71.9550625865
 21
117.8263738233
  0
LINE
  5
3C9
100
AcDbEntity
  8
0
100
AcDbLine
 62
7
  6
CONTINUOUS
 10
74.568626162
 20
118.1828992796
 11
71.681874816
 21
113.1828992796
  0
LINE
  5
3CA
100
AcDbEntity
  8
0
100
AcDbLine
 62
7
  6
CONTINUOUS
 10
82.6052188386
 20
122.2163999448
 11
80.3848188449
 21
119.5108826434
  0
LINE
  5
3CB
100
AcDbEntity
  8
0
100
AcDbLine
 62
7
  6
CONTINUOUS
 10
80.7230085076
 20
119.2333326442
 11
82.470983027
 21
121.3632080352
  0
LINE
  5
3CC
100
AcDbEntity
  8
0
100
AcDbLine
 62
7
  6
CONTINUOUS
 10
84.5001210031
 20
119.69790804
 11
82.7521464837
 21
117.568032649
  0
LINE
  5
3CD
100
AcDbEntity
  8
0
100
AcDbLine
 62
7
  6
CONTINUOUS
 10
83.0903361463
 20
117.2904826498
 11
85.31073614
 21
119.9959999512
  0
LINE
  5
3CE
100
AcDbEntity
  8
0
100
AcDbLine
 62
7
  6
CONTINUOUS
 10
84.803451646
 20
120.41232495
 11
81.9737902658
 21
118.6885036421
  0
LINE
  5
3CF
100
AcDbEntity
  8
0
100
AcDbLine
 62
7
  6
CONTINUOUS
 10
81.9630377008
 20
118.2156489609
 11
84.5001210031
 21
119.69790804
  0
LINE
  5
3D0
100
AcDbEntity
  8
0
100
AcDbLine
 62
7
  6
CONTINUOUS
 10
68.2235321064
 20
116.2674161582
 11
67.8889569101
 21
116.1104482934
  0
LINE
  5
3D1
100
AcDbEntity
  8
0
100
AcDbLine
 62
7
  6
CONTINUOUS
 10
71.5319706849
 20
116.9491914167
 11
71.8312928855
 21
117.0820738052
  0
LINE
  5
3D2
100
AcDbEntity
  8
0
100
AcDbLine
 62
7
  6
CONTINUOUS
 10
73.79931195
 20
122.7631265296
 11
72.1827343213
 21
122.0929200165
  0
LINE
  5
3D3
100
AcDbEntity
  8
0
100
AcDbLine
 62
7
  6
CONTINUOUS
 10
72.7579952646
 20
121.8477284696
 11
73.9704284862
 21
122.3503833544
  0
LINE
  5
3D4
100
AcDbEntity
  8
0
100
AcDbLine
 62
7
  6
CONTINUOUS
 10
74.9686084201
 20
119.9427144954
 11
73.7561751986
 21
119.4400596106
  0
LINE
  5
3D5
100
AcDbEntity
  8
0
100
AcDbLine
 62
7
  6
CONTINUOUS
 10
73.5231473475
 20
118.859764759
 11
75.1397249763
 21
119.5299712721
  0
LINE
  5
3D6
100
AcDbEntity
  8
0
100
AcDbLine
 62
7
  6
CONTINUOUS
 10
68.6311195465
 20
31.9533092538
 11
68.8344790397
 21
31.835533212
  0
LINE
  5
3D7
100
AcDbEntity
  8
0
100
AcDbLine
 62
7
  6
CONTINUOUS
 10
68.9982902941
 20
32.2479863818
 11
68.7949308008
 21
32.3657624237
  0
LINE
  5
3D8
100
AcDbEntity
  8
0
100
AcDbLine
 62
7
  6
CONTINUOUS
 10
68.7455045666
 20
34.7437688041
 11
70.5177177557
 21
33.2644169348
  0
LINE
  5
3D9
100
AcDbEntity
  8
0
100
AcDbLine
 62
7
  6
CONTINUOUS
 10
70.7980789246
 20
33.6002800729
 11
69.0258657354
 21
35.0796319422
  0
LINE
  5
3DA
100
AcDbEntity
  8
0
100
AcDbLine
 62
7
  6
CONTINUOUS
 10
70.1473098761
 20
36.423083854
 11
71.9195230653
 21
34.9437319846
  0
LINE
  5
3DB
100
AcDbEntity
  8
0
100
AcDbLine
 62
7
  6
CONTINUOUS
 10
72.1998841005
 20
35.2795949626
 11
70.4276709113
 21
36.758946832
  0
LINE
  5
3DC
100
AcDbEntity
  8
0
100
AcDbLine
 62
7
  6
CONTINUOUS
 10
72.4389979704
 20
34.9850125849
 11
72.1998841005
 21
35.2795949626
  0
LINE
  5
3DD
100
AcDbEntity
  8
0
100
AcDbLine
 62
7
  6
CONTINUOUS
 10
71.9195230653
 20
34.9437319846
 11
72.1014687756
 21
34.6968706286
  0
LINE
  5
3DE
100
AcDbEntity
  8
0
100
AcDbLine
 62
7
  6
CONTINUOUS
 10
71.681874816
 20
29.1828992796
 11
74.568626162
 21
24.1828992796
  0
LINE
  5
3DF
100
AcDbEntity
  8
0
100
AcDbLine
 62
7
  6
CONTINUOUS
 10
72.5742170597
 20
34.682174246
 11
72.4389979704
 21
34.9850125849
  0
LINE
  5
3E0
100
AcDbEntity
  8
0
100
AcDbLine
 62
7
  6
CONTINUOUS
 10
72.3143198531
 20
38.1694871691
 11
73.6070467252
 21
34.916971645
  0
LINE
  5
3E1
100
AcDbEntity
  8
0
100
AcDbLine
 62
7
  6
CONTINUOUS
 10
72.1014687756
 20
34.6968706286
 11
72.1795196652
 21
34.4417533446
  0
LINE
  5
3E2
100
AcDbEntity
  8
0
100
AcDbLine
 62
7
  6
CONTINUOUS
 10
69.3292002439
 20
31.6558195934
 11
69.2441665918
 21
31.9720800231
  0
LINE
  5
3E3
100
AcDbEntity
  8
0
100
AcDbLine
 62
7
  6
CONTINUOUS
 10
72.6159822724
 20
34.2673813843
 11
72.5742170597
 21
34.682174246
  0
LINE
  5
3E4
100
AcDbEntity
  8
0
100
AcDbLine
 62
7
  6
CONTINUOUS
 10
64.4280256876
 20
63.4828992796
 11
64.4280256876
 21
62.4828992796
  0
LINE
  5
3E5
100
AcDbEntity
  8
0
100
AcDbLine
 62
7
  6
CONTINUOUS
 10
65.484365067
 20
63.4828992796
 11
65.484365067
 21
62.4828992796
  0
LINE
  5
3E6
100
AcDbEntity
  8
0
100
AcDbLine
 62
7
  6
CONTINUOUS
 10
67.2541072227
 20
78.8828992796
 11
67.2541072227
 21
79.8828992796
  0
LINE
  5
3E7
100
AcDbEntity
  8
0
100
AcDbLine
 62
7
  6
CONTINUOUS
 10
68.3985746403
 20
63.4828992796
 11
68.3985746403
 21
62.4828992796
  0
LINE
  5
3E8
100
AcDbEntity
  8
0
100
AcDbLine
 62
7
  6
CONTINUOUS
 10
69.2850420058
 20
63.4828992796
 11
69.2850420058
 21
62.4828992796
  0
LINE
  5
3E9
100
AcDbEntity
  8
0
100
AcDbLine
 62
7
  6
CONTINUOUS
 10
69.8922921805
 20
63.4828992796
 11
69.8922921805
 21
62.4828992796
  0
LINE
  5
3EA
100
AcDbEntity
  8
0
100
AcDbLine
 62
7
  6
CONTINUOUS
 10
70.3296708174
 20
63.4828992796
 11
70.3296708174
 21
62.4828992796
  0
LINE
  5
3EB
100
AcDbEntity
  8
0
100
AcDbLine
 62
7
  6
CONTINUOUS
 10
70.3784881972
 20
63.4828992796
 11
70.3784881972
 21
62.4828992796
  0
LINE
  5
3EC
100
AcDbEntity
  8
0
100
AcDbLine
 62
7
  6
CONTINUOUS
 10
72.1027623685
 20
118.3636070712
 11
72.0807937243
 21
118.0998819602
  0
LINE
  5
3ED
100
AcDbEntity
  8
0
100
AcDbLine
 62
7
  6
CONTINUOUS
 10
75.4037084748
 20
120.6067851612
 11
75.3545516835
 21
120.3445629243
  0
LINE
  5
3EE
100
AcDbEntity
  8
0
100
AcDbLine
 62
7
  6
CONTINUOUS
 10
82.470983027
 20
121.3632080352
 11
81.5121172905
 21
118.5857163323
  0
LINE
  5
3EF
100
AcDbEntity
  8
0
100
AcDbLine
 62
7
  6
CONTINUOUS
 10
81.9737902658
 20
118.6885036421
 11
83.1125033326
 21
121.800074946
  0
LINE
  5
3F0
100
AcDbEntity
  8
0
100
AcDbLine
 62
7
  6
CONTINUOUS
 10
84.3349726004
 20
114.9462202251
 11
84.1596978293
 21
114.5562089252
  0
LINE
  5
3F1
100
AcDbEntity
  8
0
100
AcDbLine
 62
7
  6
CONTINUOUS
 10
84.5382849847
 20
114.5311873231
 11
84.6582227211
 21
114.7670866224
  0
LINE
  5
3F2
100
AcDbEntity
  8
0
100
AcDbLine
 62
7
  6
CONTINUOUS
 10
85.9882785014
 20
113.76125012
 11
85.868340765
 21
113.5253508207
  0
LINE
  5
3F3
100
AcDbEntity
  8
0
100
AcDbLine
 62
7
  6
CONTINUOUS
 10
80.3421288539
 20
108.1828992796
 11
83.2288801998
 21
113.1828992796
  0
LINE
  5
3F4
100
AcDbEntity
  8
0
100
AcDbLine
 62
7
  6
CONTINUOUS
 10
85.868340765
 20
113.5253508207
 11
85.7391393231
 21
113.3617762183
  0
LINE
  5
3F5
100
AcDbEntity
  8
0
100
AcDbLine
 62
7
  6
CONTINUOUS
 10
85.9977884849
 20
113.1008569666
 11
86.1915908598
 21
113.3462172148
  0
LINE
  5
3F6
100
AcDbEntity
  8
0
100
AcDbLine
 62
7
  6
CONTINUOUS
 10
84.6026396397
 20
115.2010414254
 11
84.3349726004
 21
114.9462202251
  0
LINE
  5
3F7
100
AcDbEntity
  8
0
100
AcDbLine
 62
7
  6
CONTINUOUS
 10
87.1703592026
 20
113.3245568722
 11
87.438026216
 21
113.5793780692
  0
LINE
  5
3F8
100
AcDbEntity
  8
0
100
AcDbLine
 62
7
  6
CONTINUOUS
 10
84.6582227211
 20
114.7670866224
 11
84.8612888532
 21
114.9401221803
  0
LINE
  5
3F9
100
AcDbEntity
  8
0
100
AcDbLine
 62
7
  6
CONTINUOUS
 10
87.1147761212
 20
113.7585116752
 11
86.9117098288
 21
113.5854777793
  0
LINE
  5
3FA
100
AcDbEntity
  8
0
100
AcDbLine
 62
7
  6
CONTINUOUS
 10
84.9534350489
 20
115.3929988811
 11
84.6026396397
 21
115.2010414254
  0
LINE
  5
3FB
100
AcDbEntity
  8
0
100
AcDbLine
 62
7
  6
CONTINUOUS
 10
85.6469931274
 20
112.9088995175
 11
85.9977884849
 21
113.1008569666
  0
LINE
  5
3FC
100
AcDbEntity
  8
0
100
AcDbLine
 62
7
  6
CONTINUOUS
 10
85.916294815
 20
118.0049678044
 11
85.3859785657
 21
117.7335335317
  0
LINE
  5
3FD
100
AcDbEntity
  8
0
100
AcDbLine
 62
7
  6
CONTINUOUS
 10
86.0493398051
 20
117.5815876266
 11
83.4640486235
 21
116.2583458202
  0
LINE
  5
3FE
100
AcDbEntity
  8
0
100
AcDbLine
 62
7
  6
CONTINUOUS
 10
83.6633831215
 20
115.8688949146
 11
86.7789903667
 21
117.4635708986
  0
LINE
  5
3FF
100
AcDbEntity
  8
0
100
AcDbLine
 62
7
  6
CONTINUOUS
 10
84.8612888532
 20
114.9401221803
 11
85.0736190632
 21
115.0408297239
  0
LINE
  5
400
100
AcDbEntity
  8
0
100
AcDbLine
 62
7
  6
CONTINUOUS
 10
85.7391393231
 20
113.3617762183
 11
85.5268090097
 21
113.2610686615
  0
LINE
  5
401
100
AcDbEntity
  8
0
100
AcDbLine
 62
7
  6
CONTINUOUS
 10
86.9580289926
 20
113.2238493286
 11
87.1703592026
 21
113.3245568722
  0
LINE
  5
402
100
AcDbEntity
  8
0
100
AcDbLine
 62
7
  6
CONTINUOUS
 10
71.5300095258
 20
117.4199836099
 11
71.2765860707
 21
117.3437595459
  0
LINE
  5
403
100
AcDbEntity
  8
BEZUGSACHSEN
100
AcDbLine
 62
7
  6
CONTINUOUS
 10
63.9553775079
 20
14.6828992796
 11
185.9553775079
 21
14.6828992796
  0
LINE
  5
404
100
AcDbEntity
  8
0
100
AcDbLine
 62
7
  6
CONTINUOUS
 10
70.5271742776
 20
17.1828992796
 11
84.3835807382
 21
17.1828992796
  0
LINE
  5
405
100
AcDbEntity
  8
0
100
AcDbLine
 62
7
  6
CONTINUOUS
 10
165.5271742776
 20
17.1828992796
 11
179.3835807382
 21
17.1828992796
  0
LINE
  5
406
100
AcDbEntity
  8
0
100
AcDbLine
 62
7
  6
CONTINUOUS
 10
71.0734782241
 20
33.465372936
 11
70.7980789246
 21
33.6002800729
  0
LINE
  5
407
100
AcDbEntity
  8
0
100
AcDbLine
 62
7
  6
CONTINUOUS
 10
85.0749119647
 20
29.1645858774
 11
84.8365257878
 21
29.2843739778
  0
LINE
  5
408
100
AcDbEntity
  8
0
100
AcDbLine
 62
7
  6
CONTINUOUS
 10
70.5177177557
 20
33.2644169348
 11
70.8502854823
 21
33.0817890966
  0
LINE
  5
409
100
AcDbEntity
  8
0
100
AcDbLine
 62
7
  6
CONTINUOUS
 10
84.5651407235
 20
29.0335161796
 11
84.8857218647
 21
28.8496487818
  0
LINE
  5
40A
100
AcDbEntity
  8
0
100
AcDbLine
 62
7
  6
CONTINUOUS
 10
74.6624459514
 20
38.3815511238
 11
74.8804822384
 21
38.2278073032
  0
LINE
  5
40B
100
AcDbEntity
  8
0
100
AcDbLine
 62
7
  6
CONTINUOUS
 10
85.552288905
 20
30.9063977731
 11
85.7166792608
 21
30.7782358675
  0
LINE
  5
40C
100
AcDbEntity
  8
0
100
AcDbLine
 62
7
  6
CONTINUOUS
 10
80.4775506039
 20
35.4671231599
 11
80.8116225293
 21
35.1846303304
  0
LINE
  5
40D
100
AcDbEntity
  8
0
100
AcDbLine
 62
7
  6
CONTINUOUS
 10
81.5911232636
 20
34.5254807542
 11
82.036553347
 21
34.1488229298
  0
LINE
  5
40E
100
AcDbEntity
  8
0
100
AcDbLine
 62
7
  6
CONTINUOUS
 10
82.8160540814
 20
33.4896733536
 11
83.1501260067
 21
33.2071805242
  0
LINE
  5
40F
100
AcDbEntity
  8
0
100
AcDbLine
 62
7
  6
CONTINUOUS
 10
75.2595417781
 20
38.4586008058
 11
75.0140007443
 21
38.6815468822
  0
LINE
  5
410
100
AcDbEntity
  8
0
100
AcDbLine
 62
7
  6
CONTINUOUS
 10
84.8365257878
 20
29.2843739778
 11
84.663936211
 21
29.4849889771
  0
LINE
  5
411
100
AcDbEntity
  8
0
100
AcDbLine
 62
7
  6
CONTINUOUS
 10
85.7166792608
 20
30.7782358675
 11
85.8892688377
 21
30.5776208681
  0
LINE
  5
412
100
AcDbEntity
  8
0
100
AcDbLine
 62
7
  6
CONTINUOUS
 10
86.2510482751
 20
30.6919446168
 11
85.9058691213
 21
31.0931746156
  0
LINE
  5
413
100
AcDbEntity
  8
0
100
AcDbLine
 62
7
  6
CONTINUOUS
 10
86.9746075448
 20
30.9205904793
 11
87.1471971217
 21
30.71997548
  0
LINE
  5
414
100
AcDbEntity
  8
0
100
AcDbLine
 62
7
  6
CONTINUOUS
 10
84.3021567282
 20
29.3706652233
 11
84.5651407235
 21
29.0335161796
  0
LINE
  5
415
100
AcDbEntity
  8
0
100
AcDbLine
 62
7
  6
CONTINUOUS
 10
87.5089765591
 20
30.8342992287
 11
87.2459925833
 21
31.1714482746
  0
LINE
  5
416
100
AcDbEntity
  8
0
100
AcDbLine
 62
7
  6
CONTINUOUS
 10
74.8804822384
 20
38.2278073032
 11
75.0582620152
 21
37.9779292115
  0
LINE
  5
417
100
AcDbEntity
  8
0
100
AcDbLine
 62
7
  6
CONTINUOUS
 10
75.4648264557
 20
38.1395200705
 11
75.2595417781
 21
38.4586008058
  0
LINE
  5
418
100
AcDbEntity
  8
0
100
AcDbLine
 62
7
  6
CONTINUOUS
 10
83.2288801998
 20
29.1828992796
 11
80.3421288539
 21
34.1828992796
  0
LINE
  5
419
100
AcDbEntity
  8
0
100
AcDbLine
 62
7
  6
CONTINUOUS
 10
83.5086212461
 20
32.169660108
 11
83.7022075961
 21
31.7773202361
  0
LINE
  5
41A
100
AcDbEntity
  8
0
100
AcDbLine
 62
7
  6
CONTINUOUS
 10
84.663936211
 20
29.4849889771
 11
84.5653424033
 21
29.6939777758
  0
LINE
  5
41B
100
AcDbEntity
  8
0
100
AcDbLine
 62
7
  6
CONTINUOUS
 10
73.8485822037
 20
35.4937772507
 11
72.8859132364
 21
37.9158633298
  0
LINE
  5
41C
100
AcDbEntity
  8
0
100
AcDbLine
 62
7
  6
CONTINUOUS
 10
75.0582620152
 20
37.9779292115
 11
75.4708344105
 21
36.9398923689
  0
LINE
  5
41D
100
AcDbEntity
  8
0
100
AcDbLine
 62
7
  6
CONTINUOUS
 10
75.877398851
 20
37.1014832279
 11
75.4648264557
 21
38.1395200705
  0
LINE
  5
41E
100
AcDbEntity
  8
0
100
AcDbLine
 62
7
  6
CONTINUOUS
 10
75.9471624883
 20
36.7285392722
 11
75.877398851
 21
37.1014832279
  0
LINE
  5
41F
100
AcDbEntity
  8
0
100
AcDbLine
 62
7
  6
CONTINUOUS
 10
68.9498362719
 20
31.6619185009
 11
68.9771912863
 21
31.4324653247
  0
LWPOLYLINE
  5
420
100
AcDbEntity
  8
RUNDUNGEN
100
AcDbPolyline
 62
7
  6
CONTINUOUS
 90
18
 70
0
 10
73.4068841127
 20
61.4719129273
 10
73.4217849367
 20
61.1263474082
 10
73.4712023294
 20
60.7561838404
 10
73.5507821172
 20
60.40669745
 10
73.6571386366
 20
60.0766174909
 10
73.7878148727
 20
59.764894564
 10
73.9419377011
 20
59.4692042752
 10
74.1169952151
 20
59.1916701261
 10
74.311356867
 20
58.9326272436
 10
74.5221237086
 20
58.6939344272
 10
74.7464774648
 20
58.4766520252
 10
74.9818381043
 20
58.281175859
 10
75.2260124807
 20
58.107354418
 10
75.47539454
 20
57.9556901497
 10
75.7274782155
 20
57.8254789996
 10
75.9779192364
 20
57.7164667029
 10
76.2227913512
 20
57.6274411969
 10
76.2616316387
 20
57.6147970027
  0
LINE
  5
421
100
AcDbEntity
  8
BEZUGSACHSEN
100
AcDbLine
 62
7
  6
CONTINUOUS
 10
73.4068836664
 20
61.4718938154
 11
73.4068836664
 21
63.4828992796
  0
LINE
  5
422
100
AcDbEntity
  8
BEZUGSACHSEN
100
AcDbLine
 62
7
  6
CONTINUOUS
 10
73.4068836664
 20
79.8828992796
 11
73.4068836664
 21
80.8939047437
  0
LINE
  5
423
100
AcDbEntity
  8
0
100
AcDbLine
 62
7
  6
CONTINUOUS
 10
75.8157349561
 20
120.374533446
 11
75.8363723047
 21
120.7055462603
  0
LINE
  5
424
100
AcDbEntity
  8
0
100
AcDbLine
 62
7
  6
CONTINUOUS
 10
72.1795196652
 20
34.4417533446
 11
72.153675507
 21
34.1783797791
  0
LINE
  5
425
100
AcDbEntity
  8
0
100
AcDbLine
 62
7
  6
CONTINUOUS
 10
84.4922118868
 20
114.3047489727
 11
84.5382849847
 21
114.5311873231
  0
LINE
  5
426
100
AcDbEntity
  8
0
100
AcDbLine
 62
7
  6
CONTINUOUS
 10
67.5052207373
 20
31.6708303924
 11
67.1413374307
 21
29.9590801363
  0
LINE
  5
427
100
AcDbEntity
  8
0
100
AcDbLine
 62
7
  6
CONTINUOUS
 10
67.5965103961
 20
30.3095957294
 11
67.884584666
 21
31.6647312808
  0
LINE
  5
428
100
AcDbEntity
  8
0
100
AcDbLine
 62
7
  6
CONTINUOUS
 10
86.1915908598
 20
113.3462172148
 11
86.3668656116
 21
113.7362285121
  0
LINE
  5
429
100
AcDbEntity
  8
0
100
AcDbLine
 62
7
  6
CONTINUOUS
 10
87.438026216
 20
113.5793780692
 11
87.6133007557
 21
113.969391022
  0
LINE
  5
42A
100
AcDbEntity
  8
0
100
AcDbLine
 62
7
  6
CONTINUOUS
 10
87.2347138576
 20
113.9944109745
 11
87.1147761212
 21
113.7585116752
  0
LINE
  5
42B
100
AcDbEntity
  8
0
100
AcDbLine
 62
7
  6
CONTINUOUS
 10
84.3835807382
 20
101.1828992796
 11
91.3117839685
 21
113.1828992796
  0
LINE
  5
42C
100
AcDbEntity
  8
0
100
AcDbLine
 62
7
  6
CONTINUOUS
 10
180.4929549411
 20
31.4205514031
 11
179.9832975998
 21
31.2890394047
  0
LINE
  5
42D
100
AcDbEntity
  8
0
100
AcDbLine
 62
7
  6
CONTINUOUS
 10
180.2724752227
 20
28.7533912978
 11
180.6424177018
 21
28.7955813345
  0
LINE
  5
42E
100
AcDbEntity
  8
0
100
AcDbLine
 62
7
  6
CONTINUOUS
 10
180.5271179261
 20
29.1493797091
 11
180.3051525007
 21
29.1240656942
  0
LINE
  5
42F
100
AcDbEntity
  8
0
100
AcDbLine
 62
7
  6
CONTINUOUS
 10
85.3050984934
 20
29.1172541815
 11
85.0749119647
 21
29.1645858774
  0
LINE
  5
430
100
AcDbEntity
  8
0
100
AcDbLine
 62
7
  6
CONTINUOUS
 10
85.3221022726
 20
30.9537294572
 11
85.552288905
 21
30.9063977731
  0
LINE
  5
431
100
AcDbEntity
  8
0
100
AcDbLine
 62
7
  6
CONTINUOUS
 10
67.1413374307
 20
29.9590801363
 11
70.5648379429
 21
29.2313135231
  0
LINE
  5
432
100
AcDbEntity
  8
0
100
AcDbLine
 62
7
  6
CONTINUOUS
 10
70.6558087695
 20
29.6592510871
 11
69.1261595828
 21
29.9844234083
  0
LINE
  5
433
100
AcDbEntity
  8
0
100
AcDbLine
 62
7
  6
CONTINUOUS
 10
68.6891170163
 20
30.0773297733
 11
67.5965103961
 21
30.3095957294
  0
LINE
  5
434
100
AcDbEntity
  8
0
100
AcDbLine
 62
7
  6
CONTINUOUS
 10
68.4125980592
 20
31.9997624797
 11
68.6311195465
 21
31.9533092538
  0
LINE
  5
435
100
AcDbEntity
  8
0
100
AcDbLine
 62
7
  6
CONTINUOUS
 10
68.7949308008
 20
32.3657624237
 11
68.5035688858
 21
32.4277000438
  0
LINE
  5
436
100
AcDbEntity
  8
0
100
AcDbLine
 62
7
  6
CONTINUOUS
 10
70.8502854823
 20
33.0817890966
 11
71.1724118839
 21
33.0028593563
  0
LINE
  5
437
100
AcDbEntity
  8
0
100
AcDbLine
 62
7
  6
CONTINUOUS
 10
84.8857218647
 20
28.8496487818
 11
85.27209958
 21
28.74660828
  0
LINE
  5
438
100
AcDbEntity
  8
0
100
AcDbLine
 62
7
  6
CONTINUOUS
 10
86.925411468
 20
31.3553156753
 11
86.5390335972
 21
31.4583561595
  0
LINE
  5
439
100
AcDbEntity
  8
0
100
AcDbLine
 62
7
  6
CONTINUOUS
 10
75.0140007443
 20
38.6815468822
 11
74.6329387473
 21
38.8506295444
  0
LINE
  5
43A
100
AcDbEntity
  8
0
100
AcDbLine
 62
7
  6
CONTINUOUS
 10
86.7362214198
 20
31.0403785856
 11
86.9746075448
 21
30.9205904793
  0
LINE
  5
43B
100
AcDbEntity
  8
0
100
AcDbLine
 62
7
  6
CONTINUOUS
 10
87.2459925833
 20
31.1714482746
 11
86.925411468
 21
31.3553156753
  0
LINE
  5
43C
100
AcDbEntity
  8
0
100
AcDbLine
 62
7
  6
CONTINUOUS
 10
85.4100686424
 20
35.8797559269
 11
84.9089607544
 21
36.3034951711
  0
LINE
  5
43D
100
AcDbEntity
  8
0
100
AcDbLine
 62
7
  6
CONTINUOUS
 10
83.2386011277
 20
37.7159593184
 11
82.7374932396
 21
38.1396985626
  0
LINE
  5
43E
100
AcDbEntity
  8
0
100
AcDbLine
 62
7
  6
CONTINUOUS
 10
91.3117839685
 20
29.1828992796
 11
84.3835807382
 21
41.1828992796
  0
LINE
  5
43F
100
AcDbEntity
  8
0
100
AcDbLine
 62
7
  6
CONTINUOUS
 10
86.8409265714
 20
33.3260110361
 11
86.6473402214
 21
33.718350908
  0
LINE
  5
440
100
AcDbEntity
  8
0
100
AcDbLine
 62
7
  6
CONTINUOUS
 10
85.8892688377
 20
30.5776208681
 11
85.9878626453
 21
30.3686320695
  0
LINE
  5
441
100
AcDbEntity
  8
0
100
AcDbLine
 62
7
  6
CONTINUOUS
 10
87.1471971217
 20
30.71997548
 11
87.2457909293
 21
30.5109866813
  0
LINE
  5
442
100
AcDbEntity
  8
0
100
AcDbLine
 62
7
  6
CONTINUOUS
 10
84.1871642844
 20
29.7245618671
 11
84.3021567282
 21
29.3706652233
  0
LINE
  5
443
100
AcDbEntity
  8
0
100
AcDbLine
 62
7
  6
CONTINUOUS
 10
86.3660407124
 20
30.3380479723
 11
86.2510482751
 21
30.6919446168
  0
LINE
  5
444
100
AcDbEntity
  8
0
100
AcDbLine
 62
7
  6
CONTINUOUS
 10
87.6239689964
 20
30.4804025841
 11
87.5089765591
 21
30.8342992287
  0
LINE
  5
445
100
AcDbEntity
  8
0
100
AcDbLine
 62
7
  6
CONTINUOUS
 10
75.4708344105
 20
36.9398923689
 11
75.513093224
 21
36.6361508629
  0
LINE
  5
446
100
AcDbEntity
  8
0
100
AcDbLine
 62
7
  6
CONTINUOUS
 10
68.914303633
 20
115.5365825804
 11
68.9450296349
 21
115.3075564472
  0
LINE
  5
447
100
AcDbEntity
  8
0
100
AcDbLine
 62
7
  6
CONTINUOUS
 10
79.0181190332
 20
78.8828992796
 11
79.0181190332
 21
79.8828992796
  0
LINE
  5
448
100
AcDbEntity
  8
0
100
AcDbLine
 62
7
  6
CONTINUOUS
 10
84.1596978293
 20
114.5562089252
 11
84.132152348
 21
114.1851195248
  0
LINE
  5
449
100
AcDbEntity
  8
0
100
AcDbLine
 62
7
  6
CONTINUOUS
 10
86.3668656116
 20
113.7362285121
 11
86.3944110863
 21
114.1073179118
  0
LINE
  5
44A
100
AcDbEntity
  8
0
100
AcDbLine
 62
7
  6
CONTINUOUS
 10
87.6133007557
 20
113.969391022
 11
87.6408462305
 21
114.3404804216
  0
LINE
  5
44B
100
AcDbEntity
  8
0
100
AcDbLine
 62
7
  6
CONTINUOUS
 10
75.9216600641
 20
36.3978657025
 11
75.9471624883
 21
36.7285392722
  0
LINE
  5
44C
100
AcDbEntity
  8
0
100
AcDbLine
 62
7
  6
CONTINUOUS
 10
75.513093224
 20
36.6361508629
 11
75.4600859567
 21
36.3746797914
  0
LINE
  5
44D
100
AcDbEntity
  8
0
100
AcDbLine
 62
7
  6
CONTINUOUS
 10
86.0343515993
 20
113.9876884704
 11
85.9882785014
 21
113.76125012
  0
LINE
  5
44E
100
AcDbEntity
  8
0
100
AcDbLine
 62
7
  6
CONTINUOUS
 10
87.2807869555
 20
114.2208493249
 11
87.2347138576
 21
113.9944109745
  0
LINE
  5
44F
100
AcDbEntity
  8
0
100
AcDbLine
 62
7
  6
CONTINUOUS
 10
68.9771912863
 20
31.4324653247
 11
68.6891170163
 21
30.0773297733
  0
LINE
  5
450
100
AcDbEntity
  8
0
100
AcDbLine
 62
7
  6
CONTINUOUS
 10
69.1261595828
 20
29.9844234083
 11
69.3839102511
 21
31.196913139
  0
LINE
  5
451
100
AcDbEntity
  8
0
100
AcDbLine
 62
7
  6
CONTINUOUS
 10
70.5648379429
 20
29.2313135231
 11
70.6558087695
 21
29.6592510871
  0
LINE
  5
452
100
AcDbEntity
  8
0
100
AcDbLine
 62
7
  6
CONTINUOUS
 10
71.0348538661
 20
31.4423242025
 11
71.1409865261
 21
31.9415848299
  0
LINE
  5
453
100
AcDbEntity
  8
0
100
AcDbLine
 62
7
  6
CONTINUOUS
 10
72.5434111608
 20
33.9480305698
 11
72.6159822724
 21
34.2673813843
  0
LINE
  5
454
100
AcDbEntity
  8
BEZUGSACHSEN
100
AcDbLine
 62
7
  6
CONTINUOUS
 10
77.3952971032
 20
85.4368726673
 11
77.3950049785
 21
85.4366241331
  0
LINE
  5
455
100
AcDbEntity
  8
BEZUGSACHSEN
100
AcDbLine
 62
7
  6
CONTINUOUS
 10
77.395004751
 20
85.4366244006
 11
77.2251531289
 21
85.2978507269
  0
LINE
  5
456
100
AcDbEntity
  8
0
100
AcDbLine
 62
7
  6
CONTINUOUS
 10
166.1385950918
 20
31.936104565
 11
164.3270574606
 21
31.6487672833
  0
LINE
  5
457
100
AcDbEntity
  8
0
100
AcDbLine
 62
7
  6
CONTINUOUS
 10
164.3821656569
 20
31.1899084755
 11
166.0328956983
 21
31.4367520304
  0
LINE
  5
458
100
AcDbEntity
  8
0
100
AcDbLine
 62
7
  6
CONTINUOUS
 10
180.098597272
 20
30.9352410183
 11
180.3205626973
 21
30.9605550332
  0
LINE
  5
459
100
AcDbEntity
  8
0
100
AcDbLine
 62
7
  6
CONTINUOUS
 10
180.9042083246
 20
31.1005066948
 11
181.0521852748
 21
31.1173827047
  0
LINE
  5
45A
100
AcDbEntity
  8
0
100
AcDbLine
 62
7
  6
CONTINUOUS
 10
181.0108742669
 20
31.4796174379
 11
180.4929549411
 21
31.4205514031
  0
LINE
  5
45B
100
AcDbEntity
  8
0
100
AcDbLine
 62
7
  6
CONTINUOUS
 10
163.1764957642
 20
31.9668422285
 11
163.4101571691
 21
31.9919146712
  0
LINE
  5
45C
100
AcDbEntity
  8
0
100
AcDbLine
 62
7
  6
CONTINUOUS
 10
163.5007566246
 20
32.4199310128
 11
163.2670952197
 21
32.3948585701
  0
LINE
  5
45D
100
AcDbEntity
  8
0
100
AcDbLine
 62
7
  6
CONTINUOUS
 10
166.1690995312
 20
32.9974059607
 11
166.5846505555
 21
33.0307908974
  0
LINE
  5
45E
100
AcDbEntity
  8
0
100
AcDbLine
 62
7
  6
CONTINUOUS
 10
74.568626162
 20
24.1828992796
 11
80.3421288539
 21
24.1828992796
  0
LINE
  5
45F
100
AcDbEntity
  8
0
100
AcDbLine
 62
7
  6
CONTINUOUS
 10
169.568626162
 20
24.1828992796
 11
175.3421288539
 21
24.1828992796
  0
LINE
  5
460
100
AcDbEntity
  8
0
100
AcDbLine
 62
7
  6
CONTINUOUS
 10
86.5390335972
 20
31.4583561595
 11
86.0128639916
 21
31.4721926581
  0
LINE
  5
461
100
AcDbEntity
  8
0
100
AcDbLine
 62
7
  6
CONTINUOUS
 10
86.0538606598
 20
31.1099222142
 11
86.5060346838
 21
31.087710258
  0
LINE
  5
462
100
AcDbEntity
  8
0
100
AcDbLine
 62
7
  6
CONTINUOUS
 10
71.3384365597
 20
33.4341644108
 11
71.0734782241
 21
33.465372936
  0
LINE
  5
463
100
AcDbEntity
  8
0
100
AcDbLine
 62
7
  6
CONTINUOUS
 10
86.5060346838
 20
31.087710258
 11
86.7362214198
 21
31.0403785856
  0
LINE
  5
464
100
AcDbEntity
  8
0
100
AcDbLine
 62
7
  6
CONTINUOUS
 10
74.4041540835
 20
38.4391605937
 11
74.6624459514
 21
38.3815511238
  0
LINE
  5
465
100
AcDbEntity
  8
0
100
AcDbLine
 62
7
  6
CONTINUOUS
 10
85.4520349818
 20
33.6164277253
 11
86.1130902467
 21
33.4547439947
  0
LINE
  5
466
100
AcDbEntity
  8
0
100
AcDbLine
 62
7
  6
CONTINUOUS
 10
86.6473402214
 20
33.718350908
 11
85.9862851436
 21
33.8800347308
  0
LINE
  5
467
100
AcDbEntity
  8
RUNDUNGEN
100
AcDbLine
 62
7
  6
CONTINUOUS
 10
77.2250076672
 20
57.0680617472
 11
77.3950085897
 21
56.9291708922
  0
LINE
  5
468
100
AcDbEntity
  8
RUNDUNGEN
100
AcDbLine
 62
7
  6
CONTINUOUS
 10
77.3952971032
 20
56.9289258919
 11
77.3950088172
 21
56.9291711597
  0
LINE
  5
469
100
AcDbEntity
  8
0
100
AcDbLine
 62
7
  6
CONTINUOUS
 10
69.2937162706
 20
115.5360626083
 11
69.2040414282
 21
115.8510384868
  0
LINE
  5
46A
100
AcDbEntity
  8
0
100
AcDbLine
 62
7
  6
CONTINUOUS
 10
75.3569879283
 20
120.9098724428
 11
75.4037084748
 21
120.6067851612
  0
LINE
  5
46B
100
AcDbEntity
  8
0
100
AcDbLine
 62
7
  6
CONTINUOUS
 10
72.541741803
 20
118.1956718336
 11
72.4938818732
 21
118.6098057228
  0
LINE
  5
46C
100
AcDbEntity
  8
0
100
AcDbLine
 62
7
  6
CONTINUOUS
 10
84.1461674286
 20
30.0868339694
 11
84.1871642844
 21
29.7245618671
  0
LINE
  5
46D
100
AcDbEntity
  8
0
100
AcDbLine
 62
7
  6
CONTINUOUS
 10
84.5653424033
 20
29.6939777758
 11
84.5079471055
 21
30.2011560656
  0
LINE
  5
46E
100
AcDbEntity
  8
0
100
AcDbLine
 62
7
  6
CONTINUOUS
 10
85.9878626453
 20
30.3686320695
 11
86.0452579432
 21
29.8614537797
  0
LINE
  5
46F
100
AcDbEntity
  8
0
100
AcDbLine
 62
7
  6
CONTINUOUS
 10
86.4070375682
 20
29.9757758701
 11
86.3660407124
 21
30.3380479723
  0
LINE
  5
470
100
AcDbEntity
  8
0
100
AcDbLine
 62
7
  6
CONTINUOUS
 10
86.9166070974
 20
29.4463856475
 11
86.9576037656
 21
29.0841152037
  0
LINE
  5
471
100
AcDbEntity
  8
0
100
AcDbLine
 62
7
  6
CONTINUOUS
 10
87.2457909293
 20
30.5109866813
 11
87.2949870062
 21
30.0762614853
  0
LINE
  5
472
100
AcDbEntity
  8
0
100
AcDbLine
 62
7
  6
CONTINUOUS
 10
87.6567664436
 20
30.190585234
 11
87.6239689964
 21
30.4804025841
  0
LINE
  5
473
100
AcDbEntity
  8
0
100
AcDbLine
 62
7
  6
CONTINUOUS
 10
84.1791665361
 20
30.4574782133
 11
84.1461674286
 21
30.0868339694
  0
LINE
  5
474
100
AcDbEntity
  8
0
100
AcDbLine
 62
7
  6
CONTINUOUS
 10
86.3740384672
 20
29.6051316269
 11
86.4070375682
 21
29.9757758701
  0
LINE
  5
475
100
AcDbEntity
  8
0
100
AcDbLine
 62
7
  6
CONTINUOUS
 10
87.6237673425
 20
29.8199409908
 11
87.6567664436
 21
30.190585234
  0
LINE
  5
476
100
AcDbEntity
  8
0
100
AcDbLine
 62
7
  6
CONTINUOUS
 10
67.6538702017
 20
32.0119607029
 11
67.5052207373
 21
31.6708303924
  0
LWPOLYLINE
  5
477
100
AcDbEntity
  8
BEZUGSACHSEN
100
AcDbPolyline
 62
7
  6
CONTINUOUS
 90
6
 70
0
 10
77.2251531289
 20
85.2978507269
 10
77.0052085619
 20
85.1354950608
 10
76.7998079929
 20
85.002444701
 10
76.6034328028
 20
84.8932615736
 10
76.4123224674
 20
84.805611756
 10
76.2674051856
 20
84.7528545769
  0
LINE
  5
478
100
AcDbEntity
  8
0
100
AcDbLine
 62
7
  6
CONTINUOUS
 10
169.2984719224
 20
38.8785715959
 11
168.9322200768
 21
38.8127970589
  0
LINE
  5
479
100
AcDbEntity
  8
0
100
AcDbLine
 62
7
  6
CONTINUOUS
 10
169.0976092543
 20
38.3977257186
 11
169.3961232382
 21
38.4365094515
  0
LINE
  5
47A
100
AcDbEntity
  8
0
100
AcDbLine
 62
7
  6
CONTINUOUS
 10
85.27209958
 20
28.74660828
 11
85.6420785297
 21
28.7884772883
  0
LINE
  5
47B
100
AcDbEntity
  8
0
100
AcDbLine
 62
7
  6
CONTINUOUS
 10
85.527085801
 20
29.1423755795
 11
85.3050984934
 21
29.1172541815
  0
LINE
  5
47C
100
AcDbEntity
  8
0
100
AcDbLine
 62
7
  6
CONTINUOUS
 10
85.100114965
 20
30.9286080592
 11
85.3221022726
 21
30.9537294572
  0
LINE
  5
47D
100
AcDbEntity
  8
0
100
AcDbLine
 62
7
  6
CONTINUOUS
 10
85.9058691213
 20
31.0931746156
 11
86.0538606598
 21
31.1099222142
  0
LINE
  5
47E
100
AcDbEntity
  8
0
100
AcDbLine
 62
7
  6
CONTINUOUS
 10
86.0128639916
 20
31.4721926581
 11
85.4948936071
 21
31.4135760628
  0
LINE
  5
47F
100
AcDbEntity
  8
0
100
AcDbLine
 62
7
  6
CONTINUOUS
 10
71.1724118839
 20
33.0028593563
 11
71.587991721
 21
33.0358836917
  0
LINE
  5
480
100
AcDbEntity
  8
0
100
AcDbLine
 62
7
  6
CONTINUOUS
 10
175.3421288539
 20
34.1828992796
 11
169.568626162
 21
34.1828992796
  0
LINE
  5
481
100
AcDbEntity
  8
0
100
AcDbLine
 62
7
  6
CONTINUOUS
 10
80.3421288539
 20
34.1828992796
 11
74.568626162
 21
34.1828992796
  0
LINE
  5
482
100
AcDbEntity
  8
0
100
AcDbLine
 62
7
  6
CONTINUOUS
 10
181.5370556808
 20
31.466237521
 11
181.0108742669
 21
31.4796174379
  0
LINE
  5
483
100
AcDbEntity
  8
0
100
AcDbLine
 62
7
  6
CONTINUOUS
 10
181.0521852748
 20
31.1173827047
 11
181.5043784027
 21
31.0955631247
  0
LINE
  5
484
100
AcDbEntity
  8
0
100
AcDbLine
 62
7
  6
CONTINUOUS
 10
74.6329387473
 20
38.8506295444
 11
74.3068863979
 21
38.8813073073
  0
LINE
  5
485
100
AcDbEntity
  8
0
100
AcDbLine
 62
7
  6
CONTINUOUS
 10
72.0209685999
 20
118.6175490909
 11
72.1027623685
 21
118.3636070712
  0
LINE
  5
486
100
AcDbEntity
  8
0
100
AcDbLine
 62
7
  6
CONTINUOUS
 10
75.8363723047
 20
120.7055462603
 11
75.7611323355
 21
121.0774240711
  0
LINE
  5
487
100
AcDbEntity
  8
0
100
AcDbLine
 62
7
  6
CONTINUOUS
 10
84.132152348
 20
114.1851195248
 11
84.1784717238
 21
113.8234894187
  0
LINE
  5
488
100
AcDbEntity
  8
0
100
AcDbLine
 62
7
  6
CONTINUOUS
 10
84.5570586737
 20
113.7984694728
 11
84.4922118868
 21
114.3047489727
  0
LINE
  5
489
100
AcDbEntity
  8
0
100
AcDbLine
 62
7
  6
CONTINUOUS
 10
84.5079471055
 20
30.2011560656
 11
84.5573448363
 21
30.4268924629
  0
LINE
  5
48A
100
AcDbEntity
  8
0
100
AcDbLine
 62
7
  6
CONTINUOUS
 10
86.0452579432
 20
29.8614537797
 11
85.9958602124
 21
29.6357173824
  0
LINE
  5
48B
100
AcDbEntity
  8
0
100
AcDbLine
 62
7
  6
CONTINUOUS
 10
87.2949870062
 20
30.0762614853
 11
87.2455892754
 21
29.850525088
  0
LINE
  5
48C
100
AcDbEntity
  8
0
100
AcDbLine
 62
7
  6
CONTINUOUS
 10
82.5907263636
 20
37.2885727365
 11
81.5911232636
 21
34.5254807542
  0
LINE
  5
48D
100
AcDbEntity
  8
0
100
AcDbLine
 62
7
  6
CONTINUOUS
 10
82.0542577397
 20
34.6214683802
 11
83.2386011277
 21
37.7159593184
  0
LINE
  5
48E
100
AcDbEntity
  8
0
100
AcDbLine
 62
7
  6
CONTINUOUS
 10
75.760636667
 20
36.0133287429
 11
75.9216600641
 21
36.3978657025
  0
LINE
  5
48F
100
AcDbEntity
  8
0
100
AcDbLine
 62
7
  6
CONTINUOUS
 10
72.153675507
 20
34.1783797791
 11
72.0239362207
 21
33.9067499988
  0
LINE
  5
490
100
AcDbEntity
  8
0
100
AcDbLine
 62
7
  6
CONTINUOUS
 10
72.3669452186
 20
33.6204238359
 11
72.5434111608
 21
33.9480305698
  0
LINE
  5
491
100
AcDbEntity
  8
0
100
AcDbLine
 62
7
  6
CONTINUOUS
 10
70.5271742776
 20
41.1828992796
 11
63.5989710474
 21
29.1828992796
  0
LINE
  5
492
100
AcDbEntity
  8
0
100
AcDbLine
 62
7
  6
CONTINUOUS
 10
67.884584666
 20
31.6647312808
 11
68.0029105071
 21
31.8632156686
  0
LINE
  5
493
100
AcDbEntity
  8
0
100
AcDbLine
 62
7
  6
CONTINUOUS
 10
168.7968284879
 20
122.7621784066
 11
167.1804246583
 21
122.0915528332
  0
LINE
  5
494
100
AcDbEntity
  8
0
100
AcDbLine
 62
7
  6
CONTINUOUS
 10
167.7557491459
 20
121.8465104257
 11
168.9680520181
 21
122.3494796057
  0
LINE
  5
495
100
AcDbEntity
  8
0
100
AcDbLine
 62
7
  6
CONTINUOUS
 10
169.9668560844
 20
119.9420695965
 11
168.7545532122
 21
119.4391004165
  0
LINE
  5
496
100
AcDbEntity
  8
0
100
AcDbLine
 62
7
  6
CONTINUOUS
 10
168.521675805
 20
118.858745174
 11
170.1380796346
 21
119.5293707474
  0
LWPOLYLINE
  5
497
100
AcDbEntity
  8
BEZUGSACHSEN
100
AcDbPolyline
 62
7
  6
CONTINUOUS
 90
18
 70
0
 10
76.2615562692
 20
84.750977364
 10
76.2219322239
 20
84.7380732372
 10
75.9762755029
 20
84.6486776813
 10
75.7251342671
 20
84.5392071254
 10
75.4724261695
 20
84.4084426942
 10
75.222511746
 20
84.2561382144
 10
74.977869113
 20
84.0815674567
 10
74.7420823291
 20
83.885201126
 10
74.5173793558
 20
83.6668917528
 10
74.3063734734
 20
83.4270452254
 10
74.1118787224
 20
83.1666876596
 10
73.936796672
 20
82.8876291682
 10
73.7828298238
 20
82.5902474136
 10
73.6525420047
 20
82.2767137875
 10
73.5468479337
 20
81.9446995218
 10
73.46826102
 20
81.5931865321
 10
73.4202255539
 20
81.2209020285
 10
73.4068841121
 20
80.8938857756
  0
LINE
  5
498
100
AcDbEntity
  8
BEZUGSACHSEN
100
AcDbLine
 62
7
  6
CONTINUOUS
 10
76.2674051856
 20
84.7528545769
 11
76.2615545981
 21
84.7509824785
  0
LINE
  5
499
100
AcDbEntity
  8
0
100
AcDbLine
 62
7
  6
CONTINUOUS
 10
166.5289113002
 20
117.4184473709
 11
166.2755076139
 21
117.3421576117
  0
LINE
  5
49A
100
AcDbEntity
  8
0
100
AcDbLine
 62
7
  6
CONTINUOUS
 10
85.4948936071
 20
31.4135760628
 11
84.98512234
 21
31.2825063621
  0
LINE
  5
49B
100
AcDbEntity
  8
0
100
AcDbLine
 62
7
  6
CONTINUOUS
 10
71.1409865261
 20
31.9415848299
 11
69.3292002439
 21
31.6558195934
  0
LINE
  5
49C
100
AcDbEntity
  8
0
100
AcDbLine
 62
7
  6
CONTINUOUS
 10
69.3839102511
 20
31.196913139
 11
71.0348538661
 21
31.4423242025
  0
LINE
  5
49D
100
AcDbEntity
  8
0
100
AcDbLine
 62
7
  6
CONTINUOUS
 10
68.1789149859
 20
31.974892803
 11
68.4125980592
 21
31.9997624797
  0
LINE
  5
49E
100
AcDbEntity
  8
0
100
AcDbLine
 62
7
  6
CONTINUOUS
 10
68.5035688858
 20
32.4277000438
 11
68.2698858126
 21
32.402830367
  0
LINE
  5
49F
100
AcDbEntity
  8
0
100
AcDbLine
 62
7
  6
CONTINUOUS
 10
179.3835807382
 20
41.1828992796
 11
165.5271742776
 21
41.1828992796
  0
LINE
  5
4A0
100
AcDbEntity
  8
0
100
AcDbLine
 62
7
  6
CONTINUOUS
 10
84.3835807382
 20
41.1828992796
 11
70.5271742776
 21
41.1828992796
  0
LINE
  5
4A1
100
AcDbEntity
  8
0
100
AcDbLine
 62
7
  6
CONTINUOUS
 10
169.6245507693
 20
38.8481767721
 11
169.2984719224
 21
38.8785715959
  0
LINE
  5
4A2
100
AcDbEntity
  8
0
100
AcDbLine
 62
7
  6
CONTINUOUS
 10
166.3347498855
 20
33.4288549185
 11
166.0697645689
 21
33.459833518
  0
LINE
  5
4A3
100
AcDbEntity
  8
0
100
AcDbLine
 62
7
  6
CONTINUOUS
 10
180.3051525007
 20
29.1240656942
 11
180.0749249873
 21
29.171197631
  0
LINE
  5
4A4
100
AcDbEntity
  8
0
100
AcDbLine
 62
7
  6
CONTINUOUS
 10
180.3205626973
 20
30.9605550332
 11
180.5507903144
 21
30.9134231082
  0
LINE
  5
4A5
100
AcDbEntity
  8
0
100
AcDbLine
 62
7
  6
CONTINUOUS
 10
181.5043784027
 20
31.0955631247
 11
181.7346061234
 21
31.0484312115
  0
LINE
  5
4A6
100
AcDbEntity
  8
0
100
AcDbLine
 62
7
  6
CONTINUOUS
 10
162.1406677935
 20
29.950129977
 11
165.5647985262
 21
29.2253343335
  0
LINE
  5
4A7
100
AcDbEntity
  8
0
100
AcDbLine
 62
7
  6
CONTINUOUS
 10
165.6553979817
 20
29.6533506751
 11
164.125467207
 21
29.9771955417
  0
LINE
  5
4A8
100
AcDbEntity
  8
0
100
AcDbLine
 62
7
  6
CONTINUOUS
 10
163.6883441869
 20
30.0697226341
 11
162.5955364324
 21
30.3010404083
  0
LINE
  5
4A9
100
AcDbEntity
  8
0
100
AcDbLine
 62
7
  6
CONTINUOUS
 10
163.4101571691
 20
31.9919146712
 11
163.6287188833
 21
31.9456510818
  0
LINE
  5
4AA
100
AcDbEntity
  8
0
100
AcDbLine
 62
7
  6
CONTINUOUS
 10
163.7921721754
 20
32.3582462413
 11
163.5007566246
 21
32.4199310128
  0
LINE
  5
4AB
100
AcDbEntity
  8
0
100
AcDbLine
 62
7
  6
CONTINUOUS
 10
165.8469047607
 20
33.0760561506
 11
166.1690995312
 21
32.9974059607
  0
LINE
  5
4AC
100
AcDbEntity
  8
0
100
AcDbLine
 62
7
  6
CONTINUOUS
 10
179.8860082408
 20
28.8560964868
 11
180.2724752227
 21
28.7533912978
  0
LINE
  5
4AD
100
AcDbEntity
  8
RUNDUNGEN
100
AcDbLine
 62
7
  6
CONTINUOUS
 10
76.267406737
 20
57.6129434873
 11
76.2616299678
 21
57.6147918886
  0
LWPOLYLINE
  5
4AE
100
AcDbEntity
  8
RUNDUNGEN
100
AcDbPolyline
 62
7
  6
CONTINUOUS
 90
6
 70
0
 10
76.267406737
 20
57.6129434873
 10
76.4123268009
 20
57.5601850451
 10
76.6034081287
 20
57.4725495302
 10
76.7996878458
 20
57.3634261983
 10
77.0050152699
 20
57.2304373155
 10
77.2250076672
 20
57.0680617472
  0
LINE
  5
4AF
100
AcDbEntity
  8
0
100
AcDbLine
 62
7
  6
CONTINUOUS
 10
63.5989710474
 20
113.1828992796
 11
70.5271742776
 21
101.1828992796
  0
LINE
  5
4B0
100
AcDbEntity
  8
0
100
AcDbLine
 62
7
  6
CONTINUOUS
 10
72.4938818732
 20
118.6098057228
 11
72.3542243816
 21
118.9106230207
  0
LINE
  5
4B1
100
AcDbEntity
  8
0
100
AcDbLine
 62
7
  6
CONTINUOUS
 10
72.1827343213
 20
122.0929200165
 11
73.5231473475
 21
118.859764759
  0
LINE
  5
4B2
100
AcDbEntity
  8
0
100
AcDbLine
 62
7
  6
CONTINUOUS
 10
73.7561751986
 20
119.4400596106
 11
72.7579952646
 21
121.8477284696
  0
LINE
  5
4B3
100
AcDbEntity
  8
0
100
AcDbLine
 62
7
  6
CONTINUOUS
 10
74.929196548
 20
121.9417304771
 11
75.3569879283
 21
120.9098724428
  0
LINE
  5
4B4
100
AcDbEntity
  8
0
100
AcDbLine
 62
7
  6
CONTINUOUS
 10
85.9695048124
 20
114.4939679703
 11
86.0343515993
 21
113.9876884704
  0
LINE
  5
4B5
100
AcDbEntity
  8
0
100
AcDbLine
 62
7
  6
CONTINUOUS
 10
86.3944110863
 20
114.1073179118
 11
86.3480917105
 21
114.4689480179
  0
LINE
  5
4B6
100
AcDbEntity
  8
0
100
AcDbLine
 62
7
  6
CONTINUOUS
 10
86.9117098288
 20
113.5854777793
 11
86.9580289926
 21
113.2238493286
  0
LINE
  5
4B7
100
AcDbEntity
  8
0
100
AcDbLine
 62
7
  6
CONTINUOUS
 10
87.2252038741
 20
114.6548041279
 11
87.2807869555
 21
114.2208493249
  0
LINE
  5
4B8
100
AcDbEntity
  8
0
100
AcDbLine
 62
7
  6
CONTINUOUS
 10
87.6408462305
 20
114.3404804216
 11
87.6037907723
 21
114.6297841755
  0
LINE
  5
4B9
100
AcDbEntity
  8
0
100
AcDbLine
 62
7
  6
CONTINUOUS
 10
84.3601571951
 20
30.8448700573
 11
84.1791665361
 21
30.4574782133
  0
LINE
  5
4BA
100
AcDbEntity
  8
0
100
AcDbLine
 62
7
  6
CONTINUOUS
 10
74.568626162
 20
34.1828992796
 11
71.681874816
 21
29.1828992796
  0
LINE
  5
4BB
100
AcDbEntity
  8
0
100
AcDbLine
 62
7
  6
CONTINUOUS
 10
75.4600859567
 20
36.3746797914
 11
75.3118134033
 21
36.155479414
  0
LINE
  5
4BC
100
AcDbEntity
  8
0
100
AcDbLine
 62
7
  6
CONTINUOUS
 10
70.4276709113
 20
36.758946832
 11
70.1473098761
 21
36.423083854
  0
LINE
  5
4BD
100
AcDbEntity
  8
0
100
AcDbLine
 62
7
  6
CONTINUOUS
 10
69.0258657354
 20
35.0796319422
 11
68.7455045666
 21
34.7437688041
  0
LINE
  5
4BE
100
AcDbEntity
  8
0
100
AcDbLine
 62
7
  6
CONTINUOUS
 10
163.2227327842
 20
116.2650227843
 11
162.8881982916
 21
116.1079681892
  0
LINE
  5
4BF
100
AcDbEntity
  8
0
100
AcDbLine
 62
7
  6
CONTINUOUS
 10
166.5309945077
 20
116.9476557019
 11
166.8302822496
 21
117.0806156824
  0
LINE
  5
4C0
100
AcDbEntity
  8
0
100
AcDbLine
 62
7
  6
CONTINUOUS
 10
74.3068863979
 20
38.8813073073
 11
73.9405776152
 21
38.8158506051
  0
LINE
  5
4C1
100
AcDbEntity
  8
0
100
AcDbLine
 62
7
  6
CONTINUOUS
 10
74.1056065579
 20
38.4006359068
 11
74.4041540835
 21
38.4391605937
  0
LINE
  5
4C2
100
AcDbEntity
  8
0
100
AcDbLine
 62
7
  6
CONTINUOUS
 10
169.3961232382
 20
38.4365094515
 11
169.6544649986
 21
38.3791241325
  0
LINE
  5
4C3
100
AcDbEntity
  8
0
100
AcDbLine
 62
7
  6
CONTINUOUS
 10
180.4481848376
 20
33.6233650462
 11
181.1093801525
 21
33.4622549982
  0
LINE
  5
4C4
100
AcDbEntity
  8
0
100
AcDbLine
 62
7
  6
CONTINUOUS
 10
181.6434011847
 20
33.7263254003
 11
180.9822060569
 21
33.8874355407
  0
LINE
  5
4C5
100
AcDbEntity
  8
0
100
AcDbLine
 62
7
  6
CONTINUOUS
 10
181.9235228181
 20
31.3635323498
 11
181.5370556808
 21
31.466237521
  0
LINE
  5
4C6
100
AcDbEntity
  8
0
100
AcDbLine
 62
7
  6
CONTINUOUS
 10
68.7964059923
 20
115.7084822757
 11
68.914303633
 21
115.5365825804
  0
LINE
  5
4C7
100
AcDbEntity
  8
0
100
AcDbLine
 62
7
  6
CONTINUOUS
 10
71.681874816
 20
113.1828992796
 11
74.568626162
 21
108.1828992796
  0
LINE
  5
4C8
100
AcDbEntity
  8
0
100
AcDbLine
 62
7
  6
CONTINUOUS
 10
75.7611323355
 20
121.0774240711
 11
75.3333409552
 21
122.1092821053
  0
LINE
  5
4C9
100
AcDbEntity
  8
0
100
AcDbLine
 62
7
  6
CONTINUOUS
 10
84.1784717238
 20
113.8234894187
 11
84.2986555326
 21
113.4713219176
  0
LINE
  5
4CA
100
AcDbEntity
  8
0
100
AcDbLine
 62
7
  6
CONTINUOUS
 10
86.3480917105
 20
114.4689480179
 11
86.2279079082
 21
114.8211155197
  0
LINE
  5
4CB
100
AcDbEntity
  8
0
100
AcDbLine
 62
7
  6
CONTINUOUS
 10
87.6037907723
 20
114.6297841755
 11
87.48360697
 21
114.9819516773
  0
LINE
  5
4CC
100
AcDbEntity
  8
0
100
AcDbLine
 62
7
  6
CONTINUOUS
 10
86.1930478277
 20
29.2177397851
 11
86.3740384672
 21
29.6051316269
  0
LINE
  5
4CD
100
AcDbEntity
  8
0
100
AcDbLine
 62
7
  6
CONTINUOUS
 10
87.4427768906
 20
29.4325474906
 11
87.6237673425
 21
29.8199409908
  0
LINE
  5
4CE
100
AcDbEntity
  8
0
100
AcDbLine
 62
7
  6
CONTINUOUS
 10
84.5573448363
 20
30.4268924629
 11
84.6807383363
 21
30.6610026595
  0
LINE
  5
4CF
100
AcDbEntity
  8
0
100
AcDbLine
 62
7
  6
CONTINUOUS
 10
85.9958602124
 20
29.6357173824
 11
85.8724667124
 21
29.4016071858
  0
LINE
  5
4D0
100
AcDbEntity
  8
0
100
AcDbLine
 62
7
  6
CONTINUOUS
 10
87.2455892754
 20
29.850525088
 11
87.1221957753
 21
29.6164148914
  0
LINE
  5
4D1
100
AcDbEntity
  8
0
100
AcDbLine
 62
7
  6
CONTINUOUS
 10
80.3421288539
 20
24.1828992796
 11
83.2288801998
 21
29.1828992796
  0
LINE
  5
4D2
100
AcDbEntity
  8
0
100
AcDbLine
 62
7
  6
CONTINUOUS
 10
72.0239362207
 20
33.9067499988
 11
71.8370287748
 21
33.68284124
  0
LINE
  5
4D3
100
AcDbEntity
  8
0
100
AcDbLine
 62
7
  6
CONTINUOUS
 10
72.1800377727
 20
33.3965150772
 11
72.3669452186
 21
33.6204238359
  0
LINE
  5
4D4
100
AcDbEntity
  8
0
100
AcDbLine
 62
7
  6
CONTINUOUS
 10
75.5446036199
 20
35.7671966887
 11
75.760636667
 21
36.0133287429
  0
LINE
  5
4D5
100
AcDbEntity
  8
0
100
AcDbLine
 62
7
  6
CONTINUOUS
 10
170.1380796346
 20
119.5293707474
 11
170.4462934318
 21
119.7378676546
  0
LINE
  5
4D6
100
AcDbEntity
  8
0
100
AcDbLine
 62
7
  6
CONTINUOUS
 10
162.9638618923
 20
115.7214736166
 11
163.1381755852
 21
115.8357718902
  0
LINE
  5
4D7
100
AcDbEntity
  8
0
100
AcDbLine
 62
7
  6
CONTINUOUS
 10
179.8015772376
 20
120.4142296271
 11
176.9723628372
 21
118.6896748137
  0
LINE
  5
4D8
100
AcDbEntity
  8
0
100
AcDbLine
 62
7
  6
CONTINUOUS
 10
176.9617328557
 20
118.2168173608
 11
179.4984318108
 21
119.6997341054
  0
LINE
  5
4D9
100
AcDbEntity
  8
0
100
AcDbLine
 62
7
  6
CONTINUOUS
 10
180.9150444542
 20
118.0071610567
 11
180.3847985895
 21
117.7355893135
  0
LINE
  5
4DA
100
AcDbEntity
  8
0
100
AcDbLine
 62
7
  6
CONTINUOUS
 10
181.0481991971
 20
117.5838153837
 11
178.4632511407
 21
116.2599034091
  0
LINE
  5
4DB
100
AcDbEntity
  8
0
100
AcDbLine
 62
7
  6
CONTINUOUS
 10
178.6626865935
 20
115.8705041921
 11
181.777880329
 21
117.4659878149
  0
LINE
  5
4DC
100
AcDbEntity
  8
0
100
AcDbLine
 62
7
  6
CONTINUOUS
 10
179.8608330606
 20
114.942042035
 11
180.073137156
 21
115.0428046199
  0
LINE
  5
4DD
100
AcDbEntity
  8
0
100
AcDbLine
 62
7
  6
CONTINUOUS
 10
180.7390926726
 20
113.3639237007
 11
180.5267884737
 21
113.2631611026
  0
LINE
  5
4DE
100
AcDbEntity
  8
0
100
AcDbLine
 62
7
  6
CONTINUOUS
 10
181.9580180573
 20
113.2263128014
 11
182.1703221527
 21
113.3270753863
  0
LINE
  5
4DF
100
AcDbEntity
  8
RUNDUNGEN
100
AcDbLine
 62
7
  6
CONTINUOUS
 10
171.1176505156
 20
57.6828992796
 11
78.7931045005
 21
57.6828992796
  0
LINE
  5
4E0
100
AcDbEntity
  8
0
100
AcDbLine
 62
7
  6
CONTINUOUS
 10
166.0697645689
 20
33.459833518
 11
165.7942483093
 21
33.5945016301
  0
LINE
  5
4E1
100
AcDbEntity
  8
0
100
AcDbLine
 62
7
  6
CONTINUOUS
 10
180.0749249873
 20
29.171197631
 11
179.8364349557
 21
29.2907788299
  0
LINE
  5
4E2
100
AcDbEntity
  8
0
100
AcDbLine
 62
7
  6
CONTINUOUS
 10
165.5141786866
 20
33.2583953389
 11
165.8469047607
 21
33.0760561506
  0
LINE
  5
4E3
100
AcDbEntity
  8
0
100
AcDbLine
 62
7
  6
CONTINUOUS
 10
163.6287188833
 20
31.9456510818
 11
163.8321804985
 21
31.8280515467
  0
LINE
  5
4E4
100
AcDbEntity
  8
0
100
AcDbLine
 62
7
  6
CONTINUOUS
 10
163.9956337907
 20
32.2406467062
 11
163.7921721754
 21
32.3582462413
  0
LINE
  5
4E5
100
AcDbEntity
  8
0
100
AcDbLine
 62
7
  6
CONTINUOUS
 10
71.8354126407
 20
118.8617083762
 11
72.0209685999
 21
118.6175490909
  0
LINE
  5
4E6
100
AcDbEntity
  8
0
100
AcDbLine
 62
7
  6
CONTINUOUS
 10
75.3333409552
 20
122.1092821053
 11
75.1233866176
 21
122.4253097792
  0
LINE
  5
4E7
100
AcDbEntity
  8
0
100
AcDbLine
 62
7
  6
CONTINUOUS
 10
83.2288801998
 20
113.1828992796
 11
80.3421288539
 21
118.1828992796
  0
LINE
  5
4E8
100
AcDbEntity
  8
0
100
AcDbLine
 62
7
  6
CONTINUOUS
 10
83.4640486235
 20
116.2583458202
 11
83.6633831215
 21
115.8688949146
  0
LINE
  5
4E9
100
AcDbEntity
  8
0
100
AcDbLine
 62
7
  6
CONTINUOUS
 10
86.7789903667
 20
117.4635708986
 11
86.5796558687
 21
117.8530218043
  0
LINE
  5
4EA
100
AcDbEntity
  8
0
100
AcDbLine
 62
7
  6
CONTINUOUS
 10
84.6587148529
 20
113.5909530202
 11
84.5570586737
 21
113.7984694728
  0
LINE
  5
4EB
100
AcDbEntity
  8
0
100
AcDbLine
 62
7
  6
CONTINUOUS
 10
85.8678486332
 20
114.701484423
 11
85.9695048124
 21
114.4939679703
  0
LINE
  5
4EC
100
AcDbEntity
  8
0
100
AcDbLine
 62
7
  6
CONTINUOUS
 10
87.1235476949
 20
114.8623205806
 11
87.2252038741
 21
114.6548041279
  0
LINE
  5
4ED
100
AcDbEntity
  8
0
100
AcDbLine
 62
7
  6
CONTINUOUS
 10
84.3835807382
 20
17.1828992796
 11
91.3117839685
 21
29.1828992796
  0
LINE
  5
4EE
100
AcDbEntity
  8
0
100
AcDbLine
 62
7
  6
CONTINUOUS
 10
82.7374932396
 20
38.1396985626
 11
80.4775506039
 21
35.4671231599
  0
LINE
  5
4EF
100
AcDbEntity
  8
0
100
AcDbLine
 62
7
  6
CONTINUOUS
 10
80.8116225293
 20
35.1846303304
 11
82.5907263636
 21
37.2885727365
  0
LINE
  5
4F0
100
AcDbEntity
  8
0
100
AcDbLine
 62
7
  6
CONTINUOUS
 10
84.5951579157
 20
35.5936157598
 11
82.8160540814
 21
33.4896733536
  0
LINE
  5
4F1
100
AcDbEntity
  8
0
100
AcDbLine
 62
7
  6
CONTINUOUS
 10
83.1501260067
 20
33.2071805242
 11
85.4100686424
 21
35.8797559269
  0
LINE
  5
4F2
100
AcDbEntity
  8
0
100
AcDbLine
 62
7
  6
CONTINUOUS
 10
162.8881982916
 20
116.1079681892
 11
162.6126349193
 21
115.8649791337
  0
LINE
  5
4F3
100
AcDbEntity
  8
0
100
AcDbLine
 62
7
  6
CONTINUOUS
 10
67.9330386883
 20
32.2507991617
 11
67.6538702017
 21
32.0119607029
  0
LINE
  5
4F4
100
AcDbEntity
  8
0
100
AcDbLine
 62
7
  6
CONTINUOUS
 10
166.8302822496
 20
117.0806156824
 11
167.1175779675
 21
117.3171057909
  0
LINE
  5
4F5
100
AcDbEntity
  8
0
100
AcDbLine
 62
7
  6
CONTINUOUS
 10
170.2077192107
 20
120.1226235523
 11
169.9668560844
 21
119.9420695965
  0
LINE
  5
4F6
100
AcDbEntity
  8
0
100
AcDbLine
 62
7
  6
CONTINUOUS
 10
166.7703229319
 20
117.5982672826
 11
166.5289113002
 21
117.4184473709
  0
LINE
  5
4F7
100
AcDbEntity
  8
0
100
AcDbLine
 62
7
  6
CONTINUOUS
 10
179.9528618491
 20
115.3949426087
 11
179.6021162149
 21
115.202894219
  0
LINE
  5
4F8
100
AcDbEntity
  8
0
100
AcDbLine
 62
7
  6
CONTINUOUS
 10
180.6470638841
 20
112.9110231271
 11
180.9978094666
 21
113.1030715101
  0
LINE
  5
4F9
100
AcDbEntity
  8
0
100
AcDbLine
 62
7
  6
CONTINUOUS
 10
194.566133191
 20
62.4828992796
 11
177.4461183662
 21
62.4828992796
  0
LINE
  5
4FA
100
AcDbEntity
  8
0
100
AcDbLine
 62
7
  6
CONTINUOUS
 10
70.3784881972
 20
62.4828992796
 11
51.334187276
 21
62.4828992796
  0
LINE
  5
4FB
100
AcDbEntity
  8
RUNDUNGEN
100
AcDbLine
 62
7
  6
CONTINUOUS
 10
206.4553775079
 20
63.4828992796
 11
43.4553775079
 21
63.4828992796
  0
LINE
  5
4FC
100
AcDbEntity
  8
0
100
AcDbLine
 62
7
  6
CONTINUOUS
 10
170.005759342
 20
38.6794248349
 11
169.6245507693
 21
38.8481767721
  0
LINE
  5
4FD
100
AcDbEntity
  8
0
100
AcDbLine
 62
7
  6
CONTINUOUS
 10
181.7346061234
 20
31.0484312115
 11
181.9730961032
 21
30.9288500067
  0
LINE
  5
4FE
100
AcDbEntity
  8
0
100
AcDbLine
 62
7
  6
CONTINUOUS
 10
179.5652676719
 20
29.0396856355
 11
179.8860082408
 21
28.8560964868
  0
LINE
  5
4FF
100
AcDbEntity
  8
0
100
AcDbLine
 62
7
  6
CONTINUOUS
 10
182.2442633611
 20
31.1799431981
 11
181.9235228181
 21
31.3635323498
  0
LINE
  5
500
100
AcDbEntity
  8
0
100
AcDbLine
 62
7
  6
CONTINUOUS
 10
69.2040414282
 20
115.8510384868
 11
68.9541347074
 21
116.123299581
  0
LINE
  5
501
100
AcDbEntity
  8
0
100
AcDbLine
 62
7
  6
CONTINUOUS
 10
72.3542243816
 20
118.9106230207
 11
72.1108047399
 21
119.2016575514
  0
LINE
  5
502
100
AcDbEntity
  8
0
100
AcDbLine
 62
7
  6
CONTINUOUS
 10
74.747761713
 20
122.188967429
 11
74.929196548
 21
121.9417304771
  0
LINE
  5
503
100
AcDbEntity
  8
0
100
AcDbLine
 62
7
  6
CONTINUOUS
 10
91.3117839685
 20
113.1828992796
 11
84.3835807382
 21
125.1828992796
  0
LINE
  5
504
100
AcDbEntity
  8
0
100
AcDbLine
 62
7
  6
CONTINUOUS
 10
165.3150935612
 20
120.6529395528
 11
165.0397895999
 21
120.3129189963
  0
LINE
  5
505
100
AcDbEntity
  8
0
100
AcDbLine
 62
7
  6
CONTINUOUS
 10
163.9385737546
 20
118.9528367701
 11
163.663269662
 21
118.6128160514
  0
LINE
  5
506
100
AcDbEntity
  8
0
100
AcDbLine
 62
7
  6
CONTINUOUS
 10
85.8724667124
 20
29.4016071858
 11
85.7408739913
 21
29.2399500829
  0
LINE
  5
507
100
AcDbEntity
  8
0
100
AcDbLine
 62
7
  6
CONTINUOUS
 10
85.9956585584
 20
28.9752557891
 11
86.1930478277
 21
29.2177397851
  0
LINE
  5
508
100
AcDbEntity
  8
0
100
AcDbLine
 62
7
  6
CONTINUOUS
 10
71.8892355012
 20
33.1643503947
 11
72.1800377727
 21
33.3965150772
  0
LINE
  5
509
100
AcDbEntity
  8
0
100
AcDbLine
 62
7
  6
CONTINUOUS
 10
75.3118134033
 20
36.155479414
 11
75.0682755252
 21
35.9785498277
  0
LINE
  5
50A
100
AcDbEntity
  8
0
100
AcDbLine
 62
7
  6
CONTINUOUS
 10
71.8370287748
 20
33.68284124
 11
71.5929534366
 21
33.5066538232
  0
LINE
  5
50B
100
AcDbEntity
  8
0
100
AcDbLine
 62
7
  6
CONTINUOUS
 10
169.6544649986
 20
38.3791241325
 11
169.8726346127
 21
38.2255695678
  0
LINE
  5
50C
100
AcDbEntity
  8
0
100
AcDbLine
 62
7
  6
CONTINUOUS
 10
163.7406824773
 20
34.7362088376
 11
165.5141786866
 21
33.2583953389
  0
LINE
  5
50D
100
AcDbEntity
  8
0
100
AcDbLine
 62
7
  6
CONTINUOUS
 10
165.7942483093
 20
33.5945016301
 11
164.0207521
 21
35.0723151288
  0
LINE
  5
50E
100
AcDbEntity
  8
0
100
AcDbLine
 62
7
  6
CONTINUOUS
 10
165.1410300565
 20
36.4167396526
 11
166.9145262658
 21
34.9389261539
  0
LINE
  5
50F
100
AcDbEntity
  8
0
100
AcDbLine
 62
7
  6
CONTINUOUS
 10
167.1945957549
 20
35.2750322848
 11
165.4210995456
 21
36.7528457835
  0
LINE
  5
510
100
AcDbEntity
  8
0
100
AcDbLine
 62
7
  6
CONTINUOUS
 10
84.8342356706
 20
113.3928975164
 11
84.6587148529
 21
113.5909530202
  0
LINE
  5
511
100
AcDbEntity
  8
0
100
AcDbLine
 62
7
  6
CONTINUOUS
 10
85.6923278155
 20
114.8995399267
 11
85.8678486332
 21
114.701484423
  0
LINE
  5
512
100
AcDbEntity
  8
0
100
AcDbLine
 62
7
  6
CONTINUOUS
 10
86.2279079082
 20
114.8211155197
 11
85.8768662728
 21
115.2172265272
  0
LINE
  5
513
100
AcDbEntity
  8
0
100
AcDbLine
 62
7
  6
CONTINUOUS
 10
86.9480268772
 20
115.0603760843
 11
87.1235476949
 21
114.8623205806
  0
LINE
  5
514
100
AcDbEntity
  8
0
100
AcDbLine
 62
7
  6
CONTINUOUS
 10
84.2986555326
 20
113.4713219176
 11
84.5665686313
 21
113.1380763161
  0
LINE
  5
515
100
AcDbEntity
  8
0
100
AcDbLine
 62
7
  6
CONTINUOUS
 10
87.48360697
 20
114.9819516773
 11
87.2156938906
 21
115.3151972813
  0
LINE
  5
516
100
AcDbEntity
  8
0
100
AcDbLine
 62
7
  6
CONTINUOUS
 10
166.9538589936
 20
117.8249477617
 11
166.7703229319
 21
117.5982672826
  0
LINE
  5
517
100
AcDbEntity
  8
0
100
AcDbLine
 62
7
  6
CONTINUOUS
 10
167.1175779675
 20
117.3171057909
 11
167.3011140292
 21
117.54378627
  0
LINE
  5
518
100
AcDbEntity
  8
0
100
AcDbLine
 62
7
  6
CONTINUOUS
 10
170.4462934318
 20
119.7378676546
 11
170.6586192956
 21
119.9872047619
  0
LINE
  5
519
100
AcDbEntity
  8
0
100
AcDbLine
 62
7
  6
CONTINUOUS
 10
179.6021162149
 20
115.202894219
 11
179.3345152447
 21
114.948003637
  0
LINE
  5
51A
100
AcDbEntity
  8
0
100
AcDbLine
 62
7
  6
CONTINUOUS
 10
84.6315422594
 20
31.0957278555
 11
84.3601571951
 21
30.8448700573
  0
LINE
  5
51B
100
AcDbEntity
  8
0
100
AcDbLine
 62
7
  6
CONTINUOUS
 10
87.1713918522
 20
29.1816896954
 11
87.4427768906
 21
29.4325474906
  0
LINE
  5
51C
100
AcDbEntity
  8
0
100
AcDbLine
 62
7
  6
CONTINUOUS
 10
179.6578117932
 20
114.7689538399
 11
179.8608330606
 21
114.942042035
  0
LINE
  5
51D
100
AcDbEntity
  8
0
100
AcDbLine
 62
7
  6
CONTINUOUS
 10
182.1146265745
 20
113.7610157653
 11
181.9116051463
 21
113.5879292322
  0
LINE
  5
51E
100
AcDbEntity
  8
0
100
AcDbLine
 62
7
  6
CONTINUOUS
 10
84.6807383363
 20
30.6610026595
 11
84.8863268784
 21
30.8310335675
  0
LINE
  5
51F
100
AcDbEntity
  8
0
100
AcDbLine
 62
7
  6
CONTINUOUS
 10
75.2333044872
 20
35.563335081
 11
75.5446036199
 21
35.7671966887
  0
LINE
  5
520
100
AcDbEntity
  8
0
100
AcDbLine
 62
7
  6
CONTINUOUS
 10
68.0029105071
 20
31.8632156686
 11
68.1789149859
 21
31.974892803
  0
LINE
  5
521
100
AcDbEntity
  8
RUNDUNGEN
100
AcDbLine
 62
7
  6
CONTINUOUS
 10
43.4553775079
 20
78.8828992796
 11
206.4553775079
 21
78.8828992796
  0
LINE
  5
522
100
AcDbEntity
  8
0
100
AcDbLine
 62
7
  6
CONTINUOUS
 10
180.5507903144
 20
30.9134231082
 11
180.7152918191
 21
30.7854038984
  0
LINE
  5
523
100
AcDbEntity
  8
0
100
AcDbLine
 62
7
  6
CONTINUOUS
 10
68.6646776129
 20
118.6150951413
 11
70.4584520131
 21
117.1619623385
  0
LINE
  5
524
100
AcDbEntity
  8
0
100
AcDbLine
 62
7
  6
CONTINUOUS
 10
70.7338442437
 20
117.5019116757
 11
68.9400698435
 21
118.9550444785
  0
LINE
  5
525
100
AcDbEntity
  8
0
100
AcDbLine
 62
7
  6
CONTINUOUS
 10
70.0416382405
 20
120.314841179
 11
71.8354126407
 21
118.8617083762
  0
LINE
  5
526
100
AcDbEntity
  8
0
100
AcDbLine
 62
7
  6
CONTINUOUS
 10
72.1108047399
 20
119.2016575514
 11
70.3170303397
 21
120.6547903541
  0
LINE
  5
527
100
AcDbEntity
  8
0
100
AcDbLine
 62
7
  6
CONTINUOUS
 10
175.4720964169
 20
35.4697432433
 11
175.8064133458
 21
35.1875404065
  0
LINE
  5
528
100
AcDbEntity
  8
0
100
AcDbLine
 62
7
  6
CONTINUOUS
 10
176.5864857547
 20
34.5290674796
 11
177.03224251
 21
34.1527963129
  0
LINE
  5
529
100
AcDbEntity
  8
0
100
AcDbLine
 62
7
  6
CONTINUOUS
 10
177.8123149189
 20
33.4943233859
 11
178.1466318478
 21
33.2121205491
  0
LINE
  5
52A
100
AcDbEntity
  8
0
100
AcDbLine
 62
7
  6
CONTINUOUS
 10
75.1233866176
 20
122.4253097792
 11
74.8745938675
 21
122.6446212466
  0
LINE
  5
52B
100
AcDbEntity
  8
0
100
AcDbLine
 62
7
  6
CONTINUOUS
 10
170.2514937418
 20
38.4566919072
 11
170.005759342
 21
38.6794248349
  0
LINE
  5
52C
100
AcDbEntity
  8
0
100
AcDbLine
 62
7
  6
CONTINUOUS
 10
164.2417494097
 20
31.9649538071
 11
163.9956337907
 21
32.2406467062
  0
LINE
  5
52D
100
AcDbEntity
  8
0
100
AcDbLine
 62
7
  6
CONTINUOUS
 10
162.8485193195
 20
115.5212408825
 11
162.9638618923
 21
115.7214736166
  0
LINE
  5
52E
100
AcDbEntity
  8
0
100
AcDbLine
 62
7
  6
CONTINUOUS
 10
165.5271742776
 20
125.1828992796
 11
158.5989710474
 21
113.1828992796
  0
LINE
  5
52F
100
AcDbEntity
  8
0
100
AcDbLine
 62
7
  6
CONTINUOUS
 10
170.3526951593
 20
120.3440180641
 11
170.2077192107
 21
120.1226235523
  0
LINE
  5
530
100
AcDbEntity
  8
0
100
AcDbLine
 62
7
  6
CONTINUOUS
 10
177.6028768143
 20
122.2177346898
 11
175.3831782755
 21
119.5116418612
  0
LINE
  5
531
100
AcDbEntity
  8
0
100
AcDbLine
 62
7
  6
CONTINUOUS
 10
175.7214398791
 20
119.2341795439
 11
177.4688621893
 21
121.3645080095
  0
LINE
  5
532
100
AcDbEntity
  8
0
100
AcDbLine
 62
7
  6
CONTINUOUS
 10
179.4984318108
 20
119.6997341054
 11
177.7510095006
 21
117.5694056398
  0
LINE
  5
533
100
AcDbEntity
  8
0
100
AcDbLine
 62
7
  6
CONTINUOUS
 10
178.0892711041
 20
117.2919433225
 11
180.3089696429
 21
119.9980361511
  0
LINE
  5
534
100
AcDbEntity
  8
0
100
AcDbLine
 62
7
  6
CONTINUOUS
 10
182.1703221527
 20
113.3270753863
 11
182.4379230971
 21
113.5819659649
  0
LINE
  5
535
100
AcDbEntity
  8
0
100
AcDbLine
 62
7
  6
CONTINUOUS
 10
87.1221957753
 20
29.6164148914
 11
86.9166070974
 21
29.4463856475
  0
LINE
  5
536
100
AcDbEntity
  8
0
100
AcDbLine
 62
7
  6
CONTINUOUS
 10
84.9089607544
 20
36.3034951711
 11
82.0542577397
 21
34.6214683802
  0
LINE
  5
537
100
AcDbEntity
  8
0
100
AcDbLine
 62
7
  6
CONTINUOUS
 10
82.036553347
 20
34.1488229298
 11
84.5951579157
 21
35.5936157598
  0
LINE
  5
538
100
AcDbEntity
  8
0
100
AcDbLine
 62
7
  6
CONTINUOUS
 10
68.2698858126
 20
32.402830367
 11
67.9330386883
 21
32.2507991617
  0
LINE
  5
539
100
AcDbEntity
  8
0
100
AcDbLine
 62
7
  6
CONTINUOUS
 10
71.587991721
 20
33.0358836917
 11
71.8892355012
 21
33.1643503947
  0
LINE
  5
53A
100
AcDbEntity
  8
0
100
AcDbLine
 62
7
  6
CONTINUOUS
 10
73.9405776152
 20
38.8158506051
 11
72.3143198531
 21
38.1694871691
  0
LINE
  5
53B
100
AcDbEntity
  8
0
100
AcDbLine
 62
7
  6
CONTINUOUS
 10
72.8859132364
 20
37.9158633298
 11
74.1056065579
 21
38.4006359068
  0
LINE
  5
53C
100
AcDbEntity
  8
0
100
AcDbLine
 62
7
  6
CONTINUOUS
 10
75.0682755252
 20
35.9785498277
 11
73.8485822037
 21
35.4937772507
  0
LINE
  5
53D
100
AcDbEntity
  8
0
100
AcDbLine
 62
7
  6
CONTINUOUS
 10
63.4541072227
 20
79.8828992796
 11
67.2479768673
 21
79.8828992796
  0
LINE
  5
53E
100
AcDbEntity
  8
0
100
AcDbLine
 62
7
  6
CONTINUOUS
 10
67.2541072227
 20
79.8828992796
 11
79.0181167503
 21
79.8828992796
  0
LINE
  5
53F
100
AcDbEntity
  8
0
100
AcDbLine
 62
7
  6
CONTINUOUS
 10
173.4157208603
 20
79.8828992796
 11
201.1180523655
 21
79.8828992796
  0
LINE
  5
540
100
AcDbEntity
  8
BEZUGSACHSEN
100
AcDbLine
 62
7
  6
CONTINUOUS
 10
171.1176505156
 20
84.6828992796
 11
78.7931045005
 21
84.6828992796
  0
LINE
  5
541
100
AcDbEntity
  8
0
100
AcDbLine
 62
7
  6
CONTINUOUS
 10
68.5913366725
 20
115.8232553283
 11
68.7964059923
 21
115.7084822757
  0
LINE
  5
542
100
AcDbEntity
  8
0
100
AcDbLine
 62
7
  6
CONTINUOUS
 10
68.9541347074
 20
116.123299581
 11
68.7490653876
 21
116.2380726337
  0
LINE
  5
543
100
AcDbEntity
  8
0
100
AcDbLine
 62
7
  6
CONTINUOUS
 10
74.5274883057
 20
122.33948856
 11
74.747761713
 21
122.188967429
  0
LINE
  5
544
100
AcDbEntity
  8
0
100
AcDbLine
 62
7
  6
CONTINUOUS
 10
85.5260707033
 20
115.0252707336
 11
85.6923278155
 21
114.8995399267
  0
LINE
  5
545
100
AcDbEntity
  8
0
100
AcDbLine
 62
7
  6
CONTINUOUS
 10
80.3848188449
 20
119.5108826434
 11
80.7230085076
 21
119.2333326442
  0
LINE
  5
546
100
AcDbEntity
  8
0
100
AcDbLine
 62
7
  6
CONTINUOUS
 10
81.5121172905
 20
118.5857163323
 11
81.9630377008
 21
118.2156489609
  0
LINE
  5
547
100
AcDbEntity
  8
0
100
AcDbLine
 62
7
  6
CONTINUOUS
 10
82.7521464837
 20
117.568032649
 11
83.0903361463
 21
117.2904826498
  0
LINE
  5
548
100
AcDbEntity
  8
0
100
AcDbLine
 62
7
  6
CONTINUOUS
 10
85.31073614
 20
119.9959999512
 11
84.803451646
 21
120.41232495
  0
LINE
  5
549
100
AcDbEntity
  8
0
100
AcDbLine
 62
7
  6
CONTINUOUS
 10
83.1125033326
 20
121.800074946
 11
82.6052188386
 21
122.2163999448
  0
LINE
  5
54A
100
AcDbEntity
  8
0
100
AcDbLine
 62
7
  6
CONTINUOUS
 10
180.4042545419
 20
35.88665598
 11
179.9027791486
 21
36.3099602351
  0
LINE
  5
54B
100
AcDbEntity
  8
0
100
AcDbLine
 62
7
  6
CONTINUOUS
 10
178.2311945043
 20
37.720974419
 11
177.7297191111
 21
38.1442786741
  0
LINE
  5
54C
100
AcDbEntity
  8
0
100
AcDbLine
 62
7
  6
CONTINUOUS
 10
179.8364349557
 20
29.2907788299
 11
179.6636713629
 21
29.4912439915
  0
LINE
  5
54D
100
AcDbEntity
  8
0
100
AcDbLine
 62
7
  6
CONTINUOUS
 10
167.4339651546
 20
34.9806575059
 11
167.1945957549
 21
35.2750322848
  0
LINE
  5
54E
100
AcDbEntity
  8
0
100
AcDbLine
 62
7
  6
CONTINUOUS
 10
166.9145262658
 20
34.9389261539
 11
167.0966861181
 21
34.6922227716
  0
LINE
  5
54F
100
AcDbEntity
  8
0
100
AcDbLine
 62
7
  6
CONTINUOUS
 10
163.8321804985
 20
31.8280515467
 11
163.9476883391
 21
31.6545370006
  0
LINE
  5
550
100
AcDbEntity
  8
0
100
AcDbLine
 62
7
  6
CONTINUOUS
 10
158.5989710474
 20
29.1828992796
 11
165.5271742776
 21
17.1828992796
  0
LINE
  5
551
100
AcDbEntity
  8
0
100
AcDbLine
 62
7
  6
CONTINUOUS
 10
162.6126349193
 20
115.8649791337
 11
162.4691066001
 21
115.5216627001
  0
LINE
  5
552
100
AcDbEntity
  8
0
100
AcDbLine
 62
7
  6
CONTINUOUS
 10
167.0795192228
 20
118.098488484
 11
166.9538589936
 21
117.8249477617
  0
LINE
  5
553
100
AcDbEntity
  8
0
100
AcDbLine
 62
7
  6
CONTINUOUS
 10
167.3011140292
 20
117.54378627
 11
167.4726580719
 21
117.8739968729
  0
LINE
  5
554
100
AcDbEntity
  8
0
100
AcDbLine
 62
7
  6
CONTINUOUS
 10
169.568626162
 20
118.1828992796
 11
166.681874816
 21
113.1828992796
  0
LINE
  5
555
100
AcDbEntity
  8
0
100
AcDbLine
 62
7
  6
CONTINUOUS
 10
180.868251705
 20
113.5275317919
 11
180.7390926726
 21
113.3639237007
  0
LINE
  5
556
100
AcDbEntity
  8
0
100
AcDbLine
 62
7
  6
CONTINUOUS
 10
180.9978094666
 20
113.1030715101
 11
181.1915482276
 21
113.3484819915
  0
LINE
  5
557
100
AcDbEntity
  8
0
100
AcDbLine
 62
7
  6
CONTINUOUS
 10
84.98512234
 20
31.2825063621
 11
84.6315422594
 21
31.0957278555
  0
LINE
  5
558
100
AcDbEntity
  8
0
100
AcDbLine
 62
7
  6
CONTINUOUS
 10
85.6420785297
 20
28.7884772883
 11
85.9956585584
 21
28.9752557891
  0
LINE
  5
559
100
AcDbEntity
  8
0
100
AcDbLine
 62
7
  6
CONTINUOUS
 10
85.9862851436
 20
33.8800347308
 11
85.4520349818
 21
33.6164277253
  0
LINE
  5
55A
100
AcDbEntity
  8
0
100
AcDbLine
 62
7
  6
CONTINUOUS
 10
86.1130902467
 20
33.4547439947
 11
83.5086212461
 21
32.169660108
  0
LINE
  5
55B
100
AcDbEntity
  8
0
100
AcDbLine
 62
7
  6
CONTINUOUS
 10
83.7022075961
 20
31.7773202361
 11
86.8409265714
 21
33.3260110361
  0
LINE
  5
55C
100
AcDbEntity
  8
0
100
AcDbLine
 62
7
  6
CONTINUOUS
 10
84.8863268784
 20
30.8310335675
 11
85.100114965
 21
30.9286080592
  0
LINE
  5
55D
100
AcDbEntity
  8
0
100
AcDbLine
 62
7
  6
CONTINUOUS
 10
73.6070467252
 20
34.916971645
 11
75.2333044872
 21
35.563335081
  0
LINE
  5
55E
100
AcDbEntity
  8
0
100
AcDbLine
 62
7
  6
CONTINUOUS
 10
71.0111974818
 20
117.3710686741
 11
70.7338442437
 21
117.5019116757
  0
LINE
  5
55F
100
AcDbEntity
  8
0
100
AcDbLine
 62
7
  6
CONTINUOUS
 10
85.074357473
 20
113.2766276651
 11
84.8342356706
 21
113.3928975164
  0
LINE
  5
560
100
AcDbEntity
  8
0
100
AcDbLine
 62
7
  6
CONTINUOUS
 10
70.4584520131
 20
117.1619623385
 11
70.7936691963
 21
116.9842444157
  0
LINE
  5
561
100
AcDbEntity
  8
0
100
AcDbLine
 62
7
  6
CONTINUOUS
 10
84.5665686313
 20
113.1380763161
 11
84.8898187519
 21
112.9589427134
  0
LINE
  5
562
100
AcDbEntity
  8
0
100
AcDbLine
 62
7
  6
CONTINUOUS
 10
87.2156938906
 20
115.3151972813
 11
86.8924437959
 21
115.4943308873
  0
LINE
  5
563
100
AcDbEntity
  8
0
100
AcDbLine
 62
7
  6
CONTINUOUS
 10
180.7152918191
 20
30.7854038984
 11
180.8880554119
 21
30.5849387368
  0
LINE
  5
564
100
AcDbEntity
  8
0
100
AcDbLine
 62
7
  6
CONTINUOUS
 10
181.2497355102
 20
30.6995763716
 11
180.9042083246
 21
31.1005066948
  0
LINE
  5
565
100
AcDbEntity
  8
0
100
AcDbLine
 62
7
  6
CONTINUOUS
 10
181.9730961032
 20
30.9288500067
 11
182.145859696
 21
30.7283848451
  0
LINE
  5
566
100
AcDbEntity
  8
0
100
AcDbLine
 62
7
  6
CONTINUOUS
 10
179.3019912192
 20
29.3766063516
 11
179.5652676719
 21
29.0396856355
  0
LINE
  5
567
100
AcDbEntity
  8
0
100
AcDbLine
 62
7
  6
CONTINUOUS
 10
182.5075397944
 20
30.8430224799
 11
182.2442633611
 21
31.1799431981
  0
LINE
  5
568
100
AcDbEntity
  8
0
100
AcDbLine
 62
7
  6
CONTINUOUS
 10
169.8726346127
 20
38.2255695678
 11
170.0506311508
 21
37.9758458361
  0
LINE
  5
569
100
AcDbEntity
  8
0
100
AcDbLine
 62
7
  6
CONTINUOUS
 10
170.45705522
 20
38.137789425
 11
170.2514937418
 21
38.4566919072
  0
LINE
  5
56A
100
AcDbEntity
  8
0
100
AcDbLine
 62
7
  6
CONTINUOUS
 10
166.681874816
 20
29.1828992796
 11
169.568626162
 21
24.1828992796
  0
LINE
  5
56B
100
AcDbEntity
  8
0
100
AcDbLine
 62
7
  6
CONTINUOUS
 10
162.4691066001
 20
115.5216627001
 11
162.1308778042
 21
113.8046591236
  0
LINE
  5
56C
100
AcDbEntity
  8
0
100
AcDbLine
 62
7
  6
CONTINUOUS
 10
170.6586192956
 20
119.9872047619
 11
170.8138706468
 21
120.3741081423
  0
LINE
  5
56D
100
AcDbEntity
  8
0
100
AcDbLine
 62
7
  6
CONTINUOUS
 10
175.3421288539
 20
108.1828992796
 11
178.2288801998
 21
113.1828992796
  0
LINE
  5
56E
100
AcDbEntity
  8
0
100
AcDbLine
 62
7
  6
CONTINUOUS
 10
85.7408739913
 20
29.2399500829
 11
85.527085801
 21
29.1423755795
  0
LINE
  5
56F
100
AcDbEntity
  8
0
100
AcDbLine
 62
7
  6
CONTINUOUS
 10
86.9576037656
 20
29.0841152037
 11
87.1713918522
 21
29.1816896954
  0
LINE
  5
570
100
AcDbEntity
  8
RUNDUNGEN
100
AcDbLine
 62
7
  6
CONTINUOUS
 10
173.643394933
 20
57.6129639798
 11
173.6492078956
 21
57.6148241317
  0
LINE
  5
571
100
AcDbEntity
  8
0
100
AcDbLine
 62
7
  6
CONTINUOUS
 10
71.5929534366
 20
33.5066538232
 11
71.3384365597
 21
33.4341644108
  0
LINE
  5
572
100
AcDbEntity
  8
0
100
AcDbLine
 62
7
  6
CONTINUOUS
 10
180.4606147815
 20
115.5336255959
 11
179.9528618491
 21
115.3949426087
  0
LINE
  5
573
100
AcDbEntity
  8
BEZUGSACHSEN
100
AcDbLine
 62
7
  6
CONTINUOUS
 10
173.6433963789
 20
84.7528341181
 11
173.6492898462
 21
84.75094812
  0
LINE
  5
574
100
AcDbEntity
  8
0
100
AcDbLine
 62
7
  6
CONTINUOUS
 10
74.8745938675
 20
122.6446212466
 11
74.4910868289
 21
122.8080823844
  0
LINE
  5
575
100
AcDbEntity
  8
0
100
AcDbLine
 62
7
  6
CONTINUOUS
 10
86.7079051265
 20
115.1766459422
 11
86.9480268772
 21
115.0603760843
  0
LINE
  5
576
100
AcDbEntity
  8
0
100
AcDbLine
 62
7
  6
CONTINUOUS
 10
178.2288801998
 20
29.1828992796
 11
175.3421288539
 21
34.1828992796
  0
LINE
  5
577
100
AcDbEntity
  8
0
100
AcDbLine
 62
7
  6
CONTINUOUS
 10
167.5694469769
 20
34.6779366155
 11
167.4339651546
 21
34.9806575059
  0
LINE
  5
578
100
AcDbEntity
  8
0
100
AcDbLine
 62
7
  6
CONTINUOUS
 10
167.3065238001
 20
38.1650227034
 11
168.6020725112
 21
34.9136301499
  0
LINE
  5
579
100
AcDbEntity
  8
0
100
AcDbLine
 62
7
  6
CONTINUOUS
 10
168.8431073836
 20
35.4906451275
 11
167.8783370467
 21
37.9118949519
  0
LINE
  5
57A
100
AcDbEntity
  8
0
100
AcDbLine
 62
7
  6
CONTINUOUS
 10
164.3270574606
 20
31.6487672833
 11
164.2417494097
 21
31.9649538071
  0
LINE
  5
57B
100
AcDbEntity
  8
0
100
AcDbLine
 62
7
  6
CONTINUOUS
 10
162.5807548695
 20
114.1619464527
 11
162.8485193195
 21
115.5212408825
  0
LINE
  5
57C
100
AcDbEntity
  8
0
100
AcDbLine
 62
7
  6
CONTINUOUS
 10
163.9444791232
 20
115.3053501471
 11
163.6767146732
 21
113.9460557173
  0
LINE
  5
57D
100
AcDbEntity
  8
0
100
AcDbLine
 62
7
  6
CONTINUOUS
 10
164.1150985128
 20
113.8596994393
 11
164.3546772365
 21
115.0759102718
  0
LINE
  5
57E
100
AcDbEntity
  8
0
100
AcDbLine
 62
7
  6
CONTINUOUS
 10
165.5648849571
 20
113.1282015317
 11
165.6494421561
 21
113.5574524259
  0
LINE
  5
57F
100
AcDbEntity
  8
0
100
AcDbLine
 62
7
  6
CONTINUOUS
 10
166.0017638051
 20
115.3459977498
 11
166.1004138974
 21
115.846790596
  0
LINE
  5
580
100
AcDbEntity
  8
0
100
AcDbLine
 62
7
  6
CONTINUOUS
 10
167.4726580719
 20
117.8739968729
 11
167.5404424534
 21
118.1943978507
  0
LINE
  5
581
100
AcDbEntity
  8
0
100
AcDbLine
 62
7
  6
CONTINUOUS
 10
177.4688621893
 20
121.3645080095
 11
176.510716524
 21
118.5867678229
  0
LINE
  5
582
100
AcDbEntity
  8
0
100
AcDbLine
 62
7
  6
CONTINUOUS
 10
176.9723628372
 20
118.6896748137
 11
178.1102692197
 21
121.8015412138
  0
LINE
  5
583
100
AcDbEntity
  8
0
100
AcDbLine
 62
7
  6
CONTINUOUS
 10
179.3345152447
 20
114.948003637
 11
179.1593415862
 21
114.5579469119
  0
LINE
  5
584
100
AcDbEntity
  8
0
100
AcDbLine
 62
7
  6
CONTINUOUS
 10
181.1915482276
 20
113.3484819915
 11
181.3667218666
 21
113.7385387141
  0
LINE
  5
585
100
AcDbEntity
  8
0
100
AcDbLine
 62
7
  6
CONTINUOUS
 10
182.4379230971
 20
113.5819659649
 11
182.6130965237
 21
113.9720243429
  0
LINE
  5
586
100
AcDbEntity
  8
0
100
AcDbLine
 62
7
  6
CONTINUOUS
 10
179.5379352155
 20
114.5330234558
 11
179.6578117932
 21
114.7689538399
  0
LINE
  5
587
100
AcDbEntity
  8
0
100
AcDbLine
 62
7
  6
CONTINUOUS
 10
180.9881282826
 20
113.763462176
 11
180.868251705
 21
113.5275317919
  0
LINE
  5
588
100
AcDbEntity
  8
0
100
AcDbLine
 62
7
  6
CONTINUOUS
 10
182.2345031521
 20
113.9969461494
 11
182.1146265745
 21
113.7610157653
  0
LINE
  5
589
100
AcDbEntity
  8
0
100
AcDbLine
 62
7
  6
CONTINUOUS
 10
179.3835807382
 20
101.1828992796
 11
186.3117839685
 21
113.1828992796
  0
LWPOLYLINE
  5
58A
100
AcDbEntity
  8
RUNDUNGEN
100
AcDbPolyline
 62
7
  6
CONTINUOUS
 90
17
 70
0
 10
173.6492078956
 20
57.6148241317
 10
173.9169880789
 20
57.7101995946
 10
174.1670749653
 20
57.8178380112
 10
174.4187172124
 20
57.9464100524
 10
174.6676669668
 20
58.0961801903
 10
174.9116064945
 20
58.2679412265
 10
175.1470543569
 20
58.4613020242
 10
175.3719254787
 20
58.6765594993
 10
175.5836967571
 20
58.913484355
 10
175.7795866391
 20
59.171243136
 10
175.9567004422
 20
59.4482828863
 10
176.1132040012
 20
59.7443123363
 10
176.2464066792
 20
60.0573141233
 10
176.3552255368
 20
60.3895931794
 10
176.4369860524
 20
60.7421600923
 10
176.4880858644
 20
61.1162621191
 10
176.5038709007
 20
61.4719133827
  0
LINE
  5
58B
100
AcDbEntity
  8
0
100
AcDbLine
 62
7
  6
CONTINUOUS
 10
180.2777528637
 20
112.8636226273
 11
180.6470638841
 21
112.9110231271
  0
LINE
  5
58C
100
AcDbEntity
  8
0
100
AcDbLine
 62
7
  6
CONTINUOUS
 10
180.5267884737
 20
113.2631611026
 11
180.3052019236
 21
113.2347208107
  0
LINE
  5
58D
100
AcDbEntity
  8
0
100
AcDbLine
 62
7
  6
CONTINUOUS
 10
70.5271742776
 20
101.1828992796
 11
84.3835807382
 21
101.1828992796
  0
LINE
  5
58E
100
AcDbEntity
  8
0
100
AcDbLine
 62
7
  6
CONTINUOUS
 10
165.5271742776
 20
101.1828992796
 11
179.3835807382
 21
101.1828992796
  0
LINE
  5
58F
100
AcDbEntity
  8
0
100
AcDbLine
 62
7
  6
CONTINUOUS
 10
85.3052150941
 20
113.2326858149
 11
85.074357473
 21
113.2766276651
  0
LINE
  5
590
100
AcDbEntity
  8
0
100
AcDbLine
 62
7
  6
CONTINUOUS
 10
67.1310393366
 20
113.8073356334
 11
70.5648710087
 21
113.1299878298
  0
LINE
  5
591
100
AcDbEntity
  8
0
100
AcDbLine
 62
7
  6
CONTINUOUS
 10
70.6495394842
 20
113.5592167888
 11
69.1152742472
 21
113.8618615565
  0
LINE
  5
592
100
AcDbEntity
  8
0
100
AcDbLine
 62
7
  6
CONTINUOUS
 10
68.6769128094
 20
113.9483314785
 11
67.5810090102
 21
114.1645063241
  0
LINE
  5
593
100
AcDbEntity
  8
0
100
AcDbLine
 62
7
  6
CONTINUOUS
 10
68.3721557489
 20
115.8664903297
 11
68.5913366725
 21
115.8232553283
  0
LINE
  5
594
100
AcDbEntity
  8
0
100
AcDbLine
 62
7
  6
CONTINUOUS
 10
68.7490653876
 20
116.2380726337
 11
68.4568242244
 21
116.2957192887
  0
LINE
  5
595
100
AcDbEntity
  8
0
100
AcDbLine
 62
7
  6
CONTINUOUS
 10
70.7936691963
 20
116.9842444157
 11
71.116921377
 21
116.9100598472
  0
LINE
  5
596
100
AcDbEntity
  8
0
100
AcDbLine
 62
7
  6
CONTINUOUS
 10
84.8898187519
 20
112.9589427134
 11
85.2776698314
 21
112.8615947599
  0
LINE
  5
597
100
AcDbEntity
  8
0
100
AcDbLine
 62
7
  6
CONTINUOUS
 10
86.8924437959
 20
115.4943308873
 11
86.5045925613
 21
115.591678821
  0
LWPOLYLINE
  5
598
100
AcDbEntity
  8
BEZUGSACHSEN
100
AcDbPolyline
 62
7
  6
CONTINUOUS
 90
6
 70
0
 10
173.6433980205
 20
84.7528391873
 10
173.4953045962
 20
84.806886828
 10
173.3038462081
 20
84.8950318516
 10
173.1070401556
 20
85.0048005117
 10
172.9011514129
 20
85.1385420534
 10
172.6806976995
 20
85.3016964419
  0
LINE
  5
599
100
AcDbEntity
  8
0
100
AcDbLine
 62
7
  6
CONTINUOUS
 10
186.3117839685
 20
29.1828992796
 11
179.3835807382
 21
41.1828992796
  0
LINE
  5
59A
100
AcDbEntity
  8
0
100
AcDbLine
 62
7
  6
CONTINUOUS
 10
178.5060272463
 20
32.174911603
 11
178.699953971
 21
31.7827398607
  0
LINE
  5
59B
100
AcDbEntity
  8
0
100
AcDbLine
 62
7
  6
CONTINUOUS
 10
181.8373279094
 20
33.334153658
 11
181.6434011847
 21
33.7263254003
  0
LINE
  5
59C
100
AcDbEntity
  8
0
100
AcDbLine
 62
7
  6
CONTINUOUS
 10
179.6636713629
 20
29.4912439915
 11
179.5648962452
 21
29.7001471581
  0
LINE
  5
59D
100
AcDbEntity
  8
0
100
AcDbLine
 62
7
  6
CONTINUOUS
 10
180.8880554119
 20
30.5849387368
 11
180.9868305296
 21
30.3760355702
  0
LINE
  5
59E
100
AcDbEntity
  8
0
100
AcDbLine
 62
7
  6
CONTINUOUS
 10
182.145859696
 20
30.7283848451
 11
182.2446348137
 21
30.5194816785
  0
LINE
  5
59F
100
AcDbEntity
  8
0
100
AcDbLine
 62
7
  6
CONTINUOUS
 10
170.0506311508
 20
37.9758458361
 11
170.4641041331
 21
36.9381673884
  0
LINE
  5
5A0
100
AcDbEntity
  8
0
100
AcDbLine
 62
7
  6
CONTINUOUS
 10
170.8705282022
 20
37.1001109773
 11
170.45705522
 21
38.137789425
  0
LINE
  5
5A1
100
AcDbEntity
  8
0
100
AcDbLine
 62
7
  6
CONTINUOUS
 10
167.0966861181
 20
34.6922227716
 11
167.1749583529
 21
34.4371733113
  0
LINE
  5
5A2
100
AcDbEntity
  8
0
100
AcDbLine
 62
7
  6
CONTINUOUS
 10
163.9476883391
 20
31.6545370006
 11
163.975242448
 21
31.4251076478
  0
LINE
  5
5A3
100
AcDbEntity
  8
0
100
AcDbLine
 62
7
  6
CONTINUOUS
 10
167.6115721046
 20
34.2631801511
 11
167.5694469769
 21
34.6779366155
  0
LINE
  5
5A4
100
AcDbEntity
  8
0
100
AcDbLine
 62
7
  6
CONTINUOUS
 10
167.1014194979
 20
118.3622192814
 11
167.0795192228
 21
118.098488484
  0
LINE
  5
5A5
100
AcDbEntity
  8
0
100
AcDbLine
 62
7
  6
CONTINUOUS
 10
170.4017839703
 20
120.6062530356
 11
170.3526951593
 21
120.3440180641
  0
LINE
  5
5A6
100
AcDbEntity
  8
RUNDUNGEN
100
AcDbLine
 62
7
  6
CONTINUOUS
 10
172.5154592051
 20
56.928926547
 11
172.5157657055
 21
56.9291873136
  0
LINE
  5
5A7
100
AcDbEntity
  8
RUNDUNGEN
100
AcDbLine
 62
7
  6
CONTINUOUS
 10
172.5157657055
 20
56.9291873136
 11
172.6808412404
 21
57.0642148114
  0
LWPOLYLINE
  5
5A8
100
AcDbEntity
  8
RUNDUNGEN
100
AcDbPolyline
 62
7
  6
CONTINUOUS
 90
6
 70
0
 10
172.6808412404
 20
57.0642148114
 10
172.9013419977
 20
57.2273888044
 10
173.1071580808
 20
57.3610692598
 10
173.3038696037
 20
57.4707786428
 10
173.4952996515
 20
57.5589097157
 10
173.6433965747
 20
57.6129589106
  0
LINE
  5
5A9
100
AcDbEntity
  8
0
100
AcDbLine
 62
7
  6
CONTINUOUS
 10
166.1004138974
 20
115.846790596
 11
164.2931065091
 21
115.5339466943
  0
LINE
  5
5AA
100
AcDbEntity
  8
0
100
AcDbLine
 62
7
  6
CONTINUOUS
 10
164.3546772365
 20
115.0759102718
 11
166.0017638051
 21
115.3459977498
  0
LINE
  5
5AB
100
AcDbEntity
  8
0
100
AcDbLine
 62
7
  6
CONTINUOUS
 10
180.073137156
 20
115.0428046199
 11
180.2947237061
 21
115.0712449117
  0
LINE
  5
5AC
100
AcDbEntity
  8
0
100
AcDbLine
 62
7
  6
CONTINUOUS
 10
180.8763386094
 20
115.2194096516
 11
181.0240629761
 21
115.2383698462
  0
LINE
  5
5AD
100
AcDbEntity
  8
0
100
AcDbLine
 62
7
  6
CONTINUOUS
 10
180.9776500651
 20
115.599986277
 11
180.4606147815
 21
115.5336255959
  0
LINE
  5
5AE
100
AcDbEntity
  8
0
100
AcDbLine
 62
7
  6
CONTINUOUS
 10
163.1381755852
 20
115.8357718902
 11
163.3714603581
 21
115.8641354986
  0
LINE
  5
5AF
100
AcDbEntity
  8
0
100
AcDbLine
 62
7
  6
CONTINUOUS
 10
163.4560175571
 20
116.2933863927
 11
163.2227327842
 21
116.2650227843
  0
LINE
  5
5B0
100
AcDbEntity
  8
0
100
AcDbLine
 62
7
  6
CONTINUOUS
 10
166.1159553582
 20
116.908416536
 11
166.5309945077
 21
116.9476557019
  0
LINE
  5
5B1
100
AcDbEntity
  8
0
100
AcDbLine
 62
7
  6
CONTINUOUS
 10
74.568626162
 20
108.1828992796
 11
80.3421288539
 21
108.1828992796
  0
LINE
  5
5B2
100
AcDbEntity
  8
0
100
AcDbLine
 62
7
  6
CONTINUOUS
 10
169.568626162
 20
108.1828992796
 11
175.3421288539
 21
108.1828992796
  0
LINE
  5
5B3
100
AcDbEntity
  8
0
100
AcDbLine
 62
7
  6
CONTINUOUS
 10
71.2765860707
 20
117.3437595459
 11
71.0111974818
 21
117.3710686741
  0
LINE
  5
5B4
100
AcDbEntity
  8
0
100
AcDbLine
 62
7
  6
CONTINUOUS
 10
85.2952129788
 20
115.0692125705
 11
85.5260707033
 21
115.0252707336
  0
LINE
  5
5B5
100
AcDbEntity
  8
0
100
AcDbLine
 62
7
  6
CONTINUOUS
 10
86.4770472985
 20
115.220587766
 11
86.7079051265
 21
115.1766459422
  0
LINE
  5
5B6
100
AcDbEntity
  8
0
100
AcDbLine
 62
7
  6
CONTINUOUS
 10
74.2683772567
 20
122.3932938042
 11
74.5274883057
 21
122.33948856
  0
LINE
  5
5B7
100
AcDbEntity
  8
0
100
AcDbLine
 62
7
  6
CONTINUOUS
 10
85.3859785657
 20
117.7335335317
 11
86.0493398051
 21
117.5815876266
  0
LINE
  5
5B8
100
AcDbEntity
  8
0
100
AcDbLine
 62
7
  6
CONTINUOUS
 10
86.5796558687
 20
117.8530218043
 11
85.916294815
 21
118.0049678044
  0
LINE
  5
5B9
100
AcDbEntity
  8
BEZUGSACHSEN
100
AcDbLine
 62
7
  6
CONTINUOUS
 10
172.6806976995
 20
85.3016964419
 11
172.5157697486
 21
85.4366078052
  0
LINE
  5
5BA
100
AcDbEntity
  8
BEZUGSACHSEN
100
AcDbLine
 62
7
  6
CONTINUOUS
 10
172.5154592051
 20
85.4368720122
 11
172.5157697486
 21
85.4366078052
  0
LINE
  5
5BB
100
AcDbEntity
  8
0
100
AcDbLine
 62
7
  6
CONTINUOUS
 10
179.1866917297
 20
29.730403079
 11
179.3019912192
 21
29.3766063516
  0
LINE
  5
5BC
100
AcDbEntity
  8
0
100
AcDbLine
 62
7
  6
CONTINUOUS
 10
181.3650349932
 20
30.3457796434
 11
181.2497355102
 21
30.6995763716
  0
LINE
  5
5BD
100
AcDbEntity
  8
0
100
AcDbLine
 62
7
  6
CONTINUOUS
 10
170.9406154303
 20
36.7272276985
 11
170.8705282022
 21
37.1001109773
  0
LINE
  5
5BE
100
AcDbEntity
  8
0
100
AcDbLine
 62
7
  6
CONTINUOUS
 10
170.4641041331
 20
36.9381673884
 11
170.5066264982
 21
36.6344626663
  0
LINE
  5
5BF
100
AcDbEntity
  8
0
100
AcDbLine
 62
7
  6
CONTINUOUS
 10
173.4157208603
 20
78.8828992796
 11
173.4157208603
 21
79.8828992796
  0
LINE
  5
5C0
100
AcDbEntity
  8
0
100
AcDbLine
 62
7
  6
CONTINUOUS
 10
170.8138706468
 20
120.3741081423
 11
170.8344221827
 21
120.7051262954
  0
LINE
  5
5C1
100
AcDbEntity
  8
0
100
AcDbLine
 62
7
  6
CONTINUOUS
 10
170.9153999531
 20
36.3965321239
 11
170.9406154303
 21
36.7272276985
  0
LINE
  5
5C2
100
AcDbEntity
  8
0
100
AcDbLine
 62
7
  6
CONTINUOUS
 10
167.1749583529
 20
34.4371733113
 11
167.1493427432
 21
34.173777419
  0
LINE
  5
5C3
100
AcDbEntity
  8
0
100
AcDbLine
 62
7
  6
CONTINUOUS
 10
179.4919208213
 20
114.306573169
 11
179.5379352155
 21
114.5330234558
  0
LINE
  5
5C4
100
AcDbEntity
  8
0
100
AcDbLine
 62
7
  6
CONTINUOUS
 10
181.0341426769
 20
113.9899124628
 11
180.9881282826
 21
113.763462176
  0
LINE
  5
5C5
100
AcDbEntity
  8
0
100
AcDbLine
 62
7
  6
CONTINUOUS
 10
182.2805175464
 20
114.2233964362
 11
182.2345031521
 21
113.9969461494
  0
LINE
  5
5C6
100
AcDbEntity
  8
0
100
AcDbLine
 62
7
  6
CONTINUOUS
 10
162.5030656152
 20
31.6621953434
 11
162.1406677935
 21
29.950129977
  0
LINE
  5
5C7
100
AcDbEntity
  8
0
100
AcDbLine
 62
7
  6
CONTINUOUS
 10
162.5955364324
 20
30.3010404083
 11
162.8824346935
 21
31.656425422
  0
LINE
  5
5C8
100
AcDbEntity
  8
0
100
AcDbLine
 62
7
  6
CONTINUOUS
 10
163.975242448
 20
31.4251076478
 11
163.6883441869
 21
30.0697226341
  0
LINE
  5
5C9
100
AcDbEntity
  8
0
100
AcDbLine
 62
7
  6
CONTINUOUS
 10
164.125467207
 20
29.9771955417
 11
164.3821656569
 21
31.1899084755
  0
LINE
  5
5CA
100
AcDbEntity
  8
0
100
AcDbLine
 62
7
  6
CONTINUOUS
 10
165.5647985262
 20
29.2253343335
 11
165.6553979817
 21
29.6533506751
  0
LINE
  5
5CB
100
AcDbEntity
  8
0
100
AcDbLine
 62
7
  6
CONTINUOUS
 10
166.0328956983
 20
31.4367520304
 11
166.1385950918
 21
31.936104565
  0
LINE
  5
5CC
100
AcDbEntity
  8
0
100
AcDbLine
 62
7
  6
CONTINUOUS
 10
168.9322200768
 20
38.8127970589
 11
167.3065238001
 21
38.1650227034
  0
LINE
  5
5CD
100
AcDbEntity
  8
0
100
AcDbLine
 62
7
  6
CONTINUOUS
 10
167.8783370467
 20
37.9118949519
 11
169.0976092543
 21
38.3977257186
  0
LINE
  5
5CE
100
AcDbEntity
  8
0
100
AcDbLine
 62
7
  6
CONTINUOUS
 10
166.5892037649
 20
33.5015651571
 11
166.3347498855
 21
33.4288549185
  0
LINE
  5
5CF
100
AcDbEntity
  8
0
100
AcDbLine
 62
7
  6
CONTINUOUS
 10
169.1621167977
 20
122.8331090408
 11
168.7968284879
 21
122.7621784066
  0
LINE
  5
5D0
100
AcDbEntity
  8
0
100
AcDbLine
 62
7
  6
CONTINUOUS
 10
168.9680520181
 20
122.3494796057
 11
169.2659896545
 21
122.3924672945
  0
LINE
  5
5D1
100
AcDbEntity
  8
0
100
AcDbLine
 62
7
  6
CONTINUOUS
 10
85.2776698314
 20
112.8615947599
 11
85.6469931274
 21
112.9088995175
  0
LINE
  5
5D2
100
AcDbEntity
  8
0
100
AcDbLine
 62
7
  6
CONTINUOUS
 10
85.5268090097
 20
113.2610686615
 11
85.3052150941
 21
113.2326858149
  0
LINE
  5
5D3
100
AcDbEntity
  8
0
100
AcDbLine
 62
7
  6
CONTINUOUS
 10
85.0736190632
 20
115.0408297239
 11
85.2952129788
 21
115.0692125705
  0
LINE
  5
5D4
100
AcDbEntity
  8
0
100
AcDbLine
 62
7
  6
CONTINUOUS
 10
85.8768662728
 20
115.2172265272
 11
86.0245955499
 21
115.236148425
  0
LINE
  5
5D5
100
AcDbEntity
  8
0
100
AcDbLine
 62
7
  6
CONTINUOUS
 10
175.3421288539
 20
118.1828992796
 11
169.568626162
 21
118.1828992796
  0
LINE
  5
5D6
100
AcDbEntity
  8
0
100
AcDbLine
 62
7
  6
CONTINUOUS
 10
80.3421288539
 20
118.1828992796
 11
74.568626162
 21
118.1828992796
  0
LINE
  5
5D7
100
AcDbEntity
  8
0
100
AcDbLine
 62
7
  6
CONTINUOUS
 10
181.5039678034
 20
115.5940246651
 11
180.9776500651
 21
115.599986277
  0
LINE
  5
5D8
100
AcDbEntity
  8
0
100
AcDbLine
 62
7
  6
CONTINUOUS
 10
86.5045925613
 20
115.591678821
 11
85.9782763861
 21
115.5977768757
  0
LINE
  5
5D9
100
AcDbEntity
  8
0
100
AcDbLine
 62
7
  6
CONTINUOUS
 10
181.0240629761
 20
115.2383698462
 11
181.4765187436
 21
115.2229264817
  0
LINE
  5
5DA
100
AcDbEntity
  8
0
100
AcDbLine
 62
7
  6
CONTINUOUS
 10
86.0245955499
 20
115.236148425
 11
86.4770472985
 21
115.220587766
  0
LINE
  5
5DB
100
AcDbEntity
  8
0
100
AcDbLine
 62
7
  6
CONTINUOUS
 10
74.4910868289
 20
122.8080823844
 11
74.1646186356
 21
122.8339624638
  0
LINE
  5
5DC
100
AcDbEntity
  8
0
100
AcDbLine
 62
7
  6
CONTINUOUS
 10
182.6228392774
 20
30.4892257517
 11
182.5075397944
 21
30.8430224799
  0
LINE
  5
5DD
100
AcDbEntity
  8
0
100
AcDbLine
 62
7
  6
CONTINUOUS
 10
163.9136937494
 20
115.5343683072
 11
163.9444791232
 21
115.3053501471
  0
LINE
  5
5DE
100
AcDbEntity
  8
0
100
AcDbLine
 62
7
  6
CONTINUOUS
 10
167.5404424534
 20
118.1943978507
 11
167.4924751648
 21
118.6085193188
  0
LWPOLYLINE
  5
5DF
100
AcDbEntity
  8
BEZUGSACHSEN
100
AcDbPolyline
 62
7
  6
CONTINUOUS
 90
17
 70
0
 10
176.5038709012
 20
80.8938853039
 10
176.4896880608
 20
81.2310383054
 10
176.4399741173
 20
81.6072848354
 10
176.359202757
 20
81.9618958854
 10
176.2510381425
 20
82.2961188342
 10
176.1182151264
 20
82.6109303575
 10
175.9618640722
 20
82.9086353956
 10
175.7847272086
 20
83.1871776826
 10
175.58870856
 20
83.4462298959
 10
175.3767056692
 20
83.6842885688
 10
175.1514937365
 20
83.9005567886
 10
174.915629606
 20
84.0947945586
 10
174.6712357754
 20
84.2672929787
 10
174.4217628566
 20
84.4176977984
 10
174.1694890413
 20
84.5468273845
 10
173.9186850481
 20
84.6549313392
 10
173.6492898462
 20
84.75094812
  0
LINE
  5
5E0
100
AcDbEntity
  8
BEZUGSACHSEN
100
AcDbLine
 62
7
  6
CONTINUOUS
 10
176.5038713494
 20
80.8939047383
 11
176.5038713494
 21
79.8828992796
  0
LINE
  5
5E1
100
AcDbEntity
  8
RUNDUNGEN
100
AcDbLine
 62
7
  6
CONTINUOUS
 10
176.5038713494
 20
63.4828992796
 11
176.5038713494
 21
61.4718938208
  0
LINE
  5
5E2
100
AcDbEntity
  8
0
100
AcDbLine
 62
7
  6
CONTINUOUS
 10
177.4461183662
 20
63.4828992796
 11
177.4461183662
 21
62.4828992796
  0
LINE
  5
5E3
100
AcDbEntity
  8
0
100
AcDbLine
 62
7
  6
CONTINUOUS
 10
177.7327409992
 20
63.4828992796
 11
177.7327409992
 21
62.4828992796
  0
LINE
  5
5E4
100
AcDbEntity
  8
0
100
AcDbLine
 62
7
  6
CONTINUOUS
 10
178.5533959452
 20
63.4828992796
 11
178.5533959452
 21
62.4828992796
  0
LINE
  5
5E5
100
AcDbEntity
  8
0
100
AcDbLine
 62
7
  6
CONTINUOUS
 10
179.4936395385
 20
63.4828992796
 11
179.4936395385
 21
62.4828992796
  0
LINE
  5
5E6
100
AcDbEntity
  8
0
100
AcDbLine
 62
7
  6
CONTINUOUS
 10
180.2111709742
 20
63.4828992796
 11
180.2111709742
 21
62.4828992796
  0
LINE
  5
5E7
100
AcDbEntity
  8
0
100
AcDbLine
 62
7
  6
CONTINUOUS
 10
180.7142227245
 20
63.4828992796
 11
180.7142227245
 21
62.4828992796
  0
LINE
  5
5E8
100
AcDbEntity
  8
0
100
AcDbLine
 62
7
  6
CONTINUOUS
 10
179.1593415862
 20
114.5579469119
 11
179.1318923074
 21
114.186850383
  0
LINE
  5
5E9
100
AcDbEntity
  8
0
100
AcDbLine
 62
7
  6
CONTINUOUS
 10
181.3667218666
 20
113.7385387141
 11
181.394171139
 21
114.1096352422
  0
LINE
  5
5EA
100
AcDbEntity
  8
0
100
AcDbLine
 62
7
  6
CONTINUOUS
 10
182.6130965237
 20
113.9720243429
 11
182.6405457961
 21
114.343120871
  0
LINE
  5
5EB
100
AcDbEntity
  8
0
100
AcDbLine
 62
7
  6
CONTINUOUS
 10
170.5066264982
 20
36.6344626663
 11
170.4538461388
 21
36.3729456969
  0
LINE
  5
5EC
100
AcDbEntity
  8
0
100
AcDbLine
 62
7
  6
CONTINUOUS
 10
167.5392781327
 20
33.9437664843
 11
167.6115721046
 21
34.2631801511
  0
LINE
  5
5ED
100
AcDbEntity
  8
0
100
AcDbLine
 62
7
  6
CONTINUOUS
 10
162.6514190125
 20
32.003454514
 11
162.5030656152
 21
31.6621953434
  0
LINE
  5
5EE
100
AcDbEntity
  8
0
100
AcDbLine
 62
7
  6
CONTINUOUS
 10
167.1493427432
 20
34.173777419
 11
167.0198392088
 21
33.9020351615
  0
LINE
  5
5EF
100
AcDbEntity
  8
0
100
AcDbLine
 62
7
  6
CONTINUOUS
 10
167.3630965331
 20
33.6160067478
 11
167.5392781327
 21
33.9437664843
  0
LINE
  5
5F0
100
AcDbEntity
  8
0
100
AcDbLine
 62
7
  6
CONTINUOUS
 10
165.5271742776
 20
41.1828992796
 11
158.5989710474
 21
29.1828992796
  0
LINE
  5
5F1
100
AcDbEntity
  8
0
100
AcDbLine
 62
7
  6
CONTINUOUS
 10
162.8824346935
 20
31.656425422
 11
163.0005882579
 21
31.8550124107
  0
LINE
  5
5F2
100
AcDbEntity
  8
0
100
AcDbLine
 62
7
  6
CONTINUOUS
 10
165.4210995456
 20
36.7528457835
 11
165.1410300565
 21
36.4167396526
  0
LINE
  5
5F3
100
AcDbEntity
  8
0
100
AcDbLine
 62
7
  6
CONTINUOUS
 10
164.0207521
 20
35.0723151288
 11
163.7406824773
 21
34.7362088376
  0
LINE
  5
5F4
100
AcDbEntity
  8
0
100
AcDbLine
 62
7
  6
CONTINUOUS
 10
162.9303801452
 20
32.2425351275
 11
162.6514190125
 21
32.003454514
  0
LINE
  5
5F5
100
AcDbEntity
  8
0
100
AcDbLine
 62
7
  6
CONTINUOUS
 10
170.3057638494
 20
36.1536167406
 11
170.0623795912
 21
35.9764758942
  0
LINE
  5
5F6
100
AcDbEntity
  8
0
100
AcDbLine
 62
7
  6
CONTINUOUS
 10
166.833126127
 20
33.6779643007
 11
166.5892037649
 21
33.5015651571
  0
LINE
  5
5F7
100
AcDbEntity
  8
0
100
AcDbLine
 62
7
  6
CONTINUOUS
 10
170.227768788
 20
35.5614045054
 11
170.5388909054
 21
35.7655361619
  0
LINE
  5
5F8
100
AcDbEntity
  8
0
100
AcDbLine
 62
7
  6
CONTINUOUS
 10
163.0005882579
 20
31.8550124107
 11
163.1764957642
 21
31.9668422285
  0
LINE
  5
5F9
100
AcDbEntity
  8
0
100
AcDbLine
 62
7
  6
CONTINUOUS
 10
163.2670952197
 20
32.3948585701
 11
162.9303801452
 21
32.2425351275
  0
LINE
  5
5FA
100
AcDbEntity
  8
0
100
AcDbLine
 62
7
  6
CONTINUOUS
 10
166.5846505555
 20
33.0307908974
 11
166.8857827471
 21
33.1595189523
  0
LINE
  5
5FB
100
AcDbEntity
  8
0
100
AcDbLine
 62
7
  6
CONTINUOUS
 10
170.0623795912
 20
35.9764758942
 11
168.8431073836
 21
35.4906451275
  0
LINE
  5
5FC
100
AcDbEntity
  8
0
100
AcDbLine
 62
7
  6
CONTINUOUS
 10
168.6020725112
 20
34.9136301499
 11
170.227768788
 21
35.5614045054
  0
LINE
  5
5FD
100
AcDbEntity
  8
0
100
AcDbLine
 62
7
  6
CONTINUOUS
 10
85.4612239165
 20
115.5315502335
 11
84.9534350489
 21
115.3929988811
  0
LINE
  5
5FE
100
AcDbEntity
  8
0
100
AcDbLine
 62
7
  6
CONTINUOUS
 10
71.1011047001
 20
115.8484379719
 11
69.2937162706
 21
115.5360626083
  0
LINE
  5
5FF
100
AcDbEntity
  8
0
100
AcDbLine
 62
7
  6
CONTINUOUS
 10
69.3551682543
 20
115.0780102396
 11
71.0023247851
 21
115.3476707166
  0
LINE
  5
600
100
AcDbEntity
  8
0
100
AcDbLine
 62
7
  6
CONTINUOUS
 10
85.9782763861
 20
115.5977768757
 11
85.4612239165
 21
115.5315502335
  0
LINE
  5
601
100
AcDbEntity
  8
0
100
AcDbLine
 62
7
  6
CONTINUOUS
 10
68.1388636309
 20
115.8381871991
 11
68.3721557489
 21
115.8664903297
  0
LINE
  5
602
100
AcDbEntity
  8
0
100
AcDbLine
 62
7
  6
CONTINUOUS
 10
68.4568242244
 20
116.2957192887
 11
68.2235321064
 21
116.2674161582
  0
LINE
  5
603
100
AcDbEntity
  8
0
100
AcDbLine
 62
7
  6
CONTINUOUS
 10
71.116921377
 20
116.9100598472
 11
71.5319706849
 21
116.9491914167
  0
LINE
  5
604
100
AcDbEntity
  8
0
100
AcDbLine
 62
7
  6
CONTINUOUS
 10
179.3835807382
 20
125.1828992796
 11
165.5271742776
 21
125.1828992796
  0
LINE
  5
605
100
AcDbEntity
  8
0
100
AcDbLine
 62
7
  6
CONTINUOUS
 10
84.3835807382
 20
125.1828992796
 11
70.5271742776
 21
125.1828992796
  0
LINE
  5
606
100
AcDbEntity
  8
0
100
AcDbLine
 62
7
  6
CONTINUOUS
 10
169.4885916891
 20
122.8073135961
 11
169.1621167977
 21
122.8331090408
  0
LINE
  5
607
100
AcDbEntity
  8
0
100
AcDbLine
 62
7
  6
CONTINUOUS
 10
166.2755076139
 20
117.3421576117
 11
166.0101119543
 21
117.3693979395
  0
LINE
  5
608
100
AcDbEntity
  8
0
100
AcDbLine
 62
7
  6
CONTINUOUS
 10
180.3052019236
 20
113.2347208107
 11
180.0743329188
 21
113.2786028118
  0
LINE
  5
609
100
AcDbEntity
  8
0
100
AcDbLine
 62
7
  6
CONTINUOUS
 10
180.2947237061
 20
115.0712449117
 11
180.5255928144
 21
115.0273629239
  0
LINE
  5
60A
100
AcDbEntity
  8
0
100
AcDbLine
 62
7
  6
CONTINUOUS
 10
181.4765187436
 20
115.2229264817
 11
181.7073879553
 21
115.1790445071
  0
LINE
  5
60B
100
AcDbEntity
  8
0
100
AcDbLine
 62
7
  6
CONTINUOUS
 10
162.1308778042
 20
113.8046591236
 11
165.5648849571
 21
113.1282015317
  0
LINE
  5
60C
100
AcDbEntity
  8
0
100
AcDbLine
 62
7
  6
CONTINUOUS
 10
165.6494421561
 20
113.5574524259
 11
164.1150985128
 21
113.8596994393
  0
LINE
  5
60D
100
AcDbEntity
  8
0
100
AcDbLine
 62
7
  6
CONTINUOUS
 10
163.6767146732
 20
113.9460557173
 11
162.5807548695
 21
114.1619464527
  0
LINE
  5
60E
100
AcDbEntity
  8
0
100
AcDbLine
 62
7
  6
CONTINUOUS
 10
163.3714603581
 20
115.8641354986
 11
163.5906524826
 21
115.8209573193
  0
LINE
  5
60F
100
AcDbEntity
  8
0
100
AcDbLine
 62
7
  6
CONTINUOUS
 10
163.7482736548
 20
116.2358155004
 11
163.4560175571
 21
116.2933863927
  0
LINE
  5
610
100
AcDbEntity
  8
0
100
AcDbLine
 62
7
  6
CONTINUOUS
 10
165.7926839567
 20
116.9825173019
 11
166.1159553582
 21
116.908416536
  0
LINE
  5
611
100
AcDbEntity
  8
0
100
AcDbLine
 62
7
  6
CONTINUOUS
 10
179.8898765608
 20
112.9608700308
 11
180.2777528637
 21
112.8636226273
  0
LINE
  5
612
100
AcDbEntity
  8
0
100
AcDbLine
 62
7
  6
CONTINUOUS
 10
158.5989710474
 20
113.1828992796
 11
165.5271742776
 21
101.1828992796
  0
LINE
  5
613
100
AcDbEntity
  8
0
100
AcDbLine
 62
7
  6
CONTINUOUS
 10
167.0195599
 20
118.6161400882
 11
167.1014194979
 21
118.3622192814
  0
LINE
  5
614
100
AcDbEntity
  8
0
100
AcDbLine
 62
7
  6
CONTINUOUS
 10
164.2931065091
 20
115.5339466943
 11
164.2033500151
 21
115.8488993148
  0
LINE
  5
615
100
AcDbEntity
  8
0
100
AcDbLine
 62
7
  6
CONTINUOUS
 10
170.8344221827
 20
120.7051262954
 11
170.7590858101
 21
121.0769845885
  0
LINE
  5
616
100
AcDbEntity
  8
0
100
AcDbLine
 62
7
  6
CONTINUOUS
 10
170.3549848527
 20
120.9093281951
 11
170.4017839703
 21
120.6062530356
  0
LINE
  5
617
100
AcDbEntity
  8
0
100
AcDbLine
 62
7
  6
CONTINUOUS
 10
179.1453805326
 20
30.0926394704
 11
179.1866917297
 21
29.730403079
  0
LINE
  5
618
100
AcDbEntity
  8
0
100
AcDbLine
 62
7
  6
CONTINUOUS
 10
179.5648962452
 20
29.7001471581
 11
179.5070608719
 21
30.2072754529
  0
LINE
  5
619
100
AcDbEntity
  8
0
100
AcDbLine
 62
7
  6
CONTINUOUS
 10
180.9868305296
 20
30.3760355702
 11
181.0446659028
 21
29.8689072754
  0
LINE
  5
61A
100
AcDbEntity
  8
0
100
AcDbLine
 62
7
  6
CONTINUOUS
 10
181.4063461903
 20
29.983543252
 11
181.3650349932
 21
30.3457796434
  0
LINE
  5
61B
100
AcDbEntity
  8
0
100
AcDbLine
 62
7
  6
CONTINUOUS
 10
181.9163748987
 20
29.4545954008
 11
181.9576859067
 21
29.0923606676
  0
LINE
  5
61C
100
AcDbEntity
  8
0
100
AcDbLine
 62
7
  6
CONTINUOUS
 10
182.2446348137
 20
30.5194816785
 11
182.2942080989
 21
30.0847993354
  0
LINE
  5
61D
100
AcDbEntity
  8
0
100
AcDbLine
 62
7
  6
CONTINUOUS
 10
182.6558881972
 20
30.1994369702
 11
182.6228392774
 21
30.4892257517
  0
LINE
  5
61E
100
AcDbEntity
  8
0
100
AcDbLine
 62
7
  6
CONTINUOUS
 10
181.662698712
 20
63.4828992796
 11
181.662698712
 21
62.4828992796
  0
LINE
  5
61F
100
AcDbEntity
  8
0
100
AcDbLine
 62
7
  6
CONTINUOUS
 10
182.1473361648
 20
63.4828992796
 11
182.1473361648
 21
62.4828992796
  0
LINE
  5
620
100
AcDbEntity
  8
0
100
AcDbLine
 62
7
  6
CONTINUOUS
 10
184.9815679687
 20
78.8828992796
 11
184.9815679687
 21
79.8828992796
  0
LINE
  5
621
100
AcDbEntity
  8
0
100
AcDbLine
 62
7
  6
CONTINUOUS
 10
185.6831535923
 20
78.8828992796
 11
185.6831535923
 21
79.8828992796
  0
LINE
  5
622
100
AcDbEntity
  8
0
100
AcDbLine
 62
7
  6
CONTINUOUS
 10
186.1457946351
 20
78.8828992796
 11
186.1457946351
 21
79.8828992796
  0
LINE
  5
623
100
AcDbEntity
  8
0
100
AcDbLine
 62
7
  6
CONTINUOUS
 10
187.2737978903
 20
78.8828992796
 11
187.2737978903
 21
79.8828992796
  0
LINE
  5
624
100
AcDbEntity
  8
0
100
AcDbLine
 62
7
  6
CONTINUOUS
 10
179.1780580063
 20
30.4633122093
 11
179.1453805326
 21
30.0926394704
  0
LINE
  5
625
100
AcDbEntity
  8
0
100
AcDbLine
 62
7
  6
CONTINUOUS
 10
181.3736687231
 20
29.6128705139
 11
181.4063461903
 21
29.983543252
  0
LINE
  5
626
100
AcDbEntity
  8
0
100
AcDbLine
 62
7
  6
CONTINUOUS
 10
182.62321073
 20
29.828764232
 11
182.6558881972
 21
30.1994369702
  0
LINE
  5
627
100
AcDbEntity
  8
0
100
AcDbLine
 62
7
  6
CONTINUOUS
 10
179.5070608719
 20
30.2072754529
 11
179.5562627044
 21
30.4330546295
  0
LINE
  5
628
100
AcDbEntity
  8
0
100
AcDbLine
 62
7
  6
CONTINUOUS
 10
177.5836908431
 20
37.2930258135
 11
176.5864857547
 21
34.5290674796
  0
LINE
  5
629
100
AcDbEntity
  8
0
100
AcDbLine
 62
7
  6
CONTINUOUS
 10
177.0495367644
 20
34.625456948
 11
178.2311945043
 21
37.720974419
  0
LINE
  5
62A
100
AcDbEntity
  8
0
100
AcDbLine
 62
7
  6
CONTINUOUS
 10
170.7547102934
 20
36.0118555832
 11
170.9153999531
 21
36.3965321239
  0
LINE
  5
62B
100
AcDbEntity
  8
0
100
AcDbLine
 62
7
  6
CONTINUOUS
 10
169.568626162
 20
34.1828992796
 11
166.681874816
 21
29.1828992796
  0
LINE
  5
62C
100
AcDbEntity
  8
0
100
AcDbLine
 62
7
  6
CONTINUOUS
 10
170.4538461388
 20
36.3729456969
 11
170.3057638494
 21
36.1536167406
  0
LINE
  5
62D
100
AcDbEntity
  8
0
100
AcDbLine
 62
7
  6
CONTINUOUS
 10
167.0198392088
 20
33.9020351615
 11
166.833126127
 21
33.6779643007
  0
LINE
  5
62E
100
AcDbEntity
  8
0
100
AcDbLine
 62
7
  6
CONTINUOUS
 10
167.1763834514
 20
33.391935887
 11
167.3630965331
 21
33.6160067478
  0
LINE
  5
62F
100
AcDbEntity
  8
0
100
AcDbLine
 62
7
  6
CONTINUOUS
 10
177.7297191111
 20
38.1442786741
 11
175.4720964169
 21
35.4697432433
  0
LINE
  5
630
100
AcDbEntity
  8
0
100
AcDbLine
 62
7
  6
CONTINUOUS
 10
175.8064133458
 20
35.1875404065
 11
177.5836908431
 21
37.2930258135
  0
LINE
  5
631
100
AcDbEntity
  8
0
100
AcDbLine
 62
7
  6
CONTINUOUS
 10
170.5388909054
 20
35.7655361619
 11
170.7547102934
 21
36.0118555832
  0
LINE
  5
632
100
AcDbEntity
  8
0
100
AcDbLine
 62
7
  6
CONTINUOUS
 10
166.8857827471
 20
33.1595189523
 11
167.1763834514
 21
33.391935887
  0
LINE
  5
633
100
AcDbEntity
  8
0
100
AcDbLine
 62
7
  6
CONTINUOUS
 10
179.9027791486
 20
36.3099602351
 11
177.0495367644
 21
34.625456948
  0
LINE
  5
634
100
AcDbEntity
  8
0
100
AcDbLine
 62
7
  6
CONTINUOUS
 10
177.03224251
 20
34.1527963129
 11
179.5895924162
 21
35.5998087929
  0
LINE
  5
635
100
AcDbEntity
  8
0
100
AcDbLine
 62
7
  6
CONTINUOUS
 10
179.9832975998
 20
31.2890394047
 11
179.6298797269
 21
31.1019541541
  0
LINE
  5
636
100
AcDbEntity
  8
0
100
AcDbLine
 62
7
  6
CONTINUOUS
 10
180.9822060569
 20
33.8874355407
 11
180.4481848376
 21
33.6233650462
  0
LINE
  5
637
100
AcDbEntity
  8
0
100
AcDbLine
 62
7
  6
CONTINUOUS
 10
181.1093801525
 20
33.4622549982
 11
178.5060272463
 21
32.174911603
  0
LINE
  5
638
100
AcDbEntity
  8
0
100
AcDbLine
 62
7
  6
CONTINUOUS
 10
178.699953971
 20
31.7827398607
 11
181.8373279094
 21
33.334153658
  0
LINE
  5
639
100
AcDbEntity
  8
0
100
AcDbLine
 62
7
  6
CONTINUOUS
 10
179.8848939348
 20
30.8374810516
 11
180.098597272
 21
30.9352410183
  0
LINE
  5
63A
100
AcDbEntity
  8
0
100
AcDbLine
 62
7
  6
CONTINUOUS
 10
180.7408213669
 20
29.2471396876
 11
180.5271179261
 21
29.1493797091
  0
LINE
  5
63B
100
AcDbEntity
  8
0
100
AcDbLine
 62
7
  6
CONTINUOUS
 10
181.9576859067
 20
29.0923606676
 11
182.1713892439
 21
29.1901206343
  0
LINE
  5
63C
100
AcDbEntity
  8
0
100
AcDbLine
 62
7
  6
CONTINUOUS
 10
74.1646186356
 20
122.8339624638
 11
73.79931195
 21
122.7631265296
  0
LINE
  5
63D
100
AcDbEntity
  8
0
100
AcDbLine
 62
7
  6
CONTINUOUS
 10
73.9704284862
 20
122.3503833544
 11
74.2683772567
 21
122.3932938042
  0
LINE
  5
63E
100
AcDbEntity
  8
BEZUGSACHSEN
100
AcDbLine
 62
7
  6
CONTINUOUS
 10
63.9553775079
 20
127.6828992796
 11
185.9553775079
 21
127.6828992796
  0
LINE
  5
63F
100
AcDbEntity
  8
0
100
AcDbLine
 62
7
  6
CONTINUOUS
 10
169.2659896545
 20
122.3924672945
 11
169.5251146433
 21
122.3387292242
  0
LINE
  5
640
100
AcDbEntity
  8
0
100
AcDbLine
 62
7
  6
CONTINUOUS
 10
180.3847985895
 20
117.7355893135
 11
181.0481991971
 21
117.5838153837
  0
LINE
  5
641
100
AcDbEntity
  8
0
100
AcDbLine
 62
7
  6
CONTINUOUS
 10
181.5784448761
 20
117.8553870318
 11
180.9150444542
 21
118.0071610567
  0
LINE
  5
642
100
AcDbEntity
  8
0
100
AcDbLine
 62
7
  6
CONTINUOUS
 10
181.8918442616
 20
115.4967772815
 11
181.5039678034
 21
115.5940246651
  0
LINE
  5
643
100
AcDbEntity
  8
0
100
AcDbLine
 62
7
  6
CONTINUOUS
 10
166.0101119543
 20
117.3693979395
 11
165.7327248057
 21
117.5001690355
  0
LINE
  5
644
100
AcDbEntity
  8
0
100
AcDbLine
 62
7
  6
CONTINUOUS
 10
180.0743329188
 20
113.2786028118
 11
179.8341809825
 21
113.3948104099
  0
LINE
  5
645
100
AcDbEntity
  8
0
100
AcDbLine
 62
7
  6
CONTINUOUS
 10
165.4574207131
 20
117.1601483168
 11
165.7926839567
 21
116.9825173019
  0
LINE
  5
646
100
AcDbEntity
  8
0
100
AcDbLine
 62
7
  6
CONTINUOUS
 10
163.5906524826
 20
115.8209573193
 11
163.7957515493
 21
115.7062374328
  0
LINE
  5
647
100
AcDbEntity
  8
0
100
AcDbLine
 62
7
  6
CONTINUOUS
 10
163.9533727216
 20
116.1210956139
 11
163.7482736548
 21
116.2358155004
  0
LINE
  5
648
100
AcDbEntity
  8
0
100
AcDbLine
 62
7
  6
CONTINUOUS
 10
163.663269662
 20
118.6128160514
 11
165.4574207131
 21
117.1601483168
  0
LINE
  5
649
100
AcDbEntity
  8
0
100
AcDbLine
 62
7
  6
CONTINUOUS
 10
165.7327248057
 20
117.5001690355
 11
163.9385737546
 21
118.9528367701
  0
LINE
  5
64A
100
AcDbEntity
  8
0
100
AcDbLine
 62
7
  6
CONTINUOUS
 10
164.2033500151
 20
115.8488993148
 11
163.9533727216
 21
116.1210956139
  0
LINE
  5
64B
100
AcDbEntity
  8
0
100
AcDbLine
 62
7
  6
CONTINUOUS
 10
166.833940651
 20
118.8602512617
 11
167.0195599
 21
118.6161400882
  0
LINE
  5
64C
100
AcDbEntity
  8
0
100
AcDbLine
 62
7
  6
CONTINUOUS
 10
163.7957515493
 20
115.7062374328
 11
163.9136937494
 21
115.5343683072
  0
LINE
  5
64D
100
AcDbEntity
  8
0
100
AcDbLine
 62
7
  6
CONTINUOUS
 10
166.681874816
 20
113.1828992796
 11
169.568626162
 21
108.1828992796
  0
LINE
  5
64E
100
AcDbEntity
  8
0
100
AcDbLine
 62
7
  6
CONTINUOUS
 10
167.4924751648
 20
118.6085193188
 11
167.3527396938
 21
118.9093004016
  0
LINE
  5
64F
100
AcDbEntity
  8
0
100
AcDbLine
 62
7
  6
CONTINUOUS
 10
167.1804246583
 20
122.0915528332
 11
168.521675805
 21
118.858745174
  0
LINE
  5
650
100
AcDbEntity
  8
0
100
AcDbLine
 62
7
  6
CONTINUOUS
 10
168.7545532122
 20
119.4391004165
 11
167.7557491459
 21
121.8465104257
  0
LINE
  5
651
100
AcDbEntity
  8
0
100
AcDbLine
 62
7
  6
CONTINUOUS
 10
169.9269259872
 20
121.9410752938
 11
170.3549848527
 21
120.9093281951
  0
LINE
  5
652
100
AcDbEntity
  8
0
100
AcDbLine
 62
7
  6
CONTINUOUS
 10
170.7590858101
 20
121.0769845885
 11
170.3310269446
 21
122.1087316871
  0
LINE
  5
653
100
AcDbEntity
  8
0
100
AcDbLine
 62
7
  6
CONTINUOUS
 10
179.1318923074
 20
114.186850383
 11
179.1783054309
 21
113.8252322969
  0
LINE
  5
654
100
AcDbEntity
  8
0
100
AcDbLine
 62
7
  6
CONTINUOUS
 10
179.5568988542
 20
113.800310497
 11
179.4919208213
 21
114.306573169
  0
LINE
  5
655
100
AcDbEntity
  8
0
100
AcDbLine
 62
7
  6
CONTINUOUS
 10
180.9691646439
 20
114.4961751348
 11
181.0341426769
 21
113.9899124628
  0
LINE
  5
656
100
AcDbEntity
  8
0
100
AcDbLine
 62
7
  6
CONTINUOUS
 10
181.394171139
 20
114.1096352422
 11
181.3477580155
 21
114.4712533283
  0
LINE
  5
657
100
AcDbEntity
  8
0
100
AcDbLine
 62
7
  6
CONTINUOUS
 10
181.9116051463
 20
113.5879292322
 11
181.9580180573
 21
113.2263128014
  0
LINE
  5
658
100
AcDbEntity
  8
0
100
AcDbLine
 62
7
  6
CONTINUOUS
 10
182.2248219682
 20
114.6573368153
 11
182.2805175464
 21
114.2233964362
  0
LINE
  5
659
100
AcDbEntity
  8
0
100
AcDbLine
 62
7
  6
CONTINUOUS
 10
188.2732719986
 20
78.8828992796
 11
188.2732719986
 21
79.8828992796
  0
LINE
  5
65A
100
AcDbEntity
  8
0
100
AcDbLine
 62
7
  6
CONTINUOUS
 10
188.927990865
 20
78.8828992796
 11
188.927990865
 21
79.8828992796
  0
LINE
  5
65B
100
AcDbEntity
  8
0
100
AcDbLine
 62
7
  6
CONTINUOUS
 10
189.8135704956
 20
63.4828992796
 11
189.8135704956
 21
62.4828992796
  0
LINE
  5
65C
100
AcDbEntity
  8
0
100
AcDbLine
 62
7
  6
CONTINUOUS
 10
191.032749743
 20
78.8828992796
 11
191.032749743
 21
79.8828992796
  0
LINE
  5
65D
100
AcDbEntity
  8
0
100
AcDbLine
 62
7
  6
CONTINUOUS
 10
193.1375081192
 20
78.8828992796
 11
193.1375081192
 21
79.8828992796
  0
LINE
  5
65E
100
AcDbEntity
  8
0
100
AcDbLine
 62
7
  6
CONTINUOUS
 10
193.8390947464
 20
78.8828992796
 11
193.8390947464
 21
79.8828992796
  0
LINE
  5
65F
100
AcDbEntity
  8
0
100
AcDbLine
 62
7
  6
CONTINUOUS
 10
193.8795818504
 20
63.4828992796
 11
193.8795818504
 21
62.4828992796
  0
LINE
  5
660
100
AcDbEntity
  8
0
100
AcDbLine
 62
7
  6
CONTINUOUS
 10
193.968190556
 20
63.4828992796
 11
193.968190556
 21
62.4828992796
  0
LINE
  5
661
100
AcDbEntity
  8
0
100
AcDbLine
 62
7
  6
CONTINUOUS
 10
194.0688256634
 20
78.8828992796
 11
194.0688256634
 21
79.8828992796
  0
LINE
  5
662
100
AcDbEntity
  8
0
100
AcDbLine
 62
7
  6
CONTINUOUS
 10
181.0446659028
 20
29.8689072754
 11
180.9954640703
 21
29.6431280989
  0
LINE
  5
663
100
AcDbEntity
  8
0
100
AcDbLine
 62
7
  6
CONTINUOUS
 10
182.2942080989
 20
30.0847993354
 11
182.2450062664
 21
29.8590201589
  0
LINE
  5
664
100
AcDbEntity
  8
0
100
AcDbLine
 62
7
  6
CONTINUOUS
 10
179.3587124431
 20
30.8508609596
 11
179.1780580063
 21
30.4633122093
  0
LINE
  5
665
100
AcDbEntity
  8
0
100
AcDbLine
 62
7
  6
CONTINUOUS
 10
181.1930143057
 20
29.2253217657
 11
181.3736687231
 21
29.6128705139
  0
LINE
  5
666
100
AcDbEntity
  8
0
100
AcDbLine
 62
7
  6
CONTINUOUS
 10
179.5562627044
 20
30.4330546295
 11
179.6794530121
 21
30.667271811
  0
LINE
  5
667
100
AcDbEntity
  8
0
100
AcDbLine
 62
7
  6
CONTINUOUS
 10
180.9954640703
 20
29.6431280989
 11
180.8722737627
 21
29.4089109174
  0
LINE
  5
668
100
AcDbEntity
  8
0
100
AcDbLine
 62
7
  6
CONTINUOUS
 10
175.3421288539
 20
24.1828992796
 11
178.2288801998
 21
29.1828992796
  0
LINE
  5
669
100
AcDbEntity
  8
0
100
AcDbLine
 62
7
  6
CONTINUOUS
 10
179.5895924162
 20
35.5998087929
 11
177.8123149189
 21
33.4943233859
  0
LINE
  5
66A
100
AcDbEntity
  8
0
100
AcDbLine
 62
7
  6
CONTINUOUS
 10
178.1466318478
 20
33.2121205491
 11
180.4042545419
 21
35.88665598
  0
LINE
  5
66B
100
AcDbEntity
  8
0
100
AcDbLine
 62
7
  6
CONTINUOUS
 10
179.6298797269
 20
31.1019541541
 11
179.3587124431
 21
30.8508609596
  0
LINE
  5
66C
100
AcDbEntity
  8
0
100
AcDbLine
 62
7
  6
CONTINUOUS
 10
179.6794530121
 20
30.667271811
 11
179.8848939348
 21
30.8374810516
  0
LINE
  5
66D
100
AcDbEntity
  8
0
100
AcDbLine
 62
7
  6
CONTINUOUS
 10
182.1218159587
 20
29.6248029774
 11
181.9163748987
 21
29.4545954008
  0
LINE
  5
66E
100
AcDbEntity
  8
0
100
AcDbLine
 62
7
  6
CONTINUOUS
 10
180.6424177018
 20
28.7955813345
 11
180.9958355229
 21
28.9826665793
  0
LINE
  5
66F
100
AcDbEntity
  8
0
100
AcDbLine
 62
7
  6
CONTINUOUS
 10
169.8721410906
 20
122.6439518845
 11
169.4885916891
 21
122.8073135961
  0
LINE
  5
670
100
AcDbEntity
  8
0
100
AcDbLine
 62
7
  6
CONTINUOUS
 10
181.7073879553
 20
115.1790445071
 11
181.9475398398
 21
115.0628369024
  0
LINE
  5
671
100
AcDbEntity
  8
0
100
AcDbLine
 62
7
  6
CONTINUOUS
 10
179.5665800123
 20
113.1399198279
 11
179.8898765608
 21
112.9608700308
  0
LINE
  5
672
100
AcDbEntity
  8
0
100
AcDbLine
 62
7
  6
CONTINUOUS
 10
182.2151407842
 20
115.3177274811
 11
181.8918442616
 21
115.4967772815
  0
LINE
  5
673
100
AcDbEntity
  8
0
100
AcDbLine
 62
7
  6
CONTINUOUS
 10
169.5251146433
 20
122.3387292242
 11
169.7454270644
 21
122.1882652021
  0
LINE
  5
674
100
AcDbEntity
  8
0
100
AcDbLine
 62
7
  6
CONTINUOUS
 10
180.5255928144
 20
115.0273629239
 11
180.6918825156
 21
114.9016752219
  0
LINE
  5
675
100
AcDbEntity
  8
0
100
AcDbLine
 62
7
  6
CONTINUOUS
 10
165.0397895999
 20
120.3129189963
 11
166.833940651
 21
118.8602512617
  0
LINE
  5
676
100
AcDbEntity
  8
0
100
AcDbLine
 62
7
  6
CONTINUOUS
 10
167.1092446123
 20
119.2002718182
 11
165.3150935612
 21
120.6529395528
  0
LINE
  5
677
100
AcDbEntity
  8
0
100
AcDbLine
 62
7
  6
CONTINUOUS
 10
175.3831782755
 20
119.5116418612
 11
175.7214398791
 21
119.2341795439
  0
LINE
  5
678
100
AcDbEntity
  8
0
100
AcDbLine
 62
7
  6
CONTINUOUS
 10
176.510716524
 20
118.5867678229
 11
176.9617328557
 21
118.2168173608
  0
LINE
  5
679
100
AcDbEntity
  8
0
100
AcDbLine
 62
7
  6
CONTINUOUS
 10
177.7510095006
 20
117.5694056398
 11
178.0892711041
 21
117.2919433225
  0
LINE
  5
67A
100
AcDbEntity
  8
0
100
AcDbLine
 62
7
  6
CONTINUOUS
 10
170.1209906868
 20
122.4247049216
 11
169.8721410906
 21
122.6439518845
  0
LINE
  5
67B
100
AcDbEntity
  8
0
100
AcDbLine
 62
7
  6
CONTINUOUS
 10
179.8341809825
 20
113.3948104099
 11
179.6586088267
 21
113.5928204048
  0
LINE
  5
67C
100
AcDbEntity
  8
0
100
AcDbLine
 62
7
  6
CONTINUOUS
 10
167.3527396938
 20
118.9093004016
 11
167.1092446123
 21
119.2002718182
  0
LINE
  5
67D
100
AcDbEntity
  8
0
100
AcDbLine
 62
7
  6
CONTINUOUS
 10
179.2985805318
 20
113.4730959643
 11
179.5665800123
 21
113.1399198279
  0
LINE
  5
67E
100
AcDbEntity
  8
0
100
AcDbLine
 62
7
  6
CONTINUOUS
 10
169.7454270644
 20
122.1882652021
 11
169.9269259872
 21
121.9410752938
  0
LINE
  5
67F
100
AcDbEntity
  8
0
100
AcDbLine
 62
7
  6
CONTINUOUS
 10
170.3310269446
 20
122.1087316871
 11
170.1209906868
 21
122.4247049216
  0
LINE
  5
680
100
AcDbEntity
  8
0
100
AcDbLine
 62
7
  6
CONTINUOUS
 10
178.2288801998
 20
113.1828992796
 11
175.3421288539
 21
118.1828992796
  0
LINE
  5
681
100
AcDbEntity
  8
0
100
AcDbLine
 62
7
  6
CONTINUOUS
 10
178.4632511407
 20
116.2599034091
 11
178.6626865935
 21
115.8705041921
  0
LINE
  5
682
100
AcDbEntity
  8
0
100
AcDbLine
 62
7
  6
CONTINUOUS
 10
179.6586088267
 20
113.5928204048
 11
179.5568988542
 21
113.800310497
  0
LINE
  5
683
100
AcDbEntity
  8
0
100
AcDbLine
 62
7
  6
CONTINUOUS
 10
180.8674546714
 20
114.703665227
 11
180.9691646439
 21
114.4961751348
  0
LINE
  5
684
100
AcDbEntity
  8
0
100
AcDbLine
 62
7
  6
CONTINUOUS
 10
179.1783054309
 20
113.8252322969
 11
179.2985805318
 21
113.4730959643
  0
LINE
  5
685
100
AcDbEntity
  8
0
100
AcDbLine
 62
7
  6
CONTINUOUS
 10
181.3477580155
 20
114.4712533283
 11
181.2274829211
 21
114.8233896617
  0
LINE
  5
686
100
AcDbEntity
  8
0
100
AcDbLine
 62
7
  6
CONTINUOUS
 10
182.6034153398
 20
114.6324150088
 11
182.4831402454
 21
114.9845513422
  0
LINE
  5
687
100
AcDbEntity
  8
0
100
AcDbLine
 62
7
  6
CONTINUOUS
 10
182.6405457961
 20
114.343120871
 11
182.6034153398
 21
114.6324150088
  0
LINE
  5
688
100
AcDbEntity
  8
0
100
AcDbLine
 62
7
  6
CONTINUOUS
 10
194.566133191
 20
63.4828992796
 11
194.566133191
 21
62.4828992796
  0
LINE
  5
689
100
AcDbEntity
  8
0
100
AcDbLine
 62
7
  6
CONTINUOUS
 10
194.629808757
 20
78.8828992796
 11
194.629808757
 21
79.8828992796
  0
LINE
  5
68A
100
AcDbEntity
  8
0
100
AcDbLine
 62
7
  6
CONTINUOUS
 10
195.4947177582
 20
78.8828992796
 11
195.4947177582
 21
79.8828992796
  0
LINE
  5
68B
100
AcDbEntity
  8
0
100
AcDbLine
 62
7
  6
CONTINUOUS
 10
196.2310972577
 20
78.8828992796
 11
196.2310972577
 21
79.8828992796
  0
LINE
  5
68C
100
AcDbEntity
  8
0
100
AcDbLine
 62
7
  6
CONTINUOUS
 10
197.3591005129
 20
78.8828992796
 11
197.3591005129
 21
79.8828992796
  0
LINE
  5
68D
100
AcDbEntity
  8
0
100
AcDbLine
 62
7
  6
CONTINUOUS
 10
198.3585748721
 20
78.8828992796
 11
198.3585748721
 21
79.8828992796
  0
LINE
  5
68E
100
AcDbEntity
  8
0
100
AcDbLine
 62
7
  6
CONTINUOUS
 10
199.0132934875
 20
78.8828992796
 11
199.0132934875
 21
79.8828992796
  0
LINE
  5
68F
100
AcDbEntity
  8
0
100
AcDbLine
 62
7
  6
CONTINUOUS
 10
201.1180523655
 20
78.8828992796
 11
201.1180523655
 21
79.8828992796
  0
LINE
  5
690
100
AcDbEntity
  8
0
100
AcDbLine
 62
7
  6
CONTINUOUS
 10
182.4425565017
 20
29.4412138257
 11
182.62321073
 21
29.828764232
  0
LINE
  5
691
100
AcDbEntity
  8
0
100
AcDbLine
 62
7
  6
CONTINUOUS
 10
182.2450062664
 20
29.8590201589
 11
182.1218159587
 21
29.6248029774
  0
LINE
  5
692
100
AcDbEntity
  8
0
100
AcDbLine
 62
7
  6
CONTINUOUS
 10
179.3835807382
 20
17.1828992796
 11
186.3117839685
 21
29.1828992796
  0
LINE
  5
693
100
AcDbEntity
  8
0
100
AcDbLine
 62
7
  6
CONTINUOUS
 10
180.8722737627
 20
29.4089109174
 11
180.7408213669
 21
29.2471396876
  0
LINE
  5
694
100
AcDbEntity
  8
0
100
AcDbLine
 62
7
  6
CONTINUOUS
 10
180.9958355229
 20
28.9826665793
 11
181.1930143057
 21
29.2253217657
  0
LINE
  5
695
100
AcDbEntity
  8
0
100
AcDbLine
 62
7
  6
CONTINUOUS
 10
182.1713892439
 20
29.1901206343
 11
182.4425565017
 21
29.4412138257
  0
LINE
  5
696
100
AcDbEntity
  8
0
100
AcDbLine
 62
7
  6
CONTINUOUS
 10
180.3089696429
 20
119.9980361511
 11
179.8015772376
 21
120.4142296271
  0
LINE
  5
697
100
AcDbEntity
  8
0
100
AcDbLine
 62
7
  6
CONTINUOUS
 10
178.1102692197
 20
121.8015412138
 11
177.6028768143
 21
122.2177346898
  0
LINE
  5
698
100
AcDbEntity
  8
0
100
AcDbLine
 62
7
  6
CONTINUOUS
 10
180.6918825156
 20
114.9016752219
 11
180.8674546714
 21
114.703665227
  0
LINE
  5
699
100
AcDbEntity
  8
0
100
AcDbLine
 62
7
  6
CONTINUOUS
 10
181.2274829211
 20
114.8233896617
 11
180.8763386094
 21
115.2194096516
  0
LINE
  5
69A
100
AcDbEntity
  8
0
100
AcDbLine
 62
7
  6
CONTINUOUS
 10
181.9475398398
 20
115.0628369024
 11
182.1231119957
 21
114.8648269075
  0
LINE
  5
69B
100
AcDbEntity
  8
0
100
AcDbLine
 62
7
  6
CONTINUOUS
 10
182.4831402454
 20
114.9845513422
 11
182.2151407842
 21
115.3177274811
  0
LINE
  5
69C
100
AcDbEntity
  8
0
100
AcDbLine
 62
7
  6
CONTINUOUS
 10
186.3117839685
 20
113.1828992796
 11
179.3835807382
 21
125.1828992796
  0
LINE
  5
69D
100
AcDbEntity
  8
0
100
AcDbLine
 62
7
  6
CONTINUOUS
 10
181.777880329
 20
117.4659878149
 11
181.5784448761
 21
117.8553870318
  0
LINE
  5
69E
100
AcDbEntity
  8
0
100
AcDbLine
 62
7
  6
CONTINUOUS
 10
182.1231119957
 20
114.8648269075
 11
182.2248219682
 21
114.6573368153
  0
LINE
  5
69F
100
AcDbEntity
  8
RUNDUNGEN
100
AcDbLine
 62
7
  6
CONTINUOUS
 10
210.9553775079
 20
102.6828992796
 11
210.9553775079
 21
39.6828992796
  0
ARC
  5
6A0
100
AcDbEntity
  8
RUNDUNGEN
100
AcDbCircle
 62
7
  6
CONTINUOUS
 10
64.9553775079
 20
199.7851124642
 40
26.0
100
AcDbArc
 50
157.5408728241
 51
180.0
  0
ARC
  5
6A1
100
AcDbEntity
  8
BEZUGSACHSEN
100
AcDbCircle
 62
7
  6
CONTINUOUS
 10
59.8386034876
 20
212.2931177421
 40
15.0
100
AcDbArc
 50
270.0
 51
284.5027943323
  0
ARC
  5
6A2
100
AcDbEntity
  8
BEZUGSACHSEN
100
AcDbCircle
 62
7
  6
CONTINUOUS
 10
59.8386034876
 20
212.2931177421
 40
15.0
100
AcDbArc
 50
290.9849245878
 51
337.5431029795
  0
ARC
  5
6A3
100
AcDbEntity
  8
RUNDUNGEN
100
AcDbCircle
 62
7
  6
CONTINUOUS
 10
68.4397248639
 20
216.0854056396
 40
8.5
100
AcDbArc
 50
337.5394511374
 51
22.5136286616
  0
ARC
  5
6A4
100
AcDbEntity
  8
RUNDUNGEN
100
AcDbCircle
 62
7
  6
CONTINUOUS
 10
78.4068836664
 20
227.2956912923
 40
5.0
100
AcDbArc
 50
157.5408699451
 51
202.5180176965
  0
ARC
  5
6A5
100
AcDbEntity
  8
RUNDUNGEN
100
AcDbCircle
 62
7
  6
CONTINUOUS
 10
92.0257100972
 20
260.2409007525
 40
5.0
100
AcDbArc
 50
112.5136242747
 51
157.5408728241
  0
ARC
  5
6A6
100
AcDbEntity
  8
RUNDUNGEN
100
AcDbCircle
 62
7
  6
CONTINUOUS
 10
124.9553775079
 20
206.3531177421
 40
78.94
100
AcDbArc
 50
22.4591271759
 51
157.5408728241
  0
ARC
  5
6A7
100
AcDbEntity
  8
RUNDUNGEN
100
AcDbCircle
 62
7
  6
CONTINUOUS
 10
124.9553775079
 20
227.2931177421
 40
30.0
100
AcDbArc
 50
323.0047340437
 51
5.3672657515
  0
CIRCLE
  5
6A8
100
AcDbEntity
  8
BEZUGSACHSEN
100
AcDbCircle
 62
7
  6
CONTINUOUS
 10
124.9553775079
 20
227.2931177421
 40
30.0
  0
ARC
  5
6A9
100
AcDbEntity
  8
RUNDUNGEN
100
AcDbCircle
 62
7
  6
CONTINUOUS
 10
184.9553775079
 20
199.7851124642
 40
26.0
100
AcDbArc
 50
0.0
 51
22.4591271759
  0
ARC
  5
6AA
100
AcDbEntity
  8
BEZUGSACHSEN
100
AcDbCircle
 62
7
  6
CONTINUOUS
 10
190.0721515283
 20
212.2931177421
 40
15.0
100
AcDbArc
 50
255.497045375
 51
270.0
  0
ARC
  5
6AB
100
AcDbEntity
  8
BEZUGSACHSEN
100
AcDbCircle
 62
7
  6
CONTINUOUS
 10
190.0721515283
 20
212.2931177421
 40
15.0
100
AcDbArc
 50
202.456856875
 51
249.0152009472
  0
ARC
  5
6AC
100
AcDbEntity
  8
RUNDUNGEN
100
AcDbCircle
 62
7
  6
CONTINUOUS
 10
181.4710301519
 20
216.0854056396
 40
8.5
100
AcDbArc
 50
157.486371343
 51
202.4605471511
  0
ARC
  5
6AD
100
AcDbEntity
  8
RUNDUNGEN
100
AcDbCircle
 62
7
  6
CONTINUOUS
 10
171.5038713494
 20
227.2956912923
 40
5.0
100
AcDbArc
 50
337.4819826847
 51
22.4591300546
  0
ARC
  5
6AE
100
AcDbEntity
  8
RUNDUNGEN
100
AcDbCircle
 62
7
  6
CONTINUOUS
 10
157.8850449187
 20
260.2409007525
 40
5.0
100
AcDbArc
 50
22.4591271134
 51
67.4863758059
  0
ARC
  5
6AF
100
AcDbEntity
  8
RUNDUNGEN
100
AcDbCircle
 62
7
  6
CONTINUOUS
 10
124.9553775079
 20
273.8899902631
 40
5.0
100
AcDbArc
 50
67.4863757253
 51
112.5136242747
  0
ARC
  5
6B0
100
AcDbEntity
  8
BEZUGSACHSEN
100
AcDbCircle
 62
7
  6
CONTINUOUS
 10
261.2160622169
 20
230.8476192405
 40
26.0
100
AcDbArc
 50
340.0004321269
 51
0.0000241236
  0
ARC
  5
6B1
100
AcDbEntity
  8
BEZUGSACHSEN
100
AcDbCircle
 62
7
  6
CONTINUOUS
 10
266.1687314571
 20
212.2931177421
 40
15.0
100
AcDbArc
 50
287.6556388009
 51
339.9999959264
  0
ARC
  5
6B2
100
AcDbEntity
  8
RUNDUNGEN
100
AcDbCircle
 62
7
  6
CONTINUOUS
 10
297.5160622169
 20
280.7931177421
 40
4.5
100
AcDbArc
 50
90.0
 51
180.0
  0
ARC
  5
6B3
100
AcDbEntity
  8
BEZUGSACHSEN
100
AcDbCircle
 62
7
  6
CONTINUOUS
 10
291.2160622169
 20
274.8899902631
 40
4.0
100
AcDbArc
 50
90.0
 51
180.0
  0
ARC
  5
6B4
100
AcDbEntity
  8
RUNDUNGEN
100
AcDbCircle
 62
7
  6
CONTINUOUS
 10
340.2160622169
 20
230.8476192405
 40
26.0
100
AcDbArc
 50
179.9999758764
 51
199.9995678731
  0
ARC
  5
6B5
100
AcDbEntity
  8
BEZUGSACHSEN
100
AcDbCircle
 62
7
  6
CONTINUOUS
 10
340.2160622169
 20
230.8476192405
 40
26.0
100
AcDbArc
 50
189.9164211479
 51
192.9276968138
  0
ARC
  5
6B6
100
AcDbEntity
  8
RUNDUNGEN
100
AcDbCircle
 62
7
  6
CONTINUOUS
 10
335.2633929767
 20
212.2931177421
 40
15.0
100
AcDbArc
 50
208.9052849269
 51
211.4330027507
  0
ARC
  5
6B7
100
AcDbEntity
  8
RUNDUNGEN
100
AcDbCircle
 62
7
  6
CONTINUOUS
 10
335.2633929767
 20
212.2931177421
 40
15.0
100
AcDbArc
 50
200.0000040736
 51
202.4591271759
  0
ARC
  5
6B8
100
AcDbEntity
  8
BEZUGSACHSEN
100
AcDbCircle
 62
7
  6
CONTINUOUS
 10
335.2633929767
 20
212.2931177421
 40
15.0
100
AcDbArc
 50
202.4591271759
 51
252.3486813924
  0
ARC
  5
6B9
100
AcDbEntity
  8
RUNDUNGEN
100
AcDbCircle
 62
7
  6
CONTINUOUS
 10
303.9160622169
 20
280.7931177421
 40
4.5
100
AcDbArc
 50
0.0
 51
90.0
  0
ARC
  5
6BA
100
AcDbEntity
  8
RUNDUNGEN
100
AcDbCircle
 62
7
  6
CONTINUOUS
 10
310.2160622169
 20
274.8899902631
 40
4.0
100
AcDbArc
 50
0.0
 51
90.0
  0
ARC
  5
6BB
100
AcDbEntity
  8
BEZUGSACHSEN
100
AcDbCircle
 62
7
  6
CONTINUOUS
 10
63.9553775079
 20
39.6828992796
 40
25.0
100
AcDbArc
 50
180.0
 51
270.0
  0
ARC
  5
6BC
100
AcDbEntity
  8
BEZUGSACHSEN
100
AcDbCircle
 62
7
  6
CONTINUOUS
 10
185.9553775079
 20
39.6828992796
 40
25.0
100
AcDbArc
 50
270.0
 51
360.0
  0
ARC
  5
6BD
100
AcDbEntity
  8
BEZUGSACHSEN
100
AcDbCircle
 62
7
  6
CONTINUOUS
 10
63.9553775079
 20
102.6828992796
 40
25.0
100
AcDbArc
 50
90.0
 51
180.0
  0
ARC
  5
6BE
100
AcDbEntity
  8
BEZUGSACHSEN
100
AcDbCircle
 62
7
  6
CONTINUOUS
 10
185.9553775079
 20
102.6828992796
 40
25.0
100
AcDbArc
 50
0.0
 51
90.0
  0
ARC
  5
6BF
100
AcDbEntity
  8
BEZUGSACHSEN
100
AcDbCircle
 62
7
  6
CONTINUOUS
 10
77.4553775079
 20
113.1828992796
 40
20.0
100
AcDbArc
 50
133.5375159518
 51
46.4688478326
  0
ARC
  5
6C0
100
AcDbEntity
  8
BEZUGSACHSEN
100
AcDbCircle
 62
7
  6
CONTINUOUS
 10
172.4553775079
 20
113.1828992796
 40
20.0
100
AcDbArc
 50
133.5311521674
 51
46.4624840482
  0
ARC
  5
6C1
100
AcDbEntity
  8
BEZUGSACHSEN
100
AcDbCircle
 62
7
  6
CONTINUOUS
 10
172.4553775079
 20
29.1828992796
 40
20.0
100
AcDbArc
 50
313.5375159518
 51
226.4688478326
  0
ARC
  5
6C2
100
AcDbEntity
  8
BEZUGSACHSEN
100
AcDbCircle
 62
7
  6
CONTINUOUS
 10
77.4553775079
 20
29.1828992796
 40
20.0
100
AcDbArc
 50
313.5311521674
 51
226.4624840482
  0
ARC
  5
6C3
100
AcDbEntity
  8
RUNDUNGEN
100
AcDbCircle
 62
7
  6
CONTINUOUS
 10
43.4553775079
 20
74.3828992796
 40
4.5
100
AcDbArc
 50
90.0
 51
180.0
  0
ARC
  5
6C4
100
AcDbEntity
  8
RUNDUNGEN
100
AcDbCircle
 62
7
  6
CONTINUOUS
 10
206.4553775079
 20
67.9828992796
 40
4.5
100
AcDbArc
 50
270.0
 51
360.0
  0
ARC
  5
6C5
100
AcDbEntity
  8
RUNDUNGEN
100
AcDbCircle
 62
7
  6
CONTINUOUS
 10
206.4553775079
 20
74.3828992796
 40
4.5
100
AcDbArc
 50
0.0
 51
90.0
  0
ARC
  5
6C6
100
AcDbEntity
  8
RUNDUNGEN
100
AcDbCircle
 62
7
  6
CONTINUOUS
 10
43.4553775079
 20
67.9828992796
 40
4.5
100
AcDbArc
 50
180.0
 51
270.0
  0
SPLINE
  5
6C7
100
AcDbEntity
  8
BEZUGSACHSEN
100
AcDbSpline
 62
7
  6
CONTINUOUS
 70
0
 71
3
 72
19
 73
15
 74
0
 42
0.0000001
 43
0.0000001
 44
0.0000000001
 40
0.0
 40
0.0
 40
0.0
 40
0.0
 40
0.0317246972
 40
0.0700194894
 40
0.1146264434
 40
0.1649151405
 40
0.2796105927
 40
0.4087570101
 40
0.5482067905
 40
0.6949306049
 40
0.7703094879
 40
0.8465780136
 40
0.9233166624
 40
1.0
 40
1.0
 40
1.0
 40
1.0
 10
153.8958052823
 20
197.2931177421
 30
0.0
 10
154.126015319
 20
197.2931177421
 30
0.0
 10
154.6335123158
 20
197.3624729591
 30
0.0
 10
155.4339247246
 20
197.5922808733
 30
0.0
 10
156.3370685539
 20
197.9390596883
 30
0.0
 10
157.7253026055
 20
198.5611996732
 30
0.0
 10
159.6275518324
 20
199.5307431347
 30
0.0
 10
162.0897023954
 20
200.8241588031
 30
0.0
 10
164.7919542988
 20
202.1593582758
 30
0.0
 10
167.228590308
 20
203.148926751
 30
0.0
 10
169.3157190827
 20
203.7350944097
 30
0.0
 10
170.9516456409
 20
204.0214635474
 30
0.0
 10
172.6205269417
 20
204.1083005026
 30
0.0
 10
173.7339312464
 20
204.0223047369
 30
0.0
 10
174.2852201654
 20
203.946677674
 30
0.0
  0
SPLINE
  5
6C8
100
AcDbEntity
  8
BEZUGSACHSEN
100
AcDbSpline
 62
7
  6
CONTINUOUS
 70
0
 71
3
 72
19
 73
15
 74
0
 42
0.0000001
 43
0.0000001
 44
0.0000000001
 40
0.0
 40
0.0
 40
0.0
 40
0.0
 40
0.0766869851
 40
0.1534293771
 40
0.2297041877
 40
0.3050886139
 40
0.4518249593
 40
0.5912859309
 40
0.7204371987
 40
0.8351256037
 40
0.8854061339
 40
0.9300037899
 40
0.9682855012
 40
1.0
 40
1.0
 40
1.0
 40
1.0
 10
75.6255345043
 20
203.9466770598
 30
0.0
 10
76.1768498147
 20
204.0223075031
 30
0.0
 10
77.2903070387
 20
204.1083118053
 30
0.0
 10
78.9592903153
 20
204.0214786996
 30
0.0
 10
80.5953207305
 20
203.7350352002
 30
0.0
 10
82.6826034747
 20
203.1487637433
 30
0.0
 10
85.1194234053
 20
202.1590823666
 30
0.0
 10
87.8218426834
 20
200.8237519454
 30
0.0
 10
90.2840469523
 20
199.5302966652
 30
0.0
 10
92.1862455296
 20
198.5608187012
 30
0.0
 10
93.5743334195
 20
197.9387837198
 30
0.0
 10
94.4772908328
 20
197.5921407349
 30
0.0
 10
95.2774816263
 20
197.3624115187
 30
0.0
 10
95.7848136444
 20
197.2931177421
 30
0.0
 10
96.0149497335
 20
197.2931177421
 30
0.0
  0
SPLINE
  5
6C9
100
AcDbEntity
  8
BEZUGSACHSEN
100
AcDbSpline
 62
7
  6
CONTINUOUS
 70
0
 71
3
 72
13
 73
9
 74
0
 42
0.0000001
 43
0.0000001
 44
0.0000000001
 40
0.0
 40
0.0
 40
0.0
 40
0.0
 40
0.2404586971
 40
0.4888522078
 40
0.6152139322
 40
0.7426848226
 40
0.8710443191
 40
1.0
 40
1.0
 40
1.0
 40
1.0
 10
67.770023901
 20
199.5615396204
 30
0.0
 10
68.3851536857
 20
199.94473699
 30
0.0
 10
69.6202710967
 20
200.748268993
 30
0.0
 10
71.1673464675
 20
201.7705524553
 30
0.0
 10
72.4510737217
 20
202.5725844978
 30
0.0
 10
73.4501470425
 20
203.1477504671
 30
0.0
 10
74.4928308986
 20
203.65495476
 30
0.0
 10
75.2406814781
 20
203.8938689949
 30
0.0
 10
75.6257377007
 20
203.9466917127
 30
0.0
  0
SPLINE
  5
6CA
100
AcDbEntity
  8
BEZUGSACHSEN
100
AcDbSpline
 62
7
  6
CONTINUOUS
 70
0
 71
3
 72
13
 73
9
 74
0
 42
0.0000001
 43
0.0000001
 44
0.0000000001
 40
0.0
 40
0.0
 40
0.0
 40
0.0
 40
0.1289561568
 40
0.2573152637
 40
0.3847860972
 40
0.5111478634
 40
0.7595413899
 40
1.0
 40
1.0
 40
1.0
 40
1.0
 10
174.2850228829
 20
203.9466915601
 30
0.0
 10
174.6700802528
 20
203.8938685172
 30
0.0
 10
175.4179302378
 20
203.6549526421
 30
0.0
 10
176.4606122537
 20
203.147746404
 30
0.0
 10
177.459684378
 20
202.5725823394
 30
0.0
 10
178.7434107819
 20
201.7705507696
 30
0.0
 10
180.2904853947
 20
200.7482685383
 30
0.0
 10
181.5256015892
 20
199.9447368162
 30
0.0
 10
182.1407307445
 20
199.5615398263
 30
0.0
  0
SPLINE
  5
6CB
100
AcDbEntity
  8
BEZUGSACHSEN
100
AcDbSpline
 62
7
  6
CONTINUOUS
 70
0
 71
3
 72
12
 73
8
 74
0
 42
0.0000001
 43
0.0000001
 44
0.0000000001
 40
0.0
 40
0.0
 40
0.0
 40
0.0
 40
0.285372382
 40
0.5434982195
 40
0.777102484
 40
0.8887443628
 40
1.0
 40
1.0
 40
1.0
 40
1.0
 10
332.2157320698
 20
197.3049035054
 30
0.0
 10
331.4967210806
 20
197.3225094187
 30
0.0
 10
330.1269661754
 20
197.3965787556
 30
0.0
 10
328.1907647051
 20
197.7336693638
 30
0.0
 10
326.7602284767
 20
198.3026128756
 30
0.0
 10
325.8111733053
 20
198.9607094393
 30
0.0
 10
325.4040029119
 20
199.3518356896
 30
0.0
 10
325.2177608341
 20
199.5614478028
 30
0.0
  0
SPLINE
  5
6CC
100
AcDbEntity
  8
BEZUGSACHSEN
100
AcDbSpline
 62
7
  6
CONTINUOUS
 70
0
 71
3
 72
18
 73
14
 74
0
 42
0.0000001
 43
0.0000001
 44
0.0000000001
 40
0.0
 40
0.0
 40
0.0
 40
0.0
 40
0.2931832658
 40
0.4351848231
 40
0.572900193
 40
0.7045192642
 40
0.7670713617
 40
0.8265672296
 40
0.8819220242
 40
0.9314292652
 40
0.9723177787
 40
0.9882084916
 40
1.0
 40
1.0
 40
1.0
 40
1.0
 10
325.2176644186
 20
199.5615396204
 30
0.0
 10
324.8906574194
 20
199.9295801233
 30
0.0
 10
324.4486654715
 20
200.5160082603
 30
0.0
 10
323.9500565755
 20
201.3391181853
 30
0.0
 10
323.6282695408
 20
201.9508173149
 30
0.0
 10
323.3956362968
 20
202.4575216285
 30
0.0
 10
323.2315409276
 20
202.8506465184
 30
0.0
 10
323.1222449095
 20
203.1277910273
 30
0.0
 10
323.0249851357
 20
203.3861056278
 30
0.0
 10
322.9403165257
 20
203.6156989651
 30
0.0
 10
322.8775667589
 20
203.7829035994
 30
0.0
 10
322.8321439058
 20
203.8886420857
 30
0.0
 10
322.8109454067
 20
203.9302392356
 30
0.0
 10
322.7999275975
 20
203.9466917127
 30
0.0
  0
SPLINE
  5
6CD
100
AcDbEntity
  8
BEZUGSACHSEN
100
AcDbSpline
 62
7
  6
CONTINUOUS
 70
0
 71
3
 72
12
 73
8
 74
0
 42
0.0000001
 43
0.0000001
 44
0.0000000001
 40
0.0
 40
0.0
 40
0.0
 40
0.0
 40
0.1112827627
 40
0.2229481289
 40
0.4565708958
 40
0.7146740826
 40
1.0
 40
1.0
 40
1.0
 40
1.0
 10
276.2143635997
 20
199.5614478028
 30
0.0
 10
276.0283526599
 20
199.352095832
 30
0.0
 10
275.6217374849
 20
198.9614268726
 30
0.0
 10
274.6741542065
 20
198.3039296133
 30
0.0
 10
273.2460138836
 20
197.7350756884
 30
0.0
 10
271.3129779121
 20
197.3974844168
 30
0.0
 10
269.9454535651
 20
197.3229895982
 30
0.0
 10
269.2276325747
 20
197.3051806241
 30
0.0
  0
SPLINE
  5
6CE
100
AcDbEntity
  8
BEZUGSACHSEN
100
AcDbSpline
 62
7
  6
CONTINUOUS
 70
0
 71
3
 72
18
 73
14
 74
0
 42
0.0000001
 43
0.0000001
 44
0.0000000001
 40
0.0
 40
0.0
 40
0.0
 40
0.0
 40
0.0117913679
 40
0.0276822441
 40
0.0685711134
 40
0.1180782592
 40
0.1734329134
 40
0.2329286629
 40
0.2954807313
 40
0.427099866
 40
0.5648152638
 40
0.7068167957
 40
1.0
 40
1.0
 40
1.0
 40
1.0
 10
278.6321966051
 20
203.9466911851
 30
0.0
 10
278.6211789283
 20
203.9302389057
 30
0.0
 10
278.5999797321
 20
203.8886421
 30
0.0
 10
278.5545572137
 20
203.7829027298
 30
0.0
 10
278.4918076238
 20
203.6156973386
 30
0.0
 10
278.4071388051
 20
203.3861038689
 30
0.0
 10
278.3098792277
 20
203.1277898651
 30
0.0
 10
278.2005831993
 20
202.8506459094
 30
0.0
 10
278.0364878665
 20
202.4575212057
 30
0.0
 10
277.8038546942
 20
201.950816803
 30
0.0
 10
277.4820675535
 20
201.339117679
 30
0.0
 10
276.9834587378
 20
200.5160079348
 30
0.0
 10
276.541466899
 20
199.9295799907
 30
0.0
 10
276.2144600002
 20
199.5615396021
 30
0.0
  0
ENDSEC
  0
SECTION
  2
OBJECTS
  0
DICTIONARY
  5
C
100
AcDbDictionary
280
0
281
1
  3
ACAD_GROUP
350
D
  3
ACAD_MLINESTYLE
350
17
  3
ACAD_LAYOUT
350
1A
  3
ACAD_PLOTSETTINGS
350
19
  3
ACAD_PLOTSTYLENAME
350
E
  0
DICTIONARY
  5
D
102
{ACAD_REACTORS
330
C
102
}
100
AcDbDictionary
280
0
281
1
  0
ACDBDICTIONARYWDFLT
  5
E
102
{ACAD_REACTORS
330
C
102
}
100
AcDbDictionary
281
1
  3
Normal
350
F
100
AcDbDictionaryWithDefault
340
F
  0
DICTIONARY
  5
17
102
{ACAD_REACTORS
330
C
102
}
100
AcDbDictionary
280
0
281
1
  3
Standard
350
18
  0
DICTIONARY
  5
19
102
{ACAD_REACTORS
330
C
102
}
100
AcDbDictionary
281
1
  0
DICTIONARY
  5
1A
102
{ACAD_REACTORS
330
C
102
}
100
AcDbDictionary
281
1
  3
Model
350
6CF
  3
Layout1
350
6D0
  0
ACDBPLACEHOLDER
  5
F
102
{ACAD_REACTORS
330
E
102
}
  0
MLINESTYLE
  5
18
102
{ACAD_REACTORS
330
17
102
}
100
AcDbMlineStyle
  2
STANDARD
 70
0
  3

 62
256
 51
90.0
 52
90.0
 71
2
 49
0.5
 62
256
  6
BYLAYER
 49
-0.5
 62
256
  6
BYLAYER
  0
LAYOUT
  5
6CF
102
{ACAD_REACTORS
330
1A
102
}
100
AcDbPlotSettings
  1

  2
none_device
  4
ISO_A3_(420.00_x_297.00_MM)
  6

 40
0.0
 41
0.0
 42
0.0
 43
0.0
 44
420.0
 45
297.0
 46
0.0
 47
0.0
 48
0.0
 49
0.0
140
0.0
141
0.0
142
1.0
143
1.0
 70
1024
 72
1
 73
0
 74
0
  7

 75
0
147
1.0
148
0.0
149
0.0
100
AcDbLayout
  1
Model
 70
0
 71
0
 10
0.0
 20
0.0
 11
420.0
 21
297.0
 12
0.0
 22
0.0
 32
0.0
 14
0.0
 24
0.0
 34
0.0
 15
0.0
 25
0.0
 35
0.0
146
0.0
 13
0.0
 23
0.0
 33
0.0
 16
1.0
 26
0.0
 36
0.0
 17
0.0
 27
1.0
 37
0.0
 76
0
330
20B
345
0
346
0
  0
LAYOUT
  5
6D0
102
{ACAD_REACTORS
330
1A
102
}
100
AcDbPlotSettings
  1

  2
none_device
  4
ISO_A3_(420.00_x_297.00_MM)
  6

 40
0.0
 41
0.0
 42
0.0
 43
0.0
 44
420.0
 45
297.0
 46
0.0
 47
0.0
 48
0.0
 49
0.0
140
0.0
141
0.0
142
1.0
143
1.0
 70
0
 72
1
 73
0
 74
0
  7

 75
0
147
1.0
148
0.0
149
0.0
100
AcDbLayout
  1
Layout1
 70
0
 71
1
 10
0.0
 20
0.0
 11
420.0
 21
297.0
 12
0.0
 22
0.0
 32
0.0
 14
0.0
 24
0.0
 34
0.0
 15
0.0
 25
0.0
 35
0.0
146
0.0
 13
0.0
 23
0.0
 33
0.0
 16
1.0
 26
0.0
 36
0.0
 17
0.0
 27
1.0
 37
0.0
 76
0
330
20C
345
0
346
0
  0
ENDSEC
  0
EOF
