999
DXF file: 001-m35156-p-2.dxf
999
Pro/ENGINEER 2011490 by Parametric Technology Corporation
  0
SECTION
  2
HEADER
  9
$ACADVER
  1
AC1015
  9
$DWGCODEPAGE
  3
ANSI_1252
  9
$EXTMAX
 10
420.0
 20
297.0
 30
0.0
  9
$EXTMIN
 10
0.0
 20
0.0
 30
0.0
  9
$LIMMIN
 10
0.0
 20
0.0
  9
$LIMMAX
 10
420.0
 20
297.0
  9
$VIEWCTR
 10
210.0
 20
148.5
  9
$VIEWSIZE
 40
297.0
  9
$CLAYER
  8
0
  9
$LTSCALE
 40
23.1
  9
$CELTYPE
  6
BYLAYER
  9
$DIMSCALE
 40
1.0
  9
$DIMASZ
 40
3.5
  9
$DIMEXO
 40
2.625
  9
$DIMDLI
 40
15.96
  9
$DIMEXE
 40
7.56
  9
$DIMCEN
 40
3.78
  9
$DIMLFAC
 40
1.0
  9
$DIMBLK
  1
_FILLED
  9
$DIMTXT
 40
3.5
  9
$DIMTOL
 70
1
  9
$DIMLIM
 70
0
  9
$DIMTFAC
 40
1.0
  9
$DIMTP
 40
0.005
  9
$DIMTM
 40
0.005
  9
$PDMODE
 70
3
  9
$PDSIZE
 40
0.3125
  9
$HANDSEED
  5
695
  9
$TILEMODE
 70
1
  9
$MEASUREMENT
 70
1
  9
$INSUNITS
 70
4
  0
ENDSEC
  0
SECTION
  2
CLASSES
  0
CLASS
  1
ACDBDICTIONARYWDFLT
  2
AcDbDictionaryWithDefault
  3
AutoCAD 2000
 90
0
280
0
281
0
  0
CLASS
  1
ACDBPLACEHOLDER
  2
AcDbPlaceHolder
  3
AutoCAD 2000
 90
0
280
0
281
0
  0
CLASS
  1
LAYOUT
  2
AcDbLayout
  3
AutoCAD 2000
 90
0
280
0
281
0
  0
ENDSEC
  0
SECTION
  2
TABLES
  0
TABLE
  2
VPORT
  5
8
100
AcDbSymbolTable
 70
2
  0
VPORT
  5
1F4
100
AcDbSymbolTableRecord
100
AcDbViewportTableRecord
  2
*ACTIVE
 70
0
 10
0.0
 20
0.0
 11
1.0
 21
1.0
 12
210.0
 22
148.5
 13
0.0
 23
0.0
 14
1.0
 24
1.0
 15
0.0
 25
0.0
 16
0.0
 26
0.0
 36
1.0
 17
0.0
 27
0.0
 37
0.0
 40
297.0
 41
1.4141414141
 42
50.0
 43
0.0
 44
0.0
 50
0.0
 51
0.0
 71
0
 72
100
 73
1
 74
1
 75
0
 76
0
 77
0
 78
0
  0
ENDTAB
  0
TABLE
  2
LTYPE
  5
5
100
AcDbSymbolTable
 70
6
  0
LTYPE
  5
14
100
AcDbSymbolTableRecord
100
AcDbLinetypeTableRecord
  2
BYBLOCK
 70
0
  3

 72
65
 73
0
 40
0.0
  0
LTYPE
  5
15
100
AcDbSymbolTableRecord
100
AcDbLinetypeTableRecord
  2
BYLAYER
 70
0
  3

 72
65
 73
0
 40
0.0
  0
LTYPE
  5
16
100
AcDbSymbolTableRecord
100
AcDbLinetypeTableRecord
  2
CONTINUOUS
 70
64
  3
Solid line
 72
65
 73
0
 40
0.0
  0
LTYPE
  5
1F5
100
AcDbSymbolTableRecord
100
AcDbLinetypeTableRecord
  2
CENTER
 70
64
  3
____ _ ____ _ ____ _ ____ _ ____ _ ____ _ ____
 72
65
 73
4
 40
0.6
 49
0.375
 74
0
 49
-0.075
 74
0
 49
0.075
 74
0
 49
-0.075
 74
0
  0
LTYPE
  5
1F6
100
AcDbSymbolTableRecord
100
AcDbLinetypeTableRecord
  2
HIDDEN
 70
64
  3
- - - - - - - - - - - - - - - - - - - -
 72
65
 73
2
 40
0.2
 49
0.1
 74
0
 49
-0.1
 74
0
  0
LTYPE
  5
1F7
100
AcDbSymbolTableRecord
100
AcDbLinetypeTableRecord
  2
PHANTOM
 70
64
  3
_____ _ _ _____ _ _ _____ _ _ _____
 72
65
 73
6
 40
0.8
 49
0.45
 74
0
 49
-0.05
 74
0
 49
0.1
 74
0
 49
-0.05
 74
0
 49
0.1
 74
0
 49
-0.05
 74
0
  0
LTYPE
  5
1F8
100
AcDbSymbolTableRecord
100
AcDbLinetypeTableRecord
  2
DOT
 70
64
  3
. . . . . . . . . . . . . . . . . . . .
 72
65
 73
2
 40
0.2
 49
0.1
 74
0
 49
-0.1
 74
0
  0
LTYPE
  5
1F9
100
AcDbSymbolTableRecord
100
AcDbLinetypeTableRecord
  2
DASHED
 70
64
  3
- - - - - - - - - - - - - - - - - - - -
 72
65
 73
2
 40
0.2
 49
0.1
 74
0
 49
-0.1
 74
0
  0
ENDTAB
  0
TABLE
  2
LAYER
  5
2
100
AcDbSymbolTable
 70
36
  0
LAYER
  5
10
100
AcDbSymbolTableRecord
100
AcDbLayerTableRecord
  2
0
 70
0
 62
7
  6
CONTINUOUS
370
-3
390
F
  0
LAYER
  5
1FA
100
AcDbSymbolTableRecord
100
AcDbLayerTableRecord
  2
DEFAULT_1
 70
0
 62
7
  6
CENTER
370
-3
390
F
  0
LAYER
  5
1FB
100
AcDbSymbolTableRecord
100
AcDbLayerTableRecord
  2
DEFAULT_2
 70
0
 62
8
  6
HIDDEN
370
-3
390
F
  0
LAYER
  5
1FC
100
AcDbSymbolTableRecord
100
AcDbLayerTableRecord
  2
DEFAULT_3
 70
0
 62
7
  6
PHANTOM
370
-3
390
F
  0
LAYER
  5
1FD
100
AcDbSymbolTableRecord
100
AcDbLayerTableRecord
  2
AUSFORMSCHRAEGEN
 70
0
 62
7
  6
CONTINUOUS
370
-3
390
F
  0
LAYER
  5
1FE
100
AcDbSymbolTableRecord
100
AcDbLayerTableRecord
  2
BEZUGSACHSEN
 70
0
 62
7
  6
CONTINUOUS
370
-3
390
F
  0
LAYER
  5
1FF
100
AcDbSymbolTableRecord
100
AcDbLayerTableRecord
  2
BEZUGSEBENEN
 70
0
 62
7
  6
CONTINUOUS
370
-3
390
F
  0
LAYER
  5
200
100
AcDbSymbolTableRecord
100
AcDbLayerTableRecord
  2
FASEN
 70
0
 62
7
  6
CONTINUOUS
370
-3
390
F
  0
LAYER
  5
201
100
AcDbSymbolTableRecord
100
AcDbLayerTableRecord
  2
FLAECHEN
 70
0
 62
7
  6
CONTINUOUS
370
-3
390
F
  0
LAYER
  5
202
100
AcDbSymbolTableRecord
100
AcDbLayerTableRecord
  2
GEWINDE
 70
0
 62
7
  6
CONTINUOUS
370
-3
390
F
  0
LAYER
  5
203
100
AcDbSymbolTableRecord
100
AcDbLayerTableRecord
  2
HILFEN
 70
0
 62
7
  6
CONTINUOUS
370
-3
390
F
  0
LAYER
  5
204
100
AcDbSymbolTableRecord
100
AcDbLayerTableRecord
  2
KURVEN
 70
0
 62
7
  6
CONTINUOUS
370
-3
390
F
  0
LAYER
  5
205
100
AcDbSymbolTableRecord
100
AcDbLayerTableRecord
  2
PLATZIERUNG
 70
0
 62
7
  6
CONTINUOUS
370
-3
390
F
  0
LAYER
  5
206
100
AcDbSymbolTableRecord
100
AcDbLayerTableRecord
  2
RUNDUNGEN
 70
0
 62
7
  6
CONTINUOUS
370
-3
390
F
  0
LAYER
  5
207
100
AcDbSymbolTableRecord
100
AcDbLayerTableRecord
  2
TEIL_STARTBEZUEGE
 70
0
 62
7
  6
CONTINUOUS
370
-3
390
F
  0
LAYER
  5
208
100
AcDbSymbolTableRecord
100
AcDbLayerTableRecord
  2
ZEICHNUNGSBEMASSUNGEN
 70
0
 62
7
  6
CONTINUOUS
370
-3
390
F
  0
ENDTAB
  0
TABLE
  2
STYLE
  5
3
100
AcDbSymbolTable
 70
1
  0
STYLE
  5
11
100
AcDbSymbolTableRecord
100
AcDbTextStyleTableRecord
  2
STANDARD
 70
0
 40
0.0
 41
0.7
 50
0.0
 71
0
 42
0.2
  3
txt
  4

  0
STYLE
  5
209
100
AcDbSymbolTableRecord
100
AcDbTextStyleTableRecord
  2
TEXTSTYLE_1
 70
0
 40
0.0
 41
0.8
 50
0.0
 71
0
 42
0.2
  3
gdt
  4

  0
ENDTAB
  0
TABLE
  2
VIEW
  5
6
100
AcDbSymbolTable
 70
0
  0
ENDTAB
  0
TABLE
  2
UCS
  5
7
100
AcDbSymbolTable
 70
0
  0
ENDTAB
  0
TABLE
  2
APPID
  5
9
100
AcDbSymbolTable
 70
1
  0
APPID
  5
20A
100
AcDbSymbolTableRecord
100
AcDbRegAppTableRecord
  2
ACAD
 70
0
  0
ENDTAB
  0
TABLE
  2
BLOCK_RECORD
  5
1
100
AcDbSymbolTable
 70
0
  0
BLOCK_RECORD
  5
20B
100
AcDbSymbolTableRecord
100
AcDbBlockTableRecord
  2
*Model_Space
  0
BLOCK_RECORD
  5
20C
100
AcDbSymbolTableRecord
100
AcDbBlockTableRecord
  2
*Paper_Space
  0
ENDTAB
  0
TABLE
  2
DIMSTYLE
  5
A
100
AcDbSymbolTable
 70
1
100
AcDbDimStyleTable
 71
0
  0
DIMSTYLE
105
20D
100
AcDbSymbolTableRecord
100
AcDbDimStyleTableRecord
  2
STANDARD
 70
0
  3

  4

 40
1.0
 41
3.5
 42
0.0625
 43
0.38
 44
0.18
 45
0.0
 46
0.0
 47
0.005
 48
0.005
140
3.5
141
0.09
142
0.0
143
25.4
144
1.0
145
0.0
146
1.0
147
0.09
 71
1.0
 72
0.0
 73
0
 74
0
 75
0
 76
0
 77
1
 78
8
170
0
171
2
172
0
173
0
174
0
175
0
176
0
177
0
178
5
270
2
271
3
272
3
273
2
274
2
275
0
280
0
281
0
282
0
283
1
284
8
285
0
286
0
287
3
288
0
340
11
  0
ENDTAB
  0
ENDSEC
  0
SECTION
  2
BLOCKS
  0
BLOCK
  5
20
100
AcDbEntity
  8
0
100
AcDbBlockBegin
  2
*Model_Space
 70
0
 10
0.0
 20
0.0
 30
0.0
  3
*Model_Space
  1

  0
ENDBLK
  5
21
100
AcDbEntity
  8
0
100
AcDbBlockEnd
  0
BLOCK
  5
1C
100
AcDbEntity
  8
0
100
AcDbBlockBegin
  2
*Paper_Space
 70
0
 10
0.0
 20
0.0
 30
0.0
  3
*Paper_Space
  1

  0
ENDBLK
  5
1D
100
AcDbEntity
  8
0
100
AcDbBlockEnd
  0
ENDSEC
  0
SECTION
  2
ENTITIES
  0
MTEXT
  5
20E
100
AcDbEntity
  8
0
100
AcDbMText
 62
5
  6
CONTINUOUS
  7
STANDARD
 71
1
 72
1
 10
74.4897414609
 20
192.9074259742
 30
0.0
 11
1.0
 21
0.0
 31
0.0
 44
0.9
  1
RUD B-ABA 3,2t
 40
4.0
 41
43.5238095238
  0
MTEXT
  5
20F
100
AcDbEntity
  8
0
100
AcDbMText
 62
5
  6
CONTINUOUS
  7
STANDARD
 71
1
 72
1
 10
73.8739546834
 20
107.2722986808
 30
0.0
 11
1.0
 21
0.0
 31
0.0
 44
0.9
  1
RUD B-ABA 3,2t
 40
4.0
 41
43.5238095238
  0
MTEXT
  5
210
100
AcDbEntity
  8
0
100
AcDbMText
 62
5
  6
CONTINUOUS
  7
STANDARD
 71
1
 72
1
 10
242.5936106662
 20
194.334073014
 30
0.0
 11
1.0
 21
0.0
 31
0.0
 44
0.9
  1
RUD B-ABA 3,2t
 40
4.0
 41
43.5238095238
  0
LINE
  5
211
100
AcDbEntity
  8
0
100
AcDbLine
 62
7
  6
CONTINUOUS
 10
0.0
 20
0.0
 11
0.0
 21
297.0
  0
LINE
  5
212
100
AcDbEntity
  8
0
100
AcDbLine
 62
7
  6
CONTINUOUS
 10
0.0
 20
0.0
 11
420.0
 21
0.0
  0
LINE
  5
213
100
AcDbEntity
  8
0
100
AcDbLine
 62
7
  6
CONTINUOUS
 10
0.0
 20
297.0
 11
420.0
 21
297.0
  0
LINE
  5
214
100
AcDbEntity
  8
0
100
AcDbLine
 62
7
  6
CONTINUOUS
 10
420.0
 20
0.0
 11
420.0
 21
297.0
  0
LINE
  5
215
100
AcDbEntity
  8
RUNDUNGEN
100
AcDbLine
 62
7
  6
CONTINUOUS
 10
27.6275
 20
202.4688975893
 11
27.6275
 21
184.897885527
  0
LINE
  5
216
100
AcDbEntity
  8
FASEN
100
AcDbLine
 62
7
  6
CONTINUOUS
 10
53.8275000019
 20
168.8978855251
 11
52.6275000024
 21
170.0978855246
  0
LINE
  5
217
100
AcDbEntity
  8
RUNDUNGEN
100
AcDbLine
 62
7
  6
CONTINUOUS
 10
37.6889934385
 20
231.4338357066
 11
29.1154157168
 21
210.146100386
  0
LINE
  5
218
100
AcDbEntity
  8
0
100
AcDbLine
 62
7
  6
CONTINUOUS
 10
43.9041204335
 20
212.7745477602
 11
43.8377005392
 21
213.520149628
  0
LINE
  5
219
100
AcDbEntity
  8
0
100
AcDbLine
 62
7
  6
CONTINUOUS
 10
43.0524788503
 20
212.938236389
 11
43.0233622334
 21
212.4108611892
  0
LINE
  5
21A
100
AcDbEntity
  8
FASEN
100
AcDbLine
 62
7
  6
CONTINUOUS
 10
138.4274999999
 20
168.897885527
 11
128.8275000002
 21
168.897885527
  0
LINE
  5
21B
100
AcDbEntity
  8
FASEN
100
AcDbLine
 62
7
  6
CONTINUOUS
 10
63.4274999998
 20
168.897885527
 11
53.8275000001
 21
168.897885527
  0
LINE
  5
21C
100
AcDbEntity
  8
0
100
AcDbLine
 62
7
  6
CONTINUOUS
 10
42.8614060063
 20
213.3746901672
 11
43.0524788503
 21
212.938236389
  0
LINE
  5
21D
100
AcDbEntity
  8
0
100
AcDbLine
 62
7
  6
CONTINUOUS
 10
49.9948208159
 20
217.8663055087
 11
49.9284010584
 21
218.6119078355
  0
LINE
  5
21E
100
AcDbEntity
  8
BEZUGSACHSEN
100
AcDbLine
 62
7
  6
CONTINUOUS
 10
46.2891773921
 20
199.897885527
 11
46.2891773921
 21
193.897885527
  0
LINE
  5
21F
100
AcDbEntity
  8
0
100
AcDbLine
 62
7
  6
CONTINUOUS
 10
47.6578448854
 20
193.897885527
 11
47.6578448854
 21
200.897885527
  0
LINE
  5
220
100
AcDbEntity
  8
0
100
AcDbLine
 62
7
  6
CONTINUOUS
 10
50.5795510508
 20
200.897885527
 11
50.5795510508
 21
201.097885527
  0
LINE
  5
221
100
AcDbEntity
  8
0
100
AcDbLine
 62
7
  6
CONTINUOUS
 10
48.9853165066
 20
218.0936476842
 11
48.8938732365
 21
217.4116979973
  0
LINE
  5
222
100
AcDbEntity
  8
0
100
AcDbLine
 62
7
  6
CONTINUOUS
 10
49.8410512631
 20
217.0297822136
 11
49.9948208159
 21
217.8663055087
  0
LINE
  5
223
100
AcDbEntity
  8
0
100
AcDbLine
 62
7
  6
CONTINUOUS
 10
45.4131636823
 20
227.4410170862
 11
43.9173268594
 21
223.7312364729
  0
LINE
  5
224
100
AcDbEntity
  8
0
100
AcDbLine
 62
7
  6
CONTINUOUS
 10
43.418714704
 20
222.4946432299
 11
43.0447554982
 21
221.5671980766
  0
LINE
  5
225
100
AcDbEntity
  8
0
100
AcDbLine
 62
7
  6
CONTINUOUS
 10
41.5489186753
 20
217.8574174632
 11
41.1749592912
 21
216.9299718677
  0
LINE
  5
226
100
AcDbEntity
  8
0
100
AcDbLine
 62
7
  6
CONTINUOUS
 10
39.8037755963
 20
213.5293397862
 11
38.3079387733
 21
209.8195591729
  0
LINE
  5
227
100
AcDbEntity
  8
0
100
AcDbLine
 62
7
  6
CONTINUOUS
 10
39.4712129091
 20
210.4287412103
 11
40.6554170011
 21
213.3656507151
  0
LINE
  5
228
100
AcDbEntity
  8
0
100
AcDbLine
 62
7
  6
CONTINUOUS
 10
45.2384639812
 20
224.2767658872
 11
46.3603415984
 21
227.0591013472
  0
LINE
  5
229
100
AcDbEntity
  8
0
100
AcDbLine
 62
7
  6
CONTINUOUS
 10
43.0233622334
 20
212.4108611892
 11
41.8391581414
 21
209.4739516844
  0
LINE
  5
22A
100
AcDbEntity
  8
0
100
AcDbLine
 62
7
  6
CONTINUOUS
 10
42.7863360574
 20
209.0920359453
 11
43.8458871106
 21
211.7197971394
  0
LINE
  5
22B
100
AcDbEntity
  8
0
100
AcDbLine
 62
7
  6
CONTINUOUS
 10
45.8826595776
 20
228.1502360138
 11
45.4131636823
 21
227.4410170862
  0
LINE
  5
22C
100
AcDbEntity
  8
FASEN
100
AcDbLine
 62
7
  6
CONTINUOUS
 10
139.6275
 20
170.097885527
 11
127.6275
 21
170.097885527
  0
LINE
  5
22D
100
AcDbEntity
  8
FASEN
100
AcDbLine
 62
7
  6
CONTINUOUS
 10
64.6275
 20
170.097885527
 11
52.6275
 21
170.097885527
  0
LINE
  5
22E
100
AcDbEntity
  8
0
100
AcDbLine
 62
7
  6
CONTINUOUS
 10
43.8377005392
 20
213.520149628
 11
43.3932281981
 21
214.2384826974
  0
LINE
  5
22F
100
AcDbEntity
  8
0
100
AcDbLine
 62
7
  6
CONTINUOUS
 10
48.8565700269
 20
218.6846755518
 11
48.9853165066
 21
218.0936476842
  0
LINE
  5
230
100
AcDbEntity
  8
0
100
AcDbLine
 62
7
  6
CONTINUOUS
 10
52.9864948184
 20
225.2858676198
 11
52.9200747043
 21
226.0314690621
  0
LINE
  5
231
100
AcDbEntity
  8
BEZUGSACHSEN
100
AcDbLine
 62
7
  6
CONTINUOUS
 10
52.6275
 20
184.897885527
 11
52.6275
 21
170.097885527
  0
LINE
  5
232
100
AcDbEntity
  8
FASEN
100
AcDbLine
 62
7
  6
CONTINUOUS
 10
52.6275
 20
184.897885527
 11
52.6275
 21
170.097885527
  0
LINE
  5
233
100
AcDbEntity
  8
0
100
AcDbLine
 62
7
  6
CONTINUOUS
 10
53.0391941808
 20
200.897885527
 11
53.0391941808
 21
201.097885527
  0
LINE
  5
234
100
AcDbEntity
  8
0
100
AcDbLine
 62
7
  6
CONTINUOUS
 10
53.095117632
 20
200.897885527
 11
53.095117632
 21
201.097885527
  0
LINE
  5
235
100
AcDbEntity
  8
0
100
AcDbLine
 62
7
  6
CONTINUOUS
 10
53.1426724427
 20
193.897885527
 11
53.1426724427
 21
200.897885527
  0
LINE
  5
236
100
AcDbEntity
  8
0
100
AcDbLine
 62
7
  6
CONTINUOUS
 10
53.328132003
 20
200.897885527
 11
53.328132003
 21
201.097885527
  0
LINE
  5
237
100
AcDbEntity
  8
0
100
AcDbLine
 62
7
  6
CONTINUOUS
 10
53.3933760471
 20
200.897885527
 11
53.3933760471
 21
201.097885527
  0
LINE
  5
238
100
AcDbEntity
  8
0
100
AcDbLine
 62
7
  6
CONTINUOUS
 10
53.6495518534
 20
200.897885527
 11
53.6495518534
 21
201.097885527
  0
LINE
  5
239
100
AcDbEntity
  8
0
100
AcDbLine
 62
7
  6
CONTINUOUS
 10
53.8556616841
 20
200.897885527
 11
53.8556616841
 21
201.097885527
  0
LINE
  5
23A
100
AcDbEntity
  8
0
100
AcDbLine
 62
7
  6
CONTINUOUS
 10
54.0477218424
 20
200.897885527
 11
54.0477218424
 21
201.097885527
  0
LINE
  5
23B
100
AcDbEntity
  8
0
100
AcDbLine
 62
7
  6
CONTINUOUS
 10
54.1663956721
 20
200.897885527
 11
54.1663956721
 21
201.097885527
  0
LINE
  5
23C
100
AcDbEntity
  8
0
100
AcDbLine
 62
7
  6
CONTINUOUS
 10
54.2710198332
 20
200.897885527
 11
54.2710198332
 21
201.097885527
  0
LINE
  5
23D
100
AcDbEntity
  8
0
100
AcDbLine
 62
7
  6
CONTINUOUS
 10
54.3022576617
 20
200.897885527
 11
54.3022576617
 21
201.097885527
  0
LINE
  5
23E
100
AcDbEntity
  8
0
100
AcDbLine
 62
7
  6
CONTINUOUS
 10
54.9519824869
 20
200.897885527
 11
54.9519824869
 21
201.097885527
  0
LINE
  5
23F
100
AcDbEntity
  8
0
100
AcDbLine
 62
7
  6
CONTINUOUS
 10
56.0310408873
 20
200.897885527
 11
56.0310408873
 21
201.097885527
  0
LINE
  5
240
100
AcDbEntity
  8
0
100
AcDbLine
 62
7
  6
CONTINUOUS
 10
56.2289947745
 20
200.897885527
 11
56.2289947745
 21
201.097885527
  0
LINE
  5
241
100
AcDbEntity
  8
0
100
AcDbLine
 62
7
  6
CONTINUOUS
 10
56.3551374319
 20
200.897885527
 11
56.3551374319
 21
201.097885527
  0
LINE
  5
242
100
AcDbEntity
  8
0
100
AcDbLine
 62
7
  6
CONTINUOUS
 10
56.427579856
 20
200.897885527
 11
56.427579856
 21
201.097885527
  0
LINE
  5
243
100
AcDbEntity
  8
0
100
AcDbLine
 62
7
  6
CONTINUOUS
 10
51.9769897958
 20
225.5132080264
 11
51.8855468824
 21
224.8312592239
  0
LINE
  5
244
100
AcDbEntity
  8
0
100
AcDbLine
 62
7
  6
CONTINUOUS
 10
52.832724909
 20
224.4493434403
 11
52.9864948184
 21
225.2858676198
  0
LINE
  5
245
100
AcDbEntity
  8
BEZUGSACHSEN
100
AcDbLine
 62
7
  6
CONTINUOUS
 10
55.2099437345
 20
226.4110112107
 11
65.7416364945
 21
253.4379945967
  0
LINE
  5
246
100
AcDbEntity
  8
0
100
AcDbLine
 62
7
  6
CONTINUOUS
 10
51.8855468824
 20
224.8312592239
 11
50.7636692652
 21
222.0489237639
  0
LINE
  5
247
100
AcDbEntity
  8
0
100
AcDbLine
 62
7
  6
CONTINUOUS
 10
48.8938732365
 20
217.4116979973
 11
48.6445669805
 21
216.7934009336
  0
LINE
  5
248
100
AcDbEntity
  8
0
100
AcDbLine
 62
7
  6
CONTINUOUS
 10
45.7275
 20
206.827885527
 11
46.1014592057
 21
207.7553306803
  0
LINE
  5
249
100
AcDbEntity
  8
0
100
AcDbLine
 62
7
  6
CONTINUOUS
 10
47.6596225035
 20
211.6196853384
 11
48.0959083624
 21
212.7017049788
  0
LINE
  5
24A
100
AcDbEntity
  8
0
100
AcDbLine
 62
7
  6
CONTINUOUS
 10
49.5917450071
 20
216.4114851499
 11
49.8410512631
 21
217.0297822136
  0
LINE
  5
24B
100
AcDbEntity
  8
0
100
AcDbLine
 62
7
  6
CONTINUOUS
 10
51.3368880861
 20
220.739562827
 11
52.832724909
 21
224.4493434403
  0
LINE
  5
24C
100
AcDbEntity
  8
0
100
AcDbLine
 62
7
  6
CONTINUOUS
 10
40.2732713132
 20
214.2385582715
 11
39.8037755963
 21
213.5293397862
  0
LINE
  5
24D
100
AcDbEntity
  8
0
100
AcDbLine
 62
7
  6
CONTINUOUS
 10
46.3603415984
 20
227.0591013472
 11
46.7675104838
 21
227.6137449032
  0
LINE
  5
24E
100
AcDbEntity
  8
0
100
AcDbLine
 62
7
  6
CONTINUOUS
 10
46.447691449
 20
228.6412269467
 11
45.8826595776
 21
228.1502360138
  0
LINE
  5
24F
100
AcDbEntity
  8
RUNDUNGEN
100
AcDbLine
 62
7
  6
CONTINUOUS
 10
67.9119466062
 20
255.6703173746
 11
94.9599598596
 21
267.0977866013
  0
LINE
  5
250
100
AcDbEntity
  8
0
100
AcDbLine
 62
7
  6
CONTINUOUS
 10
42.4501435232
 20
213.7202220816
 11
42.8614060063
 21
213.3746901672
  0
LINE
  5
251
100
AcDbEntity
  8
0
100
AcDbLine
 62
7
  6
CONTINUOUS
 10
48.5076340186
 20
219.1847815109
 11
48.8565700269
 21
218.6846755518
  0
LINE
  5
252
100
AcDbEntity
  8
0
100
AcDbLine
 62
7
  6
CONTINUOUS
 10
49.9284010584
 20
218.6119078355
 11
49.5462553152
 21
219.4848154142
  0
LINE
  5
253
100
AcDbEntity
  8
0
100
AcDbLine
 62
7
  6
CONTINUOUS
 10
51.8482433161
 20
226.104235894
 11
51.9769897958
 21
225.5132080264
  0
LINE
  5
254
100
AcDbEntity
  8
0
100
AcDbLine
 62
7
  6
CONTINUOUS
 10
59.7168705106
 20
200.897885527
 11
59.7168705106
 21
201.097885527
  0
LINE
  5
255
100
AcDbEntity
  8
0
100
AcDbLine
 62
7
  6
CONTINUOUS
 10
60.0024853722
 20
200.897885527
 11
60.0024853722
 21
201.097885527
  0
LINE
  5
256
100
AcDbEntity
  8
0
100
AcDbLine
 62
7
  6
CONTINUOUS
 10
60.6689196862
 20
200.897885527
 11
60.6689196862
 21
201.097885527
  0
LINE
  5
257
100
AcDbEntity
  8
0
100
AcDbLine
 62
7
  6
CONTINUOUS
 10
61.049740228
 20
200.897885527
 11
61.049740228
 21
201.097885527
  0
LINE
  5
258
100
AcDbEntity
  8
0
100
AcDbLine
 62
7
  6
CONTINUOUS
 10
61.716174542
 20
200.897885527
 11
61.716174542
 21
201.097885527
  0
LINE
  5
259
100
AcDbEntity
  8
0
100
AcDbLine
 62
7
  6
CONTINUOUS
 10
62.0017894036
 20
200.897885527
 11
62.0017894036
 21
201.097885527
  0
LINE
  5
25A
100
AcDbEntity
  8
0
100
AcDbLine
 62
7
  6
CONTINUOUS
 10
62.4864882605
 20
200.897885527
 11
62.4864882605
 21
201.097885527
  0
LINE
  5
25B
100
AcDbEntity
  8
0
100
AcDbLine
 62
7
  6
CONTINUOUS
 10
62.7091561677
 20
200.897885527
 11
62.7091561677
 21
201.097885527
  0
LINE
  5
25C
100
AcDbEntity
  8
BEZUGSACHSEN
100
AcDbLine
 62
7
  6
CONTINUOUS
 10
54.3366265242
 20
206.2675179801
 11
57.2910626364
 21
213.8493471826
  0
LINE
  5
25D
100
AcDbEntity
  8
0
100
AcDbLine
 62
7
  6
CONTINUOUS
 10
49.1222494547
 20
215.7022671124
 11
49.5917450071
 21
216.4114851499
  0
LINE
  5
25E
100
AcDbEntity
  8
0
100
AcDbLine
 62
7
  6
CONTINUOUS
 10
48.6445669805
 20
216.7934009336
 11
48.2373980951
 21
216.2387573775
  0
LINE
  5
25F
100
AcDbEntity
  8
0
100
AcDbLine
 62
7
  6
CONTINUOUS
 10
40.6554170011
 20
213.3656507151
 11
41.00025959
 21
213.7657206686
  0
LINE
  5
260
100
AcDbEntity
  8
0
100
AcDbLine
 62
7
  6
CONTINUOUS
 10
46.7675104838
 20
227.6137449032
 11
47.2702160586
 21
227.9501622335
  0
LINE
  5
261
100
AcDbEntity
  8
RUNDUNGEN
100
AcDbLine
 62
7
  6
CONTINUOUS
 10
27.6275
 20
184.897885527
 11
164.6275
 21
184.897885527
  0
LINE
  5
262
100
AcDbEntity
  8
0
100
AcDbLine
 62
7
  6
CONTINUOUS
 10
43.3932281981
 20
214.2384826974
 11
42.9819657149
 21
214.5840146117
  0
LINE
  5
263
100
AcDbEntity
  8
0
100
AcDbLine
 62
7
  6
CONTINUOUS
 10
49.5462553152
 20
219.4848154142
 11
49.0394562103
 21
220.0485740411
  0
LINE
  5
264
100
AcDbEntity
  8
0
100
AcDbLine
 62
7
  6
CONTINUOUS
 10
52.9200747043
 20
226.0314690621
 11
52.5379286044
 21
226.9043757564
  0
LINE
  5
265
100
AcDbEntity
  8
BEZUGSACHSEN
100
AcDbLine
 62
7
  6
CONTINUOUS
 10
57.222277313
 20
218.7392340845
 11
55.2523272614
 21
223.4019668425
  0
LINE
  5
266
100
AcDbEntity
  8
0
100
AcDbLine
 62
7
  6
CONTINUOUS
 10
63.0388544674
 20
200.897885527
 11
63.0388544674
 21
201.097885527
  0
LINE
  5
267
100
AcDbEntity
  8
0
100
AcDbLine
 62
7
  6
CONTINUOUS
 10
63.921406103
 20
200.897885527
 11
63.921406103
 21
201.097885527
  0
LINE
  5
268
100
AcDbEntity
  8
0
100
AcDbLine
 62
7
  6
CONTINUOUS
 10
64.1123275573
 20
193.897885527
 11
64.1123275573
 21
200.897885527
  0
LINE
  5
269
100
AcDbEntity
  8
0
100
AcDbLine
 62
7
  6
CONTINUOUS
 10
64.1560594098
 20
200.897885527
 11
64.1560594098
 21
201.097885527
  0
LINE
  5
26A
100
AcDbEntity
  8
BEZUGSACHSEN
100
AcDbLine
 62
7
  6
CONTINUOUS
 10
64.6275
 20
184.897885527
 11
64.6275
 21
170.097885527
  0
LINE
  5
26B
100
AcDbEntity
  8
FASEN
100
AcDbLine
 62
7
  6
CONTINUOUS
 10
64.6275
 20
184.897885527
 11
64.6275
 21
170.097885527
  0
LINE
  5
26C
100
AcDbEntity
  8
0
100
AcDbLine
 62
7
  6
CONTINUOUS
 10
65.1149879445
 20
200.897885527
 11
65.1149879445
 21
201.097885527
  0
LINE
  5
26D
100
AcDbEntity
  8
0
100
AcDbLine
 62
7
  6
CONTINUOUS
 10
65.3048103683
 20
200.897885527
 11
65.3048103683
 21
201.097885527
  0
LINE
  5
26E
100
AcDbEntity
  8
0
100
AcDbLine
 62
7
  6
CONTINUOUS
 10
65.5170484977
 20
200.897885527
 11
65.5170484977
 21
201.097885527
  0
LINE
  5
26F
100
AcDbEntity
  8
0
100
AcDbLine
 62
7
  6
CONTINUOUS
 10
65.6109099388
 20
200.897885527
 11
65.6109099388
 21
201.097885527
  0
LINE
  5
270
100
AcDbEntity
  8
0
100
AcDbLine
 62
7
  6
CONTINUOUS
 10
65.7741170478
 20
200.897885527
 11
65.7741170478
 21
201.097885527
  0
LINE
  5
271
100
AcDbEntity
  8
0
100
AcDbLine
 62
7
  6
CONTINUOUS
 10
65.8637781871
 20
200.897885527
 11
65.8637781871
 21
201.097885527
  0
LINE
  5
272
100
AcDbEntity
  8
0
100
AcDbLine
 62
7
  6
CONTINUOUS
 10
48.5572171852
 20
215.2112753117
 11
49.1222494547
 21
215.7022671124
  0
LINE
  5
273
100
AcDbEntity
  8
0
100
AcDbLine
 62
7
  6
CONTINUOUS
 10
38.3079387733
 20
209.8195591729
 11
45.7275
 21
206.827885527
  0
LINE
  5
274
100
AcDbEntity
  8
0
100
AcDbLine
 62
7
  6
CONTINUOUS
 10
46.1014592057
 20
207.7553306803
 11
42.7863360574
 21
209.0920359453
  0
LINE
  5
275
100
AcDbEntity
  8
0
100
AcDbLine
 62
7
  6
CONTINUOUS
 10
41.8391581414
 20
209.4739516844
 11
39.4712129091
 21
210.4287412103
  0
LINE
  5
276
100
AcDbEntity
  8
0
100
AcDbLine
 62
7
  6
CONTINUOUS
 10
47.9385087277
 20
219.5939664907
 11
48.5076340186
 21
219.1847815109
  0
LINE
  5
277
100
AcDbEntity
  8
0
100
AcDbLine
 62
7
  6
CONTINUOUS
 10
52.5379286044
 20
226.9043757564
 11
52.0311298562
 21
227.4681352677
  0
LINE
  5
278
100
AcDbEntity
  8
0
100
AcDbLine
 62
7
  6
CONTINUOUS
 10
51.4993076645
 20
226.6043427376
 11
51.8482433161
 21
226.104235894
  0
LINE
  5
279
100
AcDbEntity
  8
0
100
AcDbLine
 62
7
  6
CONTINUOUS
 10
69.5971551146
 20
193.897885527
 11
69.5971551146
 21
200.897885527
  0
LINE
  5
27A
100
AcDbEntity
  8
BEZUGSACHSEN
100
AcDbLine
 62
7
  6
CONTINUOUS
 10
70.9258738762
 20
193.897885527
 11
70.9258738762
 21
199.897885527
  0
LINE
  5
27B
100
AcDbEntity
  8
0
100
AcDbLine
 62
7
  6
CONTINUOUS
 10
48.2373980951
 20
216.2387573775
 11
47.7346924097
 21
215.9023400918
  0
LINE
  5
27C
100
AcDbEntity
  8
0
100
AcDbLine
 62
7
  6
CONTINUOUS
 10
40.9961663489
 20
214.6658970235
 11
40.2732713132
 21
214.2385582715
  0
LINE
  5
27D
100
AcDbEntity
  8
0
100
AcDbLine
 62
7
  6
CONTINUOUS
 10
47.3284492924
 20
229.0049126332
 11
46.447691449
 21
228.6412269467
  0
LINE
  5
27E
100
AcDbEntity
  8
BEZUGSACHSEN
100
AcDbLine
 62
7
  6
CONTINUOUS
 10
46.2891773921
 20
193.897885527
 11
70.9258738762
 21
193.897885527
  0
LINE
  5
27F
100
AcDbEntity
  8
BEZUGSACHSEN
100
AcDbLine
 62
7
  6
CONTINUOUS
 10
121.3291261238
 20
193.897885527
 11
145.9658226079
 21
193.897885527
  0
LINE
  5
280
100
AcDbEntity
  8
0
100
AcDbLine
 62
7
  6
CONTINUOUS
 10
41.9765541229
 20
213.9111801294
 11
42.4501435232
 21
213.7202220816
  0
LINE
  5
281
100
AcDbEntity
  8
0
100
AcDbLine
 62
7
  6
CONTINUOUS
 10
42.9819657149
 20
214.5840146117
 11
42.3505133286
 21
214.8386252827
  0
LINE
  5
282
100
AcDbEntity
  8
0
100
AcDbLine
 62
7
  6
CONTINUOUS
 10
41.1749592912
 20
216.9299718677
 11
46.0687125207
 21
214.9567402817
  0
LINE
  5
283
100
AcDbEntity
  8
0
100
AcDbLine
 62
7
  6
CONTINUOUS
 10
46.4426719048
 20
215.8841858773
 11
41.5489186753
 21
217.8574174632
  0
LINE
  5
284
100
AcDbEntity
  8
0
100
AcDbLine
 62
7
  6
CONTINUOUS
 10
49.0394562103
 20
220.0485740411
 11
48.3124679334
 21
220.521411644
  0
LINE
  5
285
100
AcDbEntity
  8
BEZUGSACHSEN
100
AcDbLine
 62
7
  6
CONTINUOUS
 10
121.3291261238
 20
199.897885527
 11
70.9258738762
 21
199.897885527
  0
LINE
  5
286
100
AcDbEntity
  8
BEZUGSACHSEN
100
AcDbLine
 62
7
  6
CONTINUOUS
 10
27.6275
 20
199.897885527
 11
46.2891773921
 21
199.897885527
  0
LINE
  5
287
100
AcDbEntity
  8
BEZUGSACHSEN
100
AcDbLine
 62
7
  6
CONTINUOUS
 10
145.9658226079
 20
199.897885527
 11
164.6275
 21
199.897885527
  0
LINE
  5
288
100
AcDbEntity
  8
0
100
AcDbLine
 62
7
  6
CONTINUOUS
 10
47.6578448854
 20
200.897885527
 11
69.5971551146
 21
200.897885527
  0
LINE
  5
289
100
AcDbEntity
  8
0
100
AcDbLine
 62
7
  6
CONTINUOUS
 10
122.6578448854
 20
200.897885527
 11
144.5971551146
 21
200.897885527
  0
LINE
  5
28A
100
AcDbEntity
  8
0
100
AcDbLine
 62
7
  6
CONTINUOUS
 10
50.5795510508
 20
201.097885527
 11
56.427579856
 21
201.097885527
  0
LINE
  5
28B
100
AcDbEntity
  8
0
100
AcDbLine
 62
7
  6
CONTINUOUS
 10
59.7168705106
 20
201.097885527
 11
65.8637781871
 21
201.097885527
  0
LINE
  5
28C
100
AcDbEntity
  8
0
100
AcDbLine
 62
7
  6
CONTINUOUS
 10
125.5795510508
 20
201.097885527
 11
131.427579856
 21
201.097885527
  0
LINE
  5
28D
100
AcDbEntity
  8
0
100
AcDbLine
 62
7
  6
CONTINUOUS
 10
134.7168705106
 20
201.097885527
 11
140.8637781871
 21
201.097885527
  0
LINE
  5
28E
100
AcDbEntity
  8
0
100
AcDbLine
 62
7
  6
CONTINUOUS
 10
43.0447554982
 20
221.5671980766
 11
47.9385087277
 21
219.5939664907
  0
LINE
  5
28F
100
AcDbEntity
  8
0
100
AcDbLine
 62
7
  6
CONTINUOUS
 10
48.3124679334
 20
220.521411644
 11
43.418714704
 21
222.4946432299
  0
LINE
  5
290
100
AcDbEntity
  8
0
100
AcDbLine
 62
7
  6
CONTINUOUS
 10
52.0311298562
 20
227.4681352677
 11
51.3041412227
 21
227.9409719862
  0
LINE
  5
291
100
AcDbEntity
  8
0
100
AcDbLine
 62
7
  6
CONTINUOUS
 10
50.930182017
 20
227.0135268329
 11
51.4993076645
 21
226.6043427376
  0
LINE
  5
292
100
AcDbEntity
  8
0
100
AcDbLine
 62
7
  6
CONTINUOUS
 10
41.00025959
 20
213.7657206686
 11
41.44063869
 21
213.9475639541
  0
LINE
  5
293
100
AcDbEntity
  8
0
100
AcDbLine
 62
7
  6
CONTINUOUS
 10
47.6764592865
 20
214.8475896475
 11
48.5572171852
 21
215.2112753117
  0
LINE
  5
294
100
AcDbEntity
  8
0
100
AcDbLine
 62
7
  6
CONTINUOUS
 10
151.6039129101
 20
216.3589869463
 11
152.4710482008
 21
216.4846384642
  0
LINE
  5
295
100
AcDbEntity
  8
0
100
AcDbLine
 62
7
  6
CONTINUOUS
 10
47.1364501453
 20
215.7841489872
 11
46.4426719048
 21
215.8841858773
  0
LINE
  5
296
100
AcDbEntity
  8
0
100
AcDbLine
 62
7
  6
CONTINUOUS
 10
46.0687125207
 20
214.9567402817
 11
46.9203541039
 21
214.7930516529
  0
LINE
  5
297
100
AcDbEntity
  8
0
100
AcDbLine
 62
7
  6
CONTINUOUS
 10
43.9173268594
 20
223.7312364729
 11
51.3368880861
 21
220.739562827
  0
LINE
  5
298
100
AcDbEntity
  8
0
100
AcDbLine
 62
7
  6
CONTINUOUS
 10
50.7636692652
 20
222.0489237639
 11
45.2384639812
 21
224.2767658872
  0
LINE
  5
299
100
AcDbEntity
  8
FASEN
100
AcDbLine
 62
7
  6
CONTINUOUS
 10
128.8275000027
 20
168.8978855243
 11
127.6275000034
 21
170.0978855236
  0
LINE
  5
29A
100
AcDbEntity
  8
0
100
AcDbLine
 62
7
  6
CONTINUOUS
 10
48.0959083624
 20
212.7017049788
 11
43.9041204335
 21
212.7745477602
  0
LINE
  5
29B
100
AcDbEntity
  8
0
100
AcDbLine
 62
7
  6
CONTINUOUS
 10
43.8458871106
 20
211.7197971394
 11
47.6596225035
 21
211.6196853384
  0
LINE
  5
29C
100
AcDbEntity
  8
0
100
AcDbLine
 62
7
  6
CONTINUOUS
 10
41.44063869
 20
213.9475639541
 11
41.9765541229
 21
213.9111801294
  0
LINE
  5
29D
100
AcDbEntity
  8
0
100
AcDbLine
 62
7
  6
CONTINUOUS
 10
42.3505133286
 20
214.8386252827
 11
41.8145978958
 21
214.8750091075
  0
LINE
  5
29E
100
AcDbEntity
  8
0
100
AcDbLine
 62
7
  6
CONTINUOUS
 10
48.5622370058
 20
227.9683162697
 11
50.930182017
 21
227.0135268329
  0
LINE
  5
29F
100
AcDbEntity
  8
0
100
AcDbLine
 62
7
  6
CONTINUOUS
 10
51.3041412227
 20
227.9409719862
 11
48.9361962115
 21
228.895761423
  0
LINE
  5
2A0
100
AcDbEntity
  8
0
100
AcDbLine
 62
7
  6
CONTINUOUS
 10
151.0012240568
 20
223.5304124852
 11
150.1340887661
 21
223.4047609673
  0
LINE
  5
2A1
100
AcDbEntity
  8
0
100
AcDbLine
 62
7
  6
CONTINUOUS
 10
46.9203541039
 20
214.7930516529
 11
47.6764592865
 21
214.8475896475
  0
LINE
  5
2A2
100
AcDbEntity
  8
0
100
AcDbLine
 62
7
  6
CONTINUOUS
 10
48.9361962115
 20
228.895761423
 11
48.0845545427
 21
229.0594511146
  0
LINE
  5
2A3
100
AcDbEntity
  8
0
100
AcDbLine
 62
7
  6
CONTINUOUS
 10
47.7346924097
 20
215.9023400918
 11
47.1364501453
 21
215.7841489872
  0
LINE
  5
2A4
100
AcDbEntity
  8
0
100
AcDbLine
 62
7
  6
CONTINUOUS
 10
146.6091579591
 20
228.7214392616
 11
147.4762936964
 21
228.8470896742
  0
LINE
  5
2A5
100
AcDbEntity
  8
0
100
AcDbLine
 62
7
  6
CONTINUOUS
 10
142.3471917191
 20
226.7747979604
 11
143.0170542343
 21
226.8207454605
  0
LINE
  5
2A6
100
AcDbEntity
  8
0
100
AcDbLine
 62
7
  6
CONTINUOUS
 10
152.0027899591
 20
217.6436182824
 11
151.0576114792
 21
217.711130436
  0
LINE
  5
2A7
100
AcDbEntity
  8
0
100
AcDbLine
 62
7
  6
CONTINUOUS
 10
47.8684587652
 20
228.0683531598
 11
48.5622370058
 21
227.9683162697
  0
LINE
  5
2A8
100
AcDbEntity
  8
0
100
AcDbLine
 62
7
  6
CONTINUOUS
 10
144.4152907973
 20
231.8795643559
 11
143.6261982492
 21
231.5607502719
  0
LINE
  5
2A9
100
AcDbEntity
  8
0
100
AcDbLine
 62
7
  6
CONTINUOUS
 10
147.4806252472
 20
229.9723136389
 11
147.0860784205
 21
229.8129063736
  0
LINE
  5
2AA
100
AcDbEntity
  8
0
100
AcDbLine
 62
7
  6
CONTINUOUS
 10
143.4159315065
 20
228.1053762439
 11
142.6268389584
 21
227.7865621599
  0
LINE
  5
2AB
100
AcDbEntity
  8
0
100
AcDbLine
 62
7
  6
CONTINUOUS
 10
147.4762936964
 20
228.8470896742
 11
147.8708405231
 21
229.0064969395
  0
LINE
  5
2AC
100
AcDbEntity
  8
0
100
AcDbLine
 62
7
  6
CONTINUOUS
 10
143.0170542343
 20
226.8207454605
 11
143.8061467824
 21
227.1395595445
  0
LINE
  5
2AD
100
AcDbEntity
  8
0
100
AcDbLine
 62
7
  6
CONTINUOUS
 10
41.8145978958
 20
214.8750091075
 11
40.9961663489
 21
214.6658970235
  0
LINE
  5
2AE
100
AcDbEntity
  8
0
100
AcDbLine
 62
7
  6
CONTINUOUS
 10
146.0845126717
 20
235.6997001964
 11
145.217377081
 21
235.5740494212
  0
LINE
  5
2AF
100
AcDbEntity
  8
0
100
AcDbLine
 62
7
  6
CONTINUOUS
 10
142.6268389584
 20
227.7865621599
 11
142.1542497184
 21
227.8203182367
  0
LINE
  5
2B0
100
AcDbEntity
  8
0
100
AcDbLine
 62
7
  6
CONTINUOUS
 10
140.677970163
 20
222.9546621279
 11
143.3162331884
 21
222.6724211525
  0
LINE
  5
2B1
100
AcDbEntity
  8
0
100
AcDbLine
 62
7
  6
CONTINUOUS
 10
142.9260176892
 20
223.6382384045
 11
140.2877548871
 21
223.9204788273
  0
LINE
  5
2B2
100
AcDbEntity
  8
0
100
AcDbLine
 62
7
  6
CONTINUOUS
 10
150.8560071208
 20
216.5062037262
 11
151.6039129101
 21
216.3589869463
  0
LINE
  5
2B3
100
AcDbEntity
  8
FASEN
100
AcDbLine
 62
7
  6
CONTINUOUS
 10
63.4274999973
 20
168.8978855243
 11
64.6274999966
 21
170.0978855236
  0
LINE
  5
2B4
100
AcDbEntity
  8
0
100
AcDbLine
 62
7
  6
CONTINUOUS
 10
140.2075047836
 20
233.7746243697
 11
139.693728277
 21
233.3423504421
  0
LINE
  5
2B5
100
AcDbEntity
  8
0
100
AcDbLine
 62
7
  6
CONTINUOUS
 10
143.9405773619
 20
221.1271150966
 11
142.9542115386
 21
220.7285974358
  0
LINE
  5
2B6
100
AcDbEntity
  8
0
100
AcDbLine
 62
7
  6
CONTINUOUS
 10
47.2702160586
 20
227.9501622335
 11
47.8684587652
 21
228.0683531598
  0
LINE
  5
2B7
100
AcDbEntity
  8
0
100
AcDbLine
 62
7
  6
CONTINUOUS
 10
48.0845545427
 20
229.0594511146
 11
47.3284492924
 21
229.0049126332
  0
LINE
  5
2B8
100
AcDbEntity
  8
0
100
AcDbLine
 62
7
  6
CONTINUOUS
 10
147.0860784205
 20
229.8129063736
 11
146.1408997174
 21
229.8804190799
  0
LINE
  5
2B9
100
AcDbEntity
  8
0
100
AcDbLine
 62
7
  6
CONTINUOUS
 10
150.5243038187
 20
222.4389448206
 11
151.2722091615
 21
222.291729146
  0
LINE
  5
2BA
100
AcDbEntity
  8
0
100
AcDbLine
 62
7
  6
CONTINUOUS
 10
141.599286153
 20
226.9220141877
 11
142.3471917191
 21
226.7747979604
  0
LINE
  5
2BB
100
AcDbEntity
  8
0
100
AcDbLine
 62
7
  6
CONTINUOUS
 10
143.8061467824
 20
227.1395595445
 11
144.517196641
 21
227.651536859
  0
LINE
  5
2BC
100
AcDbEntity
  8
0
100
AcDbLine
 62
7
  6
CONTINUOUS
 10
147.8708405231
 20
229.0064969395
 11
148.5818898821
 21
229.5184746951
  0
LINE
  5
2BD
100
AcDbEntity
  8
0
100
AcDbLine
 62
7
  6
CONTINUOUS
 10
152.3973367858
 20
217.8030255477
 11
152.0027899591
 21
217.6436182824
  0
LINE
  5
2BE
100
AcDbEntity
  8
0
100
AcDbLine
 62
7
  6
CONTINUOUS
 10
145.8612526163
 20
228.8686549362
 11
146.6091579591
 21
228.7214392616
  0
LINE
  5
2BF
100
AcDbEntity
  8
0
100
AcDbLine
 62
7
  6
CONTINUOUS
 10
151.0576114792
 20
217.711130436
 11
143.9405773619
 21
221.1271150966
  0
LINE
  5
2C0
100
AcDbEntity
  8
0
100
AcDbLine
 62
7
  6
CONTINUOUS
 10
144.5649215354
 20
219.5818090408
 11
150.8560071208
 21
216.5062037262
  0
LINE
  5
2C1
100
AcDbEntity
  8
BEZUGSACHSEN
100
AcDbLine
 62
7
  6
CONTINUOUS
 10
121.3291261238
 20
193.897885527
 11
121.3291261238
 21
199.897885527
  0
LINE
  5
2C2
100
AcDbEntity
  8
0
100
AcDbLine
 62
7
  6
CONTINUOUS
 10
122.6578448854
 20
193.897885527
 11
122.6578448854
 21
200.897885527
  0
LINE
  5
2C3
100
AcDbEntity
  8
0
100
AcDbLine
 62
7
  6
CONTINUOUS
 10
139.693728277
 20
233.3423504421
 11
139.2579949442
 21
232.7169132787
  0
LINE
  5
2C4
100
AcDbEntity
  8
0
100
AcDbLine
 62
7
  6
CONTINUOUS
 10
140.2812167514
 20
232.4562375095
 11
140.5977199758
 21
232.8088078776
  0
LINE
  5
2C5
100
AcDbEntity
  8
0
100
AcDbLine
 62
7
  6
CONTINUOUS
 10
145.7637609892
 20
213.7747185265
 11
146.7501268125
 21
214.1732361874
  0
LINE
  5
2C6
100
AcDbEntity
  8
0
100
AcDbLine
 62
7
  6
CONTINUOUS
 10
152.4710482008
 20
216.4846384642
 11
152.8655950275
 21
216.6440457295
  0
LINE
  5
2C7
100
AcDbEntity
  8
0
100
AcDbLine
 62
7
  6
CONTINUOUS
 10
152.7008465469
 20
214.7799242611
 11
151.9117539987
 21
214.461110177
  0
LINE
  5
2C8
100
AcDbEntity
  8
0
100
AcDbLine
 62
7
  6
CONTINUOUS
 10
154.9033759227
 20
213.8722477019
 11
153.3251902738
 21
213.2346193105
  0
LINE
  5
2C9
100
AcDbEntity
  8
0
100
AcDbLine
 62
7
  6
CONTINUOUS
 10
152.5360977257
 20
212.9158052265
 11
148.5906345706
 21
211.3217346387
  0
LINE
  5
2CA
100
AcDbEntity
  8
0
100
AcDbLine
 62
7
  6
CONTINUOUS
 10
149.375396482
 20
210.5153244846
 11
152.9263132249
 21
211.9499879744
  0
LINE
  5
2CB
100
AcDbEntity
  8
0
100
AcDbLine
 62
7
  6
CONTINUOUS
 10
153.715405773
 20
212.2688020585
 11
155.2935914219
 21
212.9064304499
  0
LINE
  5
2CC
100
AcDbEntity
  8
0
100
AcDbLine
 62
7
  6
CONTINUOUS
 10
145.6075922801
 20
234.6082329118
 11
146.3554977904
 21
234.4610168227
  0
LINE
  5
2CD
100
AcDbEntity
  8
0
100
AcDbLine
 62
7
  6
CONTINUOUS
 10
152.1024889149
 20
223.0765729887
 11
151.0012240568
 21
223.5304124852
  0
LINE
  5
2CE
100
AcDbEntity
  8
0
100
AcDbLine
 62
7
  6
CONTINUOUS
 10
142.1542497184
 20
227.8203182367
 11
141.6036171512
 21
228.0472379291
  0
LINE
  5
2CF
100
AcDbEntity
  8
0
100
AcDbLine
 62
7
  6
CONTINUOUS
 10
146.1408997174
 20
229.8804190799
 11
145.5902675116
 21
230.1073382755
  0
LINE
  5
2D0
100
AcDbEntity
  8
0
100
AcDbLine
 62
7
  6
CONTINUOUS
 10
125.5795510508
 20
200.897885527
 11
125.5795510508
 21
201.097885527
  0
LINE
  5
2D1
100
AcDbEntity
  8
FASEN
100
AcDbLine
 62
7
  6
CONTINUOUS
 10
127.6275
 20
184.897885527
 11
127.6275
 21
170.097885527
  0
LINE
  5
2D2
100
AcDbEntity
  8
BEZUGSACHSEN
100
AcDbLine
 62
7
  6
CONTINUOUS
 10
127.6275
 20
170.097885527
 11
127.6275
 21
184.897885527
  0
LINE
  5
2D3
100
AcDbEntity
  8
0
100
AcDbLine
 62
7
  6
CONTINUOUS
 10
128.0391941808
 20
200.897885527
 11
128.0391941808
 21
201.097885527
  0
LINE
  5
2D4
100
AcDbEntity
  8
0
100
AcDbLine
 62
7
  6
CONTINUOUS
 10
128.095117632
 20
200.897885527
 11
128.095117632
 21
201.097885527
  0
LINE
  5
2D5
100
AcDbEntity
  8
0
100
AcDbLine
 62
7
  6
CONTINUOUS
 10
128.1426724427
 20
193.897885527
 11
128.1426724427
 21
200.897885527
  0
LINE
  5
2D6
100
AcDbEntity
  8
0
100
AcDbLine
 62
7
  6
CONTINUOUS
 10
128.328132003
 20
200.897885527
 11
128.328132003
 21
201.097885527
  0
LINE
  5
2D7
100
AcDbEntity
  8
0
100
AcDbLine
 62
7
  6
CONTINUOUS
 10
128.3933760471
 20
200.897885527
 11
128.3933760471
 21
201.097885527
  0
LINE
  5
2D8
100
AcDbEntity
  8
0
100
AcDbLine
 62
7
  6
CONTINUOUS
 10
128.6495518534
 20
200.897885527
 11
128.6495518534
 21
201.097885527
  0
LINE
  5
2D9
100
AcDbEntity
  8
0
100
AcDbLine
 62
7
  6
CONTINUOUS
 10
128.8556616841
 20
200.897885527
 11
128.8556616841
 21
201.097885527
  0
LINE
  5
2DA
100
AcDbEntity
  8
0
100
AcDbLine
 62
7
  6
CONTINUOUS
 10
129.0477218424
 20
200.897885527
 11
129.0477218424
 21
201.097885527
  0
LINE
  5
2DB
100
AcDbEntity
  8
0
100
AcDbLine
 62
7
  6
CONTINUOUS
 10
129.1663956721
 20
200.897885527
 11
129.1663956721
 21
201.097885527
  0
LINE
  5
2DC
100
AcDbEntity
  8
0
100
AcDbLine
 62
7
  6
CONTINUOUS
 10
129.2710198332
 20
200.897885527
 11
129.2710198332
 21
201.097885527
  0
LINE
  5
2DD
100
AcDbEntity
  8
0
100
AcDbLine
 62
7
  6
CONTINUOUS
 10
129.3022576617
 20
200.897885527
 11
129.3022576617
 21
201.097885527
  0
LINE
  5
2DE
100
AcDbEntity
  8
0
100
AcDbLine
 62
7
  6
CONTINUOUS
 10
129.9519824869
 20
200.897885527
 11
129.9519824869
 21
201.097885527
  0
LINE
  5
2DF
100
AcDbEntity
  8
0
100
AcDbLine
 62
7
  6
CONTINUOUS
 10
131.0310408873
 20
200.897885527
 11
131.0310408873
 21
201.097885527
  0
LINE
  5
2E0
100
AcDbEntity
  8
0
100
AcDbLine
 62
7
  6
CONTINUOUS
 10
144.0489383992
 20
228.8105166773
 11
143.4159315065
 21
228.1053762439
  0
LINE
  5
2E1
100
AcDbEntity
  8
0
100
AcDbLine
 62
7
  6
CONTINUOUS
 10
148.1050521981
 20
207.9798194355
 11
148.8941448153
 21
208.2986335474
  0
LINE
  5
2E2
100
AcDbEntity
  8
0
100
AcDbLine
 62
7
  6
CONTINUOUS
 10
153.7847869658
 20
209.8251909042
 11
154.5738795139
 21
210.1440049882
  0
LINE
  5
2E3
100
AcDbEntity
  8
0
100
AcDbLine
 62
7
  6
CONTINUOUS
 10
147.1857773763
 20
235.2458610799
 11
146.0845126717
 21
235.6997001964
  0
LINE
  5
2E4
100
AcDbEntity
  8
0
100
AcDbLine
 62
7
  6
CONTINUOUS
 10
144.9572608952
 20
229.4021979538
 11
145.8612526163
 21
228.8686549362
  0
LINE
  5
2E5
100
AcDbEntity
  8
0
100
AcDbLine
 62
7
  6
CONTINUOUS
 10
140.970610689
 20
227.3420970269
 11
141.599286153
 21
226.9220141877
  0
LINE
  5
2E6
100
AcDbEntity
  8
0
100
AcDbLine
 62
7
  6
CONTINUOUS
 10
151.2722091615
 20
222.291729146
 11
151.9008845565
 21
221.8716462789
  0
LINE
  5
2E7
100
AcDbEntity
  8
RUNDUNGEN
100
AcDbLine
 62
7
  6
CONTINUOUS
 10
137.9183734758
 20
206.2675179801
 11
134.9639373636
 21
213.8493471826
  0
LINE
  5
2E8
100
AcDbEntity
  8
0
100
AcDbLine
 62
7
  6
CONTINUOUS
 10
131.2289947745
 20
200.897885527
 11
131.2289947745
 21
201.097885527
  0
LINE
  5
2E9
100
AcDbEntity
  8
0
100
AcDbLine
 62
7
  6
CONTINUOUS
 10
131.3551374319
 20
200.897885527
 11
131.3551374319
 21
201.097885527
  0
LINE
  5
2EA
100
AcDbEntity
  8
0
100
AcDbLine
 62
7
  6
CONTINUOUS
 10
131.427579856
 20
200.897885527
 11
131.427579856
 21
201.097885527
  0
LINE
  5
2EB
100
AcDbEntity
  8
0
100
AcDbLine
 62
7
  6
CONTINUOUS
 10
134.7168705106
 20
200.897885527
 11
134.7168705106
 21
201.097885527
  0
LINE
  5
2EC
100
AcDbEntity
  8
0
100
AcDbLine
 62
7
  6
CONTINUOUS
 10
135.0024853722
 20
200.897885527
 11
135.0024853722
 21
201.097885527
  0
LINE
  5
2ED
100
AcDbEntity
  8
0
100
AcDbLine
 62
7
  6
CONTINUOUS
 10
135.6689196862
 20
200.897885527
 11
135.6689196862
 21
201.097885527
  0
LINE
  5
2EE
100
AcDbEntity
  8
0
100
AcDbLine
 62
7
  6
CONTINUOUS
 10
136.049740228
 20
200.897885527
 11
136.049740228
 21
201.097885527
  0
LINE
  5
2EF
100
AcDbEntity
  8
0
100
AcDbLine
 62
7
  6
CONTINUOUS
 10
136.716174542
 20
200.897885527
 11
136.716174542
 21
201.097885527
  0
LINE
  5
2F0
100
AcDbEntity
  8
0
100
AcDbLine
 62
7
  6
CONTINUOUS
 10
139.2579949442
 20
232.7169132787
 11
139.0975777219
 21
231.9780162997
  0
LINE
  5
2F1
100
AcDbEntity
  8
RUNDUNGEN
100
AcDbLine
 62
7
  6
CONTINUOUS
 10
135.032722687
 20
218.7392340845
 11
137.0026727386
 21
223.4019668425
  0
LINE
  5
2F2
100
AcDbEntity
  8
0
100
AcDbLine
 62
7
  6
CONTINUOUS
 10
140.0427564383
 20
231.9105037595
 11
140.2812167514
 21
232.4562375095
  0
LINE
  5
2F3
100
AcDbEntity
  8
0
100
AcDbLine
 62
7
  6
CONTINUOUS
 10
144.517196641
 20
227.651536859
 11
144.952929897
 21
228.2769742124
  0
LINE
  5
2F4
100
AcDbEntity
  8
0
100
AcDbLine
 62
7
  6
CONTINUOUS
 10
147.9163585033
 20
230.5977509923
 11
147.4806252472
 21
229.9723136389
  0
LINE
  5
2F5
100
AcDbEntity
  8
0
100
AcDbLine
 62
7
  6
CONTINUOUS
 10
152.8655950275
 20
216.6440457295
 11
153.5766448331
 21
217.1560223798
  0
LINE
  5
2F6
100
AcDbEntity
  8
0
100
AcDbLine
 62
7
  6
CONTINUOUS
 10
146.3554977904
 20
234.4610168227
 11
146.9841731853
 21
234.0409339556
  0
LINE
  5
2F7
100
AcDbEntity
  8
0
100
AcDbLine
 62
7
  6
CONTINUOUS
 10
140.2638922764
 20
227.9553429918
 11
140.970610689
 21
227.3420970269
  0
LINE
  5
2F8
100
AcDbEntity
  8
0
100
AcDbLine
 62
7
  6
CONTINUOUS
 10
141.6036171512
 20
228.0472379291
 11
141.2502580824
 21
228.3538606457
  0
LINE
  5
2F9
100
AcDbEntity
  8
0
100
AcDbLine
 62
7
  6
CONTINUOUS
 10
152.809207499
 20
222.4633264501
 11
152.1024889149
 21
223.0765729887
  0
LINE
  5
2FA
100
AcDbEntity
  8
0
100
AcDbLine
 62
7
  6
CONTINUOUS
 10
139.7544469237
 20
228.6482927681
 11
140.2638922764
 21
227.9553429918
  0
LINE
  5
2FB
100
AcDbEntity
  8
RUNDUNGEN
100
AcDbLine
 62
7
  6
CONTINUOUS
 10
137.0450562655
 20
226.4110112107
 11
126.5133635055
 21
253.4379945967
  0
LINE
  5
2FC
100
AcDbEntity
  8
0
100
AcDbLine
 62
7
  6
CONTINUOUS
 10
137.0017894036
 20
200.897885527
 11
137.0017894036
 21
201.097885527
  0
LINE
  5
2FD
100
AcDbEntity
  8
0
100
AcDbLine
 62
7
  6
CONTINUOUS
 10
137.4864882605
 20
200.897885527
 11
137.4864882605
 21
201.097885527
  0
LINE
  5
2FE
100
AcDbEntity
  8
0
100
AcDbLine
 62
7
  6
CONTINUOUS
 10
137.7091561677
 20
200.897885527
 11
137.7091561677
 21
201.097885527
  0
LINE
  5
2FF
100
AcDbEntity
  8
0
100
AcDbLine
 62
7
  6
CONTINUOUS
 10
138.0388544674
 20
200.897885527
 11
138.0388544674
 21
201.097885527
  0
LINE
  5
300
100
AcDbEntity
  8
0
100
AcDbLine
 62
7
  6
CONTINUOUS
 10
138.921406103
 20
200.897885527
 11
138.921406103
 21
201.097885527
  0
LINE
  5
301
100
AcDbEntity
  8
0
100
AcDbLine
 62
7
  6
CONTINUOUS
 10
139.1123275573
 20
193.897885527
 11
139.1123275573
 21
200.897885527
  0
LINE
  5
302
100
AcDbEntity
  8
0
100
AcDbLine
 62
7
  6
CONTINUOUS
 10
139.1560594098
 20
200.897885527
 11
139.1560594098
 21
201.097885527
  0
LINE
  5
303
100
AcDbEntity
  8
FASEN
100
AcDbLine
 62
7
  6
CONTINUOUS
 10
139.6275
 20
184.897885527
 11
139.6275
 21
170.097885527
  0
LINE
  5
304
100
AcDbEntity
  8
BEZUGSACHSEN
100
AcDbLine
 62
7
  6
CONTINUOUS
 10
139.6275
 20
170.097885527
 11
139.6275
 21
184.897885527
  0
LINE
  5
305
100
AcDbEntity
  8
0
100
AcDbLine
 62
7
  6
CONTINUOUS
 10
140.1149879445
 20
200.897885527
 11
140.1149879445
 21
201.097885527
  0
LINE
  5
306
100
AcDbEntity
  8
0
100
AcDbLine
 62
7
  6
CONTINUOUS
 10
140.3048103683
 20
200.897885527
 11
140.3048103683
 21
201.097885527
  0
LINE
  5
307
100
AcDbEntity
  8
0
100
AcDbLine
 62
7
  6
CONTINUOUS
 10
140.5170484977
 20
200.897885527
 11
140.5170484977
 21
201.097885527
  0
LINE
  5
308
100
AcDbEntity
  8
0
100
AcDbLine
 62
7
  6
CONTINUOUS
 10
140.6109099388
 20
200.897885527
 11
140.6109099388
 21
201.097885527
  0
LINE
  5
309
100
AcDbEntity
  8
0
100
AcDbLine
 62
7
  6
CONTINUOUS
 10
140.7741170478
 20
200.897885527
 11
140.7741170478
 21
201.097885527
  0
LINE
  5
30A
100
AcDbEntity
  8
0
100
AcDbLine
 62
7
  6
CONTINUOUS
 10
140.8637781871
 20
200.897885527
 11
140.8637781871
 21
201.097885527
  0
LINE
  5
30B
100
AcDbEntity
  8
0
100
AcDbLine
 62
7
  6
CONTINUOUS
 10
139.0975777219
 20
231.9780162997
 11
139.0152035386
 21
231.0459560706
  0
LINE
  5
30C
100
AcDbEntity
  8
0
100
AcDbLine
 62
7
  6
CONTINUOUS
 10
140.0015693447
 20
231.4444737246
 11
140.0427564383
 21
231.9105037595
  0
LINE
  5
30D
100
AcDbEntity
  8
0
100
AcDbLine
 62
7
  6
CONTINUOUS
 10
144.2093555524
 20
229.5494136284
 11
144.0489383992
 21
228.8105166773
  0
LINE
  5
30E
100
AcDbEntity
  8
0
100
AcDbLine
 62
7
  6
CONTINUOUS
 10
148.5818898821
 20
229.5184746951
 11
149.0588103434
 21
230.609941807
  0
LINE
  5
30F
100
AcDbEntity
  8
0
100
AcDbLine
 62
7
  6
CONTINUOUS
 10
148.5906345706
 20
211.3217346387
 11
147.9576283317
 21
210.6165931838
  0
LINE
  5
310
100
AcDbEntity
  8
0
100
AcDbLine
 62
7
  6
CONTINUOUS
 10
148.8616196753
 20
210.0830512995
 11
149.375396482
 21
210.5153244846
  0
LINE
  5
311
100
AcDbEntity
  8
RUNDUNGEN
100
AcDbLine
 62
7
  6
CONTINUOUS
 10
124.3430533938
 20
255.6703173746
 11
97.2950401404
 21
267.0977866013
  0
LINE
  5
312
100
AcDbEntity
  8
0
100
AcDbLine
 62
7
  6
CONTINUOUS
 10
147.892495793
 20
234.6326149558
 11
147.1857773763
 21
235.2458610799
  0
LINE
  5
313
100
AcDbEntity
  8
0
100
AcDbLine
 62
7
  6
CONTINUOUS
 10
145.5902675116
 20
230.1073382755
 11
144.7274628841
 21
231.106911328
  0
LINE
  5
314
100
AcDbEntity
  8
0
100
AcDbLine
 62
7
  6
CONTINUOUS
 10
141.2502580824
 20
228.3538606457
 11
140.6627696695
 21
229.2399738241
  0
LINE
  5
315
100
AcDbEntity
  8
0
100
AcDbLine
 62
7
  6
CONTINUOUS
 10
140.2877548871
 20
223.9204788273
 11
140.677970163
 21
222.9546621279
  0
LINE
  5
316
100
AcDbEntity
  8
0
100
AcDbLine
 62
7
  6
CONTINUOUS
 10
139.1301025269
 20
230.1935993766
 11
139.7544469237
 21
228.6482927681
  0
LINE
  5
317
100
AcDbEntity
  8
0
100
AcDbLine
 62
7
  6
CONTINUOUS
 10
142.9542115386
 20
220.7285974358
 11
145.7637609892
 21
213.7747185265
  0
LINE
  5
318
100
AcDbEntity
  8
0
100
AcDbLine
 62
7
  6
CONTINUOUS
 10
146.7501268125
 20
214.1732361874
 11
144.5649215354
 21
219.5818090408
  0
LINE
  5
319
100
AcDbEntity
  8
0
100
AcDbLine
 62
7
  6
CONTINUOUS
 10
143.3162331884
 20
222.6724211525
 11
142.9260176892
 21
223.6382384045
  0
LINE
  5
31A
100
AcDbEntity
  8
0
100
AcDbLine
 62
7
  6
CONTINUOUS
 10
140.6627696695
 20
229.2399738241
 11
140.1945114277
 21
230.3989536423
  0
LINE
  5
31B
100
AcDbEntity
  8
0
100
AcDbLine
 62
7
  6
CONTINUOUS
 10
140.5977199758
 20
232.8088078776
 11
140.2075047836
 21
233.7746243697
  0
LINE
  5
31C
100
AcDbEntity
  8
0
100
AcDbLine
 62
7
  6
CONTINUOUS
 10
140.1945114277
 20
230.3989536423
 11
140.0015693447
 21
231.4444737246
  0
LINE
  5
31D
100
AcDbEntity
  8
0
100
AcDbLine
 62
7
  6
CONTINUOUS
 10
139.0152035386
 20
231.0459560706
 11
139.1301025269
 21
230.1935993766
  0
LINE
  5
31E
100
AcDbEntity
  8
0
100
AcDbLine
 62
7
  6
CONTINUOUS
 10
147.797211144
 20
209.8776962188
 11
147.8340671106
 21
209.2185027817
  0
LINE
  5
31F
100
AcDbEntity
  8
0
100
AcDbLine
 62
7
  6
CONTINUOUS
 10
144.5971551146
 20
193.897885527
 11
144.5971551146
 21
200.897885527
  0
LINE
  5
320
100
AcDbEntity
  8
BEZUGSACHSEN
100
AcDbLine
 62
7
  6
CONTINUOUS
 10
145.9658226079
 20
193.897885527
 11
145.9658226079
 21
199.897885527
  0
LINE
  5
321
100
AcDbEntity
  8
0
100
AcDbLine
 62
7
  6
CONTINUOUS
 10
144.952929897
 20
228.2769742124
 11
144.9572608952
 21
229.4021979538
  0
LINE
  5
322
100
AcDbEntity
  8
0
100
AcDbLine
 62
7
  6
CONTINUOUS
 10
149.0588103434
 20
230.609941807
 11
149.1411845307
 21
231.542001877
  0
LINE
  5
323
100
AcDbEntity
  8
0
100
AcDbLine
 62
7
  6
CONTINUOUS
 10
148.0767756564
 20
231.3366479434
 11
147.9163585033
 21
230.5977509923
  0
LINE
  5
324
100
AcDbEntity
  8
0
100
AcDbLine
 62
7
  6
CONTINUOUS
 10
152.8330702651
 20
218.4284623484
 11
152.3973367858
 21
217.8030255477
  0
LINE
  5
325
100
AcDbEntity
  8
0
100
AcDbLine
 62
7
  6
CONTINUOUS
 10
151.9008845565
 20
221.8716462789
 11
152.4883731927
 21
220.9855325479
  0
LINE
  5
326
100
AcDbEntity
  8
0
100
AcDbLine
 62
7
  6
CONTINUOUS
 10
146.9841731853
 20
234.0409339556
 11
147.5716615425
 21
233.1548209154
  0
LINE
  5
327
100
AcDbEntity
  8
0
100
AcDbLine
 62
7
  6
CONTINUOUS
 10
153.5527816204
 20
221.1908875868
 11
152.809207499
 21
222.4633264501
  0
LINE
  5
328
100
AcDbEntity
  8
0
100
AcDbLine
 62
7
  6
CONTINUOUS
 10
143.6261982492
 20
231.5607502719
 11
143.938370336
 21
230.7880972439
  0
LINE
  5
329
100
AcDbEntity
  8
0
100
AcDbLine
 62
7
  6
CONTINUOUS
 10
144.7274628841
 20
231.106911328
 11
144.4152907973
 21
231.8795643559
  0
LINE
  5
32A
100
AcDbEntity
  8
0
100
AcDbLine
 62
7
  6
CONTINUOUS
 10
151.9117539987
 20
214.461110177
 11
152.5360977257
 21
212.9158052265
  0
LINE
  5
32B
100
AcDbEntity
  8
0
100
AcDbLine
 62
7
  6
CONTINUOUS
 10
152.9263132249
 20
211.9499879744
 11
153.7847869658
 21
209.8251909042
  0
LINE
  5
32C
100
AcDbEntity
  8
0
100
AcDbLine
 62
7
  6
CONTINUOUS
 10
154.5738795139
 20
210.1440049882
 11
153.715405773
 21
212.2688020585
  0
LINE
  5
32D
100
AcDbEntity
  8
0
100
AcDbLine
 62
7
  6
CONTINUOUS
 10
153.3251902738
 20
213.2346193105
 11
152.7008465469
 21
214.7799242611
  0
LINE
  5
32E
100
AcDbEntity
  8
0
100
AcDbLine
 62
7
  6
CONTINUOUS
 10
145.217377081
 20
235.5740494212
 11
145.6075922801
 21
234.6082329118
  0
LINE
  5
32F
100
AcDbEntity
  8
0
100
AcDbLine
 62
7
  6
CONTINUOUS
 10
150.1340887661
 20
223.4047609673
 11
150.5243038187
 21
222.4389448206
  0
LINE
  5
330
100
AcDbEntity
  8
0
100
AcDbLine
 62
7
  6
CONTINUOUS
 10
147.8340671106
 20
209.2185027817
 11
148.1050521981
 21
207.9798194355
  0
LINE
  5
331
100
AcDbEntity
  8
0
100
AcDbLine
 62
7
  6
CONTINUOUS
 10
143.938370336
 20
230.7880972439
 11
144.2093555524
 21
229.5494136284
  0
LINE
  5
332
100
AcDbEntity
  8
0
100
AcDbLine
 62
7
  6
CONTINUOUS
 10
148.8941448153
 20
208.2986335474
 11
148.7012025222
 21
209.3441543484
  0
LINE
  5
333
100
AcDbEntity
  8
0
100
AcDbLine
 62
7
  6
CONTINUOUS
 10
147.9576283317
 20
210.6165931838
 11
147.797211144
 21
209.8776962188
  0
LINE
  5
334
100
AcDbEntity
  8
0
100
AcDbLine
 62
7
  6
CONTINUOUS
 10
148.7012025222
 20
209.3441543484
 11
148.8616196753
 21
210.0830512995
  0
LINE
  5
335
100
AcDbEntity
  8
0
100
AcDbLine
 62
7
  6
CONTINUOUS
 10
152.9934874183
 20
219.1673592995
 11
152.8330702651
 21
218.4284623484
  0
LINE
  5
336
100
AcDbEntity
  8
0
100
AcDbLine
 62
7
  6
CONTINUOUS
 10
153.5766448331
 20
217.1560223798
 11
154.0535650712
 21
218.2474900444
  0
LINE
  5
337
100
AcDbEntity
  8
0
100
AcDbLine
 62
7
  6
CONTINUOUS
 10
148.6360701935
 20
233.3601754016
 11
147.892495793
 21
234.6326149558
  0
LINE
  5
338
100
AcDbEntity
  8
0
100
AcDbLine
 62
7
  6
CONTINUOUS
 10
155.2935914219
 20
212.9064304499
 11
154.9033759227
 21
213.8722477019
  0
LINE
  5
339
100
AcDbEntity
  8
0
100
AcDbLine
 62
7
  6
CONTINUOUS
 10
147.5716615425
 20
233.1548209154
 11
147.8838336292
 21
232.3821678875
  0
LINE
  5
33A
100
AcDbEntity
  8
0
100
AcDbLine
 62
7
  6
CONTINUOUS
 10
152.4883731927
 20
220.9855325479
 11
152.8005450561
 21
220.2128800726
  0
LINE
  5
33B
100
AcDbEntity
  8
0
100
AcDbLine
 62
7
  6
CONTINUOUS
 10
153.8649539304
 20
220.4182340062
 11
153.5527816204
 21
221.1908875868
  0
LINE
  5
33C
100
AcDbEntity
  8
0
100
AcDbLine
 62
7
  6
CONTINUOUS
 10
148.7921563485
 20
232.9738486113
 11
148.6360701935
 21
233.3601754016
  0
LINE
  5
33D
100
AcDbEntity
  8
0
100
AcDbLine
 62
7
  6
CONTINUOUS
 10
149.1411845307
 20
231.542001877
 11
148.7921563485
 21
232.9738486113
  0
LINE
  5
33E
100
AcDbEntity
  8
0
100
AcDbLine
 62
7
  6
CONTINUOUS
 10
154.1359390352
 20
219.179550667
 11
153.8649539304
 21
220.4182340062
  0
LINE
  5
33F
100
AcDbEntity
  8
0
100
AcDbLine
 62
7
  6
CONTINUOUS
 10
147.8838336292
 20
232.3821678875
 11
148.0767756564
 21
231.3366479434
  0
LINE
  5
340
100
AcDbEntity
  8
0
100
AcDbLine
 62
7
  6
CONTINUOUS
 10
152.8005450561
 20
220.2128800726
 11
152.9934874183
 21
219.1673592995
  0
LINE
  5
341
100
AcDbEntity
  8
0
100
AcDbLine
 62
7
  6
CONTINUOUS
 10
154.0535650712
 20
218.2474900444
 11
154.1359390352
 21
219.179550667
  0
LINE
  5
342
100
AcDbEntity
  8
RUNDUNGEN
100
AcDbLine
 62
7
  6
CONTINUOUS
 10
163.1395842832
 20
210.146100386
 11
154.5660065615
 21
231.4338357066
  0
LINE
  5
343
100
AcDbEntity
  8
RUNDUNGEN
100
AcDbLine
 62
7
  6
CONTINUOUS
 10
164.6275
 20
184.897885527
 11
164.6275
 21
202.4688975893
  0
LINE
  5
344
100
AcDbEntity
  8
FASEN
100
AcDbLine
 62
7
  6
CONTINUOUS
 10
138.4274999981
 20
168.8978855251
 11
139.6274999976
 21
170.0978855246
  0
LINE
  5
345
100
AcDbEntity
  8
FASEN
100
AcDbLine
 62
7
  6
CONTINUOUS
 10
222.6636862929
 20
168.897885527
 11
221.4636862929
 21
170.097885527
  0
LINE
  5
346
100
AcDbEntity
  8
FASEN
100
AcDbLine
 62
7
  6
CONTINUOUS
 10
302.2636862929
 20
168.897885527
 11
292.6636862929
 21
168.897885527
  0
LINE
  5
347
100
AcDbEntity
  8
FASEN
100
AcDbLine
 62
7
  6
CONTINUOUS
 10
232.2636862929
 20
168.897885527
 11
222.6636862929
 21
168.897885527
  0
LINE
  5
348
100
AcDbEntity
  8
FASEN
100
AcDbLine
 62
7
  6
CONTINUOUS
 10
303.4636862929
 20
170.097885527
 11
291.4636862929
 21
170.097885527
  0
LINE
  5
349
100
AcDbEntity
  8
FASEN
100
AcDbLine
 62
7
  6
CONTINUOUS
 10
233.4636862929
 20
170.097885527
 11
221.4636862929
 21
170.097885527
  0
LINE
  5
34A
100
AcDbEntity
  8
RUNDUNGEN
100
AcDbLine
 62
7
  6
CONTINUOUS
 10
216.4636862929
 20
184.897885527
 11
216.4636862929
 21
193.897885527
  0
LINE
  5
34B
100
AcDbEntity
  8
BEZUGSACHSEN
100
AcDbLine
 62
7
  6
CONTINUOUS
 10
216.4636862929
 20
184.897885527
 11
216.4636862929
 21
199.897885527
  0
LINE
  5
34C
100
AcDbEntity
  8
BEZUGSACHSEN
100
AcDbLine
 62
7
  6
CONTINUOUS
 10
216.5085142166
 20
193.897885527
 11
216.5085142166
 21
199.897885527
  0
LINE
  5
34D
100
AcDbEntity
  8
0
100
AcDbLine
 62
7
  6
CONTINUOUS
 10
217.9636862929
 20
199.897885527
 11
217.9636862929
 21
200.897885527
  0
LINE
  5
34E
100
AcDbEntity
  8
0
100
AcDbLine
 62
7
  6
CONTINUOUS
 10
219.6447117541
 20
200.897885527
 11
219.6447117541
 21
201.097885527
  0
LINE
  5
34F
100
AcDbEntity
  8
0
100
AcDbLine
 62
7
  6
CONTINUOUS
 10
220.3536849646
 20
200.897885527
 11
220.3536849646
 21
201.097885527
  0
LINE
  5
350
100
AcDbEntity
  8
0
100
AcDbLine
 62
7
  6
CONTINUOUS
 10
220.3670130824
 20
200.897885527
 11
220.3670130824
 21
201.097885527
  0
LINE
  5
351
100
AcDbEntity
  8
0
100
AcDbLine
 62
7
  6
CONTINUOUS
 10
220.4525495151
 20
200.897885527
 11
220.4525495151
 21
201.097885527
  0
LINE
  5
352
100
AcDbEntity
  8
0
100
AcDbLine
 62
7
  6
CONTINUOUS
 10
221.0835273027
 20
200.897885527
 11
221.0835273027
 21
201.097885527
  0
LINE
  5
353
100
AcDbEntity
  8
BEZUGSACHSEN
100
AcDbLine
 62
7
  6
CONTINUOUS
 10
221.4636862929
 20
170.097885527
 11
221.4636862929
 21
184.897885527
  0
LINE
  5
354
100
AcDbEntity
  8
0
100
AcDbLine
 62
7
  6
CONTINUOUS
 10
222.1360835967
 20
200.897885527
 11
222.1360835967
 21
201.097885527
  0
LINE
  5
355
100
AcDbEntity
  8
0
100
AcDbLine
 62
7
  6
CONTINUOUS
 10
222.3929268467
 20
200.897885527
 11
222.3929268467
 21
201.097885527
  0
LINE
  5
356
100
AcDbEntity
  8
0
100
AcDbLine
 62
7
  6
CONTINUOUS
 10
223.3322171508
 20
200.897885527
 11
223.3322171508
 21
201.097885527
  0
LINE
  5
357
100
AcDbEntity
  8
0
100
AcDbLine
 62
7
  6
CONTINUOUS
 10
223.4202998468
 20
200.897885527
 11
223.4202998468
 21
201.097885527
  0
LINE
  5
358
100
AcDbEntity
  8
0
100
AcDbLine
 62
7
  6
CONTINUOUS
 10
223.6771432192
 20
200.897885527
 11
223.6771432192
 21
201.097885527
  0
LINE
  5
359
100
AcDbEntity
  8
0
100
AcDbLine
 62
7
  6
CONTINUOUS
 10
224.6164335234
 20
200.897885527
 11
224.6164335234
 21
201.097885527
  0
LINE
  5
35A
100
AcDbEntity
  8
0
100
AcDbLine
 62
7
  6
CONTINUOUS
 10
224.725124649
 20
200.897885527
 11
224.725124649
 21
201.097885527
  0
LINE
  5
35B
100
AcDbEntity
  8
0
100
AcDbLine
 62
7
  6
CONTINUOUS
 10
224.7607089452
 20
200.897885527
 11
224.7607089452
 21
201.097885527
  0
LINE
  5
35C
100
AcDbEntity
  8
0
100
AcDbLine
 62
7
  6
CONTINUOUS
 10
225.2143875684
 20
200.897885527
 11
225.2143875684
 21
201.097885527
  0
LINE
  5
35D
100
AcDbEntity
  8
0
100
AcDbLine
 62
7
  6
CONTINUOUS
 10
225.2370734322
 20
200.897885527
 11
225.2370734322
 21
201.097885527
  0
LINE
  5
35E
100
AcDbEntity
  8
0
100
AcDbLine
 62
7
  6
CONTINUOUS
 10
225.3527255912
 20
200.897885527
 11
225.3527255912
 21
201.097885527
  0
LINE
  5
35F
100
AcDbEntity
  8
0
100
AcDbLine
 62
7
  6
CONTINUOUS
 10
225.5291391506
 20
200.897885527
 11
225.5291391506
 21
201.097885527
  0
LINE
  5
360
100
AcDbEntity
  8
0
100
AcDbLine
 62
7
  6
CONTINUOUS
 10
225.7758331414
 20
200.897885527
 11
225.7758331414
 21
201.097885527
  0
LINE
  5
361
100
AcDbEntity
  8
0
100
AcDbLine
 62
7
  6
CONTINUOUS
 10
227.0056547064
 20
200.897885527
 11
227.0056547064
 21
201.097885527
  0
LINE
  5
362
100
AcDbEntity
  8
0
100
AcDbLine
 62
7
  6
CONTINUOUS
 10
227.4530423157
 20
200.897885527
 11
227.4530423157
 21
201.097885527
  0
LINE
  5
363
100
AcDbEntity
  8
0
100
AcDbLine
 62
7
  6
CONTINUOUS
 10
227.4636862929
 20
199.897885527
 11
227.4636862929
 21
200.897885527
  0
LINE
  5
364
100
AcDbEntity
  8
RUNDUNGEN
100
AcDbLine
 62
7
  6
CONTINUOUS
 10
308.4636862929
 20
184.897885527
 11
216.4636862929
 21
184.897885527
  0
LINE
  5
365
100
AcDbEntity
  8
BEZUGSACHSEN
100
AcDbLine
 62
7
  6
CONTINUOUS
 10
233.4636862929
 20
170.097885527
 11
233.4636862929
 21
184.897885527
  0
LINE
  5
366
100
AcDbEntity
  8
0
100
AcDbLine
 62
7
  6
CONTINUOUS
 10
236.9636862929
 20
199.897885527
 11
236.9636862929
 21
200.897885527
  0
LINE
  5
367
100
AcDbEntity
  8
BEZUGSACHSEN
100
AcDbLine
 62
7
  6
CONTINUOUS
 10
308.4636862929
 20
193.897885527
 11
308.4188583693
 21
193.897885527
  0
LINE
  5
368
100
AcDbEntity
  8
BEZUGSACHSEN
100
AcDbLine
 62
7
  6
CONTINUOUS
 10
216.4636862929
 20
193.897885527
 11
216.5085142166
 21
193.897885527
  0
LINE
  5
369
100
AcDbEntity
  8
RUNDUNGEN
100
AcDbLine
 62
7
  6
CONTINUOUS
 10
288.4636862929
 20
199.897885527
 11
265.4636862929
 21
199.897885527
  0
LINE
  5
36A
100
AcDbEntity
  8
RUNDUNGEN
100
AcDbLine
 62
7
  6
CONTINUOUS
 10
259.4636862929
 20
199.897885527
 11
236.4636862929
 21
199.897885527
  0
LINE
  5
36B
100
AcDbEntity
  8
BEZUGSACHSEN
100
AcDbLine
 62
7
  6
CONTINUOUS
 10
216.4636862929
 20
199.897885527
 11
236.4636862929
 21
199.897885527
  0
LINE
  5
36C
100
AcDbEntity
  8
BEZUGSACHSEN
100
AcDbLine
 62
7
  6
CONTINUOUS
 10
288.4636862929
 20
199.897885527
 11
308.4636862929
 21
199.897885527
  0
LINE
  5
36D
100
AcDbEntity
  8
0
100
AcDbLine
 62
7
  6
CONTINUOUS
 10
217.9636862929
 20
200.897885527
 11
236.9636862929
 21
200.897885527
  0
LINE
  5
36E
100
AcDbEntity
  8
0
100
AcDbLine
 62
7
  6
CONTINUOUS
 10
287.9636862929
 20
200.897885527
 11
306.9636862929
 21
200.897885527
  0
LINE
  5
36F
100
AcDbEntity
  8
0
100
AcDbLine
 62
7
  6
CONTINUOUS
 10
219.6447117541
 20
201.097885527
 11
227.4530423157
 21
201.097885527
  0
LINE
  5
370
100
AcDbEntity
  8
0
100
AcDbLine
 62
7
  6
CONTINUOUS
 10
289.6447117541
 20
201.097885527
 11
297.4530423157
 21
201.097885527
  0
LINE
  5
371
100
AcDbEntity
  8
FASEN
100
AcDbLine
 62
7
  6
CONTINUOUS
 10
292.6636862929
 20
168.897885527
 11
291.4636862929
 21
170.097885527
  0
LINE
  5
372
100
AcDbEntity
  8
BEZUGSACHSEN
100
AcDbLine
 62
7
  6
CONTINUOUS
 10
250.9636862929
 20
225.4907521218
 11
250.9636862929
 21
264.3343014792
  0
LINE
  5
373
100
AcDbEntity
  8
BEZUGSACHSEN
100
AcDbLine
 62
7
  6
CONTINUOUS
 10
245.3912284461
 20
206.477683422
 11
249.6972883208
 21
218.3084856945
  0
LINE
  5
374
100
AcDbEntity
  8
0
100
AcDbLine
 62
7
  6
CONTINUOUS
 10
268.4636862929
 20
206.827885527
 11
269.3636862929
 21
206.827885527
  0
LINE
  5
375
100
AcDbEntity
  8
0
100
AcDbLine
 62
7
  6
CONTINUOUS
 10
268.4636862929
 20
209.8195591729
 11
269.3636862929
 21
209.8195591729
  0
LINE
  5
376
100
AcDbEntity
  8
0
100
AcDbLine
 62
7
  6
CONTINUOUS
 10
255.5636862929
 20
227.7359499058
 11
255.5636862929
 21
230.1113208242
  0
LINE
  5
377
100
AcDbEntity
  8
0
100
AcDbLine
 62
7
  6
CONTINUOUS
 10
255.5636862929
 20
230.1303026149
 11
255.5636862929
 21
233.5211528608
  0
LINE
  5
378
100
AcDbEntity
  8
0
100
AcDbLine
 62
7
  6
CONTINUOUS
 10
255.5636862929
 20
234.0895861631
 11
255.5636862929
 21
239.8747891181
  0
LINE
  5
379
100
AcDbEntity
  8
RUNDUNGEN
100
AcDbLine
 62
7
  6
CONTINUOUS
 10
256.4636862929
 20
199.897885527
 11
256.4636862929
 21
267.897885527
  0
LINE
  5
37A
100
AcDbEntity
  8
0
100
AcDbLine
 62
7
  6
CONTINUOUS
 10
268.4636862929
 20
213.5293397862
 11
269.3636862929
 21
213.5293397862
  0
LINE
  5
37B
100
AcDbEntity
  8
0
100
AcDbLine
 62
7
  6
CONTINUOUS
 10
268.4636862929
 20
214.2385582715
 11
269.3636862929
 21
214.2385582715
  0
LINE
  5
37C
100
AcDbEntity
  8
0
100
AcDbLine
 62
7
  6
CONTINUOUS
 10
268.4636862929
 20
214.6658970235
 11
269.3636862929
 21
214.6658970235
  0
LINE
  5
37D
100
AcDbEntity
  8
0
100
AcDbLine
 62
7
  6
CONTINUOUS
 10
268.4636862929
 20
214.8750091075
 11
269.3636862929
 21
214.8750091075
  0
LINE
  5
37E
100
AcDbEntity
  8
0
100
AcDbLine
 62
7
  6
CONTINUOUS
 10
268.4636862929
 20
214.9567402817
 11
269.3636862929
 21
214.9567402817
  0
LINE
  5
37F
100
AcDbEntity
  8
0
100
AcDbLine
 62
7
  6
CONTINUOUS
 10
268.4636862929
 20
216.9299718677
 11
269.3636862929
 21
216.9299718677
  0
LINE
  5
380
100
AcDbEntity
  8
0
100
AcDbLine
 62
7
  6
CONTINUOUS
 10
268.4636862929
 20
217.8574174632
 11
269.3636862929
 21
217.8574174632
  0
LINE
  5
381
100
AcDbEntity
  8
0
100
AcDbLine
 62
7
  6
CONTINUOUS
 10
268.4636862929
 20
218.0936476842
 11
269.3636862929
 21
218.0936476842
  0
LINE
  5
382
100
AcDbEntity
  8
0
100
AcDbLine
 62
7
  6
CONTINUOUS
 10
268.4636862929
 20
218.6846755518
 11
269.3636862929
 21
218.6846755518
  0
LINE
  5
383
100
AcDbEntity
  8
0
100
AcDbLine
 62
7
  6
CONTINUOUS
 10
268.4636862929
 20
219.1847815109
 11
269.3636862929
 21
219.1847815109
  0
LINE
  5
384
100
AcDbEntity
  8
0
100
AcDbLine
 62
7
  6
CONTINUOUS
 10
268.4636862929
 20
219.5939664907
 11
269.3636862929
 21
219.5939664907
  0
LINE
  5
385
100
AcDbEntity
  8
0
100
AcDbLine
 62
7
  6
CONTINUOUS
 10
268.4636862929
 20
221.5671980766
 11
269.3636862929
 21
221.5671980766
  0
LINE
  5
386
100
AcDbEntity
  8
0
100
AcDbLine
 62
7
  6
CONTINUOUS
 10
268.4636862929
 20
222.4946432299
 11
269.3636862929
 21
222.4946432299
  0
LINE
  5
387
100
AcDbEntity
  8
0
100
AcDbLine
 62
7
  6
CONTINUOUS
 10
268.4636862929
 20
223.7312364729
 11
269.3636862929
 21
223.7312364729
  0
LINE
  5
388
100
AcDbEntity
  8
RUNDUNGEN
100
AcDbLine
 62
7
  6
CONTINUOUS
 10
268.4636862929
 20
267.897885527
 11
268.4636862929
 21
199.897885527
  0
LINE
  5
389
100
AcDbEntity
  8
0
100
AcDbLine
 62
7
  6
CONTINUOUS
 10
269.3636862929
 20
229.0594511146
 11
269.3636862929
 21
206.827885527
  0
LINE
  5
38A
100
AcDbEntity
  8
0
100
AcDbLine
 62
7
  6
CONTINUOUS
 10
268.4636862929
 20
227.4410170862
 11
269.3636862929
 21
227.4410170862
  0
LINE
  5
38B
100
AcDbEntity
  8
0
100
AcDbLine
 62
7
  6
CONTINUOUS
 10
256.4636862929
 20
227.7359499058
 11
255.5636862929
 21
227.7359499058
  0
LINE
  5
38C
100
AcDbEntity
  8
0
100
AcDbLine
 62
7
  6
CONTINUOUS
 10
268.4636862929
 20
228.1502360138
 11
269.3636862929
 21
228.1502360138
  0
LINE
  5
38D
100
AcDbEntity
  8
0
100
AcDbLine
 62
7
  6
CONTINUOUS
 10
256.4636862929
 20
228.1646092978
 11
255.5636862929
 21
228.1646092978
  0
LINE
  5
38E
100
AcDbEntity
  8
0
100
AcDbLine
 62
7
  6
CONTINUOUS
 10
268.4636862929
 20
228.6412269467
 11
269.3636862929
 21
228.6412269467
  0
LINE
  5
38F
100
AcDbEntity
  8
0
100
AcDbLine
 62
7
  6
CONTINUOUS
 10
268.4636862929
 20
229.0049126332
 11
269.3636862929
 21
229.0049126332
  0
LINE
  5
390
100
AcDbEntity
  8
0
100
AcDbLine
 62
7
  6
CONTINUOUS
 10
268.4636862929
 20
229.0594511146
 11
269.3636862929
 21
229.0594511146
  0
LINE
  5
391
100
AcDbEntity
  8
BEZUGSACHSEN
100
AcDbLine
 62
7
  6
CONTINUOUS
 10
273.9636862929
 20
225.4907521218
 11
273.9636862929
 21
252.9068322524
  0
LINE
  5
392
100
AcDbEntity
  8
RUNDUNGEN
100
AcDbLine
 62
7
  6
CONTINUOUS
 10
273.9636862929
 20
252.9068322524
 11
273.9636862929
 21
264.3343014792
  0
LINE
  5
393
100
AcDbEntity
  8
0
100
AcDbLine
 62
7
  6
CONTINUOUS
 10
256.4636862929
 20
229.6826614322
 11
255.5636862929
 21
229.6826614322
  0
LINE
  5
394
100
AcDbEntity
  8
0
100
AcDbLine
 62
7
  6
CONTINUOUS
 10
256.4636862929
 20
230.1113208242
 11
255.5636862929
 21
230.1113208242
  0
LINE
  5
395
100
AcDbEntity
  8
0
100
AcDbLine
 62
7
  6
CONTINUOUS
 10
256.4636862929
 20
230.1303026149
 11
255.5636862929
 21
230.1303026149
  0
LINE
  5
396
100
AcDbEntity
  8
0
100
AcDbLine
 62
7
  6
CONTINUOUS
 10
256.4636862929
 20
230.5589620069
 11
255.5636862929
 21
230.5589620069
  0
LINE
  5
397
100
AcDbEntity
  8
0
100
AcDbLine
 62
7
  6
CONTINUOUS
 10
256.4636862929
 20
233.5214549661
 11
255.5636862929
 21
233.5214549661
  0
LINE
  5
398
100
AcDbEntity
  8
0
100
AcDbLine
 62
7
  6
CONTINUOUS
 10
256.4636862929
 20
234.0895861631
 11
255.5636862929
 21
234.0895861631
  0
LINE
  5
399
100
AcDbEntity
  8
BEZUGSACHSEN
100
AcDbLine
 62
7
  6
CONTINUOUS
 10
279.5361441397
 20
206.477683422
 11
275.2300842651
 21
218.3084856945
  0
LINE
  5
39A
100
AcDbEntity
  8
FASEN
100
AcDbLine
 62
7
  6
CONTINUOUS
 10
232.2636862929
 20
168.897885527
 11
233.4636862929
 21
170.097885527
  0
LINE
  5
39B
100
AcDbEntity
  8
0
100
AcDbLine
 62
7
  6
CONTINUOUS
 10
256.4636862929
 20
234.5182455551
 11
255.5636862929
 21
234.5182455551
  0
LINE
  5
39C
100
AcDbEntity
  8
0
100
AcDbLine
 62
7
  6
CONTINUOUS
 10
256.4636862929
 20
236.4839388722
 11
255.5636862929
 21
236.4839388722
  0
LINE
  5
39D
100
AcDbEntity
  8
0
100
AcDbLine
 62
7
  6
CONTINUOUS
 10
256.4636862929
 20
236.9125982642
 11
255.5636862929
 21
236.9125982642
  0
LINE
  5
39E
100
AcDbEntity
  8
0
100
AcDbLine
 62
7
  6
CONTINUOUS
 10
256.4636862929
 20
239.8750912234
 11
255.5636862929
 21
239.8750912234
  0
LINE
  5
39F
100
AcDbEntity
  8
0
100
AcDbLine
 62
7
  6
CONTINUOUS
 10
287.9636862929
 20
199.897885527
 11
287.9636862929
 21
200.897885527
  0
LINE
  5
3A0
100
AcDbEntity
  8
0
100
AcDbLine
 62
7
  6
CONTINUOUS
 10
289.6447117541
 20
200.897885527
 11
289.6447117541
 21
201.097885527
  0
LINE
  5
3A1
100
AcDbEntity
  8
0
100
AcDbLine
 62
7
  6
CONTINUOUS
 10
290.3536849646
 20
200.897885527
 11
290.3536849646
 21
201.097885527
  0
LINE
  5
3A2
100
AcDbEntity
  8
0
100
AcDbLine
 62
7
  6
CONTINUOUS
 10
290.3670130824
 20
200.897885527
 11
290.3670130824
 21
201.097885527
  0
LINE
  5
3A3
100
AcDbEntity
  8
0
100
AcDbLine
 62
7
  6
CONTINUOUS
 10
290.4525495151
 20
200.897885527
 11
290.4525495151
 21
201.097885527
  0
LINE
  5
3A4
100
AcDbEntity
  8
0
100
AcDbLine
 62
7
  6
CONTINUOUS
 10
291.0835273027
 20
200.897885527
 11
291.0835273027
 21
201.097885527
  0
LINE
  5
3A5
100
AcDbEntity
  8
BEZUGSACHSEN
100
AcDbLine
 62
7
  6
CONTINUOUS
 10
291.4636862929
 20
184.897885527
 11
291.4636862929
 21
170.097885527
  0
LINE
  5
3A6
100
AcDbEntity
  8
0
100
AcDbLine
 62
7
  6
CONTINUOUS
 10
292.1360835967
 20
200.897885527
 11
292.1360835967
 21
201.097885527
  0
LINE
  5
3A7
100
AcDbEntity
  8
0
100
AcDbLine
 62
7
  6
CONTINUOUS
 10
292.3929268467
 20
200.897885527
 11
292.3929268467
 21
201.097885527
  0
LINE
  5
3A8
100
AcDbEntity
  8
0
100
AcDbLine
 62
7
  6
CONTINUOUS
 10
293.3322171508
 20
200.897885527
 11
293.3322171508
 21
201.097885527
  0
LINE
  5
3A9
100
AcDbEntity
  8
0
100
AcDbLine
 62
7
  6
CONTINUOUS
 10
293.4202998468
 20
200.897885527
 11
293.4202998468
 21
201.097885527
  0
LINE
  5
3AA
100
AcDbEntity
  8
0
100
AcDbLine
 62
7
  6
CONTINUOUS
 10
293.6771432192
 20
200.897885527
 11
293.6771432192
 21
201.097885527
  0
LINE
  5
3AB
100
AcDbEntity
  8
0
100
AcDbLine
 62
7
  6
CONTINUOUS
 10
294.6164335234
 20
200.897885527
 11
294.6164335234
 21
201.097885527
  0
LINE
  5
3AC
100
AcDbEntity
  8
0
100
AcDbLine
 62
7
  6
CONTINUOUS
 10
294.725124649
 20
200.897885527
 11
294.725124649
 21
201.097885527
  0
LINE
  5
3AD
100
AcDbEntity
  8
0
100
AcDbLine
 62
7
  6
CONTINUOUS
 10
294.7607089452
 20
200.897885527
 11
294.7607089452
 21
201.097885527
  0
LINE
  5
3AE
100
AcDbEntity
  8
0
100
AcDbLine
 62
7
  6
CONTINUOUS
 10
295.2143875684
 20
200.897885527
 11
295.2143875684
 21
201.097885527
  0
LINE
  5
3AF
100
AcDbEntity
  8
0
100
AcDbLine
 62
7
  6
CONTINUOUS
 10
295.2370734322
 20
200.897885527
 11
295.2370734322
 21
201.097885527
  0
LINE
  5
3B0
100
AcDbEntity
  8
0
100
AcDbLine
 62
7
  6
CONTINUOUS
 10
295.3527255912
 20
200.897885527
 11
295.3527255912
 21
201.097885527
  0
LINE
  5
3B1
100
AcDbEntity
  8
0
100
AcDbLine
 62
7
  6
CONTINUOUS
 10
295.5291391506
 20
200.897885527
 11
295.5291391506
 21
201.097885527
  0
LINE
  5
3B2
100
AcDbEntity
  8
0
100
AcDbLine
 62
7
  6
CONTINUOUS
 10
295.7758331414
 20
200.897885527
 11
295.7758331414
 21
201.097885527
  0
LINE
  5
3B3
100
AcDbEntity
  8
0
100
AcDbLine
 62
7
  6
CONTINUOUS
 10
297.0056547064
 20
200.897885527
 11
297.0056547064
 21
201.097885527
  0
LINE
  5
3B4
100
AcDbEntity
  8
0
100
AcDbLine
 62
7
  6
CONTINUOUS
 10
297.4530423157
 20
200.897885527
 11
297.4530423157
 21
201.097885527
  0
LINE
  5
3B5
100
AcDbEntity
  8
0
100
AcDbLine
 62
7
  6
CONTINUOUS
 10
297.4636862929
 20
199.897885527
 11
297.4636862929
 21
200.897885527
  0
LINE
  5
3B6
100
AcDbEntity
  8
BEZUGSACHSEN
100
AcDbLine
 62
7
  6
CONTINUOUS
 10
303.4636862929
 20
184.897885527
 11
303.4636862929
 21
170.097885527
  0
LINE
  5
3B7
100
AcDbEntity
  8
0
100
AcDbLine
 62
7
  6
CONTINUOUS
 10
306.9636862929
 20
199.897885527
 11
306.9636862929
 21
200.897885527
  0
LINE
  5
3B8
100
AcDbEntity
  8
BEZUGSACHSEN
100
AcDbLine
 62
7
  6
CONTINUOUS
 10
308.4188583693
 20
199.897885527
 11
308.4188583693
 21
193.897885527
  0
LINE
  5
3B9
100
AcDbEntity
  8
RUNDUNGEN
100
AcDbLine
 62
7
  6
CONTINUOUS
 10
308.4636862929
 20
193.897885527
 11
308.4636862929
 21
184.897885527
  0
LINE
  5
3BA
100
AcDbEntity
  8
BEZUGSACHSEN
100
AcDbLine
 62
7
  6
CONTINUOUS
 10
308.4636862929
 20
184.897885527
 11
308.4636862929
 21
199.897885527
  0
LINE
  5
3BB
100
AcDbEntity
  8
BEZUGSACHSEN
100
AcDbLine
 62
7
  6
CONTINUOUS
 10
253.9636862929
 20
267.3343014792
 11
256.4636862929
 21
267.3343014792
  0
LINE
  5
3BC
100
AcDbEntity
  8
RUNDUNGEN
100
AcDbLine
 62
7
  6
CONTINUOUS
 10
268.4636862929
 20
267.3343014792
 11
270.9636862929
 21
267.3343014792
  0
LINE
  5
3BD
100
AcDbEntity
  8
0
100
AcDbLine
 62
7
  6
CONTINUOUS
 10
259.4636862929
 20
270.897885527
 11
265.4636862929
 21
270.897885527
  0
LINE
  5
3BE
100
AcDbEntity
  8
FASEN
100
AcDbLine
 62
7
  6
CONTINUOUS
 10
302.2636862929
 20
168.897885527
 11
303.4636862929
 21
170.097885527
  0
LINE
  5
3BF
100
AcDbEntity
  8
BEZUGSACHSEN
100
AcDbLine
 62
7
  6
CONTINUOUS
 10
27.6275
 20
108.03
 11
27.6275
 21
102.03
  0
LINE
  5
3C0
100
AcDbEntity
  8
RUNDUNGEN
100
AcDbLine
 62
7
  6
CONTINUOUS
 10
27.6275
 20
79.03
 11
27.6275
 21
131.03
  0
LINE
  5
3C1
100
AcDbEntity
  8
0
100
AcDbLine
 62
7
  6
CONTINUOUS
 10
38.3079387733
 20
99.03
 11
38.3079387733
 21
98.13
  0
LINE
  5
3C2
100
AcDbEntity
  8
0
100
AcDbLine
 62
7
  6
CONTINUOUS
 10
39.8037755963
 20
99.03
 11
39.8037755963
 21
98.13
  0
LINE
  5
3C3
100
AcDbEntity
  8
0
100
AcDbLine
 62
7
  6
CONTINUOUS
 10
40.2732713132
 20
99.03
 11
40.2732713132
 21
98.13
  0
LINE
  5
3C4
100
AcDbEntity
  8
0
100
AcDbLine
 62
7
  6
CONTINUOUS
 10
40.9961663489
 20
99.03
 11
40.9961663489
 21
98.13
  0
LINE
  5
3C5
100
AcDbEntity
  8
0
100
AcDbLine
 62
7
  6
CONTINUOUS
 10
41.1749592912
 20
99.03
 11
41.1749592912
 21
98.13
  0
LINE
  5
3C6
100
AcDbEntity
  8
0
100
AcDbLine
 62
7
  6
CONTINUOUS
 10
41.5489186753
 20
99.03
 11
41.5489186753
 21
98.13
  0
LINE
  5
3C7
100
AcDbEntity
  8
0
100
AcDbLine
 62
7
  6
CONTINUOUS
 10
50.9021805667
 20
141.9645471423
 11
50.8032448555
 21
141.7178531515
  0
LINE
  5
3C8
100
AcDbEntity
  8
0
100
AcDbLine
 62
7
  6
CONTINUOUS
 10
51.0742295534
 20
141.721501247
 11
51.1545241053
 21
141.8657100585
  0
LINE
  5
3C9
100
AcDbEntity
  8
0
100
AcDbLine
 62
7
  6
CONTINUOUS
 10
53.1426724427
 20
149.53
 11
47.6578448854
 21
140.03
  0
LINE
  5
3CA
100
AcDbEntity
  8
0
100
AcDbLine
 62
7
  6
CONTINUOUS
 10
56.2289947745
 20
145.0603911601
 11
56.3551374319
 21
145.257388783
  0
LINE
  5
3CB
100
AcDbEntity
  8
0
100
AcDbLine
 62
7
  6
CONTINUOUS
 10
52.5863448207
 20
145.3576026963
 11
52.4083341611
 21
145.1007594462
  0
LINE
  5
3CC
100
AcDbEntity
  8
0
100
AcDbLine
 62
7
  6
CONTINUOUS
 10
51.6962915228
 20
144.0733864462
 11
51.5182807784
 21
143.8165430737
  0
LINE
  5
3CD
100
AcDbEntity
  8
0
100
AcDbLine
 62
7
  6
CONTINUOUS
 10
53.9040876727
 20
143.4304001246
 11
53.7854138431
 21
143.2591712096
  0
LINE
  5
3CE
100
AcDbEntity
  8
0
100
AcDbLine
 62
7
  6
CONTINUOUS
 10
54.0477218424
 20
143.0773730897
 11
54.1663956721
 21
143.2486020047
  0
LINE
  5
3CF
100
AcDbEntity
  8
0
100
AcDbLine
 62
7
  6
CONTINUOUS
 10
56.0229329559
 20
145.3096044862
 11
55.869940176
 21
145.1585242486
  0
LINE
  5
3D0
100
AcDbEntity
  8
0
100
AcDbLine
 62
7
  6
CONTINUOUS
 10
53.8556616841
 20
142.8936368154
 11
54.0477218424
 21
143.0773730897
  0
LINE
  5
3D1
100
AcDbEntity
  8
0
100
AcDbLine
 62
7
  6
CONTINUOUS
 10
51.0964613375
 20
142.1409607017
 11
50.9021805667
 21
141.9645471423
  0
LINE
  5
3D2
100
AcDbEntity
  8
0
100
AcDbLine
 62
7
  6
CONTINUOUS
 10
56.0310408873
 20
144.8830199768
 11
56.2289947745
 21
145.0603911601
  0
LINE
  5
3D3
100
AcDbEntity
  8
0
100
AcDbLine
 62
7
  6
CONTINUOUS
 10
53.7854138431
 20
143.2591712096
 11
53.6230221884
 21
143.1182422227
  0
LINE
  5
3D4
100
AcDbEntity
  8
0
100
AcDbLine
 62
7
  6
CONTINUOUS
 10
51.1545241053
 20
141.8657100585
 11
51.2778309172
 21
141.9491574694
  0
LINE
  5
3D5
100
AcDbEntity
  8
0
100
AcDbLine
 62
7
  6
CONTINUOUS
 10
54.7690853123
 20
147.0411367778
 11
53.6900269118
 21
146.4101589902
  0
LINE
  5
3D6
100
AcDbEntity
  8
0
100
AcDbLine
 62
7
  6
CONTINUOUS
 10
54.1208922044
 20
146.2923991975
 11
54.9301860048
 21
146.7656325382
  0
LINE
  5
3D7
100
AcDbEntity
  8
0
100
AcDbLine
 62
7
  6
CONTINUOUS
 10
55.869940176
 20
145.1585242486
 11
55.0606463757
 21
144.685290908
  0
LINE
  5
3D8
100
AcDbEntity
  8
0
100
AcDbLine
 62
7
  6
CONTINUOUS
 10
54.9519824869
 20
144.2520421893
 11
56.0310408873
 21
144.8830199768
  0
LINE
  5
3D9
100
AcDbEntity
  8
0
100
AcDbLine
 62
7
  6
CONTINUOUS
 10
52.0384523578
 20
71.96962076
 11
51.8570827781
 21
72.1614239923
  0
LINE
  5
3DA
100
AcDbEntity
  8
0
100
AcDbLine
 62
7
  6
CONTINUOUS
 10
51.7488265006
 20
71.8634874852
 11
51.834850994
 21
71.7419645376
  0
LINE
  5
3DB
100
AcDbEntity
  8
0
100
AcDbLine
 62
7
  6
CONTINUOUS
 10
47.6578448854
 20
70.03
 11
53.1426724427
 21
60.53
  0
LINE
  5
3DC
100
AcDbEntity
  8
0
100
AcDbLine
 62
7
  6
CONTINUOUS
 10
43.0447554982
 20
99.03
 11
43.0447554982
 21
98.13
  0
LINE
  5
3DD
100
AcDbEntity
  8
0
100
AcDbLine
 62
7
  6
CONTINUOUS
 10
43.418714704
 20
99.03
 11
43.418714704
 21
98.13
  0
LINE
  5
3DE
100
AcDbEntity
  8
0
100
AcDbLine
 62
7
  6
CONTINUOUS
 10
43.9173268594
 20
99.03
 11
43.9173268594
 21
98.13
  0
LINE
  5
3DF
100
AcDbEntity
  8
0
100
AcDbLine
 62
7
  6
CONTINUOUS
 10
44.36297178
 20
111.03
 11
44.36297178
 21
111.93
  0
LINE
  5
3E0
100
AcDbEntity
  8
0
100
AcDbLine
 62
7
  6
CONTINUOUS
 10
45.4131636823
 20
99.03
 11
45.4131636823
 21
98.13
  0
LINE
  5
3E1
100
AcDbEntity
  8
0
100
AcDbLine
 62
7
  6
CONTINUOUS
 10
45.8826595776
 20
99.03
 11
45.8826595776
 21
98.13
  0
LINE
  5
3E2
100
AcDbEntity
  8
0
100
AcDbLine
 62
7
  6
CONTINUOUS
 10
46.447691449
 20
99.03
 11
46.447691449
 21
98.13
  0
LINE
  5
3E3
100
AcDbEntity
  8
0
100
AcDbLine
 62
7
  6
CONTINUOUS
 10
46.77297178
 20
111.03
 11
46.77297178
 21
111.93
  0
LINE
  5
3E4
100
AcDbEntity
  8
0
100
AcDbLine
 62
7
  6
CONTINUOUS
 10
47.3284492924
 20
99.03
 11
47.3284492924
 21
98.13
  0
LINE
  5
3E5
100
AcDbEntity
  8
0
100
AcDbLine
 62
7
  6
CONTINUOUS
 10
50.8032448555
 20
141.7178531515
 11
50.5795510508
 21
140.4880315865
  0
LINE
  5
3E6
100
AcDbEntity
  8
0
100
AcDbLine
 62
7
  6
CONTINUOUS
 10
50.8971386336
 20
140.7478925569
 11
51.0742295534
 21
141.721501247
  0
LINE
  5
3E7
100
AcDbEntity
  8
0
100
AcDbLine
 62
7
  6
CONTINUOUS
 10
51.8592220947
 20
141.5787179578
 11
51.6821311749
 21
140.6051092677
  0
LINE
  5
3E8
100
AcDbEntity
  8
0
100
AcDbLine
 62
7
  6
CONTINUOUS
 10
51.9961281328
 20
140.5479959627
 11
52.1545779067
 21
141.4191195468
  0
LINE
  5
3E9
100
AcDbEntity
  8
0
100
AcDbLine
 62
7
  6
CONTINUOUS
 10
53.9790435075
 20
143.6319287227
 11
53.9040876727
 21
143.4304001246
  0
LINE
  5
3EA
100
AcDbEntity
  8
0
100
AcDbLine
 62
7
  6
CONTINUOUS
 10
54.1663956721
 20
143.2486020047
 11
54.2710198332
 21
143.4929376505
  0
LINE
  5
3EB
100
AcDbEntity
  8
0
100
AcDbLine
 62
7
  6
CONTINUOUS
 10
60.7313386729
 20
147.8489745388
 11
59.7168705106
 21
145.5640556458
  0
LINE
  5
3EC
100
AcDbEntity
  8
0
100
AcDbLine
 62
7
  6
CONTINUOUS
 10
60.0024853722
 20
145.4372471255
 11
60.8011092704
 21
147.2360131205
  0
LINE
  5
3ED
100
AcDbEntity
  8
0
100
AcDbLine
 62
7
  6
CONTINUOUS
 10
56.1041150063
 20
145.4803114883
 11
56.0229329559
 21
145.3096044862
  0
LINE
  5
3EE
100
AcDbEntity
  8
0
100
AcDbLine
 62
7
  6
CONTINUOUS
 10
56.3180989232
 20
144.03
 11
54.0086978465
 21
140.03
  0
LINE
  5
3EF
100
AcDbEntity
  8
0
100
AcDbLine
 62
7
  6
CONTINUOUS
 10
62.5878352735
 20
147.0247191569
 11
60.9672521043
 21
145.2998980477
  0
LINE
  5
3F0
100
AcDbEntity
  8
0
100
AcDbLine
 62
7
  6
CONTINUOUS
 10
61.049740228
 20
144.9722823898
 11
62.5147984402
 21
146.4751619987
  0
LINE
  5
3F1
100
AcDbEntity
  8
0
100
AcDbLine
 62
7
  6
CONTINUOUS
 10
63.7566591698
 20
145.6842527112
 11
63.4580913438
 21
145.3810452781
  0
LINE
  5
3F2
100
AcDbEntity
  8
0
100
AcDbLine
 62
7
  6
CONTINUOUS
 10
63.9420061119
 20
145.4270910987
 11
62.4864882605
 21
143.9489551676
  0
LINE
  5
3F3
100
AcDbEntity
  8
0
100
AcDbLine
 62
7
  6
CONTINUOUS
 10
62.7091561677
 20
143.729694471
 11
64.4632417406
 21
145.511037729
  0
LINE
  5
3F4
100
AcDbEntity
  8
0
100
AcDbLine
 62
7
  6
CONTINUOUS
 10
53.6495518534
 20
142.7830072746
 11
53.8556616841
 21
142.8936368154
  0
LINE
  5
3F5
100
AcDbEntity
  8
0
100
AcDbLine
 62
7
  6
CONTINUOUS
 10
63.2735077743
 20
143.5711556523
 11
63.0388544674
 21
143.4459710205
  0
LINE
  5
3F6
100
AcDbEntity
  8
0
100
AcDbLine
 62
7
  6
CONTINUOUS
 10
51.3337543684
 20
142.2566128607
 11
51.0964613375
 21
142.1409607017
  0
LINE
  5
3F7
100
AcDbEntity
  8
0
100
AcDbLine
 62
7
  6
CONTINUOUS
 10
53.6230221884
 20
143.1182422227
 11
53.4465808384
 21
143.0504199852
  0
LINE
  5
3F8
100
AcDbEntity
  8
0
100
AcDbLine
 62
7
  6
CONTINUOUS
 10
55.0207394326
 20
147.1266732105
 11
54.7690853123
 21
147.0411367778
  0
LINE
  5
3F9
100
AcDbEntity
  8
0
100
AcDbLine
 62
7
  6
CONTINUOUS
 10
54.9301860048
 20
146.7656325382
 11
55.1368790154
 21
146.8248780292
  0
LINE
  5
3FA
100
AcDbEntity
  8
0
100
AcDbLine
 62
7
  6
CONTINUOUS
 10
51.601148588
 20
71.9432866541
 11
51.7488265006
 21
71.8634874852
  0
LINE
  5
3FB
100
AcDbEntity
  8
0
100
AcDbLine
 62
7
  6
CONTINUOUS
 10
51.8570827781
 20
72.1614239923
 11
51.7094048655
 21
72.2412231612
  0
LINE
  5
3FC
100
AcDbEntity
  8
0
100
AcDbLine
 62
7
  6
CONTINUOUS
 10
51.5182807784
 20
73.8165430737
 11
52.8735388006
 21
72.8772527695
  0
LINE
  5
3FD
100
AcDbEntity
  8
0
100
AcDbLine
 62
7
  6
CONTINUOUS
 10
53.0515495451
 20
73.134096142
 11
51.6962915228
 21
74.0733864462
  0
LINE
  5
3FE
100
AcDbEntity
  8
0
100
AcDbLine
 62
7
  6
CONTINUOUS
 10
52.4083341611
 20
75.1007594462
 11
53.7635921834
 21
74.1614691421
  0
LINE
  5
3FF
100
AcDbEntity
  8
0
100
AcDbLine
 62
7
  6
CONTINUOUS
 10
53.9416028429
 20
74.4183123921
 11
52.5863448207
 21
75.3576026963
  0
LINE
  5
400
100
AcDbEntity
  8
0
100
AcDbLine
 62
7
  6
CONTINUOUS
 10
54.130524317
 20
74.2240066865
 11
53.9416028429
 21
74.4183123921
  0
LINE
  5
401
100
AcDbEntity
  8
0
100
AcDbLine
 62
7
  6
CONTINUOUS
 10
55.4959336727
 20
76.7267448402
 11
55.6482947295
 21
76.569365988
  0
LINE
  5
402
100
AcDbEntity
  8
0
100
AcDbLine
 62
7
  6
CONTINUOUS
 10
53.7635921834
 20
74.1614691421
 11
53.9087956627
 21
73.9974631196
  0
LINE
  5
403
100
AcDbEntity
  8
0
100
AcDbLine
 62
7
  6
CONTINUOUS
 10
55.9180593297
 20
76.7271104349
 11
55.7388480822
 21
76.930406789
  0
LINE
  5
404
100
AcDbEntity
  8
0
100
AcDbLine
 62
7
  6
CONTINUOUS
 10
53.6900269118
 20
76.4101589902
 11
54.9519824869
 21
74.2520421893
  0
LINE
  5
405
100
AcDbEntity
  8
0
100
AcDbLine
 62
7
  6
CONTINUOUS
 10
55.0606463757
 20
74.685290908
 11
54.1208922044
 21
76.2923991975
  0
LINE
  5
406
100
AcDbEntity
  8
0
100
AcDbLine
 62
7
  6
CONTINUOUS
 10
55.6482947295
 20
76.569365988
 11
56.0510464984
 21
75.8806053246
  0
LINE
  5
407
100
AcDbEntity
  8
0
100
AcDbLine
 62
7
  6
CONTINUOUS
 10
56.3208110985
 20
76.0383497715
 11
55.9180593297
 21
76.7271104349
  0
LINE
  5
408
100
AcDbEntity
  8
0
100
AcDbLine
 62
7
  6
CONTINUOUS
 10
54.0086978465
 20
70.03
 11
56.3180989232
 21
66.03
  0
LINE
  5
409
100
AcDbEntity
  8
0
100
AcDbLine
 62
7
  6
CONTINUOUS
 10
54.2460594969
 20
74.0171935978
 11
54.130524317
 21
74.2240066865
  0
LINE
  5
40A
100
AcDbEntity
  8
0
100
AcDbLine
 62
7
  6
CONTINUOUS
 10
53.9087956627
 20
73.9974631196
 11
53.9806128171
 21
73.8209497352
  0
LINE
  5
40B
100
AcDbEntity
  8
0
100
AcDbLine
 62
7
  6
CONTINUOUS
 10
52.1058357185
 20
71.7456127797
 11
52.0384523578
 21
71.96962076
  0
LINE
  5
40C
100
AcDbEntity
  8
0
100
AcDbLine
 62
7
  6
CONTINUOUS
 10
48.0845545427
 20
99.03
 11
48.0845545427
 21
98.13
  0
LINE
  5
40D
100
AcDbEntity
  8
0
100
AcDbLine
 62
7
  6
CONTINUOUS
 10
48.9361962115
 20
99.03
 11
48.9361962115
 21
98.13
  0
LINE
  5
40E
100
AcDbEntity
  8
0
100
AcDbLine
 62
7
  6
CONTINUOUS
 10
51.3041412227
 20
99.03
 11
51.3041412227
 21
98.13
  0
LINE
  5
40F
100
AcDbEntity
  8
0
100
AcDbLine
 62
7
  6
CONTINUOUS
 10
52.0311298562
 20
99.03
 11
52.0311298562
 21
98.13
  0
LINE
  5
410
100
AcDbEntity
  8
0
100
AcDbLine
 62
7
  6
CONTINUOUS
 10
52.5379286044
 20
99.03
 11
52.5379286044
 21
98.13
  0
LINE
  5
411
100
AcDbEntity
  8
0
100
AcDbLine
 62
7
  6
CONTINUOUS
 10
54.2710198332
 20
143.4929376505
 11
54.3022576617
 21
143.7247659397
  0
LINE
  5
412
100
AcDbEntity
  8
0
100
AcDbLine
 62
7
  6
CONTINUOUS
 10
53.0391941808
 20
140.0406439772
 11
53.095117632
 21
140.3480993684
  0
LINE
  5
413
100
AcDbEntity
  8
0
100
AcDbLine
 62
7
  6
CONTINUOUS
 10
53.328132003
 20
141.6291634498
 11
53.3933760471
 21
141.987861504
  0
LINE
  5
414
100
AcDbEntity
  8
0
100
AcDbLine
 62
7
  6
CONTINUOUS
 10
56.3551374319
 20
145.257388783
 11
56.427579856
 21
145.5462211565
  0
LINE
  5
415
100
AcDbEntity
  8
0
100
AcDbLine
 62
7
  6
CONTINUOUS
 10
62.5147984402
 20
146.4751619987
 11
61.716174542
 21
144.6763960037
  0
LINE
  5
416
100
AcDbEntity
  8
0
100
AcDbLine
 62
7
  6
CONTINUOUS
 10
62.0017894036
 20
144.5495874835
 11
63.016257566
 21
146.8345063765
  0
LINE
  5
417
100
AcDbEntity
  8
0
100
AcDbLine
 62
7
  6
CONTINUOUS
 10
65.5555789435
 20
143.1357295805
 11
65.4638179996
 21
142.9687122341
  0
LINE
  5
418
100
AcDbEntity
  8
0
100
AcDbLine
 62
7
  6
CONTINUOUS
 10
60.9369010768
 20
136.03
 11
63.2463021535
 21
140.03
  0
LINE
  5
419
100
AcDbEntity
  8
0
100
AcDbLine
 62
7
  6
CONTINUOUS
 10
65.6109099388
 20
142.6929946043
 11
65.7741170478
 21
142.8390955846
  0
LINE
  5
41A
100
AcDbEntity
  8
0
100
AcDbLine
 62
7
  6
CONTINUOUS
 10
65.4638179996
 20
142.9687122341
 11
65.3699565585
 21
142.9186383183
  0
LINE
  5
41B
100
AcDbEntity
  8
0
100
AcDbLine
 62
7
  6
CONTINUOUS
 10
63.921406103
 20
141.7916652415
 11
64.1560594098
 21
141.9168498733
  0
LINE
  5
41C
100
AcDbEntity
  8
0
100
AcDbLine
 62
7
  6
CONTINUOUS
 10
65.5170484977
 20
142.6429206885
 11
65.6109099388
 21
142.6929946043
  0
LINE
  5
41D
100
AcDbEntity
  8
BEZUGSACHSEN
100
AcDbLine
 62
7
  6
CONTINUOUS
 10
47.6275
 20
59.03
 11
144.6275
 21
59.03
  0
LINE
  5
41E
100
AcDbEntity
  8
0
100
AcDbLine
 62
7
  6
CONTINUOUS
 10
53.1426724427
 20
60.53
 11
64.1123275573
 21
60.53
  0
LINE
  5
41F
100
AcDbEntity
  8
0
100
AcDbLine
 62
7
  6
CONTINUOUS
 10
128.1426724427
 20
60.53
 11
139.1123275573
 21
60.53
  0
LINE
  5
420
100
AcDbEntity
  8
0
100
AcDbLine
 62
7
  6
CONTINUOUS
 10
53.2560898543
 20
73.0557044546
 11
53.0515495451
 21
73.134096142
  0
LINE
  5
421
100
AcDbEntity
  8
0
100
AcDbLine
 62
7
  6
CONTINUOUS
 10
52.8735388006
 20
72.8772527695
 11
53.1217972744
 21
72.7685616439
  0
LINE
  5
422
100
AcDbEntity
  8
0
100
AcDbLine
 62
7
  6
CONTINUOUS
 10
55.3254615463
 20
76.8119155061
 11
55.4959336727
 21
76.7267448402
  0
LINE
  5
423
100
AcDbEntity
  8
0
100
AcDbLine
 62
7
  6
CONTINUOUS
 10
55.7388480822
 20
76.930406789
 11
55.5415259156
 21
77.0614946995
  0
LINE
  5
424
100
AcDbEntity
  8
0
100
AcDbLine
 62
7
  6
CONTINUOUS
 10
62.4864882605
 20
73.9489551676
 11
62.7091561677
 21
73.729694471
  0
LINE
  5
425
100
AcDbEntity
  8
0
100
AcDbLine
 62
7
  6
CONTINUOUS
 10
65.2326799455
 20
73.9670030268
 11
65.4021870294
 21
73.7622756087
  0
LINE
  5
426
100
AcDbEntity
  8
0
100
AcDbLine
 62
7
  6
CONTINUOUS
 10
63.2463021535
 20
70.03
 11
60.9369010768
 21
74.03
  0
LINE
  5
427
100
AcDbEntity
  8
0
100
AcDbLine
 62
7
  6
CONTINUOUS
 10
63.0388544674
 20
73.4459710205
 11
63.921406103
 21
71.7916652415
  0
LINE
  5
428
100
AcDbEntity
  8
0
100
AcDbLine
 62
7
  6
CONTINUOUS
 10
64.1560594098
 20
71.9168498733
 11
63.4696301729
 21
73.2035324965
  0
LINE
  5
429
100
AcDbEntity
  8
0
100
AcDbLine
 62
7
  6
CONTINUOUS
 10
56.4101010804
 20
75.7824722643
 11
56.3208110985
 21
76.0383497715
  0
LINE
  5
42A
100
AcDbEntity
  8
0
100
AcDbLine
 62
7
  6
CONTINUOUS
 10
56.0510464984
 20
75.8806053246
 11
56.1134863649
 21
75.6706451907
  0
LINE
  5
42B
100
AcDbEntity
  8
0
100
AcDbLine
 62
7
  6
CONTINUOUS
 10
54.3022576617
 20
73.7247659397
 11
54.2460594969
 21
74.0171935978
  0
LINE
  5
42C
100
AcDbEntity
  8
0
100
AcDbLine
 62
7
  6
CONTINUOUS
 10
51.834850994
 20
71.7419645376
 11
51.8592220947
 21
71.5787179578
  0
LINE
  5
42D
100
AcDbEntity
  8
0
100
AcDbLine
 62
7
  6
CONTINUOUS
 10
56.427579856
 20
75.5462211565
 11
56.4101010804
 21
75.7824722643
  0
LWPOLYLINE
  5
42E
100
AcDbEntity
  8
BEZUGSACHSEN
100
AcDbPolyline
 62
7
  6
CONTINUOUS
 90
38
 70
0
 10
54.9372740013
 20
96.4816796208
 10
54.943229287
 20
96.3304564504
 10
54.9565978013
 20
96.1814983209
 10
54.9770850849
 20
96.0351256357
 10
55.0043898838
 20
95.891631901
 10
55.0382059875
 20
95.7512845772
 10
55.0782239513
 20
95.614325862
 10
55.1241326372
 20
95.4809737066
 10
55.1756207339
 20
95.3514225456
 10
55.232377814
 20
95.2258449142
 10
55.294096454
 20
95.1043905022
 10
55.3604732256
 20
94.987188072
 10
55.4312063491
 20
94.8743518818
 10
55.5059994248
 20
94.7659767232
 10
55.5845617968
 20
94.6621399153
 10
55.666608664
 20
94.5629030571
 10
55.7518637421
 20
94.468310615
 10
55.8400575473
 20
94.3783938219
 10
55.930930038
 20
94.2931693263
 10
56.0242297485
 20
94.2126417013
 10
56.1197119694
 20
94.136805989
 10
56.2171153193
 20
94.0656645199
 10
56.3162915233
 20
93.999137186
 10
56.4171519104
 20
93.937122919
 10
56.5193446037
 20
93.8796842691
 10
56.6227966134
 20
93.8267140747
 10
56.7265987531
 20
93.7784948046
 10
56.8298762987
 20
93.7351637172
 10
56.9323433413
 20
93.6965362081
 10
57.0331291743
 20
93.6626047254
 10
57.1332561633
 20
93.6327335964
 10
57.2346969405
 20
93.6062355659
 10
57.3344384862
 20
93.5837500255
 10
57.4321192064
 20
93.5650319978
 10
57.5234642703
 20
93.5503471304
 10
57.6042522805
 20
93.5394736967
 10
57.6776057819
 20
93.5311338628
 10
57.7465565931
 20
93.5244205958
  0
LINE
  5
42F
100
AcDbEntity
  8
BEZUGSACHSEN
100
AcDbLine
 62
7
  6
CONTINUOUS
 10
54.9369741133
 20
96.5241002467
 11
54.9372740013
 21
96.4816796208
  0
LINE
  5
430
100
AcDbEntity
  8
0
100
AcDbLine
 62
7
  6
CONTINUOUS
 10
52.9200747043
 20
99.03
 11
52.9200747043
 21
98.13
  0
LINE
  5
431
100
AcDbEntity
  8
0
100
AcDbLine
 62
7
  6
CONTINUOUS
 10
52.9864948184
 20
99.03
 11
52.9864948184
 21
98.13
  0
LINE
  5
432
100
AcDbEntity
  8
0
100
AcDbLine
 62
7
  6
CONTINUOUS
 10
54.6360766375
 20
111.03
 11
54.6360766375
 21
111.93
  0
LINE
  5
433
100
AcDbEntity
  8
BEZUGSACHSEN
100
AcDbLine
 62
7
  6
CONTINUOUS
 10
54.9369740348
 20
96.5240496169
 11
54.9369740348
 21
99.03
  0
LINE
  5
434
100
AcDbEntity
  8
BEZUGSACHSEN
100
AcDbLine
 62
7
  6
CONTINUOUS
 10
54.9369740348
 20
111.03
 11
54.9369740348
 21
113.5359503831
  0
LINE
  5
435
100
AcDbEntity
  8
0
100
AcDbLine
 62
7
  6
CONTINUOUS
 10
53.9806128171
 20
143.8209497352
 11
53.9790435075
 21
143.6319287227
  0
LINE
  5
436
100
AcDbEntity
  8
0
100
AcDbLine
 62
7
  6
CONTINUOUS
 10
53.9806128171
 20
73.8209497352
 11
53.9790435075
 21
73.6319287227
  0
LINE
  5
437
100
AcDbEntity
  8
0
100
AcDbLine
 62
7
  6
CONTINUOUS
 10
56.1134863649
 20
145.6706451907
 11
56.1041150063
 21
145.4803114883
  0
LINE
  5
438
100
AcDbEntity
  8
0
100
AcDbLine
 62
7
  6
CONTINUOUS
 10
56.1134863649
 20
75.6706451907
 11
56.1041150063
 21
75.4803114883
  0
LINE
  5
439
100
AcDbEntity
  8
0
100
AcDbLine
 62
7
  6
CONTINUOUS
 10
60.8011092704
 20
147.2360131205
 11
60.6689196862
 21
145.1413607394
  0
LINE
  5
43A
100
AcDbEntity
  8
0
100
AcDbLine
 62
7
  6
CONTINUOUS
 10
60.9672521043
 20
145.2998980477
 11
61.1597609654
 21
147.6587617584
  0
LINE
  5
43B
100
AcDbEntity
  8
0
100
AcDbLine
 62
7
  6
CONTINUOUS
 10
50.8032448555
 20
71.7178531515
 11
50.5795510508
 21
70.4880315865
  0
LINE
  5
43C
100
AcDbEntity
  8
0
100
AcDbLine
 62
7
  6
CONTINUOUS
 10
50.8971386336
 20
70.7478925569
 11
51.0742295534
 21
71.721501247
  0
LINE
  5
43D
100
AcDbEntity
  8
0
100
AcDbLine
 62
7
  6
CONTINUOUS
 10
65.7741170478
 20
142.8390955846
 11
65.8637781871
 21
143.1230553798
  0
LINE
  5
43E
100
AcDbEntity
  8
0
100
AcDbLine
 62
7
  6
CONTINUOUS
 10
64.1123275573
 20
130.53
 11
69.5971551146
 21
140.03
  0
LINE
  5
43F
100
AcDbEntity
  8
0
100
AcDbLine
 62
7
  6
CONTINUOUS
 10
140.3048103683
 20
72.588726286
 11
140.5170484977
 21
72.6429206885
  0
LINE
  5
440
100
AcDbEntity
  8
0
100
AcDbLine
 62
7
  6
CONTINUOUS
 10
139.9651113818
 20
74.3555425487
 11
139.7528732524
 21
74.3013481462
  0
LINE
  5
441
100
AcDbEntity
  8
0
100
AcDbLine
 62
7
  6
CONTINUOUS
 10
128.3933760471
 20
71.987861504
 11
127.1058357185
 21
71.7456127797
  0
LINE
  5
442
100
AcDbEntity
  8
0
100
AcDbLine
 62
7
  6
CONTINUOUS
 10
127.1545779067
 20
71.4191195468
 11
128.328132003
 21
71.6291634498
  0
LINE
  5
443
100
AcDbEntity
  8
0
100
AcDbLine
 62
7
  6
CONTINUOUS
 10
56.3180989232
 20
66.03
 11
60.9369010768
 21
66.03
  0
LINE
  5
444
100
AcDbEntity
  8
0
100
AcDbLine
 62
7
  6
CONTINUOUS
 10
131.3180989232
 20
66.03
 11
135.9369010768
 21
66.03
  0
LINE
  5
445
100
AcDbEntity
  8
0
100
AcDbLine
 62
7
  6
CONTINUOUS
 10
53.1217972744
 20
72.7685616439
 11
53.356006199
 21
72.7329773477
  0
LINE
  5
446
100
AcDbEntity
  8
0
100
AcDbLine
 62
7
  6
CONTINUOUS
 10
50.5795510508
 20
70.4880315865
 11
53.0391941808
 21
70.0406439772
  0
LINE
  5
447
100
AcDbEntity
  8
0
100
AcDbLine
 62
7
  6
CONTINUOUS
 10
53.095117632
 20
70.3480993684
 11
51.9961281328
 21
70.5479959627
  0
LINE
  5
448
100
AcDbEntity
  8
0
100
AcDbLine
 62
7
  6
CONTINUOUS
 10
51.6821311749
 20
70.6051092677
 11
50.8971386336
 21
70.7478925569
  0
LINE
  5
449
100
AcDbEntity
  8
0
100
AcDbLine
 62
7
  6
CONTINUOUS
 10
51.4441499624
 20
71.9718433333
 11
51.601148588
 21
71.9432866541
  0
LINE
  5
44A
100
AcDbEntity
  8
0
100
AcDbLine
 62
7
  6
CONTINUOUS
 10
51.7094048655
 20
72.2412231612
 11
51.5000734136
 21
72.2792987245
  0
LINE
  5
44B
100
AcDbEntity
  8
0
100
AcDbLine
 62
7
  6
CONTINUOUS
 10
65.2508954809
 20
74.2718781363
 11
64.9651113818
 21
74.3555425487
  0
LINE
  5
44C
100
AcDbEntity
  8
0
100
AcDbLine
 62
7
  6
CONTINUOUS
 10
65.1332029188
 20
72.9103972047
 11
63.2735077743
 21
73.5711556523
  0
LINE
  5
44D
100
AcDbEntity
  8
0
100
AcDbLine
 62
7
  6
CONTINUOUS
 10
63.4696301729
 20
73.2035324965
 11
65.1149879445
 21
72.6055210434
  0
LINE
  5
44E
100
AcDbEntity
  8
0
100
AcDbLine
 62
7
  6
CONTINUOUS
 10
59.7168705106
 20
75.5640556458
 11
60.0024853722
 21
75.4372471255
  0
LINE
  5
44F
100
AcDbEntity
  8
0
100
AcDbLine
 62
7
  6
CONTINUOUS
 10
60.6689196862
 20
75.1413607394
 11
61.049740228
 21
74.9722823898
  0
LINE
  5
450
100
AcDbEntity
  8
0
100
AcDbLine
 62
7
  6
CONTINUOUS
 10
61.716174542
 20
74.6763960037
 11
62.0017894036
 21
74.5495874835
  0
LINE
  5
451
100
AcDbEntity
  8
0
100
AcDbLine
 62
7
  6
CONTINUOUS
 10
63.016257566
 20
76.8345063765
 11
62.5878352735
 21
77.0247191569
  0
LINE
  5
452
100
AcDbEntity
  8
0
100
AcDbLine
 62
7
  6
CONTINUOUS
 10
61.1597609654
 20
77.6587617584
 11
60.7313386729
 21
77.8489745388
  0
LINE
  5
453
100
AcDbEntity
  8
0
100
AcDbLine
 62
7
  6
CONTINUOUS
 10
65.0652726663
 20
74.054787996
 11
65.2326799455
 21
73.9670030268
  0
LINE
  5
454
100
AcDbEntity
  8
0
100
AcDbLine
 62
7
  6
CONTINUOUS
 10
65.4428177093
 20
74.1381409299
 11
65.2508954809
 21
74.2718781363
  0
LINE
  5
455
100
AcDbEntity
  8
0
100
AcDbLine
 62
7
  6
CONTINUOUS
 10
64.4632417406
 20
75.511037729
 11
64.2405738334
 21
75.7302984256
  0
LINE
  5
456
100
AcDbEntity
  8
0
100
AcDbLine
 62
7
  6
CONTINUOUS
 10
65.6613558136
 20
73.841506934
 11
65.4428177093
 21
74.1381409299
  0
LINE
  5
457
100
AcDbEntity
  8
0
100
AcDbLine
 62
7
  6
CONTINUOUS
 10
69.5971551146
 20
70.03
 11
64.1123275573
 21
79.53
  0
LINE
  5
458
100
AcDbEntity
  8
0
100
AcDbLine
 62
7
  6
CONTINUOUS
 10
64.7528732524
 20
74.3013481462
 11
64.8754502425
 21
74.0715827535
  0
LINE
  5
459
100
AcDbEntity
  8
0
100
AcDbLine
 62
7
  6
CONTINUOUS
 10
65.4021870294
 20
73.7622756087
 11
65.5002485092
 21
73.5784635049
  0
LINE
  5
45A
100
AcDbEntity
  8
0
100
AcDbLine
 62
7
  6
CONTINUOUS
 10
65.7594172935
 20
73.6576948302
 11
65.6613558136
 21
73.841506934
  0
LINE
  5
45B
100
AcDbEntity
  8
0
100
AcDbLine
 62
7
  6
CONTINUOUS
 10
65.859578578
 20
73.3569402775
 11
65.7594172935
 21
73.6576948302
  0
LINE
  5
45C
100
AcDbEntity
  8
0
100
AcDbLine
 62
7
  6
CONTINUOUS
 10
65.5002485092
 20
73.5784635049
 11
65.5758942835
 21
73.3236622411
  0
LINE
  5
45D
100
AcDbEntity
  8
0
100
AcDbLine
 62
7
  6
CONTINUOUS
 10
51.834850994
 20
141.7419645376
 11
51.8592220947
 21
141.5787179578
  0
LINE
  5
45E
100
AcDbEntity
  8
0
100
AcDbLine
 62
7
  6
CONTINUOUS
 10
56.427579856
 20
145.5462211565
 11
56.4101010804
 21
145.7824722643
  0
LINE
  5
45F
100
AcDbEntity
  8
0
100
AcDbLine
 62
7
  6
CONTINUOUS
 10
60.8011092704
 20
77.2360131205
 11
60.6689196862
 21
75.1413607394
  0
LINE
  5
460
100
AcDbEntity
  8
0
100
AcDbLine
 62
7
  6
CONTINUOUS
 10
60.9672521043
 20
75.2998980477
 11
61.1597609654
 21
77.6587617584
  0
LINE
  5
461
100
AcDbEntity
  8
0
100
AcDbLine
 62
7
  6
CONTINUOUS
 10
65.5758942835
 20
143.3236622411
 11
65.5555789435
 21
143.1357295805
  0
LINE
  5
462
100
AcDbEntity
  8
0
100
AcDbLine
 62
7
  6
CONTINUOUS
 10
54.2710198332
 20
73.4929376505
 11
54.3022576617
 21
73.7247659397
  0
LINE
  5
463
100
AcDbEntity
  8
0
100
AcDbLine
 62
7
  6
CONTINUOUS
 10
51.8592220947
 20
71.5787179578
 11
51.6821311749
 21
70.6051092677
  0
LINE
  5
464
100
AcDbEntity
  8
0
100
AcDbLine
 62
7
  6
CONTINUOUS
 10
51.9961281328
 20
70.5479959627
 11
52.1545779067
 21
71.4191195468
  0
LINE
  5
465
100
AcDbEntity
  8
0
100
AcDbLine
 62
7
  6
CONTINUOUS
 10
53.0391941808
 20
70.0406439772
 11
53.095117632
 21
70.3480993684
  0
LINE
  5
466
100
AcDbEntity
  8
0
100
AcDbLine
 62
7
  6
CONTINUOUS
 10
53.328132003
 20
71.6291634498
 11
53.3933760471
 21
71.987861504
  0
LINE
  5
467
100
AcDbEntity
  8
0
100
AcDbLine
 62
7
  6
CONTINUOUS
 10
128.356006199
 20
72.7329773477
 11
128.6495518534
 21
72.7830072746
  0
LINE
  5
468
100
AcDbEntity
  8
0
100
AcDbLine
 62
7
  6
CONTINUOUS
 10
126.2778309172
 20
71.9491574694
 11
126.4441499624
 21
71.9718433333
  0
LINE
  5
469
100
AcDbEntity
  8
0
100
AcDbLine
 62
7
  6
CONTINUOUS
 10
126.5000734136
 20
72.2792987245
 11
126.3337543684
 21
72.2566128607
  0
LINE
  5
46A
100
AcDbEntity
  8
0
100
AcDbLine
 62
7
  6
CONTINUOUS
 10
138.4580913438
 20
75.3810452781
 11
138.9420061119
 21
75.4270910987
  0
LINE
  5
46B
100
AcDbEntity
  8
0
100
AcDbLine
 62
7
  6
CONTINUOUS
 10
139.2405738334
 20
75.7302984256
 11
138.7566591698
 21
75.6842527112
  0
LINE
  5
46C
100
AcDbEntity
  8
0
100
AcDbLine
 62
7
  6
CONTINUOUS
 10
140.3699565585
 20
72.9186383183
 11
140.1332029188
 21
72.9103972047
  0
LINE
  5
46D
100
AcDbEntity
  8
0
100
AcDbLine
 62
7
  6
CONTINUOUS
 10
53.4465808384
 20
73.0504199852
 11
53.2560898543
 21
73.0557044546
  0
LINE
  5
46E
100
AcDbEntity
  8
0
100
AcDbLine
 62
7
  6
CONTINUOUS
 10
65.1149879445
 20
72.6055210434
 11
65.3048103683
 21
72.588726286
  0
LINE
  5
46F
100
AcDbEntity
  8
0
100
AcDbLine
 62
7
  6
CONTINUOUS
 10
64.8754502425
 20
74.0715827535
 11
65.0652726663
 21
74.054787996
  0
LINE
  5
470
100
AcDbEntity
  8
0
100
AcDbLine
 62
7
  6
CONTINUOUS
 10
55.5415259156
 20
77.0614946995
 11
55.2542825587
 21
77.1400013283
  0
LINE
  5
471
100
AcDbEntity
  8
0
100
AcDbLine
 62
7
  6
CONTINUOUS
 10
54.3022576617
 20
143.7247659397
 11
54.2460594969
 21
144.0171935978
  0
LINE
  5
472
100
AcDbEntity
  8
0
100
AcDbLine
 62
7
  6
CONTINUOUS
 10
65.8637781871
 20
73.1230553798
 11
65.859578578
 21
73.3569402775
  0
LINE
  5
473
100
AcDbEntity
  8
0
100
AcDbLine
 62
7
  6
CONTINUOUS
 10
65.8637781871
 20
143.1230553798
 11
65.859578578
 21
143.3569402775
  0
LINE
  5
474
100
AcDbEntity
  8
0
100
AcDbLine
 62
7
  6
CONTINUOUS
 10
65.5758942835
 20
73.3236622411
 11
65.5555789435
 21
73.1357295805
  0
LINE
  5
475
100
AcDbEntity
  8
0
100
AcDbLine
 62
7
  6
CONTINUOUS
 10
56.3551374319
 20
75.257388783
 11
56.427579856
 21
75.5462211565
  0
LINE
  5
476
100
AcDbEntity
  8
0
100
AcDbLine
 62
7
  6
CONTINUOUS
 10
53.9790435075
 20
73.6319287227
 11
53.9040876727
 21
73.4304001246
  0
LINE
  5
477
100
AcDbEntity
  8
0
100
AcDbLine
 62
7
  6
CONTINUOUS
 10
50.9021805667
 20
71.9645471423
 11
50.8032448555
 21
71.7178531515
  0
LINE
  5
478
100
AcDbEntity
  8
BEZUGSACHSEN
100
AcDbLine
 62
7
  6
CONTINUOUS
 10
58.5082151887
 20
116.7995494327
 11
58.5072730632
 21
116.7990160718
  0
LWPOLYLINE
  5
479
100
AcDbEntity
  8
BEZUGSACHSEN
100
AcDbPolyline
 62
7
  6
CONTINUOUS
 90
3
 70
0
 10
58.5072730632
 20
116.7990160718
 10
58.4043993361
 20
116.7435121134
 10
58.258071998
 20
116.6743016653
  0
LINE
  5
47A
100
AcDbEntity
  8
0
100
AcDbLine
 62
7
  6
CONTINUOUS
 10
130.0207394326
 20
147.1266732105
 11
129.7690853123
 21
147.0411367778
  0
LINE
  5
47B
100
AcDbEntity
  8
0
100
AcDbLine
 62
7
  6
CONTINUOUS
 10
129.9301860048
 20
146.7656325382
 11
130.1368790154
 21
146.8248780292
  0
LINE
  5
47C
100
AcDbEntity
  8
0
100
AcDbLine
 62
7
  6
CONTINUOUS
 10
130.2542825587
 20
77.1400013283
 11
130.0207394326
 21
77.1266732105
  0
LINE
  5
47D
100
AcDbEntity
  8
0
100
AcDbLine
 62
7
  6
CONTINUOUS
 10
65.3699565585
 20
72.9186383183
 11
65.1332029188
 21
72.9103972047
  0
LINE
  5
47E
100
AcDbEntity
  8
0
100
AcDbLine
 62
7
  6
CONTINUOUS
 10
135.9369010768
 20
74.03
 11
131.3180989232
 21
74.03
  0
LINE
  5
47F
100
AcDbEntity
  8
0
100
AcDbLine
 62
7
  6
CONTINUOUS
 10
60.9369010768
 20
74.03
 11
56.3180989232
 21
74.03
  0
LINE
  5
480
100
AcDbEntity
  8
0
100
AcDbLine
 62
7
  6
CONTINUOUS
 10
128.4465808384
 20
73.0504199852
 11
128.2560898543
 21
73.0557044546
  0
LINE
  5
481
100
AcDbEntity
  8
0
100
AcDbLine
 62
7
  6
CONTINUOUS
 10
55.1368790154
 20
76.8248780292
 11
55.3254615463
 21
76.8119155061
  0
LINE
  5
482
100
AcDbEntity
  8
0
100
AcDbLine
 62
7
  6
CONTINUOUS
 10
140.1149879445
 20
72.6055210434
 11
140.3048103683
 21
72.588726286
  0
LINE
  5
483
100
AcDbEntity
  8
0
100
AcDbLine
 62
7
  6
CONTINUOUS
 10
139.8754502425
 20
74.0715827535
 11
140.0652726663
 21
74.054787996
  0
LINE
  5
484
100
AcDbEntity
  8
0
100
AcDbLine
 62
7
  6
CONTINUOUS
 10
128.1217972744
 20
72.7685616439
 11
128.356006199
 21
72.7329773477
  0
LINE
  5
485
100
AcDbEntity
  8
0
100
AcDbLine
 62
7
  6
CONTINUOUS
 10
125.5795510508
 20
70.4880315865
 11
128.0391941808
 21
70.0406439772
  0
LINE
  5
486
100
AcDbEntity
  8
0
100
AcDbLine
 62
7
  6
CONTINUOUS
 10
128.095117632
 20
70.3480993684
 11
126.9961281328
 21
70.5479959627
  0
LINE
  5
487
100
AcDbEntity
  8
0
100
AcDbLine
 62
7
  6
CONTINUOUS
 10
126.6821311749
 20
70.6051092677
 11
125.8971386336
 21
70.7478925569
  0
LINE
  5
488
100
AcDbEntity
  8
0
100
AcDbLine
 62
7
  6
CONTINUOUS
 10
126.4441499624
 20
71.9718433333
 11
126.601148588
 21
71.9432866541
  0
LINE
  5
489
100
AcDbEntity
  8
0
100
AcDbLine
 62
7
  6
CONTINUOUS
 10
126.7094048655
 20
72.2412231612
 11
126.5000734136
 21
72.2792987245
  0
LINE
  5
48A
100
AcDbEntity
  8
BEZUGSACHSEN
100
AcDbLine
 62
7
  6
CONTINUOUS
 10
58.5082303951
 20
93.2604419631
 11
58.5072800996
 21
93.2609799426
  0
LINE
  5
48B
100
AcDbEntity
  8
0
100
AcDbLine
 62
7
  6
CONTINUOUS
 10
52.1058357185
 20
141.7456127797
 11
52.0384523578
 21
141.96962076
  0
LINE
  5
48C
100
AcDbEntity
  8
0
100
AcDbLine
 62
7
  6
CONTINUOUS
 10
56.0510464984
 20
145.8806053246
 11
56.1134863649
 21
145.6706451907
  0
LINE
  5
48D
100
AcDbEntity
  8
0
100
AcDbLine
 62
7
  6
CONTINUOUS
 10
54.1663956721
 20
73.2486020047
 11
54.2710198332
 21
73.4929376505
  0
LINE
  5
48E
100
AcDbEntity
  8
0
100
AcDbLine
 62
7
  6
CONTINUOUS
 10
60.7313386729
 20
77.8489745388
 11
59.7168705106
 21
75.5640556458
  0
LINE
  5
48F
100
AcDbEntity
  8
0
100
AcDbLine
 62
7
  6
CONTINUOUS
 10
56.1041150063
 20
75.4803114883
 11
56.0229329559
 21
75.3096044862
  0
LINE
  5
490
100
AcDbEntity
  8
0
100
AcDbLine
 62
7
  6
CONTINUOUS
 10
51.0742295534
 20
71.721501247
 11
51.1545241053
 21
71.8657100585
  0
LINE
  5
491
100
AcDbEntity
  8
0
100
AcDbLine
 62
7
  6
CONTINUOUS
 10
53.1426724427
 20
79.53
 11
47.6578448854
 21
70.03
  0
LWPOLYLINE
  5
492
100
AcDbEntity
  8
BEZUGSACHSEN
100
AcDbPolyline
 62
7
  6
CONTINUOUS
 90
3
 70
0
 10
58.258071998
 20
116.6743016653
 10
58.1153016806
 20
116.6185210709
 10
57.9775074874
 20
116.5766163381
  0
LINE
  5
493
100
AcDbEntity
  8
0
100
AcDbLine
 62
7
  6
CONTINUOUS
 10
128.6230221884
 20
143.1182422227
 11
128.4465808384
 21
143.0504199852
  0
LINE
  5
494
100
AcDbEntity
  8
0
100
AcDbLine
 62
7
  6
CONTINUOUS
 10
65.3048103683
 20
72.588726286
 11
65.5170484977
 21
72.6429206885
  0
LINE
  5
495
100
AcDbEntity
  8
0
100
AcDbLine
 62
7
  6
CONTINUOUS
 10
64.9651113818
 20
74.3555425487
 11
64.7528732524
 21
74.3013481462
  0
LINE
  5
496
100
AcDbEntity
  8
0
100
AcDbLine
 62
7
  6
CONTINUOUS
 10
53.3933760471
 20
71.987861504
 11
52.1058357185
 21
71.7456127797
  0
LINE
  5
497
100
AcDbEntity
  8
0
100
AcDbLine
 62
7
  6
CONTINUOUS
 10
52.1545779067
 20
71.4191195468
 11
53.328132003
 21
71.6291634498
  0
LINE
  5
498
100
AcDbEntity
  8
0
100
AcDbLine
 62
7
  6
CONTINUOUS
 10
53.356006199
 20
72.7329773477
 11
53.6495518534
 21
72.7830072746
  0
LINE
  5
499
100
AcDbEntity
  8
0
100
AcDbLine
 62
7
  6
CONTINUOUS
 10
51.2778309172
 20
71.9491574694
 11
51.4441499624
 21
71.9718433333
  0
LINE
  5
49A
100
AcDbEntity
  8
0
100
AcDbLine
 62
7
  6
CONTINUOUS
 10
51.5000734136
 20
72.2792987245
 11
51.3337543684
 21
72.2566128607
  0
LINE
  5
49B
100
AcDbEntity
  8
0
100
AcDbLine
 62
7
  6
CONTINUOUS
 10
63.4580913438
 20
75.3810452781
 11
63.9420061119
 21
75.4270910987
  0
LINE
  5
49C
100
AcDbEntity
  8
0
100
AcDbLine
 62
7
  6
CONTINUOUS
 10
64.2405738334
 20
75.7302984256
 11
63.7566591698
 21
75.6842527112
  0
LINE
  5
49D
100
AcDbEntity
  8
0
100
AcDbLine
 62
7
  6
CONTINUOUS
 10
55.2542825587
 20
77.1400013283
 11
55.0207394326
 21
77.1266732105
  0
LINE
  5
49E
100
AcDbEntity
  8
0
100
AcDbLine
 62
7
  6
CONTINUOUS
 10
139.1123275573
 20
79.53
 11
128.1426724427
 21
79.53
  0
LINE
  5
49F
100
AcDbEntity
  8
0
100
AcDbLine
 62
7
  6
CONTINUOUS
 10
64.1123275573
 20
79.53
 11
53.1426724427
 21
79.53
  0
LINE
  5
4A0
100
AcDbEntity
  8
0
100
AcDbLine
 62
7
  6
CONTINUOUS
 10
130.1368790154
 20
76.8248780292
 11
130.3254615463
 21
76.8119155061
  0
LINE
  5
4A1
100
AcDbEntity
  8
BEZUGSACHSEN
100
AcDbLine
 62
7
  6
CONTINUOUS
 10
58.1146274819
 20
93.4417133159
 11
58.25747634
 21
93.3859557909
  0
LWPOLYLINE
  5
4A2
100
AcDbEntity
  8
BEZUGSACHSEN
100
AcDbPolyline
 62
7
  6
CONTINUOUS
 90
3
 70
0
 10
58.25747634
 20
93.3859557909
 10
58.4040224448
 20
93.3166810537
 10
58.5072800996
 20
93.2609799426
  0
LINE
  5
4A3
100
AcDbEntity
  8
0
100
AcDbLine
 62
7
  6
CONTINUOUS
 10
47.6578448854
 20
140.03
 11
53.1426724427
 21
130.53
  0
LINE
  5
4A4
100
AcDbEntity
  8
0
100
AcDbLine
 62
7
  6
CONTINUOUS
 10
53.9087956627
 20
143.9974631196
 11
53.9806128171
 21
143.8209497352
  0
LINE
  5
4A5
100
AcDbEntity
  8
0
100
AcDbLine
 62
7
  6
CONTINUOUS
 10
56.4101010804
 20
145.7824722643
 11
56.3208110985
 21
146.0383497715
  0
LINE
  5
4A6
100
AcDbEntity
  8
0
100
AcDbLine
 62
7
  6
CONTINUOUS
 10
65.7741170478
 20
72.8390955846
 11
65.8637781871
 21
73.1230553798
  0
LINE
  5
4A7
100
AcDbEntity
  8
0
100
AcDbLine
 62
7
  6
CONTINUOUS
 10
60.0024853722
 20
75.4372471255
 11
60.8011092704
 21
77.2360131205
  0
LINE
  5
4A8
100
AcDbEntity
  8
0
100
AcDbLine
 62
7
  6
CONTINUOUS
 10
62.5147984402
 20
76.4751619987
 11
61.716174542
 21
74.6763960037
  0
LINE
  5
4A9
100
AcDbEntity
  8
0
100
AcDbLine
 62
7
  6
CONTINUOUS
 10
62.0017894036
 20
74.5495874835
 11
63.016257566
 21
76.8345063765
  0
LINE
  5
4AA
100
AcDbEntity
  8
0
100
AcDbLine
 62
7
  6
CONTINUOUS
 10
56.3180989232
 20
74.03
 11
54.0086978465
 21
70.03
  0
LINE
  5
4AB
100
AcDbEntity
  8
0
100
AcDbLine
 62
7
  6
CONTINUOUS
 10
56.2289947745
 20
75.0603911601
 11
56.3551374319
 21
75.257388783
  0
LINE
  5
4AC
100
AcDbEntity
  8
0
100
AcDbLine
 62
7
  6
CONTINUOUS
 10
52.5863448207
 20
75.3576026963
 11
52.4083341611
 21
75.1007594462
  0
LINE
  5
4AD
100
AcDbEntity
  8
0
100
AcDbLine
 62
7
  6
CONTINUOUS
 10
51.6962915228
 20
74.0733864462
 11
51.5182807784
 21
73.8165430737
  0
LINE
  5
4AE
100
AcDbEntity
  8
0
100
AcDbLine
 62
7
  6
CONTINUOUS
 10
53.9040876727
 20
73.4304001246
 11
53.7854138431
 21
73.2591712096
  0
LINE
  5
4AF
100
AcDbEntity
  8
0
100
AcDbLine
 62
7
  6
CONTINUOUS
 10
54.0477218424
 20
73.0773730897
 11
54.1663956721
 21
73.2486020047
  0
LINE
  5
4B0
100
AcDbEntity
  8
0
100
AcDbLine
 62
7
  6
CONTINUOUS
 10
129.7690853123
 20
147.0411367778
 11
128.6900269118
 21
146.4101589902
  0
LINE
  5
4B1
100
AcDbEntity
  8
0
100
AcDbLine
 62
7
  6
CONTINUOUS
 10
129.1208922044
 20
146.2923991975
 11
129.9301860048
 21
146.7656325382
  0
LINE
  5
4B2
100
AcDbEntity
  8
0
100
AcDbLine
 62
7
  6
CONTINUOUS
 10
130.869940176
 20
145.1585242486
 11
130.0606463757
 21
144.685290908
  0
LINE
  5
4B3
100
AcDbEntity
  8
0
100
AcDbLine
 62
7
  6
CONTINUOUS
 10
129.9519824869
 20
144.2520421893
 11
131.0310408873
 21
144.8830199768
  0
LINE
  5
4B4
100
AcDbEntity
  8
0
100
AcDbLine
 62
7
  6
CONTINUOUS
 10
128.6495518534
 20
142.7830072746
 11
128.8556616841
 21
142.8936368154
  0
LINE
  5
4B5
100
AcDbEntity
  8
0
100
AcDbLine
 62
7
  6
CONTINUOUS
 10
126.3337543684
 20
142.2566128607
 11
126.0964613375
 21
142.1409607017
  0
LINE
  5
4B6
100
AcDbEntity
  8
RUNDUNGEN
100
AcDbLine
 62
7
  6
CONTINUOUS
 10
134.2774925126
 20
93.4833836619
 11
134.4096016205
 21
93.511576152
  0
LINE
  5
4B7
100
AcDbEntity
  8
RUNDUNGEN
100
AcDbLine
 62
7
  6
CONTINUOUS
 10
134.4096016205
 20
93.511576152
 11
134.5112056929
 21
93.5246700781
  0
LWPOLYLINE
  5
4B8
100
AcDbEntity
  8
BEZUGSACHSEN
100
AcDbPolyline
 62
7
  6
CONTINUOUS
 90
4
 70
0
 10
57.7437889158
 20
93.5246705691
 10
57.8450308371
 20
93.5116373081
 10
57.9769084678
 20
93.4835387362
 10
58.1146274819
 20
93.4417133159
  0
LINE
  5
4B9
100
AcDbEntity
  8
0
100
AcDbLine
 62
7
  6
CONTINUOUS
 10
130.5415259156
 20
77.0614946995
 11
130.2542825587
 21
77.1400013283
  0
LINE
  5
4BA
100
AcDbEntity
  8
0
100
AcDbLine
 62
7
  6
CONTINUOUS
 10
140.2508954809
 20
74.2718781363
 11
139.9651113818
 21
74.3555425487
  0
LINE
  5
4BB
100
AcDbEntity
  8
0
100
AcDbLine
 62
7
  6
CONTINUOUS
 10
128.2560898543
 20
73.0557044546
 11
128.0515495451
 21
73.134096142
  0
LINE
  5
4BC
100
AcDbEntity
  8
0
100
AcDbLine
 62
7
  6
CONTINUOUS
 10
127.8735388006
 20
72.8772527695
 11
128.1217972744
 21
72.7685616439
  0
LINE
  5
4BD
100
AcDbEntity
  8
0
100
AcDbLine
 62
7
  6
CONTINUOUS
 10
54.0086978465
 20
140.03
 11
56.3180989232
 21
136.03
  0
LINE
  5
4BE
100
AcDbEntity
  8
0
100
AcDbLine
 62
7
  6
CONTINUOUS
 10
54.2460594969
 20
144.0171935978
 11
54.130524317
 21
144.2240066865
  0
LINE
  5
4BF
100
AcDbEntity
  8
0
100
AcDbLine
 62
7
  6
CONTINUOUS
 10
65.859578578
 20
143.3569402775
 11
65.7594172935
 21
143.6576948302
  0
LINE
  5
4C0
100
AcDbEntity
  8
0
100
AcDbLine
 62
7
  6
CONTINUOUS
 10
65.5002485092
 20
143.5784635049
 11
65.5758942835
 21
143.3236622411
  0
LINE
  5
4C1
100
AcDbEntity
  8
0
100
AcDbLine
 62
7
  6
CONTINUOUS
 10
65.5555789435
 20
73.1357295805
 11
65.4638179996
 21
72.9687122341
  0
LINE
  5
4C2
100
AcDbEntity
  8
0
100
AcDbLine
 62
7
  6
CONTINUOUS
 10
60.9369010768
 20
66.03
 11
63.2463021535
 21
70.03
  0
LINE
  5
4C3
100
AcDbEntity
  8
0
100
AcDbLine
 62
7
  6
CONTINUOUS
 10
126.1545241053
 20
141.8657100585
 11
126.2778309172
 21
141.9491574694
  0
LINE
  5
4C4
100
AcDbEntity
  8
0
100
AcDbLine
 62
7
  6
CONTINUOUS
 10
138.2735077743
 20
143.5711556523
 11
138.0388544674
 21
143.4459710205
  0
LINE
  5
4C5
100
AcDbEntity
  8
0
100
AcDbLine
 62
7
  6
CONTINUOUS
 10
140.4638179996
 20
142.9687122341
 11
140.3699565585
 21
142.9186383183
  0
LINE
  5
4C6
100
AcDbEntity
  8
0
100
AcDbLine
 62
7
  6
CONTINUOUS
 10
138.921406103
 20
141.7916652415
 11
139.1560594098
 21
141.9168498733
  0
LINE
  5
4C7
100
AcDbEntity
  8
0
100
AcDbLine
 62
7
  6
CONTINUOUS
 10
140.5170484977
 20
142.6429206885
 11
140.6109099388
 21
142.6929946043
  0
LWPOLYLINE
  5
4C8
100
AcDbEntity
  8
RUNDUNGEN
100
AcDbPolyline
 62
7
  6
CONTINUOUS
 90
39
 70
0
 10
134.5084694022
 20
93.5244229348
 10
134.5768727386
 20
93.5310792662
 10
134.6498588971
 20
93.5393643417
 10
134.730227313
 20
93.5501557274
 10
134.8211107178
 20
93.564722069
 10
134.9183379193
 20
93.5832880877
 10
135.0177263233
 20
93.6056106868
 10
135.1188473091
 20
93.6319250377
 10
135.2186511801
 20
93.6615854167
 10
135.3191120989
 20
93.6952754724
 10
135.4212346964
 20
93.7336195571
 10
135.5241703152
 20
93.7766302764
 10
135.6276468871
 20
93.8244958505
 10
135.7307935232
 20
93.8770807791
 10
135.832708113
 20
93.9341073721
 10
135.9333186271
 20
93.9956831372
 10
136.0322766829
 20
94.0617483026
 10
136.129492328
 20
94.13240282
 10
136.2248167191
 20
94.20772563
 10
136.3179913803
 20
94.287716096
 10
136.4087736886
 20
94.3723803139
 10
136.496914314
 20
94.4617149908
 10
136.5821553888
 20
94.5557049175
 10
136.6642296011
 20
94.654320442
 10
136.7428628748
 20
94.757518866
 10
136.8177726011
 20
94.8652405229
 10
136.8886703261
 20
94.977410228
 10
136.9552618484
 20
95.0939355458
 10
137.0172475506
 20
95.2147047855
 10
137.0743261734
 20
95.3395920328
 10
137.126192395
 20
95.4684506937
 10
137.172537795
 20
95.6011115712
 10
137.2130529731
 20
95.7373838459
 10
137.2474285791
 20
95.8770534671
 10
137.2753568047
 20
96.0198824282
 10
137.2965328965
 20
96.165607756
 10
137.310656847
 20
96.3139407351
 10
137.3174351996
 20
96.4645660567
 10
137.3180258867
 20
96.5241002551
  0
LINE
  5
4C9
100
AcDbEntity
  8
RUNDUNGEN
100
AcDbLine
 62
7
  6
CONTINUOUS
 10
134.5084694022
 20
93.5244229348
 11
134.5112057017
 21
93.5246706523
  0
LINE
  5
4CA
100
AcDbEntity
  8
BEZUGSACHSEN
100
AcDbLine
 62
7
  6
CONTINUOUS
 10
58.0710649855
 20
93.53
 11
69.0794867466
 21
93.53
  0
LINE
  5
4CB
100
AcDbEntity
  8
RUNDUNGEN
100
AcDbLine
 62
7
  6
CONTINUOUS
 10
69.0794867466
 20
93.53
 11
134.1839350476
 21
93.53
  0
LINE
  5
4CC
100
AcDbEntity
  8
BEZUGSACHSEN
100
AcDbLine
 62
7
  6
CONTINUOUS
 10
57.7465565931
 20
93.5244205958
 11
57.7437889069
 21
93.5246711433
  0
LINE
  5
4CD
100
AcDbEntity
  8
0
100
AcDbLine
 62
7
  6
CONTINUOUS
 10
140.1332029188
 20
72.9103972047
 11
138.2735077743
 21
73.5711556523
  0
LINE
  5
4CE
100
AcDbEntity
  8
0
100
AcDbLine
 62
7
  6
CONTINUOUS
 10
138.4696301729
 20
73.2035324965
 11
140.1149879445
 21
72.6055210434
  0
LINE
  5
4CF
100
AcDbEntity
  8
0
100
AcDbLine
 62
7
  6
CONTINUOUS
 10
134.7168705106
 20
75.5640556458
 11
135.0024853722
 21
75.4372471255
  0
LINE
  5
4D0
100
AcDbEntity
  8
0
100
AcDbLine
 62
7
  6
CONTINUOUS
 10
135.6689196862
 20
75.1413607394
 11
136.049740228
 21
74.9722823898
  0
LINE
  5
4D1
100
AcDbEntity
  8
0
100
AcDbLine
 62
7
  6
CONTINUOUS
 10
136.716174542
 20
74.6763960037
 11
137.0017894036
 21
74.5495874835
  0
LINE
  5
4D2
100
AcDbEntity
  8
0
100
AcDbLine
 62
7
  6
CONTINUOUS
 10
126.601148588
 20
71.9432866541
 11
126.7488265006
 21
71.8634874852
  0
LINE
  5
4D3
100
AcDbEntity
  8
0
100
AcDbLine
 62
7
  6
CONTINUOUS
 10
126.8570827781
 20
72.1614239923
 11
126.7094048655
 21
72.2412231612
  0
LINE
  5
4D4
100
AcDbEntity
  8
0
100
AcDbLine
 62
7
  6
CONTINUOUS
 10
51.7488265006
 20
141.8634874852
 11
51.834850994
 21
141.7419645376
  0
LINE
  5
4D5
100
AcDbEntity
  8
0
100
AcDbLine
 62
7
  6
CONTINUOUS
 10
53.6900269118
 20
146.4101589902
 11
54.9519824869
 21
144.2520421893
  0
LINE
  5
4D6
100
AcDbEntity
  8
0
100
AcDbLine
 62
7
  6
CONTINUOUS
 10
55.0606463757
 20
144.685290908
 11
54.1208922044
 21
146.2923991975
  0
LINE
  5
4D7
100
AcDbEntity
  8
0
100
AcDbLine
 62
7
  6
CONTINUOUS
 10
55.6482947295
 20
146.569365988
 11
56.0510464984
 21
145.8806053246
  0
LINE
  5
4D8
100
AcDbEntity
  8
0
100
AcDbLine
 62
7
  6
CONTINUOUS
 10
56.3208110985
 20
146.0383497715
 11
55.9180593297
 21
146.7271104349
  0
LINE
  5
4D9
100
AcDbEntity
  8
0
100
AcDbLine
 62
7
  6
CONTINUOUS
 10
63.2463021535
 20
140.03
 11
60.9369010768
 21
144.03
  0
LINE
  5
4DA
100
AcDbEntity
  8
0
100
AcDbLine
 62
7
  6
CONTINUOUS
 10
63.0388544674
 20
143.4459710205
 11
63.921406103
 21
141.7916652415
  0
LINE
  5
4DB
100
AcDbEntity
  8
0
100
AcDbLine
 62
7
  6
CONTINUOUS
 10
64.1560594098
 20
141.9168498733
 11
63.4696301729
 21
143.2035324965
  0
LINE
  5
4DC
100
AcDbEntity
  8
0
100
AcDbLine
 62
7
  6
CONTINUOUS
 10
64.1123275573
 20
60.53
 11
69.5971551146
 21
70.03
  0
LINE
  5
4DD
100
AcDbEntity
  8
0
100
AcDbLine
 62
7
  6
CONTINUOUS
 10
62.5878352735
 20
77.0247191569
 11
60.9672521043
 21
75.2998980477
  0
LINE
  5
4DE
100
AcDbEntity
  8
0
100
AcDbLine
 62
7
  6
CONTINUOUS
 10
56.0229329559
 20
75.3096044862
 11
55.869940176
 21
75.1585242486
  0
LINE
  5
4DF
100
AcDbEntity
  8
0
100
AcDbLine
 62
7
  6
CONTINUOUS
 10
53.8556616841
 20
72.8936368154
 11
54.0477218424
 21
73.0773730897
  0
LINE
  5
4E0
100
AcDbEntity
  8
0
100
AcDbLine
 62
7
  6
CONTINUOUS
 10
126.0964613375
 20
142.1409607017
 11
125.9021805667
 21
141.9645471423
  0
LINE
  5
4E1
100
AcDbEntity
  8
0
100
AcDbLine
 62
7
  6
CONTINUOUS
 10
51.0964613375
 20
72.1409607017
 11
50.9021805667
 21
71.9645471423
  0
LINE
  5
4E2
100
AcDbEntity
  8
0
100
AcDbLine
 62
7
  6
CONTINUOUS
 10
131.0310408873
 20
144.8830199768
 11
131.2289947745
 21
145.0603911601
  0
LINE
  5
4E3
100
AcDbEntity
  8
0
100
AcDbLine
 62
7
  6
CONTINUOUS
 10
128.7854138431
 20
143.2591712096
 11
128.6230221884
 21
143.1182422227
  0
LINE
  5
4E4
100
AcDbEntity
  8
0
100
AcDbLine
 62
7
  6
CONTINUOUS
 10
155.2935914219
 20
98.13
 11
139.0152035386
 21
98.13
  0
LINE
  5
4E5
100
AcDbEntity
  8
0
100
AcDbLine
 62
7
  6
CONTINUOUS
 10
52.9864948184
 20
98.13
 11
38.3079387733
 21
98.13
  0
LINE
  5
4E6
100
AcDbEntity
  8
RUNDUNGEN
100
AcDbLine
 62
7
  6
CONTINUOUS
 10
161.6275
 20
99.03
 11
30.6275
 21
99.03
  0
LINE
  5
4E7
100
AcDbEntity
  8
0
100
AcDbLine
 62
7
  6
CONTINUOUS
 10
138.016257566
 20
76.8345063765
 11
137.5878352735
 21
77.0247191569
  0
LINE
  5
4E8
100
AcDbEntity
  8
0
100
AcDbLine
 62
7
  6
CONTINUOUS
 10
136.1597609654
 20
77.6587617584
 11
135.7313386729
 21
77.8489745388
  0
LINE
  5
4E9
100
AcDbEntity
  8
0
100
AcDbLine
 62
7
  6
CONTINUOUS
 10
130.3254615463
 20
76.8119155061
 11
130.4959336727
 21
76.7267448402
  0
LINE
  5
4EA
100
AcDbEntity
  8
0
100
AcDbLine
 62
7
  6
CONTINUOUS
 10
140.0652726663
 20
74.054787996
 11
140.2326799455
 21
73.9670030268
  0
LINE
  5
4EB
100
AcDbEntity
  8
0
100
AcDbLine
 62
7
  6
CONTINUOUS
 10
126.5182807784
 20
73.8165430737
 11
127.8735388006
 21
72.8772527695
  0
LINE
  5
4EC
100
AcDbEntity
  8
0
100
AcDbLine
 62
7
  6
CONTINUOUS
 10
128.0515495451
 20
73.134096142
 11
126.6962915228
 21
74.0733864462
  0
LINE
  5
4ED
100
AcDbEntity
  8
0
100
AcDbLine
 62
7
  6
CONTINUOUS
 10
127.4083341611
 20
75.1007594462
 11
128.7635921834
 21
74.1614691421
  0
LINE
  5
4EE
100
AcDbEntity
  8
0
100
AcDbLine
 62
7
  6
CONTINUOUS
 10
128.9416028429
 20
74.4183123921
 11
127.5863448207
 21
75.3576026963
  0
LINE
  5
4EF
100
AcDbEntity
  8
0
100
AcDbLine
 62
7
  6
CONTINUOUS
 10
52.0384523578
 20
141.96962076
 11
51.8570827781
 21
142.1614239923
  0
LINE
  5
4F0
100
AcDbEntity
  8
0
100
AcDbLine
 62
7
  6
CONTINUOUS
 10
53.7635921834
 20
144.1614691421
 11
53.9087956627
 21
143.9974631196
  0
LINE
  5
4F1
100
AcDbEntity
  8
0
100
AcDbLine
 62
7
  6
CONTINUOUS
 10
69.5971551146
 20
140.03
 11
64.1123275573
 21
149.53
  0
LINE
  5
4F2
100
AcDbEntity
  8
0
100
AcDbLine
 62
7
  6
CONTINUOUS
 10
64.7528732524
 20
144.3013481462
 11
64.8754502425
 21
144.0715827535
  0
LINE
  5
4F3
100
AcDbEntity
  8
0
100
AcDbLine
 62
7
  6
CONTINUOUS
 10
65.4021870294
 20
143.7622756087
 11
65.5002485092
 21
143.5784635049
  0
LINE
  5
4F4
100
AcDbEntity
  8
0
100
AcDbLine
 62
7
  6
CONTINUOUS
 10
65.7594172935
 20
143.6576948302
 11
65.6613558136
 21
143.841506934
  0
LINE
  5
4F5
100
AcDbEntity
  8
0
100
AcDbLine
 62
7
  6
CONTINUOUS
 10
61.049740228
 20
74.9722823898
 11
62.5147984402
 21
76.4751619987
  0
LINE
  5
4F6
100
AcDbEntity
  8
0
100
AcDbLine
 62
7
  6
CONTINUOUS
 10
136.049740228
 20
144.9722823898
 11
137.5147984402
 21
146.4751619987
  0
LINE
  5
4F7
100
AcDbEntity
  8
0
100
AcDbLine
 62
7
  6
CONTINUOUS
 10
63.7566591698
 20
75.6842527112
 11
63.4580913438
 21
75.3810452781
  0
LINE
  5
4F8
100
AcDbEntity
  8
0
100
AcDbLine
 62
7
  6
CONTINUOUS
 10
63.9420061119
 20
75.4270910987
 11
62.4864882605
 21
73.9489551676
  0
LINE
  5
4F9
100
AcDbEntity
  8
0
100
AcDbLine
 62
7
  6
CONTINUOUS
 10
62.7091561677
 20
73.729694471
 11
64.4632417406
 21
75.511037729
  0
LINE
  5
4FA
100
AcDbEntity
  8
0
100
AcDbLine
 62
7
  6
CONTINUOUS
 10
131.0229329559
 20
145.3096044862
 11
130.869940176
 21
145.1585242486
  0
LINE
  5
4FB
100
AcDbEntity
  8
0
100
AcDbLine
 62
7
  6
CONTINUOUS
 10
128.8556616841
 20
142.8936368154
 11
129.0477218424
 21
143.0773730897
  0
LINE
  5
4FC
100
AcDbEntity
  8
0
100
AcDbLine
 62
7
  6
CONTINUOUS
 10
56.0310408873
 20
74.8830199768
 11
56.2289947745
 21
75.0603911601
  0
LINE
  5
4FD
100
AcDbEntity
  8
0
100
AcDbLine
 62
7
  6
CONTINUOUS
 10
53.7854138431
 20
73.2591712096
 11
53.6230221884
 21
73.1182422227
  0
LINE
  5
4FE
100
AcDbEntity
  8
0
100
AcDbLine
 62
7
  6
CONTINUOUS
 10
130.7388480822
 20
76.930406789
 11
130.5415259156
 21
77.0614946995
  0
LINE
  5
4FF
100
AcDbEntity
  8
0
100
AcDbLine
 62
7
  6
CONTINUOUS
 10
140.4428177093
 20
74.1381409299
 11
140.2508954809
 21
74.2718781363
  0
LINE
  5
500
100
AcDbEntity
  8
0
100
AcDbLine
 62
7
  6
CONTINUOUS
 10
54.130524317
 20
144.2240066865
 11
53.9416028429
 21
144.4183123921
  0
LINE
  5
501
100
AcDbEntity
  8
0
100
AcDbLine
 62
7
  6
CONTINUOUS
 10
55.4959336727
 20
146.7267448402
 11
55.6482947295
 21
146.569365988
  0
LINE
  5
502
100
AcDbEntity
  8
0
100
AcDbLine
 62
7
  6
CONTINUOUS
 10
127.0384523578
 20
71.96962076
 11
126.8570827781
 21
72.1614239923
  0
LINE
  5
503
100
AcDbEntity
  8
0
100
AcDbLine
 62
7
  6
CONTINUOUS
 10
55.9180593297
 20
146.7271104349
 11
55.7388480822
 21
146.930406789
  0
LINE
  5
504
100
AcDbEntity
  8
0
100
AcDbLine
 62
7
  6
CONTINUOUS
 10
65.6613558136
 20
143.841506934
 11
65.4428177093
 21
144.1381409299
  0
LINE
  5
505
100
AcDbEntity
  8
0
100
AcDbLine
 62
7
  6
CONTINUOUS
 10
128.1426724427
 20
149.53
 11
122.6578448854
 21
140.03
  0
LINE
  5
506
100
AcDbEntity
  8
0
100
AcDbLine
 62
7
  6
CONTINUOUS
 10
127.5863448207
 20
145.3576026963
 11
127.4083341611
 21
145.1007594462
  0
LINE
  5
507
100
AcDbEntity
  8
0
100
AcDbLine
 62
7
  6
CONTINUOUS
 10
126.6962915228
 20
144.0733864462
 11
126.5182807784
 21
143.8165430737
  0
LINE
  5
508
100
AcDbEntity
  8
0
100
AcDbLine
 62
7
  6
CONTINUOUS
 10
128.9040876727
 20
143.4304001246
 11
128.7854138431
 21
143.2591712096
  0
LINE
  5
509
100
AcDbEntity
  8
0
100
AcDbLine
 62
7
  6
CONTINUOUS
 10
129.0477218424
 20
143.0773730897
 11
129.1663956721
 21
143.2486020047
  0
LINE
  5
50A
100
AcDbEntity
  8
0
100
AcDbLine
 62
7
  6
CONTINUOUS
 10
137.5878352735
 20
147.0247191569
 11
135.9672521043
 21
145.2998980477
  0
LINE
  5
50B
100
AcDbEntity
  8
0
100
AcDbLine
 62
7
  6
CONTINUOUS
 10
138.7566591698
 20
145.6842527112
 11
138.4580913438
 21
145.3810452781
  0
LINE
  5
50C
100
AcDbEntity
  8
0
100
AcDbLine
 62
7
  6
CONTINUOUS
 10
138.9420061119
 20
145.4270910987
 11
137.4864882605
 21
143.9489551676
  0
LINE
  5
50D
100
AcDbEntity
  8
0
100
AcDbLine
 62
7
  6
CONTINUOUS
 10
137.7091561677
 20
143.729694471
 11
139.4632417406
 21
145.511037729
  0
LINE
  5
50E
100
AcDbEntity
  8
0
100
AcDbLine
 62
7
  6
CONTINUOUS
 10
140.6109099388
 20
142.6929946043
 11
140.7741170478
 21
142.8390955846
  0
LINE
  5
50F
100
AcDbEntity
  8
0
100
AcDbLine
 62
7
  6
CONTINUOUS
 10
65.6109099388
 20
72.6929946043
 11
65.7741170478
 21
72.8390955846
  0
LINE
  5
510
100
AcDbEntity
  8
0
100
AcDbLine
 62
7
  6
CONTINUOUS
 10
51.1545241053
 20
71.8657100585
 11
51.2778309172
 21
71.9491574694
  0
LINE
  5
511
100
AcDbEntity
  8
0
100
AcDbLine
 62
7
  6
CONTINUOUS
 10
54.7690853123
 20
77.0411367778
 11
53.6900269118
 21
76.4101589902
  0
LINE
  5
512
100
AcDbEntity
  8
0
100
AcDbLine
 62
7
  6
CONTINUOUS
 10
54.1208922044
 20
76.2923991975
 11
54.9301860048
 21
76.7656325382
  0
LINE
  5
513
100
AcDbEntity
  8
0
100
AcDbLine
 62
7
  6
CONTINUOUS
 10
55.869940176
 20
75.1585242486
 11
55.0606463757
 21
74.685290908
  0
LINE
  5
514
100
AcDbEntity
  8
0
100
AcDbLine
 62
7
  6
CONTINUOUS
 10
54.9519824869
 20
74.2520421893
 11
56.0310408873
 21
74.8830199768
  0
LINE
  5
515
100
AcDbEntity
  8
RUNDUNGEN
100
AcDbLine
 62
7
  6
CONTINUOUS
 10
30.6275
 20
111.03
 11
161.6275
 21
111.03
  0
LINE
  5
516
100
AcDbEntity
  8
0
100
AcDbLine
 62
7
  6
CONTINUOUS
 10
62.4864882605
 20
143.9489551676
 11
62.7091561677
 21
143.729694471
  0
LINE
  5
517
100
AcDbEntity
  8
0
100
AcDbLine
 62
7
  6
CONTINUOUS
 10
129.130524317
 20
74.2240066865
 11
128.9416028429
 21
74.4183123921
  0
LINE
  5
518
100
AcDbEntity
  8
0
100
AcDbLine
 62
7
  6
CONTINUOUS
 10
130.4959336727
 20
76.7267448402
 11
130.6482947295
 21
76.569365988
  0
LINE
  5
519
100
AcDbEntity
  8
0
100
AcDbLine
 62
7
  6
CONTINUOUS
 10
128.7635921834
 20
74.1614691421
 11
128.9087956627
 21
73.9974631196
  0
LINE
  5
51A
100
AcDbEntity
  8
0
100
AcDbLine
 62
7
  6
CONTINUOUS
 10
65.2326799455
 20
143.9670030268
 11
65.4021870294
 21
143.7622756087
  0
LINE
  5
51B
100
AcDbEntity
  8
0
100
AcDbLine
 62
7
  6
CONTINUOUS
 10
126.7488265006
 20
71.8634874852
 11
126.834850994
 21
71.7419645376
  0
LINE
  5
51C
100
AcDbEntity
  8
0
100
AcDbLine
 62
7
  6
CONTINUOUS
 10
122.6578448854
 20
70.03
 11
128.1426724427
 21
60.53
  0
LINE
  5
51D
100
AcDbEntity
  8
0
100
AcDbLine
 62
7
  6
CONTINUOUS
 10
126.0742295534
 20
141.721501247
 11
126.1545241053
 21
141.8657100585
  0
LINE
  5
51E
100
AcDbEntity
  8
0
100
AcDbLine
 62
7
  6
CONTINUOUS
 10
131.3180989232
 20
144.03
 11
129.0086978465
 21
140.03
  0
LINE
  5
51F
100
AcDbEntity
  8
0
100
AcDbLine
 62
7
  6
CONTINUOUS
 10
131.2289947745
 20
145.0603911601
 11
131.3551374319
 21
145.257388783
  0
LINE
  5
520
100
AcDbEntity
  8
0
100
AcDbLine
 62
7
  6
CONTINUOUS
 10
53.6495518534
 20
72.7830072746
 11
53.8556616841
 21
72.8936368154
  0
LINE
  5
521
100
AcDbEntity
  8
0
100
AcDbLine
 62
7
  6
CONTINUOUS
 10
51.3337543684
 20
72.2566128607
 11
51.0964613375
 21
72.1409607017
  0
LINE
  5
522
100
AcDbEntity
  8
0
100
AcDbLine
 62
7
  6
CONTINUOUS
 10
44.36297178
 20
111.93
 11
54.6360604688
 21
111.93
  0
LINE
  5
523
100
AcDbEntity
  8
0
100
AcDbLine
 62
7
  6
CONTINUOUS
 10
135.0797532828
 20
111.93
 11
157.4721546911
 21
111.93
  0
LINE
  5
524
100
AcDbEntity
  8
BEZUGSACHSEN
100
AcDbLine
 62
7
  6
CONTINUOUS
 10
58.0710649855
 20
116.53
 11
134.1839350476
 21
116.53
  0
LINE
  5
525
100
AcDbEntity
  8
0
100
AcDbLine
 62
7
  6
CONTINUOUS
 10
51.601148588
 20
141.9432866541
 11
51.7488265006
 21
141.8634874852
  0
LINE
  5
526
100
AcDbEntity
  8
0
100
AcDbLine
 62
7
  6
CONTINUOUS
 10
51.8570827781
 20
142.1614239923
 11
51.7094048655
 21
142.2412231612
  0
LINE
  5
527
100
AcDbEntity
  8
0
100
AcDbLine
 62
7
  6
CONTINUOUS
 10
51.5182807784
 20
143.8165430737
 11
52.8735388006
 21
142.8772527695
  0
LINE
  5
528
100
AcDbEntity
  8
0
100
AcDbLine
 62
7
  6
CONTINUOUS
 10
53.0515495451
 20
143.134096142
 11
51.6962915228
 21
144.0733864462
  0
LINE
  5
529
100
AcDbEntity
  8
0
100
AcDbLine
 62
7
  6
CONTINUOUS
 10
52.4083341611
 20
145.1007594462
 11
53.7635921834
 21
144.1614691421
  0
LINE
  5
52A
100
AcDbEntity
  8
0
100
AcDbLine
 62
7
  6
CONTINUOUS
 10
53.9416028429
 20
144.4183123921
 11
52.5863448207
 21
145.3576026963
  0
LINE
  5
52B
100
AcDbEntity
  8
0
100
AcDbLine
 62
7
  6
CONTINUOUS
 10
64.4632417406
 20
145.511037729
 11
64.2405738334
 21
145.7302984256
  0
LINE
  5
52C
100
AcDbEntity
  8
0
100
AcDbLine
 62
7
  6
CONTINUOUS
 10
137.4864882605
 20
73.9489551676
 11
137.7091561677
 21
73.729694471
  0
LINE
  5
52D
100
AcDbEntity
  8
0
100
AcDbLine
 62
7
  6
CONTINUOUS
 10
139.4632417406
 20
75.511037729
 11
139.2405738334
 21
75.7302984256
  0
LINE
  5
52E
100
AcDbEntity
  8
0
100
AcDbLine
 62
7
  6
CONTINUOUS
 10
130.9180593297
 20
76.7271104349
 11
130.7388480822
 21
76.930406789
  0
LINE
  5
52F
100
AcDbEntity
  8
0
100
AcDbLine
 62
7
  6
CONTINUOUS
 10
129.0086978465
 20
70.03
 11
131.3180989232
 21
66.03
  0
LINE
  5
530
100
AcDbEntity
  8
0
100
AcDbLine
 62
7
  6
CONTINUOUS
 10
125.9021805667
 20
141.9645471423
 11
125.8032448555
 21
141.7178531515
  0
LINE
  5
531
100
AcDbEntity
  8
0
100
AcDbLine
 62
7
  6
CONTINUOUS
 10
129.1663956721
 20
143.2486020047
 11
129.2710198332
 21
143.4929376505
  0
LINE
  5
532
100
AcDbEntity
  8
0
100
AcDbLine
 62
7
  6
CONTINUOUS
 10
131.1041150063
 20
145.4803114883
 11
131.0229329559
 21
145.3096044862
  0
LINE
  5
533
100
AcDbEntity
  8
0
100
AcDbLine
 62
7
  6
CONTINUOUS
 10
63.2735077743
 20
73.5711556523
 11
63.0388544674
 21
73.4459710205
  0
LINE
  5
534
100
AcDbEntity
  8
0
100
AcDbLine
 62
7
  6
CONTINUOUS
 10
65.4638179996
 20
72.9687122341
 11
65.3699565585
 21
72.9186383183
  0
LINE
  5
535
100
AcDbEntity
  8
0
100
AcDbLine
 62
7
  6
CONTINUOUS
 10
63.921406103
 20
71.7916652415
 11
64.1560594098
 21
71.9168498733
  0
LINE
  5
536
100
AcDbEntity
  8
0
100
AcDbLine
 62
7
  6
CONTINUOUS
 10
65.5170484977
 20
72.6429206885
 11
65.6109099388
 21
72.6929946043
  0
LINE
  5
537
100
AcDbEntity
  8
0
100
AcDbLine
 62
7
  6
CONTINUOUS
 10
53.6230221884
 20
73.1182422227
 11
53.4465808384
 21
73.0504199852
  0
LINE
  5
538
100
AcDbEntity
  8
0
100
AcDbLine
 62
7
  6
CONTINUOUS
 10
55.0207394326
 20
77.1266732105
 11
54.7690853123
 21
77.0411367778
  0
LINE
  5
539
100
AcDbEntity
  8
0
100
AcDbLine
 62
7
  6
CONTINUOUS
 10
54.9301860048
 20
76.7656325382
 11
55.1368790154
 21
76.8248780292
  0
LINE
  5
53A
100
AcDbEntity
  8
BEZUGSACHSEN
100
AcDbLine
 62
7
  6
CONTINUOUS
 10
57.8453983795
 20
116.548423848
 11
57.7437943071
 21
116.5353299219
  0
LWPOLYLINE
  5
53B
100
AcDbEntity
  8
BEZUGSACHSEN
100
AcDbPolyline
 62
7
  6
CONTINUOUS
 90
39
 70
0
 10
57.7465305978
 20
116.5355770652
 10
57.6781272614
 20
116.5289207338
 10
57.6051411029
 20
116.5206356583
 10
57.524772687
 20
116.5098442726
 10
57.4338892822
 20
116.495277931
 10
57.3366620807
 20
116.4767119123
 10
57.2372736767
 20
116.4543893132
 10
57.1361526909
 20
116.4280749623
 10
57.0363488199
 20
116.3984145833
 10
56.9358879011
 20
116.3647245276
 10
56.8337653036
 20
116.3263804429
 10
56.7308296848
 20
116.2833697236
 10
56.6273531129
 20
116.2355041495
 10
56.5242064768
 20
116.1829192209
 10
56.422291887
 20
116.1258926279
 10
56.3216813729
 20
116.0643168628
 10
56.2227233171
 20
115.9982516974
 10
56.125507672
 20
115.92759718
 10
56.0301832809
 20
115.85227437
 10
55.9370086197
 20
115.772283904
 10
55.8462263114
 20
115.6876196861
 10
55.758085686
 20
115.5982850092
 10
55.6728446112
 20
115.5042950825
 10
55.5907703989
 20
115.405679558
 10
55.5121371252
 20
115.302481134
 10
55.4372273989
 20
115.1947594771
 10
55.3663296739
 20
115.082589772
 10
55.2997381516
 20
114.9660644542
 10
55.2377524494
 20
114.8452952145
 10
55.1806738266
 20
114.7204079672
 10
55.128807605
 20
114.5915493063
 10
55.082462205
 20
114.4588884288
 10
55.0419470269
 20
114.3226161541
 10
55.0075714209
 20
114.1829465329
 10
54.9796431953
 20
114.0401175718
 10
54.9584671035
 20
113.894392244
 10
54.944343153
 20
113.7460592649
 10
54.9375648004
 20
113.5954339433
 10
54.9369741133
 20
113.5358997449
  0
LINE
  5
53C
100
AcDbEntity
  8
BEZUGSACHSEN
100
AcDbLine
 62
7
  6
CONTINUOUS
 10
57.7465305978
 20
116.5355770652
 11
57.7437942983
 21
116.5353293477
  0
LINE
  5
53D
100
AcDbEntity
  8
BEZUGSACHSEN
100
AcDbLine
 62
7
  6
CONTINUOUS
 10
134.5084434069
 20
116.5355794042
 11
134.5112110931
 21
116.5353288567
  0
LWPOLYLINE
  5
53E
100
AcDbEntity
  8
BEZUGSACHSEN
100
AcDbPolyline
 62
7
  6
CONTINUOUS
 90
4
 70
0
 10
134.5112110842
 20
116.5353294309
 10
134.4099691629
 20
116.5483626919
 10
134.2780915322
 20
116.5764612638
 10
134.1403725181
 20
116.6182866841
  0
LINE
  5
53F
100
AcDbEntity
  8
0
100
AcDbLine
 62
7
  6
CONTINUOUS
 10
55.7388480822
 20
146.930406789
 11
55.5415259156
 21
147.0614946995
  0
LINE
  5
540
100
AcDbEntity
  8
0
100
AcDbLine
 62
7
  6
CONTINUOUS
 10
65.4428177093
 20
144.1381409299
 11
65.2508954809
 21
144.2718781363
  0
LINE
  5
541
100
AcDbEntity
  8
0
100
AcDbLine
 62
7
  6
CONTINUOUS
 10
140.2326799455
 20
73.9670030268
 11
140.4021870294
 21
73.7622756087
  0
LINE
  5
542
100
AcDbEntity
  8
0
100
AcDbLine
 62
7
  6
CONTINUOUS
 10
128.6900269118
 20
76.4101589902
 11
129.9519824869
 21
74.2520421893
  0
LINE
  5
543
100
AcDbEntity
  8
0
100
AcDbLine
 62
7
  6
CONTINUOUS
 10
130.0606463757
 20
74.685290908
 11
129.1208922044
 21
76.2923991975
  0
LINE
  5
544
100
AcDbEntity
  8
0
100
AcDbLine
 62
7
  6
CONTINUOUS
 10
130.6482947295
 20
76.569365988
 11
131.0510464984
 21
75.8806053246
  0
LINE
  5
545
100
AcDbEntity
  8
0
100
AcDbLine
 62
7
  6
CONTINUOUS
 10
131.3208110985
 20
76.0383497715
 11
130.9180593297
 21
76.7271104349
  0
LINE
  5
546
100
AcDbEntity
  8
0
100
AcDbLine
 62
7
  6
CONTINUOUS
 10
129.2460594969
 20
74.0171935978
 11
129.130524317
 21
74.2240066865
  0
LINE
  5
547
100
AcDbEntity
  8
0
100
AcDbLine
 62
7
  6
CONTINUOUS
 10
125.8032448555
 20
141.7178531515
 11
125.5795510508
 21
140.4880315865
  0
LINE
  5
548
100
AcDbEntity
  8
0
100
AcDbLine
 62
7
  6
CONTINUOUS
 10
128.9790435075
 20
143.6319287227
 11
128.9040876727
 21
143.4304001246
  0
LINE
  5
549
100
AcDbEntity
  8
0
100
AcDbLine
 62
7
  6
CONTINUOUS
 10
135.7313386729
 20
147.8489745388
 11
134.7168705106
 21
145.5640556458
  0
LINE
  5
54A
100
AcDbEntity
  8
0
100
AcDbLine
 62
7
  6
CONTINUOUS
 10
135.0024853722
 20
145.4372471255
 11
135.8011092704
 21
147.2360131205
  0
LINE
  5
54B
100
AcDbEntity
  8
0
100
AcDbLine
 62
7
  6
CONTINUOUS
 10
137.5147984402
 20
146.4751619987
 11
136.716174542
 21
144.6763960037
  0
LINE
  5
54C
100
AcDbEntity
  8
0
100
AcDbLine
 62
7
  6
CONTINUOUS
 10
137.0017894036
 20
144.5495874835
 11
138.016257566
 21
146.8345063765
  0
LINE
  5
54D
100
AcDbEntity
  8
0
100
AcDbLine
 62
7
  6
CONTINUOUS
 10
140.5555789435
 20
143.1357295805
 11
140.4638179996
 21
142.9687122341
  0
LINE
  5
54E
100
AcDbEntity
  8
0
100
AcDbLine
 62
7
  6
CONTINUOUS
 10
135.9369010768
 20
136.03
 11
138.2463021535
 21
140.03
  0
LINE
  5
54F
100
AcDbEntity
  8
BEZUGSACHSEN
100
AcDbLine
 62
7
  6
CONTINUOUS
 10
57.9775074874
 20
116.5766163381
 11
57.8453983795
 21
116.548423848
  0
LINE
  5
550
100
AcDbEntity
  8
0
100
AcDbLine
 62
7
  6
CONTINUOUS
 10
53.2560898543
 20
143.0557044546
 11
53.0515495451
 21
143.134096142
  0
LINE
  5
551
100
AcDbEntity
  8
0
100
AcDbLine
 62
7
  6
CONTINUOUS
 10
52.8735388006
 20
142.8772527695
 11
53.1217972744
 21
142.7685616439
  0
LINE
  5
552
100
AcDbEntity
  8
0
100
AcDbLine
 62
7
  6
CONTINUOUS
 10
59.7168705106
 20
145.5640556458
 11
60.0024853722
 21
145.4372471255
  0
LINE
  5
553
100
AcDbEntity
  8
0
100
AcDbLine
 62
7
  6
CONTINUOUS
 10
60.6689196862
 20
145.1413607394
 11
61.049740228
 21
144.9722823898
  0
LINE
  5
554
100
AcDbEntity
  8
0
100
AcDbLine
 62
7
  6
CONTINUOUS
 10
61.716174542
 20
144.6763960037
 11
62.0017894036
 21
144.5495874835
  0
LINE
  5
555
100
AcDbEntity
  8
0
100
AcDbLine
 62
7
  6
CONTINUOUS
 10
55.3254615463
 20
146.8119155061
 11
55.4959336727
 21
146.7267448402
  0
LINE
  5
556
100
AcDbEntity
  8
0
100
AcDbLine
 62
7
  6
CONTINUOUS
 10
65.0652726663
 20
144.054787996
 11
65.2326799455
 21
143.9670030268
  0
LINE
  5
557
100
AcDbEntity
  8
0
100
AcDbLine
 62
7
  6
CONTINUOUS
 10
140.6613558136
 20
73.841506934
 11
140.4428177093
 21
74.1381409299
  0
LINE
  5
558
100
AcDbEntity
  8
0
100
AcDbLine
 62
7
  6
CONTINUOUS
 10
138.2463021535
 20
70.03
 11
135.9369010768
 21
74.03
  0
LINE
  5
559
100
AcDbEntity
  8
0
100
AcDbLine
 62
7
  6
CONTINUOUS
 10
138.0388544674
 20
73.4459710205
 11
138.921406103
 21
71.7916652415
  0
LINE
  5
55A
100
AcDbEntity
  8
0
100
AcDbLine
 62
7
  6
CONTINUOUS
 10
139.1560594098
 20
71.9168498733
 11
138.4696301729
 21
73.2035324965
  0
LINE
  5
55B
100
AcDbEntity
  8
0
100
AcDbLine
 62
7
  6
CONTINUOUS
 10
128.9087956627
 20
73.9974631196
 11
128.9806128171
 21
73.8209497352
  0
LINE
  5
55C
100
AcDbEntity
  8
0
100
AcDbLine
 62
7
  6
CONTINUOUS
 10
127.1058357185
 20
71.7456127797
 11
127.0384523578
 21
71.96962076
  0
LINE
  5
55D
100
AcDbEntity
  8
0
100
AcDbLine
 62
7
  6
CONTINUOUS
 10
129.2710198332
 20
143.4929376505
 11
129.3022576617
 21
143.7247659397
  0
LINE
  5
55E
100
AcDbEntity
  8
0
100
AcDbLine
 62
7
  6
CONTINUOUS
 10
125.8971386336
 20
140.7478925569
 11
126.0742295534
 21
141.721501247
  0
LINE
  5
55F
100
AcDbEntity
  8
0
100
AcDbLine
 62
7
  6
CONTINUOUS
 10
126.8592220947
 20
141.5787179578
 11
126.6821311749
 21
140.6051092677
  0
LINE
  5
560
100
AcDbEntity
  8
0
100
AcDbLine
 62
7
  6
CONTINUOUS
 10
126.9961281328
 20
140.5479959627
 11
127.1545779067
 21
141.4191195468
  0
LINE
  5
561
100
AcDbEntity
  8
0
100
AcDbLine
 62
7
  6
CONTINUOUS
 10
128.0391941808
 20
140.0406439772
 11
128.095117632
 21
140.3480993684
  0
LINE
  5
562
100
AcDbEntity
  8
0
100
AcDbLine
 62
7
  6
CONTINUOUS
 10
128.328132003
 20
141.6291634498
 11
128.3933760471
 21
141.987861504
  0
LINE
  5
563
100
AcDbEntity
  8
0
100
AcDbLine
 62
7
  6
CONTINUOUS
 10
131.3551374319
 20
145.257388783
 11
131.427579856
 21
145.5462211565
  0
LINE
  5
564
100
AcDbEntity
  8
0
100
AcDbLine
 62
7
  6
CONTINUOUS
 10
139.1123275573
 20
130.53
 11
144.5971551146
 21
140.03
  0
LWPOLYLINE
  5
565
100
AcDbEntity
  8
RUNDUNGEN
100
AcDbPolyline
 62
7
  6
CONTINUOUS
 90
3
 70
0
 10
133.7477269368
 20
93.2609839282
 10
133.8506006639
 20
93.3164878866
 10
133.996928002
 20
93.3856983347
  0
LWPOLYLINE
  5
566
100
AcDbEntity
  8
RUNDUNGEN
100
AcDbPolyline
 62
7
  6
CONTINUOUS
 90
3
 70
0
 10
133.996928002
 20
93.3856983347
 10
134.1396983194
 20
93.4414789291
 10
134.2774925126
 20
93.4833836619
  0
LINE
  5
567
100
AcDbEntity
  8
0
100
AcDbLine
 62
7
  6
CONTINUOUS
 10
140.3048103683
 20
142.588726286
 11
140.5170484977
 21
142.6429206885
  0
LINE
  5
568
100
AcDbEntity
  8
0
100
AcDbLine
 62
7
  6
CONTINUOUS
 10
139.9651113818
 20
144.3555425487
 11
139.7528732524
 21
144.3013481462
  0
LINE
  5
569
100
AcDbEntity
  8
0
100
AcDbLine
 62
7
  6
CONTINUOUS
 10
53.1426724427
 20
130.53
 11
64.1123275573
 21
130.53
  0
LINE
  5
56A
100
AcDbEntity
  8
0
100
AcDbLine
 62
7
  6
CONTINUOUS
 10
128.1426724427
 20
130.53
 11
139.1123275573
 21
130.53
  0
LINE
  5
56B
100
AcDbEntity
  8
0
100
AcDbLine
 62
7
  6
CONTINUOUS
 10
50.5795510508
 20
140.4880315865
 11
53.0391941808
 21
140.0406439772
  0
LINE
  5
56C
100
AcDbEntity
  8
0
100
AcDbLine
 62
7
  6
CONTINUOUS
 10
53.095117632
 20
140.3480993684
 11
51.9961281328
 21
140.5479959627
  0
LINE
  5
56D
100
AcDbEntity
  8
0
100
AcDbLine
 62
7
  6
CONTINUOUS
 10
51.6821311749
 20
140.6051092677
 11
50.8971386336
 21
140.7478925569
  0
LINE
  5
56E
100
AcDbEntity
  8
0
100
AcDbLine
 62
7
  6
CONTINUOUS
 10
65.1332029188
 20
142.9103972047
 11
63.2735077743
 21
143.5711556523
  0
LINE
  5
56F
100
AcDbEntity
  8
0
100
AcDbLine
 62
7
  6
CONTINUOUS
 10
63.4696301729
 20
143.2035324965
 11
65.1149879445
 21
142.6055210434
  0
LINE
  5
570
100
AcDbEntity
  8
BEZUGSACHSEN
100
AcDbLine
 62
7
  6
CONTINUOUS
 10
134.1403725181
 20
116.6182866841
 11
133.99752366
 21
116.6740442091
  0
LINE
  5
571
100
AcDbEntity
  8
0
100
AcDbLine
 62
7
  6
CONTINUOUS
 10
63.016257566
 20
146.8345063765
 11
62.5878352735
 21
147.0247191569
  0
LINE
  5
572
100
AcDbEntity
  8
0
100
AcDbLine
 62
7
  6
CONTINUOUS
 10
61.1597609654
 20
147.6587617584
 11
60.7313386729
 21
147.8489745388
  0
LWPOLYLINE
  5
573
100
AcDbEntity
  8
BEZUGSACHSEN
100
AcDbPolyline
 62
7
  6
CONTINUOUS
 90
3
 70
0
 10
133.99752366
 20
116.6740442091
 10
133.8509775552
 20
116.7433189463
 10
133.7477199004
 20
116.7990200574
  0
LINE
  5
574
100
AcDbEntity
  8
0
100
AcDbLine
 62
7
  6
CONTINUOUS
 10
144.5971551146
 20
70.03
 11
139.1123275573
 21
79.53
  0
LINE
  5
575
100
AcDbEntity
  8
0
100
AcDbLine
 62
7
  6
CONTINUOUS
 10
139.7528732524
 20
74.3013481462
 11
139.8754502425
 21
74.0715827535
  0
LINE
  5
576
100
AcDbEntity
  8
0
100
AcDbLine
 62
7
  6
CONTINUOUS
 10
140.4021870294
 20
73.7622756087
 11
140.5002485092
 21
73.5784635049
  0
LINE
  5
577
100
AcDbEntity
  8
0
100
AcDbLine
 62
7
  6
CONTINUOUS
 10
140.7594172935
 20
73.6576948302
 11
140.6613558136
 21
73.841506934
  0
LINE
  5
578
100
AcDbEntity
  8
0
100
AcDbLine
 62
7
  6
CONTINUOUS
 10
131.4101010804
 20
75.7824722643
 11
131.3208110985
 21
76.0383497715
  0
LINE
  5
579
100
AcDbEntity
  8
0
100
AcDbLine
 62
7
  6
CONTINUOUS
 10
131.0510464984
 20
75.8806053246
 11
131.1134863649
 21
75.6706451907
  0
LINE
  5
57A
100
AcDbEntity
  8
0
100
AcDbLine
 62
7
  6
CONTINUOUS
 10
129.3022576617
 20
73.7247659397
 11
129.2460594969
 21
74.0171935978
  0
LINE
  5
57B
100
AcDbEntity
  8
0
100
AcDbLine
 62
7
  6
CONTINUOUS
 10
126.834850994
 20
71.7419645376
 11
126.8592220947
 21
71.5787179578
  0
LINE
  5
57C
100
AcDbEntity
  8
0
100
AcDbLine
 62
7
  6
CONTINUOUS
 10
131.427579856
 20
75.5462211565
 11
131.4101010804
 21
75.7824722643
  0
LINE
  5
57D
100
AcDbEntity
  8
0
100
AcDbLine
 62
7
  6
CONTINUOUS
 10
128.9806128171
 20
143.8209497352
 11
128.9790435075
 21
143.6319287227
  0
LINE
  5
57E
100
AcDbEntity
  8
0
100
AcDbLine
 62
7
  6
CONTINUOUS
 10
128.9806128171
 20
73.8209497352
 11
128.9790435075
 21
73.6319287227
  0
LINE
  5
57F
100
AcDbEntity
  8
0
100
AcDbLine
 62
7
  6
CONTINUOUS
 10
131.1134863649
 20
145.6706451907
 11
131.1041150063
 21
145.4803114883
  0
LINE
  5
580
100
AcDbEntity
  8
0
100
AcDbLine
 62
7
  6
CONTINUOUS
 10
140.7741170478
 20
142.8390955846
 11
140.8637781871
 21
143.1230553798
  0
LINE
  5
581
100
AcDbEntity
  8
RUNDUNGEN
100
AcDbLine
 62
7
  6
CONTINUOUS
 10
133.7467848113
 20
93.2604505673
 11
133.7477269368
 21
93.2609839282
  0
LINE
  5
582
100
AcDbEntity
  8
0
100
AcDbLine
 62
7
  6
CONTINUOUS
 10
128.3933760471
 20
141.987861504
 11
127.1058357185
 21
141.7456127797
  0
LINE
  5
583
100
AcDbEntity
  8
0
100
AcDbLine
 62
7
  6
CONTINUOUS
 10
127.1545779067
 20
141.4191195468
 11
128.328132003
 21
141.6291634498
  0
LINE
  5
584
100
AcDbEntity
  8
0
100
AcDbLine
 62
7
  6
CONTINUOUS
 10
128.356006199
 20
142.7329773477
 11
128.6495518534
 21
142.7830072746
  0
LINE
  5
585
100
AcDbEntity
  8
0
100
AcDbLine
 62
7
  6
CONTINUOUS
 10
126.2778309172
 20
141.9491574694
 11
126.4441499624
 21
141.9718433333
  0
LINE
  5
586
100
AcDbEntity
  8
0
100
AcDbLine
 62
7
  6
CONTINUOUS
 10
126.5000734136
 20
142.2792987245
 11
126.3337543684
 21
142.2566128607
  0
LINE
  5
587
100
AcDbEntity
  8
0
100
AcDbLine
 62
7
  6
CONTINUOUS
 10
56.3180989232
 20
136.03
 11
60.9369010768
 21
136.03
  0
LINE
  5
588
100
AcDbEntity
  8
0
100
AcDbLine
 62
7
  6
CONTINUOUS
 10
131.3180989232
 20
136.03
 11
135.9369010768
 21
136.03
  0
LINE
  5
589
100
AcDbEntity
  8
0
100
AcDbLine
 62
7
  6
CONTINUOUS
 10
53.1217972744
 20
142.7685616439
 11
53.356006199
 21
142.7329773477
  0
LINE
  5
58A
100
AcDbEntity
  8
0
100
AcDbLine
 62
7
  6
CONTINUOUS
 10
51.4441499624
 20
141.9718433333
 11
51.601148588
 21
141.9432866541
  0
LINE
  5
58B
100
AcDbEntity
  8
0
100
AcDbLine
 62
7
  6
CONTINUOUS
 10
51.7094048655
 20
142.2412231612
 11
51.5000734136
 21
142.2792987245
  0
LINE
  5
58C
100
AcDbEntity
  8
0
100
AcDbLine
 62
7
  6
CONTINUOUS
 10
55.5415259156
 20
147.0614946995
 11
55.2542825587
 21
147.1400013283
  0
LINE
  5
58D
100
AcDbEntity
  8
0
100
AcDbLine
 62
7
  6
CONTINUOUS
 10
65.2508954809
 20
144.2718781363
 11
64.9651113818
 21
144.3555425487
  0
LINE
  5
58E
100
AcDbEntity
  8
BEZUGSACHSEN
100
AcDbLine
 62
7
  6
CONTINUOUS
 10
133.7467696049
 20
116.7995580369
 11
133.7477199004
 21
116.7990200574
  0
LINE
  5
58F
100
AcDbEntity
  8
0
100
AcDbLine
 62
7
  6
CONTINUOUS
 10
140.859578578
 20
73.3569402775
 11
140.7594172935
 21
73.6576948302
  0
LINE
  5
590
100
AcDbEntity
  8
0
100
AcDbLine
 62
7
  6
CONTINUOUS
 10
140.5002485092
 20
73.5784635049
 11
140.5758942835
 21
73.3236622411
  0
LINE
  5
591
100
AcDbEntity
  8
0
100
AcDbLine
 62
7
  6
CONTINUOUS
 10
131.427579856
 20
145.5462211565
 11
131.4101010804
 21
145.7824722643
  0
LINE
  5
592
100
AcDbEntity
  8
0
100
AcDbLine
 62
7
  6
CONTINUOUS
 10
135.0797532828
 20
111.03
 11
135.0797532828
 21
111.93
  0
LINE
  5
593
100
AcDbEntity
  8
0
100
AcDbLine
 62
7
  6
CONTINUOUS
 10
131.1134863649
 20
75.6706451907
 11
131.1041150063
 21
75.4803114883
  0
LINE
  5
594
100
AcDbEntity
  8
0
100
AcDbLine
 62
7
  6
CONTINUOUS
 10
135.8011092704
 20
147.2360131205
 11
135.6689196862
 21
145.1413607394
  0
LINE
  5
595
100
AcDbEntity
  8
0
100
AcDbLine
 62
7
  6
CONTINUOUS
 10
135.9672521043
 20
145.2998980477
 11
136.1597609654
 21
147.6587617584
  0
LINE
  5
596
100
AcDbEntity
  8
0
100
AcDbLine
 62
7
  6
CONTINUOUS
 10
129.2710198332
 20
73.4929376505
 11
129.3022576617
 21
73.7247659397
  0
LINE
  5
597
100
AcDbEntity
  8
0
100
AcDbLine
 62
7
  6
CONTINUOUS
 10
125.8032448555
 20
71.7178531515
 11
125.5795510508
 21
70.4880315865
  0
LINE
  5
598
100
AcDbEntity
  8
0
100
AcDbLine
 62
7
  6
CONTINUOUS
 10
125.8971386336
 20
70.7478925569
 11
126.0742295534
 21
71.721501247
  0
LINE
  5
599
100
AcDbEntity
  8
0
100
AcDbLine
 62
7
  6
CONTINUOUS
 10
126.8592220947
 20
71.5787179578
 11
126.6821311749
 21
70.6051092677
  0
LINE
  5
59A
100
AcDbEntity
  8
0
100
AcDbLine
 62
7
  6
CONTINUOUS
 10
126.9961281328
 20
70.5479959627
 11
127.1545779067
 21
71.4191195468
  0
LINE
  5
59B
100
AcDbEntity
  8
0
100
AcDbLine
 62
7
  6
CONTINUOUS
 10
128.0391941808
 20
70.0406439772
 11
128.095117632
 21
70.3480993684
  0
LINE
  5
59C
100
AcDbEntity
  8
0
100
AcDbLine
 62
7
  6
CONTINUOUS
 10
128.328132003
 20
71.6291634498
 11
128.3933760471
 21
71.987861504
  0
LINE
  5
59D
100
AcDbEntity
  8
0
100
AcDbLine
 62
7
  6
CONTINUOUS
 10
130.0207394326
 20
77.1266732105
 11
129.7690853123
 21
77.0411367778
  0
LINE
  5
59E
100
AcDbEntity
  8
0
100
AcDbLine
 62
7
  6
CONTINUOUS
 10
129.9301860048
 20
76.7656325382
 11
130.1368790154
 21
76.8248780292
  0
LINE
  5
59F
100
AcDbEntity
  8
0
100
AcDbLine
 62
7
  6
CONTINUOUS
 10
138.4580913438
 20
145.3810452781
 11
138.9420061119
 21
145.4270910987
  0
LINE
  5
5A0
100
AcDbEntity
  8
0
100
AcDbLine
 62
7
  6
CONTINUOUS
 10
139.2405738334
 20
145.7302984256
 11
138.7566591698
 21
145.6842527112
  0
LINE
  5
5A1
100
AcDbEntity
  8
0
100
AcDbLine
 62
7
  6
CONTINUOUS
 10
140.3699565585
 20
142.9186383183
 11
140.1332029188
 21
142.9103972047
  0
LINE
  5
5A2
100
AcDbEntity
  8
0
100
AcDbLine
 62
7
  6
CONTINUOUS
 10
65.3699565585
 20
142.9186383183
 11
65.1332029188
 21
142.9103972047
  0
LINE
  5
5A3
100
AcDbEntity
  8
0
100
AcDbLine
 62
7
  6
CONTINUOUS
 10
135.9369010768
 20
144.03
 11
131.3180989232
 21
144.03
  0
LINE
  5
5A4
100
AcDbEntity
  8
0
100
AcDbLine
 62
7
  6
CONTINUOUS
 10
60.9369010768
 20
144.03
 11
56.3180989232
 21
144.03
  0
LINE
  5
5A5
100
AcDbEntity
  8
0
100
AcDbLine
 62
7
  6
CONTINUOUS
 10
53.4465808384
 20
143.0504199852
 11
53.2560898543
 21
143.0557044546
  0
LINE
  5
5A6
100
AcDbEntity
  8
0
100
AcDbLine
 62
7
  6
CONTINUOUS
 10
128.4465808384
 20
143.0504199852
 11
128.2560898543
 21
143.0557044546
  0
LINE
  5
5A7
100
AcDbEntity
  8
0
100
AcDbLine
 62
7
  6
CONTINUOUS
 10
55.1368790154
 20
146.8248780292
 11
55.3254615463
 21
146.8119155061
  0
LINE
  5
5A8
100
AcDbEntity
  8
0
100
AcDbLine
 62
7
  6
CONTINUOUS
 10
65.1149879445
 20
142.6055210434
 11
65.3048103683
 21
142.588726286
  0
LINE
  5
5A9
100
AcDbEntity
  8
0
100
AcDbLine
 62
7
  6
CONTINUOUS
 10
64.8754502425
 20
144.0715827535
 11
65.0652726663
 21
144.054787996
  0
LINE
  5
5AA
100
AcDbEntity
  8
0
100
AcDbLine
 62
7
  6
CONTINUOUS
 10
126.834850994
 20
141.7419645376
 11
126.8592220947
 21
141.5787179578
  0
LWPOLYLINE
  5
5AB
100
AcDbEntity
  8
BEZUGSACHSEN
100
AcDbPolyline
 62
7
  6
CONTINUOUS
 90
38
 70
0
 10
137.3177259987
 20
113.5783203792
 10
137.311770713
 20
113.7295435496
 10
137.2984021987
 20
113.8785016791
 10
137.2779149151
 20
114.0248743643
 10
137.2506101162
 20
114.168368099
 10
137.2167940125
 20
114.3087154228
 10
137.1767760487
 20
114.445674138
 10
137.1308673628
 20
114.5790262934
 10
137.0793792661
 20
114.7085774544
 10
137.022622186
 20
114.8341550858
 10
136.960903546
 20
114.9556094978
 10
136.8945267744
 20
115.072811928
 10
136.8237936509
 20
115.1856481182
 10
136.7490005752
 20
115.2940232768
 10
136.6704382032
 20
115.3978600847
 10
136.588391336
 20
115.4970969429
 10
136.5031362579
 20
115.591689385
 10
136.4149424527
 20
115.6816061781
 10
136.324069962
 20
115.7668306737
 10
136.2307702515
 20
115.8473582987
 10
136.1352880306
 20
115.923194011
 10
136.0378846807
 20
115.9943354801
 10
135.9387084767
 20
116.060862814
 10
135.8378480896
 20
116.122877081
 10
135.7356553963
 20
116.1803157309
 10
135.6322033866
 20
116.2332859253
 10
135.5284012469
 20
116.2815051954
 10
135.4251237013
 20
116.3248362828
 10
135.3226566587
 20
116.3634637919
 10
135.2218708257
 20
116.3973952746
 10
135.1217438367
 20
116.4272664036
 10
135.0203030595
 20
116.4537644341
 10
134.9205615138
 20
116.4762499745
 10
134.8228807936
 20
116.4949680022
 10
134.7315357297
 20
116.5096528696
 10
134.6507477195
 20
116.5205263033
 10
134.5773942181
 20
116.5288661372
 10
134.5084434069
 20
116.5355794042
  0
LINE
  5
5AC
100
AcDbEntity
  8
0
100
AcDbLine
 62
7
  6
CONTINUOUS
 10
140.8637781871
 20
73.1230553798
 11
140.859578578
 21
73.3569402775
  0
LINE
  5
5AD
100
AcDbEntity
  8
BEZUGSACHSEN
100
AcDbLine
 62
7
  6
CONTINUOUS
 10
137.3180258867
 20
113.5358997533
 11
137.3177259987
 21
113.5783203792
  0
LINE
  5
5AE
100
AcDbEntity
  8
BEZUGSACHSEN
100
AcDbLine
 62
7
  6
CONTINUOUS
 10
137.3180259652
 20
113.5359503831
 11
137.3180259652
 21
111.93
  0
LINE
  5
5AF
100
AcDbEntity
  8
RUNDUNGEN
100
AcDbLine
 62
7
  6
CONTINUOUS
 10
137.3180259652
 20
99.03
 11
137.3180259652
 21
96.5240496169
  0
LINE
  5
5B0
100
AcDbEntity
  8
0
100
AcDbLine
 62
7
  6
CONTINUOUS
 10
139.0152035386
 20
99.03
 11
139.0152035386
 21
98.13
  0
LINE
  5
5B1
100
AcDbEntity
  8
0
100
AcDbLine
 62
7
  6
CONTINUOUS
 10
139.0975777219
 20
99.03
 11
139.0975777219
 21
98.13
  0
LINE
  5
5B2
100
AcDbEntity
  8
0
100
AcDbLine
 62
7
  6
CONTINUOUS
 10
139.2579949442
 20
99.03
 11
139.2579949442
 21
98.13
  0
LINE
  5
5B3
100
AcDbEntity
  8
0
100
AcDbLine
 62
7
  6
CONTINUOUS
 10
139.693728277
 20
99.03
 11
139.693728277
 21
98.13
  0
LINE
  5
5B4
100
AcDbEntity
  8
0
100
AcDbLine
 62
7
  6
CONTINUOUS
 10
140.2075047836
 20
99.03
 11
140.2075047836
 21
98.13
  0
LINE
  5
5B5
100
AcDbEntity
  8
0
100
AcDbLine
 62
7
  6
CONTINUOUS
 10
140.5977199758
 20
99.03
 11
140.5977199758
 21
98.13
  0
LINE
  5
5B6
100
AcDbEntity
  8
0
100
AcDbLine
 62
7
  6
CONTINUOUS
 10
140.6627696695
 20
99.03
 11
140.6627696695
 21
98.13
  0
LINE
  5
5B7
100
AcDbEntity
  8
0
100
AcDbLine
 62
7
  6
CONTINUOUS
 10
135.8011092704
 20
77.2360131205
 11
135.6689196862
 21
75.1413607394
  0
LINE
  5
5B8
100
AcDbEntity
  8
0
100
AcDbLine
 62
7
  6
CONTINUOUS
 10
135.9672521043
 20
75.2998980477
 11
136.1597609654
 21
77.6587617584
  0
LINE
  5
5B9
100
AcDbEntity
  8
0
100
AcDbLine
 62
7
  6
CONTINUOUS
 10
140.5758942835
 20
143.3236622411
 11
140.5555789435
 21
143.1357295805
  0
LINE
  5
5BA
100
AcDbEntity
  8
0
100
AcDbLine
 62
7
  6
CONTINUOUS
 10
131.3551374319
 20
75.257388783
 11
131.427579856
 21
75.5462211565
  0
LINE
  5
5BB
100
AcDbEntity
  8
0
100
AcDbLine
 62
7
  6
CONTINUOUS
 10
128.9790435075
 20
73.6319287227
 11
128.9040876727
 21
73.4304001246
  0
LINE
  5
5BC
100
AcDbEntity
  8
0
100
AcDbLine
 62
7
  6
CONTINUOUS
 10
125.9021805667
 20
71.9645471423
 11
125.8032448555
 21
71.7178531515
  0
LINE
  5
5BD
100
AcDbEntity
  8
0
100
AcDbLine
 62
7
  6
CONTINUOUS
 10
129.1663956721
 20
73.2486020047
 11
129.2710198332
 21
73.4929376505
  0
LINE
  5
5BE
100
AcDbEntity
  8
0
100
AcDbLine
 62
7
  6
CONTINUOUS
 10
131.1041150063
 20
75.4803114883
 11
131.0229329559
 21
75.3096044862
  0
LINE
  5
5BF
100
AcDbEntity
  8
0
100
AcDbLine
 62
7
  6
CONTINUOUS
 10
126.0742295534
 20
71.721501247
 11
126.1545241053
 21
71.8657100585
  0
LINE
  5
5C0
100
AcDbEntity
  8
0
100
AcDbLine
 62
7
  6
CONTINUOUS
 10
128.1426724427
 20
79.53
 11
122.6578448854
 21
70.03
  0
LINE
  5
5C1
100
AcDbEntity
  8
0
100
AcDbLine
 62
7
  6
CONTINUOUS
 10
127.5863448207
 20
75.3576026963
 11
127.4083341611
 21
75.1007594462
  0
LINE
  5
5C2
100
AcDbEntity
  8
0
100
AcDbLine
 62
7
  6
CONTINUOUS
 10
126.6962915228
 20
74.0733864462
 11
126.5182807784
 21
73.8165430737
  0
LINE
  5
5C3
100
AcDbEntity
  8
0
100
AcDbLine
 62
7
  6
CONTINUOUS
 10
126.0964613375
 20
72.1409607017
 11
125.9021805667
 21
71.9645471423
  0
LINE
  5
5C4
100
AcDbEntity
  8
0
100
AcDbLine
 62
7
  6
CONTINUOUS
 10
126.1545241053
 20
71.8657100585
 11
126.2778309172
 21
71.9491574694
  0
LINE
  5
5C5
100
AcDbEntity
  8
0
100
AcDbLine
 62
7
  6
CONTINUOUS
 10
129.7690853123
 20
77.0411367778
 11
128.6900269118
 21
76.4101589902
  0
LINE
  5
5C6
100
AcDbEntity
  8
0
100
AcDbLine
 62
7
  6
CONTINUOUS
 10
129.1208922044
 20
76.2923991975
 11
129.9301860048
 21
76.7656325382
  0
LINE
  5
5C7
100
AcDbEntity
  8
0
100
AcDbLine
 62
7
  6
CONTINUOUS
 10
130.869940176
 20
75.1585242486
 11
130.0606463757
 21
74.685290908
  0
LINE
  5
5C8
100
AcDbEntity
  8
0
100
AcDbLine
 62
7
  6
CONTINUOUS
 10
129.9519824869
 20
74.2520421893
 11
131.0310408873
 21
74.8830199768
  0
LINE
  5
5C9
100
AcDbEntity
  8
0
100
AcDbLine
 62
7
  6
CONTINUOUS
 10
128.6495518534
 20
72.7830072746
 11
128.8556616841
 21
72.8936368154
  0
LINE
  5
5CA
100
AcDbEntity
  8
0
100
AcDbLine
 62
7
  6
CONTINUOUS
 10
126.3337543684
 20
72.2566128607
 11
126.0964613375
 21
72.1409607017
  0
LINE
  5
5CB
100
AcDbEntity
  8
0
100
AcDbLine
 62
7
  6
CONTINUOUS
 10
128.6230221884
 20
73.1182422227
 11
128.4465808384
 21
73.0504199852
  0
LINE
  5
5CC
100
AcDbEntity
  8
0
100
AcDbLine
 62
7
  6
CONTINUOUS
 10
65.3048103683
 20
142.588726286
 11
65.5170484977
 21
142.6429206885
  0
LINE
  5
5CD
100
AcDbEntity
  8
0
100
AcDbLine
 62
7
  6
CONTINUOUS
 10
53.3933760471
 20
141.987861504
 11
52.1058357185
 21
141.7456127797
  0
LINE
  5
5CE
100
AcDbEntity
  8
0
100
AcDbLine
 62
7
  6
CONTINUOUS
 10
52.1545779067
 20
141.4191195468
 11
53.328132003
 21
141.6291634498
  0
LINE
  5
5CF
100
AcDbEntity
  8
0
100
AcDbLine
 62
7
  6
CONTINUOUS
 10
53.356006199
 20
142.7329773477
 11
53.6495518534
 21
142.7830072746
  0
LINE
  5
5D0
100
AcDbEntity
  8
0
100
AcDbLine
 62
7
  6
CONTINUOUS
 10
51.2778309172
 20
141.9491574694
 11
51.4441499624
 21
141.9718433333
  0
LINE
  5
5D1
100
AcDbEntity
  8
0
100
AcDbLine
 62
7
  6
CONTINUOUS
 10
51.5000734136
 20
142.2792987245
 11
51.3337543684
 21
142.2566128607
  0
LINE
  5
5D2
100
AcDbEntity
  8
0
100
AcDbLine
 62
7
  6
CONTINUOUS
 10
63.4580913438
 20
145.3810452781
 11
63.9420061119
 21
145.4270910987
  0
LINE
  5
5D3
100
AcDbEntity
  8
0
100
AcDbLine
 62
7
  6
CONTINUOUS
 10
64.2405738334
 20
145.7302984256
 11
63.7566591698
 21
145.6842527112
  0
LINE
  5
5D4
100
AcDbEntity
  8
0
100
AcDbLine
 62
7
  6
CONTINUOUS
 10
130.2542825587
 20
147.1400013283
 11
130.0207394326
 21
147.1266732105
  0
LINE
  5
5D5
100
AcDbEntity
  8
0
100
AcDbLine
 62
7
  6
CONTINUOUS
 10
55.2542825587
 20
147.1400013283
 11
55.0207394326
 21
147.1266732105
  0
LINE
  5
5D6
100
AcDbEntity
  8
0
100
AcDbLine
 62
7
  6
CONTINUOUS
 10
139.1123275573
 20
149.53
 11
128.1426724427
 21
149.53
  0
LINE
  5
5D7
100
AcDbEntity
  8
0
100
AcDbLine
 62
7
  6
CONTINUOUS
 10
64.1123275573
 20
149.53
 11
53.1426724427
 21
149.53
  0
LINE
  5
5D8
100
AcDbEntity
  8
0
100
AcDbLine
 62
7
  6
CONTINUOUS
 10
130.1368790154
 20
146.8248780292
 11
130.3254615463
 21
146.8119155061
  0
LINE
  5
5D9
100
AcDbEntity
  8
0
100
AcDbLine
 62
7
  6
CONTINUOUS
 10
140.1149879445
 20
142.6055210434
 11
140.3048103683
 21
142.588726286
  0
LINE
  5
5DA
100
AcDbEntity
  8
0
100
AcDbLine
 62
7
  6
CONTINUOUS
 10
139.8754502425
 20
144.0715827535
 11
140.0652726663
 21
144.054787996
  0
LINE
  5
5DB
100
AcDbEntity
  8
0
100
AcDbLine
 62
7
  6
CONTINUOUS
 10
128.1217972744
 20
142.7685616439
 11
128.356006199
 21
142.7329773477
  0
LINE
  5
5DC
100
AcDbEntity
  8
0
100
AcDbLine
 62
7
  6
CONTINUOUS
 10
125.5795510508
 20
140.4880315865
 11
128.0391941808
 21
140.0406439772
  0
LINE
  5
5DD
100
AcDbEntity
  8
0
100
AcDbLine
 62
7
  6
CONTINUOUS
 10
128.095117632
 20
140.3480993684
 11
126.9961281328
 21
140.5479959627
  0
LINE
  5
5DE
100
AcDbEntity
  8
0
100
AcDbLine
 62
7
  6
CONTINUOUS
 10
126.6821311749
 20
140.6051092677
 11
125.8971386336
 21
140.7478925569
  0
LINE
  5
5DF
100
AcDbEntity
  8
0
100
AcDbLine
 62
7
  6
CONTINUOUS
 10
126.4441499624
 20
141.9718433333
 11
126.601148588
 21
141.9432866541
  0
LINE
  5
5E0
100
AcDbEntity
  8
0
100
AcDbLine
 62
7
  6
CONTINUOUS
 10
126.7094048655
 20
142.2412231612
 11
126.5000734136
 21
142.2792987245
  0
LINE
  5
5E1
100
AcDbEntity
  8
0
100
AcDbLine
 62
7
  6
CONTINUOUS
 10
122.6578448854
 20
140.03
 11
128.1426724427
 21
130.53
  0
LINE
  5
5E2
100
AcDbEntity
  8
0
100
AcDbLine
 62
7
  6
CONTINUOUS
 10
127.1058357185
 20
141.7456127797
 11
127.0384523578
 21
141.96962076
  0
LINE
  5
5E3
100
AcDbEntity
  8
0
100
AcDbLine
 62
7
  6
CONTINUOUS
 10
129.3022576617
 20
143.7247659397
 11
129.2460594969
 21
144.0171935978
  0
LINE
  5
5E4
100
AcDbEntity
  8
0
100
AcDbLine
 62
7
  6
CONTINUOUS
 10
140.8637781871
 20
143.1230553798
 11
140.859578578
 21
143.3569402775
  0
LINE
  5
5E5
100
AcDbEntity
  8
0
100
AcDbLine
 62
7
  6
CONTINUOUS
 10
141.2502580824
 20
99.03
 11
141.2502580824
 21
98.13
  0
LINE
  5
5E6
100
AcDbEntity
  8
0
100
AcDbLine
 62
7
  6
CONTINUOUS
 10
141.6036171512
 20
99.03
 11
141.6036171512
 21
98.13
  0
LINE
  5
5E7
100
AcDbEntity
  8
0
100
AcDbLine
 62
7
  6
CONTINUOUS
 10
142.1542497184
 20
99.03
 11
142.1542497184
 21
98.13
  0
LINE
  5
5E8
100
AcDbEntity
  8
0
100
AcDbLine
 62
7
  6
CONTINUOUS
 10
142.6268389584
 20
99.03
 11
142.6268389584
 21
98.13
  0
LINE
  5
5E9
100
AcDbEntity
  8
0
100
AcDbLine
 62
7
  6
CONTINUOUS
 10
143.4159315065
 20
99.03
 11
143.4159315065
 21
98.13
  0
LINE
  5
5EA
100
AcDbEntity
  8
0
100
AcDbLine
 62
7
  6
CONTINUOUS
 10
143.6261982492
 20
99.03
 11
143.6261982492
 21
98.13
  0
LINE
  5
5EB
100
AcDbEntity
  8
0
100
AcDbLine
 62
7
  6
CONTINUOUS
 10
144.4152907973
 20
99.03
 11
144.4152907973
 21
98.13
  0
LINE
  5
5EC
100
AcDbEntity
  8
0
100
AcDbLine
 62
7
  6
CONTINUOUS
 10
144.5482274862
 20
111.03
 11
144.5482274862
 21
111.93
  0
LINE
  5
5ED
100
AcDbEntity
  8
0
100
AcDbLine
 62
7
  6
CONTINUOUS
 10
144.7274628841
 20
99.03
 11
144.7274628841
 21
98.13
  0
LINE
  5
5EE
100
AcDbEntity
  8
0
100
AcDbLine
 62
7
  6
CONTINUOUS
 10
145.1101368404
 20
111.03
 11
145.1101368404
 21
111.93
  0
LINE
  5
5EF
100
AcDbEntity
  8
0
100
AcDbLine
 62
7
  6
CONTINUOUS
 10
145.217377081
 20
99.03
 11
145.217377081
 21
98.13
  0
LINE
  5
5F0
100
AcDbEntity
  8
0
100
AcDbLine
 62
7
  6
CONTINUOUS
 10
145.4457391963
 20
111.03
 11
145.4457391963
 21
111.93
  0
LINE
  5
5F1
100
AcDbEntity
  8
0
100
AcDbLine
 62
7
  6
CONTINUOUS
 10
146.0845126717
 20
99.03
 11
146.0845126717
 21
98.13
  0
LINE
  5
5F2
100
AcDbEntity
  8
0
100
AcDbLine
 62
7
  6
CONTINUOUS
 10
146.3666386984
 20
111.03
 11
146.3666386984
 21
111.93
  0
LINE
  5
5F3
100
AcDbEntity
  8
0
100
AcDbLine
 62
7
  6
CONTINUOUS
 10
140.5758942835
 20
73.3236622411
 11
140.5555789435
 21
73.1357295805
  0
LINE
  5
5F4
100
AcDbEntity
  8
0
100
AcDbLine
 62
7
  6
CONTINUOUS
 10
135.7313386729
 20
77.8489745388
 11
134.7168705106
 21
75.5640556458
  0
LINE
  5
5F5
100
AcDbEntity
  8
0
100
AcDbLine
 62
7
  6
CONTINUOUS
 10
135.0024853722
 20
75.4372471255
 11
135.8011092704
 21
77.2360131205
  0
LINE
  5
5F6
100
AcDbEntity
  8
0
100
AcDbLine
 62
7
  6
CONTINUOUS
 10
137.5147984402
 20
76.4751619987
 11
136.716174542
 21
74.6763960037
  0
LINE
  5
5F7
100
AcDbEntity
  8
0
100
AcDbLine
 62
7
  6
CONTINUOUS
 10
137.0017894036
 20
74.5495874835
 11
138.016257566
 21
76.8345063765
  0
LINE
  5
5F8
100
AcDbEntity
  8
0
100
AcDbLine
 62
7
  6
CONTINUOUS
 10
131.3180989232
 20
74.03
 11
129.0086978465
 21
70.03
  0
LINE
  5
5F9
100
AcDbEntity
  8
0
100
AcDbLine
 62
7
  6
CONTINUOUS
 10
131.2289947745
 20
75.0603911601
 11
131.3551374319
 21
75.257388783
  0
LINE
  5
5FA
100
AcDbEntity
  8
0
100
AcDbLine
 62
7
  6
CONTINUOUS
 10
128.9040876727
 20
73.4304001246
 11
128.7854138431
 21
73.2591712096
  0
LINE
  5
5FB
100
AcDbEntity
  8
0
100
AcDbLine
 62
7
  6
CONTINUOUS
 10
129.0477218424
 20
73.0773730897
 11
129.1663956721
 21
73.2486020047
  0
LINE
  5
5FC
100
AcDbEntity
  8
0
100
AcDbLine
 62
7
  6
CONTINUOUS
 10
137.5878352735
 20
77.0247191569
 11
135.9672521043
 21
75.2998980477
  0
LINE
  5
5FD
100
AcDbEntity
  8
0
100
AcDbLine
 62
7
  6
CONTINUOUS
 10
136.049740228
 20
74.9722823898
 11
137.5147984402
 21
76.4751619987
  0
LINE
  5
5FE
100
AcDbEntity
  8
0
100
AcDbLine
 62
7
  6
CONTINUOUS
 10
131.0229329559
 20
75.3096044862
 11
130.869940176
 21
75.1585242486
  0
LINE
  5
5FF
100
AcDbEntity
  8
0
100
AcDbLine
 62
7
  6
CONTINUOUS
 10
128.8556616841
 20
72.8936368154
 11
129.0477218424
 21
73.0773730897
  0
LINE
  5
600
100
AcDbEntity
  8
0
100
AcDbLine
 62
7
  6
CONTINUOUS
 10
131.0310408873
 20
74.8830199768
 11
131.2289947745
 21
75.0603911601
  0
LINE
  5
601
100
AcDbEntity
  8
0
100
AcDbLine
 62
7
  6
CONTINUOUS
 10
128.7854138431
 20
73.2591712096
 11
128.6230221884
 21
73.1182422227
  0
LINE
  5
602
100
AcDbEntity
  8
0
100
AcDbLine
 62
7
  6
CONTINUOUS
 10
138.2735077743
 20
73.5711556523
 11
138.0388544674
 21
73.4459710205
  0
LINE
  5
603
100
AcDbEntity
  8
0
100
AcDbLine
 62
7
  6
CONTINUOUS
 10
140.4638179996
 20
72.9687122341
 11
140.3699565585
 21
72.9186383183
  0
LINE
  5
604
100
AcDbEntity
  8
0
100
AcDbLine
 62
7
  6
CONTINUOUS
 10
138.921406103
 20
71.7916652415
 11
139.1560594098
 21
71.9168498733
  0
LINE
  5
605
100
AcDbEntity
  8
0
100
AcDbLine
 62
7
  6
CONTINUOUS
 10
140.5170484977
 20
72.6429206885
 11
140.6109099388
 21
72.6929946043
  0
LINE
  5
606
100
AcDbEntity
  8
0
100
AcDbLine
 62
7
  6
CONTINUOUS
 10
64.9651113818
 20
144.3555425487
 11
64.7528732524
 21
144.3013481462
  0
LINE
  5
607
100
AcDbEntity
  8
BEZUGSACHSEN
100
AcDbLine
 62
7
  6
CONTINUOUS
 10
47.6275
 20
151.03
 11
144.6275
 21
151.03
  0
LINE
  5
608
100
AcDbEntity
  8
0
100
AcDbLine
 62
7
  6
CONTINUOUS
 10
130.5415259156
 20
147.0614946995
 11
130.2542825587
 21
147.1400013283
  0
LINE
  5
609
100
AcDbEntity
  8
0
100
AcDbLine
 62
7
  6
CONTINUOUS
 10
140.2508954809
 20
144.2718781363
 11
139.9651113818
 21
144.3555425487
  0
LINE
  5
60A
100
AcDbEntity
  8
0
100
AcDbLine
 62
7
  6
CONTINUOUS
 10
128.2560898543
 20
143.0557044546
 11
128.0515495451
 21
143.134096142
  0
LINE
  5
60B
100
AcDbEntity
  8
0
100
AcDbLine
 62
7
  6
CONTINUOUS
 10
127.8735388006
 20
142.8772527695
 11
128.1217972744
 21
142.7685616439
  0
LINE
  5
60C
100
AcDbEntity
  8
0
100
AcDbLine
 62
7
  6
CONTINUOUS
 10
126.601148588
 20
141.9432866541
 11
126.7488265006
 21
141.8634874852
  0
LINE
  5
60D
100
AcDbEntity
  8
0
100
AcDbLine
 62
7
  6
CONTINUOUS
 10
126.8570827781
 20
142.1614239923
 11
126.7094048655
 21
142.2412231612
  0
LINE
  5
60E
100
AcDbEntity
  8
0
100
AcDbLine
 62
7
  6
CONTINUOUS
 10
126.5182807784
 20
143.8165430737
 11
127.8735388006
 21
142.8772527695
  0
LINE
  5
60F
100
AcDbEntity
  8
0
100
AcDbLine
 62
7
  6
CONTINUOUS
 10
128.0515495451
 20
143.134096142
 11
126.6962915228
 21
144.0733864462
  0
LINE
  5
610
100
AcDbEntity
  8
0
100
AcDbLine
 62
7
  6
CONTINUOUS
 10
127.0384523578
 20
141.96962076
 11
126.8570827781
 21
142.1614239923
  0
LINE
  5
611
100
AcDbEntity
  8
0
100
AcDbLine
 62
7
  6
CONTINUOUS
 10
126.7488265006
 20
141.8634874852
 11
126.834850994
 21
141.7419645376
  0
LINE
  5
612
100
AcDbEntity
  8
0
100
AcDbLine
 62
7
  6
CONTINUOUS
 10
128.6900269118
 20
146.4101589902
 11
129.9519824869
 21
144.2520421893
  0
LINE
  5
613
100
AcDbEntity
  8
0
100
AcDbLine
 62
7
  6
CONTINUOUS
 10
130.0606463757
 20
144.685290908
 11
129.1208922044
 21
146.2923991975
  0
LINE
  5
614
100
AcDbEntity
  8
0
100
AcDbLine
 62
7
  6
CONTINUOUS
 10
129.0086978465
 20
140.03
 11
131.3180989232
 21
136.03
  0
LINE
  5
615
100
AcDbEntity
  8
0
100
AcDbLine
 62
7
  6
CONTINUOUS
 10
129.2460594969
 20
144.0171935978
 11
129.130524317
 21
144.2240066865
  0
LINE
  5
616
100
AcDbEntity
  8
0
100
AcDbLine
 62
7
  6
CONTINUOUS
 10
128.9087956627
 20
143.9974631196
 11
128.9806128171
 21
143.8209497352
  0
LINE
  5
617
100
AcDbEntity
  8
0
100
AcDbLine
 62
7
  6
CONTINUOUS
 10
131.4101010804
 20
145.7824722643
 11
131.3208110985
 21
146.0383497715
  0
LINE
  5
618
100
AcDbEntity
  8
0
100
AcDbLine
 62
7
  6
CONTINUOUS
 10
131.0510464984
 20
145.8806053246
 11
131.1134863649
 21
145.6706451907
  0
LINE
  5
619
100
AcDbEntity
  8
0
100
AcDbLine
 62
7
  6
CONTINUOUS
 10
147.1802308455
 20
111.03
 11
147.1802308455
 21
111.93
  0
LINE
  5
61A
100
AcDbEntity
  8
0
100
AcDbLine
 62
7
  6
CONTINUOUS
 10
147.1857773763
 20
99.03
 11
147.1857773763
 21
98.13
  0
LINE
  5
61B
100
AcDbEntity
  8
0
100
AcDbLine
 62
7
  6
CONTINUOUS
 10
147.7089706181
 20
111.03
 11
147.7089706181
 21
111.93
  0
LINE
  5
61C
100
AcDbEntity
  8
0
100
AcDbLine
 62
7
  6
CONTINUOUS
 10
147.892495793
 20
99.03
 11
147.892495793
 21
98.13
  0
LINE
  5
61D
100
AcDbEntity
  8
0
100
AcDbLine
 62
7
  6
CONTINUOUS
 10
148.6360701935
 20
99.03
 11
148.6360701935
 21
98.13
  0
LINE
  5
61E
100
AcDbEntity
  8
0
100
AcDbLine
 62
7
  6
CONTINUOUS
 10
148.7921563485
 20
99.03
 11
148.7921563485
 21
98.13
  0
LINE
  5
61F
100
AcDbEntity
  8
0
100
AcDbLine
 62
7
  6
CONTINUOUS
 10
149.1411845307
 20
99.03
 11
149.1411845307
 21
98.13
  0
LINE
  5
620
100
AcDbEntity
  8
0
100
AcDbLine
 62
7
  6
CONTINUOUS
 10
149.3947002885
 20
111.03
 11
149.3947002885
 21
111.93
  0
LINE
  5
621
100
AcDbEntity
  8
0
100
AcDbLine
 62
7
  6
CONTINUOUS
 10
150.1340887661
 20
99.03
 11
150.1340887661
 21
98.13
  0
LINE
  5
622
100
AcDbEntity
  8
0
100
AcDbLine
 62
7
  6
CONTINUOUS
 10
151.0012240568
 20
99.03
 11
151.0012240568
 21
98.13
  0
LINE
  5
623
100
AcDbEntity
  8
0
100
AcDbLine
 62
7
  6
CONTINUOUS
 10
151.080429557
 20
111.03
 11
151.080429557
 21
111.93
  0
LINE
  5
624
100
AcDbEntity
  8
0
100
AcDbLine
 62
7
  6
CONTINUOUS
 10
151.642339715
 20
111.03
 11
151.642339715
 21
111.93
  0
LINE
  5
625
100
AcDbEntity
  8
0
100
AcDbLine
 62
7
  6
CONTINUOUS
 10
151.7477348683
 20
111.03
 11
151.7477348683
 21
111.93
  0
LINE
  5
626
100
AcDbEntity
  8
0
100
AcDbLine
 62
7
  6
CONTINUOUS
 10
140.7741170478
 20
72.8390955846
 11
140.8637781871
 21
73.1230553798
  0
LINE
  5
627
100
AcDbEntity
  8
0
100
AcDbLine
 62
7
  6
CONTINUOUS
 10
140.5555789435
 20
73.1357295805
 11
140.4638179996
 21
72.9687122341
  0
LINE
  5
628
100
AcDbEntity
  8
0
100
AcDbLine
 62
7
  6
CONTINUOUS
 10
135.9369010768
 20
66.03
 11
138.2463021535
 21
70.03
  0
LINE
  5
629
100
AcDbEntity
  8
0
100
AcDbLine
 62
7
  6
CONTINUOUS
 10
138.7566591698
 20
75.6842527112
 11
138.4580913438
 21
75.3810452781
  0
LINE
  5
62A
100
AcDbEntity
  8
0
100
AcDbLine
 62
7
  6
CONTINUOUS
 10
138.9420061119
 20
75.4270910987
 11
137.4864882605
 21
73.9489551676
  0
LINE
  5
62B
100
AcDbEntity
  8
0
100
AcDbLine
 62
7
  6
CONTINUOUS
 10
137.7091561677
 20
73.729694471
 11
139.4632417406
 21
75.511037729
  0
LINE
  5
62C
100
AcDbEntity
  8
0
100
AcDbLine
 62
7
  6
CONTINUOUS
 10
140.6109099388
 20
72.6929946043
 11
140.7741170478
 21
72.8390955846
  0
LINE
  5
62D
100
AcDbEntity
  8
0
100
AcDbLine
 62
7
  6
CONTINUOUS
 10
140.1332029188
 20
142.9103972047
 11
138.2735077743
 21
143.5711556523
  0
LINE
  5
62E
100
AcDbEntity
  8
0
100
AcDbLine
 62
7
  6
CONTINUOUS
 10
138.4696301729
 20
143.2035324965
 11
140.1149879445
 21
142.6055210434
  0
LINE
  5
62F
100
AcDbEntity
  8
0
100
AcDbLine
 62
7
  6
CONTINUOUS
 10
134.7168705106
 20
145.5640556458
 11
135.0024853722
 21
145.4372471255
  0
LINE
  5
630
100
AcDbEntity
  8
0
100
AcDbLine
 62
7
  6
CONTINUOUS
 10
135.6689196862
 20
145.1413607394
 11
136.049740228
 21
144.9722823898
  0
LINE
  5
631
100
AcDbEntity
  8
0
100
AcDbLine
 62
7
  6
CONTINUOUS
 10
136.716174542
 20
144.6763960037
 11
137.0017894036
 21
144.5495874835
  0
LINE
  5
632
100
AcDbEntity
  8
0
100
AcDbLine
 62
7
  6
CONTINUOUS
 10
138.016257566
 20
146.8345063765
 11
137.5878352735
 21
147.0247191569
  0
LINE
  5
633
100
AcDbEntity
  8
0
100
AcDbLine
 62
7
  6
CONTINUOUS
 10
136.1597609654
 20
147.6587617584
 11
135.7313386729
 21
147.8489745388
  0
LINE
  5
634
100
AcDbEntity
  8
0
100
AcDbLine
 62
7
  6
CONTINUOUS
 10
130.3254615463
 20
146.8119155061
 11
130.4959336727
 21
146.7267448402
  0
LINE
  5
635
100
AcDbEntity
  8
0
100
AcDbLine
 62
7
  6
CONTINUOUS
 10
140.0652726663
 20
144.054787996
 11
140.2326799455
 21
143.9670030268
  0
LINE
  5
636
100
AcDbEntity
  8
0
100
AcDbLine
 62
7
  6
CONTINUOUS
 10
130.7388480822
 20
146.930406789
 11
130.5415259156
 21
147.0614946995
  0
LINE
  5
637
100
AcDbEntity
  8
0
100
AcDbLine
 62
7
  6
CONTINUOUS
 10
127.4083341611
 20
145.1007594462
 11
128.7635921834
 21
144.1614691421
  0
LINE
  5
638
100
AcDbEntity
  8
0
100
AcDbLine
 62
7
  6
CONTINUOUS
 10
128.9416028429
 20
144.4183123921
 11
127.5863448207
 21
145.3576026963
  0
LINE
  5
639
100
AcDbEntity
  8
0
100
AcDbLine
 62
7
  6
CONTINUOUS
 10
129.130524317
 20
144.2240066865
 11
128.9416028429
 21
144.4183123921
  0
LINE
  5
63A
100
AcDbEntity
  8
0
100
AcDbLine
 62
7
  6
CONTINUOUS
 10
130.4959336727
 20
146.7267448402
 11
130.6482947295
 21
146.569365988
  0
LINE
  5
63B
100
AcDbEntity
  8
0
100
AcDbLine
 62
7
  6
CONTINUOUS
 10
128.7635921834
 20
144.1614691421
 11
128.9087956627
 21
143.9974631196
  0
LINE
  5
63C
100
AcDbEntity
  8
0
100
AcDbLine
 62
7
  6
CONTINUOUS
 10
130.9180593297
 20
146.7271104349
 11
130.7388480822
 21
146.930406789
  0
LINE
  5
63D
100
AcDbEntity
  8
0
100
AcDbLine
 62
7
  6
CONTINUOUS
 10
130.6482947295
 20
146.569365988
 11
131.0510464984
 21
145.8806053246
  0
LINE
  5
63E
100
AcDbEntity
  8
0
100
AcDbLine
 62
7
  6
CONTINUOUS
 10
131.3208110985
 20
146.0383497715
 11
130.9180593297
 21
146.7271104349
  0
LINE
  5
63F
100
AcDbEntity
  8
0
100
AcDbLine
 62
7
  6
CONTINUOUS
 10
138.2463021535
 20
140.03
 11
135.9369010768
 21
144.03
  0
LINE
  5
640
100
AcDbEntity
  8
0
100
AcDbLine
 62
7
  6
CONTINUOUS
 10
138.0388544674
 20
143.4459710205
 11
138.921406103
 21
141.7916652415
  0
LINE
  5
641
100
AcDbEntity
  8
0
100
AcDbLine
 62
7
  6
CONTINUOUS
 10
139.1560594098
 20
141.9168498733
 11
138.4696301729
 21
143.2035324965
  0
LINE
  5
642
100
AcDbEntity
  8
0
100
AcDbLine
 62
7
  6
CONTINUOUS
 10
140.859578578
 20
143.3569402775
 11
140.7594172935
 21
143.6576948302
  0
LINE
  5
643
100
AcDbEntity
  8
0
100
AcDbLine
 62
7
  6
CONTINUOUS
 10
140.5002485092
 20
143.5784635049
 11
140.5758942835
 21
143.3236622411
  0
LINE
  5
644
100
AcDbEntity
  8
0
100
AcDbLine
 62
7
  6
CONTINUOUS
 10
152.1024889149
 20
99.03
 11
152.1024889149
 21
98.13
  0
LINE
  5
645
100
AcDbEntity
  8
0
100
AcDbLine
 62
7
  6
CONTINUOUS
 10
152.210133669
 20
111.03
 11
152.210133669
 21
111.93
  0
LINE
  5
646
100
AcDbEntity
  8
0
100
AcDbLine
 62
7
  6
CONTINUOUS
 10
152.809207499
 20
99.03
 11
152.809207499
 21
98.13
  0
LINE
  5
647
100
AcDbEntity
  8
0
100
AcDbLine
 62
7
  6
CONTINUOUS
 10
152.9203174597
 20
111.03
 11
152.9203174597
 21
111.93
  0
LINE
  5
648
100
AcDbEntity
  8
0
100
AcDbLine
 62
7
  6
CONTINUOUS
 10
153.5231935989
 20
111.03
 11
153.5231935989
 21
111.93
  0
LINE
  5
649
100
AcDbEntity
  8
0
100
AcDbLine
 62
7
  6
CONTINUOUS
 10
153.5527816204
 20
99.03
 11
153.5527816204
 21
98.13
  0
LINE
  5
64A
100
AcDbEntity
  8
0
100
AcDbLine
 62
7
  6
CONTINUOUS
 10
153.8649539304
 20
99.03
 11
153.8649539304
 21
98.13
  0
LINE
  5
64B
100
AcDbEntity
  8
0
100
AcDbLine
 62
7
  6
CONTINUOUS
 10
154.1359390352
 20
99.03
 11
154.1359390352
 21
98.13
  0
LINE
  5
64C
100
AcDbEntity
  8
0
100
AcDbLine
 62
7
  6
CONTINUOUS
 10
154.444093101
 20
111.03
 11
154.444093101
 21
111.93
  0
LINE
  5
64D
100
AcDbEntity
  8
0
100
AcDbLine
 62
7
  6
CONTINUOUS
 10
154.9033759227
 20
99.03
 11
154.9033759227
 21
98.13
  0
LINE
  5
64E
100
AcDbEntity
  8
0
100
AcDbLine
 62
7
  6
CONTINUOUS
 10
155.2576854491
 20
111.03
 11
155.2576854491
 21
111.93
  0
LINE
  5
64F
100
AcDbEntity
  8
0
100
AcDbLine
 62
7
  6
CONTINUOUS
 10
155.2935914219
 20
99.03
 11
155.2935914219
 21
98.13
  0
LINE
  5
650
100
AcDbEntity
  8
0
100
AcDbLine
 62
7
  6
CONTINUOUS
 10
155.7864250207
 20
111.03
 11
155.7864250207
 21
111.93
  0
LINE
  5
651
100
AcDbEntity
  8
0
100
AcDbLine
 62
7
  6
CONTINUOUS
 10
139.1123275573
 20
60.53
 11
144.5971551146
 21
70.03
  0
LINE
  5
652
100
AcDbEntity
  8
0
100
AcDbLine
 62
7
  6
CONTINUOUS
 10
140.4428177093
 20
144.1381409299
 11
140.2508954809
 21
144.2718781363
  0
LINE
  5
653
100
AcDbEntity
  8
0
100
AcDbLine
 62
7
  6
CONTINUOUS
 10
137.4864882605
 20
143.9489551676
 11
137.7091561677
 21
143.729694471
  0
LINE
  5
654
100
AcDbEntity
  8
0
100
AcDbLine
 62
7
  6
CONTINUOUS
 10
139.4632417406
 20
145.511037729
 11
139.2405738334
 21
145.7302984256
  0
LINE
  5
655
100
AcDbEntity
  8
0
100
AcDbLine
 62
7
  6
CONTINUOUS
 10
140.2326799455
 20
143.9670030268
 11
140.4021870294
 21
143.7622756087
  0
LINE
  5
656
100
AcDbEntity
  8
0
100
AcDbLine
 62
7
  6
CONTINUOUS
 10
140.6613558136
 20
143.841506934
 11
140.4428177093
 21
144.1381409299
  0
LINE
  5
657
100
AcDbEntity
  8
0
100
AcDbLine
 62
7
  6
CONTINUOUS
 10
144.5971551146
 20
140.03
 11
139.1123275573
 21
149.53
  0
LINE
  5
658
100
AcDbEntity
  8
0
100
AcDbLine
 62
7
  6
CONTINUOUS
 10
139.7528732524
 20
144.3013481462
 11
139.8754502425
 21
144.0715827535
  0
LINE
  5
659
100
AcDbEntity
  8
0
100
AcDbLine
 62
7
  6
CONTINUOUS
 10
140.4021870294
 20
143.7622756087
 11
140.5002485092
 21
143.5784635049
  0
LINE
  5
65A
100
AcDbEntity
  8
0
100
AcDbLine
 62
7
  6
CONTINUOUS
 10
140.7594172935
 20
143.6576948302
 11
140.6613558136
 21
143.841506934
  0
LINE
  5
65B
100
AcDbEntity
  8
0
100
AcDbLine
 62
7
  6
CONTINUOUS
 10
157.4721546911
 20
111.03
 11
157.4721546911
 21
111.93
  0
LINE
  5
65C
100
AcDbEntity
  8
RUNDUNGEN
100
AcDbLine
 62
7
  6
CONTINUOUS
 10
164.6275
 20
131.03
 11
164.6275
 21
79.03
  0
ARC
  5
65D
100
AcDbEntity
  8
RUNDUNGEN
100
AcDbCircle
 62
7
  6
CONTINUOUS
 10
48.1775
 20
202.4688975893
 40
20.55
100
AcDbArc
 50
158.0630225135
 51
180.0
  0
ARC
  5
65E
100
AcDbEntity
  8
BEZUGSACHSEN
100
AcDbCircle
 62
7
  6
CONTINUOUS
 10
45.0188783144
 20
209.897885527
 40
10.0
100
AcDbArc
 50
275.8542354927
 51
285.29080804
  0
ARC
  5
65F
100
AcDbEntity
  8
BEZUGSACHSEN
100
AcDbCircle
 62
7
  6
CONTINUOUS
 10
45.0188783144
 20
209.897885527
 40
10.0
100
AcDbArc
 50
295.78348286
 51
338.7131889193
  0
ARC
  5
660
100
AcDbEntity
  8
BEZUGSACHSEN
100
AcDbCircle
 62
7
  6
CONTINUOUS
 10
51.2347190512
 20
216.2095807362
 40
6.5
100
AcDbArc
 50
338.708509402
 51
22.9033268848
  0
ARC
  5
661
100
AcDbEntity
  8
BEZUGSACHSEN
100
AcDbCircle
 62
7
  6
CONTINUOUS
 10
58.9369740348
 20
224.9586871626
 40
4.0
100
AcDbArc
 50
158.710467472
 51
202.9034912045
  0
ARC
  5
662
100
AcDbEntity
  8
BEZUGSACHSEN
100
AcDbCircle
 62
7
  6
CONTINUOUS
 10
69.4686667934
 20
251.985670545
 40
4.0
100
AcDbArc
 50
112.9034891389
 51
158.7104674167
  0
ARC
  5
663
100
AcDbEntity
  8
RUNDUNGEN
100
AcDbCircle
 62
7
  6
CONTINUOUS
 10
96.1275
 20
207.897885527
 40
63.0
100
AcDbArc
 50
21.9369774865
 51
158.0630225135
  0
CIRCLE
  5
664
100
AcDbEntity
  8
RUNDUNGEN
100
AcDbCircle
 62
7
  6
CONTINUOUS
 10
96.1275
 20
224.897885527
 40
25.0
  0
ARC
  5
665
100
AcDbEntity
  8
RUNDUNGEN
100
AcDbCircle
 62
7
  6
CONTINUOUS
 10
144.0775
 20
202.4688975893
 40
20.55
100
AcDbArc
 50
0.0
 51
21.9369774865
  0
ARC
  5
666
100
AcDbEntity
  8
BEZUGSACHSEN
100
AcDbCircle
 62
7
  6
CONTINUOUS
 10
147.2361216856
 20
209.897885527
 40
10.0
100
AcDbArc
 50
254.7096681541
 51
264.1603141309
  0
ARC
  5
667
100
AcDbEntity
  8
BEZUGSACHSEN
100
AcDbCircle
 62
7
  6
CONTINUOUS
 10
147.2361216856
 20
209.897885527
 40
10.0
100
AcDbArc
 50
201.2868110807
 51
244.21651714
  0
ARC
  5
668
100
AcDbEntity
  8
RUNDUNGEN
100
AcDbCircle
 62
7
  6
CONTINUOUS
 10
141.0202809488
 20
216.2095807362
 40
6.5
100
AcDbArc
 50
157.0966731152
 51
201.291490598
  0
ARC
  5
669
100
AcDbEntity
  8
RUNDUNGEN
100
AcDbCircle
 62
7
  6
CONTINUOUS
 10
133.3180259652
 20
224.9586871626
 40
4.0
100
AcDbArc
 50
337.0965087955
 51
21.289532528
  0
ARC
  5
66A
100
AcDbEntity
  8
RUNDUNGEN
100
AcDbCircle
 62
7
  6
CONTINUOUS
 10
122.7863332066
 20
251.985670545
 40
4.0
100
AcDbArc
 50
21.2895325125
 51
67.0965109529
  0
ARC
  5
66B
100
AcDbEntity
  8
RUNDUNGEN
100
AcDbCircle
 62
7
  6
CONTINUOUS
 10
96.1275
 20
264.3343014792
 40
3.0
100
AcDbArc
 50
67.0965108611
 51
112.9034891389
  0
ARC
  5
66C
100
AcDbEntity
  8
RUNDUNGEN
100
AcDbCircle
 62
7
  6
CONTINUOUS
 10
229.9636862929
 20
225.4907521218
 40
21.0
100
AcDbArc
 50
350.4225960396
 51
354.8847174898
  0
ARC
  5
66D
100
AcDbEntity
  8
RUNDUNGEN
100
AcDbCircle
 62
7
  6
CONTINUOUS
 10
229.9636862929
 20
225.4907521218
 40
21.0
100
AcDbArc
 50
342.5410258931
 51
346.5505320358
  0
ARC
  5
66E
100
AcDbEntity
  8
BEZUGSACHSEN
100
AcDbCircle
 62
7
  6
CONTINUOUS
 10
229.9636862929
 20
225.4907521218
 40
21.0
100
AcDbArc
 50
340.0004546337
 51
359.9999997682
  0
ARC
  5
66F
100
AcDbEntity
  8
RUNDUNGEN
100
AcDbCircle
 62
7
  6
CONTINUOUS
 10
235.9943024827
 20
209.897885527
 40
10.0
100
AcDbArc
 50
322.8513583383
 51
330.6276092082
  0
ARC
  5
670
100
AcDbEntity
  8
BEZUGSACHSEN
100
AcDbCircle
 62
7
  6
CONTINUOUS
 10
235.9943024827
 20
209.897885527
 40
10.0
100
AcDbArc
 50
318.7400274061
 51
339.9999959047
  0
ARC
  5
671
100
AcDbEntity
  8
BEZUGSACHSEN
100
AcDbCircle
 62
7
  6
CONTINUOUS
 10
235.9943024827
 20
209.897885527
 40
10.0
100
AcDbArc
 50
275.6058687871
 51
317.2400831956
  0
ARC
  5
672
100
AcDbEntity
  8
RUNDUNGEN
100
AcDbCircle
 62
7
  6
CONTINUOUS
 10
259.4636862929
 20
267.897885527
 40
3.0
100
AcDbArc
 50
90.0
 51
180.0
  0
ARC
  5
673
100
AcDbEntity
  8
BEZUGSACHSEN
100
AcDbCircle
 62
7
  6
CONTINUOUS
 10
253.9636862929
 20
264.3343014792
 40
3.0
100
AcDbArc
 50
90.0
 51
180.0
  0
ARC
  5
674
100
AcDbEntity
  8
RUNDUNGEN
100
AcDbCircle
 62
7
  6
CONTINUOUS
 10
294.9636862929
 20
225.4907521218
 40
21.0
100
AcDbArc
 50
193.4494676219
 51
197.4589777564
  0
ARC
  5
675
100
AcDbEntity
  8
RUNDUNGEN
100
AcDbCircle
 62
7
  6
CONTINUOUS
 10
294.9636862929
 20
225.4907521218
 40
21.0
100
AcDbArc
 50
185.1152825388
 51
189.5774039421
  0
ARC
  5
676
100
AcDbEntity
  8
BEZUGSACHSEN
100
AcDbCircle
 62
7
  6
CONTINUOUS
 10
294.9636862929
 20
225.4907521218
 40
21.0
100
AcDbArc
 50
180.0000002318
 51
199.9995453663
  0
ARC
  5
677
100
AcDbEntity
  8
BEZUGSACHSEN
100
AcDbCircle
 62
7
  6
CONTINUOUS
 10
288.9330701031
 20
209.897885527
 40
10.0
100
AcDbArc
 50
222.5444548318
 51
264.3944245716
  0
ARC
  5
678
100
AcDbEntity
  8
RUNDUNGEN
100
AcDbCircle
 62
7
  6
CONTINUOUS
 10
288.9330701031
 20
209.897885527
 40
10.0
100
AcDbArc
 50
200.0000040953
 51
201.2895325833
  0
ARC
  5
679
100
AcDbEntity
  8
RUNDUNGEN
100
AcDbCircle
 62
7
  6
CONTINUOUS
 10
288.9330701031
 20
209.897885527
 40
10.0
100
AcDbArc
 50
209.3723928048
 51
217.1494064436
  0
ARC
  5
67A
100
AcDbEntity
  8
BEZUGSACHSEN
100
AcDbCircle
 62
7
  6
CONTINUOUS
 10
288.9330701031
 20
209.897885527
 40
10.0
100
AcDbArc
 50
200.0000040953
 51
221.2599725939
  0
ARC
  5
67B
100
AcDbEntity
  8
RUNDUNGEN
100
AcDbCircle
 62
7
  6
CONTINUOUS
 10
265.4636862929
 20
267.897885527
 40
3.0
100
AcDbArc
 50
0.0
 51
90.0
  0
ARC
  5
67C
100
AcDbEntity
  8
RUNDUNGEN
100
AcDbCircle
 62
7
  6
CONTINUOUS
 10
270.9636862929
 20
264.3343014792
 40
3.0
100
AcDbArc
 50
0.0
 51
90.0
  0
ARC
  5
67D
100
AcDbEntity
  8
BEZUGSACHSEN
100
AcDbCircle
 62
7
  6
CONTINUOUS
 10
47.6275
 20
79.03
 40
20.0
100
AcDbArc
 50
180.0
 51
270.0
  0
ARC
  5
67E
100
AcDbEntity
  8
BEZUGSACHSEN
100
AcDbCircle
 62
7
  6
CONTINUOUS
 10
58.6275
 20
70.03
 40
16.5
100
AcDbArc
 50
318.1896851042
 51
221.6018090195
  0
ARC
  5
67F
100
AcDbEntity
  8
RUNDUNGEN
100
AcDbCircle
 62
7
  6
CONTINUOUS
 10
30.6275
 20
102.03
 40
3.0
100
AcDbArc
 50
180.0
 51
270.0
  0
ARC
  5
680
100
AcDbEntity
  8
BEZUGSACHSEN
100
AcDbCircle
 62
7
  6
CONTINUOUS
 10
47.6275
 20
131.03
 40
20.0
100
AcDbArc
 50
90.0
 51
180.0
  0
ARC
  5
681
100
AcDbEntity
  8
BEZUGSACHSEN
100
AcDbCircle
 62
7
  6
CONTINUOUS
 10
58.6275
 20
140.03
 40
16.5
100
AcDbArc
 50
138.3981909805
 51
41.8103148958
  0
ARC
  5
682
100
AcDbEntity
  8
RUNDUNGEN
100
AcDbCircle
 62
7
  6
CONTINUOUS
 10
30.6275
 20
108.03
 40
3.0
100
AcDbArc
 50
90.0
 51
180.0
  0
ARC
  5
683
100
AcDbEntity
  8
BEZUGSACHSEN
100
AcDbCircle
 62
7
  6
CONTINUOUS
 10
144.6275
 20
79.03
 40
20.0
100
AcDbArc
 50
270.0
 51
360.0
  0
ARC
  5
684
100
AcDbEntity
  8
BEZUGSACHSEN
100
AcDbCircle
 62
7
  6
CONTINUOUS
 10
133.6275
 20
70.03
 40
16.5
100
AcDbArc
 50
318.3981909805
 51
221.8103148958
  0
ARC
  5
685
100
AcDbEntity
  8
RUNDUNGEN
100
AcDbCircle
 62
7
  6
CONTINUOUS
 10
161.6275
 20
102.03
 40
3.0
100
AcDbArc
 50
270.0
 51
360.0
  0
ARC
  5
686
100
AcDbEntity
  8
BEZUGSACHSEN
100
AcDbCircle
 62
7
  6
CONTINUOUS
 10
144.6275
 20
131.03
 40
20.0
100
AcDbArc
 50
0.0
 51
90.0
  0
ARC
  5
687
100
AcDbEntity
  8
BEZUGSACHSEN
100
AcDbCircle
 62
7
  6
CONTINUOUS
 10
133.6275
 20
140.03
 40
16.5
100
AcDbArc
 50
138.1896851042
 51
41.6018090195
  0
ARC
  5
688
100
AcDbEntity
  8
RUNDUNGEN
100
AcDbCircle
 62
7
  6
CONTINUOUS
 10
161.6275
 20
108.03
 40
3.0
100
AcDbArc
 50
0.0
 51
90.0
  0
SPLINE
  5
689
100
AcDbEntity
  8
BEZUGSACHSEN
100
AcDbSpline
 62
7
  6
CONTINUOUS
 70
0
 71
3
 72
11
 73
7
 74
0
 42
0.0000001
 43
0.0000001
 44
0.0000000001
 40
0.0
 40
0.0
 40
0.0
 40
0.0
 40
0.2123022604
 40
0.4509043293
 40
0.7143058526
 40
1.0
 40
1.0
 40
1.0
 40
1.0
 10
119.5038111256
 20
199.897885527
 30
0.0
 10
119.7341586355
 20
199.897885527
 30
0.0
 10
120.2234164879
 20
199.9432925024
 30
0.0
 10
120.9825642854
 20
200.1035178654
 30
0.0
 10
121.8034113546
 20
200.343646964
 30
0.0
 10
122.3662465437
 20
200.5394561881
 30
0.0
 10
122.6574309615
 20
200.6457469166
 30
0.0
  0
SPLINE
  5
68A
100
AcDbEntity
  8
BEZUGSACHSEN
100
AcDbSpline
 62
7
  6
CONTINUOUS
 70
0
 71
3
 72
15
 73
11
 74
0
 42
0.0000001
 43
0.0000001
 44
0.0000000001
 40
0.0
 40
0.0
 40
0.0
 40
0.0
 40
0.1100172323
 40
0.2272311621
 40
0.3500013473
 40
0.4769848083
 40
0.6069630685
 40
0.7385745147
 40
0.8701402257
 40
1.0
 40
1.0
 40
1.0
 40
1.0
 10
123.3240462617
 20
200.8969325227
 30
0.0
 10
123.8258920406
 20
201.0911446315
 30
0.0
 10
124.8557680645
 20
201.5092401224
 30
0.0
 10
126.4402553692
 20
202.1573021156
 30
0.0
 10
128.1179432506
 20
202.7964644268
 30
0.0
 10
129.8892469053
 20
203.3605467391
 30
0.0
 10
131.751095923
 20
203.7632845834
 30
0.0
 10
133.6763209955
 20
203.9080874295
 30
0.0
 10
135.5994813542
 20
203.7484605073
 30
0.0
 10
136.8507594874
 20
203.4700892216
 30
0.0
 10
137.4635887864
 20
203.3031188641
 30
0.0
  0
SPLINE
  5
68B
100
AcDbEntity
  8
BEZUGSACHSEN
100
AcDbSpline
 62
7
  6
CONTINUOUS
 70
0
 71
3
 72
12
 73
8
 74
0
 42
0.0000001
 43
0.0000001
 44
0.0000000001
 40
0.0
 40
0.0
 40
0.0
 40
0.0
 40
0.1311393552
 40
0.2610412944
 40
0.5162163487
 40
0.7634529508
 40
1.0
 40
1.0
 40
1.0
 40
1.0
 10
137.46333203
 20
203.303182388
 30
0.0
 10
137.7112495939
 20
203.2356352191
 30
0.0
 10
138.1953446511
 20
203.0670332608
 30
0.0
 10
139.1254109947
 20
202.6690309129
 30
0.0
 10
140.2383301983
 20
202.1235535207
 30
0.0
 10
141.5348561391
 20
201.4793667157
 30
0.0
 10
142.3950765635
 20
201.0802231424
 30
0.0
 10
142.8210065574
 20
200.8974463152
 30
0.0
  0
SPLINE
  5
68C
100
AcDbEntity
  8
BEZUGSACHSEN
100
AcDbSpline
 62
7
  6
CONTINUOUS
 70
0
 71
3
 72
15
 73
11
 74
0
 42
0.0000001
 43
0.0000001
 44
0.0000000001
 40
0.0
 40
0.0
 40
0.0
 40
0.0
 40
0.1298573447
 40
0.2614214792
 40
0.3930311411
 40
0.5230103531
 40
0.6499953674
 40
0.7727667252
 40
0.8899817757
 40
1.0
 40
1.0
 40
1.0
 40
1.0
 10
54.7914112136
 20
203.3031188641
 30
0.0
 10
55.4042292429
 20
203.4700858317
 30
0.0
 10
56.655487578
 20
203.748461148
 30
0.0
 10
58.578619685
 20
203.9080669901
 30
0.0
 10
60.5038367979
 20
203.7633153222
 30
0.0
 10
62.365687618
 20
203.3605588673
 30
0.0
 10
64.1370112014
 20
202.7964818867
 30
0.0
 10
65.8147172993
 20
202.1573124883
 30
0.0
 10
67.3992199668
 20
201.5092450306
 30
0.0
 10
68.4291057718
 20
201.0911455527
 30
0.0
 10
68.9309561436
 20
200.8969315875
 30
0.0
  0
SPLINE
  5
68D
100
AcDbEntity
  8
BEZUGSACHSEN
100
AcDbSpline
 62
7
  6
CONTINUOUS
 70
0
 71
3
 72
11
 73
7
 74
0
 42
0.0000001
 43
0.0000001
 44
0.0000000001
 40
0.0
 40
0.0
 40
0.0
 40
0.0
 40
0.2856936324
 40
0.5490948592
 40
0.7876973475
 40
1.0
 40
1.0
 40
1.0
 40
1.0
 10
69.5976801818
 20
200.6457063485
 30
0.0
 10
69.8888539379
 20
200.5394208819
 30
0.0
 10
70.4516687497
 20
200.3436216636
 30
0.0
 10
71.2724866756
 20
200.1035050332
 30
0.0
 10
72.0316083688
 20
199.9432898051
 30
0.0
 10
72.5208493072
 20
199.897885527
 30
0.0
 10
72.7511888744
 20
199.897885527
 30
0.0
  0
SPLINE
  5
68E
100
AcDbEntity
  8
BEZUGSACHSEN
100
AcDbSpline
 62
7
  6
CONTINUOUS
 70
0
 71
3
 72
12
 73
8
 74
0
 42
0.0000001
 43
0.0000001
 44
0.0000000001
 40
0.0
 40
0.0
 40
0.0
 40
0.0
 40
0.2365478487
 40
0.4837859085
 40
0.7389625579
 40
0.8688613477
 40
1.0
 40
1.0
 40
1.0
 40
1.0
 10
49.4338642447
 20
200.8973909509
 30
0.0
 10
49.8598070372
 20
201.0801712655
 30
0.0
 10
50.7200559278
 20
201.4793204789
 30
0.0
 10
52.0166164107
 20
202.1235358769
 30
0.0
 10
53.1295689852
 20
202.6690158823
 30
0.0
 10
54.0596569377
 20
203.0670189557
 30
0.0
 10
54.5437524554
 20
203.2356360678
 30
0.0
 10
54.791674912
 20
203.3031844405
 30
0.0
  0
SPLINE
  5
68F
100
AcDbEntity
  8
BEZUGSACHSEN
100
AcDbSpline
 62
7
  6
CONTINUOUS
 70
0
 71
3
 72
10
 73
6
 74
0
 42
0.0000001
 43
0.0000001
 44
0.0000000001
 40
0.0
 40
0.0
 40
0.0
 40
0.0
 40
0.2734615572
 40
0.5310979108
 40
1.0
 40
1.0
 40
1.0
 40
1.0
 10
288.133337113
 20
199.897885527
 30
0.0
 10
287.7938895311
 20
199.897885527
 30
0.0
 10
287.1339450642
 20
199.9135173659
 30
0.0
 10
285.8992825723
 20
200.0324403967
 30
0.0
 10
285.0093782865
 20
200.2572993327
 30
0.0
 10
284.481532055
 20
200.5025704541
 30
0.0
  0
SPLINE
  5
690
100
AcDbEntity
  8
BEZUGSACHSEN
100
AcDbSpline
 62
7
  6
CONTINUOUS
 70
0
 71
3
 72
14
 73
10
 74
0
 42
0.0000001
 43
0.0000001
 44
0.0000000001
 40
0.0
 40
0.0
 40
0.0
 40
0.0
 40
0.2866655031
 40
0.5542490626
 40
0.6804559023
 40
0.7997987491
 40
0.9088564122
 40
0.9574862578
 40
1.0
 40
1.0
 40
1.0
 40
1.0
 10
284.4814342528
 20
200.5026064561
 30
0.0
 10
284.1174774296
 20
200.6717235408
 30
0.0
 10
283.4444747201
 20
201.0698906333
 30
0.0
 10
282.725324746
 20
201.701411228
 30
0.0
 10
282.2419822838
 20
202.2334274378
 30
0.0
 10
281.9309494602
 20
202.6206845395
 30
0.0
 10
281.7008252091
 20
202.9329251603
 30
0.0
 10
281.5341801892
 20
203.1582362628
 30
0.0
 10
281.4549954934
 20
203.2584426135
 30
0.0
 10
281.4157441851
 20
203.3031844405
 30
0.0
  0
SPLINE
  5
691
100
AcDbEntity
  8
BEZUGSACHSEN
100
AcDbSpline
 62
7
  6
CONTINUOUS
 70
0
 71
3
 72
10
 73
6
 74
0
 42
0.0000001
 43
0.0000001
 44
0.0000000001
 40
0.0
 40
0.0
 40
0.0
 40
0.0
 40
0.4689038467
 40
0.7265391686
 40
1.0
 40
1.0
 40
1.0
 40
1.0
 10
240.4458405314
 20
200.5025704543
 30
0.0
 10
239.9179923137
 20
200.257298425
 30
0.0
 10
239.0280870671
 20
200.0324389668
 30
0.0
 10
237.7934244114
 20
199.9135176446
 30
0.0
 10
237.1334821551
 20
199.897885527
 30
0.0
 10
236.7940354728
 20
199.897885527
 30
0.0
  0
SPLINE
  5
692
100
AcDbEntity
  8
BEZUGSACHSEN
100
AcDbSpline
 62
7
  6
CONTINUOUS
 70
0
 71
3
 72
14
 73
10
 74
0
 42
0.0000001
 43
0.0000001
 44
0.0000000001
 40
0.0
 40
0.0
 40
0.0
 40
0.0
 40
0.0425109492
 40
0.0911459994
 40
0.2002053083
 40
0.3195464067
 40
0.4457530821
 40
0.7133347998
 40
1.0
 40
1.0
 40
1.0
 40
1.0
 10
243.5116267414
 20
203.303182388
 30
0.0
 10
243.4723780281
 20
203.2584435189
 30
0.0
 10
243.3931771193
 20
203.1582458658
 30
0.0
 10
243.2265546018
 20
202.9329105824
 30
0.0
 10
242.9964153303
 20
202.6206726066
 30
0.0
 10
242.685379637
 20
202.2334187815
 30
0.0
 10
242.2020431695
 20
201.7014046626
 30
0.0
 10
241.4828942071
 20
201.0698880847
 30
0.0
 10
240.8098943191
 20
200.6717231456
 30
0.0
 10
240.4459380279
 20
200.5026063186
 30
0.0
  0
ENDSEC
  0
SECTION
  2
OBJECTS
  0
DICTIONARY
  5
C
100
AcDbDictionary
280
0
281
1
  3
ACAD_GROUP
350
D
  3
ACAD_MLINESTYLE
350
17
  3
ACAD_LAYOUT
350
1A
  3
ACAD_PLOTSETTINGS
350
19
  3
ACAD_PLOTSTYLENAME
350
E
  0
DICTIONARY
  5
D
102
{ACAD_REACTORS
330
C
102
}
100
AcDbDictionary
280
0
281
1
  0
ACDBDICTIONARYWDFLT
  5
E
102
{ACAD_REACTORS
330
C
102
}
100
AcDbDictionary
281
1
  3
Normal
350
F
100
AcDbDictionaryWithDefault
340
F
  0
DICTIONARY
  5
17
102
{ACAD_REACTORS
330
C
102
}
100
AcDbDictionary
280
0
281
1
  3
Standard
350
18
  0
DICTIONARY
  5
19
102
{ACAD_REACTORS
330
C
102
}
100
AcDbDictionary
281
1
  0
DICTIONARY
  5
1A
102
{ACAD_REACTORS
330
C
102
}
100
AcDbDictionary
281
1
  3
Model
350
693
  3
Layout1
350
694
  0
ACDBPLACEHOLDER
  5
F
102
{ACAD_REACTORS
330
E
102
}
  0
MLINESTYLE
  5
18
102
{ACAD_REACTORS
330
17
102
}
100
AcDbMlineStyle
  2
STANDARD
 70
0
  3

 62
256
 51
90.0
 52
90.0
 71
2
 49
0.5
 62
256
  6
BYLAYER
 49
-0.5
 62
256
  6
BYLAYER
  0
LAYOUT
  5
693
102
{ACAD_REACTORS
330
1A
102
}
100
AcDbPlotSettings
  1

  2
none_device
  4
ISO_A3_(420.00_x_297.00_MM)
  6

 40
0.0
 41
0.0
 42
0.0
 43
0.0
 44
420.0
 45
297.0
 46
0.0
 47
0.0
 48
0.0
 49
0.0
140
0.0
141
0.0
142
1.0
143
1.0
 70
1024
 72
1
 73
0
 74
0
  7

 75
0
147
1.0
148
0.0
149
0.0
100
AcDbLayout
  1
Model
 70
0
 71
0
 10
0.0
 20
0.0
 11
420.0
 21
297.0
 12
0.0
 22
0.0
 32
0.0
 14
0.0
 24
0.0
 34
0.0
 15
0.0
 25
0.0
 35
0.0
146
0.0
 13
0.0
 23
0.0
 33
0.0
 16
1.0
 26
0.0
 36
0.0
 17
0.0
 27
1.0
 37
0.0
 76
0
330
20B
345
0
346
0
  0
LAYOUT
  5
694
102
{ACAD_REACTORS
330
1A
102
}
100
AcDbPlotSettings
  1

  2
none_device
  4
ISO_A3_(420.00_x_297.00_MM)
  6

 40
0.0
 41
0.0
 42
0.0
 43
0.0
 44
420.0
 45
297.0
 46
0.0
 47
0.0
 48
0.0
 49
0.0
140
0.0
141
0.0
142
1.0
143
1.0
 70
0
 72
1
 73
0
 74
0
  7

 75
0
147
1.0
148
0.0
149
0.0
100
AcDbLayout
  1
Layout1
 70
0
 71
1
 10
0.0
 20
0.0
 11
420.0
 21
297.0
 12
0.0
 22
0.0
 32
0.0
 14
0.0
 24
0.0
 34
0.0
 15
0.0
 25
0.0
 35
0.0
146
0.0
 13
0.0
 23
0.0
 33
0.0
 16
1.0
 26
0.0
 36
0.0
 17
0.0
 27
1.0
 37
0.0
 76
0
330
20C
345
0
346
0
  0
ENDSEC
  0
EOF
