999
DXF file: 001-m35145-p-2.dxf
999
Pro/ENGINEER 2011490 by Parametric Technology Corporation
  0
SECTION
  2
HEADER
  9
$ACADVER
  1
AC1015
  9
$DWGCODEPAGE
  3
ANSI_1252
  9
$EXTMAX
 10
420.0
 20
297.0
 30
0.0
  9
$EXTMIN
 10
0.0
 20
0.0
 30
0.0
  9
$LIMMIN
 10
0.0
 20
0.0
  9
$LIMMAX
 10
420.0
 20
297.0
  9
$VIEWCTR
 10
210.0
 20
148.5
  9
$VIEWSIZE
 40
297.0
  9
$CLAYER
  8
0
  9
$LTSCALE
 40
23.1
  9
$CELTYPE
  6
BYLAYER
  9
$DIMSCALE
 40
1.0
  9
$DIMASZ
 40
3.5
  9
$DIMEXO
 40
2.625
  9
$DIMDLI
 40
15.96
  9
$DIMEXE
 40
7.56
  9
$DIMCEN
 40
3.78
  9
$DIMLFAC
 40
1.0
  9
$DIMBLK
  1
_FILLED
  9
$DIMTXT
 40
3.5
  9
$DIMTOL
 70
1
  9
$DIMLIM
 70
0
  9
$DIMTFAC
 40
1.0
  9
$DIMTP
 40
0.005
  9
$DIMTM
 40
0.005
  9
$PDMODE
 70
3
  9
$PDSIZE
 40
0.3125
  9
$HANDSEED
  5
6CF
  9
$TILEMODE
 70
1
  9
$MEASUREMENT
 70
1
  9
$INSUNITS
 70
4
  0
ENDSEC
  0
SECTION
  2
CLASSES
  0
CLASS
  1
ACDBDICTIONARYWDFLT
  2
AcDbDictionaryWithDefault
  3
AutoCAD 2000
 90
0
280
0
281
0
  0
CLASS
  1
ACDBPLACEHOLDER
  2
AcDbPlaceHolder
  3
AutoCAD 2000
 90
0
280
0
281
0
  0
CLASS
  1
LAYOUT
  2
AcDbLayout
  3
AutoCAD 2000
 90
0
280
0
281
0
  0
ENDSEC
  0
SECTION
  2
TABLES
  0
TABLE
  2
VPORT
  5
8
100
AcDbSymbolTable
 70
2
  0
VPORT
  5
1F4
100
AcDbSymbolTableRecord
100
AcDbViewportTableRecord
  2
*ACTIVE
 70
0
 10
0.0
 20
0.0
 11
1.0
 21
1.0
 12
210.0
 22
148.5
 13
0.0
 23
0.0
 14
1.0
 24
1.0
 15
0.0
 25
0.0
 16
0.0
 26
0.0
 36
1.0
 17
0.0
 27
0.0
 37
0.0
 40
297.0
 41
1.4141414141
 42
50.0
 43
0.0
 44
0.0
 50
0.0
 51
0.0
 71
0
 72
100
 73
1
 74
1
 75
0
 76
0
 77
0
 78
0
  0
ENDTAB
  0
TABLE
  2
LTYPE
  5
5
100
AcDbSymbolTable
 70
6
  0
LTYPE
  5
14
100
AcDbSymbolTableRecord
100
AcDbLinetypeTableRecord
  2
BYBLOCK
 70
0
  3

 72
65
 73
0
 40
0.0
  0
LTYPE
  5
15
100
AcDbSymbolTableRecord
100
AcDbLinetypeTableRecord
  2
BYLAYER
 70
0
  3

 72
65
 73
0
 40
0.0
  0
LTYPE
  5
16
100
AcDbSymbolTableRecord
100
AcDbLinetypeTableRecord
  2
CONTINUOUS
 70
64
  3
Solid line
 72
65
 73
0
 40
0.0
  0
LTYPE
  5
1F5
100
AcDbSymbolTableRecord
100
AcDbLinetypeTableRecord
  2
CENTER
 70
64
  3
____ _ ____ _ ____ _ ____ _ ____ _ ____ _ ____
 72
65
 73
4
 40
0.6
 49
0.375
 74
0
 49
-0.075
 74
0
 49
0.075
 74
0
 49
-0.075
 74
0
  0
LTYPE
  5
1F6
100
AcDbSymbolTableRecord
100
AcDbLinetypeTableRecord
  2
HIDDEN
 70
64
  3
- - - - - - - - - - - - - - - - - - - -
 72
65
 73
2
 40
0.2
 49
0.1
 74
0
 49
-0.1
 74
0
  0
LTYPE
  5
1F7
100
AcDbSymbolTableRecord
100
AcDbLinetypeTableRecord
  2
PHANTOM
 70
64
  3
_____ _ _ _____ _ _ _____ _ _ _____
 72
65
 73
6
 40
0.8
 49
0.45
 74
0
 49
-0.05
 74
0
 49
0.1
 74
0
 49
-0.05
 74
0
 49
0.1
 74
0
 49
-0.05
 74
0
  0
LTYPE
  5
1F8
100
AcDbSymbolTableRecord
100
AcDbLinetypeTableRecord
  2
DOT
 70
64
  3
. . . . . . . . . . . . . . . . . . . .
 72
65
 73
2
 40
0.2
 49
0.1
 74
0
 49
-0.1
 74
0
  0
LTYPE
  5
1F9
100
AcDbSymbolTableRecord
100
AcDbLinetypeTableRecord
  2
DASHED
 70
64
  3
- - - - - - - - - - - - - - - - - - - -
 72
65
 73
2
 40
0.2
 49
0.1
 74
0
 49
-0.1
 74
0
  0
ENDTAB
  0
TABLE
  2
LAYER
  5
2
100
AcDbSymbolTable
 70
36
  0
LAYER
  5
10
100
AcDbSymbolTableRecord
100
AcDbLayerTableRecord
  2
0
 70
0
 62
7
  6
CONTINUOUS
370
-3
390
F
  0
LAYER
  5
1FA
100
AcDbSymbolTableRecord
100
AcDbLayerTableRecord
  2
DEFAULT_1
 70
0
 62
7
  6
CENTER
370
-3
390
F
  0
LAYER
  5
1FB
100
AcDbSymbolTableRecord
100
AcDbLayerTableRecord
  2
DEFAULT_2
 70
0
 62
8
  6
HIDDEN
370
-3
390
F
  0
LAYER
  5
1FC
100
AcDbSymbolTableRecord
100
AcDbLayerTableRecord
  2
DEFAULT_3
 70
0
 62
7
  6
PHANTOM
370
-3
390
F
  0
LAYER
  5
1FD
100
AcDbSymbolTableRecord
100
AcDbLayerTableRecord
  2
AUSFORMSCHRAEGEN
 70
0
 62
7
  6
CONTINUOUS
370
-3
390
F
  0
LAYER
  5
1FE
100
AcDbSymbolTableRecord
100
AcDbLayerTableRecord
  2
BEZUGSACHSEN
 70
0
 62
7
  6
CONTINUOUS
370
-3
390
F
  0
LAYER
  5
1FF
100
AcDbSymbolTableRecord
100
AcDbLayerTableRecord
  2
BEZUGSEBENEN
 70
0
 62
7
  6
CONTINUOUS
370
-3
390
F
  0
LAYER
  5
200
100
AcDbSymbolTableRecord
100
AcDbLayerTableRecord
  2
FASEN
 70
0
 62
7
  6
CONTINUOUS
370
-3
390
F
  0
LAYER
  5
201
100
AcDbSymbolTableRecord
100
AcDbLayerTableRecord
  2
FLAECHEN
 70
0
 62
7
  6
CONTINUOUS
370
-3
390
F
  0
LAYER
  5
202
100
AcDbSymbolTableRecord
100
AcDbLayerTableRecord
  2
GEWINDE
 70
0
 62
7
  6
CONTINUOUS
370
-3
390
F
  0
LAYER
  5
203
100
AcDbSymbolTableRecord
100
AcDbLayerTableRecord
  2
HILFEN
 70
0
 62
7
  6
CONTINUOUS
370
-3
390
F
  0
LAYER
  5
204
100
AcDbSymbolTableRecord
100
AcDbLayerTableRecord
  2
KURVEN
 70
0
 62
7
  6
CONTINUOUS
370
-3
390
F
  0
LAYER
  5
205
100
AcDbSymbolTableRecord
100
AcDbLayerTableRecord
  2
PLATZIERUNG
 70
0
 62
7
  6
CONTINUOUS
370
-3
390
F
  0
LAYER
  5
206
100
AcDbSymbolTableRecord
100
AcDbLayerTableRecord
  2
RUNDUNGEN
 70
0
 62
7
  6
CONTINUOUS
370
-3
390
F
  0
LAYER
  5
207
100
AcDbSymbolTableRecord
100
AcDbLayerTableRecord
  2
TEIL_STARTBEZUEGE
 70
0
 62
7
  6
CONTINUOUS
370
-3
390
F
  0
LAYER
  5
208
100
AcDbSymbolTableRecord
100
AcDbLayerTableRecord
  2
ZEICHNUNGSBEMASSUNGEN
 70
0
 62
7
  6
CONTINUOUS
370
-3
390
F
  0
ENDTAB
  0
TABLE
  2
STYLE
  5
3
100
AcDbSymbolTable
 70
1
  0
STYLE
  5
11
100
AcDbSymbolTableRecord
100
AcDbTextStyleTableRecord
  2
STANDARD
 70
0
 40
0.0
 41
0.7
 50
0.0
 71
0
 42
0.2
  3
txt
  4

  0
STYLE
  5
209
100
AcDbSymbolTableRecord
100
AcDbTextStyleTableRecord
  2
TEXTSTYLE_1
 70
0
 40
0.0
 41
0.8
 50
0.0
 71
0
 42
0.2
  3
gdt
  4

  0
ENDTAB
  0
TABLE
  2
VIEW
  5
6
100
AcDbSymbolTable
 70
0
  0
ENDTAB
  0
TABLE
  2
UCS
  5
7
100
AcDbSymbolTable
 70
0
  0
ENDTAB
  0
TABLE
  2
APPID
  5
9
100
AcDbSymbolTable
 70
1
  0
APPID
  5
20A
100
AcDbSymbolTableRecord
100
AcDbRegAppTableRecord
  2
ACAD
 70
0
  0
ENDTAB
  0
TABLE
  2
BLOCK_RECORD
  5
1
100
AcDbSymbolTable
 70
0
  0
BLOCK_RECORD
  5
20B
100
AcDbSymbolTableRecord
100
AcDbBlockTableRecord
  2
*Model_Space
  0
BLOCK_RECORD
  5
20C
100
AcDbSymbolTableRecord
100
AcDbBlockTableRecord
  2
*Paper_Space
  0
ENDTAB
  0
TABLE
  2
DIMSTYLE
  5
A
100
AcDbSymbolTable
 70
1
100
AcDbDimStyleTable
 71
0
  0
DIMSTYLE
105
20D
100
AcDbSymbolTableRecord
100
AcDbDimStyleTableRecord
  2
STANDARD
 70
0
  3

  4

 40
1.0
 41
3.5
 42
0.0625
 43
0.38
 44
0.18
 45
0.0
 46
0.0
 47
0.005
 48
0.005
140
3.5
141
0.09
142
0.0
143
25.4
144
1.0
145
0.0
146
1.0
147
0.09
 71
1.0
 72
0.0
 73
0
 74
0
 75
0
 76
0
 77
1
 78
8
170
0
171
2
172
0
173
0
174
0
175
0
176
0
177
0
178
5
270
2
271
3
272
3
273
2
274
2
275
0
280
0
281
0
282
0
283
1
284
8
285
0
286
0
287
3
288
0
340
11
  0
ENDTAB
  0
ENDSEC
  0
SECTION
  2
BLOCKS
  0
BLOCK
  5
20
100
AcDbEntity
  8
0
100
AcDbBlockBegin
  2
*Model_Space
 70
0
 10
0.0
 20
0.0
 30
0.0
  3
*Model_Space
  1

  0
ENDBLK
  5
21
100
AcDbEntity
  8
0
100
AcDbBlockEnd
  0
BLOCK
  5
1C
100
AcDbEntity
  8
0
100
AcDbBlockBegin
  2
*Paper_Space
 70
0
 10
0.0
 20
0.0
 30
0.0
  3
*Paper_Space
  1

  0
ENDBLK
  5
1D
100
AcDbEntity
  8
0
100
AcDbBlockEnd
  0
ENDSEC
  0
SECTION
  2
ENTITIES
  0
MTEXT
  5
20E
100
AcDbEntity
  8
0
100
AcDbMText
 62
5
  6
CONTINUOUS
  7
STANDARD
 71
1
 72
1
 10
111.8015606959
 20
106.2823172766
 30
0.0
 11
1.0
 21
0.0
 31
0.0
 44
0.9
  1
RUD B-ABA 1,6t
 40
3.5
 41
37.5833333333
  0
MTEXT
  5
20F
100
AcDbEntity
  8
0
100
AcDbMText
 62
5
  6
CONTINUOUS
  7
STANDARD
 71
1
 72
1
 10
256.7239563035
 20
200.7539045485
 30
0.0
 11
1.0
 21
0.0
 31
0.0
 44
0.9
  1
RUD B-ABA 1,6t
 40
3.5
 41
37.5833333333
  0
MTEXT
  5
210
100
AcDbEntity
  8
0
100
AcDbMText
 62
5
  6
CONTINUOUS
  7
STANDARD
 71
1
 72
1
 10
111.7397627611
 20
199.9294098935
 30
0.0
 11
1.0
 21
0.0
 31
0.0
 44
0.9
  1
RUD B-ABA 1,6t
 40
3.5
 41
37.5833333333
  0
LINE
  5
211
100
AcDbEntity
  8
0
100
AcDbLine
 62
7
  6
CONTINUOUS
 10
0.0
 20
0.0
 11
0.0
 21
297.0
  0
LINE
  5
212
100
AcDbEntity
  8
0
100
AcDbLine
 62
7
  6
CONTINUOUS
 10
0.0
 20
0.0
 11
420.0
 21
0.0
  0
LINE
  5
213
100
AcDbEntity
  8
0
100
AcDbLine
 62
7
  6
CONTINUOUS
 10
0.0
 20
297.0
 11
420.0
 21
297.0
  0
LINE
  5
214
100
AcDbEntity
  8
0
100
AcDbLine
 62
7
  6
CONTINUOUS
 10
420.0
 20
0.0
 11
420.0
 21
297.0
  0
LINE
  5
215
100
AcDbEntity
  8
RUNDUNGEN
100
AcDbLine
 62
7
  6
CONTINUOUS
 10
79.7983860759
 20
194.6907979882
 11
79.7983860759
 21
207.4031993128
  0
LINE
  5
216
100
AcDbEntity
  8
FASEN
100
AcDbLine
 62
7
  6
CONTINUOUS
 10
98.2983860779
 20
181.6907979863
 11
97.2983860784
 21
182.6907979858
  0
LINE
  5
217
100
AcDbEntity
  8
RUNDUNGEN
100
AcDbLine
 62
7
  6
CONTINUOUS
 10
87.3165658829
 20
228.6950798375
 11
80.9197043091
 21
213.0937346493
  0
LINE
  5
218
100
AcDbEntity
  8
0
100
AcDbLine
 62
7
  6
CONTINUOUS
 10
90.8467742771
 20
216.1558824409
 11
90.8137233041
 21
216.7163245577
  0
LINE
  5
219
100
AcDbEntity
  8
BEZUGSACHSEN
100
AcDbLine
 62
7
  6
CONTINUOUS
 10
92.2892810467
 20
201.6907979882
 11
92.2892810467
 21
206.4407979882
  0
LINE
  5
21A
100
AcDbEntity
  8
0
100
AcDbLine
 62
7
  6
CONTINUOUS
 10
92.4834314997
 20
201.6907979882
 11
92.4834314997
 21
208.1907979882
  0
LINE
  5
21B
100
AcDbEntity
  8
0
100
AcDbLine
 62
7
  6
CONTINUOUS
 10
90.2120048412
 20
216.2977164974
 11
90.1783355741
 21
215.9030161762
  0
LINE
  5
21C
100
AcDbEntity
  8
0
100
AcDbLine
 62
7
  6
CONTINUOUS
 10
92.3073677999
 20
227.1169198894
 11
91.1026942861
 21
224.369418893
  0
LINE
  5
21D
100
AcDbEntity
  8
0
100
AcDbLine
 62
7
  6
CONTINUOUS
 10
90.7011365439
 20
223.4535854459
 11
90.3999681654
 21
222.7667101968
  0
LINE
  5
21E
100
AcDbEntity
  8
0
100
AcDbLine
 62
7
  6
CONTINUOUS
 10
89.1952946516
 20
220.0192092004
 11
88.8941261296
 21
219.3323336238
  0
LINE
  5
21F
100
AcDbEntity
  8
0
100
AcDbLine
 62
7
  6
CONTINUOUS
 10
87.7898421231
 20
216.8137911529
 11
86.5851686093
 21
214.0662901565
  0
LINE
  5
220
100
AcDbEntity
  8
FASEN
100
AcDbLine
 62
7
  6
CONTINUOUS
 10
161.2983860759
 20
181.6907979882
 11
153.2983860761
 21
181.6907979882
  0
LINE
  5
221
100
AcDbEntity
  8
FASEN
100
AcDbLine
 62
7
  6
CONTINUOUS
 10
106.2983860758
 20
181.6907979882
 11
98.298386076
 21
181.6907979882
  0
LINE
  5
222
100
AcDbEntity
  8
0
100
AcDbLine
 62
7
  6
CONTINUOUS
 10
90.0785645044
 20
216.6292004161
 11
90.2120048412
 21
216.2977164974
  0
LINE
  5
223
100
AcDbEntity
  8
0
100
AcDbLine
 62
7
  6
CONTINUOUS
 10
95.5270813857
 20
219.8362293926
 11
95.4940305255
 21
220.3966718504
  0
LINE
  5
224
100
AcDbEntity
  8
0
100
AcDbLine
 62
7
  6
CONTINUOUS
 10
95.5105848226
 20
208.1907979882
 11
95.5105848226
 21
208.3907979882
  0
LINE
  5
225
100
AcDbEntity
  8
0
100
AcDbLine
 62
7
  6
CONTINUOUS
 10
94.7753972433
 20
220.0293268322
 11
94.6915331507
 21
219.5201470845
  0
LINE
  5
226
100
AcDbEntity
  8
0
100
AcDbLine
 62
7
  6
CONTINUOUS
 10
97.1847439837
 20
225.5243281699
 11
97.1008801783
 21
225.0151490773
  0
LINE
  5
227
100
AcDbEntity
  8
0
100
AcDbLine
 62
7
  6
CONTINUOUS
 10
95.393022765
 20
219.212570869
 11
95.5270813857
 21
219.8362293926
  0
LINE
  5
228
100
AcDbEntity
  8
0
100
AcDbLine
 62
7
  6
CONTINUOUS
 10
87.4709115982
 20
214.4968519226
 11
88.4246114154
 21
216.6719567689
  0
LINE
  5
229
100
AcDbEntity
  8
0
100
AcDbLine
 62
7
  6
CONTINUOUS
 10
92.105352197
 20
224.7487179624
 11
93.0088573323
 21
226.8093437097
  0
LINE
  5
22A
100
AcDbEntity
  8
0
100
AcDbLine
 62
7
  6
CONTINUOUS
 10
90.1783355741
 20
215.9030161762
 11
89.2246357569
 21
213.7279113299
  0
LINE
  5
22B
100
AcDbEntity
  8
0
100
AcDbLine
 62
7
  6
CONTINUOUS
 10
89.9261252894
 20
213.4203351503
 11
90.779435671
 21
215.3664816348
  0
LINE
  5
22C
100
AcDbEntity
  8
0
100
AcDbLine
 62
7
  6
CONTINUOUS
 10
92.6752565621
 20
227.6380536704
 11
92.3073677999
 21
227.1169198894
  0
LINE
  5
22D
100
AcDbEntity
  8
0
100
AcDbLine
 62
7
  6
CONTINUOUS
 10
93.0088573323
 20
226.8093437097
 11
93.3265509819
 21
227.2159974092
  0
LINE
  5
22E
100
AcDbEntity
  8
FASEN
100
AcDbLine
 62
7
  6
CONTINUOUS
 10
162.2983860759
 20
182.6907979882
 11
152.2983860759
 21
182.6907979882
  0
LINE
  5
22F
100
AcDbEntity
  8
FASEN
100
AcDbLine
 62
7
  6
CONTINUOUS
 10
107.2983860759
 20
182.6907979882
 11
97.2983860759
 21
182.6907979882
  0
LINE
  5
230
100
AcDbEntity
  8
0
100
AcDbLine
 62
7
  6
CONTINUOUS
 10
90.8137233041
 20
216.7163245577
 11
90.496647805
 21
217.2648129686
  0
LINE
  5
231
100
AcDbEntity
  8
0
100
AcDbLine
 62
7
  6
CONTINUOUS
 10
94.6921515065
 20
220.4752898859
 11
94.7753972433
 21
220.0293268322
  0
LINE
  5
232
100
AcDbEntity
  8
0
100
AcDbLine
 62
7
  6
CONTINUOUS
 10
97.9364287005
 20
225.3312320405
 11
97.9033775531
 21
225.8916738432
  0
LINE
  5
233
100
AcDbEntity
  8
BEZUGSACHSEN
100
AcDbLine
 62
7
  6
CONTINUOUS
 10
97.2983860759
 20
194.6907979882
 11
97.2983860759
 21
182.6907979882
  0
LINE
  5
234
100
AcDbEntity
  8
FASEN
100
AcDbLine
 62
7
  6
CONTINUOUS
 10
97.2983860759
 20
194.6907979882
 11
97.2983860759
 21
182.6907979882
  0
LINE
  5
235
100
AcDbEntity
  8
0
100
AcDbLine
 62
7
  6
CONTINUOUS
 10
97.3909087878
 20
201.6907979882
 11
97.3909087878
 21
208.1907979882
  0
LINE
  5
236
100
AcDbEntity
  8
0
100
AcDbLine
 62
7
  6
CONTINUOUS
 10
97.4828712844
 20
208.1907979882
 11
97.4828712844
 21
208.3907979882
  0
LINE
  5
237
100
AcDbEntity
  8
0
100
AcDbLine
 62
7
  6
CONTINUOUS
 10
97.5243453186
 20
208.1907979882
 11
97.5243453186
 21
208.3907979882
  0
LINE
  5
238
100
AcDbEntity
  8
0
100
AcDbLine
 62
7
  6
CONTINUOUS
 10
97.6971537878
 20
208.1907979882
 11
97.6971537878
 21
208.3907979882
  0
LINE
  5
239
100
AcDbEntity
  8
0
100
AcDbLine
 62
7
  6
CONTINUOUS
 10
97.7455401743
 20
208.1907979882
 11
97.7455401743
 21
208.3907979882
  0
LINE
  5
23A
100
AcDbEntity
  8
0
100
AcDbLine
 62
7
  6
CONTINUOUS
 10
97.9253993934
 20
208.1907979882
 11
97.9253993934
 21
208.3907979882
  0
LINE
  5
23B
100
AcDbEntity
  8
0
100
AcDbLine
 62
7
  6
CONTINUOUS
 10
98.0861718691
 20
208.1907979882
 11
98.0861718691
 21
208.3907979882
  0
LINE
  5
23C
100
AcDbEntity
  8
0
100
AcDbLine
 62
7
  6
CONTINUOUS
 10
98.2331048929
 20
208.1907979882
 11
98.2331048929
 21
208.3907979882
  0
LINE
  5
23D
100
AcDbEntity
  8
0
100
AcDbLine
 62
7
  6
CONTINUOUS
 10
98.3218340699
 20
208.1907979882
 11
98.3218340699
 21
208.3907979882
  0
LINE
  5
23E
100
AcDbEntity
  8
0
100
AcDbLine
 62
7
  6
CONTINUOUS
 10
98.3967237981
 20
208.1907979882
 11
98.3967237981
 21
208.3907979882
  0
LINE
  5
23F
100
AcDbEntity
  8
0
100
AcDbLine
 62
7
  6
CONTINUOUS
 10
98.4134096763
 20
208.1907979882
 11
98.4134096763
 21
208.3907979882
  0
LINE
  5
240
100
AcDbEntity
  8
0
100
AcDbLine
 62
7
  6
CONTINUOUS
 10
98.9083142744
 20
208.1907979882
 11
98.9083142744
 21
208.3907979882
  0
LINE
  5
241
100
AcDbEntity
  8
0
100
AcDbLine
 62
7
  6
CONTINUOUS
 10
99.7303132293
 20
208.1907979882
 11
99.7303132293
 21
208.3907979882
  0
LINE
  5
242
100
AcDbEntity
  8
0
100
AcDbLine
 62
7
  6
CONTINUOUS
 10
99.8773295686
 20
208.1907979882
 11
99.8773295686
 21
208.3907979882
  0
LINE
  5
243
100
AcDbEntity
  8
0
100
AcDbLine
 62
7
  6
CONTINUOUS
 10
99.9658621145
 20
208.1907979882
 11
99.9658621145
 21
208.3907979882
  0
LINE
  5
244
100
AcDbEntity
  8
0
100
AcDbLine
 62
7
  6
CONTINUOUS
 10
100.0059275153
 20
208.1907979882
 11
100.0059275153
 21
208.3907979882
  0
LINE
  5
245
100
AcDbEntity
  8
0
100
AcDbLine
 62
7
  6
CONTINUOUS
 10
97.8023697926
 20
224.7075728618
 11
97.9364287005
 21
225.3312320405
  0
LINE
  5
246
100
AcDbEntity
  8
BEZUGSACHSEN
100
AcDbLine
 62
7
  6
CONTINUOUS
 10
99.964468719
 20
224.8385881029
 11
107.8854823204
 21
243.984820443
  0
LINE
  5
247
100
AcDbEntity
  8
0
100
AcDbLine
 62
7
  6
CONTINUOUS
 10
97.1008801783
 20
225.0151490773
 11
96.1973750429
 21
222.95452333
  0
LINE
  5
248
100
AcDbEntity
  8
0
100
AcDbLine
 62
7
  6
CONTINUOUS
 10
94.6915331507
 20
219.5201470845
 11
94.490754136
 21
219.0622300334
  0
LINE
  5
249
100
AcDbEntity
  8
0
100
AcDbLine
 62
7
  6
CONTINUOUS
 10
92.0801706021
 20
211.6569431289
 11
92.3813389805
 21
212.343818378
  0
LINE
  5
24A
100
AcDbEntity
  8
0
100
AcDbLine
 62
7
  6
CONTINUOUS
 10
93.6362071762
 20
215.2057984734
 11
93.9875703801
 21
216.007153149
  0
LINE
  5
24B
100
AcDbEntity
  8
0
100
AcDbLine
 62
7
  6
CONTINUOUS
 10
95.1922437503
 20
218.7546538179
 11
95.393022765
 21
219.212570869
  0
LINE
  5
24C
100
AcDbEntity
  8
0
100
AcDbLine
 62
7
  6
CONTINUOUS
 10
96.5976962788
 20
221.9600718654
 11
97.8023697926
 21
224.7075728618
  0
LINE
  5
24D
100
AcDbEntity
  8
0
100
AcDbLine
 62
7
  6
CONTINUOUS
 10
88.1577307418
 20
217.3349246064
 11
87.7898421231
 21
216.8137911529
  0
LINE
  5
24E
100
AcDbEntity
  8
0
100
AcDbLine
 62
7
  6
CONTINUOUS
 10
88.4246114154
 20
216.6719567689
 11
88.6921105267
 21
216.9641316968
  0
LINE
  5
24F
100
AcDbEntity
  8
0
100
AcDbLine
 62
7
  6
CONTINUOUS
 10
93.1098651338
 20
227.9934446732
 11
92.6752565621
 21
227.6380536704
  0
LINE
  5
250
100
AcDbEntity
  8
RUNDUNGEN
100
AcDbLine
 62
7
  6
CONTINUOUS
 10
109.5091664893
 20
245.609433067
 11
128.6499396843
 21
253.5410059308
  0
LINE
  5
251
100
AcDbEntity
  8
0
100
AcDbLine
 62
7
  6
CONTINUOUS
 10
94.441796104
 20
220.8580361737
 11
94.6921515065
 21
220.4752898859
  0
LINE
  5
252
100
AcDbEntity
  8
0
100
AcDbLine
 62
7
  6
CONTINUOUS
 10
95.4940305255
 20
220.3966718504
 11
95.227149811
 21
221.0596397058
  0
LINE
  5
253
100
AcDbEntity
  8
0
100
AcDbLine
 62
7
  6
CONTINUOUS
 10
97.1014982469
 20
225.9702912236
 11
97.1847439837
 21
225.5243281699
  0
LINE
  5
254
100
AcDbEntity
  8
0
100
AcDbLine
 62
7
  6
CONTINUOUS
 10
104.5608400242
 20
208.1907979882
 11
104.5608400242
 21
208.3907979882
  0
LINE
  5
255
100
AcDbEntity
  8
0
100
AcDbLine
 62
7
  6
CONTINUOUS
 10
104.7532751842
 20
208.1907979882
 11
104.7532751842
 21
208.3907979882
  0
LINE
  5
256
100
AcDbEntity
  8
0
100
AcDbLine
 62
7
  6
CONTINUOUS
 10
105.2022903128
 20
208.1907979882
 11
105.2022903128
 21
208.3907979882
  0
LINE
  5
257
100
AcDbEntity
  8
BEZUGSACHSEN
100
AcDbLine
 62
7
  6
CONTINUOUS
 10
100.3196422935
 20
212.6179250795
 11
101.4057665974
 21
215.2432441762
  0
LINE
  5
258
100
AcDbEntity
  8
0
100
AcDbLine
 62
7
  6
CONTINUOUS
 10
94.8243552651
 20
218.2335206964
 11
95.1922437503
 21
218.7546538179
  0
LINE
  5
259
100
AcDbEntity
  8
0
100
AcDbLine
 62
7
  6
CONTINUOUS
 10
94.490754136
 20
219.0622300334
 11
94.1730604864
 21
218.655576334
  0
LINE
  5
25A
100
AcDbEntity
  8
0
100
AcDbLine
 62
7
  6
CONTINUOUS
 10
93.3265509819
 20
227.2159974092
 11
93.7109650153
 21
227.4569096405
  0
LINE
  5
25B
100
AcDbEntity
  8
RUNDUNGEN
100
AcDbLine
 62
7
  6
CONTINUOUS
 10
79.7983860759
 20
194.6907979882
 11
179.7983860759
 21
194.6907979882
  0
LINE
  5
25C
100
AcDbEntity
  8
0
100
AcDbLine
 62
7
  6
CONTINUOUS
 10
89.7780144201
 20
216.8974676049
 11
90.0785645044
 21
216.6292004161
  0
LINE
  5
25D
100
AcDbEntity
  8
0
100
AcDbLine
 62
7
  6
CONTINUOUS
 10
90.496647805
 20
217.2648129686
 11
90.1960977206
 21
217.5330801574
  0
LINE
  5
25E
100
AcDbEntity
  8
0
100
AcDbLine
 62
7
  6
CONTINUOUS
 10
95.227149811
 20
221.0596397058
 11
94.8598794045
 21
221.4936487262
  0
LINE
  5
25F
100
AcDbEntity
  8
BEZUGSACHSEN
100
AcDbLine
 62
7
  6
CONTINUOUS
 10
101.4046737669
 20
219.0693051746
 11
99.9652267038
 21
222.5430335555
  0
LINE
  5
260
100
AcDbEntity
  8
0
100
AcDbLine
 62
7
  6
CONTINUOUS
 10
97.9033775531
 20
225.8916738432
 11
97.6364965514
 21
226.5546410436
  0
LINE
  5
261
100
AcDbEntity
  8
0
100
AcDbLine
 62
7
  6
CONTINUOUS
 10
105.4588710155
 20
208.1907979882
 11
105.4588710155
 21
208.3907979882
  0
LINE
  5
262
100
AcDbEntity
  8
0
100
AcDbLine
 62
7
  6
CONTINUOUS
 10
105.9078861441
 20
208.1907979882
 11
105.9078861441
 21
208.3907979882
  0
LINE
  5
263
100
AcDbEntity
  8
0
100
AcDbLine
 62
7
  6
CONTINUOUS
 10
106.1003213041
 20
208.1907979882
 11
106.1003213041
 21
208.3907979882
  0
LINE
  5
264
100
AcDbEntity
  8
0
100
AcDbLine
 62
7
  6
CONTINUOUS
 10
106.3599907625
 20
208.1907979882
 11
106.3599907625
 21
208.3907979882
  0
LINE
  5
265
100
AcDbEntity
  8
0
100
AcDbLine
 62
7
  6
CONTINUOUS
 10
106.4896169817
 20
208.1907979882
 11
106.4896169817
 21
208.3907979882
  0
LINE
  5
266
100
AcDbEntity
  8
0
100
AcDbLine
 62
7
  6
CONTINUOUS
 10
106.8590635655
 20
208.1907979882
 11
106.8590635655
 21
208.3907979882
  0
LINE
  5
267
100
AcDbEntity
  8
0
100
AcDbLine
 62
7
  6
CONTINUOUS
 10
106.8833215627
 20
208.1907979882
 11
106.8833215627
 21
208.3907979882
  0
LINE
  5
268
100
AcDbEntity
  8
0
100
AcDbLine
 62
7
  6
CONTINUOUS
 10
106.9897284573
 20
208.1907979882
 11
106.9897284573
 21
208.3907979882
  0
LINE
  5
269
100
AcDbEntity
  8
0
100
AcDbLine
 62
7
  6
CONTINUOUS
 10
107.1673954253
 20
208.1907979882
 11
107.1673954253
 21
208.3907979882
  0
LINE
  5
26A
100
AcDbEntity
  8
0
100
AcDbLine
 62
7
  6
CONTINUOUS
 10
107.2058633641
 20
201.6907979882
 11
107.2058633641
 21
208.1907979882
  0
LINE
  5
26B
100
AcDbEntity
  8
BEZUGSACHSEN
100
AcDbLine
 62
7
  6
CONTINUOUS
 10
107.2983860759
 20
194.6907979882
 11
107.2983860759
 21
182.6907979882
  0
LINE
  5
26C
100
AcDbEntity
  8
FASEN
100
AcDbLine
 62
7
  6
CONTINUOUS
 10
107.2983860759
 20
194.6907979882
 11
107.2983860759
 21
182.6907979882
  0
LINE
  5
26D
100
AcDbEntity
  8
0
100
AcDbLine
 62
7
  6
CONTINUOUS
 10
107.3232849981
 20
208.1907979882
 11
107.3232849981
 21
208.3907979882
  0
LINE
  5
26E
100
AcDbEntity
  8
0
100
AcDbLine
 62
7
  6
CONTINUOUS
 10
107.5093602064
 20
208.1907979882
 11
107.5093602064
 21
208.3907979882
  0
LINE
  5
26F
100
AcDbEntity
  8
0
100
AcDbLine
 62
7
  6
CONTINUOUS
 10
107.6434723659
 20
208.1907979882
 11
107.6434723659
 21
208.3907979882
  0
LINE
  5
270
100
AcDbEntity
  8
0
100
AcDbLine
 62
7
  6
CONTINUOUS
 10
107.8597334732
 20
208.1907979882
 11
107.8597334732
 21
208.3907979882
  0
LINE
  5
271
100
AcDbEntity
  8
0
100
AcDbLine
 62
7
  6
CONTINUOUS
 10
108.2294034796
 20
208.1907979882
 11
108.2294034796
 21
208.3907979882
  0
LINE
  5
272
100
AcDbEntity
  8
0
100
AcDbLine
 62
7
  6
CONTINUOUS
 10
108.4238868813
 20
208.1907979882
 11
108.4238868813
 21
208.3907979882
  0
LINE
  5
273
100
AcDbEntity
  8
0
100
AcDbLine
 62
7
  6
CONTINUOUS
 10
108.5362215078
 20
208.1907979882
 11
108.5362215078
 21
208.3907979882
  0
LINE
  5
274
100
AcDbEntity
  8
0
100
AcDbLine
 62
7
  6
CONTINUOUS
 10
108.6787418895
 20
208.1907979882
 11
108.6787418895
 21
208.3907979882
  0
LINE
  5
275
100
AcDbEntity
  8
0
100
AcDbLine
 62
7
  6
CONTINUOUS
 10
108.769299002
 20
208.1907979882
 11
108.769299002
 21
208.3907979882
  0
LINE
  5
276
100
AcDbEntity
  8
0
100
AcDbLine
 62
7
  6
CONTINUOUS
 10
108.8380787157
 20
208.1907979882
 11
108.8380787157
 21
208.3907979882
  0
LINE
  5
277
100
AcDbEntity
  8
0
100
AcDbLine
 62
7
  6
CONTINUOUS
 10
94.3897463755
 20
217.878129052
 11
94.8243552651
 21
218.2335206964
  0
LINE
  5
278
100
AcDbEntity
  8
0
100
AcDbLine
 62
7
  6
CONTINUOUS
 10
93.7783035496
 20
228.2463102828
 11
93.1098651338
 21
227.9934446732
  0
LINE
  5
279
100
AcDbEntity
  8
0
100
AcDbLine
 62
7
  6
CONTINUOUS
 10
86.5851686093
 20
214.0662901565
 11
92.0801706021
 21
211.6569431289
  0
LINE
  5
27A
100
AcDbEntity
  8
0
100
AcDbLine
 62
7
  6
CONTINUOUS
 10
92.3813389805
 20
212.343818378
 11
89.9261252894
 21
213.4203351503
  0
LINE
  5
27B
100
AcDbEntity
  8
0
100
AcDbLine
 62
7
  6
CONTINUOUS
 10
89.2246357569
 20
213.7279113299
 11
87.4709115982
 21
214.4968519226
  0
LINE
  5
27C
100
AcDbEntity
  8
0
100
AcDbLine
 62
7
  6
CONTINUOUS
 10
94.0243312412
 20
221.1775663866
 11
94.441796104
 21
220.8580361737
  0
LINE
  5
27D
100
AcDbEntity
  8
0
100
AcDbLine
 62
7
  6
CONTINUOUS
 10
96.8511431316
 20
226.3530381665
 11
97.1014982469
 21
225.9702912236
  0
LINE
  5
27E
100
AcDbEntity
  8
BEZUGSACHSEN
100
AcDbLine
 62
7
  6
CONTINUOUS
 10
112.0963450471
 20
201.6907979882
 11
112.0963450471
 21
206.4407979882
  0
LINE
  5
27F
100
AcDbEntity
  8
0
100
AcDbLine
 62
7
  6
CONTINUOUS
 10
112.1133406522
 20
206.4407979882
 11
112.1133406522
 21
208.1907979882
  0
LINE
  5
280
100
AcDbEntity
  8
0
100
AcDbLine
 62
7
  6
CONTINUOUS
 10
94.1730604864
 20
218.655576334
 11
93.7886463712
 21
218.4146641386
  0
LINE
  5
281
100
AcDbEntity
  8
0
100
AcDbLine
 62
7
  6
CONTINUOUS
 10
88.7092543791
 20
217.6390532401
 11
88.1577307418
 21
217.3349246064
  0
LINE
  5
282
100
AcDbEntity
  8
BEZUGSACHSEN
100
AcDbLine
 62
7
  6
CONTINUOUS
 10
92.2892810467
 20
201.6907979882
 11
112.0963450471
 21
201.6907979882
  0
LINE
  5
283
100
AcDbEntity
  8
BEZUGSACHSEN
100
AcDbLine
 62
7
  6
CONTINUOUS
 10
147.5004271048
 20
201.6907979882
 11
167.3074911052
 21
201.6907979882
  0
LINE
  5
284
100
AcDbEntity
  8
0
100
AcDbLine
 62
7
  6
CONTINUOUS
 10
89.4272693263
 20
217.0512558384
 11
89.7780144201
 21
216.8974676049
  0
LINE
  5
285
100
AcDbEntity
  8
0
100
AcDbLine
 62
7
  6
CONTINUOUS
 10
90.1960977206
 20
217.5330801574
 11
89.7284377048
 21
217.7381310875
  0
LINE
  5
286
100
AcDbEntity
  8
0
100
AcDbLine
 62
7
  6
CONTINUOUS
 10
88.8941261296
 20
219.3323336238
 11
92.5184892053
 21
217.7431898136
  0
LINE
  5
287
100
AcDbEntity
  8
0
100
AcDbLine
 62
7
  6
CONTINUOUS
 10
94.8598794045
 20
221.4936487262
 11
94.3254996196
 21
221.8644416357
  0
LINE
  5
288
100
AcDbEntity
  8
0
100
AcDbLine
 62
7
  6
CONTINUOUS
 10
97.6364965514
 20
226.5546410436
 11
97.2692264321
 21
226.9886507189
  0
LINE
  5
289
100
AcDbEntity
  8
0
100
AcDbLine
 62
7
  6
CONTINUOUS
 10
88.6921105267
 20
216.9641316968
 11
89.0263298782
 21
217.0905648292
  0
LINE
  5
28A
100
AcDbEntity
  8
BEZUGSACHSEN
100
AcDbLine
 62
7
  6
CONTINUOUS
 10
147.5004271048
 20
206.4407979882
 11
133.0675602836
 21
206.4407979882
  0
LINE
  5
28B
100
AcDbEntity
  8
BEZUGSACHSEN
100
AcDbLine
 62
7
  6
CONTINUOUS
 10
79.7983860759
 20
206.4407979882
 11
92.4834314997
 21
206.4407979882
  0
LINE
  5
28C
100
AcDbEntity
  8
BEZUGSACHSEN
100
AcDbLine
 62
7
  6
CONTINUOUS
 10
112.0963450471
 20
206.4407979882
 11
126.5292118683
 21
206.4407979882
  0
LINE
  5
28D
100
AcDbEntity
  8
BEZUGSACHSEN
100
AcDbLine
 62
7
  6
CONTINUOUS
 10
167.1133406522
 20
206.4407979882
 11
179.7983860759
 21
206.4407979882
  0
LINE
  5
28E
100
AcDbEntity
  8
0
100
AcDbLine
 62
7
  6
CONTINUOUS
 10
92.8196577274
 20
218.4300653902
 11
89.1952946516
 21
220.0192092004
  0
LINE
  5
28F
100
AcDbEntity
  8
0
100
AcDbLine
 62
7
  6
CONTINUOUS
 10
90.3999681654
 20
222.7667101968
 11
94.0243312412
 21
221.1775663866
  0
LINE
  5
290
100
AcDbEntity
  8
0
100
AcDbLine
 62
7
  6
CONTINUOUS
 10
94.3254996196
 20
221.8644416357
 11
90.7011365439
 21
223.4535854459
  0
LINE
  5
291
100
AcDbEntity
  8
0
100
AcDbLine
 62
7
  6
CONTINUOUS
 10
97.2692264321
 20
226.9886507189
 11
96.73484636
 21
227.3594429734
  0
LINE
  5
292
100
AcDbEntity
  8
0
100
AcDbLine
 62
7
  6
CONTINUOUS
 10
96.4336779816
 20
226.6725677244
 11
96.8511431316
 21
226.3530381665
  0
LINE
  5
293
100
AcDbEntity
  8
0
100
AcDbLine
 62
7
  6
CONTINUOUS
 10
93.7213079187
 20
217.6252634604
 11
94.3897463755
 21
217.878129052
  0
LINE
  5
294
100
AcDbEntity
  8
0
100
AcDbLine
 62
7
  6
CONTINUOUS
 10
92.4834314997
 20
208.1907979882
 11
112.1133406522
 21
208.1907979882
  0
LINE
  5
295
100
AcDbEntity
  8
0
100
AcDbLine
 62
7
  6
CONTINUOUS
 10
147.4834314997
 20
208.1907979882
 11
167.1133406522
 21
208.1907979882
  0
LINE
  5
296
100
AcDbEntity
  8
0
100
AcDbLine
 62
7
  6
CONTINUOUS
 10
95.5105848226
 20
208.3907979882
 11
100.0059275153
 21
208.3907979882
  0
LINE
  5
297
100
AcDbEntity
  8
0
100
AcDbLine
 62
7
  6
CONTINUOUS
 10
104.5608400242
 20
208.3907979882
 11
108.8380787157
 21
208.3907979882
  0
LINE
  5
298
100
AcDbEntity
  8
0
100
AcDbLine
 62
7
  6
CONTINUOUS
 10
150.5105848226
 20
208.3907979882
 11
155.0059275153
 21
208.3907979882
  0
LINE
  5
299
100
AcDbEntity
  8
0
100
AcDbLine
 62
7
  6
CONTINUOUS
 10
159.5608400242
 20
208.3907979882
 11
163.8380787157
 21
208.3907979882
  0
LINE
  5
29A
100
AcDbEntity
  8
0
100
AcDbLine
 62
7
  6
CONTINUOUS
 10
92.5184892053
 20
217.7431898136
 11
93.1532586412
 21
217.6013557571
  0
LINE
  5
29B
100
AcDbEntity
  8
0
100
AcDbLine
 62
7
  6
CONTINUOUS
 10
91.1026942861
 20
224.369418893
 11
96.5976962788
 21
221.9600718654
  0
LINE
  5
29C
100
AcDbEntity
  8
0
100
AcDbLine
 62
7
  6
CONTINUOUS
 10
96.1973750429
 20
222.95452333
 11
92.105352197
 21
224.7487179624
  0
LINE
  5
29D
100
AcDbEntity
  8
FASEN
100
AcDbLine
 62
7
  6
CONTINUOUS
 10
153.2983860773
 20
181.6907979869
 11
152.2983860776
 21
182.6907979866
  0
LINE
  5
29E
100
AcDbEntity
  8
0
100
AcDbLine
 62
7
  6
CONTINUOUS
 10
93.9875703801
 20
216.007153149
 11
90.8467742771
 21
216.1558824409
  0
LINE
  5
29F
100
AcDbEntity
  8
0
100
AcDbLine
 62
7
  6
CONTINUOUS
 10
90.779435671
 20
215.3664816348
 11
93.6362071762
 21
215.2057984734
  0
LINE
  5
2A0
100
AcDbEntity
  8
0
100
AcDbLine
 62
7
  6
CONTINUOUS
 10
89.0263298782
 20
217.0905648292
 11
89.4272693263
 21
217.0512558384
  0
LINE
  5
2A1
100
AcDbEntity
  8
0
100
AcDbLine
 62
7
  6
CONTINUOUS
 10
89.7284377048
 20
217.7381310875
 11
89.3274982567
 21
217.7774400783
  0
LINE
  5
2A2
100
AcDbEntity
  8
0
100
AcDbLine
 62
7
  6
CONTINUOUS
 10
93.337511954
 20
218.3394933753
 11
92.8196577274
 21
218.4300653902
  0
LINE
  5
2A3
100
AcDbEntity
  8
0
100
AcDbLine
 62
7
  6
CONTINUOUS
 10
94.6799539866
 20
227.4415082452
 11
96.4336779816
 21
226.6725677244
  0
LINE
  5
2A4
100
AcDbEntity
  8
0
100
AcDbLine
 62
7
  6
CONTINUOUS
 10
96.73484636
 20
227.3594429734
 11
94.9811223651
 21
228.1283834943
  0
LINE
  5
2A5
100
AcDbEntity
  8
0
100
AcDbLine
 62
7
  6
CONTINUOUS
 10
167.1888675398
 20
225.8948927132
 11
166.0534088507
 21
225.6004588895
  0
LINE
  5
2A6
100
AcDbEntity
  8
0
100
AcDbLine
 62
7
  6
CONTINUOUS
 10
166.3643391988
 20
224.8498066261
 11
167.3464732178
 21
225.0807312921
  0
LINE
  5
2A7
100
AcDbEntity
  8
0
100
AcDbLine
 62
7
  6
CONTINUOUS
 10
165.9879558338
 20
220.1207963177
 11
165.4657956472
 21
220.0803995547
  0
LINE
  5
2A8
100
AcDbEntity
  8
0
100
AcDbLine
 62
7
  6
CONTINUOUS
 10
93.1532586412
 20
217.6013557571
 11
93.7213079187
 21
217.6252634604
  0
LINE
  5
2A9
100
AcDbEntity
  8
0
100
AcDbLine
 62
7
  6
CONTINUOUS
 10
165.2545658791
 20
219.2893500543
 11
166.1455613339
 21
219.3066353261
  0
LINE
  5
2AA
100
AcDbEntity
  8
0
100
AcDbLine
 62
7
  6
CONTINUOUS
 10
165.6213737389
 20
232.2811646561
 11
164.3947759486
 21
231.7730912157
  0
LINE
  5
2AB
100
AcDbEntity
  8
0
100
AcDbLine
 62
7
  6
CONTINUOUS
 10
165.8411654153
 20
231.3168729541
 11
159.8615024225
 21
228.840015444
  0
LINE
  5
2AC
100
AcDbEntity
  8
0
100
AcDbLine
 62
7
  6
CONTINUOUS
 10
160.2346187691
 20
227.9392328998
 11
167.4408791226
 21
230.9241636723
  0
LINE
  5
2AD
100
AcDbEntity
  8
0
100
AcDbLine
 62
7
  6
CONTINUOUS
 10
164.8932782815
 20
224.0645846783
 11
165.415438505
 21
224.1049819598
  0
LINE
  5
2AE
100
AcDbEntity
  8
0
100
AcDbLine
 62
7
  6
CONTINUOUS
 10
167.3464732178
 20
225.0807312921
 11
167.8686336561
 21
225.1211286625
  0
LINE
  5
2AF
100
AcDbEntity
  8
0
100
AcDbLine
 62
7
  6
CONTINUOUS
 10
94.16209976
 20
227.5320802602
 11
94.6799539866
 21
227.4415082452
  0
LINE
  5
2B0
100
AcDbEntity
  8
0
100
AcDbLine
 62
7
  6
CONTINUOUS
 10
94.9811223651
 20
228.1283834943
 11
94.3463528889
 21
228.2702183495
  0
LINE
  5
2B1
100
AcDbEntity
  8
0
100
AcDbLine
 62
7
  6
CONTINUOUS
 10
166.0534088507
 20
225.6004588895
 11
164.98013616
 21
225.1558947849
  0
LINE
  5
2B2
100
AcDbEntity
  8
0
100
AcDbLine
 62
7
  6
CONTINUOUS
 10
89.3274982567
 20
217.7774400783
 11
88.7092543791
 21
217.6390532401
  0
LINE
  5
2B3
100
AcDbEntity
  8
0
100
AcDbLine
 62
7
  6
CONTINUOUS
 10
93.7886463712
 20
218.4146641386
 11
93.337511954
 21
218.3394933753
  0
LINE
  5
2B4
100
AcDbEntity
  8
0
100
AcDbLine
 62
7
  6
CONTINUOUS
 10
168.0798634947
 20
225.9121776889
 11
167.1888675398
 21
225.8948927132
  0
LINE
  5
2B5
100
AcDbEntity
  8
0
100
AcDbLine
 62
7
  6
CONTINUOUS
 10
165.4657956472
 20
220.0803995547
 11
164.8814495326
 21
220.1901325985
  0
LINE
  5
2B6
100
AcDbEntity
  8
0
100
AcDbLine
 62
7
  6
CONTINUOUS
 10
164.4547089718
 20
219.485704673
 11
165.2545658791
 21
219.2893500543
  0
LINE
  5
2B7
100
AcDbEntity
  8
FASEN
100
AcDbLine
 62
7
  6
CONTINUOUS
 10
106.2983860746
 20
181.6907979869
 11
107.2983860743
 21
182.6907979866
  0
LINE
  5
2B8
100
AcDbEntity
  8
0
100
AcDbLine
 62
7
  6
CONTINUOUS
 10
164.98013616
 20
225.1558947849
 11
163.969049253
 21
224.5612003104
  0
LINE
  5
2B9
100
AcDbEntity
  8
0
100
AcDbLine
 62
7
  6
CONTINUOUS
 10
166.0576898586
 20
224.7227883105
 11
166.3643391988
 21
224.8498066261
  0
LINE
  5
2BA
100
AcDbEntity
  8
0
100
AcDbLine
 62
7
  6
CONTINUOUS
 10
164.4333042712
 20
223.8740572049
 11
164.8932782815
 21
224.0645846783
  0
LINE
  5
2BB
100
AcDbEntity
  8
0
100
AcDbLine
 62
7
  6
CONTINUOUS
 10
94.3463528889
 20
228.2702183495
 11
93.7783035496
 21
228.2463102828
  0
LINE
  5
2BC
100
AcDbEntity
  8
0
100
AcDbLine
 62
7
  6
CONTINUOUS
 10
160.1230893327
 20
225.6064825393
 11
162.182777265
 21
225.4043008199
  0
LINE
  5
2BD
100
AcDbEntity
  8
0
100
AcDbLine
 62
7
  6
CONTINUOUS
 10
161.8718470949
 20
226.1549526537
 11
159.8121590735
 21
226.3571345879
  0
LINE
  5
2BE
100
AcDbEntity
  8
0
100
AcDbLine
 62
7
  6
CONTINUOUS
 10
167.8686336561
 20
225.1211286625
 11
168.4529798412
 21
225.0113951447
  0
LINE
  5
2BF
100
AcDbEntity
  8
0
100
AcDbLine
 62
7
  6
CONTINUOUS
 10
166.4479298441
 20
220.3113237911
 11
165.9879558338
 21
220.1207963177
  0
LINE
  5
2C0
100
AcDbEntity
  8
0
100
AcDbLine
 62
7
  6
CONTINUOUS
 10
166.1455613339
 20
219.3066353261
 11
166.9121848992
 21
219.6241812041
  0
LINE
  5
2C1
100
AcDbEntity
  8
0
100
AcDbLine
 62
7
  6
CONTINUOUS
 10
169.556218624
 20
219.3122663074
 11
168.9429199436
 21
219.0582296762
  0
LINE
  5
2C2
100
AcDbEntity
  8
0
100
AcDbLine
 62
7
  6
CONTINUOUS
 10
171.2803051136
 20
218.6192957827
 11
170.0537073233
 21
218.1112223424
  0
LINE
  5
2C3
100
AcDbEntity
  8
0
100
AcDbLine
 62
7
  6
CONTINUOUS
 10
169.4404086429
 20
217.8571857112
 11
166.3739149188
 21
216.5870024217
  0
LINE
  5
2C4
100
AcDbEntity
  8
0
100
AcDbLine
 62
7
  6
CONTINUOUS
 10
93.7109650153
 20
227.4569096405
 11
94.16209976
 21
227.5320802602
  0
LINE
  5
2C5
100
AcDbEntity
  8
0
100
AcDbLine
 62
7
  6
CONTINUOUS
 10
168.8797203483
 20
225.715823048
 11
168.0798634947
 21
225.9121776889
  0
LINE
  5
2C6
100
AcDbEntity
  8
0
100
AcDbLine
 62
7
  6
CONTINUOUS
 10
147.4834314997
 20
206.4407979882
 11
147.4834314997
 21
208.1907979882
  0
LINE
  5
2C7
100
AcDbEntity
  8
BEZUGSACHSEN
100
AcDbLine
 62
7
  6
CONTINUOUS
 10
147.5004271048
 20
201.6907979882
 11
147.5004271048
 21
206.4407979882
  0
LINE
  5
2C8
100
AcDbEntity
  8
0
100
AcDbLine
 62
7
  6
CONTINUOUS
 10
150.5105848226
 20
208.1907979882
 11
150.5105848226
 21
208.3907979882
  0
LINE
  5
2C9
100
AcDbEntity
  8
0
100
AcDbLine
 62
7
  6
CONTINUOUS
 10
163.969049253
 20
224.5612003104
 11
163.32679797
 21
223.9433934857
  0
LINE
  5
2CA
100
AcDbEntity
  8
0
100
AcDbLine
 62
7
  6
CONTINUOUS
 10
164.0355162594
 20
223.5333994506
 11
164.4333042712
 21
223.8740572049
  0
LINE
  5
2CB
100
AcDbEntity
  8
0
100
AcDbLine
 62
7
  6
CONTINUOUS
 10
166.9914945366
 20
215.963368948
 11
169.7513388131
 21
217.1065338774
  0
LINE
  5
2CC
100
AcDbEntity
  8
0
100
AcDbLine
 62
7
  6
CONTINUOUS
 10
170.3646374935
 20
217.3605705086
 11
171.5912352838
 21
217.8686439489
  0
LINE
  5
2CD
100
AcDbEntity
  8
0
100
AcDbLine
 62
7
  6
CONTINUOUS
 10
166.0179221407
 20
213.9771034647
 11
166.6312208748
 21
214.2311401182
  0
LINE
  5
2CE
100
AcDbEntity
  8
0
100
AcDbLine
 62
7
  6
CONTINUOUS
 10
170.4353856856
 20
215.4550986403
 11
171.048684366
 21
215.7091352715
  0
LINE
  5
2CF
100
AcDbEntity
  8
0
100
AcDbLine
 62
7
  6
CONTINUOUS
 10
165.415438505
 20
224.1049819598
 11
165.84646002
 21
223.9317392842
  0
LINE
  5
2D0
100
AcDbEntity
  8
0
100
AcDbLine
 62
7
  6
CONTINUOUS
 10
164.8814495326
 20
220.1901325985
 11
164.3882420191
 21
220.513505555
  0
LINE
  5
2D1
100
AcDbEntity
  8
0
100
AcDbLine
 62
7
  6
CONTINUOUS
 10
163.6838043952
 20
220.0458298758
 11
164.4547089718
 21
219.485704673
  0
LINE
  5
2D2
100
AcDbEntity
  8
FASEN
100
AcDbLine
 62
7
  6
CONTINUOUS
 10
152.2983860759
 20
194.6907979882
 11
152.2983860759
 21
182.6907979882
  0
LINE
  5
2D3
100
AcDbEntity
  8
BEZUGSACHSEN
100
AcDbLine
 62
7
  6
CONTINUOUS
 10
152.2983860759
 20
182.6907979882
 11
152.2983860759
 21
194.6907979882
  0
LINE
  5
2D4
100
AcDbEntity
  8
0
100
AcDbLine
 62
7
  6
CONTINUOUS
 10
152.3909087878
 20
201.6907979882
 11
152.3909087878
 21
208.1907979882
  0
LINE
  5
2D5
100
AcDbEntity
  8
0
100
AcDbLine
 62
7
  6
CONTINUOUS
 10
152.4828712844
 20
208.1907979882
 11
152.4828712844
 21
208.3907979882
  0
LINE
  5
2D6
100
AcDbEntity
  8
0
100
AcDbLine
 62
7
  6
CONTINUOUS
 10
152.5243453186
 20
208.1907979882
 11
152.5243453186
 21
208.3907979882
  0
LINE
  5
2D7
100
AcDbEntity
  8
0
100
AcDbLine
 62
7
  6
CONTINUOUS
 10
152.6971537878
 20
208.1907979882
 11
152.6971537878
 21
208.3907979882
  0
LINE
  5
2D8
100
AcDbEntity
  8
0
100
AcDbLine
 62
7
  6
CONTINUOUS
 10
152.7455401743
 20
208.1907979882
 11
152.7455401743
 21
208.3907979882
  0
LINE
  5
2D9
100
AcDbEntity
  8
0
100
AcDbLine
 62
7
  6
CONTINUOUS
 10
152.9253993934
 20
208.1907979882
 11
152.9253993934
 21
208.3907979882
  0
LINE
  5
2DA
100
AcDbEntity
  8
0
100
AcDbLine
 62
7
  6
CONTINUOUS
 10
153.0861718691
 20
208.1907979882
 11
153.0861718691
 21
208.3907979882
  0
LINE
  5
2DB
100
AcDbEntity
  8
0
100
AcDbLine
 62
7
  6
CONTINUOUS
 10
153.2331048929
 20
208.1907979882
 11
153.2331048929
 21
208.3907979882
  0
LINE
  5
2DC
100
AcDbEntity
  8
0
100
AcDbLine
 62
7
  6
CONTINUOUS
 10
153.3218340699
 20
208.1907979882
 11
153.3218340699
 21
208.3907979882
  0
LINE
  5
2DD
100
AcDbEntity
  8
0
100
AcDbLine
 62
7
  6
CONTINUOUS
 10
153.3967237981
 20
208.1907979882
 11
153.3967237981
 21
208.3907979882
  0
LINE
  5
2DE
100
AcDbEntity
  8
0
100
AcDbLine
 62
7
  6
CONTINUOUS
 10
153.4134096763
 20
208.1907979882
 11
153.4134096763
 21
208.3907979882
  0
LINE
  5
2DF
100
AcDbEntity
  8
0
100
AcDbLine
 62
7
  6
CONTINUOUS
 10
153.9083142744
 20
208.1907979882
 11
153.9083142744
 21
208.3907979882
  0
LINE
  5
2E0
100
AcDbEntity
  8
0
100
AcDbLine
 62
7
  6
CONTINUOUS
 10
154.7303132293
 20
208.1907979882
 11
154.7303132293
 21
208.3907979882
  0
LINE
  5
2E1
100
AcDbEntity
  8
0
100
AcDbLine
 62
7
  6
CONTINUOUS
 10
154.8773295686
 20
208.1907979882
 11
154.8773295686
 21
208.3907979882
  0
LINE
  5
2E2
100
AcDbEntity
  8
0
100
AcDbLine
 62
7
  6
CONTINUOUS
 10
154.9658621145
 20
208.1907979882
 11
154.9658621145
 21
208.3907979882
  0
LINE
  5
2E3
100
AcDbEntity
  8
0
100
AcDbLine
 62
7
  6
CONTINUOUS
 10
155.0059275153
 20
208.1907979882
 11
155.0059275153
 21
208.3907979882
  0
LINE
  5
2E4
100
AcDbEntity
  8
0
100
AcDbLine
 62
7
  6
CONTINUOUS
 10
166.9121848992
 20
219.6241812041
 11
167.5544362527
 21
220.2419875548
  0
LINE
  5
2E5
100
AcDbEntity
  8
0
100
AcDbLine
 62
7
  6
CONTINUOUS
 10
166.8457178928
 20
220.6519820639
 11
166.4479298441
 21
220.3113237911
  0
LINE
  5
2E6
100
AcDbEntity
  8
0
100
AcDbLine
 62
7
  6
CONTINUOUS
 10
169.5476573935
 20
221.0676067841
 11
169.9454452274
 21
221.4082649679
  0
LINE
  5
2E7
100
AcDbEntity
  8
0
100
AcDbLine
 62
7
  6
CONTINUOUS
 10
164.3947759486
 20
231.7730912157
 11
165.8411654153
 21
231.3168729541
  0
LINE
  5
2E8
100
AcDbEntity
  8
0
100
AcDbLine
 62
7
  6
CONTINUOUS
 10
167.0677627761
 20
231.8249462165
 11
165.6213737389
 21
232.2811646561
  0
LINE
  5
2E9
100
AcDbEntity
  8
0
100
AcDbLine
 62
7
  6
CONTINUOUS
 10
165.84646002
 20
223.9317392842
 11
166.3396675335
 21
223.6083663277
  0
LINE
  5
2EA
100
AcDbEntity
  8
0
100
AcDbLine
 62
7
  6
CONTINUOUS
 10
167.0441047076
 20
224.076042827
 11
166.0576898586
 21
224.7227883105
  0
LINE
  5
2EB
100
AcDbEntity
  8
RUNDUNGEN
100
AcDbLine
 62
7
  6
CONTINUOUS
 10
159.2771298584
 20
212.6179250795
 11
158.1910055545
 21
215.2432441762
  0
LINE
  5
2EC
100
AcDbEntity
  8
0
100
AcDbLine
 62
7
  6
CONTINUOUS
 10
159.5608400242
 20
208.1907979882
 11
159.5608400242
 21
208.3907979882
  0
LINE
  5
2ED
100
AcDbEntity
  8
RUNDUNGEN
100
AcDbLine
 62
7
  6
CONTINUOUS
 10
158.1920983849
 20
219.0693051746
 11
159.6315454481
 21
222.5430335555
  0
LINE
  5
2EE
100
AcDbEntity
  8
0
100
AcDbLine
 62
7
  6
CONTINUOUS
 10
163.32679797
 20
223.9433934857
 11
162.9000574092
 21
223.2389655602
  0
LINE
  5
2EF
100
AcDbEntity
  8
0
100
AcDbLine
 62
7
  6
CONTINUOUS
 10
163.6999143166
 20
223.0426109415
 11
164.0355162594
 21
223.5333994506
  0
LINE
  5
2F0
100
AcDbEntity
  8
0
100
AcDbLine
 62
7
  6
CONTINUOUS
 10
166.3739149188
 20
216.5870024217
 11
165.8849881816
 21
216.0327052066
  0
LINE
  5
2F1
100
AcDbEntity
  8
0
100
AcDbLine
 62
7
  6
CONTINUOUS
 10
166.5937062394
 20
215.6227115788
 11
166.9914945366
 21
215.963368948
  0
LINE
  5
2F2
100
AcDbEntity
  8
0
100
AcDbLine
 62
7
  6
CONTINUOUS
 10
168.4529798412
 20
225.0113951447
 11
168.9461873547
 21
224.6880221882
  0
LINE
  5
2F3
100
AcDbEntity
  8
0
100
AcDbLine
 62
7
  6
CONTINUOUS
 10
169.6506245288
 20
225.1556986876
 11
168.8797203483
 21
225.715823048
  0
LINE
  5
2F4
100
AcDbEntity
  8
0
100
AcDbLine
 62
7
  6
CONTINUOUS
 10
164.3882420191
 20
220.513505555
 11
164.0483591757
 21
220.9003876693
  0
LINE
  5
2F5
100
AcDbEntity
  8
0
100
AcDbLine
 62
7
  6
CONTINUOUS
 10
163.2195495415
 20
220.7329725462
 11
163.6838043952
 21
220.0458298758
  0
LINE
  5
2F6
100
AcDbEntity
  8
RUNDUNGEN
100
AcDbLine
 62
7
  6
CONTINUOUS
 10
159.6323034329
 20
224.8385881029
 11
151.7112898315
 21
243.984820443
  0
LINE
  5
2F7
100
AcDbEntity
  8
0
100
AcDbLine
 62
7
  6
CONTINUOUS
 10
163.6130566528
 20
221.9513009239
 11
163.5798231496
 21
222.4652013538
  0
LINE
  5
2F8
100
AcDbEntity
  8
0
100
AcDbLine
 62
7
  6
CONTINUOUS
 10
159.7532751842
 20
208.1907979882
 11
159.7532751842
 21
208.3907979882
  0
LINE
  5
2F9
100
AcDbEntity
  8
0
100
AcDbLine
 62
7
  6
CONTINUOUS
 10
160.2022903128
 20
208.1907979882
 11
160.2022903128
 21
208.3907979882
  0
LINE
  5
2FA
100
AcDbEntity
  8
0
100
AcDbLine
 62
7
  6
CONTINUOUS
 10
160.4588710155
 20
208.1907979882
 11
160.4588710155
 21
208.3907979882
  0
LINE
  5
2FB
100
AcDbEntity
  8
0
100
AcDbLine
 62
7
  6
CONTINUOUS
 10
160.9078861441
 20
208.1907979882
 11
160.9078861441
 21
208.3907979882
  0
LINE
  5
2FC
100
AcDbEntity
  8
0
100
AcDbLine
 62
7
  6
CONTINUOUS
 10
161.1003213041
 20
208.1907979882
 11
161.1003213041
 21
208.3907979882
  0
LINE
  5
2FD
100
AcDbEntity
  8
0
100
AcDbLine
 62
7
  6
CONTINUOUS
 10
161.3599907625
 20
208.1907979882
 11
161.3599907625
 21
208.3907979882
  0
LINE
  5
2FE
100
AcDbEntity
  8
0
100
AcDbLine
 62
7
  6
CONTINUOUS
 10
161.4896169817
 20
208.1907979882
 11
161.4896169817
 21
208.3907979882
  0
LINE
  5
2FF
100
AcDbEntity
  8
0
100
AcDbLine
 62
7
  6
CONTINUOUS
 10
161.8590635655
 20
208.1907979882
 11
161.8590635655
 21
208.3907979882
  0
LINE
  5
300
100
AcDbEntity
  8
0
100
AcDbLine
 62
7
  6
CONTINUOUS
 10
161.8833215627
 20
208.1907979882
 11
161.8833215627
 21
208.3907979882
  0
LINE
  5
301
100
AcDbEntity
  8
0
100
AcDbLine
 62
7
  6
CONTINUOUS
 10
161.9897284573
 20
208.1907979882
 11
161.9897284573
 21
208.3907979882
  0
LINE
  5
302
100
AcDbEntity
  8
0
100
AcDbLine
 62
7
  6
CONTINUOUS
 10
162.1673954253
 20
208.1907979882
 11
162.1673954253
 21
208.3907979882
  0
LINE
  5
303
100
AcDbEntity
  8
0
100
AcDbLine
 62
7
  6
CONTINUOUS
 10
162.2058633641
 20
201.6907979882
 11
162.2058633641
 21
208.1907979882
  0
LINE
  5
304
100
AcDbEntity
  8
FASEN
100
AcDbLine
 62
7
  6
CONTINUOUS
 10
162.2983860759
 20
194.6907979882
 11
162.2983860759
 21
182.6907979882
  0
LINE
  5
305
100
AcDbEntity
  8
BEZUGSACHSEN
100
AcDbLine
 62
7
  6
CONTINUOUS
 10
162.2983860759
 20
182.6907979882
 11
162.2983860759
 21
194.6907979882
  0
LINE
  5
306
100
AcDbEntity
  8
0
100
AcDbLine
 62
7
  6
CONTINUOUS
 10
162.3232849981
 20
208.1907979882
 11
162.3232849981
 21
208.3907979882
  0
LINE
  5
307
100
AcDbEntity
  8
0
100
AcDbLine
 62
7
  6
CONTINUOUS
 10
162.5093602064
 20
208.1907979882
 11
162.5093602064
 21
208.3907979882
  0
LINE
  5
308
100
AcDbEntity
  8
0
100
AcDbLine
 62
7
  6
CONTINUOUS
 10
162.6434723659
 20
208.1907979882
 11
162.6434723659
 21
208.3907979882
  0
LINE
  5
309
100
AcDbEntity
  8
0
100
AcDbLine
 62
7
  6
CONTINUOUS
 10
162.8597334732
 20
208.1907979882
 11
162.8597334732
 21
208.3907979882
  0
LINE
  5
30A
100
AcDbEntity
  8
0
100
AcDbLine
 62
7
  6
CONTINUOUS
 10
163.2294034796
 20
208.1907979882
 11
163.2294034796
 21
208.3907979882
  0
LINE
  5
30B
100
AcDbEntity
  8
0
100
AcDbLine
 62
7
  6
CONTINUOUS
 10
163.4238868813
 20
208.1907979882
 11
163.4238868813
 21
208.3907979882
  0
LINE
  5
30C
100
AcDbEntity
  8
0
100
AcDbLine
 62
7
  6
CONTINUOUS
 10
163.5362215078
 20
208.1907979882
 11
163.5362215078
 21
208.3907979882
  0
LINE
  5
30D
100
AcDbEntity
  8
0
100
AcDbLine
 62
7
  6
CONTINUOUS
 10
163.6787418895
 20
208.1907979882
 11
163.6787418895
 21
208.3907979882
  0
LINE
  5
30E
100
AcDbEntity
  8
0
100
AcDbLine
 62
7
  6
CONTINUOUS
 10
162.9000574092
 20
223.2389655602
 11
162.7510135288
 21
222.2977862363
  0
LINE
  5
30F
100
AcDbEntity
  8
0
100
AcDbLine
 62
7
  6
CONTINUOUS
 10
163.5798231496
 20
222.4652013538
 11
163.6999143166
 21
223.0426109415
  0
LINE
  5
310
100
AcDbEntity
  8
0
100
AcDbLine
 62
7
  6
CONTINUOUS
 10
167.0279952361
 20
221.0792609412
 11
166.8457178928
 21
220.6519820639
  0
LINE
  5
311
100
AcDbEntity
  8
0
100
AcDbLine
 62
7
  6
CONTINUOUS
 10
169.9454452274
 20
221.4082649679
 11
170.3721857345
 21
222.1126928712
  0
LINE
  5
312
100
AcDbEntity
  8
0
100
AcDbLine
 62
7
  6
CONTINUOUS
 10
169.5723288809
 20
222.3090475121
 11
169.2367268675
 21
221.818259477
  0
LINE
  5
313
100
AcDbEntity
  8
RUNDUNGEN
100
AcDbLine
 62
7
  6
CONTINUOUS
 10
150.0876056626
 20
245.609433067
 11
130.9468324676
 21
253.5410059308
  0
LINE
  5
314
100
AcDbEntity
  8
0
100
AcDbLine
 62
7
  6
CONTINUOUS
 10
166.3396675335
 20
223.6083663277
 11
166.6795503769
 21
223.2214842134
  0
LINE
  5
315
100
AcDbEntity
  8
0
100
AcDbLine
 62
7
  6
CONTINUOUS
 10
168.9461873547
 20
224.6880221882
 11
169.2860701981
 21
224.3011400739
  0
LINE
  5
316
100
AcDbEntity
  8
0
100
AcDbLine
 62
7
  6
CONTINUOUS
 10
167.5083599037
 20
223.388899292
 11
167.0441047076
 21
224.076042827
  0
LINE
  5
317
100
AcDbEntity
  8
0
100
AcDbLine
 62
7
  6
CONTINUOUS
 10
159.8121590735
 20
226.3571345879
 11
160.1230893327
 21
225.6064825393
  0
LINE
  5
318
100
AcDbEntity
  8
0
100
AcDbLine
 62
7
  6
CONTINUOUS
 10
159.8615024225
 20
228.840015444
 11
160.2346187691
 21
227.9392328998
  0
LINE
  5
319
100
AcDbEntity
  8
0
100
AcDbLine
 62
7
  6
CONTINUOUS
 10
162.9086193713
 20
221.4836243801
 11
163.2195495415
 21
220.7329725462
  0
LINE
  5
31A
100
AcDbEntity
  8
0
100
AcDbLine
 62
7
  6
CONTINUOUS
 10
164.0483591757
 20
220.9003876693
 11
163.6130566528
 21
221.9513009239
  0
LINE
  5
31B
100
AcDbEntity
  8
0
100
AcDbLine
 62
7
  6
CONTINUOUS
 10
162.182777265
 20
225.4043008199
 11
161.8718470949
 21
226.1549526537
  0
LINE
  5
31C
100
AcDbEntity
  8
0
100
AcDbLine
 62
7
  6
CONTINUOUS
 10
162.7510135288
 20
222.2977862363
 11
162.9086193713
 21
221.4836243801
  0
LINE
  5
31D
100
AcDbEntity
  8
0
100
AcDbLine
 62
7
  6
CONTINUOUS
 10
165.7648969879
 20
215.4552956078
 11
165.7981304776
 21
214.9413951723
  0
LINE
  5
31E
100
AcDbEntity
  8
0
100
AcDbLine
 62
7
  6
CONTINUOUS
 10
167.1148528998
 20
222.1705709588
 11
167.148086403
 21
221.6566705289
  0
LINE
  5
31F
100
AcDbEntity
  8
0
100
AcDbLine
 62
7
  6
CONTINUOUS
 10
163.769299002
 20
208.1907979882
 11
163.769299002
 21
208.3907979882
  0
LINE
  5
320
100
AcDbEntity
  8
0
100
AcDbLine
 62
7
  6
CONTINUOUS
 10
163.8380787157
 20
208.1907979882
 11
163.8380787157
 21
208.3907979882
  0
LINE
  5
321
100
AcDbEntity
  8
0
100
AcDbLine
 62
7
  6
CONTINUOUS
 10
167.1133406522
 20
201.6907979882
 11
167.1133406522
 21
208.1907979882
  0
LINE
  5
322
100
AcDbEntity
  8
BEZUGSACHSEN
100
AcDbLine
 62
7
  6
CONTINUOUS
 10
167.3074911052
 20
206.4407979882
 11
167.3074911052
 21
201.6907979882
  0
LINE
  5
323
100
AcDbEntity
  8
0
100
AcDbLine
 62
7
  6
CONTINUOUS
 10
167.8278520897
 20
220.8829063003
 11
167.976895574
 21
221.8240864665
  0
LINE
  5
324
100
AcDbEntity
  8
0
100
AcDbLine
 62
7
  6
CONTINUOUS
 10
165.8849881816
 20
216.0327052066
 11
165.7648969879
 21
215.4552956078
  0
LINE
  5
325
100
AcDbEntity
  8
0
100
AcDbLine
 62
7
  6
CONTINUOUS
 10
167.148086403
 20
221.6566705289
 11
167.0279952361
 21
221.0792609412
  0
LINE
  5
326
100
AcDbEntity
  8
0
100
AcDbLine
 62
7
  6
CONTINUOUS
 10
166.4736150725
 20
215.0453019911
 11
166.5937062394
 21
215.6227115788
  0
LINE
  5
327
100
AcDbEntity
  8
0
100
AcDbLine
 62
7
  6
CONTINUOUS
 10
167.5544362527
 20
220.2419875548
 11
167.8278520897
 21
220.8829063003
  0
LINE
  5
328
100
AcDbEntity
  8
0
100
AcDbLine
 62
7
  6
CONTINUOUS
 10
170.1148797249
 20
224.4685551525
 11
169.6506245288
 21
225.1556986876
  0
LINE
  5
329
100
AcDbEntity
  8
0
100
AcDbLine
 62
7
  6
CONTINUOUS
 10
166.6795503769
 20
223.2214842134
 11
167.1148528998
 21
222.1705709588
  0
LINE
  5
32A
100
AcDbEntity
  8
0
100
AcDbLine
 62
7
  6
CONTINUOUS
 10
168.9429199436
 20
219.0582296762
 11
169.4404086429
 21
217.8571857112
  0
LINE
  5
32B
100
AcDbEntity
  8
0
100
AcDbLine
 62
7
  6
CONTINUOUS
 10
169.7513388131
 20
217.1065338774
 11
170.4353856856
 21
215.4550986403
  0
LINE
  5
32C
100
AcDbEntity
  8
0
100
AcDbLine
 62
7
  6
CONTINUOUS
 10
167.8192900739
 20
222.6382474582
 11
167.5083599037
 21
223.388899292
  0
LINE
  5
32D
100
AcDbEntity
  8
0
100
AcDbLine
 62
7
  6
CONTINUOUS
 10
171.048684366
 20
215.7091352715
 11
170.3646374935
 21
217.3605705086
  0
LINE
  5
32E
100
AcDbEntity
  8
0
100
AcDbLine
 62
7
  6
CONTINUOUS
 10
170.0537073233
 20
218.1112223424
 11
169.556218624
 21
219.3122663074
  0
LINE
  5
32F
100
AcDbEntity
  8
0
100
AcDbLine
 62
7
  6
CONTINUOUS
 10
169.2367268675
 20
221.818259477
 11
169.5476573935
 21
221.0676067841
  0
LINE
  5
330
100
AcDbEntity
  8
0
100
AcDbLine
 62
7
  6
CONTINUOUS
 10
171.5912352838
 20
217.8686439489
 11
171.2803051136
 21
218.6192957827
  0
LINE
  5
331
100
AcDbEntity
  8
0
100
AcDbLine
 62
7
  6
CONTINUOUS
 10
165.7981304776
 20
214.9413951723
 11
166.0179221407
 21
213.9771034647
  0
LINE
  5
332
100
AcDbEntity
  8
0
100
AcDbLine
 62
7
  6
CONTINUOUS
 10
166.6312208748
 20
214.2311401182
 11
166.4736150725
 21
215.0453019911
  0
LINE
  5
333
100
AcDbEntity
  8
0
100
AcDbLine
 62
7
  6
CONTINUOUS
 10
167.976895574
 20
221.8240864665
 11
167.8192900739
 21
222.6382474582
  0
LINE
  5
334
100
AcDbEntity
  8
0
100
AcDbLine
 62
7
  6
CONTINUOUS
 10
169.6591865446
 20
223.4003575297
 11
169.6924200478
 21
222.8864570998
  0
LINE
  5
335
100
AcDbEntity
  8
0
100
AcDbLine
 62
7
  6
CONTINUOUS
 10
170.3721857345
 20
222.1126928712
 11
170.5212295746
 21
223.0538721784
  0
LINE
  5
336
100
AcDbEntity
  8
0
100
AcDbLine
 62
7
  6
CONTINUOUS
 10
169.6924200478
 20
222.8864570998
 11
169.5723288809
 21
222.3090475121
  0
LINE
  5
337
100
AcDbEntity
  8
0
100
AcDbLine
 62
7
  6
CONTINUOUS
 10
169.2860701981
 20
224.3011400739
 11
169.6591865446
 21
223.4003575297
  0
LINE
  5
338
100
AcDbEntity
  8
0
100
AcDbLine
 62
7
  6
CONTINUOUS
 10
170.3636237187
 20
223.8680340291
 11
170.1148797249
 21
224.4685551525
  0
LINE
  5
339
100
AcDbEntity
  8
0
100
AcDbLine
 62
7
  6
CONTINUOUS
 10
167.4408791226
 20
230.9241636723
 11
167.0677627761
 21
231.8249462165
  0
LINE
  5
33A
100
AcDbEntity
  8
0
100
AcDbLine
 62
7
  6
CONTINUOUS
 10
170.5212295746
 20
223.0538721784
 11
170.3636237187
 21
223.8680340291
  0
LINE
  5
33B
100
AcDbEntity
  8
RUNDUNGEN
100
AcDbLine
 62
7
  6
CONTINUOUS
 10
178.6770678428
 20
213.0937346493
 11
172.280206269
 21
228.6950798375
  0
LINE
  5
33C
100
AcDbEntity
  8
RUNDUNGEN
100
AcDbLine
 62
7
  6
CONTINUOUS
 10
179.7983860759
 20
194.6907979882
 11
179.7983860759
 21
207.4031993128
  0
LINE
  5
33D
100
AcDbEntity
  8
FASEN
100
AcDbLine
 62
7
  6
CONTINUOUS
 10
161.298386074
 20
181.6907979863
 11
162.2983860735
 21
182.6907979858
  0
LINE
  5
33E
100
AcDbEntity
  8
FASEN
100
AcDbLine
 62
7
  6
CONTINUOUS
 10
243.8117875587
 20
181.6907979882
 11
242.8117875587
 21
182.6907979882
  0
LINE
  5
33F
100
AcDbEntity
  8
BEZUGSACHSEN
100
AcDbLine
 62
7
  6
CONTINUOUS
 10
237.8117875587
 20
194.6907979882
 11
237.8117875587
 21
206.4407979882
  0
LINE
  5
340
100
AcDbEntity
  8
BEZUGSACHSEN
100
AcDbLine
 62
7
  6
CONTINUOUS
 10
238.0231300148
 20
206.4407979882
 11
238.0231300148
 21
201.6907979882
  0
LINE
  5
341
100
AcDbEntity
  8
0
100
AcDbLine
 62
7
  6
CONTINUOUS
 10
239.3117875587
 20
206.4407979882
 11
239.3117875587
 21
208.1907979882
  0
LINE
  5
342
100
AcDbEntity
  8
FASEN
100
AcDbLine
 62
7
  6
CONTINUOUS
 10
306.8116077082
 20
181.6907979882
 11
298.8119674093
 21
181.6907979882
  0
LINE
  5
343
100
AcDbEntity
  8
FASEN
100
AcDbLine
 62
7
  6
CONTINUOUS
 10
251.8116077082
 20
181.6907979882
 11
243.8119674093
 21
181.6907979882
  0
LINE
  5
344
100
AcDbEntity
  8
FASEN
100
AcDbLine
 62
7
  6
CONTINUOUS
 10
307.8117875587
 20
182.6907979882
 11
297.8117875587
 21
182.6907979882
  0
LINE
  5
345
100
AcDbEntity
  8
FASEN
100
AcDbLine
 62
7
  6
CONTINUOUS
 10
252.8117875587
 20
182.6907979882
 11
242.8117875587
 21
182.6907979882
  0
LINE
  5
346
100
AcDbEntity
  8
0
100
AcDbLine
 62
7
  6
CONTINUOUS
 10
241.9776814835
 20
208.1907979882
 11
241.9776814835
 21
208.3907979882
  0
LINE
  5
347
100
AcDbEntity
  8
0
100
AcDbLine
 62
7
  6
CONTINUOUS
 10
242.0597573855
 20
208.1907979882
 11
242.0597573855
 21
208.3907979882
  0
LINE
  5
348
100
AcDbEntity
  8
0
100
AcDbLine
 62
7
  6
CONTINUOUS
 10
242.0847147783
 20
208.1907979882
 11
242.0847147783
 21
208.3907979882
  0
LINE
  5
349
100
AcDbEntity
  8
0
100
AcDbLine
 62
7
  6
CONTINUOUS
 10
242.1683797352
 20
208.1907979882
 11
242.1683797352
 21
208.3907979882
  0
LINE
  5
34A
100
AcDbEntity
  8
0
100
AcDbLine
 62
7
  6
CONTINUOUS
 10
242.7378687326
 20
208.1907979882
 11
242.7378687326
 21
208.3907979882
  0
LINE
  5
34B
100
AcDbEntity
  8
BEZUGSACHSEN
100
AcDbLine
 62
7
  6
CONTINUOUS
 10
242.8117875587
 20
182.6907979882
 11
242.8117875587
 21
194.6907979882
  0
LINE
  5
34C
100
AcDbEntity
  8
0
100
AcDbLine
 62
7
  6
CONTINUOUS
 10
243.5833759926
 20
208.1907979882
 11
243.5833759926
 21
208.3907979882
  0
LINE
  5
34D
100
AcDbEntity
  8
0
100
AcDbLine
 62
7
  6
CONTINUOUS
 10
243.7950031801
 20
208.1907979882
 11
243.7950031801
 21
208.3907979882
  0
LINE
  5
34E
100
AcDbEntity
  8
0
100
AcDbLine
 62
7
  6
CONTINUOUS
 10
244.497284853
 20
208.1907979882
 11
244.497284853
 21
208.3907979882
  0
LINE
  5
34F
100
AcDbEntity
  8
0
100
AcDbLine
 62
7
  6
CONTINUOUS
 10
244.623173096
 20
208.1907979882
 11
244.623173096
 21
208.3907979882
  0
LINE
  5
350
100
AcDbEntity
  8
0
100
AcDbLine
 62
7
  6
CONTINUOUS
 10
244.6415119302
 20
208.1907979882
 11
244.6415119302
 21
208.3907979882
  0
LINE
  5
351
100
AcDbEntity
  8
0
100
AcDbLine
 62
7
  6
CONTINUOUS
 10
244.8531392186
 20
208.1907979882
 11
244.8531392186
 21
208.3907979882
  0
LINE
  5
352
100
AcDbEntity
  8
0
100
AcDbLine
 62
7
  6
CONTINUOUS
 10
245.5554208915
 20
208.1907979882
 11
245.5554208915
 21
208.3907979882
  0
LINE
  5
353
100
AcDbEntity
  8
0
100
AcDbLine
 62
7
  6
CONTINUOUS
 10
245.6334208485
 20
208.1907979882
 11
245.6334208485
 21
208.3907979882
  0
LINE
  5
354
100
AcDbEntity
  8
0
100
AcDbLine
 62
7
  6
CONTINUOUS
 10
245.6534954127
 20
208.1907979882
 11
245.6534954127
 21
208.3907979882
  0
LINE
  5
355
100
AcDbEntity
  8
0
100
AcDbLine
 62
7
  6
CONTINUOUS
 10
245.7310661982
 20
208.1907979882
 11
245.7310661982
 21
208.3907979882
  0
LINE
  5
356
100
AcDbEntity
  8
0
100
AcDbLine
 62
7
  6
CONTINUOUS
 10
245.8046464823
 20
208.1907979882
 11
245.8046464823
 21
208.3907979882
  0
LINE
  5
357
100
AcDbEntity
  8
0
100
AcDbLine
 62
7
  6
CONTINUOUS
 10
245.9295653079
 20
208.1907979882
 11
245.9295653079
 21
208.3907979882
  0
LINE
  5
358
100
AcDbEntity
  8
0
100
AcDbLine
 62
7
  6
CONTINUOUS
 10
246.0300347724
 20
208.1907979882
 11
246.0300347724
 21
208.3907979882
  0
LINE
  5
359
100
AcDbEntity
  8
0
100
AcDbLine
 62
7
  6
CONTINUOUS
 10
246.0499458068
 20
208.1907979882
 11
246.0499458068
 21
208.3907979882
  0
LINE
  5
35A
100
AcDbEntity
  8
0
100
AcDbLine
 62
7
  6
CONTINUOUS
 10
246.1449760737
 20
208.1907979882
 11
246.1449760737
 21
208.3907979882
  0
LINE
  5
35B
100
AcDbEntity
  8
0
100
AcDbLine
 62
7
  6
CONTINUOUS
 10
246.288155012
 20
208.1907979882
 11
246.288155012
 21
208.3907979882
  0
LINE
  5
35C
100
AcDbEntity
  8
0
100
AcDbLine
 62
7
  6
CONTINUOUS
 10
246.4865421484
 20
208.1907979882
 11
246.4865421484
 21
208.3907979882
  0
LINE
  5
35D
100
AcDbEntity
  8
0
100
AcDbLine
 62
7
  6
CONTINUOUS
 10
247.4726853792
 20
208.1907979882
 11
247.4726853792
 21
208.3907979882
  0
LINE
  5
35E
100
AcDbEntity
  8
0
100
AcDbLine
 62
7
  6
CONTINUOUS
 10
247.8044776529
 20
208.1907979882
 11
247.8044776529
 21
208.3907979882
  0
LINE
  5
35F
100
AcDbEntity
  8
0
100
AcDbLine
 62
7
  6
CONTINUOUS
 10
247.8117875587
 20
206.4407979882
 11
247.8117875587
 21
208.1907979882
  0
LINE
  5
360
100
AcDbEntity
  8
RUNDUNGEN
100
AcDbLine
 62
7
  6
CONTINUOUS
 10
237.8117875587
 20
194.6907979882
 11
312.8117875587
 21
194.6907979882
  0
LINE
  5
361
100
AcDbEntity
  8
BEZUGSACHSEN
100
AcDbLine
 62
7
  6
CONTINUOUS
 10
252.8117875587
 20
182.6907979882
 11
252.8117875587
 21
194.6907979882
  0
LINE
  5
362
100
AcDbEntity
  8
0
100
AcDbLine
 62
7
  6
CONTINUOUS
 10
256.3117875587
 20
206.4407979882
 11
256.3117875587
 21
208.1907979882
  0
LINE
  5
363
100
AcDbEntity
  8
BEZUGSACHSEN
100
AcDbLine
 62
7
  6
CONTINUOUS
 10
238.0231300148
 20
201.6907979882
 11
237.8117875587
 21
201.6907979882
  0
LINE
  5
364
100
AcDbEntity
  8
BEZUGSACHSEN
100
AcDbLine
 62
7
  6
CONTINUOUS
 10
312.6004451027
 20
201.6907979882
 11
312.8117875587
 21
201.6907979882
  0
LINE
  5
365
100
AcDbEntity
  8
BEZUGSACHSEN
100
AcDbLine
 62
7
  6
CONTINUOUS
 10
261.8116161923
 20
210.038839566
 11
261.8117875542
 21
210.0383882083
  0
LINE
  5
366
100
AcDbEntity
  8
RUNDUNGEN
100
AcDbLine
 62
7
  6
CONTINUOUS
 10
297.8117875587
 20
206.4407979882
 11
277.8117875587
 21
206.4407979882
  0
LINE
  5
367
100
AcDbEntity
  8
RUNDUNGEN
100
AcDbLine
 62
7
  6
CONTINUOUS
 10
272.8117875587
 20
206.4407979882
 11
252.8117875587
 21
206.4407979882
  0
LINE
  5
368
100
AcDbEntity
  8
BEZUGSACHSEN
100
AcDbLine
 62
7
  6
CONTINUOUS
 10
237.8117875587
 20
206.4407979882
 11
252.8117875587
 21
206.4407979882
  0
LINE
  5
369
100
AcDbEntity
  8
BEZUGSACHSEN
100
AcDbLine
 62
7
  6
CONTINUOUS
 10
297.8117875587
 20
206.4407979882
 11
312.8117875587
 21
206.4407979882
  0
LINE
  5
36A
100
AcDbEntity
  8
0
100
AcDbLine
 62
7
  6
CONTINUOUS
 10
239.3117875587
 20
208.1907979882
 11
256.3117875587
 21
208.1907979882
  0
LINE
  5
36B
100
AcDbEntity
  8
0
100
AcDbLine
 62
7
  6
CONTINUOUS
 10
294.3117875587
 20
208.1907979882
 11
311.3117875587
 21
208.1907979882
  0
LINE
  5
36C
100
AcDbEntity
  8
0
100
AcDbLine
 62
7
  6
CONTINUOUS
 10
241.9776814835
 20
208.3907979882
 11
247.8044776529
 21
208.3907979882
  0
LINE
  5
36D
100
AcDbEntity
  8
0
100
AcDbLine
 62
7
  6
CONTINUOUS
 10
296.9776814835
 20
208.3907979882
 11
302.8044776529
 21
208.3907979882
  0
LINE
  5
36E
100
AcDbEntity
  8
BEZUGSACHSEN
100
AcDbLine
 62
7
  6
CONTINUOUS
 10
267.3117875587
 20
226.0657026988
 11
267.3117875587
 21
251.6933562664
  0
LINE
  5
36F
100
AcDbEntity
  8
RUNDUNGEN
100
AcDbLine
 62
7
  6
CONTINUOUS
 10
267.3117875587
 20
243.7617834026
 11
267.3117875587
 21
251.7693402436
  0
LINE
  5
370
100
AcDbEntity
  8
BEZUGSACHSEN
100
AcDbLine
 62
7
  6
CONTINUOUS
 10
263.5264238067
 20
213.020596555
 11
266.4071768705
 21
220.935400549
  0
LINE
  5
371
100
AcDbEntity
  8
0
100
AcDbLine
 62
7
  6
CONTINUOUS
 10
279.8117875587
 20
211.6569431289
 11
280.4117875587
 21
211.6569431289
  0
LINE
  5
372
100
AcDbEntity
  8
FASEN
100
AcDbLine
 62
7
  6
CONTINUOUS
 10
298.8117875587
 20
181.6907979882
 11
297.8117875587
 21
182.6907979882
  0
LINE
  5
373
100
AcDbEntity
  8
0
100
AcDbLine
 62
7
  6
CONTINUOUS
 10
270.3117875587
 20
226.3819925263
 11
270.3117875587
 21
230.8303267679
  0
LINE
  5
374
100
AcDbEntity
  8
0
100
AcDbLine
 62
7
  6
CONTINUOUS
 10
270.3117875587
 20
231.0638063686
 11
270.3117875587
 21
235.5121406102
  0
LINE
  5
375
100
AcDbEntity
  8
RUNDUNGEN
100
AcDbLine
 62
7
  6
CONTINUOUS
 10
270.8117875587
 20
206.4407979882
 11
270.8117875587
 21
255.1907979882
  0
LINE
  5
376
100
AcDbEntity
  8
0
100
AcDbLine
 62
7
  6
CONTINUOUS
 10
279.8117875587
 20
214.0662901565
 11
280.4117875587
 21
214.0662901565
  0
LINE
  5
377
100
AcDbEntity
  8
0
100
AcDbLine
 62
7
  6
CONTINUOUS
 10
279.8117875587
 20
216.8137911529
 11
280.4117875587
 21
216.8137911529
  0
LINE
  5
378
100
AcDbEntity
  8
0
100
AcDbLine
 62
7
  6
CONTINUOUS
 10
279.8117875587
 20
217.3349246064
 11
280.4117875587
 21
217.3349246064
  0
LINE
  5
379
100
AcDbEntity
  8
0
100
AcDbLine
 62
7
  6
CONTINUOUS
 10
279.8117875587
 20
217.6390532401
 11
280.4117875587
 21
217.6390532401
  0
LINE
  5
37A
100
AcDbEntity
  8
0
100
AcDbLine
 62
7
  6
CONTINUOUS
 10
279.8117875587
 20
217.7774400783
 11
280.4117875587
 21
217.7774400783
  0
LINE
  5
37B
100
AcDbEntity
  8
0
100
AcDbLine
 62
7
  6
CONTINUOUS
 10
279.8117875587
 20
219.3323336238
 11
280.4117875587
 21
219.3323336238
  0
LINE
  5
37C
100
AcDbEntity
  8
0
100
AcDbLine
 62
7
  6
CONTINUOUS
 10
279.8117875587
 20
220.0192092004
 11
280.4117875587
 21
220.0192092004
  0
LINE
  5
37D
100
AcDbEntity
  8
0
100
AcDbLine
 62
7
  6
CONTINUOUS
 10
279.8117875587
 20
220.0293268322
 11
280.4117875587
 21
220.0293268322
  0
LINE
  5
37E
100
AcDbEntity
  8
0
100
AcDbLine
 62
7
  6
CONTINUOUS
 10
279.8117875587
 20
220.4752898859
 11
280.4117875587
 21
220.4752898859
  0
LINE
  5
37F
100
AcDbEntity
  8
0
100
AcDbLine
 62
7
  6
CONTINUOUS
 10
279.8117875587
 20
220.8580361737
 11
280.4117875587
 21
220.8580361737
  0
LINE
  5
380
100
AcDbEntity
  8
0
100
AcDbLine
 62
7
  6
CONTINUOUS
 10
279.8117875587
 20
221.1775663866
 11
280.4117875587
 21
221.1775663866
  0
LINE
  5
381
100
AcDbEntity
  8
0
100
AcDbLine
 62
7
  6
CONTINUOUS
 10
279.8117875587
 20
222.7667101968
 11
280.4117875587
 21
222.7667101968
  0
LINE
  5
382
100
AcDbEntity
  8
RUNDUNGEN
100
AcDbLine
 62
7
  6
CONTINUOUS
 10
279.8117875587
 20
255.1907979882
 11
279.8117875587
 21
206.4407979882
  0
LINE
  5
383
100
AcDbEntity
  8
0
100
AcDbLine
 62
7
  6
CONTINUOUS
 10
280.4117875587
 20
228.2702183495
 11
280.4117875587
 21
220.0293268322
  0
LINE
  5
384
100
AcDbEntity
  8
0
100
AcDbLine
 62
7
  6
CONTINUOUS
 10
280.4117875587
 20
220.0192092004
 11
280.4117875587
 21
211.6569431289
  0
LINE
  5
385
100
AcDbEntity
  8
0
100
AcDbLine
 62
7
  6
CONTINUOUS
 10
279.8117875587
 20
223.4535854459
 11
280.4117875587
 21
223.4535854459
  0
LINE
  5
386
100
AcDbEntity
  8
0
100
AcDbLine
 62
7
  6
CONTINUOUS
 10
279.8117875587
 20
224.369418893
 11
280.4117875587
 21
224.369418893
  0
LINE
  5
387
100
AcDbEntity
  8
0
100
AcDbLine
 62
7
  6
CONTINUOUS
 10
270.8117875587
 20
226.3819925263
 11
270.3117875587
 21
226.3819925263
  0
LINE
  5
388
100
AcDbEntity
  8
0
100
AcDbLine
 62
7
  6
CONTINUOUS
 10
270.8117875587
 20
226.7381041386
 11
270.3117875587
 21
226.7381041386
  0
LINE
  5
389
100
AcDbEntity
  8
BEZUGSACHSEN
100
AcDbLine
 62
7
  6
CONTINUOUS
 10
283.3117875587
 20
226.0657026988
 11
283.3117875587
 21
251.6933562664
  0
LINE
  5
38A
100
AcDbEntity
  8
RUNDUNGEN
100
AcDbLine
 62
7
  6
CONTINUOUS
 10
283.3117875587
 20
243.7617834026
 11
283.3117875587
 21
251.7695314342
  0
LINE
  5
38B
100
AcDbEntity
  8
FASEN
100
AcDbLine
 62
7
  6
CONTINUOUS
 10
251.8117875587
 20
181.6907979882
 11
252.8117875587
 21
182.6907979882
  0
LINE
  5
38C
100
AcDbEntity
  8
0
100
AcDbLine
 62
7
  6
CONTINUOUS
 10
279.8117875587
 20
227.1169198894
 11
280.4117875587
 21
227.1169198894
  0
LINE
  5
38D
100
AcDbEntity
  8
0
100
AcDbLine
 62
7
  6
CONTINUOUS
 10
279.8117875587
 20
227.6380536704
 11
280.4117875587
 21
227.6380536704
  0
LINE
  5
38E
100
AcDbEntity
  8
0
100
AcDbLine
 62
7
  6
CONTINUOUS
 10
270.8117875587
 20
227.9295953074
 11
270.3117875587
 21
227.9295953074
  0
LINE
  5
38F
100
AcDbEntity
  8
0
100
AcDbLine
 62
7
  6
CONTINUOUS
 10
279.8117875587
 20
227.9934446732
 11
280.4117875587
 21
227.9934446732
  0
LINE
  5
390
100
AcDbEntity
  8
0
100
AcDbLine
 62
7
  6
CONTINUOUS
 10
279.8117875587
 20
228.2463102828
 11
280.4117875587
 21
228.2463102828
  0
LINE
  5
391
100
AcDbEntity
  8
0
100
AcDbLine
 62
7
  6
CONTINUOUS
 10
279.8117875587
 20
228.2702183495
 11
280.4117875587
 21
228.2702183495
  0
LINE
  5
392
100
AcDbEntity
  8
0
100
AcDbLine
 62
7
  6
CONTINUOUS
 10
270.8117875587
 20
228.2857069197
 11
270.3117875587
 21
228.2857069197
  0
LINE
  5
393
100
AcDbEntity
  8
0
100
AcDbLine
 62
7
  6
CONTINUOUS
 10
270.8117875587
 20
228.3711168043
 11
270.3117875587
 21
228.3711168043
  0
LINE
  5
394
100
AcDbEntity
  8
0
100
AcDbLine
 62
7
  6
CONTINUOUS
 10
270.8117875587
 20
228.7272284165
 11
270.3117875587
 21
228.7272284165
  0
LINE
  5
395
100
AcDbEntity
  8
BEZUGSACHSEN
100
AcDbLine
 62
7
  6
CONTINUOUS
 10
287.0971513108
 20
213.020596555
 11
284.216398247
 21
220.935400549
  0
LINE
  5
396
100
AcDbEntity
  8
0
100
AcDbLine
 62
7
  6
CONTINUOUS
 10
270.8117875587
 20
230.8304922927
 11
270.3117875587
 21
230.8304922927
  0
LINE
  5
397
100
AcDbEntity
  8
0
100
AcDbLine
 62
7
  6
CONTINUOUS
 10
270.8117875587
 20
231.0638063686
 11
270.3117875587
 21
231.0638063686
  0
LINE
  5
398
100
AcDbEntity
  8
0
100
AcDbLine
 62
7
  6
CONTINUOUS
 10
270.8117875587
 20
231.4199179809
 11
270.3117875587
 21
231.4199179809
  0
LINE
  5
399
100
AcDbEntity
  8
0
100
AcDbLine
 62
7
  6
CONTINUOUS
 10
270.8117875587
 20
233.0529306466
 11
270.3117875587
 21
233.0529306466
  0
LINE
  5
39A
100
AcDbEntity
  8
0
100
AcDbLine
 62
7
  6
CONTINUOUS
 10
270.8117875587
 20
233.4090422588
 11
270.3117875587
 21
233.4090422588
  0
LINE
  5
39B
100
AcDbEntity
  8
BEZUGSACHSEN
100
AcDbLine
 62
7
  6
CONTINUOUS
 10
288.8117875631
 20
210.0383905048
 11
288.8119589252
 21
210.0388395617
  0
LINE
  5
39C
100
AcDbEntity
  8
0
100
AcDbLine
 62
7
  6
CONTINUOUS
 10
270.8117875587
 20
235.512306135
 11
270.3117875587
 21
235.512306135
  0
LINE
  5
39D
100
AcDbEntity
  8
0
100
AcDbLine
 62
7
  6
CONTINUOUS
 10
294.3117875587
 20
206.4407979882
 11
294.3117875587
 21
208.1907979882
  0
LINE
  5
39E
100
AcDbEntity
  8
0
100
AcDbLine
 62
7
  6
CONTINUOUS
 10
296.9776814835
 20
208.1907979882
 11
296.9776814835
 21
208.3907979882
  0
LINE
  5
39F
100
AcDbEntity
  8
0
100
AcDbLine
 62
7
  6
CONTINUOUS
 10
297.0597573855
 20
208.1907979882
 11
297.0597573855
 21
208.3907979882
  0
LINE
  5
3A0
100
AcDbEntity
  8
0
100
AcDbLine
 62
7
  6
CONTINUOUS
 10
297.0847147783
 20
208.1907979882
 11
297.0847147783
 21
208.3907979882
  0
LINE
  5
3A1
100
AcDbEntity
  8
0
100
AcDbLine
 62
7
  6
CONTINUOUS
 10
297.1683797352
 20
208.1907979882
 11
297.1683797352
 21
208.3907979882
  0
LINE
  5
3A2
100
AcDbEntity
  8
0
100
AcDbLine
 62
7
  6
CONTINUOUS
 10
297.7378687326
 20
208.1907979882
 11
297.7378687326
 21
208.3907979882
  0
LINE
  5
3A3
100
AcDbEntity
  8
BEZUGSACHSEN
100
AcDbLine
 62
7
  6
CONTINUOUS
 10
297.8117875587
 20
194.6907979882
 11
297.8117875587
 21
182.6907979882
  0
LINE
  5
3A4
100
AcDbEntity
  8
0
100
AcDbLine
 62
7
  6
CONTINUOUS
 10
298.5833759926
 20
208.1907979882
 11
298.5833759926
 21
208.3907979882
  0
LINE
  5
3A5
100
AcDbEntity
  8
0
100
AcDbLine
 62
7
  6
CONTINUOUS
 10
298.7950031801
 20
208.1907979882
 11
298.7950031801
 21
208.3907979882
  0
LINE
  5
3A6
100
AcDbEntity
  8
0
100
AcDbLine
 62
7
  6
CONTINUOUS
 10
299.497284853
 20
208.1907979882
 11
299.497284853
 21
208.3907979882
  0
LINE
  5
3A7
100
AcDbEntity
  8
0
100
AcDbLine
 62
7
  6
CONTINUOUS
 10
299.623173096
 20
208.1907979882
 11
299.623173096
 21
208.3907979882
  0
LINE
  5
3A8
100
AcDbEntity
  8
0
100
AcDbLine
 62
7
  6
CONTINUOUS
 10
299.6415119302
 20
208.1907979882
 11
299.6415119302
 21
208.3907979882
  0
LINE
  5
3A9
100
AcDbEntity
  8
0
100
AcDbLine
 62
7
  6
CONTINUOUS
 10
299.8531392186
 20
208.1907979882
 11
299.8531392186
 21
208.3907979882
  0
LINE
  5
3AA
100
AcDbEntity
  8
0
100
AcDbLine
 62
7
  6
CONTINUOUS
 10
300.5554208915
 20
208.1907979882
 11
300.5554208915
 21
208.3907979882
  0
LINE
  5
3AB
100
AcDbEntity
  8
0
100
AcDbLine
 62
7
  6
CONTINUOUS
 10
300.6334208485
 20
208.1907979882
 11
300.6334208485
 21
208.3907979882
  0
LINE
  5
3AC
100
AcDbEntity
  8
0
100
AcDbLine
 62
7
  6
CONTINUOUS
 10
300.6534954127
 20
208.1907979882
 11
300.6534954127
 21
208.3907979882
  0
LINE
  5
3AD
100
AcDbEntity
  8
0
100
AcDbLine
 62
7
  6
CONTINUOUS
 10
300.7310661982
 20
208.1907979882
 11
300.7310661982
 21
208.3907979882
  0
LINE
  5
3AE
100
AcDbEntity
  8
0
100
AcDbLine
 62
7
  6
CONTINUOUS
 10
300.8046464823
 20
208.1907979882
 11
300.8046464823
 21
208.3907979882
  0
LINE
  5
3AF
100
AcDbEntity
  8
0
100
AcDbLine
 62
7
  6
CONTINUOUS
 10
300.9295653079
 20
208.1907979882
 11
300.9295653079
 21
208.3907979882
  0
LINE
  5
3B0
100
AcDbEntity
  8
0
100
AcDbLine
 62
7
  6
CONTINUOUS
 10
301.0300347724
 20
208.1907979882
 11
301.0300347724
 21
208.3907979882
  0
LINE
  5
3B1
100
AcDbEntity
  8
0
100
AcDbLine
 62
7
  6
CONTINUOUS
 10
301.0499458068
 20
208.1907979882
 11
301.0499458068
 21
208.3907979882
  0
LINE
  5
3B2
100
AcDbEntity
  8
0
100
AcDbLine
 62
7
  6
CONTINUOUS
 10
301.1449760737
 20
208.1907979882
 11
301.1449760737
 21
208.3907979882
  0
LINE
  5
3B3
100
AcDbEntity
  8
0
100
AcDbLine
 62
7
  6
CONTINUOUS
 10
301.288155012
 20
208.1907979882
 11
301.288155012
 21
208.3907979882
  0
LINE
  5
3B4
100
AcDbEntity
  8
0
100
AcDbLine
 62
7
  6
CONTINUOUS
 10
301.4865421484
 20
208.1907979882
 11
301.4865421484
 21
208.3907979882
  0
LINE
  5
3B5
100
AcDbEntity
  8
0
100
AcDbLine
 62
7
  6
CONTINUOUS
 10
302.4726853792
 20
208.1907979882
 11
302.4726853792
 21
208.3907979882
  0
LINE
  5
3B6
100
AcDbEntity
  8
0
100
AcDbLine
 62
7
  6
CONTINUOUS
 10
302.8044776529
 20
208.1907979882
 11
302.8044776529
 21
208.3907979882
  0
LINE
  5
3B7
100
AcDbEntity
  8
0
100
AcDbLine
 62
7
  6
CONTINUOUS
 10
302.8117875587
 20
206.4407979882
 11
302.8117875587
 21
208.1907979882
  0
LINE
  5
3B8
100
AcDbEntity
  8
BEZUGSACHSEN
100
AcDbLine
 62
7
  6
CONTINUOUS
 10
307.8117875587
 20
194.6907979882
 11
307.8117875587
 21
182.6907979882
  0
LINE
  5
3B9
100
AcDbEntity
  8
RUNDUNGEN
100
AcDbLine
 62
7
  6
CONTINUOUS
 10
269.3117875587
 20
253.7695314342
 11
270.8117875587
 21
253.7695314342
  0
LINE
  5
3BA
100
AcDbEntity
  8
RUNDUNGEN
100
AcDbLine
 62
7
  6
CONTINUOUS
 10
279.8117875587
 20
253.7695314342
 11
281.3117875587
 21
253.7695314342
  0
LINE
  5
3BB
100
AcDbEntity
  8
0
100
AcDbLine
 62
7
  6
CONTINUOUS
 10
311.3117875587
 20
206.4407979882
 11
311.3117875587
 21
208.1907979882
  0
LINE
  5
3BC
100
AcDbEntity
  8
BEZUGSACHSEN
100
AcDbLine
 62
7
  6
CONTINUOUS
 10
312.6004451027
 20
201.6907979882
 11
312.6004451027
 21
206.4407979882
  0
LINE
  5
3BD
100
AcDbEntity
  8
BEZUGSACHSEN
100
AcDbLine
 62
7
  6
CONTINUOUS
 10
312.8117875587
 20
194.6907979882
 11
312.8117875587
 21
206.4407979882
  0
LINE
  5
3BE
100
AcDbEntity
  8
0
100
AcDbLine
 62
7
  6
CONTINUOUS
 10
272.8117875587
 20
257.1907979882
 11
277.8117875587
 21
257.1907979882
  0
LINE
  5
3BF
100
AcDbEntity
  8
FASEN
100
AcDbLine
 62
7
  6
CONTINUOUS
 10
306.8117875587
 20
181.6907979882
 11
307.8117875587
 21
182.6907979882
  0
LINE
  5
3C0
100
AcDbEntity
  8
BEZUGSACHSEN
100
AcDbLine
 62
7
  6
CONTINUOUS
 10
79.7983860759
 20
107.53
 11
79.7983860759
 21
102.53
  0
LINE
  5
3C1
100
AcDbEntity
  8
RUNDUNGEN
100
AcDbLine
 62
7
  6
CONTINUOUS
 10
79.7983860759
 20
82.53
 11
79.7983860759
 21
127.53
  0
LINE
  5
3C2
100
AcDbEntity
  8
0
100
AcDbLine
 62
7
  6
CONTINUOUS
 10
97.3909087878
 20
141.03
 11
92.4834314997
 21
132.53
  0
LINE
  5
3C3
100
AcDbEntity
  8
0
100
AcDbLine
 62
7
  6
CONTINUOUS
 10
92.4834314997
 20
77.53
 11
97.3909087878
 21
69.03
  0
LINE
  5
3C4
100
AcDbEntity
  8
0
100
AcDbLine
 62
7
  6
CONTINUOUS
 10
86.5851686093
 20
100.53
 11
86.5851686093
 21
99.93
  0
LINE
  5
3C5
100
AcDbEntity
  8
0
100
AcDbLine
 62
7
  6
CONTINUOUS
 10
87.7898421231
 20
100.53
 11
87.7898421231
 21
99.93
  0
LINE
  5
3C6
100
AcDbEntity
  8
0
100
AcDbLine
 62
7
  6
CONTINUOUS
 10
88.1577307418
 20
100.53
 11
88.1577307418
 21
99.93
  0
LINE
  5
3C7
100
AcDbEntity
  8
0
100
AcDbLine
 62
7
  6
CONTINUOUS
 10
95.753006198
 20
134.0536325467
 11
95.6764809595
 21
133.8552454104
  0
LINE
  5
3C8
100
AcDbEntity
  8
0
100
AcDbLine
 62
7
  6
CONTINUOUS
 10
99.8773295686
 20
136.6830322233
 11
99.9658621145
 21
136.8479043244
  0
LINE
  5
3C9
100
AcDbEntity
  8
0
100
AcDbLine
 62
7
  6
CONTINUOUS
 10
95.8932109756
 20
133.8610376263
 11
95.9559115294
 21
133.9772461209
  0
LINE
  5
3CA
100
AcDbEntity
  8
0
100
AcDbLine
 62
7
  6
CONTINUOUS
 10
96.9837331506
 20
136.7584115662
 11
96.8506394487
 21
136.5467843787
  0
LINE
  5
3CB
100
AcDbEntity
  8
0
100
AcDbLine
 62
7
  6
CONTINUOUS
 10
96.3182646408
 20
135.7002756286
 11
96.1851708754
 21
135.4886483402
  0
LINE
  5
3CC
100
AcDbEntity
  8
0
100
AcDbLine
 62
7
  6
CONTINUOUS
 10
98.1057041768
 20
135.265248199
 11
98.0169749998
 21
135.12416334
  0
LINE
  5
3CD
100
AcDbEntity
  8
0
100
AcDbLine
 62
7
  6
CONTINUOUS
 10
98.2331048929
 20
134.9882378575
 11
98.3218340699
 21
135.1293227164
  0
LINE
  5
3CE
100
AcDbEntity
  8
0
100
AcDbLine
 62
7
  6
CONTINUOUS
 10
99.6976779072
 20
136.869175404
 11
99.5849117835
 21
136.7392819869
  0
LINE
  5
3CF
100
AcDbEntity
  8
0
100
AcDbLine
 62
7
  6
CONTINUOUS
 10
98.0861718691
 20
134.8345361816
 11
98.2331048929
 21
134.9882378575
  0
LINE
  5
3D0
100
AcDbEntity
  8
0
100
AcDbLine
 62
7
  6
CONTINUOUS
 10
99.7303132293
 20
136.5294099138
 11
99.8773295686
 21
136.6830322233
  0
LINE
  5
3D1
100
AcDbEntity
  8
0
100
AcDbLine
 62
7
  6
CONTINUOUS
 10
98.0169749998
 20
135.12416334
 11
97.8922243052
 21
135.0057329273
  0
LINE
  5
3D2
100
AcDbEntity
  8
0
100
AcDbLine
 62
7
  6
CONTINUOUS
 10
95.9065461577
 20
134.196811485
 11
95.753006198
 21
134.0536325467
  0
LINE
  5
3D3
100
AcDbEntity
  8
0
100
AcDbLine
 62
7
  6
CONTINUOUS
 10
95.9559115294
 20
133.9772461209
 11
96.0536632876
 21
134.0453059442
  0
LINE
  5
3D4
100
AcDbEntity
  8
0
100
AcDbLine
 62
7
  6
CONTINUOUS
 10
98.5913352344
 20
138.1734078235
 11
97.7693362796
 21
137.6039188261
  0
LINE
  5
3D5
100
AcDbEntity
  8
0
100
AcDbLine
 62
7
  6
CONTINUOUS
 10
98.1202374471
 20
137.5364190269
 11
98.7367366633
 21
137.963535775
  0
LINE
  5
3D6
100
AcDbEntity
  8
0
100
AcDbLine
 62
7
  6
CONTINUOUS
 10
99.5849117835
 20
136.7392819869
 11
98.9684125674
 21
136.3121652388
  0
LINE
  5
3D7
100
AcDbEntity
  8
0
100
AcDbLine
 62
7
  6
CONTINUOUS
 10
98.9083142744
 20
135.9599209164
 11
99.7303132293
 21
136.5294099138
  0
LINE
  5
3D8
100
AcDbEntity
  8
0
100
AcDbLine
 62
7
  6
CONTINUOUS
 10
97.9253993934
 20
134.7387598175
 11
98.0861718691
 21
134.8345361816
  0
LINE
  5
3D9
100
AcDbEntity
  8
0
100
AcDbLine
 62
7
  6
CONTINUOUS
 10
96.0951373218
 20
134.2918417519
 11
95.9065461577
 21
134.196811485
  0
LINE
  5
3DA
100
AcDbEntity
  8
0
100
AcDbLine
 62
7
  6
CONTINUOUS
 10
98.7868187188
 20
138.2570727804
 11
98.5913352344
 21
138.1734078235
  0
LINE
  5
3DB
100
AcDbEntity
  8
0
100
AcDbLine
 62
7
  6
CONTINUOUS
 10
98.7367366633
 20
137.963535775
 11
98.8979699299
 21
138.0234718426
  0
LINE
  5
3DC
100
AcDbEntity
  8
0
100
AcDbLine
 62
7
  6
CONTINUOUS
 10
96.6618899365
 20
79.069742099
 11
96.5147728067
 21
79.2212476398
  0
LINE
  5
3DD
100
AcDbEntity
  8
0
100
AcDbLine
 62
7
  6
CONTINUOUS
 10
96.4313352357
 20
78.9817712413
 11
96.5014376246
 21
78.8854737811
  0
LINE
  5
3DE
100
AcDbEntity
  8
0
100
AcDbLine
 62
7
  6
CONTINUOUS
 10
88.7092543791
 20
100.53
 11
88.7092543791
 21
99.93
  0
LINE
  5
3DF
100
AcDbEntity
  8
0
100
AcDbLine
 62
7
  6
CONTINUOUS
 10
88.8941261296
 20
100.53
 11
88.8941261296
 21
99.93
  0
LINE
  5
3E0
100
AcDbEntity
  8
0
100
AcDbLine
 62
7
  6
CONTINUOUS
 10
89.1952946516
 20
100.53
 11
89.1952946516
 21
99.93
  0
LINE
  5
3E1
100
AcDbEntity
  8
0
100
AcDbLine
 62
7
  6
CONTINUOUS
 10
90.3999681654
 20
100.53
 11
90.3999681654
 21
99.93
  0
LINE
  5
3E2
100
AcDbEntity
  8
0
100
AcDbLine
 62
7
  6
CONTINUOUS
 10
90.7011365439
 20
100.53
 11
90.7011365439
 21
99.93
  0
LINE
  5
3E3
100
AcDbEntity
  8
0
100
AcDbLine
 62
7
  6
CONTINUOUS
 10
91.1026942861
 20
100.53
 11
91.1026942861
 21
99.93
  0
LINE
  5
3E4
100
AcDbEntity
  8
0
100
AcDbLine
 62
7
  6
CONTINUOUS
 10
91.2562084276
 20
109.53
 11
91.2562084276
 21
110.03
  0
LINE
  5
3E5
100
AcDbEntity
  8
0
100
AcDbLine
 62
7
  6
CONTINUOUS
 10
92.3073677999
 20
100.53
 11
92.3073677999
 21
99.93
  0
LINE
  5
3E6
100
AcDbEntity
  8
0
100
AcDbLine
 62
7
  6
CONTINUOUS
 10
92.6752565621
 20
100.53
 11
92.6752565621
 21
99.93
  0
LINE
  5
3E7
100
AcDbEntity
  8
0
100
AcDbLine
 62
7
  6
CONTINUOUS
 10
95.6764809595
 20
133.8552454104
 11
95.5105848226
 21
132.8691021795
  0
LINE
  5
3E8
100
AcDbEntity
  8
0
100
AcDbLine
 62
7
  6
CONTINUOUS
 10
95.7618765405
 20
133.080340941
 11
95.8932109756
 21
133.8610376263
  0
LINE
  5
3E9
100
AcDbEntity
  8
0
100
AcDbLine
 62
7
  6
CONTINUOUS
 10
96.5226641442
 20
133.755146468
 11
96.3913297091
 21
132.9744497827
  0
LINE
  5
3EA
100
AcDbEntity
  8
0
100
AcDbLine
 62
7
  6
CONTINUOUS
 10
96.6431109296
 20
132.9320933273
 11
96.7606206898
 21
133.6306114296
  0
LINE
  5
3EB
100
AcDbEntity
  8
0
100
AcDbLine
 62
7
  6
CONTINUOUS
 10
98.1584117091
 20
135.4289873024
 11
98.1057041768
 21
135.265248199
  0
LINE
  5
3EC
100
AcDbEntity
  8
0
100
AcDbLine
 62
7
  6
CONTINUOUS
 10
98.3218340699
 20
135.1293227164
 11
98.3967237981
 21
135.3283328852
  0
LINE
  5
3ED
100
AcDbEntity
  8
0
100
AcDbLine
 62
7
  6
CONTINUOUS
 10
99.7519606166
 20
137.0103189027
 11
99.6976779072
 21
136.869175404
  0
LINE
  5
3EE
100
AcDbEntity
  8
0
100
AcDbLine
 62
7
  6
CONTINUOUS
 10
100.5663352684
 20
135.53
 11
98.8342844608
 21
132.53
  0
LINE
  5
3EF
100
AcDbEntity
  8
0
100
AcDbLine
 62
7
  6
CONTINUOUS
 10
105.837553535
 20
138.3641060752
 11
104.5608400242
 21
136.8246247953
  0
LINE
  5
3F0
100
AcDbEntity
  8
0
100
AcDbLine
 62
7
  6
CONTINUOUS
 10
104.7532751842
 20
136.6650356064
 11
105.7583475549
 21
137.8769677169
  0
LINE
  5
3F1
100
AcDbEntity
  8
0
100
AcDbLine
 62
7
  6
CONTINUOUS
 10
106.9129585148
 20
136.9194325838
 11
105.9078861441
 21
135.7075004733
  0
LINE
  5
3F2
100
AcDbEntity
  8
0
100
AcDbLine
 62
7
  6
CONTINUOUS
 10
106.1003213041
 20
135.5479112845
 11
107.3770348149
 21
137.0873925644
  0
LINE
  5
3F3
100
AcDbEntity
  8
0
100
AcDbLine
 62
7
  6
CONTINUOUS
 10
107.1609205781
 20
134.5371410764
 11
107.0184001676
 21
134.4122222508
  0
LINE
  5
3F4
100
AcDbEntity
  8
0
100
AcDbLine
 62
7
  6
CONTINUOUS
 10
107.2732550895
 20
134.6107213606
 11
107.1609205781
 21
134.5371410764
  0
LINE
  5
3F5
100
AcDbEntity
  8
0
100
AcDbLine
 62
7
  6
CONTINUOUS
 10
107.685810822
 20
136.0892283433
 11
107.3947215051
 21
135.9127160041
  0
LINE
  5
3F6
100
AcDbEntity
  8
0
100
AcDbLine
 62
7
  6
CONTINUOUS
 10
107.7790508893
 20
135.8533956409
 11
106.3599907625
 21
134.9928981648
  0
LINE
  5
3F7
100
AcDbEntity
  8
0
100
AcDbLine
 62
7
  6
CONTINUOUS
 10
106.4896169817
 20
134.7791294971
 11
108.1997663234
 21
135.8161392506
  0
LINE
  5
3F8
100
AcDbEntity
  8
0
100
AcDbLine
 62
7
  6
CONTINUOUS
 10
107.0883820749
 20
137.3267763477
 11
105.4664012532
 21
136.3500426475
  0
LINE
  5
3F9
100
AcDbEntity
  8
0
100
AcDbLine
 62
7
  6
CONTINUOUS
 10
105.4588710155
 20
136.0798750444
 11
106.9129585148
 21
136.9194325838
  0
LINE
  5
3FA
100
AcDbEntity
  8
0
100
AcDbLine
 62
7
  6
CONTINUOUS
 10
97.8922243052
 20
135.0057329273
 11
97.7536341397
 21
134.9452278383
  0
LINE
  5
3FB
100
AcDbEntity
  8
BEZUGSACHSEN
100
AcDbLine
 62
7
  6
CONTINUOUS
 10
94.7983860759
 20
67.53
 11
126.5292118683
 21
67.53
  0
LINE
  5
3FC
100
AcDbEntity
  8
RUNDUNGEN
100
AcDbLine
 62
7
  6
CONTINUOUS
 10
126.5292118683
 20
67.53
 11
133.0675602836
 21
67.53
  0
LINE
  5
3FD
100
AcDbEntity
  8
BEZUGSACHSEN
100
AcDbLine
 62
7
  6
CONTINUOUS
 10
133.0675602836
 20
67.53
 11
164.7983860759
 21
67.53
  0
LINE
  5
3FE
100
AcDbEntity
  8
0
100
AcDbLine
 62
7
  6
CONTINUOUS
 10
96.312356958
 20
79.0440387311
 11
96.4313352357
 21
78.9817712413
  0
LINE
  5
3FF
100
AcDbEntity
  8
0
100
AcDbLine
 62
7
  6
CONTINUOUS
 10
96.5147728067
 20
79.2212476398
 11
96.3957945289
 21
79.2835151296
  0
LINE
  5
400
100
AcDbEntity
  8
0
100
AcDbLine
 62
7
  6
CONTINUOUS
 10
96.1851708754
 20
80.4886483402
 11
97.3018420107
 21
79.7863666672
  0
LINE
  5
401
100
AcDbEntity
  8
0
100
AcDbLine
 62
7
  6
CONTINUOUS
 10
97.4349357762
 20
79.9979939557
 11
96.3182646408
 21
80.7002756286
  0
LINE
  5
402
100
AcDbEntity
  8
0
100
AcDbLine
 62
7
  6
CONTINUOUS
 10
96.8506394487
 20
81.5467843787
 11
97.967310584
 21
80.8445027057
  0
LINE
  5
403
100
AcDbEntity
  8
0
100
AcDbLine
 62
7
  6
CONTINUOUS
 10
98.100404286
 20
81.0561298932
 11
96.9837331506
 21
81.7584115662
  0
LINE
  5
404
100
AcDbEntity
  8
0
100
AcDbLine
 62
7
  6
CONTINUOUS
 10
98.2583301833
 20
80.9075874058
 11
98.100404286
 21
81.0561298932
  0
LINE
  5
405
100
AcDbEntity
  8
0
100
AcDbLine
 62
7
  6
CONTINUOUS
 10
97.967310584
 20
80.8445027057
 11
98.0892148366
 21
80.7186144628
  0
LINE
  5
406
100
AcDbEntity
  8
0
100
AcDbLine
 62
7
  6
CONTINUOUS
 10
97.7693362796
 20
82.6039188261
 11
98.9083142744
 21
80.9599209164
  0
LINE
  5
407
100
AcDbEntity
  8
0
100
AcDbLine
 62
7
  6
CONTINUOUS
 10
98.9684125674
 20
81.3121652388
 11
98.1202374471
 21
82.5364190269
  0
LINE
  5
408
100
AcDbEntity
  8
0
100
AcDbLine
 62
7
  6
CONTINUOUS
 10
99.3215718797
 20
82.8510359211
 11
99.6850754857
 21
82.3263557507
  0
LINE
  5
409
100
AcDbEntity
  8
0
100
AcDbLine
 62
7
  6
CONTINUOUS
 10
99.8905752244
 20
82.4687280001
 11
99.5270716184
 21
82.9934081705
  0
LINE
  5
40A
100
AcDbEntity
  8
0
100
AcDbLine
 62
7
  6
CONTINUOUS
 10
98.358052262
 20
80.7464280836
 11
98.2583301833
 21
80.9075874058
  0
LINE
  5
40B
100
AcDbEntity
  8
0
100
AcDbLine
 62
7
  6
CONTINUOUS
 10
98.8342844608
 20
77.53
 11
100.5663352684
 21
74.53
  0
LINE
  5
40C
100
AcDbEntity
  8
0
100
AcDbLine
 62
7
  6
CONTINUOUS
 10
98.0892148366
 20
80.7186144628
 11
98.1529152456
 21
80.5801094009
  0
LINE
  5
40D
100
AcDbEntity
  8
0
100
AcDbLine
 62
7
  6
CONTINUOUS
 10
96.7181676605
 20
78.8912661145
 11
96.6618899365
 21
79.069742099
  0
LINE
  5
40E
100
AcDbEntity
  8
0
100
AcDbLine
 62
7
  6
CONTINUOUS
 10
96.5014376246
 20
78.8854737811
 11
96.5226641442
 21
78.755146468
  0
LINE
  5
40F
100
AcDbEntity
  8
0
100
AcDbLine
 62
7
  6
CONTINUOUS
 10
93.1098651338
 20
100.53
 11
93.1098651338
 21
99.93
  0
LINE
  5
410
100
AcDbEntity
  8
0
100
AcDbLine
 62
7
  6
CONTINUOUS
 10
93.2562084276
 20
109.53
 11
93.2562084276
 21
110.03
  0
LINE
  5
411
100
AcDbEntity
  8
0
100
AcDbLine
 62
7
  6
CONTINUOUS
 10
93.7783035496
 20
100.53
 11
93.7783035496
 21
99.93
  0
LINE
  5
412
100
AcDbEntity
  8
0
100
AcDbLine
 62
7
  6
CONTINUOUS
 10
94.3463528889
 20
100.53
 11
94.3463528889
 21
99.93
  0
LINE
  5
413
100
AcDbEntity
  8
0
100
AcDbLine
 62
7
  6
CONTINUOUS
 10
94.9811223651
 20
100.53
 11
94.9811223651
 21
99.93
  0
LINE
  5
414
100
AcDbEntity
  8
0
100
AcDbLine
 62
7
  6
CONTINUOUS
 10
96.73484636
 20
100.53
 11
96.73484636
 21
99.93
  0
LINE
  5
415
100
AcDbEntity
  8
0
100
AcDbLine
 62
7
  6
CONTINUOUS
 10
98.3967237981
 20
135.3283328852
 11
98.4134096763
 21
135.514726239
  0
LINE
  5
416
100
AcDbEntity
  8
0
100
AcDbLine
 62
7
  6
CONTINUOUS
 10
97.4828712844
 20
132.5373099059
 11
97.5243453186
 21
132.7838457136
  0
LINE
  5
417
100
AcDbEntity
  8
0
100
AcDbLine
 62
7
  6
CONTINUOUS
 10
97.6971537878
 20
133.8110782065
 11
97.7455401743
 21
134.0987033939
  0
LINE
  5
418
100
AcDbEntity
  8
0
100
AcDbLine
 62
7
  6
CONTINUOUS
 10
99.9658621145
 20
136.8479043244
 11
100.0059275153
 21
137.082733778
  0
LINE
  5
419
100
AcDbEntity
  8
0
100
AcDbLine
 62
7
  6
CONTINUOUS
 10
105.7583475549
 20
137.8769677169
 11
105.2022903128
 21
136.2926610354
  0
LINE
  5
41A
100
AcDbEntity
  8
0
100
AcDbLine
 62
7
  6
CONTINUOUS
 10
105.4664012532
 20
136.3500426475
 11
106.126206275
 21
138.1247222919
  0
LINE
  5
41B
100
AcDbEntity
  8
0
100
AcDbLine
 62
7
  6
CONTINUOUS
 10
104.0304368835
 20
129.53
 11
105.7624876911
 21
132.53
  0
LINE
  5
41C
100
AcDbEntity
  8
0
100
AcDbLine
 62
7
  6
CONTINUOUS
 10
107.0184001676
 20
134.4122222508
 11
106.9278430407
 21
134.2582048049
  0
LINE
  5
41D
100
AcDbEntity
  8
0
100
AcDbLine
 62
7
  6
CONTINUOUS
 10
107.1248070587
 20
134.1820302718
 11
107.3276989606
 21
134.4096270852
  0
LINE
  5
41E
100
AcDbEntity
  8
0
100
AcDbLine
 62
7
  6
CONTINUOUS
 10
108.5723349985
 20
133.8832631668
 11
108.3694432595
 21
133.6556654095
  0
LINE
  5
41F
100
AcDbEntity
  8
0
100
AcDbLine
 62
7
  6
CONTINUOUS
 10
108.5362215078
 20
133.52815237
 11
108.6787418895
 21
133.6530711878
  0
LINE
  5
420
100
AcDbEntity
  8
0
100
AcDbLine
 62
7
  6
CONTINUOUS
 10
108.4238868813
 20
133.4545720547
 11
108.5362215078
 21
133.52815237
  0
LINE
  5
421
100
AcDbEntity
  8
0
100
AcDbLine
 62
7
  6
CONTINUOUS
 10
107.467738798
 20
134.7065415698
 11
107.2732550895
 21
134.6107213606
  0
LINE
  5
422
100
AcDbEntity
  8
0
100
AcDbLine
 62
7
  6
CONTINUOUS
 10
108.2294034796
 20
133.3587509405
 11
108.4238868813
 21
133.4545720547
  0
LINE
  5
423
100
AcDbEntity
  8
0
100
AcDbLine
 62
7
  6
CONTINUOUS
 10
107.3276989606
 20
134.4096270852
 11
107.563256865
 21
134.5165686299
  0
LINE
  5
424
100
AcDbEntity
  8
0
100
AcDbLine
 62
7
  6
CONTINUOUS
 10
108.3694432595
 20
133.6556654095
 11
108.1338851634
 21
133.5487248009
  0
LINE
  5
425
100
AcDbEntity
  8
0
100
AcDbLine
 62
7
  6
CONTINUOUS
 10
162.8597334732
 20
78.2586672056
 11
163.2294034796
 21
78.3587509405
  0
LINE
  5
426
100
AcDbEntity
  8
0
100
AcDbLine
 62
7
  6
CONTINUOUS
 10
163.1338851634
 20
78.5487248009
 11
162.8463640473
 21
78.4708818959
  0
LINE
  5
427
100
AcDbEntity
  8
0
100
AcDbLine
 62
7
  6
CONTINUOUS
 10
162.563256865
 20
79.5165686299
 11
162.850777981
 21
79.5944115349
  0
LINE
  5
428
100
AcDbEntity
  8
0
100
AcDbLine
 62
7
  6
CONTINUOUS
 10
162.8374088044
 20
79.8066253047
 11
162.467738798
 21
79.7065415698
  0
LINE
  5
429
100
AcDbEntity
  8
0
100
AcDbLine
 62
7
  6
CONTINUOUS
 10
97.3909087878
 20
69.03
 11
107.2058633641
 21
69.03
  0
LINE
  5
42A
100
AcDbEntity
  8
0
100
AcDbLine
 62
7
  6
CONTINUOUS
 10
152.3909087878
 20
69.03
 11
162.2058633641
 21
69.03
  0
LINE
  5
42B
100
AcDbEntity
  8
0
100
AcDbLine
 62
7
  6
CONTINUOUS
 10
97.6012045538
 20
79.9426480413
 11
97.4349357762
 21
79.9979939557
  0
LINE
  5
42C
100
AcDbEntity
  8
0
100
AcDbLine
 62
7
  6
CONTINUOUS
 10
97.3018420107
 20
79.7863666672
 11
97.5041325599
 21
79.7083667102
  0
LINE
  5
42D
100
AcDbEntity
  8
0
100
AcDbLine
 62
7
  6
CONTINUOUS
 10
99.3716538674
 20
83.1445730246
 11
99.206219538
 21
83.2370302166
  0
LINE
  5
42E
100
AcDbEntity
  8
0
100
AcDbLine
 62
7
  6
CONTINUOUS
 10
107.1673954253
 20
78.3733923866
 11
107.3232849981
 21
78.2860974385
  0
LINE
  5
42F
100
AcDbEntity
  8
0
100
AcDbLine
 62
7
  6
CONTINUOUS
 10
104.5608400242
 20
81.8246247953
 11
104.7532751842
 21
81.6650356064
  0
LINE
  5
430
100
AcDbEntity
  8
0
100
AcDbLine
 62
7
  6
CONTINUOUS
 10
105.2022903128
 20
81.2926610354
 11
105.4588710155
 21
81.0798750444
  0
LINE
  5
431
100
AcDbEntity
  8
0
100
AcDbLine
 62
7
  6
CONTINUOUS
 10
105.9078861441
 20
80.7075004733
 11
106.1003213041
 21
80.5479112845
  0
LINE
  5
432
100
AcDbEntity
  8
0
100
AcDbLine
 62
7
  6
CONTINUOUS
 10
107.2990269974
 20
78.5385302475
 11
107.1842118842
 21
78.6369456145
  0
LINE
  5
433
100
AcDbEntity
  8
0
100
AcDbLine
 62
7
  6
CONTINUOUS
 10
108.3981150597
 20
79.5267631911
 11
108.512930173
 21
79.4283478241
  0
LINE
  5
434
100
AcDbEntity
  8
0
100
AcDbLine
 62
7
  6
CONTINUOUS
 10
99.190387768
 20
82.9672220025
 11
99.3215718797
 21
82.8510359211
  0
LINE
  5
435
100
AcDbEntity
  8
0
100
AcDbLine
 62
7
  6
CONTINUOUS
 10
106.9897284573
 20
78.5411244936
 11
107.1673954253
 21
78.3733923866
  0
LINE
  5
436
100
AcDbEntity
  8
0
100
AcDbLine
 62
7
  6
CONTINUOUS
 10
108.7074138239
 20
79.5241680177
 11
108.5297466174
 21
79.6919010481
  0
LINE
  5
437
100
AcDbEntity
  8
0
100
AcDbLine
 62
7
  6
CONTINUOUS
 10
99.5270716184
 20
82.9934081705
 11
99.3716538674
 21
83.1445730246
  0
LINE
  5
438
100
AcDbEntity
  8
0
100
AcDbLine
 62
7
  6
CONTINUOUS
 10
106.3599907625
 20
79.9928981648
 11
106.4896169817
 21
79.7791294971
  0
LINE
  5
439
100
AcDbEntity
  8
0
100
AcDbLine
 62
7
  6
CONTINUOUS
 10
105.7624876911
 20
77.53
 11
104.0304368835
 21
80.53
  0
LINE
  5
43A
100
AcDbEntity
  8
0
100
AcDbLine
 62
7
  6
CONTINUOUS
 10
99.977493256
 20
82.2701060086
 11
99.8905752244
 21
82.4687280001
  0
LINE
  5
43B
100
AcDbEntity
  8
0
100
AcDbLine
 62
7
  6
CONTINUOUS
 10
99.6850754857
 20
82.3263557507
 11
99.7477599458
 21
82.162712434
  0
LINE
  5
43C
100
AcDbEntity
  8
0
100
AcDbLine
 62
7
  6
CONTINUOUS
 10
98.4134096763
 20
80.514726239
 11
98.358052262
 21
80.7464280836
  0
LINE
  5
43D
100
AcDbEntity
  8
0
100
AcDbLine
 62
7
  6
CONTINUOUS
 10
100.0059275153
 20
82.082733778
 11
99.977493256
 21
82.2701060086
  0
LWPOLYLINE
  5
43E
100
AcDbEntity
  8
BEZUGSACHSEN
100
AcDbPolyline
 62
7
  6
CONTINUOUS
 90
14
 70
0
 10
99.736598095
 20
98.8634598794
 10
99.7436526344
 20
98.6947656714
 10
99.77231822
 20
98.4852161742
 10
99.8200612714
 20
98.2886913291
 10
99.8846139502
 20
98.1042153924
 10
99.9642112845
 20
97.9314670492
 10
100.0583578563
 20
97.7688795221
 10
100.1647033601
 20
97.6187052534
 10
100.2812697534
 20
97.4817419488
 10
100.4058209386
 20
97.3586655852
 10
100.5363618874
 20
97.2495322919
 10
100.6704120275
 20
97.1544688604
 10
100.8063666267
 20
97.0726602662
 10
100.9411537402
 20
97.0038836038
  0
LINE
  5
43F
100
AcDbEntity
  8
0
100
AcDbLine
 62
7
  6
CONTINUOUS
 10
98.1529152456
 20
80.5801094009
 11
98.1584117091
 21
80.4289873024
  0
LINE
  5
440
100
AcDbEntity
  8
0
100
AcDbLine
 62
7
  6
CONTINUOUS
 10
98.1529152456
 20
135.5801094009
 11
98.1584117091
 21
135.4289873024
  0
LINE
  5
441
100
AcDbEntity
  8
0
100
AcDbLine
 62
7
  6
CONTINUOUS
 10
99.7477599458
 20
82.162712434
 11
99.7519606166
 21
82.0103189027
  0
LINE
  5
442
100
AcDbEntity
  8
0
100
AcDbLine
 62
7
  6
CONTINUOUS
 10
99.7477599458
 20
137.162712434
 11
99.7519606166
 21
137.0103189027
  0
LINE
  5
443
100
AcDbEntity
  8
0
100
AcDbLine
 62
7
  6
CONTINUOUS
 10
97.2692264321
 20
100.53
 11
97.2692264321
 21
99.93
  0
LINE
  5
444
100
AcDbEntity
  8
0
100
AcDbLine
 62
7
  6
CONTINUOUS
 10
97.6364965514
 20
100.53
 11
97.6364965514
 21
99.93
  0
LINE
  5
445
100
AcDbEntity
  8
0
100
AcDbLine
 62
7
  6
CONTINUOUS
 10
97.9033775531
 20
100.53
 11
97.9033775531
 21
99.93
  0
LINE
  5
446
100
AcDbEntity
  8
0
100
AcDbLine
 62
7
  6
CONTINUOUS
 10
97.9364287005
 20
100.53
 11
97.9364287005
 21
99.93
  0
LINE
  5
447
100
AcDbEntity
  8
0
100
AcDbLine
 62
7
  6
CONTINUOUS
 10
99.1190504289
 20
109.53
 11
99.1190504289
 21
110.03
  0
LINE
  5
448
100
AcDbEntity
  8
BEZUGSACHSEN
100
AcDbLine
 62
7
  6
CONTINUOUS
 10
99.7365992125
 20
98.8634293341
 11
99.7365992125
 21
100.53
  0
LINE
  5
449
100
AcDbEntity
  8
BEZUGSACHSEN
100
AcDbLine
 62
7
  6
CONTINUOUS
 10
99.7365992125
 20
109.53
 11
99.7365992125
 21
111.1965706659
  0
LINE
  5
44A
100
AcDbEntity
  8
0
100
AcDbLine
 62
7
  6
CONTINUOUS
 10
98.3967237981
 20
80.3283328852
 11
98.4134096763
 21
80.514726239
  0
LINE
  5
44B
100
AcDbEntity
  8
0
100
AcDbLine
 62
7
  6
CONTINUOUS
 10
95.6764809595
 20
78.8552454104
 11
95.5105848226
 21
77.8691021795
  0
LINE
  5
44C
100
AcDbEntity
  8
0
100
AcDbLine
 62
7
  6
CONTINUOUS
 10
95.7618765405
 20
78.080340941
 11
95.8932109756
 21
78.8610376263
  0
LINE
  5
44D
100
AcDbEntity
  8
0
100
AcDbLine
 62
7
  6
CONTINUOUS
 10
106.9278430407
 20
134.2582048049
 11
106.8590635655
 21
134.0237492816
  0
LINE
  5
44E
100
AcDbEntity
  8
0
100
AcDbLine
 62
7
  6
CONTINUOUS
 10
107.0753243913
 20
134.0391332448
 11
107.1248070587
 21
134.1820302718
  0
LINE
  5
44F
100
AcDbEntity
  8
0
100
AcDbLine
 62
7
  6
CONTINUOUS
 10
108.6218176659
 20
134.0261601938
 11
108.5723349985
 21
133.8832631668
  0
LINE
  5
450
100
AcDbEntity
  8
0
100
AcDbLine
 62
7
  6
CONTINUOUS
 10
107.2058633641
 20
124.03
 11
112.1133406522
 21
132.53
  0
LINE
  5
451
100
AcDbEntity
  8
0
100
AcDbLine
 62
7
  6
CONTINUOUS
 10
108.6787418895
 20
133.6530711878
 11
108.769299002
 21
133.8070886298
  0
LINE
  5
452
100
AcDbEntity
  8
0
100
AcDbLine
 62
7
  6
CONTINUOUS
 10
152.6925837522
 20
79.688292146
 11
152.9253993934
 21
79.7387598175
  0
LINE
  5
453
100
AcDbEntity
  8
0
100
AcDbLine
 62
7
  6
CONTINUOUS
 10
152.7455401743
 20
79.0987033939
 11
151.7181676605
 21
78.8912661145
  0
LINE
  5
454
100
AcDbEntity
  8
0
100
AcDbLine
 62
7
  6
CONTINUOUS
 10
151.7606206898
 20
78.6306114296
 11
152.6971537878
 21
78.8110782065
  0
LINE
  5
455
100
AcDbEntity
  8
0
100
AcDbLine
 62
7
  6
CONTINUOUS
 10
151.0536632876
 20
79.0453059442
 11
151.1864662302
 21
79.0652169786
  0
LINE
  5
456
100
AcDbEntity
  8
0
100
AcDbLine
 62
7
  6
CONTINUOUS
 10
151.2279402644
 20
79.3117527863
 11
151.0951373218
 21
79.2918417519
  0
LINE
  5
457
100
AcDbEntity
  8
0
100
AcDbLine
 62
7
  6
CONTINUOUS
 10
162.8463640473
 20
78.4708818959
 11
162.5890287441
 21
78.4443775091
  0
LINE
  5
458
100
AcDbEntity
  8
0
100
AcDbLine
 62
7
  6
CONTINUOUS
 10
162.850777981
 20
79.5944115349
 11
163.108113476
 21
79.6209149857
  0
LINE
  5
459
100
AcDbEntity
  8
0
100
AcDbLine
 62
7
  6
CONTINUOUS
 10
162.6434723659
 20
78.2432841542
 11
162.8597334732
 21
78.2586672056
  0
LINE
  5
45A
100
AcDbEntity
  8
0
100
AcDbLine
 62
7
  6
CONTINUOUS
 10
100.5663352684
 20
74.53
 11
104.0304368835
 21
74.53
  0
LINE
  5
45B
100
AcDbEntity
  8
0
100
AcDbLine
 62
7
  6
CONTINUOUS
 10
155.5663352684
 20
74.53
 11
159.0304368835
 21
74.53
  0
LINE
  5
45C
100
AcDbEntity
  8
0
100
AcDbLine
 62
7
  6
CONTINUOUS
 10
95.5105848226
 20
77.8691021795
 11
97.4828712844
 21
77.5373099059
  0
LINE
  5
45D
100
AcDbEntity
  8
0
100
AcDbLine
 62
7
  6
CONTINUOUS
 10
97.5243453186
 20
77.7838457136
 11
96.6431109296
 21
77.9320933273
  0
LINE
  5
45E
100
AcDbEntity
  8
0
100
AcDbLine
 62
7
  6
CONTINUOUS
 10
96.3913297091
 20
77.9744497827
 11
95.7618765405
 21
78.080340941
  0
LINE
  5
45F
100
AcDbEntity
  8
0
100
AcDbLine
 62
7
  6
CONTINUOUS
 10
96.1864662302
 20
79.0652169786
 11
96.312356958
 21
79.0440387311
  0
LINE
  5
460
100
AcDbEntity
  8
0
100
AcDbLine
 62
7
  6
CONTINUOUS
 10
96.3957945289
 20
79.2835151296
 11
96.2279402644
 21
79.3117527863
  0
LINE
  5
461
100
AcDbEntity
  8
0
100
AcDbLine
 62
7
  6
CONTINUOUS
 10
107.3232849981
 20
78.2860974385
 11
107.5093602064
 21
78.2501419484
  0
LINE
  5
462
100
AcDbEntity
  8
0
100
AcDbLine
 62
7
  6
CONTINUOUS
 10
108.373857059
 20
79.7791960001
 11
108.1877818795
 21
79.815151498
  0
LINE
  5
463
100
AcDbEntity
  8
0
100
AcDbLine
 62
7
  6
CONTINUOUS
 10
107.5890287441
 20
78.4443775091
 11
107.2990269974
 21
78.5385302475
  0
LINE
  5
464
100
AcDbEntity
  8
0
100
AcDbLine
 62
7
  6
CONTINUOUS
 10
108.108113476
 20
79.6209149857
 11
108.3981150597
 21
79.5267631911
  0
LINE
  5
465
100
AcDbEntity
  8
0
100
AcDbLine
 62
7
  6
CONTINUOUS
 10
99.0491869422
 20
83.0247006178
 11
99.190387768
 21
82.9672220025
  0
LINE
  5
466
100
AcDbEntity
  8
0
100
AcDbLine
 62
7
  6
CONTINUOUS
 10
108.5297466174
 20
79.6919010481
 11
108.373857059
 21
79.7791960001
  0
LINE
  5
467
100
AcDbEntity
  8
0
100
AcDbLine
 62
7
  6
CONTINUOUS
 10
107.3770348149
 20
82.0873925644
 11
107.0883820749
 21
82.3267763477
  0
LINE
  5
468
100
AcDbEntity
  8
0
100
AcDbLine
 62
7
  6
CONTINUOUS
 10
106.126206275
 20
83.1247222919
 11
105.837553535
 21
83.3641060752
  0
LINE
  5
469
100
AcDbEntity
  8
0
100
AcDbLine
 62
7
  6
CONTINUOUS
 10
108.1997663234
 20
80.8161392506
 11
108.0701401042
 21
81.0299079184
  0
LINE
  5
46A
100
AcDbEntity
  8
0
100
AcDbLine
 62
7
  6
CONTINUOUS
 10
112.1133406522
 20
77.53
 11
107.2058633641
 21
86.03
  0
LINE
  5
46B
100
AcDbEntity
  8
0
100
AcDbLine
 62
7
  6
CONTINUOUS
 10
107.1842118842
 20
78.6369456145
 11
107.0886938172
 21
78.8269185544
  0
LINE
  5
46C
100
AcDbEntity
  8
0
100
AcDbLine
 62
7
  6
CONTINUOUS
 10
108.512930173
 20
79.4283478241
 11
108.6084484892
 21
79.2383739637
  0
LINE
  5
46D
100
AcDbEntity
  8
0
100
AcDbLine
 62
7
  6
CONTINUOUS
 10
106.8833215627
 20
78.7713164716
 11
106.9897284573
 21
78.5411244936
  0
LINE
  5
46E
100
AcDbEntity
  8
0
100
AcDbLine
 62
7
  6
CONTINUOUS
 10
108.8138207149
 20
79.2939760386
 11
108.7074138239
 21
79.5241680177
  0
LINE
  5
46F
100
AcDbEntity
  8
0
100
AcDbLine
 62
7
  6
CONTINUOUS
 10
106.8590635655
 20
79.0237492816
 11
106.8833215627
 21
78.7713164716
  0
LINE
  5
470
100
AcDbEntity
  8
0
100
AcDbLine
 62
7
  6
CONTINUOUS
 10
96.5226641442
 20
78.755146468
 11
96.3913297091
 21
77.9744497827
  0
LINE
  5
471
100
AcDbEntity
  8
0
100
AcDbLine
 62
7
  6
CONTINUOUS
 10
96.6431109296
 20
77.9320933273
 11
96.7606206898
 21
78.6306114296
  0
LINE
  5
472
100
AcDbEntity
  8
0
100
AcDbLine
 62
7
  6
CONTINUOUS
 10
97.4828712844
 20
77.5373099059
 11
97.5243453186
 21
77.7838457136
  0
LINE
  5
473
100
AcDbEntity
  8
0
100
AcDbLine
 62
7
  6
CONTINUOUS
 10
97.6971537878
 20
78.8110782065
 11
97.7455401743
 21
79.0987033939
  0
LINE
  5
474
100
AcDbEntity
  8
0
100
AcDbLine
 62
7
  6
CONTINUOUS
 10
99.9658621145
 20
81.8479043244
 11
100.0059275153
 21
82.082733778
  0
LINE
  5
475
100
AcDbEntity
  8
0
100
AcDbLine
 62
7
  6
CONTINUOUS
 10
108.769299002
 20
133.8070886298
 11
108.8380787157
 21
134.0415432296
  0
LWPOLYLINE
  5
476
100
AcDbEntity
  8
BEZUGSACHSEN
100
AcDbPolyline
 62
7
  6
CONTINUOUS
 90
5
 70
0
 10
101.9276334375
 20
113.6959920345
 10
101.9331359341
 20
113.7038670035
 10
101.9503805291
 20
113.7260818367
 10
101.946520343
 20
113.7223499925
 10
101.932874019
 20
113.7098250707
  0
LINE
  5
477
100
AcDbEntity
  8
BEZUGSACHSEN
100
AcDbLine
 62
7
  6
CONTINUOUS
 10
101.9325812122
 20
113.7095490767
 11
101.7599099665
 21
113.5578838393
  0
LWPOLYLINE
  5
478
100
AcDbEntity
  8
BEZUGSACHSEN
100
AcDbPolyline
 62
7
  6
CONTINUOUS
 90
6
 70
0
 10
101.7597847686
 20
113.5577740179
 10
101.6665994277
 20
113.4787023428
 10
101.5356983317
 20
113.3771027679
 10
101.410268289
 20
113.2904172176
 10
101.2880686158
 20
113.2164243855
 10
101.1672964194
 20
113.1540097178
  0
LINE
  5
479
100
AcDbEntity
  8
0
100
AcDbLine
 62
7
  6
CONTINUOUS
 10
153.9722855569
 20
83.2820301733
 11
153.7868187188
 21
83.2570727804
  0
LINE
  5
47A
100
AcDbEntity
  8
0
100
AcDbLine
 62
7
  6
CONTINUOUS
 10
163.053669605
 20
79.822009261
 11
162.8374088044
 21
79.8066253047
  0
LINE
  5
47B
100
AcDbEntity
  8
0
100
AcDbLine
 62
7
  6
CONTINUOUS
 10
107.6434723659
 20
78.2432841542
 11
107.8597334732
 21
78.2586672056
  0
LINE
  5
47C
100
AcDbEntity
  8
0
100
AcDbLine
 62
7
  6
CONTINUOUS
 10
152.7536341397
 20
79.9452278383
 11
152.6012045538
 21
79.9426480413
  0
LINE
  5
47D
100
AcDbEntity
  8
0
100
AcDbLine
 62
7
  6
CONTINUOUS
 10
97.7536341397
 20
79.9452278383
 11
97.6012045538
 21
79.9426480413
  0
LINE
  5
47E
100
AcDbEntity
  8
0
100
AcDbLine
 62
7
  6
CONTINUOUS
 10
159.0304368835
 20
80.53
 11
155.5663352684
 21
80.53
  0
LINE
  5
47F
100
AcDbEntity
  8
0
100
AcDbLine
 62
7
  6
CONTINUOUS
 10
104.0304368835
 20
80.53
 11
100.5663352684
 21
80.53
  0
LINE
  5
480
100
AcDbEntity
  8
0
100
AcDbLine
 62
7
  6
CONTINUOUS
 10
107.5093602064
 20
78.2501419484
 11
107.6434723659
 21
78.2432841542
  0
LINE
  5
481
100
AcDbEntity
  8
0
100
AcDbLine
 62
7
  6
CONTINUOUS
 10
108.1877818795
 20
79.815151498
 11
108.053669605
 21
79.822009261
  0
LINE
  5
482
100
AcDbEntity
  8
0
100
AcDbLine
 62
7
  6
CONTINUOUS
 10
162.5093602064
 20
78.2501419484
 11
162.6434723659
 21
78.2432841542
  0
LINE
  5
483
100
AcDbEntity
  8
0
100
AcDbLine
 62
7
  6
CONTINUOUS
 10
97.5041325599
 20
79.7083667102
 11
97.6925837522
 21
79.688292146
  0
LINE
  5
484
100
AcDbEntity
  8
0
100
AcDbLine
 62
7
  6
CONTINUOUS
 10
107.3947215051
 20
80.9127160041
 11
107.7790508893
 21
80.8533956409
  0
LINE
  5
485
100
AcDbEntity
  8
0
100
AcDbLine
 62
7
  6
CONTINUOUS
 10
108.0701401042
 20
81.0299079184
 11
107.685810822
 21
81.0892283433
  0
LINE
  5
486
100
AcDbEntity
  8
0
100
AcDbLine
 62
7
  6
CONTINUOUS
 10
99.206219538
 20
83.2370302166
 11
98.9722855569
 21
83.2820301733
  0
LINE
  5
487
100
AcDbEntity
  8
BEZUGSACHSEN
100
AcDbLine
 62
7
  6
CONTINUOUS
 10
101.7597838194
 20
96.5022269739
 11
101.9325812122
 21
96.3504509233
  0
LWPOLYLINE
  5
488
100
AcDbEntity
  8
BEZUGSACHSEN
100
AcDbPolyline
 62
7
  6
CONTINUOUS
 90
3
 70
0
 10
101.9328722956
 20
96.3501764422
 10
101.9466099124
 20
96.3375633689
 10
101.951730424
 20
96.3324131299
  0
LINE
  5
489
100
AcDbEntity
  8
0
100
AcDbLine
 62
7
  6
CONTINUOUS
 10
96.5014376246
 20
133.8854737811
 11
96.5226641442
 21
133.755146468
  0
LINE
  5
48A
100
AcDbEntity
  8
0
100
AcDbLine
 62
7
  6
CONTINUOUS
 10
100.0059275153
 20
137.082733778
 11
99.977493256
 21
137.2701060086
  0
LINE
  5
48B
100
AcDbEntity
  8
0
100
AcDbLine
 62
7
  6
CONTINUOUS
 10
108.8380787157
 20
79.0415432296
 11
108.8138207149
 21
79.2939760386
  0
LINE
  5
48C
100
AcDbEntity
  8
0
100
AcDbLine
 62
7
  6
CONTINUOUS
 10
107.0886938172
 20
78.8269185544
 11
107.0753243913
 21
79.0391332448
  0
LINE
  5
48D
100
AcDbEntity
  8
0
100
AcDbLine
 62
7
  6
CONTINUOUS
 10
108.6084484892
 20
79.2383739637
 11
108.6218176659
 21
79.0261601938
  0
LINE
  5
48E
100
AcDbEntity
  8
0
100
AcDbLine
 62
7
  6
CONTINUOUS
 10
107.0886938172
 20
133.8269185544
 11
107.0753243913
 21
134.0391332448
  0
LINE
  5
48F
100
AcDbEntity
  8
0
100
AcDbLine
 62
7
  6
CONTINUOUS
 10
98.1584117091
 20
80.4289873024
 11
98.1057041768
 21
80.265248199
  0
LINE
  5
490
100
AcDbEntity
  8
0
100
AcDbLine
 62
7
  6
CONTINUOUS
 10
98.3218340699
 20
80.1293227164
 11
98.3967237981
 21
80.3283328852
  0
LINE
  5
491
100
AcDbEntity
  8
0
100
AcDbLine
 62
7
  6
CONTINUOUS
 10
95.753006198
 20
79.0536325467
 11
95.6764809595
 21
78.8552454104
  0
LINE
  5
492
100
AcDbEntity
  8
0
100
AcDbLine
 62
7
  6
CONTINUOUS
 10
153.7868187188
 20
138.2570727804
 11
153.5913352344
 21
138.1734078235
  0
LINE
  5
493
100
AcDbEntity
  8
0
100
AcDbLine
 62
7
  6
CONTINUOUS
 10
153.7367366633
 20
137.963535775
 11
153.8979699299
 21
138.0234718426
  0
LINE
  5
494
100
AcDbEntity
  8
0
100
AcDbLine
 62
7
  6
CONTINUOUS
 10
96.0536632876
 20
79.0453059442
 11
96.1864662302
 21
79.0652169786
  0
LINE
  5
495
100
AcDbEntity
  8
0
100
AcDbLine
 62
7
  6
CONTINUOUS
 10
96.2279402644
 20
79.3117527863
 11
96.0951373218
 21
79.2918417519
  0
LINE
  5
496
100
AcDbEntity
  8
0
100
AcDbLine
 62
7
  6
CONTINUOUS
 10
107.8463640473
 20
78.4708818959
 11
107.5890287441
 21
78.4443775091
  0
LINE
  5
497
100
AcDbEntity
  8
0
100
AcDbLine
 62
7
  6
CONTINUOUS
 10
107.850777981
 20
79.5944115349
 11
108.108113476
 21
79.6209149857
  0
LINE
  5
498
100
AcDbEntity
  8
0
100
AcDbLine
 62
7
  6
CONTINUOUS
 10
108.053669605
 20
79.822009261
 11
107.8374088044
 21
79.8066253047
  0
LINE
  5
499
100
AcDbEntity
  8
0
100
AcDbLine
 62
7
  6
CONTINUOUS
 10
153.8979699299
 20
83.0234718426
 11
154.0491869422
 21
83.0247006178
  0
LINE
  5
49A
100
AcDbEntity
  8
0
100
AcDbLine
 62
7
  6
CONTINUOUS
 10
98.8979699299
 20
83.0234718426
 11
99.0491869422
 21
83.0247006178
  0
LINE
  5
49B
100
AcDbEntity
  8
0
100
AcDbLine
 62
7
  6
CONTINUOUS
 10
163.1877818795
 20
79.815151498
 11
163.053669605
 21
79.822009261
  0
LINE
  5
49C
100
AcDbEntity
  8
0
100
AcDbLine
 62
7
  6
CONTINUOUS
 10
152.5041325599
 20
79.7083667102
 11
152.6925837522
 21
79.688292146
  0
LINE
  5
49D
100
AcDbEntity
  8
0
100
AcDbLine
 62
7
  6
CONTINUOUS
 10
150.5105848226
 20
77.8691021795
 11
152.4828712844
 21
77.5373099059
  0
LINE
  5
49E
100
AcDbEntity
  8
0
100
AcDbLine
 62
7
  6
CONTINUOUS
 10
152.5243453186
 20
77.7838457136
 11
151.6431109296
 21
77.9320933273
  0
LINE
  5
49F
100
AcDbEntity
  8
0
100
AcDbLine
 62
7
  6
CONTINUOUS
 10
151.3913297091
 20
77.9744497827
 11
150.7618765405
 21
78.080340941
  0
LINE
  5
4A0
100
AcDbEntity
  8
0
100
AcDbLine
 62
7
  6
CONTINUOUS
 10
151.1864662302
 20
79.0652169786
 11
151.312356958
 21
79.0440387311
  0
LINE
  5
4A1
100
AcDbEntity
  8
0
100
AcDbLine
 62
7
  6
CONTINUOUS
 10
151.3957945289
 20
79.2835151296
 11
151.2279402644
 21
79.3117527863
  0
LINE
  5
4A2
100
AcDbEntity
  8
0
100
AcDbLine
 62
7
  6
CONTINUOUS
 10
96.7181676605
 20
133.8912661145
 11
96.6618899365
 21
134.069742099
  0
LINE
  5
4A3
100
AcDbEntity
  8
0
100
AcDbLine
 62
7
  6
CONTINUOUS
 10
98.4134096763
 20
135.514726239
 11
98.358052262
 21
135.7464280836
  0
LINE
  5
4A4
100
AcDbEntity
  8
0
100
AcDbLine
 62
7
  6
CONTINUOUS
 10
106.8590635655
 20
134.0237492816
 11
106.8833215627
 21
133.7713164716
  0
LINE
  5
4A5
100
AcDbEntity
  8
0
100
AcDbLine
 62
7
  6
CONTINUOUS
 10
108.8380787157
 20
134.0415432296
 11
108.8138207149
 21
134.2939760386
  0
LINE
  5
4A6
100
AcDbEntity
  8
0
100
AcDbLine
 62
7
  6
CONTINUOUS
 10
108.6084484892
 20
134.2383739637
 11
108.6218176659
 21
134.0261601938
  0
LINE
  5
4A7
100
AcDbEntity
  8
0
100
AcDbLine
 62
7
  6
CONTINUOUS
 10
99.7519606166
 20
82.0103189027
 11
99.6976779072
 21
81.869175404
  0
LINE
  5
4A8
100
AcDbEntity
  8
0
100
AcDbLine
 62
7
  6
CONTINUOUS
 10
95.8932109756
 20
78.8610376263
 11
95.9559115294
 21
78.9772461209
  0
LINE
  5
4A9
100
AcDbEntity
  8
0
100
AcDbLine
 62
7
  6
CONTINUOUS
 10
97.3909087878
 20
86.03
 11
92.4834314997
 21
77.53
  0
LINE
  5
4AA
100
AcDbEntity
  8
0
100
AcDbLine
 62
7
  6
CONTINUOUS
 10
151.0951373218
 20
134.2918417519
 11
150.9065461577
 21
134.196811485
  0
LINE
  5
4AB
100
AcDbEntity
  8
0
100
AcDbLine
 62
7
  6
CONTINUOUS
 10
152.8922243052
 20
135.0057329273
 11
152.7536341397
 21
134.9452278383
  0
LWPOLYLINE
  5
4AC
100
AcDbEntity
  8
BEZUGSACHSEN
100
AcDbPolyline
 62
7
  6
CONTINUOUS
 90
15
 70
0
 10
101.1672964194
 20
113.1540097178
 10
100.9420942679
 20
113.0565574078
 10
100.8077380409
 20
112.9880980981
 10
100.6721812174
 20
112.9066846981
 10
100.5384805316
 20
112.8120952261
 10
100.4082281448
 20
112.7035163533
 10
100.2838745387
 20
112.5810549504
 10
100.1674429796
 20
112.4448078541
 10
100.061179276
 20
112.2954997855
 10
99.9670162195
 20
112.1339188269
 10
99.8872754944
 20
111.9623225037
 10
99.82239376
 20
111.7791153615
 10
99.774081468
 20
111.5839226217
 10
99.7445640176
 20
111.3757791214
 10
99.7365980963
 20
111.1965396941
  0
LINE
  5
4AD
100
AcDbEntity
  8
BEZUGSACHSEN
100
AcDbLine
 62
7
  6
CONTINUOUS
 10
101.0756769701
 20
113.1142276048
 11
101.0749873976
 21
113.1139540528
  0
LINE
  5
4AE
100
AcDbEntity
  8
0
100
AcDbLine
 62
7
  6
CONTINUOUS
 10
107.8597334732
 20
78.2586672056
 11
108.2294034796
 21
78.3587509405
  0
LINE
  5
4AF
100
AcDbEntity
  8
0
100
AcDbLine
 62
7
  6
CONTINUOUS
 10
108.1338851634
 20
78.5487248009
 11
107.8463640473
 21
78.4708818959
  0
LINE
  5
4B0
100
AcDbEntity
  8
0
100
AcDbLine
 62
7
  6
CONTINUOUS
 10
107.563256865
 20
79.5165686299
 11
107.850777981
 21
79.5944115349
  0
LINE
  5
4B1
100
AcDbEntity
  8
0
100
AcDbLine
 62
7
  6
CONTINUOUS
 10
107.8374088044
 20
79.8066253047
 11
107.467738798
 21
79.7065415698
  0
LINE
  5
4B2
100
AcDbEntity
  8
0
100
AcDbLine
 62
7
  6
CONTINUOUS
 10
97.6925837522
 20
79.688292146
 11
97.9253993934
 21
79.7387598175
  0
LINE
  5
4B3
100
AcDbEntity
  8
0
100
AcDbLine
 62
7
  6
CONTINUOUS
 10
97.7455401743
 20
79.0987033939
 11
96.7181676605
 21
78.8912661145
  0
LINE
  5
4B4
100
AcDbEntity
  8
0
100
AcDbLine
 62
7
  6
CONTINUOUS
 10
96.7606206898
 20
78.6306114296
 11
97.6971537878
 21
78.8110782065
  0
LINE
  5
4B5
100
AcDbEntity
  8
0
100
AcDbLine
 62
7
  6
CONTINUOUS
 10
98.9722855569
 20
83.2820301733
 11
98.7868187188
 21
83.2570727804
  0
LINE
  5
4B6
100
AcDbEntity
  8
0
100
AcDbLine
 62
7
  6
CONTINUOUS
 10
162.2058633641
 20
86.03
 11
152.3909087878
 21
86.03
  0
LINE
  5
4B7
100
AcDbEntity
  8
0
100
AcDbLine
 62
7
  6
CONTINUOUS
 10
107.2058633641
 20
86.03
 11
97.3909087878
 21
86.03
  0
LINE
  5
4B8
100
AcDbEntity
  8
0
100
AcDbLine
 62
7
  6
CONTINUOUS
 10
162.3947215051
 20
80.9127160041
 11
162.7790508893
 21
80.8533956409
  0
LINE
  5
4B9
100
AcDbEntity
  8
0
100
AcDbLine
 62
7
  6
CONTINUOUS
 10
163.0701401042
 20
81.0299079184
 11
162.685810822
 21
81.0892283433
  0
LINE
  5
4BA
100
AcDbEntity
  8
0
100
AcDbLine
 62
7
  6
CONTINUOUS
 10
154.206219538
 20
83.2370302166
 11
153.9722855569
 21
83.2820301733
  0
LINE
  5
4BB
100
AcDbEntity
  8
0
100
AcDbLine
 62
7
  6
CONTINUOUS
 10
162.3232849981
 20
78.2860974385
 11
162.5093602064
 21
78.2501419484
  0
LINE
  5
4BC
100
AcDbEntity
  8
0
100
AcDbLine
 62
7
  6
CONTINUOUS
 10
163.373857059
 20
79.7791960001
 11
163.1877818795
 21
79.815151498
  0
LINE
  5
4BD
100
AcDbEntity
  8
0
100
AcDbLine
 62
7
  6
CONTINUOUS
 10
152.6012045538
 20
79.9426480413
 11
152.4349357762
 21
79.9979939557
  0
LINE
  5
4BE
100
AcDbEntity
  8
BEZUGSACHSEN
100
AcDbLine
 62
7
  6
CONTINUOUS
 10
101.0756763326
 20
96.9457726479
 11
101.0749690872
 21
96.9460532158
  0
LWPOLYLINE
  5
4BF
100
AcDbEntity
  8
BEZUGSACHSEN
100
AcDbPolyline
 62
7
  6
CONTINUOUS
 90
7
 70
0
 10
100.9411537402
 20
97.0038836038
 10
101.1672846215
 20
96.9059958348
 10
101.2880615222
 20
96.8435795997
 10
101.4102952437
 20
96.7695653038
 10
101.5357545214
 20
96.682856032
 10
101.66664322
 20
96.5812618052
 10
101.7597837411
 20
96.5022268848
  0
LINE
  5
4C0
100
AcDbEntity
  8
0
100
AcDbLine
 62
7
  6
CONTINUOUS
 10
92.4834314997
 20
132.53
 11
97.3909087878
 21
124.03
  0
LINE
  5
4C1
100
AcDbEntity
  8
0
100
AcDbLine
 62
7
  6
CONTINUOUS
 10
99.6850754857
 20
137.3263557507
 11
99.7477599458
 21
137.162712434
  0
LINE
  5
4C2
100
AcDbEntity
  8
0
100
AcDbLine
 62
7
  6
CONTINUOUS
 10
106.9278430407
 20
79.2582048049
 11
106.8590635655
 21
79.0237492816
  0
LINE
  5
4C3
100
AcDbEntity
  8
0
100
AcDbLine
 62
7
  6
CONTINUOUS
 10
108.769299002
 20
78.8070886298
 11
108.8380787157
 21
79.0415432296
  0
LINE
  5
4C4
100
AcDbEntity
  8
0
100
AcDbLine
 62
7
  6
CONTINUOUS
 10
107.0753243913
 20
79.0391332448
 11
107.1248070587
 21
79.1820302718
  0
LINE
  5
4C5
100
AcDbEntity
  8
0
100
AcDbLine
 62
7
  6
CONTINUOUS
 10
105.7583475549
 20
82.8769677169
 11
105.2022903128
 21
81.2926610354
  0
LINE
  5
4C6
100
AcDbEntity
  8
0
100
AcDbLine
 62
7
  6
CONTINUOUS
 10
105.4664012532
 20
81.3500426475
 11
106.126206275
 21
83.1247222919
  0
LINE
  5
4C7
100
AcDbEntity
  8
0
100
AcDbLine
 62
7
  6
CONTINUOUS
 10
99.8773295686
 20
81.6830322233
 11
99.9658621145
 21
81.8479043244
  0
LINE
  5
4C8
100
AcDbEntity
  8
0
100
AcDbLine
 62
7
  6
CONTINUOUS
 10
100.5663352684
 20
80.53
 11
98.8342844608
 21
77.53
  0
LINE
  5
4C9
100
AcDbEntity
  8
0
100
AcDbLine
 62
7
  6
CONTINUOUS
 10
96.9837331506
 20
81.7584115662
 11
96.8506394487
 21
81.5467843787
  0
LINE
  5
4CA
100
AcDbEntity
  8
0
100
AcDbLine
 62
7
  6
CONTINUOUS
 10
96.3182646408
 20
80.7002756286
 11
96.1851708754
 21
80.4886483402
  0
LINE
  5
4CB
100
AcDbEntity
  8
0
100
AcDbLine
 62
7
  6
CONTINUOUS
 10
98.1057041768
 20
80.265248199
 11
98.0169749998
 21
80.12416334
  0
LINE
  5
4CC
100
AcDbEntity
  8
0
100
AcDbLine
 62
7
  6
CONTINUOUS
 10
98.2331048929
 20
79.9882378575
 11
98.3218340699
 21
80.1293227164
  0
LINE
  5
4CD
100
AcDbEntity
  8
0
100
AcDbLine
 62
7
  6
CONTINUOUS
 10
153.5913352344
 20
138.1734078235
 11
152.7693362796
 21
137.6039188261
  0
LINE
  5
4CE
100
AcDbEntity
  8
0
100
AcDbLine
 62
7
  6
CONTINUOUS
 10
153.1202374471
 20
137.5364190269
 11
153.7367366633
 21
137.963535775
  0
LINE
  5
4CF
100
AcDbEntity
  8
0
100
AcDbLine
 62
7
  6
CONTINUOUS
 10
154.5849117835
 20
136.7392819869
 11
153.9684125674
 21
136.3121652388
  0
LINE
  5
4D0
100
AcDbEntity
  8
0
100
AcDbLine
 62
7
  6
CONTINUOUS
 10
152.9253993934
 20
134.7387598175
 11
153.0861718691
 21
134.8345361816
  0
LINE
  5
4D1
100
AcDbEntity
  8
0
100
AcDbLine
 62
7
  6
CONTINUOUS
 10
162.467738798
 20
134.7065415698
 11
162.2732550895
 21
134.6107213606
  0
LINE
  5
4D2
100
AcDbEntity
  8
0
100
AcDbLine
 62
7
  6
CONTINUOUS
 10
162.3276989606
 20
134.4096270852
 11
162.563256865
 21
134.5165686299
  0
LINE
  5
4D3
100
AcDbEntity
  8
0
100
AcDbLine
 62
7
  6
CONTINUOUS
 10
163.3694432595
 20
133.6556654095
 11
163.1338851634
 21
133.5487248009
  0
LINE
  5
4D4
100
AcDbEntity
  8
0
100
AcDbLine
 62
7
  6
CONTINUOUS
 10
162.5890287441
 20
78.4443775091
 11
162.2990269974
 21
78.5385302475
  0
LINE
  5
4D5
100
AcDbEntity
  8
0
100
AcDbLine
 62
7
  6
CONTINUOUS
 10
163.108113476
 20
79.6209149857
 11
163.3981150597
 21
79.5267631911
  0
LINE
  5
4D6
100
AcDbEntity
  8
0
100
AcDbLine
 62
7
  6
CONTINUOUS
 10
152.3018420107
 20
79.7863666672
 11
152.5041325599
 21
79.7083667102
  0
LINE
  5
4D7
100
AcDbEntity
  8
0
100
AcDbLine
 62
7
  6
CONTINUOUS
 10
151.312356958
 20
79.0440387311
 11
151.4313352357
 21
78.9817712413
  0
LINE
  5
4D8
100
AcDbEntity
  8
0
100
AcDbLine
 62
7
  6
CONTINUOUS
 10
151.5147728067
 20
79.2212476398
 11
151.3957945289
 21
79.2835151296
  0
LINE
  5
4D9
100
AcDbEntity
  8
0
100
AcDbLine
 62
7
  6
CONTINUOUS
 10
98.8342844608
 20
132.53
 11
100.5663352684
 21
129.53
  0
LINE
  5
4DA
100
AcDbEntity
  8
0
100
AcDbLine
 62
7
  6
CONTINUOUS
 10
98.0892148366
 20
135.7186144628
 11
98.1529152456
 21
135.5801094009
  0
LINE
  5
4DB
100
AcDbEntity
  8
0
100
AcDbLine
 62
7
  6
CONTINUOUS
 10
99.977493256
 20
137.2701060086
 11
99.8905752244
 21
137.4687280001
  0
LINE
  5
4DC
100
AcDbEntity
  8
0
100
AcDbLine
 62
7
  6
CONTINUOUS
 10
108.6218176659
 20
79.0261601938
 11
108.5723349985
 21
78.8832631668
  0
LINE
  5
4DD
100
AcDbEntity
  8
0
100
AcDbLine
 62
7
  6
CONTINUOUS
 10
150.9559115294
 20
133.9772461209
 11
151.0536632876
 21
134.0453059442
  0
LINE
  5
4DE
100
AcDbEntity
  8
0
100
AcDbLine
 62
7
  6
CONTINUOUS
 10
153.9083142744
 20
135.9599209164
 11
154.7303132293
 21
136.5294099138
  0
LINE
  5
4DF
100
AcDbEntity
  8
0
100
AcDbLine
 62
7
  6
CONTINUOUS
 10
162.685810822
 20
136.0892283433
 11
162.3947215051
 21
135.9127160041
  0
LINE
  5
4E0
100
AcDbEntity
  8
0
100
AcDbLine
 62
7
  6
CONTINUOUS
 10
162.7790508893
 20
135.8533956409
 11
161.3599907625
 21
134.9928981648
  0
LINE
  5
4E1
100
AcDbEntity
  8
0
100
AcDbLine
 62
7
  6
CONTINUOUS
 10
161.4896169817
 20
134.7791294971
 11
163.1997663234
 21
135.8161392506
  0
LINE
  5
4E2
100
AcDbEntity
  8
0
100
AcDbLine
 62
7
  6
CONTINUOUS
 10
162.0883820749
 20
137.3267763477
 11
160.4664012532
 21
136.3500426475
  0
LINE
  5
4E3
100
AcDbEntity
  8
0
100
AcDbLine
 62
7
  6
CONTINUOUS
 10
160.4588710155
 20
136.0798750444
 11
161.9129585148
 21
136.9194325838
  0
LINE
  5
4E4
100
AcDbEntity
  8
0
100
AcDbLine
 62
7
  6
CONTINUOUS
 10
163.2294034796
 20
133.3587509405
 11
163.4238868813
 21
133.4545720547
  0
LINE
  5
4E5
100
AcDbEntity
  8
BEZUGSACHSEN
100
AcDbLine
 62
7
  6
CONTINUOUS
 10
102.636540175
 20
97.03
 11
129.4155706121
 21
97.03
  0
LINE
  5
4E6
100
AcDbEntity
  8
RUNDUNGEN
100
AcDbLine
 62
7
  6
CONTINUOUS
 10
110.2747974171
 20
97.03
 11
156.9602319769
 21
97.03
  0
LINE
  5
4E7
100
AcDbEntity
  8
0
100
AcDbLine
 62
7
  6
CONTINUOUS
 10
154.0491869422
 20
83.0247006178
 11
154.190387768
 21
82.9672220025
  0
LINE
  5
4E8
100
AcDbEntity
  8
0
100
AcDbLine
 62
7
  6
CONTINUOUS
 10
151.1851708754
 20
80.4886483402
 11
152.3018420107
 21
79.7863666672
  0
LINE
  5
4E9
100
AcDbEntity
  8
0
100
AcDbLine
 62
7
  6
CONTINUOUS
 10
152.4349357762
 20
79.9979939557
 11
151.3182646408
 21
80.7002756286
  0
LINE
  5
4EA
100
AcDbEntity
  8
0
100
AcDbLine
 62
7
  6
CONTINUOUS
 10
151.8506394487
 20
81.5467843787
 11
152.967310584
 21
80.8445027057
  0
LINE
  5
4EB
100
AcDbEntity
  8
0
100
AcDbLine
 62
7
  6
CONTINUOUS
 10
153.100404286
 20
81.0561298932
 11
151.9837331506
 21
81.7584115662
  0
LINE
  5
4EC
100
AcDbEntity
  8
0
100
AcDbLine
 62
7
  6
CONTINUOUS
 10
96.4313352357
 20
133.9817712413
 11
96.5014376246
 21
133.8854737811
  0
LINE
  5
4ED
100
AcDbEntity
  8
0
100
AcDbLine
 62
7
  6
CONTINUOUS
 10
97.7693362796
 20
137.6039188261
 11
98.9083142744
 21
135.9599209164
  0
LINE
  5
4EE
100
AcDbEntity
  8
0
100
AcDbLine
 62
7
  6
CONTINUOUS
 10
98.358052262
 20
135.7464280836
 11
98.2583301833
 21
135.9075874058
  0
LINE
  5
4EF
100
AcDbEntity
  8
0
100
AcDbLine
 62
7
  6
CONTINUOUS
 10
106.8833215627
 20
133.7713164716
 11
106.9897284573
 21
133.5411244936
  0
LINE
  5
4F0
100
AcDbEntity
  8
0
100
AcDbLine
 62
7
  6
CONTINUOUS
 10
104.0304368835
 20
74.53
 11
105.7624876911
 21
77.53
  0
LINE
  5
4F1
100
AcDbEntity
  8
0
100
AcDbLine
 62
7
  6
CONTINUOUS
 10
107.0184001676
 20
79.4122222508
 11
106.9278430407
 21
79.2582048049
  0
LINE
  5
4F2
100
AcDbEntity
  8
0
100
AcDbLine
 62
7
  6
CONTINUOUS
 10
108.6787418895
 20
78.6530711878
 11
108.769299002
 21
78.8070886298
  0
LINE
  5
4F3
100
AcDbEntity
  8
0
100
AcDbLine
 62
7
  6
CONTINUOUS
 10
105.837553535
 20
83.3641060752
 11
104.5608400242
 21
81.8246247953
  0
LINE
  5
4F4
100
AcDbEntity
  8
0
100
AcDbLine
 62
7
  6
CONTINUOUS
 10
104.7532751842
 20
81.6650356064
 11
105.7583475549
 21
82.8769677169
  0
LINE
  5
4F5
100
AcDbEntity
  8
0
100
AcDbLine
 62
7
  6
CONTINUOUS
 10
99.6976779072
 20
81.869175404
 11
99.5849117835
 21
81.7392819869
  0
LINE
  5
4F6
100
AcDbEntity
  8
0
100
AcDbLine
 62
7
  6
CONTINUOUS
 10
98.0861718691
 20
79.8345361816
 11
98.2331048929
 21
79.9882378575
  0
LINE
  5
4F7
100
AcDbEntity
  8
0
100
AcDbLine
 62
7
  6
CONTINUOUS
 10
153.0861718691
 20
134.8345361816
 11
153.2331048929
 21
134.9882378575
  0
LINE
  5
4F8
100
AcDbEntity
  8
0
100
AcDbLine
 62
7
  6
CONTINUOUS
 10
99.7303132293
 20
81.5294099138
 11
99.8773295686
 21
81.6830322233
  0
LINE
  5
4F9
100
AcDbEntity
  8
0
100
AcDbLine
 62
7
  6
CONTINUOUS
 10
154.7303132293
 20
136.5294099138
 11
154.8773295686
 21
136.6830322233
  0
LINE
  5
4FA
100
AcDbEntity
  8
0
100
AcDbLine
 62
7
  6
CONTINUOUS
 10
153.0169749998
 20
135.12416334
 11
152.8922243052
 21
135.0057329273
  0
LINE
  5
4FB
100
AcDbEntity
  8
0
100
AcDbLine
 62
7
  6
CONTINUOUS
 10
98.0169749998
 20
80.12416334
 11
97.8922243052
 21
80.0057329273
  0
LINE
  5
4FC
100
AcDbEntity
  8
0
100
AcDbLine
 62
7
  6
CONTINUOUS
 10
150.9065461577
 20
134.196811485
 11
150.753006198
 21
134.0536325467
  0
LINE
  5
4FD
100
AcDbEntity
  8
0
100
AcDbLine
 62
7
  6
CONTINUOUS
 10
95.9065461577
 20
79.196811485
 11
95.753006198
 21
79.0536325467
  0
LINE
  5
4FE
100
AcDbEntity
  8
0
100
AcDbLine
 62
7
  6
CONTINUOUS
 10
162.2732550895
 20
134.6107213606
 11
162.1609205781
 21
134.5371410764
  0
LINE
  5
4FF
100
AcDbEntity
  8
0
100
AcDbLine
 62
7
  6
CONTINUOUS
 10
163.4238868813
 20
133.4545720547
 11
163.5362215078
 21
133.52815237
  0
LINE
  5
500
100
AcDbEntity
  8
0
100
AcDbLine
 62
7
  6
CONTINUOUS
 10
171.5912352838
 20
99.93
 11
159.8121590735
 21
99.93
  0
LINE
  5
501
100
AcDbEntity
  8
0
100
AcDbLine
 62
7
  6
CONTINUOUS
 10
97.9364287005
 20
99.93
 11
86.5851686093
 21
99.93
  0
LINE
  5
502
100
AcDbEntity
  8
RUNDUNGEN
100
AcDbLine
 62
7
  6
CONTINUOUS
 10
177.7983860759
 20
100.53
 11
81.7983860759
 21
100.53
  0
LINE
  5
503
100
AcDbEntity
  8
0
100
AcDbLine
 62
7
  6
CONTINUOUS
 10
154.3716538674
 20
83.1445730246
 11
154.206219538
 21
83.2370302166
  0
LINE
  5
504
100
AcDbEntity
  8
0
100
AcDbLine
 62
7
  6
CONTINUOUS
 10
162.1673954253
 20
78.3733923866
 11
162.3232849981
 21
78.2860974385
  0
LINE
  5
505
100
AcDbEntity
  8
0
100
AcDbLine
 62
7
  6
CONTINUOUS
 10
163.5297466174
 20
79.6919010481
 11
163.373857059
 21
79.7791960001
  0
LINE
  5
506
100
AcDbEntity
  8
0
100
AcDbLine
 62
7
  6
CONTINUOUS
 10
98.9684125674
 20
136.3121652388
 11
98.1202374471
 21
137.5364190269
  0
LINE
  5
507
100
AcDbEntity
  8
0
100
AcDbLine
 62
7
  6
CONTINUOUS
 10
99.3215718797
 20
137.8510359211
 11
99.6850754857
 21
137.3263557507
  0
LINE
  5
508
100
AcDbEntity
  8
0
100
AcDbLine
 62
7
  6
CONTINUOUS
 10
99.8905752244
 20
137.4687280001
 11
99.5270716184
 21
137.9934081705
  0
LINE
  5
509
100
AcDbEntity
  8
0
100
AcDbLine
 62
7
  6
CONTINUOUS
 10
106.3599907625
 20
134.9928981648
 11
106.4896169817
 21
134.7791294971
  0
LINE
  5
50A
100
AcDbEntity
  8
0
100
AcDbLine
 62
7
  6
CONTINUOUS
 10
105.7624876911
 20
132.53
 11
104.0304368835
 21
135.53
  0
LINE
  5
50B
100
AcDbEntity
  8
0
100
AcDbLine
 62
7
  6
CONTINUOUS
 10
107.1842118842
 20
133.6369456145
 11
107.0886938172
 21
133.8269185544
  0
LINE
  5
50C
100
AcDbEntity
  8
0
100
AcDbLine
 62
7
  6
CONTINUOUS
 10
108.512930173
 20
134.4283478241
 11
108.6084484892
 21
134.2383739637
  0
LINE
  5
50D
100
AcDbEntity
  8
0
100
AcDbLine
 62
7
  6
CONTINUOUS
 10
108.8138207149
 20
134.2939760386
 11
108.7074138239
 21
134.5241680177
  0
LINE
  5
50E
100
AcDbEntity
  8
0
100
AcDbLine
 62
7
  6
CONTINUOUS
 10
107.2058633641
 20
69.03
 11
112.1133406522
 21
77.53
  0
LINE
  5
50F
100
AcDbEntity
  8
0
100
AcDbLine
 62
7
  6
CONTINUOUS
 10
106.9129585148
 20
81.9194325838
 11
105.9078861441
 21
80.7075004733
  0
LINE
  5
510
100
AcDbEntity
  8
0
100
AcDbLine
 62
7
  6
CONTINUOUS
 10
106.1003213041
 20
80.5479112845
 11
107.3770348149
 21
82.0873925644
  0
LINE
  5
511
100
AcDbEntity
  8
0
100
AcDbLine
 62
7
  6
CONTINUOUS
 10
154.6976779072
 20
136.869175404
 11
154.5849117835
 21
136.7392819869
  0
LINE
  5
512
100
AcDbEntity
  8
0
100
AcDbLine
 62
7
  6
CONTINUOUS
 10
107.1248070587
 20
79.1820302718
 11
107.3276989606
 21
79.4096270852
  0
LINE
  5
513
100
AcDbEntity
  8
0
100
AcDbLine
 62
7
  6
CONTINUOUS
 10
162.1609205781
 20
134.5371410764
 11
162.0184001676
 21
134.4122222508
  0
LINE
  5
514
100
AcDbEntity
  8
0
100
AcDbLine
 62
7
  6
CONTINUOUS
 10
98.5913352344
 20
83.1734078235
 11
97.7693362796
 21
82.6039188261
  0
LINE
  5
515
100
AcDbEntity
  8
0
100
AcDbLine
 62
7
  6
CONTINUOUS
 10
98.1202374471
 20
82.5364190269
 11
98.7367366633
 21
82.963535775
  0
LINE
  5
516
100
AcDbEntity
  8
0
100
AcDbLine
 62
7
  6
CONTINUOUS
 10
154.190387768
 20
82.9672220025
 11
154.3215718797
 21
82.8510359211
  0
LINE
  5
517
100
AcDbEntity
  8
0
100
AcDbLine
 62
7
  6
CONTINUOUS
 10
153.2583301833
 20
80.9075874058
 11
153.100404286
 21
81.0561298932
  0
LINE
  5
518
100
AcDbEntity
  8
0
100
AcDbLine
 62
7
  6
CONTINUOUS
 10
96.6618899365
 20
134.069742099
 11
96.5147728067
 21
134.2212476398
  0
LINE
  5
519
100
AcDbEntity
  8
0
100
AcDbLine
 62
7
  6
CONTINUOUS
 10
151.6618899365
 20
79.069742099
 11
151.5147728067
 21
79.2212476398
  0
LINE
  5
51A
100
AcDbEntity
  8
0
100
AcDbLine
 62
7
  6
CONTINUOUS
 10
97.967310584
 20
135.8445027057
 11
98.0892148366
 21
135.7186144628
  0
LINE
  5
51B
100
AcDbEntity
  8
0
100
AcDbLine
 62
7
  6
CONTINUOUS
 10
152.967310584
 20
80.8445027057
 11
153.0892148366
 21
80.7186144628
  0
LINE
  5
51C
100
AcDbEntity
  8
0
100
AcDbLine
 62
7
  6
CONTINUOUS
 10
108.1997663234
 20
135.8161392506
 11
108.0701401042
 21
136.0299079184
  0
LINE
  5
51D
100
AcDbEntity
  8
0
100
AcDbLine
 62
7
  6
CONTINUOUS
 10
112.1133406522
 20
132.53
 11
107.2058633641
 21
141.03
  0
LINE
  5
51E
100
AcDbEntity
  8
0
100
AcDbLine
 62
7
  6
CONTINUOUS
 10
152.3909087878
 20
141.03
 11
147.4834314997
 21
132.53
  0
LINE
  5
51F
100
AcDbEntity
  8
0
100
AcDbLine
 62
7
  6
CONTINUOUS
 10
151.9837331506
 20
136.7584115662
 11
151.8506394487
 21
136.5467843787
  0
LINE
  5
520
100
AcDbEntity
  8
0
100
AcDbLine
 62
7
  6
CONTINUOUS
 10
151.3182646408
 20
135.7002756286
 11
151.1851708754
 21
135.4886483402
  0
LINE
  5
521
100
AcDbEntity
  8
0
100
AcDbLine
 62
7
  6
CONTINUOUS
 10
153.1057041768
 20
135.265248199
 11
153.0169749998
 21
135.12416334
  0
LINE
  5
522
100
AcDbEntity
  8
0
100
AcDbLine
 62
7
  6
CONTINUOUS
 10
153.2331048929
 20
134.9882378575
 11
153.3218340699
 21
135.1293227164
  0
LINE
  5
523
100
AcDbEntity
  8
0
100
AcDbLine
 62
7
  6
CONTINUOUS
 10
160.837553535
 20
138.3641060752
 11
159.5608400242
 21
136.8246247953
  0
LINE
  5
524
100
AcDbEntity
  8
0
100
AcDbLine
 62
7
  6
CONTINUOUS
 10
159.7532751842
 20
136.6650356064
 11
160.7583475549
 21
137.8769677169
  0
LINE
  5
525
100
AcDbEntity
  8
0
100
AcDbLine
 62
7
  6
CONTINUOUS
 10
161.9129585148
 20
136.9194325838
 11
160.9078861441
 21
135.7075004733
  0
LINE
  5
526
100
AcDbEntity
  8
0
100
AcDbLine
 62
7
  6
CONTINUOUS
 10
161.1003213041
 20
135.5479112845
 11
162.3770348149
 21
137.0873925644
  0
LINE
  5
527
100
AcDbEntity
  8
0
100
AcDbLine
 62
7
  6
CONTINUOUS
 10
108.5723349985
 20
78.8832631668
 11
108.3694432595
 21
78.6556654095
  0
LINE
  5
528
100
AcDbEntity
  8
0
100
AcDbLine
 62
7
  6
CONTINUOUS
 10
163.5362215078
 20
133.52815237
 11
163.6787418895
 21
133.6530711878
  0
LINE
  5
529
100
AcDbEntity
  8
0
100
AcDbLine
 62
7
  6
CONTINUOUS
 10
107.1609205781
 20
79.5371410764
 11
107.0184001676
 21
79.4122222508
  0
LINE
  5
52A
100
AcDbEntity
  8
0
100
AcDbLine
 62
7
  6
CONTINUOUS
 10
95.9559115294
 20
78.9772461209
 11
96.0536632876
 21
79.0453059442
  0
LINE
  5
52B
100
AcDbEntity
  8
0
100
AcDbLine
 62
7
  6
CONTINUOUS
 10
99.5849117835
 20
81.7392819869
 11
98.9684125674
 21
81.3121652388
  0
LINE
  5
52C
100
AcDbEntity
  8
0
100
AcDbLine
 62
7
  6
CONTINUOUS
 10
98.9083142744
 20
80.9599209164
 11
99.7303132293
 21
81.5294099138
  0
LINE
  5
52D
100
AcDbEntity
  8
RUNDUNGEN
100
AcDbLine
 62
7
  6
CONTINUOUS
 10
81.7983860759
 20
109.53
 11
177.7983860759
 21
109.53
  0
LINE
  5
52E
100
AcDbEntity
  8
0
100
AcDbLine
 62
7
  6
CONTINUOUS
 10
159.5608400242
 20
81.8246247953
 11
159.7532751842
 21
81.6650356064
  0
LINE
  5
52F
100
AcDbEntity
  8
0
100
AcDbLine
 62
7
  6
CONTINUOUS
 10
160.2022903128
 20
81.2926610354
 11
160.4588710155
 21
81.0798750444
  0
LINE
  5
530
100
AcDbEntity
  8
0
100
AcDbLine
 62
7
  6
CONTINUOUS
 10
160.9078861441
 20
80.7075004733
 11
161.1003213041
 21
80.5479112845
  0
LINE
  5
531
100
AcDbEntity
  8
0
100
AcDbLine
 62
7
  6
CONTINUOUS
 10
162.3770348149
 20
82.0873925644
 11
162.0883820749
 21
82.3267763477
  0
LINE
  5
532
100
AcDbEntity
  8
0
100
AcDbLine
 62
7
  6
CONTINUOUS
 10
161.126206275
 20
83.1247222919
 11
160.837553535
 21
83.3641060752
  0
LINE
  5
533
100
AcDbEntity
  8
0
100
AcDbLine
 62
7
  6
CONTINUOUS
 10
162.2990269974
 20
78.5385302475
 11
162.1842118842
 21
78.6369456145
  0
LINE
  5
534
100
AcDbEntity
  8
0
100
AcDbLine
 62
7
  6
CONTINUOUS
 10
163.3981150597
 20
79.5267631911
 11
163.512930173
 21
79.4283478241
  0
LINE
  5
535
100
AcDbEntity
  8
0
100
AcDbLine
 62
7
  6
CONTINUOUS
 10
99.190387768
 20
137.9672220025
 11
99.3215718797
 21
137.8510359211
  0
LINE
  5
536
100
AcDbEntity
  8
0
100
AcDbLine
 62
7
  6
CONTINUOUS
 10
98.2583301833
 20
135.9075874058
 11
98.100404286
 21
136.0561298932
  0
LINE
  5
537
100
AcDbEntity
  8
0
100
AcDbLine
 62
7
  6
CONTINUOUS
 10
161.9897284573
 20
78.5411244936
 11
162.1673954253
 21
78.3733923866
  0
LINE
  5
538
100
AcDbEntity
  8
0
100
AcDbLine
 62
7
  6
CONTINUOUS
 10
154.5270716184
 20
82.9934081705
 11
154.3716538674
 21
83.1445730246
  0
LINE
  5
539
100
AcDbEntity
  8
0
100
AcDbLine
 62
7
  6
CONTINUOUS
 10
99.5270716184
 20
137.9934081705
 11
99.3716538674
 21
138.1445730246
  0
LINE
  5
53A
100
AcDbEntity
  8
0
100
AcDbLine
 62
7
  6
CONTINUOUS
 10
151.4313352357
 20
78.9817712413
 11
151.5014376246
 21
78.8854737811
  0
LINE
  5
53B
100
AcDbEntity
  8
0
100
AcDbLine
 62
7
  6
CONTINUOUS
 10
147.4834314997
 20
77.53
 11
152.3909087878
 21
69.03
  0
LINE
  5
53C
100
AcDbEntity
  8
0
100
AcDbLine
 62
7
  6
CONTINUOUS
 10
154.8773295686
 20
136.6830322233
 11
154.9658621145
 21
136.8479043244
  0
LINE
  5
53D
100
AcDbEntity
  8
0
100
AcDbLine
 62
7
  6
CONTINUOUS
 10
150.8932109756
 20
133.8610376263
 11
150.9559115294
 21
133.9772461209
  0
LINE
  5
53E
100
AcDbEntity
  8
0
100
AcDbLine
 62
7
  6
CONTINUOUS
 10
155.5663352684
 20
135.53
 11
153.8342844608
 21
132.53
  0
LINE
  5
53F
100
AcDbEntity
  8
0
100
AcDbLine
 62
7
  6
CONTINUOUS
 10
162.1248070587
 20
134.1820302718
 11
162.3276989606
 21
134.4096270852
  0
LINE
  5
540
100
AcDbEntity
  8
0
100
AcDbLine
 62
7
  6
CONTINUOUS
 10
163.5723349985
 20
133.8832631668
 11
163.3694432595
 21
133.6556654095
  0
LINE
  5
541
100
AcDbEntity
  8
0
100
AcDbLine
 62
7
  6
CONTINUOUS
 10
108.5362215078
 20
78.52815237
 11
108.6787418895
 21
78.6530711878
  0
LINE
  5
542
100
AcDbEntity
  8
0
100
AcDbLine
 62
7
  6
CONTINUOUS
 10
107.0883820749
 20
82.3267763477
 11
105.4664012532
 21
81.3500426475
  0
LINE
  5
543
100
AcDbEntity
  8
0
100
AcDbLine
 62
7
  6
CONTINUOUS
 10
97.9253993934
 20
79.7387598175
 11
98.0861718691
 21
79.8345361816
  0
LINE
  5
544
100
AcDbEntity
  8
0
100
AcDbLine
 62
7
  6
CONTINUOUS
 10
105.4588710155
 20
81.0798750444
 11
106.9129585148
 21
81.9194325838
  0
LINE
  5
545
100
AcDbEntity
  8
0
100
AcDbLine
 62
7
  6
CONTINUOUS
 10
96.0951373218
 20
79.2918417519
 11
95.9065461577
 21
79.196811485
  0
LINE
  5
546
100
AcDbEntity
  8
0
100
AcDbLine
 62
7
  6
CONTINUOUS
 10
98.7868187188
 20
83.2570727804
 11
98.5913352344
 21
83.1734078235
  0
LINE
  5
547
100
AcDbEntity
  8
0
100
AcDbLine
 62
7
  6
CONTINUOUS
 10
91.2562084276
 20
110.03
 11
99.1190151491
 21
110.03
  0
LINE
  5
548
100
AcDbEntity
  8
0
100
AcDbLine
 62
7
  6
CONTINUOUS
 10
158.2313006318
 20
110.13
 11
173.341663271
 21
110.13
  0
LINE
  5
549
100
AcDbEntity
  8
BEZUGSACHSEN
100
AcDbLine
 62
7
  6
CONTINUOUS
 10
102.636540175
 20
113.03
 11
129.4155706121
 21
113.03
  0
LINE
  5
54A
100
AcDbEntity
  8
RUNDUNGEN
100
AcDbLine
 62
7
  6
CONTINUOUS
 10
110.2747974171
 20
113.03
 11
149.3219747348
 21
113.03
  0
LINE
  5
54B
100
AcDbEntity
  8
BEZUGSACHSEN
100
AcDbLine
 62
7
  6
CONTINUOUS
 10
130.1812015398
 20
113.03
 11
156.9602285146
 21
113.03
  0
LINE
  5
54C
100
AcDbEntity
  8
0
100
AcDbLine
 62
7
  6
CONTINUOUS
 10
96.1851708754
 20
135.4886483402
 11
97.3018420107
 21
134.7863666672
  0
LINE
  5
54D
100
AcDbEntity
  8
0
100
AcDbLine
 62
7
  6
CONTINUOUS
 10
97.4349357762
 20
134.9979939557
 11
96.3182646408
 21
135.7002756286
  0
LINE
  5
54E
100
AcDbEntity
  8
0
100
AcDbLine
 62
7
  6
CONTINUOUS
 10
104.5608400242
 20
136.8246247953
 11
104.7532751842
 21
136.6650356064
  0
LINE
  5
54F
100
AcDbEntity
  8
0
100
AcDbLine
 62
7
  6
CONTINUOUS
 10
105.2022903128
 20
136.2926610354
 11
105.4588710155
 21
136.0798750444
  0
LINE
  5
550
100
AcDbEntity
  8
0
100
AcDbLine
 62
7
  6
CONTINUOUS
 10
105.9078861441
 20
135.7075004733
 11
106.1003213041
 21
135.5479112845
  0
LINE
  5
551
100
AcDbEntity
  8
0
100
AcDbLine
 62
7
  6
CONTINUOUS
 10
107.2990269974
 20
133.5385302475
 11
107.1842118842
 21
133.6369456145
  0
LINE
  5
552
100
AcDbEntity
  8
0
100
AcDbLine
 62
7
  6
CONTINUOUS
 10
108.3981150597
 20
134.5267631911
 11
108.512930173
 21
134.4283478241
  0
LINE
  5
553
100
AcDbEntity
  8
0
100
AcDbLine
 62
7
  6
CONTINUOUS
 10
163.7074138239
 20
79.5241680177
 11
163.5297466174
 21
79.6919010481
  0
LINE
  5
554
100
AcDbEntity
  8
0
100
AcDbLine
 62
7
  6
CONTINUOUS
 10
106.9897284573
 20
133.5411244936
 11
107.1673954253
 21
133.3733923866
  0
LINE
  5
555
100
AcDbEntity
  8
0
100
AcDbLine
 62
7
  6
CONTINUOUS
 10
108.7074138239
 20
134.5241680177
 11
108.5297466174
 21
134.6919010481
  0
LINE
  5
556
100
AcDbEntity
  8
0
100
AcDbLine
 62
7
  6
CONTINUOUS
 10
152.7693362796
 20
82.6039188261
 11
153.9083142744
 21
80.9599209164
  0
LINE
  5
557
100
AcDbEntity
  8
0
100
AcDbLine
 62
7
  6
CONTINUOUS
 10
153.9684125674
 20
81.3121652388
 11
153.1202374471
 21
82.5364190269
  0
LINE
  5
558
100
AcDbEntity
  8
0
100
AcDbLine
 62
7
  6
CONTINUOUS
 10
154.3215718797
 20
82.8510359211
 11
154.6850754857
 21
82.3263557507
  0
LINE
  5
559
100
AcDbEntity
  8
0
100
AcDbLine
 62
7
  6
CONTINUOUS
 10
154.8905752244
 20
82.4687280001
 11
154.5270716184
 21
82.9934081705
  0
LINE
  5
55A
100
AcDbEntity
  8
0
100
AcDbLine
 62
7
  6
CONTINUOUS
 10
153.358052262
 20
80.7464280836
 11
153.2583301833
 21
80.9075874058
  0
LINE
  5
55B
100
AcDbEntity
  8
0
100
AcDbLine
 62
7
  6
CONTINUOUS
 10
153.8342844608
 20
77.53
 11
155.5663352684
 21
74.53
  0
LINE
  5
55C
100
AcDbEntity
  8
0
100
AcDbLine
 62
7
  6
CONTINUOUS
 10
153.1584117091
 20
135.4289873024
 11
153.1057041768
 21
135.265248199
  0
LINE
  5
55D
100
AcDbEntity
  8
0
100
AcDbLine
 62
7
  6
CONTINUOUS
 10
153.3218340699
 20
135.1293227164
 11
153.3967237981
 21
135.3283328852
  0
LINE
  5
55E
100
AcDbEntity
  8
0
100
AcDbLine
 62
7
  6
CONTINUOUS
 10
154.7519606166
 20
137.0103189027
 11
154.6976779072
 21
136.869175404
  0
LINE
  5
55F
100
AcDbEntity
  8
0
100
AcDbLine
 62
7
  6
CONTINUOUS
 10
150.753006198
 20
134.0536325467
 11
150.6764809595
 21
133.8552454104
  0
LINE
  5
560
100
AcDbEntity
  8
0
100
AcDbLine
 62
7
  6
CONTINUOUS
 10
162.0184001676
 20
134.4122222508
 11
161.9278430407
 21
134.2582048049
  0
LINE
  5
561
100
AcDbEntity
  8
0
100
AcDbLine
 62
7
  6
CONTINUOUS
 10
107.2732550895
 20
79.6107213606
 11
107.1609205781
 21
79.5371410764
  0
LINE
  5
562
100
AcDbEntity
  8
0
100
AcDbLine
 62
7
  6
CONTINUOUS
 10
108.4238868813
 20
78.4545720547
 11
108.5362215078
 21
78.52815237
  0
LINE
  5
563
100
AcDbEntity
  8
0
100
AcDbLine
 62
7
  6
CONTINUOUS
 10
107.685810822
 20
81.0892283433
 11
107.3947215051
 21
80.9127160041
  0
LINE
  5
564
100
AcDbEntity
  8
0
100
AcDbLine
 62
7
  6
CONTINUOUS
 10
107.7790508893
 20
80.8533956409
 11
106.3599907625
 21
79.9928981648
  0
LINE
  5
565
100
AcDbEntity
  8
0
100
AcDbLine
 62
7
  6
CONTINUOUS
 10
106.4896169817
 20
79.7791294971
 11
108.1997663234
 21
80.8161392506
  0
LINE
  5
566
100
AcDbEntity
  8
0
100
AcDbLine
 62
7
  6
CONTINUOUS
 10
107.467738798
 20
79.7065415698
 11
107.2732550895
 21
79.6107213606
  0
LINE
  5
567
100
AcDbEntity
  8
0
100
AcDbLine
 62
7
  6
CONTINUOUS
 10
97.8922243052
 20
80.0057329273
 11
97.7536341397
 21
79.9452278383
  0
LINE
  5
568
100
AcDbEntity
  8
0
100
AcDbLine
 62
7
  6
CONTINUOUS
 10
98.7367366633
 20
82.963535775
 11
98.8979699299
 21
83.0234718426
  0
LINE
  5
569
100
AcDbEntity
  8
0
100
AcDbLine
 62
7
  6
CONTINUOUS
 10
96.312356958
 20
134.0440387311
 11
96.4313352357
 21
133.9817712413
  0
LINE
  5
56A
100
AcDbEntity
  8
0
100
AcDbLine
 62
7
  6
CONTINUOUS
 10
96.5147728067
 20
134.2212476398
 11
96.3957945289
 21
134.2835151296
  0
LINE
  5
56B
100
AcDbEntity
  8
0
100
AcDbLine
 62
7
  6
CONTINUOUS
 10
96.8506394487
 20
136.5467843787
 11
97.967310584
 21
135.8445027057
  0
LINE
  5
56C
100
AcDbEntity
  8
0
100
AcDbLine
 62
7
  6
CONTINUOUS
 10
98.100404286
 20
136.0561298932
 11
96.9837331506
 21
136.7584115662
  0
LINE
  5
56D
100
AcDbEntity
  8
0
100
AcDbLine
 62
7
  6
CONTINUOUS
 10
107.3770348149
 20
137.0873925644
 11
107.0883820749
 21
137.3267763477
  0
LINE
  5
56E
100
AcDbEntity
  8
0
100
AcDbLine
 62
7
  6
CONTINUOUS
 10
106.126206275
 20
138.1247222919
 11
105.837553535
 21
138.3641060752
  0
LINE
  5
56F
100
AcDbEntity
  8
0
100
AcDbLine
 62
7
  6
CONTINUOUS
 10
153.0892148366
 20
80.7186144628
 11
153.1529152456
 21
80.5801094009
  0
LINE
  5
570
100
AcDbEntity
  8
0
100
AcDbLine
 62
7
  6
CONTINUOUS
 10
151.7181676605
 20
78.8912661145
 11
151.6618899365
 21
79.069742099
  0
LINE
  5
571
100
AcDbEntity
  8
0
100
AcDbLine
 62
7
  6
CONTINUOUS
 10
150.6764809595
 20
133.8552454104
 11
150.5105848226
 21
132.8691021795
  0
LINE
  5
572
100
AcDbEntity
  8
0
100
AcDbLine
 62
7
  6
CONTINUOUS
 10
150.7618765405
 20
133.080340941
 11
150.8932109756
 21
133.8610376263
  0
LINE
  5
573
100
AcDbEntity
  8
0
100
AcDbLine
 62
7
  6
CONTINUOUS
 10
151.5226641442
 20
133.755146468
 11
151.3913297091
 21
132.9744497827
  0
LINE
  5
574
100
AcDbEntity
  8
0
100
AcDbLine
 62
7
  6
CONTINUOUS
 10
151.6431109296
 20
132.9320933273
 11
151.7606206898
 21
133.6306114296
  0
LINE
  5
575
100
AcDbEntity
  8
0
100
AcDbLine
 62
7
  6
CONTINUOUS
 10
159.0304368835
 20
129.53
 11
160.7624876911
 21
132.53
  0
LINE
  5
576
100
AcDbEntity
  8
0
100
AcDbLine
 62
7
  6
CONTINUOUS
 10
163.6787418895
 20
133.6530711878
 11
163.769299002
 21
133.8070886298
  0
LINE
  5
577
100
AcDbEntity
  8
0
100
AcDbLine
 62
7
  6
CONTINUOUS
 10
108.2294034796
 20
78.3587509405
 11
108.4238868813
 21
78.4545720547
  0
LINE
  5
578
100
AcDbEntity
  8
0
100
AcDbLine
 62
7
  6
CONTINUOUS
 10
107.3276989606
 20
79.4096270852
 11
107.563256865
 21
79.5165686299
  0
LINE
  5
579
100
AcDbEntity
  8
0
100
AcDbLine
 62
7
  6
CONTINUOUS
 10
108.3694432595
 20
78.6556654095
 11
108.1338851634
 21
78.5487248009
  0
LINE
  5
57A
100
AcDbEntity
  8
0
100
AcDbLine
 62
7
  6
CONTINUOUS
 10
97.3018420107
 20
134.7863666672
 11
97.5041325599
 21
134.7083667102
  0
LINE
  5
57B
100
AcDbEntity
  8
0
100
AcDbLine
 62
7
  6
CONTINUOUS
 10
99.3716538674
 20
138.1445730246
 11
99.206219538
 21
138.2370302166
  0
LINE
  5
57C
100
AcDbEntity
  8
0
100
AcDbLine
 62
7
  6
CONTINUOUS
 10
107.1673954253
 20
133.3733923866
 11
107.3232849981
 21
133.2860974385
  0
LINE
  5
57D
100
AcDbEntity
  8
0
100
AcDbLine
 62
7
  6
CONTINUOUS
 10
108.5297466174
 20
134.6919010481
 11
108.373857059
 21
134.7791960001
  0
LINE
  5
57E
100
AcDbEntity
  8
0
100
AcDbLine
 62
7
  6
CONTINUOUS
 10
161.3599907625
 20
79.9928981648
 11
161.4896169817
 21
79.7791294971
  0
LINE
  5
57F
100
AcDbEntity
  8
0
100
AcDbLine
 62
7
  6
CONTINUOUS
 10
163.1997663234
 20
80.8161392506
 11
163.0701401042
 21
81.0299079184
  0
LINE
  5
580
100
AcDbEntity
  8
0
100
AcDbLine
 62
7
  6
CONTINUOUS
 10
160.7624876911
 20
77.53
 11
159.0304368835
 21
80.53
  0
LINE
  5
581
100
AcDbEntity
  8
0
100
AcDbLine
 62
7
  6
CONTINUOUS
 10
162.1842118842
 20
78.6369456145
 11
162.0886938172
 21
78.8269185544
  0
LINE
  5
582
100
AcDbEntity
  8
0
100
AcDbLine
 62
7
  6
CONTINUOUS
 10
154.977493256
 20
82.2701060086
 11
154.8905752244
 21
82.4687280001
  0
LINE
  5
583
100
AcDbEntity
  8
0
100
AcDbLine
 62
7
  6
CONTINUOUS
 10
154.6850754857
 20
82.3263557507
 11
154.7477599458
 21
82.162712434
  0
LINE
  5
584
100
AcDbEntity
  8
0
100
AcDbLine
 62
7
  6
CONTINUOUS
 10
151.5014376246
 20
78.8854737811
 11
151.5226641442
 21
78.755146468
  0
LINE
  5
585
100
AcDbEntity
  8
0
100
AcDbLine
 62
7
  6
CONTINUOUS
 10
153.3967237981
 20
135.3283328852
 11
153.4134096763
 21
135.514726239
  0
LINE
  5
586
100
AcDbEntity
  8
0
100
AcDbLine
 62
7
  6
CONTINUOUS
 10
152.4828712844
 20
132.5373099059
 11
152.5243453186
 21
132.7838457136
  0
LINE
  5
587
100
AcDbEntity
  8
0
100
AcDbLine
 62
7
  6
CONTINUOUS
 10
152.6971537878
 20
133.8110782065
 11
152.7455401743
 21
134.0987033939
  0
LINE
  5
588
100
AcDbEntity
  8
0
100
AcDbLine
 62
7
  6
CONTINUOUS
 10
154.9658621145
 20
136.8479043244
 11
155.0059275153
 21
137.082733778
  0
LINE
  5
589
100
AcDbEntity
  8
0
100
AcDbLine
 62
7
  6
CONTINUOUS
 10
162.0753243913
 20
134.0391332448
 11
162.1248070587
 21
134.1820302718
  0
LINE
  5
58A
100
AcDbEntity
  8
0
100
AcDbLine
 62
7
  6
CONTINUOUS
 10
160.7583475549
 20
137.8769677169
 11
160.2022903128
 21
136.2926610354
  0
LINE
  5
58B
100
AcDbEntity
  8
0
100
AcDbLine
 62
7
  6
CONTINUOUS
 10
160.4664012532
 20
136.3500426475
 11
161.126206275
 21
138.1247222919
  0
LINE
  5
58C
100
AcDbEntity
  8
0
100
AcDbLine
 62
7
  6
CONTINUOUS
 10
162.2058633641
 20
124.03
 11
167.1133406522
 21
132.53
  0
LWPOLYLINE
  5
58D
100
AcDbEntity
  8
RUNDUNGEN
100
AcDbPolyline
 62
7
  6
CONTINUOUS
 90
15
 70
0
 10
158.4294757325
 20
96.9059902822
 10
158.654677884
 20
97.0034425922
 10
158.789034111
 20
97.0719019019
 10
158.9245909345
 20
97.1533153019
 10
159.0582916203
 20
97.2479047739
 10
159.1885440071
 20
97.3564836467
 10
159.3128976132
 20
97.4789450496
 10
159.4293291723
 20
97.6151921459
 10
159.5355928759
 20
97.7645002145
 10
159.6297559324
 20
97.9260811731
 10
159.7094966575
 20
98.0976774963
 10
159.7743783919
 20
98.2808846385
 10
159.8226906839
 20
98.4760773783
 10
159.8522081343
 20
98.6842208786
 10
159.8601740556
 20
98.8634603059
  0
LINE
  5
58E
100
AcDbEntity
  8
RUNDUNGEN
100
AcDbLine
 62
7
  6
CONTINUOUS
 10
158.5210951818
 20
96.9457723952
 11
158.5217847543
 21
96.9460459472
  0
LINE
  5
58F
100
AcDbEntity
  8
0
100
AcDbLine
 62
7
  6
CONTINUOUS
 10
162.8597334732
 20
133.2586672056
 11
163.2294034796
 21
133.3587509405
  0
LINE
  5
590
100
AcDbEntity
  8
0
100
AcDbLine
 62
7
  6
CONTINUOUS
 10
163.1338851634
 20
133.5487248009
 11
162.8463640473
 21
133.4708818959
  0
LINE
  5
591
100
AcDbEntity
  8
0
100
AcDbLine
 62
7
  6
CONTINUOUS
 10
162.563256865
 20
134.5165686299
 11
162.850777981
 21
134.5944115349
  0
LINE
  5
592
100
AcDbEntity
  8
0
100
AcDbLine
 62
7
  6
CONTINUOUS
 10
162.8374088044
 20
134.8066253047
 11
162.467738798
 21
134.7065415698
  0
LINE
  5
593
100
AcDbEntity
  8
0
100
AcDbLine
 62
7
  6
CONTINUOUS
 10
97.3909087878
 20
124.03
 11
107.2058633641
 21
124.03
  0
LINE
  5
594
100
AcDbEntity
  8
0
100
AcDbLine
 62
7
  6
CONTINUOUS
 10
152.3909087878
 20
124.03
 11
162.2058633641
 21
124.03
  0
LINE
  5
595
100
AcDbEntity
  8
0
100
AcDbLine
 62
7
  6
CONTINUOUS
 10
107.5890287441
 20
133.4443775091
 11
107.2990269974
 21
133.5385302475
  0
LINE
  5
596
100
AcDbEntity
  8
0
100
AcDbLine
 62
7
  6
CONTINUOUS
 10
97.6012045538
 20
134.9426480413
 11
97.4349357762
 21
134.9979939557
  0
LINE
  5
597
100
AcDbEntity
  8
BEZUGSACHSEN
100
AcDbLine
 62
7
  6
CONTINUOUS
 10
158.5210958193
 20
113.1142273521
 11
158.5218030647
 21
113.1139467842
  0
LINE
  5
598
100
AcDbEntity
  8
0
100
AcDbLine
 62
7
  6
CONTINUOUS
 10
99.0491869422
 20
138.0247006178
 11
99.190387768
 21
137.9672220025
  0
LWPOLYLINE
  5
599
100
AcDbEntity
  8
BEZUGSACHSEN
100
AcDbPolyline
 62
7
  6
CONTINUOUS
 90
7
 70
0
 10
158.6556184117
 20
113.0561163962
 10
158.4294875304
 20
113.1540041652
 10
158.3087106297
 20
113.2164204003
 10
158.1864769082
 20
113.2904346962
 10
158.0610176305
 20
113.377143968
 10
157.9301289318
 20
113.4787381948
 10
157.8369884108
 20
113.5577731152
  0
LINE
  5
59A
100
AcDbEntity
  8
0
100
AcDbLine
 62
7
  6
CONTINUOUS
 10
167.1133406522
 20
77.53
 11
162.2058633641
 21
86.03
  0
LINE
  5
59B
100
AcDbEntity
  8
0
100
AcDbLine
 62
7
  6
CONTINUOUS
 10
163.512930173
 20
79.4283478241
 11
163.6084484892
 21
79.2383739637
  0
LINE
  5
59C
100
AcDbEntity
  8
0
100
AcDbLine
 62
7
  6
CONTINUOUS
 10
161.8833215627
 20
78.7713164716
 11
161.9897284573
 21
78.5411244936
  0
LINE
  5
59D
100
AcDbEntity
  8
0
100
AcDbLine
 62
7
  6
CONTINUOUS
 10
163.8138207149
 20
79.2939760386
 11
163.7074138239
 21
79.5241680177
  0
LINE
  5
59E
100
AcDbEntity
  8
0
100
AcDbLine
 62
7
  6
CONTINUOUS
 10
153.4134096763
 20
80.514726239
 11
153.358052262
 21
80.7464280836
  0
LINE
  5
59F
100
AcDbEntity
  8
0
100
AcDbLine
 62
7
  6
CONTINUOUS
 10
153.1529152456
 20
80.5801094009
 11
153.1584117091
 21
80.4289873024
  0
LINE
  5
5A0
100
AcDbEntity
  8
0
100
AcDbLine
 62
7
  6
CONTINUOUS
 10
153.1529152456
 20
135.5801094009
 11
153.1584117091
 21
135.4289873024
  0
LINE
  5
5A1
100
AcDbEntity
  8
0
100
AcDbLine
 62
7
  6
CONTINUOUS
 10
154.7477599458
 20
82.162712434
 11
154.7519606166
 21
82.0103189027
  0
LINE
  5
5A2
100
AcDbEntity
  8
0
100
AcDbLine
 62
7
  6
CONTINUOUS
 10
150.6764809595
 20
78.8552454104
 11
150.5105848226
 21
77.8691021795
  0
LINE
  5
5A3
100
AcDbEntity
  8
0
100
AcDbLine
 62
7
  6
CONTINUOUS
 10
150.7618765405
 20
78.080340941
 11
150.8932109756
 21
78.8610376263
  0
LINE
  5
5A4
100
AcDbEntity
  8
0
100
AcDbLine
 62
7
  6
CONTINUOUS
 10
161.9278430407
 20
134.2582048049
 11
161.8590635655
 21
134.0237492816
  0
LINE
  5
5A5
100
AcDbEntity
  8
0
100
AcDbLine
 62
7
  6
CONTINUOUS
 10
163.769299002
 20
133.8070886298
 11
163.8380787157
 21
134.0415432296
  0
LINE
  5
5A6
100
AcDbEntity
  8
0
100
AcDbLine
 62
7
  6
CONTINUOUS
 10
163.6218176659
 20
134.0261601938
 11
163.5723349985
 21
133.8832631668
  0
LINE
  5
5A7
100
AcDbEntity
  8
RUNDUNGEN
100
AcDbLine
 62
7
  6
CONTINUOUS
 10
157.6641909397
 20
96.3504509233
 11
157.8368621854
 21
96.5021161607
  0
LWPOLYLINE
  5
5A8
100
AcDbEntity
  8
RUNDUNGEN
100
AcDbPolyline
 62
7
  6
CONTINUOUS
 90
6
 70
0
 10
157.8369873833
 20
96.5022259821
 10
157.9301727242
 20
96.5812976572
 10
158.0610738202
 20
96.6828972321
 10
158.1865038629
 20
96.7695827824
 10
158.3087035361
 20
96.8435756145
 10
158.4294757325
 20
96.9059902822
  0
LINE
  5
5A9
100
AcDbEntity
  8
0
100
AcDbLine
 62
7
  6
CONTINUOUS
 10
152.6925837522
 20
134.688292146
 11
152.9253993934
 21
134.7387598175
  0
LINE
  5
5AA
100
AcDbEntity
  8
0
100
AcDbLine
 62
7
  6
CONTINUOUS
 10
152.7455401743
 20
134.0987033939
 11
151.7181676605
 21
133.8912661145
  0
LINE
  5
5AB
100
AcDbEntity
  8
0
100
AcDbLine
 62
7
  6
CONTINUOUS
 10
151.7606206898
 20
133.6306114296
 11
152.6971537878
 21
133.8110782065
  0
LINE
  5
5AC
100
AcDbEntity
  8
0
100
AcDbLine
 62
7
  6
CONTINUOUS
 10
151.0536632876
 20
134.0453059442
 11
151.1864662302
 21
134.0652169786
  0
LINE
  5
5AD
100
AcDbEntity
  8
0
100
AcDbLine
 62
7
  6
CONTINUOUS
 10
162.8463640473
 20
133.4708818959
 11
162.5890287441
 21
133.4443775091
  0
LINE
  5
5AE
100
AcDbEntity
  8
0
100
AcDbLine
 62
7
  6
CONTINUOUS
 10
100.5663352684
 20
129.53
 11
104.0304368835
 21
129.53
  0
LINE
  5
5AF
100
AcDbEntity
  8
0
100
AcDbLine
 62
7
  6
CONTINUOUS
 10
155.5663352684
 20
129.53
 11
159.0304368835
 21
129.53
  0
LINE
  5
5B0
100
AcDbEntity
  8
0
100
AcDbLine
 62
7
  6
CONTINUOUS
 10
95.5105848226
 20
132.8691021795
 11
97.4828712844
 21
132.5373099059
  0
LINE
  5
5B1
100
AcDbEntity
  8
0
100
AcDbLine
 62
7
  6
CONTINUOUS
 10
97.5243453186
 20
132.7838457136
 11
96.6431109296
 21
132.9320933273
  0
LINE
  5
5B2
100
AcDbEntity
  8
0
100
AcDbLine
 62
7
  6
CONTINUOUS
 10
96.3913297091
 20
132.9744497827
 11
95.7618765405
 21
133.080340941
  0
LINE
  5
5B3
100
AcDbEntity
  8
0
100
AcDbLine
 62
7
  6
CONTINUOUS
 10
96.1864662302
 20
134.0652169786
 11
96.312356958
 21
134.0440387311
  0
LINE
  5
5B4
100
AcDbEntity
  8
0
100
AcDbLine
 62
7
  6
CONTINUOUS
 10
96.3957945289
 20
134.2835151296
 11
96.2279402644
 21
134.3117527863
  0
LINE
  5
5B5
100
AcDbEntity
  8
0
100
AcDbLine
 62
7
  6
CONTINUOUS
 10
107.3232849981
 20
133.2860974385
 11
107.5093602064
 21
133.2501419484
  0
LINE
  5
5B6
100
AcDbEntity
  8
0
100
AcDbLine
 62
7
  6
CONTINUOUS
 10
108.373857059
 20
134.7791960001
 11
108.1877818795
 21
134.815151498
  0
LINE
  5
5B7
100
AcDbEntity
  8
0
100
AcDbLine
 62
7
  6
CONTINUOUS
 10
108.108113476
 20
134.6209149857
 11
108.3981150597
 21
134.5267631911
  0
LINE
  5
5B8
100
AcDbEntity
  8
BEZUGSACHSEN
100
AcDbLine
 62
7
  6
CONTINUOUS
 10
157.8368621854
 20
113.5578838393
 11
157.6641909397
 21
113.7095490767
  0
LWPOLYLINE
  5
5B9
100
AcDbEntity
  8
BEZUGSACHSEN
100
AcDbPolyline
 62
7
  6
CONTINUOUS
 90
3
 70
0
 10
157.6638998563
 20
113.7098235578
 10
157.6501622395
 20
113.7224366311
 10
157.6450417279
 20
113.7275868701
  0
LINE
  5
5BA
100
AcDbEntity
  8
0
100
AcDbLine
 62
7
  6
CONTINUOUS
 10
155.0059275153
 20
82.082733778
 11
154.977493256
 21
82.2701060086
  0
LINE
  5
5BB
100
AcDbEntity
  8
0
100
AcDbLine
 62
7
  6
CONTINUOUS
 10
161.8590635655
 20
79.0237492816
 11
161.8833215627
 21
78.7713164716
  0
LINE
  5
5BC
100
AcDbEntity
  8
0
100
AcDbLine
 62
7
  6
CONTINUOUS
 10
154.7477599458
 20
137.162712434
 11
154.7519606166
 21
137.0103189027
  0
LINE
  5
5BD
100
AcDbEntity
  8
0
100
AcDbLine
 62
7
  6
CONTINUOUS
 10
158.2313006318
 20
109.53
 11
158.2313006318
 21
110.13
  0
LINE
  5
5BE
100
AcDbEntity
  8
0
100
AcDbLine
 62
7
  6
CONTINUOUS
 10
153.3967237981
 20
80.3283328852
 11
153.4134096763
 21
80.514726239
  0
LINE
  5
5BF
100
AcDbEntity
  8
0
100
AcDbLine
 62
7
  6
CONTINUOUS
 10
151.5226641442
 20
78.755146468
 11
151.3913297091
 21
77.9744497827
  0
LINE
  5
5C0
100
AcDbEntity
  8
0
100
AcDbLine
 62
7
  6
CONTINUOUS
 10
151.6431109296
 20
77.9320933273
 11
151.7606206898
 21
78.6306114296
  0
LINE
  5
5C1
100
AcDbEntity
  8
0
100
AcDbLine
 62
7
  6
CONTINUOUS
 10
152.4828712844
 20
77.5373099059
 11
152.5243453186
 21
77.7838457136
  0
LINE
  5
5C2
100
AcDbEntity
  8
0
100
AcDbLine
 62
7
  6
CONTINUOUS
 10
152.6971537878
 20
78.8110782065
 11
152.7455401743
 21
79.0987033939
  0
LINE
  5
5C3
100
AcDbEntity
  8
0
100
AcDbLine
 62
7
  6
CONTINUOUS
 10
154.9658621145
 20
81.8479043244
 11
155.0059275153
 21
82.082733778
  0
LINE
  5
5C4
100
AcDbEntity
  8
0
100
AcDbLine
 62
7
  6
CONTINUOUS
 10
150.753006198
 20
79.0536325467
 11
150.6764809595
 21
78.8552454104
  0
LINE
  5
5C5
100
AcDbEntity
  8
0
100
AcDbLine
 62
7
  6
CONTINUOUS
 10
152.3909087878
 20
86.03
 11
147.4834314997
 21
77.53
  0
LWPOLYLINE
  5
5C6
100
AcDbEntity
  8
RUNDUNGEN
100
AcDbPolyline
 62
7
  6
CONTINUOUS
 90
5
 70
0
 10
157.6691387144
 20
96.3640079655
 10
157.6636362178
 20
96.3561329965
 10
157.6463916228
 20
96.3339181633
 10
157.6502518089
 20
96.3376500075
 10
157.6638981329
 20
96.3501749293
  0
LINE
  5
5C7
100
AcDbEntity
  8
0
100
AcDbLine
 62
7
  6
CONTINUOUS
 10
153.7868187188
 20
83.2570727804
 11
153.5913352344
 21
83.1734078235
  0
LINE
  5
5C8
100
AcDbEntity
  8
0
100
AcDbLine
 62
7
  6
CONTINUOUS
 10
153.7367366633
 20
82.963535775
 11
153.8979699299
 21
83.0234718426
  0
LINE
  5
5C9
100
AcDbEntity
  8
0
100
AcDbLine
 62
7
  6
CONTINUOUS
 10
151.2279402644
 20
134.3117527863
 11
151.0951373218
 21
134.2918417519
  0
LINE
  5
5CA
100
AcDbEntity
  8
0
100
AcDbLine
 62
7
  6
CONTINUOUS
 10
162.850777981
 20
134.5944115349
 11
163.108113476
 21
134.6209149857
  0
LINE
  5
5CB
100
AcDbEntity
  8
0
100
AcDbLine
 62
7
  6
CONTINUOUS
 10
162.6434723659
 20
133.2432841542
 11
162.8597334732
 21
133.2586672056
  0
LINE
  5
5CC
100
AcDbEntity
  8
0
100
AcDbLine
 62
7
  6
CONTINUOUS
 10
163.053669605
 20
134.822009261
 11
162.8374088044
 21
134.8066253047
  0
LINE
  5
5CD
100
AcDbEntity
  8
0
100
AcDbLine
 62
7
  6
CONTINUOUS
 10
107.6434723659
 20
133.2432841542
 11
107.8597334732
 21
133.2586672056
  0
LINE
  5
5CE
100
AcDbEntity
  8
0
100
AcDbLine
 62
7
  6
CONTINUOUS
 10
152.7536341397
 20
134.9452278383
 11
152.6012045538
 21
134.9426480413
  0
LINE
  5
5CF
100
AcDbEntity
  8
0
100
AcDbLine
 62
7
  6
CONTINUOUS
 10
107.5093602064
 20
133.2501419484
 11
107.6434723659
 21
133.2432841542
  0
LINE
  5
5D0
100
AcDbEntity
  8
0
100
AcDbLine
 62
7
  6
CONTINUOUS
 10
108.1877818795
 20
134.815151498
 11
108.053669605
 21
134.822009261
  0
LINE
  5
5D1
100
AcDbEntity
  8
0
100
AcDbLine
 62
7
  6
CONTINUOUS
 10
97.5041325599
 20
134.7083667102
 11
97.6925837522
 21
134.688292146
  0
LINE
  5
5D2
100
AcDbEntity
  8
0
100
AcDbLine
 62
7
  6
CONTINUOUS
 10
107.3947215051
 20
135.9127160041
 11
107.7790508893
 21
135.8533956409
  0
LINE
  5
5D3
100
AcDbEntity
  8
0
100
AcDbLine
 62
7
  6
CONTINUOUS
 10
108.0701401042
 20
136.0299079184
 11
107.685810822
 21
136.0892283433
  0
LINE
  5
5D4
100
AcDbEntity
  8
0
100
AcDbLine
 62
7
  6
CONTINUOUS
 10
99.206219538
 20
138.2370302166
 11
98.9722855569
 21
138.2820301733
  0
LINE
  5
5D5
100
AcDbEntity
  8
0
100
AcDbLine
 62
7
  6
CONTINUOUS
 10
147.4834314997
 20
132.53
 11
152.3909087878
 21
124.03
  0
LINE
  5
5D6
100
AcDbEntity
  8
0
100
AcDbLine
 62
7
  6
CONTINUOUS
 10
151.7181676605
 20
133.8912661145
 11
151.6618899365
 21
134.069742099
  0
LINE
  5
5D7
100
AcDbEntity
  8
0
100
AcDbLine
 62
7
  6
CONTINUOUS
 10
151.5014376246
 20
133.8854737811
 11
151.5226641442
 21
133.755146468
  0
LINE
  5
5D8
100
AcDbEntity
  8
0
100
AcDbLine
 62
7
  6
CONTINUOUS
 10
163.8380787157
 20
79.0415432296
 11
163.8138207149
 21
79.2939760386
  0
LINE
  5
5D9
100
AcDbEntity
  8
0
100
AcDbLine
 62
7
  6
CONTINUOUS
 10
162.0886938172
 20
78.8269185544
 11
162.0753243913
 21
79.0391332448
  0
LINE
  5
5DA
100
AcDbEntity
  8
0
100
AcDbLine
 62
7
  6
CONTINUOUS
 10
163.6084484892
 20
79.2383739637
 11
163.6218176659
 21
79.0261601938
  0
LWPOLYLINE
  5
5DB
100
AcDbEntity
  8
BEZUGSACHSEN
100
AcDbPolyline
 62
7
  6
CONTINUOUS
 90
14
 70
0
 10
159.8601740569
 20
111.1965401206
 10
159.8531195175
 20
111.3652343286
 10
159.8244539319
 20
111.5747838258
 10
159.7767108805
 20
111.7713086709
 10
159.7121582017
 20
111.9557846076
 10
159.6325608674
 20
112.1285329508
 10
159.5384142956
 20
112.2911204779
 10
159.4320687918
 20
112.4412947466
 10
159.3155023985
 20
112.5782580512
 10
159.1909512133
 20
112.7013344148
 10
159.0604102645
 20
112.8104677081
 10
158.9263601244
 20
112.9055311396
 10
158.7904055252
 20
112.9873397338
 10
158.6556184117
 20
113.0561163962
  0
LINE
  5
5DC
100
AcDbEntity
  8
0
100
AcDbLine
 62
7
  6
CONTINUOUS
 10
159.8121590735
 20
100.53
 11
159.8121590735
 21
99.93
  0
LINE
  5
5DD
100
AcDbEntity
  8
BEZUGSACHSEN
100
AcDbLine
 62
7
  6
CONTINUOUS
 10
159.8601729394
 20
111.1965706659
 11
159.8601729394
 21
110.13
  0
LINE
  5
5DE
100
AcDbEntity
  8
RUNDUNGEN
100
AcDbLine
 62
7
  6
CONTINUOUS
 10
159.8601729394
 20
99.93
 11
159.8601729394
 21
98.8634293341
  0
LINE
  5
5DF
100
AcDbEntity
  8
0
100
AcDbLine
 62
7
  6
CONTINUOUS
 10
159.8615024225
 20
100.53
 11
159.8615024225
 21
99.93
  0
LINE
  5
5E0
100
AcDbEntity
  8
0
100
AcDbLine
 62
7
  6
CONTINUOUS
 10
153.1584117091
 20
80.4289873024
 11
153.1057041768
 21
80.265248199
  0
LINE
  5
5E1
100
AcDbEntity
  8
0
100
AcDbLine
 62
7
  6
CONTINUOUS
 10
153.3218340699
 20
80.1293227164
 11
153.3967237981
 21
80.3283328852
  0
LINE
  5
5E2
100
AcDbEntity
  8
0
100
AcDbLine
 62
7
  6
CONTINUOUS
 10
154.7519606166
 20
82.0103189027
 11
154.6976779072
 21
81.869175404
  0
LINE
  5
5E3
100
AcDbEntity
  8
0
100
AcDbLine
 62
7
  6
CONTINUOUS
 10
154.8773295686
 20
81.6830322233
 11
154.9658621145
 21
81.8479043244
  0
LINE
  5
5E4
100
AcDbEntity
  8
0
100
AcDbLine
 62
7
  6
CONTINUOUS
 10
150.8932109756
 20
78.8610376263
 11
150.9559115294
 21
78.9772461209
  0
LINE
  5
5E5
100
AcDbEntity
  8
0
100
AcDbLine
 62
7
  6
CONTINUOUS
 10
151.9837331506
 20
81.7584115662
 11
151.8506394487
 21
81.5467843787
  0
LINE
  5
5E6
100
AcDbEntity
  8
0
100
AcDbLine
 62
7
  6
CONTINUOUS
 10
151.3182646408
 20
80.7002756286
 11
151.1851708754
 21
80.4886483402
  0
LINE
  5
5E7
100
AcDbEntity
  8
0
100
AcDbLine
 62
7
  6
CONTINUOUS
 10
153.1057041768
 20
80.265248199
 11
153.0169749998
 21
80.12416334
  0
LINE
  5
5E8
100
AcDbEntity
  8
0
100
AcDbLine
 62
7
  6
CONTINUOUS
 10
153.2331048929
 20
79.9882378575
 11
153.3218340699
 21
80.1293227164
  0
LINE
  5
5E9
100
AcDbEntity
  8
0
100
AcDbLine
 62
7
  6
CONTINUOUS
 10
150.9065461577
 20
79.196811485
 11
150.753006198
 21
79.0536325467
  0
LINE
  5
5EA
100
AcDbEntity
  8
0
100
AcDbLine
 62
7
  6
CONTINUOUS
 10
150.9559115294
 20
78.9772461209
 11
151.0536632876
 21
79.0453059442
  0
LINE
  5
5EB
100
AcDbEntity
  8
0
100
AcDbLine
 62
7
  6
CONTINUOUS
 10
153.5913352344
 20
83.1734078235
 11
152.7693362796
 21
82.6039188261
  0
LINE
  5
5EC
100
AcDbEntity
  8
0
100
AcDbLine
 62
7
  6
CONTINUOUS
 10
153.1202374471
 20
82.5364190269
 11
153.7367366633
 21
82.963535775
  0
LINE
  5
5ED
100
AcDbEntity
  8
0
100
AcDbLine
 62
7
  6
CONTINUOUS
 10
154.5849117835
 20
81.7392819869
 11
153.9684125674
 21
81.3121652388
  0
LINE
  5
5EE
100
AcDbEntity
  8
0
100
AcDbLine
 62
7
  6
CONTINUOUS
 10
153.9083142744
 20
80.9599209164
 11
154.7303132293
 21
81.5294099138
  0
LINE
  5
5EF
100
AcDbEntity
  8
0
100
AcDbLine
 62
7
  6
CONTINUOUS
 10
152.9253993934
 20
79.7387598175
 11
153.0861718691
 21
79.8345361816
  0
LINE
  5
5F0
100
AcDbEntity
  8
0
100
AcDbLine
 62
7
  6
CONTINUOUS
 10
151.0951373218
 20
79.2918417519
 11
150.9065461577
 21
79.196811485
  0
LINE
  5
5F1
100
AcDbEntity
  8
0
100
AcDbLine
 62
7
  6
CONTINUOUS
 10
152.8922243052
 20
80.0057329273
 11
152.7536341397
 21
79.9452278383
  0
LINE
  5
5F2
100
AcDbEntity
  8
0
100
AcDbLine
 62
7
  6
CONTINUOUS
 10
107.8597334732
 20
133.2586672056
 11
108.2294034796
 21
133.3587509405
  0
LINE
  5
5F3
100
AcDbEntity
  8
0
100
AcDbLine
 62
7
  6
CONTINUOUS
 10
108.1338851634
 20
133.5487248009
 11
107.8463640473
 21
133.4708818959
  0
LINE
  5
5F4
100
AcDbEntity
  8
0
100
AcDbLine
 62
7
  6
CONTINUOUS
 10
96.0536632876
 20
134.0453059442
 11
96.1864662302
 21
134.0652169786
  0
LINE
  5
5F5
100
AcDbEntity
  8
0
100
AcDbLine
 62
7
  6
CONTINUOUS
 10
153.9722855569
 20
138.2820301733
 11
153.7868187188
 21
138.2570727804
  0
LINE
  5
5F6
100
AcDbEntity
  8
0
100
AcDbLine
 62
7
  6
CONTINUOUS
 10
107.8463640473
 20
133.4708818959
 11
107.5890287441
 21
133.4443775091
  0
LINE
  5
5F7
100
AcDbEntity
  8
0
100
AcDbLine
 62
7
  6
CONTINUOUS
 10
107.850777981
 20
134.5944115349
 11
108.108113476
 21
134.6209149857
  0
LINE
  5
5F8
100
AcDbEntity
  8
0
100
AcDbLine
 62
7
  6
CONTINUOUS
 10
108.053669605
 20
134.822009261
 11
107.8374088044
 21
134.8066253047
  0
LINE
  5
5F9
100
AcDbEntity
  8
0
100
AcDbLine
 62
7
  6
CONTINUOUS
 10
97.7536341397
 20
134.9452278383
 11
97.6012045538
 21
134.9426480413
  0
LINE
  5
5FA
100
AcDbEntity
  8
0
100
AcDbLine
 62
7
  6
CONTINUOUS
 10
153.8979699299
 20
138.0234718426
 11
154.0491869422
 21
138.0247006178
  0
LINE
  5
5FB
100
AcDbEntity
  8
0
100
AcDbLine
 62
7
  6
CONTINUOUS
 10
98.8979699299
 20
138.0234718426
 11
99.0491869422
 21
138.0247006178
  0
LINE
  5
5FC
100
AcDbEntity
  8
0
100
AcDbLine
 62
7
  6
CONTINUOUS
 10
159.0304368835
 20
135.53
 11
155.5663352684
 21
135.53
  0
LINE
  5
5FD
100
AcDbEntity
  8
0
100
AcDbLine
 62
7
  6
CONTINUOUS
 10
104.0304368835
 20
135.53
 11
100.5663352684
 21
135.53
  0
LINE
  5
5FE
100
AcDbEntity
  8
0
100
AcDbLine
 62
7
  6
CONTINUOUS
 10
162.5093602064
 20
133.2501419484
 11
162.6434723659
 21
133.2432841542
  0
LINE
  5
5FF
100
AcDbEntity
  8
0
100
AcDbLine
 62
7
  6
CONTINUOUS
 10
163.1877818795
 20
134.815151498
 11
163.053669605
 21
134.822009261
  0
LINE
  5
600
100
AcDbEntity
  8
0
100
AcDbLine
 62
7
  6
CONTINUOUS
 10
152.5041325599
 20
134.7083667102
 11
152.6925837522
 21
134.688292146
  0
LINE
  5
601
100
AcDbEntity
  8
0
100
AcDbLine
 62
7
  6
CONTINUOUS
 10
150.5105848226
 20
132.8691021795
 11
152.4828712844
 21
132.5373099059
  0
LINE
  5
602
100
AcDbEntity
  8
0
100
AcDbLine
 62
7
  6
CONTINUOUS
 10
152.5243453186
 20
132.7838457136
 11
151.6431109296
 21
132.9320933273
  0
LINE
  5
603
100
AcDbEntity
  8
0
100
AcDbLine
 62
7
  6
CONTINUOUS
 10
151.3913297091
 20
132.9744497827
 11
150.7618765405
 21
133.080340941
  0
LINE
  5
604
100
AcDbEntity
  8
0
100
AcDbLine
 62
7
  6
CONTINUOUS
 10
151.1864662302
 20
134.0652169786
 11
151.312356958
 21
134.0440387311
  0
LINE
  5
605
100
AcDbEntity
  8
0
100
AcDbLine
 62
7
  6
CONTINUOUS
 10
151.3957945289
 20
134.2835151296
 11
151.2279402644
 21
134.3117527863
  0
LINE
  5
606
100
AcDbEntity
  8
0
100
AcDbLine
 62
7
  6
CONTINUOUS
 10
153.4134096763
 20
135.514726239
 11
153.358052262
 21
135.7464280836
  0
LINE
  5
607
100
AcDbEntity
  8
0
100
AcDbLine
 62
7
  6
CONTINUOUS
 10
155.0059275153
 20
137.082733778
 11
154.977493256
 21
137.2701060086
  0
LINE
  5
608
100
AcDbEntity
  8
0
100
AcDbLine
 62
7
  6
CONTINUOUS
 10
161.8590635655
 20
134.0237492816
 11
161.8833215627
 21
133.7713164716
  0
LINE
  5
609
100
AcDbEntity
  8
0
100
AcDbLine
 62
7
  6
CONTINUOUS
 10
163.8380787157
 20
134.0415432296
 11
163.8138207149
 21
134.2939760386
  0
LINE
  5
60A
100
AcDbEntity
  8
0
100
AcDbLine
 62
7
  6
CONTINUOUS
 10
162.0886938172
 20
133.8269185544
 11
162.0753243913
 21
134.0391332448
  0
LINE
  5
60B
100
AcDbEntity
  8
0
100
AcDbLine
 62
7
  6
CONTINUOUS
 10
163.6084484892
 20
134.2383739637
 11
163.6218176659
 21
134.0261601938
  0
LINE
  5
60C
100
AcDbEntity
  8
0
100
AcDbLine
 62
7
  6
CONTINUOUS
 10
164.3947759486
 20
100.53
 11
164.3947759486
 21
99.93
  0
LINE
  5
60D
100
AcDbEntity
  8
0
100
AcDbLine
 62
7
  6
CONTINUOUS
 10
164.5399445091
 20
109.53
 11
164.5399445091
 21
110.13
  0
LINE
  5
60E
100
AcDbEntity
  8
0
100
AcDbLine
 62
7
  6
CONTINUOUS
 10
164.9226275765
 20
109.53
 11
164.9226275765
 21
110.13
  0
LINE
  5
60F
100
AcDbEntity
  8
0
100
AcDbLine
 62
7
  6
CONTINUOUS
 10
165.1749772362
 20
109.53
 11
165.1749772362
 21
110.13
  0
LINE
  5
610
100
AcDbEntity
  8
0
100
AcDbLine
 62
7
  6
CONTINUOUS
 10
165.6213737389
 20
100.53
 11
165.6213737389
 21
99.93
  0
LINE
  5
611
100
AcDbEntity
  8
0
100
AcDbLine
 62
7
  6
CONTINUOUS
 10
165.7902517391
 20
109.53
 11
165.7902517391
 21
110.13
  0
LINE
  5
612
100
AcDbEntity
  8
0
100
AcDbLine
 62
7
  6
CONTINUOUS
 10
166.3354194345
 20
109.53
 11
166.3354194345
 21
110.13
  0
LINE
  5
613
100
AcDbEntity
  8
0
100
AcDbLine
 62
7
  6
CONTINUOUS
 10
166.6925388162
 20
109.53
 11
166.6925388162
 21
110.13
  0
LINE
  5
614
100
AcDbEntity
  8
0
100
AcDbLine
 62
7
  6
CONTINUOUS
 10
167.0677627761
 20
100.53
 11
167.0677627761
 21
99.93
  0
LINE
  5
615
100
AcDbEntity
  8
0
100
AcDbLine
 62
7
  6
CONTINUOUS
 10
167.4408791226
 20
100.53
 11
167.4408791226
 21
99.93
  0
LINE
  5
616
100
AcDbEntity
  8
0
100
AcDbLine
 62
7
  6
CONTINUOUS
 10
167.8405891132
 20
109.53
 11
167.8405891132
 21
110.13
  0
LINE
  5
617
100
AcDbEntity
  8
0
100
AcDbLine
 62
7
  6
CONTINUOUS
 10
160.7583475549
 20
82.8769677169
 11
160.2022903128
 21
81.2926610354
  0
LINE
  5
618
100
AcDbEntity
  8
0
100
AcDbLine
 62
7
  6
CONTINUOUS
 10
160.4664012532
 20
81.3500426475
 11
161.126206275
 21
83.1247222919
  0
LINE
  5
619
100
AcDbEntity
  8
0
100
AcDbLine
 62
7
  6
CONTINUOUS
 10
155.5663352684
 20
80.53
 11
153.8342844608
 21
77.53
  0
LINE
  5
61A
100
AcDbEntity
  8
0
100
AcDbLine
 62
7
  6
CONTINUOUS
 10
160.837553535
 20
83.3641060752
 11
159.5608400242
 21
81.8246247953
  0
LINE
  5
61B
100
AcDbEntity
  8
0
100
AcDbLine
 62
7
  6
CONTINUOUS
 10
159.7532751842
 20
81.6650356064
 11
160.7583475549
 21
82.8769677169
  0
LINE
  5
61C
100
AcDbEntity
  8
0
100
AcDbLine
 62
7
  6
CONTINUOUS
 10
154.6976779072
 20
81.869175404
 11
154.5849117835
 21
81.7392819869
  0
LINE
  5
61D
100
AcDbEntity
  8
0
100
AcDbLine
 62
7
  6
CONTINUOUS
 10
153.0861718691
 20
79.8345361816
 11
153.2331048929
 21
79.9882378575
  0
LINE
  5
61E
100
AcDbEntity
  8
0
100
AcDbLine
 62
7
  6
CONTINUOUS
 10
154.7303132293
 20
81.5294099138
 11
154.8773295686
 21
81.6830322233
  0
LINE
  5
61F
100
AcDbEntity
  8
0
100
AcDbLine
 62
7
  6
CONTINUOUS
 10
153.0169749998
 20
80.12416334
 11
152.8922243052
 21
80.0057329273
  0
LINE
  5
620
100
AcDbEntity
  8
0
100
AcDbLine
 62
7
  6
CONTINUOUS
 10
162.685810822
 20
81.0892283433
 11
162.3947215051
 21
80.9127160041
  0
LINE
  5
621
100
AcDbEntity
  8
0
100
AcDbLine
 62
7
  6
CONTINUOUS
 10
162.7790508893
 20
80.8533956409
 11
161.3599907625
 21
79.9928981648
  0
LINE
  5
622
100
AcDbEntity
  8
0
100
AcDbLine
 62
7
  6
CONTINUOUS
 10
161.4896169817
 20
79.7791294971
 11
163.1997663234
 21
80.8161392506
  0
LINE
  5
623
100
AcDbEntity
  8
0
100
AcDbLine
 62
7
  6
CONTINUOUS
 10
162.0883820749
 20
82.3267763477
 11
160.4664012532
 21
81.3500426475
  0
LINE
  5
624
100
AcDbEntity
  8
0
100
AcDbLine
 62
7
  6
CONTINUOUS
 10
160.4588710155
 20
81.0798750444
 11
161.9129585148
 21
81.9194325838
  0
LINE
  5
625
100
AcDbEntity
  8
0
100
AcDbLine
 62
7
  6
CONTINUOUS
 10
162.467738798
 20
79.7065415698
 11
162.2732550895
 21
79.6107213606
  0
LINE
  5
626
100
AcDbEntity
  8
0
100
AcDbLine
 62
7
  6
CONTINUOUS
 10
162.3276989606
 20
79.4096270852
 11
162.563256865
 21
79.5165686299
  0
LINE
  5
627
100
AcDbEntity
  8
0
100
AcDbLine
 62
7
  6
CONTINUOUS
 10
163.3694432595
 20
78.6556654095
 11
163.1338851634
 21
78.5487248009
  0
LINE
  5
628
100
AcDbEntity
  8
0
100
AcDbLine
 62
7
  6
CONTINUOUS
 10
107.563256865
 20
134.5165686299
 11
107.850777981
 21
134.5944115349
  0
LINE
  5
629
100
AcDbEntity
  8
0
100
AcDbLine
 62
7
  6
CONTINUOUS
 10
107.8374088044
 20
134.8066253047
 11
107.467738798
 21
134.7065415698
  0
LINE
  5
62A
100
AcDbEntity
  8
0
100
AcDbLine
 62
7
  6
CONTINUOUS
 10
97.6925837522
 20
134.688292146
 11
97.9253993934
 21
134.7387598175
  0
LINE
  5
62B
100
AcDbEntity
  8
0
100
AcDbLine
 62
7
  6
CONTINUOUS
 10
97.7455401743
 20
134.0987033939
 11
96.7181676605
 21
133.8912661145
  0
LINE
  5
62C
100
AcDbEntity
  8
0
100
AcDbLine
 62
7
  6
CONTINUOUS
 10
96.7606206898
 20
133.6306114296
 11
97.6971537878
 21
133.8110782065
  0
LINE
  5
62D
100
AcDbEntity
  8
0
100
AcDbLine
 62
7
  6
CONTINUOUS
 10
96.2279402644
 20
134.3117527863
 11
96.0951373218
 21
134.2918417519
  0
LINE
  5
62E
100
AcDbEntity
  8
0
100
AcDbLine
 62
7
  6
CONTINUOUS
 10
98.9722855569
 20
138.2820301733
 11
98.7868187188
 21
138.2570727804
  0
LINE
  5
62F
100
AcDbEntity
  8
0
100
AcDbLine
 62
7
  6
CONTINUOUS
 10
162.2058633641
 20
141.03
 11
152.3909087878
 21
141.03
  0
LINE
  5
630
100
AcDbEntity
  8
0
100
AcDbLine
 62
7
  6
CONTINUOUS
 10
107.2058633641
 20
141.03
 11
97.3909087878
 21
141.03
  0
LINE
  5
631
100
AcDbEntity
  8
BEZUGSACHSEN
100
AcDbLine
 62
7
  6
CONTINUOUS
 10
94.7983860759
 20
142.53
 11
126.5292118683
 21
142.53
  0
LINE
  5
632
100
AcDbEntity
  8
RUNDUNGEN
100
AcDbLine
 62
7
  6
CONTINUOUS
 10
126.5292118683
 20
142.53
 11
133.0675602836
 21
142.53
  0
LINE
  5
633
100
AcDbEntity
  8
BEZUGSACHSEN
100
AcDbLine
 62
7
  6
CONTINUOUS
 10
133.0675602836
 20
142.53
 11
164.7983860759
 21
142.53
  0
LINE
  5
634
100
AcDbEntity
  8
0
100
AcDbLine
 62
7
  6
CONTINUOUS
 10
162.3947215051
 20
135.9127160041
 11
162.7790508893
 21
135.8533956409
  0
LINE
  5
635
100
AcDbEntity
  8
0
100
AcDbLine
 62
7
  6
CONTINUOUS
 10
163.0701401042
 20
136.0299079184
 11
162.685810822
 21
136.0892283433
  0
LINE
  5
636
100
AcDbEntity
  8
0
100
AcDbLine
 62
7
  6
CONTINUOUS
 10
154.206219538
 20
138.2370302166
 11
153.9722855569
 21
138.2820301733
  0
LINE
  5
637
100
AcDbEntity
  8
0
100
AcDbLine
 62
7
  6
CONTINUOUS
 10
162.3232849981
 20
133.2860974385
 11
162.5093602064
 21
133.2501419484
  0
LINE
  5
638
100
AcDbEntity
  8
0
100
AcDbLine
 62
7
  6
CONTINUOUS
 10
163.373857059
 20
134.7791960001
 11
163.1877818795
 21
134.815151498
  0
LINE
  5
639
100
AcDbEntity
  8
0
100
AcDbLine
 62
7
  6
CONTINUOUS
 10
162.5890287441
 20
133.4443775091
 11
162.2990269974
 21
133.5385302475
  0
LINE
  5
63A
100
AcDbEntity
  8
0
100
AcDbLine
 62
7
  6
CONTINUOUS
 10
152.6012045538
 20
134.9426480413
 11
152.4349357762
 21
134.9979939557
  0
LINE
  5
63B
100
AcDbEntity
  8
0
100
AcDbLine
 62
7
  6
CONTINUOUS
 10
152.3018420107
 20
134.7863666672
 11
152.5041325599
 21
134.7083667102
  0
LINE
  5
63C
100
AcDbEntity
  8
0
100
AcDbLine
 62
7
  6
CONTINUOUS
 10
151.312356958
 20
134.0440387311
 11
151.4313352357
 21
133.9817712413
  0
LINE
  5
63D
100
AcDbEntity
  8
0
100
AcDbLine
 62
7
  6
CONTINUOUS
 10
151.5147728067
 20
134.2212476398
 11
151.3957945289
 21
134.2835151296
  0
LINE
  5
63E
100
AcDbEntity
  8
0
100
AcDbLine
 62
7
  6
CONTINUOUS
 10
151.1851708754
 20
135.4886483402
 11
152.3018420107
 21
134.7863666672
  0
LINE
  5
63F
100
AcDbEntity
  8
0
100
AcDbLine
 62
7
  6
CONTINUOUS
 10
152.4349357762
 20
134.9979939557
 11
151.3182646408
 21
135.7002756286
  0
LINE
  5
640
100
AcDbEntity
  8
0
100
AcDbLine
 62
7
  6
CONTINUOUS
 10
151.6618899365
 20
134.069742099
 11
151.5147728067
 21
134.2212476398
  0
LINE
  5
641
100
AcDbEntity
  8
0
100
AcDbLine
 62
7
  6
CONTINUOUS
 10
151.4313352357
 20
133.9817712413
 11
151.5014376246
 21
133.8854737811
  0
LINE
  5
642
100
AcDbEntity
  8
0
100
AcDbLine
 62
7
  6
CONTINUOUS
 10
152.7693362796
 20
137.6039188261
 11
153.9083142744
 21
135.9599209164
  0
LINE
  5
643
100
AcDbEntity
  8
0
100
AcDbLine
 62
7
  6
CONTINUOUS
 10
153.9684125674
 20
136.3121652388
 11
153.1202374471
 21
137.5364190269
  0
LINE
  5
644
100
AcDbEntity
  8
0
100
AcDbLine
 62
7
  6
CONTINUOUS
 10
153.358052262
 20
135.7464280836
 11
153.2583301833
 21
135.9075874058
  0
LINE
  5
645
100
AcDbEntity
  8
0
100
AcDbLine
 62
7
  6
CONTINUOUS
 10
153.8342844608
 20
132.53
 11
155.5663352684
 21
129.53
  0
LINE
  5
646
100
AcDbEntity
  8
0
100
AcDbLine
 62
7
  6
CONTINUOUS
 10
153.0892148366
 20
135.7186144628
 11
153.1529152456
 21
135.5801094009
  0
LINE
  5
647
100
AcDbEntity
  8
0
100
AcDbLine
 62
7
  6
CONTINUOUS
 10
154.977493256
 20
137.2701060086
 11
154.8905752244
 21
137.4687280001
  0
LINE
  5
648
100
AcDbEntity
  8
0
100
AcDbLine
 62
7
  6
CONTINUOUS
 10
154.6850754857
 20
137.3263557507
 11
154.7477599458
 21
137.162712434
  0
LINE
  5
649
100
AcDbEntity
  8
0
100
AcDbLine
 62
7
  6
CONTINUOUS
 10
168.0798634947
 20
100.53
 11
168.0798634947
 21
99.93
  0
LINE
  5
64A
100
AcDbEntity
  8
0
100
AcDbLine
 62
7
  6
CONTINUOUS
 10
168.8797203483
 20
100.53
 11
168.8797203483
 21
99.93
  0
LINE
  5
64B
100
AcDbEntity
  8
0
100
AcDbLine
 62
7
  6
CONTINUOUS
 10
168.9886391366
 20
109.53
 11
168.9886391366
 21
110.13
  0
LINE
  5
64C
100
AcDbEntity
  8
0
100
AcDbLine
 62
7
  6
CONTINUOUS
 10
169.3713227515
 20
109.53
 11
169.3713227515
 21
110.13
  0
LINE
  5
64D
100
AcDbEntity
  8
0
100
AcDbLine
 62
7
  6
CONTINUOUS
 10
169.4966305244
 20
109.53
 11
169.4966305244
 21
110.13
  0
LINE
  5
64E
100
AcDbEntity
  8
0
100
AcDbLine
 62
7
  6
CONTINUOUS
 10
169.6506245288
 20
100.53
 11
169.6506245288
 21
99.93
  0
LINE
  5
64F
100
AcDbEntity
  8
0
100
AcDbLine
 62
7
  6
CONTINUOUS
 10
169.8026213027
 20
109.53
 11
169.8026213027
 21
110.13
  0
LINE
  5
650
100
AcDbEntity
  8
0
100
AcDbLine
 62
7
  6
CONTINUOUS
 10
170.1148797249
 20
100.53
 11
170.1148797249
 21
99.93
  0
LINE
  5
651
100
AcDbEntity
  8
0
100
AcDbLine
 62
7
  6
CONTINUOUS
 10
170.2743898488
 20
109.53
 11
170.2743898488
 21
110.13
  0
LINE
  5
652
100
AcDbEntity
  8
0
100
AcDbLine
 62
7
  6
CONTINUOUS
 10
170.3636237187
 20
100.53
 11
170.3636237187
 21
99.93
  0
LINE
  5
653
100
AcDbEntity
  8
0
100
AcDbLine
 62
7
  6
CONTINUOUS
 10
170.5212295746
 20
100.53
 11
170.5212295746
 21
99.93
  0
LINE
  5
654
100
AcDbEntity
  8
0
100
AcDbLine
 62
7
  6
CONTINUOUS
 10
170.676051394
 20
109.53
 11
170.676051394
 21
110.13
  0
LINE
  5
655
100
AcDbEntity
  8
0
100
AcDbLine
 62
7
  6
CONTINUOUS
 10
171.2803051136
 20
100.53
 11
171.2803051136
 21
99.93
  0
LINE
  5
656
100
AcDbEntity
  8
0
100
AcDbLine
 62
7
  6
CONTINUOUS
 10
171.2913258968
 20
109.53
 11
171.2913258968
 21
110.13
  0
LINE
  5
657
100
AcDbEntity
  8
0
100
AcDbLine
 62
7
  6
CONTINUOUS
 10
171.5912352838
 20
100.53
 11
171.5912352838
 21
99.93
  0
LINE
  5
658
100
AcDbEntity
  8
0
100
AcDbLine
 62
7
  6
CONTINUOUS
 10
171.8364937292
 20
109.53
 11
171.8364937292
 21
110.13
  0
LINE
  5
659
100
AcDbEntity
  8
0
100
AcDbLine
 62
7
  6
CONTINUOUS
 10
161.9278430407
 20
79.2582048049
 11
161.8590635655
 21
79.0237492816
  0
LINE
  5
65A
100
AcDbEntity
  8
0
100
AcDbLine
 62
7
  6
CONTINUOUS
 10
163.769299002
 20
78.8070886298
 11
163.8380787157
 21
79.0415432296
  0
LINE
  5
65B
100
AcDbEntity
  8
0
100
AcDbLine
 62
7
  6
CONTINUOUS
 10
162.0753243913
 20
79.0391332448
 11
162.1248070587
 21
79.1820302718
  0
LINE
  5
65C
100
AcDbEntity
  8
0
100
AcDbLine
 62
7
  6
CONTINUOUS
 10
163.6218176659
 20
79.0261601938
 11
163.5723349985
 21
78.8832631668
  0
LINE
  5
65D
100
AcDbEntity
  8
0
100
AcDbLine
 62
7
  6
CONTINUOUS
 10
159.0304368835
 20
74.53
 11
160.7624876911
 21
77.53
  0
LINE
  5
65E
100
AcDbEntity
  8
0
100
AcDbLine
 62
7
  6
CONTINUOUS
 10
162.0184001676
 20
79.4122222508
 11
161.9278430407
 21
79.2582048049
  0
LINE
  5
65F
100
AcDbEntity
  8
0
100
AcDbLine
 62
7
  6
CONTINUOUS
 10
161.9129585148
 20
81.9194325838
 11
160.9078861441
 21
80.7075004733
  0
LINE
  5
660
100
AcDbEntity
  8
0
100
AcDbLine
 62
7
  6
CONTINUOUS
 10
161.1003213041
 20
80.5479112845
 11
162.3770348149
 21
82.0873925644
  0
LINE
  5
661
100
AcDbEntity
  8
0
100
AcDbLine
 62
7
  6
CONTINUOUS
 10
162.1248070587
 20
79.1820302718
 11
162.3276989606
 21
79.4096270852
  0
LINE
  5
662
100
AcDbEntity
  8
0
100
AcDbLine
 62
7
  6
CONTINUOUS
 10
162.1609205781
 20
79.5371410764
 11
162.0184001676
 21
79.4122222508
  0
LINE
  5
663
100
AcDbEntity
  8
0
100
AcDbLine
 62
7
  6
CONTINUOUS
 10
163.5362215078
 20
78.52815237
 11
163.6787418895
 21
78.6530711878
  0
LINE
  5
664
100
AcDbEntity
  8
0
100
AcDbLine
 62
7
  6
CONTINUOUS
 10
162.2732550895
 20
79.6107213606
 11
162.1609205781
 21
79.5371410764
  0
LINE
  5
665
100
AcDbEntity
  8
0
100
AcDbLine
 62
7
  6
CONTINUOUS
 10
163.4238868813
 20
78.4545720547
 11
163.5362215078
 21
78.52815237
  0
LINE
  5
666
100
AcDbEntity
  8
0
100
AcDbLine
 62
7
  6
CONTINUOUS
 10
163.2294034796
 20
78.3587509405
 11
163.4238868813
 21
78.4545720547
  0
LINE
  5
667
100
AcDbEntity
  8
0
100
AcDbLine
 62
7
  6
CONTINUOUS
 10
163.108113476
 20
134.6209149857
 11
163.3981150597
 21
134.5267631911
  0
LINE
  5
668
100
AcDbEntity
  8
0
100
AcDbLine
 62
7
  6
CONTINUOUS
 10
154.0491869422
 20
138.0247006178
 11
154.190387768
 21
137.9672220025
  0
LINE
  5
669
100
AcDbEntity
  8
0
100
AcDbLine
 62
7
  6
CONTINUOUS
 10
154.3716538674
 20
138.1445730246
 11
154.206219538
 21
138.2370302166
  0
LINE
  5
66A
100
AcDbEntity
  8
0
100
AcDbLine
 62
7
  6
CONTINUOUS
 10
162.1673954253
 20
133.3733923866
 11
162.3232849981
 21
133.2860974385
  0
LINE
  5
66B
100
AcDbEntity
  8
0
100
AcDbLine
 62
7
  6
CONTINUOUS
 10
151.8506394487
 20
136.5467843787
 11
152.967310584
 21
135.8445027057
  0
LINE
  5
66C
100
AcDbEntity
  8
0
100
AcDbLine
 62
7
  6
CONTINUOUS
 10
153.100404286
 20
136.0561298932
 11
151.9837331506
 21
136.7584115662
  0
LINE
  5
66D
100
AcDbEntity
  8
0
100
AcDbLine
 62
7
  6
CONTINUOUS
 10
154.190387768
 20
137.9672220025
 11
154.3215718797
 21
137.8510359211
  0
LINE
  5
66E
100
AcDbEntity
  8
0
100
AcDbLine
 62
7
  6
CONTINUOUS
 10
153.2583301833
 20
135.9075874058
 11
153.100404286
 21
136.0561298932
  0
LINE
  5
66F
100
AcDbEntity
  8
0
100
AcDbLine
 62
7
  6
CONTINUOUS
 10
154.5270716184
 20
137.9934081705
 11
154.3716538674
 21
138.1445730246
  0
LINE
  5
670
100
AcDbEntity
  8
0
100
AcDbLine
 62
7
  6
CONTINUOUS
 10
152.967310584
 20
135.8445027057
 11
153.0892148366
 21
135.7186144628
  0
LINE
  5
671
100
AcDbEntity
  8
0
100
AcDbLine
 62
7
  6
CONTINUOUS
 10
154.3215718797
 20
137.8510359211
 11
154.6850754857
 21
137.3263557507
  0
LINE
  5
672
100
AcDbEntity
  8
0
100
AcDbLine
 62
7
  6
CONTINUOUS
 10
154.8905752244
 20
137.4687280001
 11
154.5270716184
 21
137.9934081705
  0
LINE
  5
673
100
AcDbEntity
  8
0
100
AcDbLine
 62
7
  6
CONTINUOUS
 10
160.7624876911
 20
132.53
 11
159.0304368835
 21
135.53
  0
LINE
  5
674
100
AcDbEntity
  8
0
100
AcDbLine
 62
7
  6
CONTINUOUS
 10
162.1842118842
 20
133.6369456145
 11
162.0886938172
 21
133.8269185544
  0
LINE
  5
675
100
AcDbEntity
  8
0
100
AcDbLine
 62
7
  6
CONTINUOUS
 10
161.8833215627
 20
133.7713164716
 11
161.9897284573
 21
133.5411244936
  0
LINE
  5
676
100
AcDbEntity
  8
0
100
AcDbLine
 62
7
  6
CONTINUOUS
 10
172.1936129739
 20
109.53
 11
172.1936129739
 21
110.13
  0
LINE
  5
677
100
AcDbEntity
  8
0
100
AcDbLine
 62
7
  6
CONTINUOUS
 10
173.341663271
 20
109.53
 11
173.341663271
 21
110.13
  0
LINE
  5
678
100
AcDbEntity
  8
0
100
AcDbLine
 62
7
  6
CONTINUOUS
 10
162.2058633641
 20
69.03
 11
167.1133406522
 21
77.53
  0
LINE
  5
679
100
AcDbEntity
  8
0
100
AcDbLine
 62
7
  6
CONTINUOUS
 10
163.6787418895
 20
78.6530711878
 11
163.769299002
 21
78.8070886298
  0
LINE
  5
67A
100
AcDbEntity
  8
0
100
AcDbLine
 62
7
  6
CONTINUOUS
 10
163.5723349985
 20
78.8832631668
 11
163.3694432595
 21
78.6556654095
  0
LINE
  5
67B
100
AcDbEntity
  8
0
100
AcDbLine
 62
7
  6
CONTINUOUS
 10
163.5297466174
 20
134.6919010481
 11
163.373857059
 21
134.7791960001
  0
LINE
  5
67C
100
AcDbEntity
  8
0
100
AcDbLine
 62
7
  6
CONTINUOUS
 10
159.5608400242
 20
136.8246247953
 11
159.7532751842
 21
136.6650356064
  0
LINE
  5
67D
100
AcDbEntity
  8
0
100
AcDbLine
 62
7
  6
CONTINUOUS
 10
160.2022903128
 20
136.2926610354
 11
160.4588710155
 21
136.0798750444
  0
LINE
  5
67E
100
AcDbEntity
  8
0
100
AcDbLine
 62
7
  6
CONTINUOUS
 10
160.9078861441
 20
135.7075004733
 11
161.1003213041
 21
135.5479112845
  0
LINE
  5
67F
100
AcDbEntity
  8
0
100
AcDbLine
 62
7
  6
CONTINUOUS
 10
162.3770348149
 20
137.0873925644
 11
162.0883820749
 21
137.3267763477
  0
LINE
  5
680
100
AcDbEntity
  8
0
100
AcDbLine
 62
7
  6
CONTINUOUS
 10
161.126206275
 20
138.1247222919
 11
160.837553535
 21
138.3641060752
  0
LINE
  5
681
100
AcDbEntity
  8
0
100
AcDbLine
 62
7
  6
CONTINUOUS
 10
162.2990269974
 20
133.5385302475
 11
162.1842118842
 21
133.6369456145
  0
LINE
  5
682
100
AcDbEntity
  8
0
100
AcDbLine
 62
7
  6
CONTINUOUS
 10
163.3981150597
 20
134.5267631911
 11
163.512930173
 21
134.4283478241
  0
LINE
  5
683
100
AcDbEntity
  8
0
100
AcDbLine
 62
7
  6
CONTINUOUS
 10
161.9897284573
 20
133.5411244936
 11
162.1673954253
 21
133.3733923866
  0
LINE
  5
684
100
AcDbEntity
  8
0
100
AcDbLine
 62
7
  6
CONTINUOUS
 10
163.7074138239
 20
134.5241680177
 11
163.5297466174
 21
134.6919010481
  0
LINE
  5
685
100
AcDbEntity
  8
0
100
AcDbLine
 62
7
  6
CONTINUOUS
 10
161.3599907625
 20
134.9928981648
 11
161.4896169817
 21
134.7791294971
  0
LINE
  5
686
100
AcDbEntity
  8
0
100
AcDbLine
 62
7
  6
CONTINUOUS
 10
163.1997663234
 20
135.8161392506
 11
163.0701401042
 21
136.0299079184
  0
LINE
  5
687
100
AcDbEntity
  8
0
100
AcDbLine
 62
7
  6
CONTINUOUS
 10
167.1133406522
 20
132.53
 11
162.2058633641
 21
141.03
  0
LINE
  5
688
100
AcDbEntity
  8
0
100
AcDbLine
 62
7
  6
CONTINUOUS
 10
163.512930173
 20
134.4283478241
 11
163.6084484892
 21
134.2383739637
  0
LINE
  5
689
100
AcDbEntity
  8
0
100
AcDbLine
 62
7
  6
CONTINUOUS
 10
163.8138207149
 20
134.2939760386
 11
163.7074138239
 21
134.5241680177
  0
LINE
  5
68A
100
AcDbEntity
  8
RUNDUNGEN
100
AcDbLine
 62
7
  6
CONTINUOUS
 10
179.7983860759
 20
127.53
 11
179.7983860759
 21
82.53
  0
LINE
  5
68B
100
AcDbEntity
  8
BEZUGSACHSEN
100
AcDbLine
 62
7
  6
CONTINUOUS
 10
179.7983860759
 20
102.53
 11
179.7983860759
 21
107.53
  0
ARC
  5
68C
100
AcDbEntity
  8
BEZUGSACHSEN
100
AcDbCircle
 62
7
  6
CONTINUOUS
 10
82.9013982369
 20
144.1573703271
 40
69.3614099615
100
AcDbArc
 50
67.3956634814
 51
67.9817874207
  0
ARC
  5
68D
100
AcDbEntity
  8
BEZUGSACHSEN
100
AcDbCircle
 62
7
  6
CONTINUOUS
 10
73.6913764504
 20
247.8531662722
 40
46.7038206717
100
AcDbArc
 50
302.401620113
 51
302.56856888
  0
ARC
  5
68E
100
AcDbEntity
  8
RUNDUNGEN
100
AcDbCircle
 62
7
  6
CONTINUOUS
 10
94.7983860759
 20
207.4031993128
 40
15.0
100
AcDbArc
 50
157.7053960649
 51
180.0
  0
ARC
  5
68F
100
AcDbEntity
  8
BEZUGSACHSEN
100
AcDbCircle
 62
7
  6
CONTINUOUS
 10
91.0792070914
 20
216.4407979882
 40
10.0
100
AcDbArc
 50
270.0
 51
278.0822233949
  0
ARC
  5
690
100
AcDbEntity
  8
BEZUGSACHSEN
100
AcDbCircle
 62
7
  6
CONTINUOUS
 10
91.0792070914
 20
216.4407979882
 40
10.0
100
AcDbArc
 50
306.2969612276
 51
337.5245651299
  0
ARC
  5
691
100
AcDbEntity
  8
BEZUGSACHSEN
100
AcDbCircle
 62
7
  6
CONTINUOUS
 10
96.7856625889
 20
217.1549552002
 40
5.0
100
AcDbArc
 50
337.5211601326
 51
22.5115703416
  0
ARC
  5
692
100
AcDbEntity
  8
RUNDUNGEN
100
AcDbCircle
 62
7
  6
CONTINUOUS
 10
126.5292118683
 20
202.4407979882
 40
4.0
100
AcDbArc
 50
81.2539867168
 51
90.0
  0
ARC
  5
693
100
AcDbEntity
  8
BEZUGSACHSEN
100
AcDbCircle
 62
7
  6
CONTINUOUS
 10
110.657612881
 20
242.8379585704
 40
3.0
100
AcDbArc
 50
112.5081883767
 51
157.52456513
  0
ARC
  5
694
100
AcDbEntity
  8
BEZUGSACHSEN
100
AcDbCircle
 62
7
  6
CONTINUOUS
 10
102.7365992125
 20
223.6917260681
 40
3.0
100
AcDbArc
 50
157.5245617794
 51
202.5132764314
  0
ARC
  5
695
100
AcDbEntity
  8
BEZUGSACHSEN
100
AcDbCircle
 62
7
  6
CONTINUOUS
 10
181.8516727324
 20
131.6529122642
 40
82.8872038061
100
AcDbArc
 50
112.2706482536
 51
112.5725077391
  0
ARC
  5
696
100
AcDbEntity
  8
BEZUGSACHSEN
100
AcDbCircle
 62
7
  6
CONTINUOUS
 10
173.5535342264
 20
151.8983789691
 40
61.0071155061
100
AcDbArc
 50
112.0146972492
 51
112.1809801851
  0
ARC
  5
697
100
AcDbEntity
  8
BEZUGSACHSEN
100
AcDbCircle
 62
7
  6
CONTINUOUS
 10
170.8716635758
 20
158.5368401911
 40
53.8473936364
100
AcDbArc
 50
111.8391012802
 51
111.9676888615
  0
ARC
  5
698
100
AcDbEntity
  8
RUNDUNGEN
100
AcDbCircle
 62
7
  6
CONTINUOUS
 10
129.7983860759
 20
211.2766893141
 40
45.9141086741
100
AcDbArc
 50
22.2946039351
 51
157.7053960649
  0
ARC
  5
699
100
AcDbEntity
  8
RUNDUNGEN
100
AcDbCircle
 62
7
  6
CONTINUOUS
 10
129.7983860759
 20
223.6907979882
 40
17.5
100
AcDbArc
 50
261.2539867168
 51
278.7460132832
  0
ARC
  5
69A
100
AcDbEntity
  8
RUNDUNGEN
100
AcDbCircle
 62
7
  6
CONTINUOUS
 10
129.7983860759
 20
223.6907979882
 40
17.5
100
AcDbArc
 50
280.3036277786
 51
259.6963722214
  0
ARC
  5
69B
100
AcDbEntity
  8
RUNDUNGEN
100
AcDbCircle
 62
7
  6
CONTINUOUS
 10
133.0675602836
 20
202.4407979882
 40
4.0
100
AcDbArc
 50
90.0
 51
98.7460132832
  0
ARC
  5
69C
100
AcDbEntity
  8
RUNDUNGEN
100
AcDbCircle
 62
7
  6
CONTINUOUS
 10
148.9391592709
 20
242.8379585704
 40
3.0
100
AcDbArc
 50
22.4754348044
 51
67.4918117074
  0
ARC
  5
69D
100
AcDbEntity
  8
RUNDUNGEN
100
AcDbCircle
 62
7
  6
CONTINUOUS
 10
129.7983860759
 20
250.7695314342
 40
3.0
100
AcDbArc
 50
67.4918116233
 51
112.5081883767
  0
ARC
  5
69E
100
AcDbEntity
  8
RUNDUNGEN
100
AcDbCircle
 62
7
  6
CONTINUOUS
 10
164.7983860759
 20
207.4031993128
 40
15.0
100
AcDbArc
 50
0.0
 51
22.2946039351
  0
ARC
  5
69F
100
AcDbEntity
  8
RUNDUNGEN
100
AcDbCircle
 62
7
  6
CONTINUOUS
 10
168.5175650605
 20
216.4407979882
 40
10.0
100
AcDbArc
 50
261.9177766051
 51
270.0
  0
ARC
  5
6A0
100
AcDbEntity
  8
RUNDUNGEN
100
AcDbCircle
 62
7
  6
CONTINUOUS
 10
168.5175650605
 20
216.4407979882
 40
10.0
100
AcDbArc
 50
202.4754348701
 51
233.5110865721
  0
ARC
  5
6A1
100
AcDbEntity
  8
RUNDUNGEN
100
AcDbCircle
 62
7
  6
CONTINUOUS
 10
162.811109563
 20
217.1549552002
 40
5.0
100
AcDbArc
 50
157.4884296584
 51
202.4788398674
  0
ARC
  5
6A2
100
AcDbEntity
  8
RUNDUNGEN
100
AcDbCircle
 62
7
  6
CONTINUOUS
 10
156.8601729394
 20
223.6917260681
 40
3.0
100
AcDbArc
 50
337.4867235686
 51
22.4754382206
  0
ARC
  5
6A3
100
AcDbEntity
  8
BEZUGSACHSEN
100
AcDbCircle
 62
7
  6
CONTINUOUS
 10
183.801950255
 20
244.5456121504
 40
42.7840768997
100
AcDbArc
 50
237.4882787143
 51
237.6572565719
  0
ARC
  5
6A4
100
AcDbEntity
  8
RUNDUNGEN
100
AcDbCircle
 62
7
  6
CONTINUOUS
 10
252.3117875587
 20
226.0657026988
 40
15.0
100
AcDbArc
 50
345.3649367787
 51
347.7208998513
  0
ARC
  5
6A5
100
AcDbEntity
  8
RUNDUNGEN
100
AcDbCircle
 62
7
  6
CONTINUOUS
 10
252.3117875587
 20
226.0657026988
 40
15.0
100
AcDbArc
 50
355.2888462351
 51
357.5318936913
  0
ARC
  5
6A6
100
AcDbEntity
  8
BEZUGSACHSEN
100
AcDbCircle
 62
7
  6
CONTINUOUS
 10
252.3117875587
 20
226.0657026988
 40
15.0
100
AcDbArc
 50
339.9999730033
 51
0.0000319659
  0
ARC
  5
6A7
100
AcDbEntity
  8
RUNDUNGEN
100
AcDbCircle
 62
7
  6
CONTINUOUS
 10
254.1294975988
 20
216.4407979882
 40
10.0
100
AcDbArc
 50
320.1679953949
 51
340.0000793555
  0
ARC
  5
6A8
100
AcDbEntity
  8
BEZUGSACHSEN
100
AcDbCircle
 62
7
  6
CONTINUOUS
 10
254.1295499572
 20
216.4407979882
 40
9.9999589994
100
AcDbArc
 50
282.6123012665
 51
339.9998973964
  0
ARC
  5
6A9
100
AcDbEntity
  8
RUNDUNGEN
100
AcDbCircle
 62
7
  6
CONTINUOUS
 10
272.8117875587
 20
255.1907979882
 40
2.0
100
AcDbArc
 50
90.0
 51
180.0
  0
ARC
  5
6AA
100
AcDbEntity
  8
RUNDUNGEN
100
AcDbCircle
 62
7
  6
CONTINUOUS
 10
269.3117875587
 20
251.7695314342
 40
2.0
100
AcDbArc
 50
90.0
 51
180.0
  0
ARC
  5
6AB
100
AcDbEntity
  8
RUNDUNGEN
100
AcDbCircle
 62
7
  6
CONTINUOUS
 10
298.3117875587
 20
226.0657026988
 40
15.0
100
AcDbArc
 50
182.4681083798
 51
184.7111537052
  0
ARC
  5
6AC
100
AcDbEntity
  8
RUNDUNGEN
100
AcDbCircle
 62
7
  6
CONTINUOUS
 10
298.3117875587
 20
226.0657026988
 40
15.0
100
AcDbArc
 50
192.2791003082
 51
194.6350632444
  0
ARC
  5
6AD
100
AcDbEntity
  8
BEZUGSACHSEN
100
AcDbCircle
 62
7
  6
CONTINUOUS
 10
298.3117875587
 20
226.0657026988
 40
15.0
100
AcDbArc
 50
179.9999680341
 51
200.0000269967
  0
ARC
  5
6AE
100
AcDbEntity
  8
RUNDUNGEN
100
AcDbCircle
 62
7
  6
CONTINUOUS
 10
296.4940775187
 20
216.4407979882
 40
10.0
100
AcDbArc
 50
199.9999344366
 51
219.8355236224
  0
ARC
  5
6AF
100
AcDbEntity
  8
BEZUGSACHSEN
100
AcDbCircle
 62
7
  6
CONTINUOUS
 10
296.4940251603
 20
216.4407979882
 40
9.9999589994
100
AcDbArc
 50
200.0001026036
 51
257.3875973775
  0
ARC
  5
6B0
100
AcDbEntity
  8
RUNDUNGEN
100
AcDbCircle
 62
7
  6
CONTINUOUS
 10
277.8117875587
 20
255.1907979882
 40
2.0
100
AcDbArc
 50
0.0
 51
90.0
  0
ARC
  5
6B1
100
AcDbEntity
  8
RUNDUNGEN
100
AcDbCircle
 62
7
  6
CONTINUOUS
 10
281.3117875587
 20
251.7695314342
 40
2.0
100
AcDbArc
 50
0.0
 51
90.0
  0
ARC
  5
6B2
100
AcDbEntity
  8
BEZUGSACHSEN
100
AcDbCircle
 62
7
  6
CONTINUOUS
 10
164.7983860759
 20
82.53
 40
15.0
100
AcDbArc
 50
270.0
 51
360.0
  0
ARC
  5
6B3
100
AcDbEntity
  8
BEZUGSACHSEN
100
AcDbCircle
 62
7
  6
CONTINUOUS
 10
164.7983860759
 20
127.53
 40
15.0
100
AcDbArc
 50
0.0
 51
90.0
  0
ARC
  5
6B4
100
AcDbEntity
  8
BEZUGSACHSEN
100
AcDbCircle
 62
7
  6
CONTINUOUS
 10
94.7983860759
 20
82.53
 40
15.0
100
AcDbArc
 50
180.0
 51
270.0
  0
ARC
  5
6B5
100
AcDbEntity
  8
BEZUGSACHSEN
100
AcDbCircle
 62
7
  6
CONTINUOUS
 10
94.7983860759
 20
127.53
 40
15.0
100
AcDbArc
 50
90.0
 51
180.0
  0
ARC
  5
6B6
100
AcDbEntity
  8
BEZUGSACHSEN
100
AcDbCircle
 62
7
  6
CONTINUOUS
 10
102.2983860759
 20
132.53
 40
14.0
100
AcDbArc
 50
135.6379604003
 51
45.5846914028
  0
ARC
  5
6B7
100
AcDbEntity
  8
BEZUGSACHSEN
100
AcDbCircle
 62
7
  6
CONTINUOUS
 10
157.2983860759
 20
132.53
 40
14.0
100
AcDbArc
 50
134.4153085972
 51
44.3620395997
  0
ARC
  5
6B8
100
AcDbEntity
  8
BEZUGSACHSEN
100
AcDbCircle
 62
7
  6
CONTINUOUS
 10
157.2983860759
 20
77.53
 40
14.0
100
AcDbArc
 50
315.6379604003
 51
225.5846914028
  0
ARC
  5
6B9
100
AcDbEntity
  8
BEZUGSACHSEN
100
AcDbCircle
 62
7
  6
CONTINUOUS
 10
102.2983860759
 20
77.53
 40
14.0
100
AcDbArc
 50
314.4153085972
 51
224.3620395997
  0
ARC
  5
6BA
100
AcDbEntity
  8
RUNDUNGEN
100
AcDbCircle
 62
7
  6
CONTINUOUS
 10
177.7983860759
 20
107.53
 40
2.0
100
AcDbArc
 50
0.0
 51
90.0
  0
ARC
  5
6BB
100
AcDbEntity
  8
RUNDUNGEN
100
AcDbCircle
 62
7
  6
CONTINUOUS
 10
81.7983860759
 20
102.53
 40
2.0
100
AcDbArc
 50
180.0
 51
270.0
  0
ARC
  5
6BC
100
AcDbEntity
  8
RUNDUNGEN
100
AcDbCircle
 62
7
  6
CONTINUOUS
 10
81.7983860759
 20
107.53
 40
2.0
100
AcDbArc
 50
90.0
 51
180.0
  0
ARC
  5
6BD
100
AcDbEntity
  8
RUNDUNGEN
100
AcDbCircle
 62
7
  6
CONTINUOUS
 10
177.7983860759
 20
102.53
 40
2.0
100
AcDbArc
 50
270.0
 51
360.0
  0
SPLINE
  5
6BE
100
AcDbEntity
  8
BEZUGSACHSEN
100
AcDbSpline
 62
7
  6
CONTINUOUS
 70
0
 71
3
 72
13
 73
9
 74
0
 42
0.0000001
 43
0.0000001
 44
0.0000000001
 40
0.0
 40
0.0
 40
0.0
 40
0.0
 40
0.1260228744
 40
0.2519200587
 40
0.4401951838
 40
0.6278175704
 40
0.8145274644
 40
1.0
 40
1.0
 40
1.0
 40
1.0
 10
157.2291168055
 20
210.038839566
 30
0.0
 10
157.3956860238
 20
210.039826579
 30
0.0
 10
157.7294518014
 20
210.0153470673
 30
0.0
 10
158.2978886544
 20
209.8822391935
 30
0.0
 10
158.91316181
 20
209.6264126457
 30
0.0
 10
159.562037113
 20
209.2619441496
 30
0.0
 10
160.187253292
 20
208.8660371145
 30
0.0
 10
160.5999626213
 20
208.598340557
 30
0.0
 10
160.8067011454
 20
208.4665911749
 30
0.0
  0
SPLINE
  5
6BF
100
AcDbEntity
  8
BEZUGSACHSEN
100
AcDbSpline
 62
7
  6
CONTINUOUS
 70
0
 71
3
 72
11
 73
7
 74
0
 42
0.0000001
 43
0.0000001
 44
0.0000000001
 40
0.0
 40
0.0
 40
0.0
 40
0.0
 40
0.2034566117
 40
0.4393508734
 40
0.7059218849
 40
1.0
 40
1.0
 40
1.0
 40
1.0
 10
144.8049261929
 20
206.4407979882
 30
0.0
 10
144.9932025462
 20
206.4407979882
 30
0.0
 10
145.3996414709
 20
206.4843308257
 30
0.0
 10
146.0364016126
 20
206.633254447
 30
0.0
 10
146.7394846325
 20
206.8563985395
 30
0.0
 10
147.2259141397
 20
207.0371485673
 30
0.0
 10
147.4796922481
 20
207.1354079477
 30
0.0
  0
LINE
  5
6C0
100
AcDbEntity
  8
BEZUGSACHSEN
100
AcDbLine
 62
7
  6
CONTINUOUS
 10
150.4389029337
 20
208.3570610984
 11
150.5099562207
 21
208.386091799
  0
LINE
  5
6C1
100
AcDbEntity
  8
BEZUGSACHSEN
100
AcDbLine
 62
7
  6
CONTINUOUS
 10
150.6853575196
 20
208.4573273016
 11
150.7282333884
 21
208.4746417218
  0
SPLINE
  5
6C2
100
AcDbEntity
  8
BEZUGSACHSEN
100
AcDbSpline
 62
7
  6
CONTINUOUS
 70
0
 71
3
 72
11
 73
7
 74
0
 42
0.0000001
 43
0.0000001
 44
0.0000000001
 40
0.0
 40
0.0
 40
0.0
 40
0.0
 40
0.2388806238
 40
0.4869627157
 40
0.741674493
 40
1.0
 40
1.0
 40
1.0
 40
1.0
 10
150.8403582663
 20
208.5197233515
 30
0.0
 10
151.3285349916
 20
208.715358112
 30
0.0
 10
152.3300919713
 20
209.0987579416
 30
0.0
 10
153.8883871305
 20
209.591806422
 30
0.0
 10
155.5300086073
 20
209.9442674999
 30
0.0
 10
156.6604235734
 20
210.0354644697
 30
0.0
 10
157.2291410002
 20
210.0388410937
 30
0.0
  0
LINE
  5
6C3
100
AcDbEntity
  8
BEZUGSACHSEN
100
AcDbLine
 62
7
  6
CONTINUOUS
 10
98.6704216212
 20
208.3906112559
 11
98.7176500133
 21
208.4205338862
  0
LINE
  5
6C4
100
AcDbEntity
  8
BEZUGSACHSEN
100
AcDbLine
 62
7
  6
CONTINUOUS
 10
98.8324426387
 20
208.4936228774
 11
98.9039026924
 21
208.5393346516
  0
SPLINE
  5
6C5
100
AcDbEntity
  8
BEZUGSACHSEN
100
AcDbSpline
 62
7
  6
CONTINUOUS
 70
0
 71
3
 72
12
 73
8
 74
0
 42
0.0000001
 43
0.0000001
 44
0.0000000001
 40
0.0
 40
0.0
 40
0.0
 40
0.0
 40
0.2477974828
 40
0.4974171362
 40
0.748135917
 40
0.87400963
 40
1.0
 40
1.0
 40
1.0
 40
1.0
 10
98.9039026924
 20
208.5393346516
 30
0.0
 10
99.1702508644
 20
208.7099665373
 30
0.0
 10
99.7022004354
 20
209.0567846149
 30
0.0
 10
100.5198904554
 20
209.5504520758
 30
0.0
 10
101.2567445767
 20
209.8752681225
 30
0.0
 10
101.8846178656
 20
210.0170688942
 30
0.0
 10
102.2068295493
 20
210.0397925415
 30
0.0
 10
102.3676553357
 20
210.0388395617
 30
0.0
  0
SPLINE
  5
6C6
100
AcDbEntity
  8
BEZUGSACHSEN
100
AcDbSpline
 62
7
  6
CONTINUOUS
 70
0
 71
3
 72
11
 73
7
 74
0
 42
0.0000001
 43
0.0000001
 44
0.0000000001
 40
0.0
 40
0.0
 40
0.0
 40
0.0
 40
0.2582692959
 40
0.5129479262
 40
0.7610416519
 40
1.0
 40
1.0
 40
1.0
 40
1.0
 10
102.3676311517
 20
210.0388410937
 30
0.0
 10
102.9342480281
 20
210.0354769417
 30
0.0
 10
104.0605312967
 20
209.9449432908
 30
0.0
 10
105.6964989196
 20
209.5948274532
 30
0.0
 10
107.2498595168
 20
209.1046059109
 30
0.0
 10
108.2483512066
 20
208.7230672689
 30
0.0
 10
108.7350765321
 20
208.5282677946
 30
0.0
  0
LINE
  5
6C7
100
AcDbEntity
  8
BEZUGSACHSEN
100
AcDbLine
 62
7
  6
CONTINUOUS
 10
108.7350765321
 20
208.5282677946
 11
108.8125192684
 21
208.4972011258
  0
LINE
  5
6C8
100
AcDbEntity
  8
BEZUGSACHSEN
100
AcDbLine
 62
7
  6
CONTINUOUS
 10
108.8125192684
 20
208.4972011258
 11
108.8711470634
 21
208.4735891009
  0
LINE
  5
6C9
100
AcDbEntity
  8
BEZUGSACHSEN
100
AcDbLine
 62
7
  6
CONTINUOUS
 10
108.8711470634
 20
208.4735891009
 11
108.9050808578
 21
208.4598872452
  0
SPLINE
  5
6CA
100
AcDbEntity
  8
BEZUGSACHSEN
100
AcDbSpline
 62
7
  6
CONTINUOUS
 70
0
 71
3
 72
11
 73
7
 74
0
 42
0.0000001
 43
0.0000001
 44
0.0000000001
 40
0.0
 40
0.0
 40
0.0
 40
0.0
 40
0.2940778204
 40
0.5606490669
 40
0.7965434217
 40
1.0
 40
1.0
 40
1.0
 40
1.0
 10
112.117129791
 20
207.135388573
 30
0.0
 10
112.3709029345
 20
207.0371316429
 30
0.0
 10
112.8573234354
 20
206.856386215
 30
0.0
 10
113.5603935323
 20
206.6332482801
 30
0.0
 10
114.1971420859
 20
206.4843291599
 30
0.0
 10
114.6035732633
 20
206.4407979882
 30
0.0
 10
114.791845959
 20
206.4407979882
 30
0.0
  0
SPLINE
  5
6CB
100
AcDbEntity
  8
BEZUGSACHSEN
100
AcDbSpline
 62
7
  6
CONTINUOUS
 70
0
 71
3
 72
24
 73
20
 74
0
 42
0.0000001
 43
0.0000001
 44
0.0000000001
 40
0.0
 40
0.0
 40
0.0
 40
0.0
 40
0.0013183477
 40
0.0042826217
 40
0.0088806603
 40
0.0150566543
 40
0.0317397541
 40
0.0534444088
 40
0.0791563044
 40
0.1079374521
 40
0.171608917
 40
0.2397143948
 40
0.3093509202
 40
0.3788461783
 40
0.4473464858
 40
0.5805668344
 40
0.7121515488
 40
0.8494616305
 40
1.0
 40
1.0
 40
1.0
 40
1.0
 10
261.811786156
 20
210.0384829998
 30
0.0
 10
261.8117774545
 20
210.0361129439
 30
0.0
 10
261.8101232633
 20
210.0285230973
 30
0.0
 10
261.8074265465
 20
210.0128385655
 30
0.0
 10
261.8024037034
 20
209.9886264017
 30
0.0
 10
261.7925033259
 20
209.9402849013
 30
0.0
 10
261.7757125161
 20
209.8619361186
 30
0.0
 10
261.7508678113
 20
209.749414973
 30
0.0
 10
261.7200321966
 20
209.6159404542
 30
0.0
 10
261.6697973716
 20
209.4095310882
 30
0.0
 10
261.5952161473
 20
209.1306252239
 30
0.0
 10
261.4873419673
 20
208.7848280847
 30
0.0
 10
261.3570626154
 20
208.4355505566
 30
0.0
 10
261.2024864889
 20
208.0953155455
 30
0.0
 10
260.9636424234
 20
207.6697777469
 30
0.0
 10
260.591405713
 20
207.1927504003
 30
0.0
 10
260.0044167591
 20
206.7542645231
 30
0.0
 10
259.2877829176
 20
206.4907110368
 30
0.0
 10
258.7674068753
 20
206.44079799
 30
0.0
 10
258.496775107
 20
206.4407979882
 30
0.0
  0
SPLINE
  5
6CC
100
AcDbEntity
  8
BEZUGSACHSEN
100
AcDbSpline
 62
7
  6
CONTINUOUS
 70
0
 71
3
 72
24
 73
20
 74
0
 42
0.0000001
 43
0.0000001
 44
0.0000000001
 40
0.0
 40
0.0
 40
0.0
 40
0.0
 40
0.1505381785
 40
0.287848429
 40
0.419433609
 40
0.5526545528
 40
0.6211548033
 40
0.6906500748
 40
0.7602865479
 40
0.8283920749
 40
0.892063493
 40
0.9208444823
 40
0.9465562408
 40
0.968260752
 40
0.9849436748
 40
0.9911195342
 40
0.9957175787
 40
0.9986817703
 40
1.0
 40
1.0
 40
1.0
 40
1.0
 10
292.1268011762
 20
206.4407979882
 30
0.0
 10
291.8561696869
 20
206.4407979901
 30
0.0
 10
291.3357935657
 20
206.4907106771
 30
0.0
 10
290.6191586035
 20
206.7542642012
 30
0.0
 10
290.0321679561
 20
207.1927518835
 30
0.0
 10
289.6599301697
 20
207.6697809088
 30
0.0
 10
289.4210860721
 20
208.0953199789
 30
0.0
 10
289.2665106023
 20
208.4355551865
 30
0.0
 10
289.1362312526
 20
208.7848328277
 30
0.0
 10
289.0283576095
 20
209.1306301354
 30
0.0
 10
288.953776564
 20
209.4095358231
 30
0.0
 10
288.9035419221
 20
209.6159446531
 30
0.0
 10
288.8727065557
 20
209.749418453
 30
0.0
 10
288.8478619512
 20
209.8619388046
 30
0.0
 10
288.8310714607
 20
209.9402868429
 30
0.0
 10
288.8211710997
 20
209.9886277901
 30
0.0
 10
288.8161483521
 20
210.0128396056
 30
0.0
 10
288.8134518081
 20
210.0285237941
 30
0.0
 10
288.8117975704
 20
210.0361132935
 30
0.0
 10
288.8117889544
 20
210.0384831382
 30
0.0
  0
ENDSEC
  0
SECTION
  2
OBJECTS
  0
DICTIONARY
  5
C
100
AcDbDictionary
280
0
281
1
  3
ACAD_GROUP
350
D
  3
ACAD_MLINESTYLE
350
17
  3
ACAD_LAYOUT
350
1A
  3
ACAD_PLOTSETTINGS
350
19
  3
ACAD_PLOTSTYLENAME
350
E
  0
DICTIONARY
  5
D
102
{ACAD_REACTORS
330
C
102
}
100
AcDbDictionary
280
0
281
1
  0
ACDBDICTIONARYWDFLT
  5
E
102
{ACAD_REACTORS
330
C
102
}
100
AcDbDictionary
281
1
  3
Normal
350
F
100
AcDbDictionaryWithDefault
340
F
  0
DICTIONARY
  5
17
102
{ACAD_REACTORS
330
C
102
}
100
AcDbDictionary
280
0
281
1
  3
Standard
350
18
  0
DICTIONARY
  5
19
102
{ACAD_REACTORS
330
C
102
}
100
AcDbDictionary
281
1
  0
DICTIONARY
  5
1A
102
{ACAD_REACTORS
330
C
102
}
100
AcDbDictionary
281
1
  3
Model
350
6CD
  3
Layout1
350
6CE
  0
ACDBPLACEHOLDER
  5
F
102
{ACAD_REACTORS
330
E
102
}
  0
MLINESTYLE
  5
18
102
{ACAD_REACTORS
330
17
102
}
100
AcDbMlineStyle
  2
STANDARD
 70
0
  3

 62
256
 51
90.0
 52
90.0
 71
2
 49
0.5
 62
256
  6
BYLAYER
 49
-0.5
 62
256
  6
BYLAYER
  0
LAYOUT
  5
6CD
102
{ACAD_REACTORS
330
1A
102
}
100
AcDbPlotSettings
  1

  2
none_device
  4
ISO_A3_(420.00_x_297.00_MM)
  6

 40
0.0
 41
0.0
 42
0.0
 43
0.0
 44
420.0
 45
297.0
 46
0.0
 47
0.0
 48
0.0
 49
0.0
140
0.0
141
0.0
142
1.0
143
1.0
 70
1024
 72
1
 73
0
 74
0
  7

 75
0
147
1.0
148
0.0
149
0.0
100
AcDbLayout
  1
Model
 70
0
 71
0
 10
0.0
 20
0.0
 11
420.0
 21
297.0
 12
0.0
 22
0.0
 32
0.0
 14
0.0
 24
0.0
 34
0.0
 15
0.0
 25
0.0
 35
0.0
146
0.0
 13
0.0
 23
0.0
 33
0.0
 16
1.0
 26
0.0
 36
0.0
 17
0.0
 27
1.0
 37
0.0
 76
0
330
20B
345
0
346
0
  0
LAYOUT
  5
6CE
102
{ACAD_REACTORS
330
1A
102
}
100
AcDbPlotSettings
  1

  2
none_device
  4
ISO_A3_(420.00_x_297.00_MM)
  6

 40
0.0
 41
0.0
 42
0.0
 43
0.0
 44
420.0
 45
297.0
 46
0.0
 47
0.0
 48
0.0
 49
0.0
140
0.0
141
0.0
142
1.0
143
1.0
 70
0
 72
1
 73
0
 74
0
  7

 75
0
147
1.0
148
0.0
149
0.0
100
AcDbLayout
  1
Layout1
 70
0
 71
1
 10
0.0
 20
0.0
 11
420.0
 21
297.0
 12
0.0
 22
0.0
 32
0.0
 14
0.0
 24
0.0
 34
0.0
 15
0.0
 25
0.0
 35
0.0
146
0.0
 13
0.0
 23
0.0
 33
0.0
 16
1.0
 26
0.0
 36
0.0
 17
0.0
 27
1.0
 37
0.0
 76
0
330
20C
345
0
346
0
  0
ENDSEC
  0
EOF
