999
DXF file: vabh-b-6-7.dxf
999
Pro/ENGINEER 2010140 by Parametric Technology Corporation
  0
SECTION
  2
HEADER
  9
$ACADVER
  1
AC1015
  9
$DWGCODEPAGE
  3
ANSI_1252
  9
$EXTMAX
 10
420.0
 20
297.0
 30
0.0
  9
$EXTMIN
 10
0.0
 20
0.0
 30
0.0
  9
$LIMMIN
 10
0.0
 20
0.0
  9
$LIMMAX
 10
420.0
 20
297.0
  9
$VIEWCTR
 10
210.0
 20
148.5
  9
$VIEWSIZE
 40
297.0
  9
$CLAYER
  8
0
  9
$LTSCALE
 40
23.1
  9
$CELTYPE
  6
BYLAYER
  9
$DIMSCALE
 40
1.0
  9
$DIMASZ
 40
3.5
  9
$DIMEXO
 40
2.625
  9
$DIMDLI
 40
15.96
  9
$DIMEXE
 40
7.56
  9
$DIMCEN
 40
3.78
  9
$DIMLFAC
 40
1.0
  9
$DIMBLK
  1
_FILLED
  9
$DIMTXT
 40
3.5
  9
$DIMTOL
 70
1
  9
$DIMLIM
 70
0
  9
$DIMTFAC
 40
1.0
  9
$DIMTP
 40
0.005
  9
$DIMTM
 40
0.005
  9
$PDMODE
 70
3
  9
$PDSIZE
 40
0.3125
  9
$HANDSEED
  5
731
  9
$TILEMODE
 70
1
  9
$MEASUREMENT
 70
1
  9
$INSUNITS
 70
4
  0
ENDSEC
  0
SECTION
  2
CLASSES
  0
CLASS
  1
ACDBDICTIONARYWDFLT
  2
AcDbDictionaryWithDefault
  3
AutoCAD 2000
 90
0
280
0
281
0
  0
CLASS
  1
ACDBPLACEHOLDER
  2
AcDbPlaceHolder
  3
AutoCAD 2000
 90
0
280
0
281
0
  0
CLASS
  1
LAYOUT
  2
AcDbLayout
  3
AutoCAD 2000
 90
0
280
0
281
0
  0
ENDSEC
  0
SECTION
  2
TABLES
  0
TABLE
  2
VPORT
  5
8
100
AcDbSymbolTable
 70
2
  0
VPORT
  5
1F4
100
AcDbSymbolTableRecord
100
AcDbViewportTableRecord
  2
*ACTIVE
 70
0
 10
0.0
 20
0.0
 11
1.0
 21
1.0
 12
210.0
 22
148.5
 13
0.0
 23
0.0
 14
1.0
 24
1.0
 15
0.0
 25
0.0
 16
0.0
 26
0.0
 36
1.0
 17
0.0
 27
0.0
 37
0.0
 40
297.0
 41
1.4141414141
 42
50.0
 43
0.0
 44
0.0
 50
0.0
 51
0.0
 71
0
 72
100
 73
1
 74
1
 75
0
 76
0
 77
0
 78
0
  0
ENDTAB
  0
TABLE
  2
LTYPE
  5
5
100
AcDbSymbolTable
 70
6
  0
LTYPE
  5
14
100
AcDbSymbolTableRecord
100
AcDbLinetypeTableRecord
  2
BYBLOCK
 70
0
  3

 72
65
 73
0
 40
0.0
  0
LTYPE
  5
15
100
AcDbSymbolTableRecord
100
AcDbLinetypeTableRecord
  2
BYLAYER
 70
0
  3

 72
65
 73
0
 40
0.0
  0
LTYPE
  5
16
100
AcDbSymbolTableRecord
100
AcDbLinetypeTableRecord
  2
CONTINUOUS
 70
64
  3
Solid line
 72
65
 73
0
 40
0.0
  0
LTYPE
  5
1F5
100
AcDbSymbolTableRecord
100
AcDbLinetypeTableRecord
  2
CENTER
 70
64
  3
____ _ ____ _ ____ _ ____ _ ____ _ ____ _ ____
 72
65
 73
4
 40
0.6
 49
0.375
 74
0
 49
-0.075
 74
0
 49
0.075
 74
0
 49
-0.075
 74
0
  0
LTYPE
  5
1F6
100
AcDbSymbolTableRecord
100
AcDbLinetypeTableRecord
  2
HIDDEN
 70
64
  3
- - - - - - - - - - - - - - - - - - - -
 72
65
 73
2
 40
0.2
 49
0.1
 74
0
 49
-0.1
 74
0
  0
LTYPE
  5
1F7
100
AcDbSymbolTableRecord
100
AcDbLinetypeTableRecord
  2
PHANTOM
 70
64
  3
_____ _ _ _____ _ _ _____ _ _ _____
 72
65
 73
6
 40
0.8
 49
0.45
 74
0
 49
-0.05
 74
0
 49
0.1
 74
0
 49
-0.05
 74
0
 49
0.1
 74
0
 49
-0.05
 74
0
  0
LTYPE
  5
1F8
100
AcDbSymbolTableRecord
100
AcDbLinetypeTableRecord
  2
DOT
 70
64
  3
. . . . . . . . . . . . . . . . . . . .
 72
65
 73
2
 40
0.2
 49
0.1
 74
0
 49
-0.1
 74
0
  0
LTYPE
  5
1F9
100
AcDbSymbolTableRecord
100
AcDbLinetypeTableRecord
  2
DASHED
 70
64
  3
- - - - - - - - - - - - - - - - - - - -
 72
65
 73
2
 40
0.2
 49
0.1
 74
0
 49
-0.1
 74
0
  0
ENDTAB
  0
TABLE
  2
LAYER
  5
2
100
AcDbSymbolTable
 70
36
  0
LAYER
  5
10
100
AcDbSymbolTableRecord
100
AcDbLayerTableRecord
  2
0
 70
0
 62
7
  6
CONTINUOUS
370
-3
390
F
  0
LAYER
  5
1FA
100
AcDbSymbolTableRecord
100
AcDbLayerTableRecord
  2
DEFAULT_1
 70
0
 62
7
  6
CENTER
370
-3
390
F
  0
LAYER
  5
1FB
100
AcDbSymbolTableRecord
100
AcDbLayerTableRecord
  2
DEFAULT_2
 70
0
 62
8
  6
HIDDEN
370
-3
390
F
  0
LAYER
  5
1FC
100
AcDbSymbolTableRecord
100
AcDbLayerTableRecord
  2
DEFAULT_3
 70
0
 62
7
  6
PHANTOM
370
-3
390
F
  0
LAYER
  5
1FD
100
AcDbSymbolTableRecord
100
AcDbLayerTableRecord
  2
AUSFORMSCHRAEGEN
 70
0
 62
7
  6
CONTINUOUS
370
-3
390
F
  0
LAYER
  5
1FE
100
AcDbSymbolTableRecord
100
AcDbLayerTableRecord
  2
BEZUGSACHSEN
 70
0
 62
7
  6
CONTINUOUS
370
-3
390
F
  0
LAYER
  5
1FF
100
AcDbSymbolTableRecord
100
AcDbLayerTableRecord
  2
BEZUGSEBENEN
 70
0
 62
7
  6
CONTINUOUS
370
-3
390
F
  0
LAYER
  5
200
100
AcDbSymbolTableRecord
100
AcDbLayerTableRecord
  2
BG_STARTBEZUEGE
 70
0
 62
7
  6
CONTINUOUS
370
-3
390
F
  0
LAYER
  5
201
100
AcDbSymbolTableRecord
100
AcDbLayerTableRecord
  2
BOHRUNGEN
 70
0
 62
7
  6
CONTINUOUS
370
-3
390
F
  0
LAYER
  5
202
100
AcDbSymbolTableRecord
100
AcDbLayerTableRecord
  2
FASEN
 70
0
 62
7
  6
CONTINUOUS
370
-3
390
F
  0
LAYER
  5
203
100
AcDbSymbolTableRecord
100
AcDbLayerTableRecord
  2
GEWINDE
 70
0
 62
7
  6
CONTINUOUS
370
-3
390
F
  0
LAYER
  5
204
100
AcDbSymbolTableRecord
100
AcDbLayerTableRecord
  2
HILFEN
 70
0
 62
7
  6
CONTINUOUS
370
-3
390
F
  0
LAYER
  5
205
100
AcDbSymbolTableRecord
100
AcDbLayerTableRecord
  2
KONSTRUKTIONSELEMENTE
 70
0
 62
7
  6
CONTINUOUS
370
-3
390
F
  0
LAYER
  5
206
100
AcDbSymbolTableRecord
100
AcDbLayerTableRecord
  2
PLATZIERUNG
 70
0
 62
7
  6
CONTINUOUS
370
-3
390
F
  0
LAYER
  5
207
100
AcDbSymbolTableRecord
100
AcDbLayerTableRecord
  2
PLAZIERUNG
 70
0
 62
7
  6
CONTINUOUS
370
-3
390
F
  0
LAYER
  5
208
100
AcDbSymbolTableRecord
100
AcDbLayerTableRecord
  2
RUNDUNGEN
 70
0
 62
7
  6
CONTINUOUS
370
-3
390
F
  0
LAYER
  5
209
100
AcDbSymbolTableRecord
100
AcDbLayerTableRecord
  2
TEIL_STARTBEZUEGE
 70
0
 62
7
  6
CONTINUOUS
370
-3
390
F
  0
ENDTAB
  0
TABLE
  2
STYLE
  5
3
100
AcDbSymbolTable
 70
1
  0
STYLE
  5
11
100
AcDbSymbolTableRecord
100
AcDbTextStyleTableRecord
  2
STANDARD
 70
0
 40
0.0
 41
0.7
 50
0.0
 71
0
 42
0.2
  3
txt
  4

  0
STYLE
  5
20A
100
AcDbSymbolTableRecord
100
AcDbTextStyleTableRecord
  2
TEXTSTYLE_1
 70
0
 40
0.0
 41
0.8
 50
0.0
 71
0
 42
0.2
  3
gdt
  4

  0
ENDTAB
  0
TABLE
  2
VIEW
  5
6
100
AcDbSymbolTable
 70
0
  0
ENDTAB
  0
TABLE
  2
UCS
  5
7
100
AcDbSymbolTable
 70
0
  0
ENDTAB
  0
TABLE
  2
APPID
  5
9
100
AcDbSymbolTable
 70
1
  0
APPID
  5
20B
100
AcDbSymbolTableRecord
100
AcDbRegAppTableRecord
  2
ACAD
 70
0
  0
ENDTAB
  0
TABLE
  2
BLOCK_RECORD
  5
1
100
AcDbSymbolTable
 70
0
  0
BLOCK_RECORD
  5
20C
100
AcDbSymbolTableRecord
100
AcDbBlockTableRecord
  2
*Model_Space
  0
BLOCK_RECORD
  5
20D
100
AcDbSymbolTableRecord
100
AcDbBlockTableRecord
  2
*Paper_Space
  0
ENDTAB
  0
TABLE
  2
DIMSTYLE
  5
A
100
AcDbSymbolTable
 70
1
100
AcDbDimStyleTable
 71
0
  0
DIMSTYLE
105
20E
100
AcDbSymbolTableRecord
100
AcDbDimStyleTableRecord
  2
STANDARD
 70
0
  3

  4

 40
1.0
 41
3.5
 42
0.0625
 43
0.38
 44
0.18
 45
0.0
 46
0.0
 47
0.005
 48
0.005
140
3.5
141
0.09
142
0.0
143
25.4
144
1.0
145
0.0
146
1.0
147
0.09
 71
1.0
 72
0.0
 73
0
 74
0
 75
0
 76
0
 77
1
 78
8
170
0
171
2
172
0
173
0
174
0
175
0
176
0
177
0
178
5
270
2
271
3
272
3
273
2
274
2
275
0
280
0
281
0
282
0
283
1
284
8
285
0
286
0
287
3
288
0
340
11
  0
ENDTAB
  0
ENDSEC
  0
SECTION
  2
BLOCKS
  0
BLOCK
  5
20
100
AcDbEntity
  8
0
100
AcDbBlockBegin
  2
*Model_Space
 70
0
 10
0.0
 20
0.0
 30
0.0
  3
*Model_Space
  1

  0
ENDBLK
  5
21
100
AcDbEntity
  8
0
100
AcDbBlockEnd
  0
BLOCK
  5
1C
100
AcDbEntity
  8
0
100
AcDbBlockBegin
  2
*Paper_Space
 70
0
 10
0.0
 20
0.0
 30
0.0
  3
*Paper_Space
  1

  0
ENDBLK
  5
1D
100
AcDbEntity
  8
0
100
AcDbBlockEnd
  0
ENDSEC
  0
SECTION
  2
ENTITIES
  0
MTEXT
  5
20F
100
AcDbEntity
  8
0
100
AcDbMText
 62
5
  6
CONTINUOUS
  7
STANDARD
 71
1
 72
1
 10
30.3784200062
 20
87.5498210742
 30
0.0
 11
1.0
 21
0.0
 31
0.0
 44
0.9
  1
VABH-B 6,7t
 40
6.0
 41
50.7142857143
  0
MTEXT
  5
210
100
AcDbEntity
  8
0
100
AcDbMText
 62
5
  6
CONTINUOUS
  7
STANDARD
 71
1
 72
1
 10
318.2454299369
 20
242.2467387439
 30
0.0
 11
0.0
 21
1.0
 31
0.0
 44
0.9
  1
VABH-B 6,7t
 40
8.0
 41
67.619047619
  0
LINE
  5
211
100
AcDbEntity
  8
0
100
AcDbLine
 62
7
  6
CONTINUOUS
 10
0.0
 20
0.0
 11
0.0
 21
297.0
  0
LINE
  5
212
100
AcDbEntity
  8
0
100
AcDbLine
 62
7
  6
CONTINUOUS
 10
0.0
 20
0.0
 11
420.0
 21
0.0
  0
LINE
  5
213
100
AcDbEntity
  8
0
100
AcDbLine
 62
7
  6
CONTINUOUS
 10
0.0
 20
297.0
 11
420.0
 21
297.0
  0
LINE
  5
214
100
AcDbEntity
  8
0
100
AcDbLine
 62
7
  6
CONTINUOUS
 10
420.0
 20
0.0
 11
420.0
 21
297.0
  0
LINE
  5
215
100
AcDbEntity
  8
KONSTRUKTIONSELEMENTE
100
AcDbLine
 62
7
  6
CONTINUOUS
 10
170.514833334
 20
174.6258769064
 11
101.514833334
 21
170.9912557959
  0
LINE
  5
216
100
AcDbEntity
  8
0
100
AcDbLine
 62
7
  6
CONTINUOUS
 10
106.645073334
 20
172.5135480451
 11
101.4490630774
 21
172.2398447325
  0
LINE
  5
217
100
AcDbEntity
  8
0
100
AcDbLine
 62
7
  6
CONTINUOUS
 10
133.3848335197
 20
174.2856161163
 11
125.9578578044
 21
173.8943952073
  0
LINE
  5
218
100
AcDbEntity
  8
0
100
AcDbLine
 62
7
  6
CONTINUOUS
 10
101.7114210355
 20
182.5829332131
 11
122.6755885206
 21
183.9632543537
  0
LINE
  5
219
100
AcDbEntity
  8
KONSTRUKTIONSELEMENTE
100
AcDbLine
 62
7
  6
CONTINUOUS
 10
94.1305719055
 20
189.2215142375
 11
94.8637738473
 21
189.2709217183
  0
LINE
  5
21A
100
AcDbEntity
  8
KONSTRUKTIONSELEMENTE
100
AcDbLine
 62
7
  6
CONTINUOUS
 10
97.9921009217
 20
188.8122184198
 11
98.8560530241
 21
188.8031208982
  0
LINE
  5
21B
100
AcDbEntity
  8
KONSTRUKTIONSELEMENTE
100
AcDbLine
 62
7
  6
CONTINUOUS
 10
102.8878306001
 20
188.7606657861
 11
103.7517827024
 21
188.7515682646
  0
LINE
  5
21C
100
AcDbEntity
  8
KONSTRUKTIONSELEMENTE
100
AcDbLine
 62
7
  6
CONTINUOUS
 10
98.890120339
 20
192.0383458183
 11
102.9218979151
 21
191.9958907062
  0
LINE
  5
21D
100
AcDbEntity
  8
KONSTRUKTIONSELEMENTE
100
AcDbLine
 62
7
  6
CONTINUOUS
 10
102.9311889998
 20
192.878224663
 11
98.8994114237
 21
192.9206797751
  0
LINE
  5
21E
100
AcDbEntity
  8
KONSTRUKTIONSELEMENTE
100
AcDbLine
 62
7
  6
CONTINUOUS
 10
90.7056458605
 20
189.6839183754
 11
94.1305719055
 21
189.2215142375
  0
LINE
  5
21F
100
AcDbEntity
  8
KONSTRUKTIONSELEMENTE
100
AcDbLine
 62
7
  6
CONTINUOUS
 10
94.3913388767
 20
190.0766964522
 11
91.6799380024
 21
190.4427665417
  0
LINE
  5
220
100
AcDbEntity
  8
KONSTRUKTIONSELEMENTE
100
AcDbLine
 62
7
  6
CONTINUOUS
 10
91.975089586
 20
192.6288895947
 11
94.6864904603
 21
192.2628195052
  0
LINE
  5
221
100
AcDbEntity
  8
KONSTRUKTIONSELEMENTE
100
AcDbLine
 62
7
  6
CONTINUOUS
 10
94.8045510772
 20
193.1372686039
 11
92.0931502028
 21
193.5033386934
  0
LINE
  5
222
100
AcDbEntity
  8
KONSTRUKTIONSELEMENTE
100
AcDbLine
 62
7
  6
CONTINUOUS
 10
92.3686250307
 20
195.5437203321
 11
95.080025905
 21
195.1776502426
  0
LINE
  5
223
100
AcDbEntity
  8
KONSTRUKTIONSELEMENTE
100
AcDbLine
 62
7
  6
CONTINUOUS
 10
66.1376940749
 20
200.2357571577
 11
66.775260524
 21
200.1271501947
  0
LINE
  5
224
100
AcDbEntity
  8
KONSTRUKTIONSELEMENTE
100
AcDbLine
 62
7
  6
CONTINUOUS
 10
83.1594533355
 20
191.5317679487
 11
83.9948854577
 21
191.3114291884
  0
LINE
  5
225
100
AcDbEntity
  8
KONSTRUKTIONSELEMENTE
100
AcDbLine
 62
7
  6
CONTINUOUS
 10
87.8935697566
 20
190.2831813602
 11
88.7290018788
 21
190.0628425999
  0
LINE
  5
226
100
AcDbEntity
  8
KONSTRUKTIONSELEMENTE
100
AcDbLine
 62
7
  6
CONTINUOUS
 10
85.001894905
 20
192.8709509445
 11
87.7866675832
 21
192.1364886904
  0
LINE
  5
227
100
AcDbEntity
  8
KONSTRUKTIONSELEMENTE
100
AcDbLine
 62
7
  6
CONTINUOUS
 10
87.7974456953
 20
192.7420168786
 11
85.2911493288
 21
193.4030331595
  0
LINE
  5
228
100
AcDbEntity
  8
KONSTRUKTIONSELEMENTE
100
AcDbLine
 62
7
  6
CONTINUOUS
 10
88.2638919064
 20
197.3338698847
 11
87.1499834725
 21
197.6276546183
  0
LINE
  5
229
100
AcDbEntity
  8
KONSTRUKTIONSELEMENTE
100
AcDbLine
 62
7
  6
CONTINUOUS
 10
60.1411855119
 20
205.1228117233
 11
60.7607333179
 21
204.937210229
  0
LINE
  5
22A
100
AcDbEntity
  8
KONSTRUKTIONSELEMENTE
100
AcDbLine
 62
7
  6
CONTINUOUS
 10
78.0210013647
 20
193.4766628832
 11
79.0884428053
 21
193.0434536502
  0
LINE
  5
22B
100
AcDbEntity
  8
KONSTRUKTIONSELEMENTE
100
AcDbLine
 62
7
  6
CONTINUOUS
 10
83.8225866177
 20
198.5816886962
 11
83.0220047738
 21
198.9065959309
  0
LINE
  5
22C
100
AcDbEntity
  8
KONSTRUKTIONSELEMENTE
100
AcDbLine
 62
7
  6
CONTINUOUS
 10
79.2859551507
 20
200.4228301057
 11
78.4853733067
 21
200.7477373404
  0
LINE
  5
22D
100
AcDbEntity
  8
KONSTRUKTIONSELEMENTE
100
AcDbLine
 62
7
  6
CONTINUOUS
 10
66.5498201542
 20
201.0291600224
 11
66.0001796701
 21
201.2556516787
  0
LINE
  5
22E
100
AcDbEntity
  8
KONSTRUKTIONSELEMENTE
100
AcDbLine
 62
7
  6
CONTINUOUS
 10
65.4726239569
 20
200.5483436222
 11
66.1376940749
 21
200.2357571577
  0
LINE
  5
22F
100
AcDbEntity
  8
KONSTRUKTIONSELEMENTE
100
AcDbLine
 62
7
  6
CONTINUOUS
 10
94.6864904603
 20
192.2628195052
 11
95.0949294464
 21
192.0592774715
  0
LINE
  5
230
100
AcDbEntity
  8
KONSTRUKTIONSELEMENTE
100
AcDbLine
 62
7
  6
CONTINUOUS
 10
60.6470557327
 20
205.8599893519
 11
60.1291628237
 21
206.1518643527
  0
LINE
  5
231
100
AcDbEntity
  8
KONSTRUKTIONSELEMENTE
100
AcDbLine
 62
7
  6
CONTINUOUS
 10
58.3492726502
 20
212.681122882
 11
57.9613638664
 21
212.9214945533
  0
LINE
  5
232
100
AcDbEntity
  8
KONSTRUKTIONSELEMENTE
100
AcDbLine
 62
7
  6
CONTINUOUS
 10
59.5192335308
 20
205.5142234074
 11
60.1411855119
 21
205.1228117233
  0
LINE
  5
233
100
AcDbEntity
  8
KONSTRUKTIONSELEMENTE
100
AcDbLine
 62
7
  6
CONTINUOUS
 10
62.7023340622
 20
202.6146035041
 11
65.4726239569
 21
200.5483436222
  0
LINE
  5
234
100
AcDbEntity
  8
KONSTRUKTIONSELEMENTE
100
AcDbLine
 62
7
  6
CONTINUOUS
 10
66.0001796701
 20
201.2556516787
 11
63.9224622491
 21
202.8053465901
  0
LINE
  5
235
100
AcDbEntity
  8
KONSTRUKTIONSELEMENTE
100
AcDbLine
 62
7
  6
CONTINUOUS
 10
66.999870648
 20
206.9313103491
 11
69.077588069
 21
205.3816154377
  0
LINE
  5
236
100
AcDbEntity
  8
KONSTRUKTIONSELEMENTE
100
AcDbLine
 62
7
  6
CONTINUOUS
 10
59.1029954921
 20
205.9123718867
 11
59.5192335308
 21
205.5142234074
  0
LINE
  5
237
100
AcDbEntity
  8
KONSTRUKTIONSELEMENTE
100
AcDbLine
 62
7
  6
CONTINUOUS
 10
60.1291628237
 20
206.1518643527
 11
59.7129247849
 21
206.5500128319
  0
LINE
  5
238
100
AcDbEntity
  8
KONSTRUKTIONSELEMENTE
100
AcDbLine
 62
7
  6
CONTINUOUS
 10
52.6079533851
 20
213.1815697268
 11
53.1565384113
 21
212.5140740572
  0
LINE
  5
239
100
AcDbEntity
  8
KONSTRUKTIONSELEMENTE
100
AcDbLine
 62
7
  6
CONTINUOUS
 10
55.4423092667
 20
209.7328422064
 11
56.082325305
 21
208.9540970463
  0
LINE
  5
23A
100
AcDbEntity
  8
KONSTRUKTIONSELEMENTE
100
AcDbLine
 62
7
  6
CONTINUOUS
 10
55.5424804133
 20
214.4749737532
 11
57.0968046107
 21
212.5837360756
  0
LINE
  5
23B
100
AcDbEntity
  8
KONSTRUKTIONSELEMENTE
100
AcDbLine
 62
7
  6
CONTINUOUS
 10
57.9613638664
 20
212.9214945533
 11
56.2241780372
 21
215.0352307345
  0
LINE
  5
23C
100
AcDbEntity
  8
KONSTRUKTIONSELEMENTE
100
AcDbLine
 62
7
  6
CONTINUOUS
 10
58.6843532694
 20
206.5163305463
 11
59.1029954921
 21
205.9123718867
  0
LINE
  5
23D
100
AcDbEntity
  8
KONSTRUKTIONSELEMENTE
100
AcDbLine
 62
7
  6
CONTINUOUS
 10
59.7129247849
 20
206.5500128319
 11
59.3983422119
 21
207.05443422
  0
LINE
  5
23E
100
AcDbEntity
  8
KONSTRUKTIONSELEMENTE
100
AcDbLine
 62
7
  6
CONTINUOUS
 10
47.6540626718
 20
221.07545922
 11
48.1128783882
 21
220.2321987986
  0
LINE
  5
23F
100
AcDbEntity
  8
KONSTRUKTIONSELEMENTE
100
AcDbLine
 62
7
  6
CONTINUOUS
 10
94.8391314018
 20
190.1646374514
 11
94.3913388767
 21
190.0766964522
  0
LINE
  5
240
100
AcDbEntity
  8
KONSTRUKTIONSELEMENTE
100
AcDbLine
 62
7
  6
CONTINUOUS
 10
95.2523436023
 20
193.2252096032
 11
94.8045510772
 21
193.1372686039
  0
LINE
  5
241
100
AcDbEntity
  8
KONSTRUKTIONSELEMENTE
100
AcDbLine
 62
7
  6
CONTINUOUS
 10
103.8245628747
 20
195.6631850832
 11
102.9606107724
 21
195.6722826047
  0
LINE
  5
242
100
AcDbEntity
  8
KONSTRUKTIONSELEMENTE
100
AcDbLine
 62
7
  6
CONTINUOUS
 10
98.9288331963
 20
195.7147377168
 11
98.064881094
 21
195.7238352383
  0
LINE
  5
243
100
AcDbEntity
  8
KONSTRUKTIONSELEMENTE
100
AcDbLine
 62
7
  6
CONTINUOUS
 10
67.0719583364
 20
201.0066469444
 11
66.5498201542
 21
201.0291600224
  0
LINE
  5
244
100
AcDbEntity
  8
KONSTRUKTIONSELEMENTE
100
AcDbLine
 62
7
  6
CONTINUOUS
 10
95.0553801812
 20
196.0713663274
 11
91.6304541363
 21
196.5337704653
  0
LINE
  5
245
100
AcDbEntity
  8
KONSTRUKTIONSELEMENTE
100
AcDbLine
 62
7
  6
CONTINUOUS
 10
61.1625439246
 20
205.7739251662
 11
60.6470557327
 21
205.8599893519
  0
LINE
  5
246
100
AcDbEntity
  8
KONSTRUKTIONSELEMENTE
100
AcDbLine
 62
7
  6
CONTINUOUS
 10
95.7492285824
 20
195.8292907625
 11
95.0553801812
 21
196.0713663274
  0
LINE
  5
247
100
AcDbEntity
  8
KONSTRUKTIONSELEMENTE
100
AcDbLine
 62
7
  6
CONTINUOUS
 10
57.872622309
 20
212.1029925738
 11
58.4655781139
 21
211.8447478939
  0
LINE
  5
248
100
AcDbEntity
  8
KONSTRUKTIONSELEMENTE
100
AcDbLine
 62
7
  6
CONTINUOUS
 10
95.080025905
 20
195.1776502426
 11
95.4884648911
 21
194.9741082089
  0
LINE
  5
249
100
AcDbEntity
  8
KONSTRUKTIONSELEMENTE
100
AcDbLine
 62
7
  6
CONTINUOUS
 10
95.8674849255
 20
192.4001679725
 11
95.60175228
 21
192.5844430201
  0
LINE
  5
24A
100
AcDbEntity
  8
KONSTRUKTIONSELEMENTE
100
AcDbLine
 62
7
  6
CONTINUOUS
 10
69.6051437206
 20
206.0889234116
 11
66.8348538259
 21
208.1551832934
  0
LINE
  5
24B
100
AcDbEntity
  8
KONSTRUKTIONSELEMENTE
100
AcDbLine
 62
7
  6
CONTINUOUS
 10
65.9619645629
 20
208.9164841433
 11
65.3376078025
 21
209.5137065773
  0
LINE
  5
24C
100
AcDbEntity
  8
KONSTRUKTIONSELEMENTE
100
AcDbLine
 62
7
  6
CONTINUOUS
 10
62.8401807609
 20
211.9025963136
 11
62.2158237028
 21
212.4998190324
  0
LINE
  5
24D
100
AcDbEntity
  8
KONSTRUKTIONSELEMENTE
100
AcDbLine
 62
7
  6
CONTINUOUS
 10
42.951935068
 20
237.8820199373
 11
42.5467295445
 21
238.2979673629
  0
LINE
  5
24E
100
AcDbEntity
  8
KONSTRUKTIONSELEMENTE
100
AcDbLine
 62
7
  6
CONTINUOUS
 10
70.0943619471
 20
205.5405676121
 11
69.6051437206
 21
206.0889234116
  0
LINE
  5
24F
100
AcDbEntity
  8
KONSTRUKTIONSELEMENTE
100
AcDbLine
 62
7
  6
CONTINUOUS
 10
41.7699122495
 20
237.9985032435
 11
42.3916144393
 21
237.2957981563
  0
LINE
  5
250
100
AcDbEntity
  8
KONSTRUKTIONSELEMENTE
100
AcDbLine
 62
7
  6
CONTINUOUS
 10
57.9284224153
 20
216.4358734492
 11
59.6656082445
 21
214.3221372681
  0
LINE
  5
251
100
AcDbEntity
  8
KONSTRUKTIONSELEMENTE
100
AcDbLine
 62
7
  6
CONTINUOUS
 10
60.1422588472
 20
214.900267258
 11
57.9479187424
 21
217.5702499366
  0
LINE
  5
252
100
AcDbEntity
  8
KONSTRUKTIONSELEMENTE
100
AcDbLine
 62
7
  6
CONTINUOUS
 10
69.077588069
 20
205.3816154377
 11
69.4513766692
 21
204.9193544568
  0
LINE
  5
253
100
AcDbEntity
  8
KONSTRUKTIONSELEMENTE
100
AcDbLine
 62
7
  6
CONTINUOUS
 10
42.5467295445
 20
238.2979673629
 11
42.3024450766
 21
238.7422936207
  0
LINE
  5
254
100
AcDbEntity
  8
KONSTRUKTIONSELEMENTE
100
AcDbLine
 62
7
  6
CONTINUOUS
 10
45.0820663996
 20
240.8571809854
 11
45.3263509072
 21
240.4128545023
  0
LINE
  5
255
100
AcDbEntity
  8
KONSTRUKTIONSELEMENTE
100
AcDbLine
 62
7
  6
CONTINUOUS
 10
47.8177241219
 20
241.3396250439
 11
48.0620086295
 21
240.8952985607
  0
LINE
  5
256
100
AcDbEntity
  8
KONSTRUKTIONSELEMENTE
100
AcDbLine
 62
7
  6
CONTINUOUS
 10
52.4589693998
 20
226.6041974581
 11
53.6824776851
 21
224.355503537
  0
LINE
  5
257
100
AcDbEntity
  8
KONSTRUKTIONSELEMENTE
100
AcDbLine
 62
7
  6
CONTINUOUS
 10
54.1412934015
 20
223.5122431156
 11
55.3648016869
 21
221.2635491945
  0
LINE
  5
258
100
AcDbEntity
  8
KONSTRUKTIONSELEMENTE
100
AcDbLine
 62
7
  6
CONTINUOUS
 10
56.0824700451
 20
221.6540306088
 11
53.176637758
 21
226.9946788723
  0
LINE
  5
259
100
AcDbEntity
  8
KONSTRUKTIONSELEMENTE
100
AcDbLine
 62
7
  6
CONTINUOUS
 10
60.4857968523
 20
214.250644597
 11
60.1422588472
 21
214.900267258
  0
LINE
  5
25A
100
AcDbEntity
  8
KONSTRUKTIONSELEMENTE
100
AcDbLine
 62
7
  6
CONTINUOUS
 10
41.4700520403
 20
238.7579669016
 11
41.7699122495
 21
237.9985032435
  0
LINE
  5
25B
100
AcDbEntity
  8
KONSTRUKTIONSELEMENTE
100
AcDbLine
 62
7
  6
CONTINUOUS
 10
46.1587438308
 20
240.3971812015
 11
45.8588836556
 21
241.1566447494
  0
LINE
  5
25C
100
AcDbEntity
  8
KONSTRUKTIONSELEMENTE
100
AcDbLine
 62
7
  6
CONTINUOUS
 10
43.9913586268
 20
229.3278415391
 11
44.3326018819
 21
228.4305383345
  0
LINE
  5
25D
100
AcDbEntity
  8
KONSTRUKTIONSELEMENTE
100
AcDbLine
 62
7
  6
CONTINUOUS
 10
49.8373831856
 20
233.2628734487
 11
51.5435994608
 21
228.776357426
  0
LINE
  5
25E
100
AcDbEntity
  8
KONSTRUKTIONSELEMENTE
100
AcDbLine
 62
7
  6
CONTINUOUS
 10
52.6485049266
 20
228.1694739783
 11
50.6010453963
 21
233.5532932056
  0
LINE
  5
25F
100
AcDbEntity
  8
KONSTRUKTIONSELEMENTE
100
AcDbLine
 62
7
  6
CONTINUOUS
 10
58.4714249979
 20
207.1270260104
 11
58.6843532694
 21
206.5163305463
  0
LINE
  5
260
100
AcDbEntity
  8
KONSTRUKTIONSELEMENTE
100
AcDbLine
 62
7
  6
CONTINUOUS
 10
41.4769003872
 20
234.1868521215
 11
41.690375124
 21
233.4158600457
  0
LINE
  5
261
100
AcDbEntity
  8
KONSTRUKTIONSELEMENTE
100
AcDbLine
 62
7
  6
CONTINUOUS
 10
43.6788160005
 20
232.9703064993
 11
43.4653411415
 21
233.7412990162
  0
LINE
  5
262
100
AcDbEntity
  8
KONSTRUKTIONSELEMENTE
100
AcDbLine
 62
7
  6
CONTINUOUS
 10
41.3311129009
 20
239.5458093944
 11
41.4700520403
 21
238.7579669016
  0
LINE
  5
263
100
AcDbEntity
  8
KONSTRUKTIONSELEMENTE
100
AcDbLine
 62
7
  6
CONTINUOUS
 10
42.3024450766
 20
238.7422936207
 11
42.1079302497
 21
239.8452732909
  0
LINE
  5
264
100
AcDbEntity
  8
KONSTRUKTIONSELEMENTE
100
AcDbLine
 62
7
  6
CONTINUOUS
 10
45.3263509072
 20
240.4128545023
 11
45.5208657342
 21
239.309874832
  0
LINE
  5
265
100
AcDbEntity
  8
KONSTRUKTIONSELEMENTE
100
AcDbLine
 62
7
  6
CONTINUOUS
 10
46.2757011334
 20
238.7931169328
 11
46.2976829702
 21
239.6093387086
  0
LINE
  5
266
100
AcDbEntity
  8
KONSTRUKTIONSELEMENTE
100
AcDbLine
 62
7
  6
CONTINUOUS
 10
41.3530947717
 20
240.36203106
 11
41.3311129009
 21
239.5458093944
  0
LINE
  5
267
100
AcDbEntity
  8
KONSTRUKTIONSELEMENTE
100
AcDbLine
 62
7
  6
CONTINUOUS
 10
48.9835709722
 20
239.4331298054
 11
49.0055528488
 21
240.2493513558
  0
LINE
  5
268
100
AcDbEntity
  8
KONSTRUKTIONSELEMENTE
100
AcDbLine
 62
7
  6
CONTINUOUS
 10
42.1079302497
 20
239.8452732909
 11
42.1854877741
 21
240.3463578893
  0
LINE
  5
269
100
AcDbEntity
  8
KONSTRUKTIONSELEMENTE
100
AcDbLine
 62
7
  6
CONTINUOUS
 10
66.775260524
 20
200.1271501947
 11
67.5886788647
 21
200.2543125667
  0
LINE
  5
26A
100
AcDbEntity
  8
KONSTRUKTIONSELEMENTE
100
AcDbLine
 62
7
  6
CONTINUOUS
 10
60.7607333179
 20
204.937210229
 11
61.5835908733
 21
204.9641557008
  0
LINE
  5
26B
100
AcDbEntity
  8
BEZUGSACHSEN
100
AcDbLine
 62
7
  6
CONTINUOUS
 10
158.514833334
 20
203.3216804971
 11
147.8545792962
 21
203.3216804971
  0
LINE
  5
26C
100
AcDbEntity
  8
BEZUGSACHSEN
100
AcDbLine
 62
7
  6
CONTINUOUS
 10
158.8845867875
 20
206.6421885727
 11
158.514833334
 21
206.6421885727
  0
LINE
  5
26D
100
AcDbEntity
  8
BEZUGSACHSEN
100
AcDbLine
 62
7
  6
CONTINUOUS
 10
197.014833334
 20
210.6421885727
 11
170.514833334
 21
210.6421885727
  0
LINE
  5
26E
100
AcDbEntity
  8
KONSTRUKTIONSELEMENTE
100
AcDbLine
 62
7
  6
CONTINUOUS
 10
58.7593669541
 20
212.6453765465
 11
58.3492726502
 21
212.681122882
  0
LINE
  5
26F
100
AcDbEntity
  8
KONSTRUKTIONSELEMENTE
100
AcDbLine
 62
7
  6
CONTINUOUS
 10
42.3916144393
 20
237.2957981563
 11
43.1186620512
 21
236.9366088558
  0
LINE
  5
270
100
AcDbEntity
  8
KONSTRUKTIONSELEMENTE
100
AcDbLine
 62
7
  6
CONTINUOUS
 10
44.2994431765
 20
241.5315073606
 11
44.6768608761
 21
241.273128411
  0
LINE
  5
271
100
AcDbEntity
  8
0
100
AcDbLine
 62
7
  6
CONTINUOUS
 10
73.5863357353
 20
222.3692269104
 11
69.2418716716
 21
226.713690974
  0
LINE
  5
272
100
AcDbEntity
  8
KONSTRUKTIONSELEMENTE
100
AcDbLine
 62
7
  6
CONTINUOUS
 10
96.2610203702
 20
195.3149987098
 11
95.7492285824
 21
195.8292907625
  0
LINE
  5
273
100
AcDbEntity
  8
KONSTRUKTIONSELEMENTE
100
AcDbLine
 62
7
  6
CONTINUOUS
 10
44.6768608761
 20
241.273128411
 11
45.0820663996
 21
240.8571809854
  0
LINE
  5
274
100
AcDbEntity
  8
KONSTRUKTIONSELEMENTE
100
AcDbLine
 62
7
  6
CONTINUOUS
 10
45.8588836556
 20
241.1566447494
 11
45.0484725986
 21
241.9885396569
  0
LINE
  5
275
100
AcDbEntity
  8
KONSTRUKTIONSELEMENTE
100
AcDbLine
 62
7
  6
CONTINUOUS
 10
47.4125185984
 20
241.7555724695
 11
47.8177241219
 21
241.3396250439
  0
LINE
  5
276
100
AcDbEntity
  8
KONSTRUKTIONSELEMENTE
100
AcDbLine
 62
7
  6
CONTINUOUS
 10
48.5945413779
 20
241.6390888078
 11
47.9728391707
 21
242.3417942406
  0
LINE
  5
277
100
AcDbEntity
  8
KONSTRUKTIONSELEMENTE
100
AcDbLine
 62
7
  6
CONTINUOUS
 10
95.0949294464
 20
192.0592774715
 11
95.3409853224
 21
191.7292609075
  0
LINE
  5
278
100
AcDbEntity
  8
KONSTRUKTIONSELEMENTE
100
AcDbLine
 62
7
  6
CONTINUOUS
 10
70.3802246053
 20
204.9604219689
 11
70.0943619471
 21
205.5405676121
  0
LINE
  5
279
100
AcDbEntity
  8
KONSTRUKTIONSELEMENTE
100
AcDbLine
 62
7
  6
CONTINUOUS
 10
48.8944015531
 20
240.8796252599
 11
48.5945413779
 21
241.6390888078
  0
LINE
  5
27A
100
AcDbEntity
  8
KONSTRUKTIONSELEMENTE
100
AcDbLine
 62
7
  6
CONTINUOUS
 10
59.6656082445
 20
214.3221372681
 11
59.8262844869
 21
213.8950132697
  0
LINE
  5
27B
100
AcDbEntity
  8
KONSTRUKTIONSELEMENTE
100
AcDbLine
 62
7
  6
CONTINUOUS
 10
69.4513766692
 20
204.9193544568
 11
69.6218110221
 21
204.4253026469
  0
LINE
  5
27C
100
AcDbEntity
  8
KONSTRUKTIONSELEMENTE
100
AcDbLine
 62
7
  6
CONTINUOUS
 10
59.3983422119
 20
207.05443422
 11
59.2894736435
 21
207.5655924684
  0
LINE
  5
27D
100
AcDbEntity
  8
KONSTRUKTIONSELEMENTE
100
AcDbLine
 62
7
  6
CONTINUOUS
 10
46.2976829702
 20
239.6093387086
 11
46.1587438308
 21
240.3971812015
  0
LINE
  5
27E
100
AcDbEntity
  8
KONSTRUKTIONSELEMENTE
100
AcDbLine
 62
7
  6
CONTINUOUS
 10
47.4855121876
 20
238.5190648747
 11
47.6244512873
 21
237.7312226073
  0
LINE
  5
27F
100
AcDbEntity
  8
KONSTRUKTIONSELEMENTE
100
AcDbLine
 62
7
  6
CONTINUOUS
 10
48.0620086295
 20
240.8952985607
 11
48.2287356127
 21
239.9498874792
  0
LINE
  5
280
100
AcDbEntity
  8
KONSTRUKTIONSELEMENTE
100
AcDbLine
 62
7
  6
CONTINUOUS
 10
49.0055528488
 20
240.2493513558
 11
48.8944015531
 21
240.8796252599
  0
LINE
  5
281
100
AcDbEntity
  8
KONSTRUKTIONSELEMENTE
100
AcDbLine
 62
7
  6
CONTINUOUS
 10
60.510671304
 20
213.5255190993
 11
60.4857968523
 21
214.250644597
  0
LINE
  5
282
100
AcDbEntity
  8
KONSTRUKTIONSELEMENTE
100
AcDbLine
 62
7
  6
CONTINUOUS
 10
58.4618070713
 20
207.9502678711
 11
58.4714249979
 21
207.1270260104
  0
LINE
  5
283
100
AcDbEntity
  8
0
100
AcDbLine
 62
7
  6
CONTINUOUS
 10
58.9459732532
 20
251.5701885727
 11
58.9459732532
 21
257.7141885727
  0
LINE
  5
284
100
AcDbEntity
  8
KONSTRUKTIONSELEMENTE
100
AcDbLine
 62
7
  6
CONTINUOUS
 10
45.5208657342
 20
239.309874832
 11
45.44330817
 21
238.8087904591
  0
LINE
  5
285
100
AcDbEntity
  8
KONSTRUKTIONSELEMENTE
100
AcDbLine
 62
7
  6
CONTINUOUS
 10
48.2287356127
 20
239.9498874792
 11
48.1511780883
 21
239.4488028808
  0
LINE
  5
286
100
AcDbEntity
  8
KONSTRUKTIONSELEMENTE
100
AcDbLine
 62
7
  6
CONTINUOUS
 10
41.6969187026
 20
241.2350108457
 11
41.3530947717
 21
240.36203106
  0
LINE
  5
287
100
AcDbEntity
  8
0
100
AcDbLine
 62
7
  6
CONTINUOUS
 10
41.2962780228
 20
268.310100551
 11
41.5361878549
 21
268.8042909045
  0
LINE
  5
288
100
AcDbEntity
  8
0
100
AcDbLine
 62
7
  6
CONTINUOUS
 10
43.4155418827
 20
287.0483731431
 11
71.9172432802
 21
309.8761334232
  0
LINE
  5
289
100
AcDbEntity
  8
KONSTRUKTIONSELEMENTE
100
AcDbLine
 62
7
  6
CONTINUOUS
 10
61.6756272571
 20
205.8936716468
 11
61.1625439246
 21
205.7739251662
  0
LINE
  5
28A
100
AcDbEntity
  8
KONSTRUKTIONSELEMENTE
100
AcDbLine
 62
7
  6
CONTINUOUS
 10
58.4655781139
 20
211.8447478939
 11
59.1943357097
 21
211.8845047133
  0
LINE
  5
28B
100
AcDbEntity
  8
BEZUGSACHSEN
100
AcDbLine
 62
7
  6
CONTINUOUS
 10
158.514833334
 20
211.9819345349
 11
147.8545792962
 21
211.9819345349
  0
LINE
  5
28C
100
AcDbEntity
  8
0
100
AcDbLine
 62
7
  6
CONTINUOUS
 10
104.586833334
 20
212.0733284919
 11
98.442833334
 21
212.0733284919
  0
LINE
  5
28D
100
AcDbEntity
  8
0
100
AcDbLine
 62
2
  6
CONTINUOUS
 10
170.514833334
 20
212.1756885727
 11
199.014833334
 21
212.1756885727
  0
LINE
  5
28E
100
AcDbEntity
  8
BEZUGSACHSEN
100
AcDbLine
 62
2
  6
CENTER
 10
156.014833334
 20
220.6421885727
 11
202.014833334
 21
220.6421885727
  0
LINE
  5
28F
100
AcDbEntity
  8
KONSTRUKTIONSELEMENTE
100
AcDbLine
 62
7
  6
CONTINUOUS
 10
41.690375124
 20
233.4158600457
 11
43.6788160005
 21
232.9703064993
  0
LINE
  5
290
100
AcDbEntity
  8
KONSTRUKTIONSELEMENTE
100
AcDbLine
 62
7
  6
CONTINUOUS
 10
43.4653411415
 20
233.7412990162
 11
41.4769003872
 21
234.1868521215
  0
LINE
  5
291
100
AcDbEntity
  8
KONSTRUKTIONSELEMENTE
100
AcDbLine
 62
7
  6
CONTINUOUS
 10
43.4902739162
 20
237.6520199525
 11
42.951935068
 21
237.8820199373
  0
LINE
  5
292
100
AcDbEntity
  8
KONSTRUKTIONSELEMENTE
100
AcDbLine
 62
7
  6
CONTINUOUS
 10
46.8741798828
 20
241.9855723615
 11
47.4125185984
 21
241.7555724695
  0
LINE
  5
293
100
AcDbEntity
  8
KONSTRUKTIONSELEMENTE
100
AcDbLine
 62
7
  6
CONTINUOUS
 10
47.9728391707
 20
242.3417942406
 11
47.2457916152
 21
242.700983551
  0
LINE
  5
294
100
AcDbEntity
  8
KONSTRUKTIONSELEMENTE
100
AcDbLine
 62
7
  6
CONTINUOUS
 10
95.4884648911
 20
194.9741082089
 11
95.7345207672
 21
194.6440916448
  0
LINE
  5
295
100
AcDbEntity
  8
KONSTRUKTIONSELEMENTE
100
AcDbLine
 62
7
  6
CONTINUOUS
 10
96.2168936032
 20
191.7594013894
 11
95.8674849255
 21
192.4001679725
  0
LINE
  5
296
100
AcDbEntity
  8
KONSTRUKTIONSELEMENTE
100
AcDbLine
 62
7
  6
CONTINUOUS
 10
59.8262844869
 20
213.8950132697
 11
59.7819137082
 21
213.48576228
  0
LINE
  5
297
100
AcDbEntity
  8
KONSTRUKTIONSELEMENTE
100
AcDbLine
 62
7
  6
CONTINUOUS
 10
45.9318771852
 20
237.9201374927
 11
46.2757011334
 21
238.7931169328
  0
LINE
  5
298
100
AcDbEntity
  8
KONSTRUKTIONSELEMENTE
100
AcDbLine
 62
7
  6
CONTINUOUS
 10
48.6397471034
 20
238.5601499144
 11
48.9835709722
 21
239.4331298054
  0
LINE
  5
299
100
AcDbEntity
  8
KONSTRUKTIONSELEMENTE
100
AcDbLine
 62
7
  6
CONTINUOUS
 10
42.1854877741
 20
240.3463578893
 11
42.4239663144
 21
240.8758215452
  0
LINE
  5
29A
100
AcDbEntity
  8
KONSTRUKTIONSELEMENTE
100
AcDbLine
 62
7
  6
CONTINUOUS
 10
45.44330817
 20
238.8087904591
 11
45.2048296297
 21
238.2793268031
  0
LINE
  5
29B
100
AcDbEntity
  8
KONSTRUKTIONSELEMENTE
100
AcDbLine
 62
7
  6
CONTINUOUS
 10
48.1511780883
 20
239.4488028808
 11
47.912699548
 21
238.9193392249
  0
LINE
  5
29C
100
AcDbEntity
  8
0
100
AcDbLine
 62
7
  6
CONTINUOUS
 10
64.2119610771
 20
301.4295565898
 11
62.057510009
 21
299.7040002158
  0
LINE
  5
29D
100
AcDbEntity
  8
0
100
AcDbLine
 62
7
  6
CONTINUOUS
 10
55.0546592193
 20
294.2975378236
 11
48.5524516099
 21
289.4700085721
  0
LINE
  5
29E
100
AcDbEntity
  8
0
100
AcDbLine
 62
7
  6
CONTINUOUS
 10
72.6541603189
 20
310.3402306751
 11
71.9172432802
 21
309.8761334232
  0
LINE
  5
29F
100
AcDbEntity
  8
0
100
AcDbLine
 62
2
  6
CONTINUOUS
 10
170.514833334
 20
229.1086885727
 11
199.014833334
 21
229.1086885727
  0
LINE
  5
2A0
100
AcDbEntity
  8
BEZUGSACHSEN
100
AcDbLine
 62
7
  6
CONTINUOUS
 10
158.514833334
 20
229.3024426106
 11
147.8545792962
 21
229.3024426106
  0
LINE
  5
2A1
100
AcDbEntity
  8
KONSTRUKTIONSELEMENTE
100
AcDbLine
 62
7
  6
CONTINUOUS
 10
44.3326018819
 20
228.4305383345
 11
51.8848427159
 21
227.8790542214
  0
LINE
  5
2A2
100
AcDbEntity
  8
KONSTRUKTIONSELEMENTE
100
AcDbLine
 62
7
  6
CONTINUOUS
 10
51.5435994608
 20
228.776357426
 11
43.9913586268
 21
229.3278415391
  0
LINE
  5
2A3
100
AcDbEntity
  8
KONSTRUKTIONSELEMENTE
100
AcDbLine
 62
7
  6
CONTINUOUS
 10
44.0008247681
 20
237.5795887619
 11
43.4902739162
 21
237.6520199525
  0
LINE
  5
2A4
100
AcDbEntity
  8
KONSTRUKTIONSELEMENTE
100
AcDbLine
 62
7
  6
CONTINUOUS
 10
43.1186620512
 20
236.9366088558
 11
43.9788429313
 21
236.7633669861
  0
LINE
  5
2A5
100
AcDbEntity
  8
KONSTRUKTIONSELEMENTE
100
AcDbLine
 62
7
  6
CONTINUOUS
 10
96.6104290479
 20
194.6742321268
 11
96.2610203702
 21
195.3149987098
  0
LINE
  5
2A6
100
AcDbEntity
  8
KONSTRUKTIONSELEMENTE
100
AcDbLine
 62
7
  6
CONTINUOUS
 10
70.4902353797
 20
204.1445070011
 11
70.3802246053
 21
204.9604219689
  0
LINE
  5
2A7
100
AcDbEntity
  8
KONSTRUKTIONSELEMENTE
100
AcDbLine
 62
7
  6
CONTINUOUS
 10
69.6218110221
 20
204.4253026469
 11
69.5888908816
 21
203.8994596778
  0
LINE
  5
2A8
100
AcDbEntity
  8
KONSTRUKTIONSELEMENTE
100
AcDbLine
 62
7
  6
CONTINUOUS
 10
59.2894736435
 20
207.5655924684
 11
59.3863189372
 21
208.0834874282
  0
LINE
  5
2A9
100
AcDbEntity
  8
KONSTRUKTIONSELEMENTE
100
AcDbLine
 62
7
  6
CONTINUOUS
 10
60.3304987345
 20
212.8182666103
 11
60.510671304
 21
213.5255190993
  0
LINE
  5
2AA
100
AcDbEntity
  8
KONSTRUKTIONSELEMENTE
100
AcDbLine
 62
7
  6
CONTINUOUS
 10
113.1897832333
 20
328.5251868632
 11
119.5628946035
 21
333.3276707479
  0
LINE
  5
2AB
100
AcDbEntity
  8
0
100
AcDbLine
 62
7
  6
CONTINUOUS
 10
112.4286030554
 20
327.3205200855
 11
97.8820835048
 21
316.3589313633
  0
LINE
  5
2AC
100
AcDbEntity
  8
0
100
AcDbLine
 62
7
  6
CONTINUOUS
 10
96.3267282107
 20
315.186887082
 11
85.1894555289
 21
306.7943501456
  0
LINE
  5
2AD
100
AcDbEntity
  8
0
100
AcDbLine
 62
7
  6
CONTINUOUS
 10
113.9839583495
 20
328.4925643668
 11
116.3362404208
 21
330.2651360485
  0
LINE
  5
2AE
100
AcDbEntity
  8
0
100
AcDbLine
 62
7
  6
CONTINUOUS
 10
86.9949005984
 20
304.3984436155
 11
86.1962650883
 21
303.7966285923
  0
LINE
  5
2AF
100
AcDbEntity
  8
0
100
AcDbLine
 62
7
  6
CONTINUOUS
 10
88.6035251809
 20
300.6020865521
 11
90.9994317111
 21
302.4075316216
  0
LINE
  5
2B0
100
AcDbEntity
  8
0
100
AcDbLine
 62
7
  6
CONTINUOUS
 10
85.1879959462
 20
303.7903947498
 11
86.7088483103
 21
304.7780478231
  0
LINE
  5
2B1
100
AcDbEntity
  8
0
100
AcDbLine
 62
7
  6
CONTINUOUS
 10
85.9178334728
 20
305.8277599669
 11
84.4101811562
 21
304.9881244933
  0
LINE
  5
2B2
100
AcDbEntity
  8
0
100
AcDbLine
 62
7
  6
CONTINUOUS
 10
90.9994317111
 20
302.4075316216
 11
145.7451596455
 21
328.919892379
  0
LINE
  5
2B3
100
AcDbEntity
  8
BEZUGSACHSEN
100
AcDbLine
 62
7
  6
CONTINUOUS
 10
197.014833334
 20
230.6421885727
 11
170.514833334
 21
230.6421885727
  0
LINE
  5
2B4
100
AcDbEntity
  8
BEZUGSACHSEN
100
AcDbLine
 62
7
  6
CONTINUOUS
 10
158.8845867875
 20
234.6421885727
 11
158.514833334
 21
234.6421885727
  0
LINE
  5
2B5
100
AcDbEntity
  8
BEZUGSACHSEN
100
AcDbLine
 62
7
  6
CONTINUOUS
 10
158.514833334
 20
237.9626966484
 11
147.8545792962
 21
237.9626966484
  0
LINE
  5
2B6
100
AcDbEntity
  8
KONSTRUKTIONSELEMENTE
100
AcDbLine
 62
7
  6
CONTINUOUS
 10
43.7888920793
 20
241.6039386241
 11
44.2994431765
 21
241.5315073606
  0
LINE
  5
2B7
100
AcDbEntity
  8
KONSTRUKTIONSELEMENTE
100
AcDbLine
 62
7
  6
CONTINUOUS
 10
46.3636285602
 20
242.0580035852
 11
46.8741798828
 21
241.9855723615
  0
LINE
  5
2B8
100
AcDbEntity
  8
0
100
AcDbLine
 62
7
  6
CONTINUOUS
 10
127.8531467196
 20
228.3038751871
 11
133.1607256222
 21
227.3407603481
  0
LINE
  5
2B9
100
AcDbEntity
  8
KONSTRUKTIONSELEMENTE
100
AcDbLine
 62
7
  6
CONTINUOUS
 10
47.2457916152
 20
242.700983551
 11
46.3856104243
 21
242.8742252061
  0
LINE
  5
2BA
100
AcDbEntity
  8
0
100
AcDbLine
 62
7
  6
CONTINUOUS
 10
64.266833334
 20
254.6421885727
 11
58.9459732532
 21
257.7141885727
  0
LINE
  5
2BB
100
AcDbEntity
  8
0
100
AcDbLine
 62
7
  6
CONTINUOUS
 10
104.586833334
 20
212.0733284919
 11
101.514833334
 21
217.3941885727
  0
LINE
  5
2BC
100
AcDbEntity
  8
KONSTRUKTIONSELEMENTE
100
AcDbLine
 62
7
  6
CONTINUOUS
 10
88.7290018788
 20
190.0628425999
 11
88.2638919064
 21
197.3338698847
  0
LINE
  5
2BD
100
AcDbEntity
  8
KONSTRUKTIONSELEMENTE
100
AcDbLine
 62
7
  6
CONTINUOUS
 10
87.7866675832
 20
192.1364886904
 11
87.8935697566
 21
190.2831813602
  0
LINE
  5
2BE
100
AcDbEntity
  8
KONSTRUKTIONSELEMENTE
100
AcDbLine
 62
7
  6
CONTINUOUS
 10
87.5569182345
 20
196.9119578905
 11
87.7974456953
 21
192.7420168786
  0
LINE
  5
2BF
100
AcDbEntity
  8
KONSTRUKTIONSELEMENTE
100
AcDbLine
 62
7
  6
CONTINUOUS
 10
78.8865407117
 20
194.0776743846
 11
79.2859551507
 21
200.4228301057
  0
LINE
  5
2C0
100
AcDbEntity
  8
KONSTRUKTIONSELEMENTE
100
AcDbLine
 62
7
  6
CONTINUOUS
 10
78.4853733067
 20
200.7477373404
 11
78.0210013647
 21
193.4766628832
  0
LINE
  5
2C1
100
AcDbEntity
  8
KONSTRUKTIONSELEMENTE
100
AcDbLine
 62
7
  6
CONTINUOUS
 10
70.3693895435
 20
203.5007796999
 11
70.4902353797
 21
204.1445070011
  0
LINE
  5
2C2
100
AcDbEntity
  8
KONSTRUKTIONSELEMENTE
100
AcDbLine
 62
7
  6
CONTINUOUS
 10
58.6603076042
 20
208.574436099
 11
58.4618070713
 21
207.9502678711
  0
LINE
  5
2C3
100
AcDbEntity
  8
KONSTRUKTIONSELEMENTE
100
AcDbLine
 62
7
  6
CONTINUOUS
 10
45.2048296297
 20
238.2793268031
 11
44.9385632853
 21
237.9074315105
  0
LINE
  5
2C4
100
AcDbEntity
  8
KONSTRUKTIONSELEMENTE
100
AcDbLine
 62
7
  6
CONTINUOUS
 10
45.5324776288
 20
237.3622947792
 11
45.9318771852
 21
237.9201374927
  0
LINE
  5
2C5
100
AcDbEntity
  8
0
100
AcDbLine
 62
7
  6
CONTINUOUS
 10
76.0967584657
 20
274.5009651208
 11
82.5767274016
 21
282.7949471372
  0
LINE
  5
2C6
100
AcDbEntity
  8
KONSTRUKTIONSELEMENTE
100
AcDbLine
 62
7
  6
CONTINUOUS
 10
42.2572393312
 20
241.8212326268
 11
41.6969187026
 21
241.2350108457
  0
LINE
  5
2C7
100
AcDbEntity
  8
0
100
AcDbLine
 62
7
  6
CONTINUOUS
 10
69.2418716716
 20
226.713690974
 11
75.1765199484
 21
228.3038751871
  0
LINE
  5
2C8
100
AcDbEntity
  8
KONSTRUKTIONSELEMENTE
100
AcDbLine
 62
7
  6
CONTINUOUS
 10
46.3856104243
 20
242.8742252061
 11
45.2313754812
 21
242.8331403212
  0
LINE
  5
2C9
100
AcDbEntity
  8
KONSTRUKTIONSELEMENTE
100
AcDbLine
 62
7
  6
CONTINUOUS
 10
45.3703146305
 20
242.0452977721
 11
46.3636285602
 21
242.0580035852
  0
LINE
  5
2CA
100
AcDbEntity
  8
KONSTRUKTIONSELEMENTE
100
AcDbLine
 62
7
  6
CONTINUOUS
 10
95.3409853224
 20
191.7292609075
 11
95.4246613271
 21
191.2727691679
  0
LINE
  5
2CB
100
AcDbEntity
  8
KONSTRUKTIONSELEMENTE
100
AcDbLine
 62
7
  6
CONTINUOUS
 10
96.3005696078
 20
191.3029096499
 11
96.2168936032
 21
191.7594013894
  0
LINE
  5
2CC
100
AcDbEntity
  8
KONSTRUKTIONSELEMENTE
100
AcDbLine
 62
7
  6
CONTINUOUS
 10
95.7345207672
 20
194.6440916448
 11
95.8181967442
 21
194.1875997011
  0
LINE
  5
2CD
100
AcDbEntity
  8
KONSTRUKTIONSELEMENTE
100
AcDbLine
 62
7
  6
CONTINUOUS
 10
96.6941050801
 20
194.2177405914
 11
96.6104290479
 21
194.6742321268
  0
LINE
  5
2CE
100
AcDbEntity
  8
0
100
AcDbLine
 62
7
  6
CONTINUOUS
 10
73.5863357353
 20
222.3692269104
 11
75.1765199484
 21
228.3038751871
  0
LINE
  5
2CF
100
AcDbEntity
  8
KONSTRUKTIONSELEMENTE
100
AcDbLine
 62
7
  6
CONTINUOUS
 10
57.0968046107
 20
212.5837360756
 11
55.4423092667
 21
209.7328422064
  0
LINE
  5
2D0
100
AcDbEntity
  8
KONSTRUKTIONSELEMENTE
100
AcDbLine
 62
7
  6
CONTINUOUS
 10
48.0794265311
 20
237.9739281433
 11
48.6397471034
 21
238.5601499144
  0
LINE
  5
2D1
100
AcDbEntity
  8
KONSTRUKTIONSELEMENTE
100
AcDbLine
 62
7
  6
CONTINUOUS
 10
42.4239663144
 20
240.8758215452
 11
42.8511538073
 21
241.2760958026
  0
LINE
  5
2D2
100
AcDbEntity
  8
KONSTRUKTIONSELEMENTE
100
AcDbLine
 62
7
  6
CONTINUOUS
 10
47.912699548
 20
238.9193392249
 11
47.4855121876
 21
238.5190648747
  0
LINE
  5
2D3
100
AcDbEntity
  8
KONSTRUKTIONSELEMENTE
100
AcDbLine
 62
7
  6
CONTINUOUS
 10
43.9788429313
 20
236.7633669861
 11
44.7834482365
 21
236.9052623138
  0
LINE
  5
2D4
100
AcDbEntity
  8
KONSTRUKTIONSELEMENTE
100
AcDbLine
 62
7
  6
CONTINUOUS
 10
44.483587816
 20
237.6647259347
 11
44.0008247681
 21
237.5795887619
  0
LINE
  5
2D5
100
AcDbEntity
  8
KONSTRUKTIONSELEMENTE
100
AcDbLine
 62
7
  6
CONTINUOUS
 10
43.3061290313
 20
241.5188014514
 11
43.7888920793
 21
241.6039386241
  0
LINE
  5
2D6
100
AcDbEntity
  8
KONSTRUKTIONSELEMENTE
100
AcDbLine
 62
7
  6
CONTINUOUS
 10
45.0484725986
 20
241.9885396569
 11
45.3703146305
 21
242.0452977721
  0
LINE
  5
2D7
100
AcDbEntity
  8
KONSTRUKTIONSELEMENTE
100
AcDbLine
 62
7
  6
CONTINUOUS
 10
45.2313754812
 20
242.8331403212
 11
44.1049283694
 21
242.6344869182
  0
LINE
  5
2D8
100
AcDbEntity
  8
BEZUGSACHSEN
100
AcDbLine
 62
2
  6
CENTER
 10
101.514833334
 20
254.6421885727
 11
98.514733334
 21
254.6421885727
  0
LINE
  5
2D9
100
AcDbEntity
  8
BG_STARTBEZUEGE
100
AcDbLine
 62
2
  6
CENTER
 10
202.014833334
 20
254.6421885727
 11
21.674833334
 21
254.6421885727
  0
LINE
  5
2DA
100
AcDbEntity
  8
BEZUGSACHSEN
100
AcDbLine
 62
2
  6
CENTER
 10
101.514833334
 20
254.6421885727
 11
104.514933334
 21
254.6421885727
  0
LINE
  5
2DB
100
AcDbEntity
  8
BEZUGSACHSEN
100
AcDbLine
 62
2
  6
CENTER
 10
101.514833334
 20
254.6421885727
 11
101.514833334
 21
239.9627184394
  0
LINE
  5
2DC
100
AcDbEntity
  8
BEZUGSACHSEN
100
AcDbLine
 62
2
  6
CENTER
 10
101.514833334
 20
254.6421885727
 11
101.514833334
 21
270.1120936155
  0
LINE
  5
2DD
100
AcDbEntity
  8
KONSTRUKTIONSELEMENTE
100
AcDbLine
 62
7
  6
CONTINUOUS
 10
98.064881094
 20
195.7238352383
 11
97.9921009217
 21
188.8122184198
  0
LINE
  5
2DE
100
AcDbEntity
  8
KONSTRUKTIONSELEMENTE
100
AcDbLine
 62
7
  6
CONTINUOUS
 10
98.8560530241
 20
188.8031208982
 11
98.890120339
 21
192.0383458183
  0
LINE
  5
2DF
100
AcDbEntity
  8
KONSTRUKTIONSELEMENTE
100
AcDbLine
 62
7
  6
CONTINUOUS
 10
98.8994114237
 20
192.9206797751
 11
98.9288331963
 21
195.7147377168
  0
LINE
  5
2E0
100
AcDbEntity
  8
KONSTRUKTIONSELEMENTE
100
AcDbLine
 62
7
  6
CONTINUOUS
 10
102.9606107724
 20
195.6722826047
 11
102.9311889998
 21
192.878224663
  0
LINE
  5
2E1
100
AcDbEntity
  8
KONSTRUKTIONSELEMENTE
100
AcDbLine
 62
7
  6
CONTINUOUS
 10
102.9218979151
 20
191.9958907062
 11
102.8878306001
 21
188.7606657861
  0
LINE
  5
2E2
100
AcDbEntity
  8
KONSTRUKTIONSELEMENTE
100
AcDbLine
 62
7
  6
CONTINUOUS
 10
91.6304541363
 20
196.5337704653
 11
90.7056458605
 21
189.6839183754
  0
LINE
  5
2E3
100
AcDbEntity
  8
KONSTRUKTIONSELEMENTE
100
AcDbLine
 62
7
  6
CONTINUOUS
 10
91.6799380024
 20
190.4427665417
 11
91.975089586
 21
192.6288895947
  0
LINE
  5
2E4
100
AcDbEntity
  8
KONSTRUKTIONSELEMENTE
100
AcDbLine
 62
7
  6
CONTINUOUS
 10
92.0931502028
 20
193.5033386934
 11
92.3686250307
 21
195.5437203321
  0
LINE
  5
2E5
100
AcDbEntity
  8
KONSTRUKTIONSELEMENTE
100
AcDbLine
 62
7
  6
CONTINUOUS
 10
69.5888908816
 20
203.8994596778
 11
69.3526154191
 21
203.3418271952
  0
LINE
  5
2E6
100
AcDbEntity
  8
KONSTRUKTIONSELEMENTE
100
AcDbLine
 62
7
  6
CONTINUOUS
 10
56.082325305
 20
208.9540970463
 11
57.872622309
 21
212.1029925738
  0
LINE
  5
2E7
100
AcDbEntity
  8
KONSTRUKTIONSELEMENTE
100
AcDbLine
 62
7
  6
CONTINUOUS
 10
59.3863189372
 20
208.0834874282
 11
59.6888793552
 21
208.6081180347
  0
LINE
  5
2E8
100
AcDbEntity
  8
KONSTRUKTIONSELEMENTE
100
AcDbLine
 62
7
  6
CONTINUOUS
 10
59.7819137082
 20
213.48576228
 11
59.5324956468
 21
213.0943846172
  0
LINE
  5
2E9
100
AcDbEntity
  8
KONSTRUKTIONSELEMENTE
100
AcDbLine
 62
7
  6
CONTINUOUS
 10
60.081080673
 20
212.4268889475
 11
60.3304987345
 21
212.8182666103
  0
LINE
  5
2EA
100
AcDbEntity
  8
KONSTRUKTIONSELEMENTE
100
AcDbLine
 62
7
  6
CONTINUOUS
 10
59.0645222971
 20
209.2053407535
 11
58.6603076042
 21
208.574436099
  0
LINE
  5
2EB
100
AcDbEntity
  8
KONSTRUKTIONSELEMENTE
100
AcDbLine
 62
7
  6
CONTINUOUS
 10
43.0062688636
 20
242.278264957
 11
42.2572393312
 21
241.8212326268
  0
LINE
  5
2EC
100
AcDbEntity
  8
KONSTRUKTIONSELEMENTE
100
AcDbLine
 62
7
  6
CONTINUOUS
 10
103.7517827024
 20
188.7515682646
 11
103.8245628747
 21
195.6631850832
  0
LINE
  5
2ED
100
AcDbEntity
  8
KONSTRUKTIONSELEMENTE
100
AcDbLine
 62
7
  6
CONTINUOUS
 10
95.8181967442
 20
194.1875997011
 11
95.7788432053
 21
193.8961166682
  0
LINE
  5
2EE
100
AcDbEntity
  8
KONSTRUKTIONSELEMENTE
100
AcDbLine
 62
7
  6
CONTINUOUS
 10
95.4246613271
 20
191.2727691679
 11
95.3656310186
 21
190.8355446185
  0
LINE
  5
2EF
100
AcDbEntity
  8
KONSTRUKTIONSELEMENTE
100
AcDbLine
 62
7
  6
CONTINUOUS
 10
96.2021857604
 20
190.5742020676
 11
96.3005696078
 21
191.3029096499
  0
LINE
  5
2F0
100
AcDbEntity
  8
KONSTRUKTIONSELEMENTE
100
AcDbLine
 62
7
  6
CONTINUOUS
 10
96.615397947
 20
193.6347741173
 11
96.6941050801
 21
194.2177405914
  0
LINE
  5
2F1
100
AcDbEntity
  8
KONSTRUKTIONSELEMENTE
100
AcDbLine
 62
7
  6
CONTINUOUS
 10
70.0451878928
 20
202.8252622248
 11
70.3693895435
 21
203.5007796999
  0
LINE
  5
2F2
100
AcDbEntity
  8
BEZUGSACHSEN
100
AcDbLine
 62
7
  6
CONTINUOUS
 10
147.8545792962
 20
347.9626966484
 11
146.514833334
 21
345.6421885727
  0
LINE
  5
2F3
100
AcDbEntity
  8
KONSTRUKTIONSELEMENTE
100
AcDbLine
 62
7
  6
CONTINUOUS
 10
44.7834482365
 20
236.9052623138
 11
45.5324776288
 21
237.3622947792
  0
LINE
  5
2F4
100
AcDbEntity
  8
0
100
AcDbLine
 62
7
  6
CONTINUOUS
 10
58.9459732532
 20
251.5701885727
 11
64.266833334
 21
254.6421885727
  0
LINE
  5
2F5
100
AcDbEntity
  8
KONSTRUKTIONSELEMENTE
100
AcDbLine
 62
7
  6
CONTINUOUS
 10
42.8511538073
 20
241.2760958026
 11
43.3061290313
 21
241.5188014514
  0
LINE
  5
2F6
100
AcDbEntity
  8
KONSTRUKTIONSELEMENTE
100
AcDbLine
 62
7
  6
CONTINUOUS
 10
44.9385632853
 20
237.9074315105
 11
44.483587816
 21
237.6647259347
  0
LINE
  5
2F7
100
AcDbEntity
  8
KONSTRUKTIONSELEMENTE
100
AcDbLine
 62
7
  6
CONTINUOUS
 10
47.6244512873
 20
237.7312226073
 11
48.0794265311
 21
237.9739281433
  0
LINE
  5
2F8
100
AcDbEntity
  8
0
100
AcDbLine
 62
7
  6
CONTINUOUS
 10
86.1962650883
 20
303.7966285923
 11
88.6035251809
 21
300.6020865521
  0
LINE
  5
2F9
100
AcDbEntity
  8
0
100
AcDbLine
 62
7
  6
CONTINUOUS
 10
85.1894555289
 20
306.7943501456
 11
86.9949005984
 21
304.3984436155
  0
LINE
  5
2FA
100
AcDbEntity
  8
BEZUGSACHSEN
100
AcDbLine
 62
7
  6
CONTINUOUS
 10
147.8545792962
 20
203.3216804971
 11
146.514833334
 21
205.6421885727
  0
LINE
  5
2FB
100
AcDbEntity
  8
0
100
AcDbLine
 62
7
  6
CONTINUOUS
 10
129.6728542536
 20
223.2258196054
 11
127.8531467196
 21
228.3038751871
  0
LINE
  5
2FC
100
AcDbEntity
  8
KONSTRUKTIONSELEMENTE
100
AcDbLine
 62
7
  6
CONTINUOUS
 10
66.8348538259
 20
208.1551832934
 11
62.7023340622
 21
202.6146035041
  0
LINE
  5
2FD
100
AcDbEntity
  8
KONSTRUKTIONSELEMENTE
100
AcDbLine
 62
7
  6
CONTINUOUS
 10
63.9224622491
 20
202.8053465901
 11
66.999870648
 21
206.9313103491
  0
LINE
  5
2FE
100
AcDbEntity
  8
KONSTRUKTIONSELEMENTE
100
AcDbLine
 62
7
  6
CONTINUOUS
 10
69.3526154191
 20
203.3418271952
 11
68.0337261668
 21
201.5735570954
  0
LINE
  5
2FF
100
AcDbEntity
  8
KONSTRUKTIONSELEMENTE
100
AcDbLine
 62
7
  6
CONTINUOUS
 10
68.7262986405
 20
201.0569921249
 11
70.0451878928
 21
202.8252622248
  0
LINE
  5
300
100
AcDbEntity
  8
KONSTRUKTIONSELEMENTE
100
AcDbLine
 62
7
  6
CONTINUOUS
 10
62.2158237028
 20
212.4998190324
 11
59.0645222971
 21
209.2053407535
  0
LINE
  5
301
100
AcDbEntity
  8
KONSTRUKTIONSELEMENTE
100
AcDbLine
 62
7
  6
CONTINUOUS
 10
59.6888793552
 20
208.6081180347
 11
62.8401807609
 21
211.9025963136
  0
LINE
  5
302
100
AcDbEntity
  8
KONSTRUKTIONSELEMENTE
100
AcDbLine
 62
7
  6
CONTINUOUS
 10
57.9479187424
 20
217.5702499366
 11
52.6079533851
 21
213.1815697268
  0
LINE
  5
303
100
AcDbEntity
  8
KONSTRUKTIONSELEMENTE
100
AcDbLine
 62
7
  6
CONTINUOUS
 10
53.1565384113
 20
212.5140740572
 11
55.5424804133
 21
214.4749737532
  0
LINE
  5
304
100
AcDbEntity
  8
KONSTRUKTIONSELEMENTE
100
AcDbLine
 62
7
  6
CONTINUOUS
 10
56.2241780372
 20
215.0352307345
 11
57.9284224153
 21
216.4358734492
  0
LINE
  5
305
100
AcDbEntity
  8
KONSTRUKTIONSELEMENTE
100
AcDbLine
 62
7
  6
CONTINUOUS
 10
44.1049283694
 20
242.6344869182
 11
43.0062688636
 21
242.278264957
  0
LINE
  5
306
100
AcDbEntity
  8
0
100
AcDbLine
 62
7
  6
CONTINUOUS
 10
128.014833334
 20
361.7424322002
 11
128.014833334
 21
368.3929937876
  0
LINE
  5
307
100
AcDbEntity
  8
0
100
AcDbLine
 62
7
  6
CONTINUOUS
 10
129.7532330783
 20
364.2447085774
 11
129.7532330783
 21
367.0892123894
  0
LINE
  5
308
100
AcDbEntity
  8
0
100
AcDbLine
 62
7
  6
CONTINUOUS
 10
98.442833334
 20
212.0733284919
 11
101.514833334
 21
217.3941885727
  0
LINE
  5
309
100
AcDbEntity
  8
KONSTRUKTIONSELEMENTE
100
AcDbLine
 62
7
  6
CONTINUOUS
 10
65.3376078025
 20
209.5137065773
 11
62.1863063968
 21
206.2192282984
  0
LINE
  5
30A
100
AcDbEntity
  8
KONSTRUKTIONSELEMENTE
100
AcDbLine
 62
7
  6
CONTINUOUS
 10
62.8106631572
 20
205.6220058644
 11
65.9619645629
 21
208.9164841433
  0
LINE
  5
30B
100
AcDbEntity
  8
KONSTRUKTIONSELEMENTE
100
AcDbLine
 62
7
  6
CONTINUOUS
 10
59.5324956468
 20
213.0943846172
 11
59.1916465165
 21
212.8142558649
  0
LINE
  5
30C
100
AcDbEntity
  8
KONSTRUKTIONSELEMENTE
100
AcDbLine
 62
7
  6
CONTINUOUS
 10
59.6266152721
 20
212.0533840317
 11
60.081080673
 21
212.4268889475
  0
LINE
  5
30D
100
AcDbEntity
  8
KONSTRUKTIONSELEMENTE
100
AcDbLine
 62
7
  6
CONTINUOUS
 10
53.176637758
 20
226.9946788723
 11
52.4589693998
 21
226.6041974581
  0
LINE
  5
30E
100
AcDbEntity
  8
KONSTRUKTIONSELEMENTE
100
AcDbLine
 62
7
  6
CONTINUOUS
 10
53.6824776851
 20
224.355503537
 11
47.6540626718
 21
221.07545922
  0
LINE
  5
30F
100
AcDbEntity
  8
KONSTRUKTIONSELEMENTE
100
AcDbLine
 62
7
  6
CONTINUOUS
 10
48.1128783882
 20
220.2321987986
 11
54.1412934015
 21
223.5122431156
  0
LINE
  5
310
100
AcDbEntity
  8
KONSTRUKTIONSELEMENTE
100
AcDbLine
 62
7
  6
CONTINUOUS
 10
55.3648016869
 20
221.2635491945
 11
56.0824700451
 21
221.6540306088
  0
LINE
  5
311
100
AcDbEntity
  8
KONSTRUKTIONSELEMENTE
100
AcDbLine
 62
7
  6
CONTINUOUS
 10
50.6010453963
 20
233.5532932056
 11
49.8373831856
 21
233.2628734487
  0
LINE
  5
312
100
AcDbEntity
  8
0
100
AcDbLine
 62
7
  6
CONTINUOUS
 10
138.324835951
 20
371.5662768174
 11
138.324835951
 21
364.9042859293
  0
LINE
  5
313
100
AcDbEntity
  8
KONSTRUKTIONSELEMENTE
100
AcDbLine
 62
7
  6
CONTINUOUS
 10
95.7788432053
 20
193.8961166682
 11
95.5771065562
 21
193.4781591049
  0
LINE
  5
314
100
AcDbEntity
  8
KONSTRUKTIONSELEMENTE
100
AcDbLine
 62
7
  6
CONTINUOUS
 10
96.413661298
 20
193.216816554
 11
96.615397947
 21
193.6347741173
  0
LINE
  5
315
100
AcDbEntity
  8
KONSTRUKTIONSELEMENTE
100
AcDbLine
 62
7
  6
CONTINUOUS
 10
95.3656310186
 20
190.8355446185
 11
95.1638943696
 21
190.4175870552
  0
LINE
  5
316
100
AcDbEntity
  8
KONSTRUKTIONSELEMENTE
100
AcDbLine
 62
7
  6
CONTINUOUS
 10
96.0004490975
 20
190.1562444022
 11
96.2021857604
 21
190.5742020676
  0
LINE
  5
317
100
AcDbEntity
  8
KONSTRUKTIONSELEMENTE
100
AcDbLine
 62
7
  6
CONTINUOUS
 10
85.2911493288
 20
193.4030331595
 11
87.5569182345
 21
196.9119578905
  0
LINE
  5
318
100
AcDbEntity
  8
KONSTRUKTIONSELEMENTE
100
AcDbLine
 62
7
  6
CONTINUOUS
 10
83.9948854577
 20
191.3114291884
 11
85.001894905
 21
192.8709509445
  0
LINE
  5
319
100
AcDbEntity
  8
KONSTRUKTIONSELEMENTE
100
AcDbLine
 62
7
  6
CONTINUOUS
 10
87.1499834725
 20
197.6276546183
 11
83.1594533355
 21
191.5317679487
  0
LINE
  5
31A
100
AcDbEntity
  8
KONSTRUKTIONSELEMENTE
100
AcDbLine
 62
7
  6
CONTINUOUS
 10
79.0884428053
 20
193.0434536502
 11
83.8225866177
 21
198.5816886962
  0
LINE
  5
31B
100
AcDbEntity
  8
KONSTRUKTIONSELEMENTE
100
AcDbLine
 62
7
  6
CONTINUOUS
 10
83.0220047738
 20
198.9065959309
 11
78.8865407117
 21
194.0776743846
  0
LINE
  5
31C
100
AcDbEntity
  8
BEZUGSACHSEN
100
AcDbLine
 62
7
  6
CONTINUOUS
 10
199.014833334
 20
322.6421885727
 11
197.014833334
 21
320.6421885727
  0
LINE
  5
31D
100
AcDbEntity
  8
KONSTRUKTIONSELEMENTE
100
AcDbLine
 62
7
  6
CONTINUOUS
 10
68.1712406255
 20
200.5536626466
 11
68.7262986405
 21
201.0569921249
  0
LINE
  5
31E
100
AcDbEntity
  8
KONSTRUKTIONSELEMENTE
100
AcDbLine
 62
7
  6
CONTINUOUS
 10
68.0337261668
 20
201.5735570954
 11
67.5665940938
 21
201.1881122794
  0
LINE
  5
31F
100
AcDbEntity
  8
KONSTRUKTIONSELEMENTE
100
AcDbLine
 62
7
  6
CONTINUOUS
 10
62.1983291473
 20
205.1901757342
 11
62.8106631572
 21
205.6220058644
  0
LINE
  5
320
100
AcDbEntity
  8
KONSTRUKTIONSELEMENTE
100
AcDbLine
 62
7
  6
CONTINUOUS
 10
51.8848427159
 20
227.8790542214
 11
52.6485049266
 21
228.1694739783
  0
LINE
  5
321
100
AcDbEntity
  8
BEZUGSACHSEN
100
AcDbLine
 62
7
  6
CONTINUOUS
 10
146.514833334
 20
205.6421885727
 11
146.514833334
 21
235.6421885727
  0
LINE
  5
322
100
AcDbEntity
  8
BEZUGSACHSEN
100
AcDbLine
 62
7
  6
CONTINUOUS
 10
146.514833334
 20
315.6421885727
 11
146.514833334
 21
345.6421885727
  0
LINE
  5
323
100
AcDbEntity
  8
0
100
AcDbLine
 62
7
  6
CONTINUOUS
 10
138.8621366233
 20
250.0521281206
 11
126.9329082023
 21
234.7834120246
  0
LINE
  5
324
100
AcDbEntity
  8
KONSTRUKTIONSELEMENTE
100
AcDbLine
 62
7
  6
CONTINUOUS
 10
62.1863063968
 20
206.2192282984
 11
61.6756272571
 21
205.8936716468
  0
LINE
  5
325
100
AcDbEntity
  8
BEZUGSACHSEN
100
AcDbLine
 62
7
  6
CONTINUOUS
 10
199.014833334
 20
228.6421885727
 11
197.014833334
 21
230.6421885727
  0
LINE
  5
326
100
AcDbEntity
  8
KONSTRUKTIONSELEMENTE
100
AcDbLine
 62
7
  6
CONTINUOUS
 10
113.2843070009
 20
328.3997495868
 11
113.1897832333
 21
328.5251868632
  0
LINE
  5
327
100
AcDbEntity
  8
KONSTRUKTIONSELEMENTE
100
AcDbLine
 62
7
  6
CONTINUOUS
 10
113.4521040343
 20
328.4592006772
 11
113.3253813433
 21
328.6273673681
  0
LINE
  5
328
100
AcDbEntity
  8
KONSTRUKTIONSELEMENTE
100
AcDbLine
 62
7
  6
CONTINUOUS
 10
113.8454794455
 20
328.5014244487
 11
113.5965775751
 21
328.831728387
  0
LINE
  5
329
100
AcDbEntity
  8
KONSTRUKTIONSELEMENTE
100
AcDbLine
 62
7
  6
CONTINUOUS
 10
114.4422847866
 20
328.8379381097
 11
114.1389700149
 21
329.2404504068
  0
LINE
  5
32A
100
AcDbEntity
  8
KONSTRUKTIONSELEMENTE
100
AcDbLine
 62
7
  6
CONTINUOUS
 10
114.984677274
 20
329.2466601653
 11
114.6813625023
 21
329.6491724624
  0
LINE
  5
32B
100
AcDbEntity
  8
KONSTRUKTIONSELEMENTE
100
AcDbLine
 62
7
  6
CONTINUOUS
 10
115.6626677644
 20
329.7575626453
 11
115.3593529928
 21
330.1600749424
  0
LINE
  5
32C
100
AcDbEntity
  8
0
100
AcDbLine
 62
7
  6
CONTINUOUS
 10
153.514833334
 20
313.3216804971
 11
153.514833334
 21
292.6066492951
  0
LINE
  5
32D
100
AcDbEntity
  8
BEZUGSACHSEN
100
AcDbLine
 62
7
  6
CONTINUOUS
 10
155.4154822654
 20
347.9626966484
 11
155.4154720213
 21
372.8964935198
  0
LINE
  5
32E
100
AcDbEntity
  8
0
100
AcDbLine
 62
7
  6
CONTINUOUS
 10
133.1607256222
 20
227.3407603481
 11
129.6728542536
 21
223.2258196054
  0
LINE
  5
32F
100
AcDbEntity
  8
KONSTRUKTIONSELEMENTE
100
AcDbLine
 62
7
  6
CONTINUOUS
 10
95.9068384644
 20
192.6916510054
 11
96.413661298
 21
193.216816554
  0
LINE
  5
330
100
AcDbEntity
  8
KONSTRUKTIONSELEMENTE
100
AcDbLine
 62
7
  6
CONTINUOUS
 10
67.5886788647
 20
200.2543125667
 11
68.1712406255
 21
200.5536626466
  0
LINE
  5
331
100
AcDbEntity
  8
KONSTRUKTIONSELEMENTE
100
AcDbLine
 62
7
  6
CONTINUOUS
 10
59.1916465165
 20
212.8142558649
 11
58.7593669541
 21
212.6453765465
  0
LINE
  5
332
100
AcDbEntity
  8
KONSTRUKTIONSELEMENTE
100
AcDbLine
 62
7
  6
CONTINUOUS
 10
59.1943357097
 20
211.8845047133
 11
59.6266152721
 21
212.0533840317
  0
LINE
  5
333
100
AcDbEntity
  8
BEZUGSACHSEN
100
AcDbLine
 62
7
  6
CONTINUOUS
 10
158.514833334
 20
313.3216804971
 11
147.8545792962
 21
313.3216804971
  0
LINE
  5
334
100
AcDbEntity
  8
BEZUGSACHSEN
100
AcDbLine
 62
7
  6
CONTINUOUS
 10
158.8845867875
 20
316.6421885727
 11
158.514833334
 21
316.6421885727
  0
LINE
  5
335
100
AcDbEntity
  8
KONSTRUKTIONSELEMENTE
100
AcDbLine
 62
7
  6
CONTINUOUS
 10
117.6748017986
 20
331.3192497386
 11
117.3933246541
 21
331.6927825256
  0
LINE
  5
336
100
AcDbEntity
  8
KONSTRUKTIONSELEMENTE
100
AcDbLine
 62
7
  6
CONTINUOUS
 10
118.3255741927
 20
331.8662726428
 11
118.0713155245
 21
332.2036852919
  0
LINE
  5
337
100
AcDbEntity
  8
KONSTRUKTIONSELEMENTE
100
AcDbLine
 62
7
  6
CONTINUOUS
 10
118.8383382424
 20
332.3143127655
 11
118.6137079168
 21
332.6124072759
  0
LINE
  5
338
100
AcDbEntity
  8
KONSTRUKTIONSELEMENTE
100
AcDbLine
 62
7
  6
CONTINUOUS
 10
119.3440936943
 20
332.7716536118
 11
119.1561003092
 21
333.0211292599
  0
LINE
  5
339
100
AcDbEntity
  8
KONSTRUKTIONSELEMENTE
100
AcDbLine
 62
7
  6
CONTINUOUS
 10
119.5943333796
 20
333.003824833
 11
119.4272965054
 21
333.2254902519
  0
LINE
  5
33A
100
AcDbEntity
  8
KONSTRUKTIONSELEMENTE
100
AcDbLine
 62
7
  6
CONTINUOUS
 10
119.7187917538
 20
333.1207882419
 11
119.5628946035
 21
333.3276707479
  0
LINE
  5
33B
100
AcDbEntity
  8
KONSTRUKTIONSELEMENTE
100
AcDbLine
 62
7
  6
CONTINUOUS
 10
158.514833334
 20
203.3216804971
 11
158.514833334
 21
237.9626966484
  0
LINE
  5
33C
100
AcDbEntity
  8
KONSTRUKTIONSELEMENTE
100
AcDbLine
 62
7
  6
CONTINUOUS
 10
158.514833334
 20
313.3216804971
 11
158.514833334
 21
347.9626966484
  0
LINE
  5
33D
100
AcDbEntity
  8
BEZUGSACHSEN
100
AcDbLine
 62
7
  6
CONTINUOUS
 10
159.014833334
 20
342.8832007348
 11
159.014833334
 21
318.4011764107
  0
LINE
  5
33E
100
AcDbEntity
  8
BEZUGSACHSEN
100
AcDbLine
 62
7
  6
CONTINUOUS
 10
159.014833334
 20
232.8832007348
 11
159.014833334
 21
208.4011764107
  0
LINE
  5
33F
100
AcDbEntity
  8
0
100
AcDbLine
 62
7
  6
CONTINUOUS
 10
159.1072147514
 20
201.0779745164
 11
159.1072147514
 21
349.3102386455
  0
LINE
  5
340
100
AcDbEntity
  8
BEZUGSACHSEN
100
AcDbLine
 62
7
  6
CONTINUOUS
 10
147.8545792962
 20
237.9626966484
 11
146.514833334
 21
235.6421885727
  0
LINE
  5
341
100
AcDbEntity
  8
KONSTRUKTIONSELEMENTE
100
AcDbLine
 62
7
  6
CONTINUOUS
 10
95.4936262571
 20
189.6310788026
 11
96.0004490975
 21
190.1562444022
  0
LINE
  5
342
100
AcDbEntity
  8
KONSTRUKTIONSELEMENTE
100
AcDbLine
 62
7
  6
CONTINUOUS
 10
95.5771065562
 20
193.4781591049
 11
95.2523436023
 21
193.2252096032
  0
LINE
  5
343
100
AcDbEntity
  8
KONSTRUKTIONSELEMENTE
100
AcDbLine
 62
7
  6
CONTINUOUS
 10
61.5835908733
 20
204.9641557008
 11
62.1983291473
 21
205.1901757342
  0
LINE
  5
344
100
AcDbEntity
  8
KONSTRUKTIONSELEMENTE
100
AcDbLine
 62
7
  6
CONTINUOUS
 10
67.5665940938
 20
201.1881122794
 11
67.0719583364
 21
201.0066469444
  0
LINE
  5
345
100
AcDbEntity
  8
BEZUGSACHSEN
100
AcDbLine
 62
7
  6
CONTINUOUS
 10
197.014833334
 20
320.6421885727
 11
170.514833334
 21
320.6421885727
  0
LINE
  5
346
100
AcDbEntity
  8
BEZUGSACHSEN
100
AcDbLine
 62
7
  6
CONTINUOUS
 10
158.514833334
 20
321.9819345349
 11
147.8545792962
 21
321.9819345349
  0
LINE
  5
347
100
AcDbEntity
  8
0
100
AcDbLine
 62
2
  6
CONTINUOUS
 10
170.514833334
 20
322.1756885727
 11
199.014833334
 21
322.1756885727
  0
LINE
  5
348
100
AcDbEntity
  8
0
100
AcDbLine
 62
7
  6
CONTINUOUS
 10
144.554833334
 20
325.720063057
 11
140.514833334
 21
325.720063057
  0
LINE
  5
349
100
AcDbEntity
  8
BEZUGSACHSEN
100
AcDbLine
 62
7
  6
CONTINUOUS
 10
147.8545792962
 20
313.3216804971
 11
146.514833334
 21
315.6421885727
  0
LINE
  5
34A
100
AcDbEntity
  8
KONSTRUKTIONSELEMENTE
100
AcDbLine
 62
7
  6
CONTINUOUS
 10
170.514833334
 20
174.6258769064
 11
170.514833334
 21
375.6421885727
  0
LINE
  5
34B
100
AcDbEntity
  8
KONSTRUKTIONSELEMENTE
100
AcDbLine
 62
7
  6
CONTINUOUS
 10
95.1638943696
 20
190.4175870552
 11
94.8391314018
 21
190.1646374514
  0
LINE
  5
34C
100
AcDbEntity
  8
BEZUGSACHSEN
100
AcDbLine
 62
2
  6
CENTER
 10
156.014833334
 20
330.6421885727
 11
202.014833334
 21
330.6421885727
  0
LINE
  5
34D
100
AcDbEntity
  8
KONSTRUKTIONSELEMENTE
100
AcDbLine
 62
7
  6
CONTINUOUS
 10
94.8637738473
 20
189.2709217183
 11
95.4936262571
 21
189.6310788026
  0
LINE
  5
34E
100
AcDbEntity
  8
KONSTRUKTIONSELEMENTE
100
AcDbLine
 62
7
  6
CONTINUOUS
 10
95.60175228
 20
192.5844430201
 11
95.9068384644
 21
192.6916510054
  0
LINE
  5
34F
100
AcDbEntity
  8
0
100
AcDbLine
 62
2
  6
CONTINUOUS
 10
170.514833334
 20
339.1086885727
 11
199.014833334
 21
339.1086885727
  0
LINE
  5
350
100
AcDbEntity
  8
BEZUGSACHSEN
100
AcDbLine
 62
7
  6
CONTINUOUS
 10
158.514833334
 20
339.3024426106
 11
147.8545792962
 21
339.3024426106
  0
LINE
  5
351
100
AcDbEntity
  8
BEZUGSACHSEN
100
AcDbLine
 62
7
  6
CONTINUOUS
 10
197.014833334
 20
340.6421885727
 11
170.514833334
 21
340.6421885727
  0
LINE
  5
352
100
AcDbEntity
  8
BEZUGSACHSEN
100
AcDbLine
 62
7
  6
CONTINUOUS
 10
158.8845867875
 20
344.6421885727
 11
158.514833334
 21
344.6421885727
  0
LINE
  5
353
100
AcDbEntity
  8
BEZUGSACHSEN
100
AcDbLine
 62
7
  6
CONTINUOUS
 10
158.514833334
 20
347.9626966484
 11
147.8545792962
 21
347.9626966484
  0
LINE
  5
354
100
AcDbEntity
  8
0
100
AcDbLine
 62
7
  6
CONTINUOUS
 10
141.6730491304
 20
358.1227404755
 11
149.3291913056
 21
347.9626966484
  0
LINE
  5
355
100
AcDbEntity
  8
BEZUGSACHSEN
100
AcDbLine
 62
7
  6
CONTINUOUS
 10
197.014833334
 20
340.6421885727
 11
197.014833334
 21
320.6421885727
  0
LINE
  5
356
100
AcDbEntity
  8
BEZUGSACHSEN
100
AcDbLine
 62
7
  6
CONTINUOUS
 10
197.014833334
 20
230.6421885727
 11
197.014833334
 21
210.6421885727
  0
LINE
  5
357
100
AcDbEntity
  8
0
100
AcDbLine
 62
7
  6
CONTINUOUS
 10
199.014833334
 20
339.1086885727
 11
199.014833334
 21
322.1756885727
  0
LINE
  5
358
100
AcDbEntity
  8
BEZUGSACHSEN
100
AcDbLine
 62
7
  6
CONTINUOUS
 10
199.014833334
 20
338.6421885727
 11
199.014833334
 21
322.6421885727
  0
LINE
  5
359
100
AcDbEntity
  8
0
100
AcDbLine
 62
7
  6
CONTINUOUS
 10
199.014833334
 20
229.1086885727
 11
199.014833334
 21
212.1756885727
  0
LINE
  5
35A
100
AcDbEntity
  8
BEZUGSACHSEN
100
AcDbLine
 62
7
  6
CONTINUOUS
 10
199.014833334
 20
228.6421885727
 11
199.014833334
 21
212.6421885727
  0
LINE
  5
35B
100
AcDbEntity
  8
0
100
AcDbLine
 62
7
  6
CONTINUOUS
 10
157.1022367062
 20
177.8223429723
 11
157.305311768
 21
178.0773419158
  0
LINE
  5
35C
100
AcDbEntity
  8
BEZUGSACHSEN
100
AcDbLine
 62
7
  6
CONTINUOUS
 10
199.014833334
 20
212.6421885727
 11
197.014833334
 21
210.6421885727
  0
LINE
  5
35D
100
AcDbEntity
  8
KONSTRUKTIONSELEMENTE
100
AcDbLine
 62
7
  6
CONTINUOUS
 10
160.1567391202
 20
375.6421885727
 11
170.514833334
 21
375.6421885727
  0
LINE
  5
35E
100
AcDbEntity
  8
BEZUGSACHSEN
100
AcDbLine
 62
7
  6
CONTINUOUS
 10
199.014833334
 20
338.6421885727
 11
197.014833334
 21
340.6421885727
  0
LINE
  5
35F
100
AcDbEntity
  8
0
100
AcDbLine
 62
7
  6
CONTINUOUS
 10
307.2731299929
 20
172.1405085555
 11
295.3771299929
 21
170.8901885727
  0
LINE
  5
360
100
AcDbEntity
  8
KONSTRUKTIONSELEMENTE
100
AcDbLine
 62
7
  6
CONTINUOUS
 10
295.3771299929
 20
170.8901885727
 11
283.4811299929
 21
172.1405085555
  0
LINE
  5
361
100
AcDbEntity
  8
0
100
AcDbLine
 62
7
  6
CONTINUOUS
 10
332.4601260696
 20
177.8223429723
 11
334.7812846481
 21
178.0773419158
  0
LINE
  5
362
100
AcDbEntity
  8
RUNDUNGEN
100
AcDbLine
 62
7
  6
CONTINUOUS
 10
258.2941339162
 20
177.8223429723
 11
255.9729753378
 21
178.0773419158
  0
LINE
  5
363
100
AcDbEntity
  8
0
100
AcDbLine
 62
7
  6
CONTINUOUS
 10
307.2731299929
 20
183.9373275707
 11
307.5097327793
 21
183.9632543537
  0
LINE
  5
364
100
AcDbEntity
  8
KONSTRUKTIONSELEMENTE
100
AcDbLine
 62
7
  6
CONTINUOUS
 10
283.4811299929
 20
183.9373275707
 11
283.2445272065
 21
183.9632543537
  0
LINE
  5
365
100
AcDbEntity
  8
BEZUGSACHSEN
100
AcDbLine
 62
7
  6
CONTINUOUS
 10
252.8771299929
 20
347.9626966484
 11
237.8771299929
 21
339.3024426106
  0
LINE
  5
366
100
AcDbEntity
  8
BEZUGSACHSEN
100
AcDbLine
 62
7
  6
CONTINUOUS
 10
237.8771299929
 20
211.9819345349
 11
252.8771299929
 21
203.3216804971
  0
LINE
  5
367
100
AcDbEntity
  8
0
100
AcDbLine
 62
7
  6
CONTINUOUS
 10
307.7271299929
 20
205.4901885727
 11
307.2731299929
 21
205.4901885727
  0
LINE
  5
368
100
AcDbEntity
  8
KONSTRUKTIONSELEMENTE
100
AcDbLine
 62
7
  6
CONTINUOUS
 10
283.4811299929
 20
205.4901885727
 11
283.0271299929
 21
205.4901885727
  0
LINE
  5
369
100
AcDbEntity
  8
RUNDUNGEN
100
AcDbLine
 62
7
  6
CONTINUOUS
 10
235.3771299929
 20
201.0779745164
 11
235.3771299929
 21
349.3102386455
  0
LINE
  5
36A
100
AcDbEntity
  8
BEZUGSACHSEN
100
AcDbLine
 62
7
  6
CONTINUOUS
 10
236.433054426
 20
342.8832007348
 11
236.433054426
 21
318.4011764107
  0
LINE
  5
36B
100
AcDbEntity
  8
BEZUGSACHSEN
100
AcDbLine
 62
7
  6
CONTINUOUS
 10
236.433054426
 20
232.8832007348
 11
236.433054426
 21
208.4011764107
  0
LINE
  5
36C
100
AcDbEntity
  8
BEZUGSACHSEN
100
AcDbLine
 62
7
  6
CONTINUOUS
 10
237.8771299929
 20
339.3024426106
 11
237.8771299929
 21
321.9819345349
  0
LINE
  5
36D
100
AcDbEntity
  8
BEZUGSACHSEN
100
AcDbLine
 62
7
  6
CONTINUOUS
 10
237.8771299929
 20
229.3024426106
 11
237.8771299929
 21
211.9819345349
  0
LINE
  5
36E
100
AcDbEntity
  8
BEZUGSACHSEN
100
AcDbLine
 62
7
  6
CONTINUOUS
 10
252.8771299929
 20
313.3216804971
 11
267.8771299929
 21
321.9819345349
  0
LINE
  5
36F
100
AcDbEntity
  8
KONSTRUKTIONSELEMENTE
100
AcDbLine
 62
7
  6
CONTINUOUS
 10
289.5483801515
 20
330.8753385576
 11
290.2133799929
 21
331.0796995496
  0
LINE
  5
370
100
AcDbEntity
  8
KONSTRUKTIONSELEMENTE
100
AcDbLine
 62
7
  6
CONTINUOUS
 10
290.2133799929
 20
331.0796995496
 11
290.7121299929
 21
331.4884215336
  0
LINE
  5
371
100
AcDbEntity
  8
KONSTRUKTIONSELEMENTE
100
AcDbLine
 62
7
  6
CONTINUOUS
 10
289.7146299929
 20
331.5906020296
 11
289.3821298344
 21
331.3862410376
  0
LINE
  5
372
100
AcDbEntity
  8
KONSTRUKTIONSELEMENTE
100
AcDbLine
 62
7
  6
CONTINUOUS
 10
296.86338031
 20
329.4448114704
 11
296.36463031
 21
329.2404504068
  0
LINE
  5
373
100
AcDbEntity
  8
KONSTRUKTIONSELEMENTE
100
AcDbLine
 62
7
  6
CONTINUOUS
 10
304.8433793587
 20
329.4448114704
 11
304.3446293587
 21
329.2404504068
  0
LINE
  5
374
100
AcDbEntity
  8
KONSTRUKTIONSELEMENTE
100
AcDbLine
 62
7
  6
CONTINUOUS
 10
296.5308796758
 20
328.6273673681
 11
297.1958799929
 21
328.831728387
  0
LINE
  5
375
100
AcDbEntity
  8
KONSTRUKTIONSELEMENTE
100
AcDbLine
 62
7
  6
CONTINUOUS
 10
296.5308796758
 20
328.2248550711
 11
297.1958799929
 21
328.4292160899
  0
LINE
  5
376
100
AcDbEntity
  8
KONSTRUKTIONSELEMENTE
100
AcDbLine
 62
7
  6
CONTINUOUS
 10
304.5108806271
 20
328.6273673681
 11
305.1758799929
 21
328.831728387
  0
LINE
  5
377
100
AcDbEntity
  8
KONSTRUKTIONSELEMENTE
100
AcDbLine
 62
7
  6
CONTINUOUS
 10
304.5108806271
 20
328.2248550711
 11
305.1758799929
 21
328.4292160899
  0
LINE
  5
378
100
AcDbEntity
  8
AUSFORMSCHRAEGEN
100
AcDbLine
 62
8
  6
HIDDEN
 10
295.3771299929
 20
222.3861885727
 11
287.3298840509
 21
221.6821457802
  0
LINE
  5
379
100
AcDbEntity
  8
BEZUGSACHSEN
100
AcDbLine
 62
2
  6
CENTER
 10
337.8771299929
 20
220.6421885727
 11
317.3771299929
 21
220.6421885727
  0
LINE
  5
37A
100
AcDbEntity
  8
BEZUGSACHSEN
100
AcDbLine
 62
2
  6
CENTER
 10
252.8771299929
 20
220.6421885727
 11
232.3771299929
 21
220.6421885727
  0
LINE
  5
37B
100
AcDbEntity
  8
BEZUGSACHSEN
100
AcDbLine
 62
2
  6
CENTER
 10
252.8771299929
 20
220.6421885727
 11
273.3771299929
 21
220.6421885727
  0
LINE
  5
37C
100
AcDbEntity
  8
BEZUGSACHSEN
100
AcDbLine
 62
2
  6
CENTER
 10
337.8771299929
 20
220.6421885727
 11
358.3771299929
 21
220.6421885727
  0
LINE
  5
37D
100
AcDbEntity
  8
DEFAULT_2
100
AcDbLine
 62
8
  6
HIDDEN
 10
303.4243759349
 20
221.6821457802
 11
295.3771299929
 21
222.3861885727
  0
LINE
  5
37E
100
AcDbEntity
  8
BEZUGSACHSEN
100
AcDbLine
 62
7
  6
CONTINUOUS
 10
267.8771299929
 20
229.3024426106
 11
252.8771299929
 21
237.9626966484
  0
LINE
  5
37F
100
AcDbEntity
  8
BEZUGSACHSEN
100
AcDbLine
 62
2
  6
CENTER
 10
252.8771299929
 20
330.6421885727
 11
252.8771299929
 21
310.1421885727
  0
LINE
  5
380
100
AcDbEntity
  8
BEZUGSACHSEN
100
AcDbLine
 62
2
  6
CENTER
 10
252.8771299929
 20
220.6421885727
 11
252.8771299929
 21
200.1421885727
  0
LINE
  5
381
100
AcDbEntity
  8
BEZUGSACHSEN
100
AcDbLine
 62
2
  6
CENTER
 10
252.8771299929
 20
220.6421885727
 11
252.8771299929
 21
241.1421885727
  0
LINE
  5
382
100
AcDbEntity
  8
BEZUGSACHSEN
100
AcDbLine
 62
2
  6
CENTER
 10
252.8771299929
 20
330.6421885727
 11
252.8771299929
 21
351.1421885727
  0
LINE
  5
383
100
AcDbEntity
  8
KONSTRUKTIONSELEMENTE
100
AcDbLine
 62
7
  6
CONTINUOUS
 10
297.1958799929
 20
329.7513529584
 11
296.86338031
 21
329.4448114704
  0
LINE
  5
384
100
AcDbEntity
  8
KONSTRUKTIONSELEMENTE
100
AcDbLine
 62
7
  6
CONTINUOUS
 10
297.1958799929
 20
328.831728387
 11
297.86088031
 21
329.2404504068
  0
LINE
  5
385
100
AcDbEntity
  8
KONSTRUKTIONSELEMENTE
100
AcDbLine
 62
7
  6
CONTINUOUS
 10
297.1958799929
 20
328.4292160899
 11
297.86088031
 21
328.8379381097
  0
LINE
  5
386
100
AcDbEntity
  8
KONSTRUKTIONSELEMENTE
100
AcDbLine
 62
7
  6
CONTINUOUS
 10
305.1758799929
 20
328.831728387
 11
305.8408793587
 21
329.2404504068
  0
LINE
  5
387
100
AcDbEntity
  8
KONSTRUKTIONSELEMENTE
100
AcDbLine
 62
7
  6
CONTINUOUS
 10
305.1758799929
 20
328.4292160899
 11
305.8408793587
 21
328.8379381097
  0
LINE
  5
388
100
AcDbEntity
  8
BEZUGSACHSEN
100
AcDbLine
 62
7
  6
CONTINUOUS
 10
337.8771299929
 20
347.9626966484
 11
322.8771299929
 21
339.3024426106
  0
LINE
  5
389
100
AcDbEntity
  8
0
100
AcDbLine
 62
7
  6
CONTINUOUS
 10
310.7271299929
 20
227.3407603481
 11
310.4415555889
 21
227.3407603481
  0
LINE
  5
38A
100
AcDbEntity
  8
KONSTRUKTIONSELEMENTE
100
AcDbLine
 62
7
  6
CONTINUOUS
 10
280.0271299929
 20
227.3407603481
 11
280.3128203362
 21
227.3407603481
  0
LINE
  5
38B
100
AcDbEntity
  8
KONSTRUKTIONSELEMENTE
100
AcDbLine
 62
7
  6
CONTINUOUS
 10
280.7490106359
 20
234.6114152493
 11
279.3771299929
 21
234.6114152493
  0
LINE
  5
38C
100
AcDbEntity
  8
BEZUGSACHSEN
100
AcDbLine
 62
7
  6
CONTINUOUS
 10
322.8771299929
 20
211.9819345349
 11
337.8771299929
 21
203.3216804971
  0
LINE
  5
38D
100
AcDbEntity
  8
KONSTRUKTIONSELEMENTE
100
AcDbLine
 62
7
  6
CONTINUOUS
 10
289.8808798344
 20
331.8971435176
 11
289.7146299929
 21
331.5906020296
  0
LINE
  5
38E
100
AcDbEntity
  8
KONSTRUKTIONSELEMENTE
100
AcDbLine
 62
7
  6
CONTINUOUS
 10
290.7121299929
 20
331.4884215336
 11
290.8783798344
 21
331.7949630216
  0
LINE
  5
38F
100
AcDbEntity
  8
KONSTRUKTIONSELEMENTE
100
AcDbLine
 62
7
  6
CONTINUOUS
 10
283.1180047507
 20
309.8730573773
 11
279.7721765575
 21
305.1814192227
  0
LINE
  5
390
100
AcDbEntity
  8
KONSTRUKTIONSELEMENTE
100
AcDbLine
 62
7
  6
CONTINUOUS
 10
297.86088031
 20
329.2404504068
 11
298.1933799929
 21
329.6491724624
  0
LINE
  5
391
100
AcDbEntity
  8
KONSTRUKTIONSELEMENTE
100
AcDbLine
 62
7
  6
CONTINUOUS
 10
297.86088031
 20
328.8379381097
 11
298.1933799929
 21
329.2466601653
  0
LINE
  5
392
100
AcDbEntity
  8
KONSTRUKTIONSELEMENTE
100
AcDbLine
 62
7
  6
CONTINUOUS
 10
305.1758799929
 20
329.7513529584
 11
304.8433793587
 21
329.4448114704
  0
LINE
  5
393
100
AcDbEntity
  8
KONSTRUKTIONSELEMENTE
100
AcDbLine
 62
7
  6
CONTINUOUS
 10
280.7851299929
 20
237.3411054414
 11
279.3771299929
 21
237.3411054414
  0
LINE
  5
394
100
AcDbEntity
  8
KONSTRUKTIONSELEMENTE
100
AcDbLine
 62
7
  6
CONTINUOUS
 10
280.7851299929
 20
238.2867614675
 11
279.3771299929
 21
238.2867614675
  0
LINE
  5
395
100
AcDbEntity
  8
BEZUGSACHSEN
100
AcDbLine
 62
7
  6
CONTINUOUS
 10
265.2511029849
 20
346.986452538
 11
265.2511299929
 21
372.8964935198
  0
LINE
  5
396
100
AcDbEntity
  8
BEZUGSACHSEN
100
AcDbLine
 62
7
  6
CONTINUOUS
 10
267.8771299929
 20
211.9819345349
 11
267.8771299929
 21
229.3024426106
  0
LINE
  5
397
100
AcDbEntity
  8
BEZUGSACHSEN
100
AcDbLine
 62
7
  6
CONTINUOUS
 10
267.8771299929
 20
321.9819345349
 11
267.8771299929
 21
339.3024426106
  0
LINE
  5
398
100
AcDbEntity
  8
AUSFORMSCHRAEGEN
100
AcDbLine
 62
7
  6
CONTINUOUS
 10
277.6019712823
 20
358.1227404755
 11
276.3771299929
 21
346.9418433348
  0
LINE
  5
399
100
AcDbEntity
  8
BEZUGSACHSEN
100
AcDbLine
 62
7
  6
CONTINUOUS
 10
277.9989518528
 20
327.3507761925
 11
277.9833663757
 21
327.2128024475
  0
LINE
  5
39A
100
AcDbEntity
  8
KONSTRUKTIONSELEMENTE
100
AcDbLine
 62
7
  6
CONTINUOUS
 10
305.8408793587
 20
329.2404504068
 11
306.1733799929
 21
329.6491724624
  0
LINE
  5
39B
100
AcDbEntity
  8
KONSTRUKTIONSELEMENTE
100
AcDbLine
 62
7
  6
CONTINUOUS
 10
305.8408793587
 20
328.8379381097
 11
306.1733799929
 21
329.2466601653
  0
LINE
  5
39C
100
AcDbEntity
  8
KONSTRUKTIONSELEMENTE
100
AcDbLine
 62
7
  6
CONTINUOUS
 10
280.7851299929
 20
245.5490685727
 11
279.3771299929
 21
245.5490685727
  0
LINE
  5
39D
100
AcDbEntity
  8
KONSTRUKTIONSELEMENTE
100
AcDbLine
 62
7
  6
CONTINUOUS
 10
276.057710938
 20
310.6293337422
 11
275.347118191
 21
328.919892379
  0
LINE
  5
39E
100
AcDbEntity
  8
BEZUGSACHSEN
100
AcDbLine
 62
7
  6
CONTINUOUS
 10
277.9829213775
 20
315.0983405205
 11
277.9833663757
 21
315.0802115808
  0
LINE
  5
39F
100
AcDbEntity
  8
KONSTRUKTIONSELEMENTE
100
AcDbLine
 62
7
  6
CONTINUOUS
 10
275.5071299929
 20
361.2550312345
 11
275.5071299929
 21
371.5662768174
  0
LINE
  5
3A0
100
AcDbEntity
  8
AUSFORMSCHRAEGEN
100
AcDbLine
 62
7
  6
CONTINUOUS
 10
276.9895506376
 20
329.05209503
 11
276.9895506376
 21
330.2651360485
  0
LINE
  5
3A1
100
AcDbEntity
  8
KONSTRUKTIONSELEMENTE
100
AcDbLine
 62
7
  6
CONTINUOUS
 10
277.3771299929
 20
285.1518025802
 11
277.3771299929
 21
296.0891837448
  0
LINE
  5
3A2
100
AcDbEntity
  8
KONSTRUKTIONSELEMENTE
100
AcDbLine
 62
7
  6
CONTINUOUS
 10
278.4811299929
 20
301.4295565898
 11
278.4811299929
 21
293.3095531621
  0
LINE
  5
3A3
100
AcDbEntity
  8
KONSTRUKTIONSELEMENTE
100
AcDbLine
 62
7
  6
CONTINUOUS
 10
279.3771299929
 20
234.6114152493
 11
279.3771299929
 21
245.5490685727
  0
LINE
  5
3A4
100
AcDbEntity
  8
KONSTRUKTIONSELEMENTE
100
AcDbLine
 62
7
  6
CONTINUOUS
 10
280.0271299929
 20
228.9607694717
 11
280.0271299929
 21
223.6380208227
  0
LINE
  5
3A5
100
AcDbEntity
  8
KONSTRUKTIONSELEMENTE
100
AcDbLine
 62
8
  6
HIDDEN
 10
280.0271299929
 20
223.6380208227
 11
280.0271299929
 21
223.4651608338
  0
LINE
  5
3A6
100
AcDbEntity
  8
KONSTRUKTIONSELEMENTE
100
AcDbLine
 62
7
  6
CONTINUOUS
 10
280.0271299929
 20
173.8943952073
 11
280.0271299929
 21
223.4651608338
  0
LINE
  5
3A7
100
AcDbEntity
  8
KONSTRUKTIONSELEMENTE
100
AcDbLine
 62
7
  6
CONTINUOUS
 10
280.8235353696
 20
306.7943501456
 11
280.8051879925
 21
306.6299442463
  0
LINE
  5
3A8
100
AcDbEntity
  8
BEZUGSACHSEN
100
AcDbLine
 62
7
  6
CONTINUOUS
 10
280.6930331201
 20
315.3564715062
 11
280.7025474655
 21
315.4280835863
  0
LINE
  5
3A9
100
AcDbEntity
  8
KONSTRUKTIONSELEMENTE
100
AcDbLine
 62
7
  6
CONTINUOUS
 10
297.36213031
 20
330.1600749424
 11
297.1958799929
 21
329.7513529584
  0
LINE
  5
3AA
100
AcDbEntity
  8
BEZUGSACHSEN
100
AcDbLine
 62
7
  6
CONTINUOUS
 10
280.7440792293
 20
317.9028240628
 11
280.7343368334
 21
318.0027265282
  0
LINE
  5
3AB
100
AcDbEntity
  8
BEZUGSACHSEN
100
AcDbLine
 62
7
  6
CONTINUOUS
 10
280.7851299929
 20
250.8191944949
 11
280.7851299929
 21
234.6612266774
  0
LINE
  5
3AC
100
AcDbEntity
  8
KONSTRUKTIONSELEMENTE
100
AcDbLine
 62
7
  6
CONTINUOUS
 10
283.4811299929
 20
172.1407500342
 11
283.4811299929
 21
270.3402327393
  0
LINE
  5
3AD
100
AcDbEntity
  8
KONSTRUKTIONSELEMENTE
100
AcDbLine
 62
7
  6
CONTINUOUS
 10
284.7271299929
 20
328.1226745661
 11
284.7271299929
 21
333.3276707479
  0
LINE
  5
3AE
100
AcDbEntity
  8
KONSTRUKTIONSELEMENTE
100
AcDbLine
 62
7
  6
CONTINUOUS
 10
285.3771299929
 20
334.7996015827
 11
285.3771299929
 21
355.418942792
  0
LINE
  5
3AF
100
AcDbEntity
  8
KONSTRUKTIONSELEMENTE
100
AcDbLine
 62
7
  6
CONTINUOUS
 10
285.7246299929
 20
328.1226745661
 11
285.7246299929
 21
330.6709775655
  0
LINE
  5
3B0
100
AcDbEntity
  8
KONSTRUKTIONSELEMENTE
100
AcDbLine
 62
7
  6
CONTINUOUS
 10
285.7246299929
 20
331.2840605416
 11
285.7246299929
 21
332.8167682679
  0
LINE
  5
3B1
100
AcDbEntity
  8
KONSTRUKTIONSELEMENTE
100
AcDbLine
 62
7
  6
CONTINUOUS
 10
286.3771299929
 20
352.4207675299
 11
286.3771299929
 21
334.7996015827
  0
LINE
  5
3B2
100
AcDbEntity
  8
KONSTRUKTIONSELEMENTE
100
AcDbLine
 62
7
  6
CONTINUOUS
 10
280.0271299929
 20
223.4651608338
 11
283.4740969514
 21
270.2447856263
  0
LINE
  5
3B3
100
AcDbEntity
  8
KONSTRUKTIONSELEMENTE
100
AcDbLine
 62
7
  6
CONTINUOUS
 10
283.4811299929
 20
270.3402327393
 11
284.3907463666
 21
282.6848572106
  0
LINE
  5
3B4
100
AcDbEntity
  8
KONSTRUKTIONSELEMENTE
100
AcDbLine
 62
7
  6
CONTINUOUS
 10
298.1933799929
 20
329.6491724624
 11
298.35963031
 21
330.1600749424
  0
LINE
  5
3B5
100
AcDbEntity
  8
KONSTRUKTIONSELEMENTE
100
AcDbLine
 62
7
  6
CONTINUOUS
 10
298.1933799929
 20
329.2466601653
 11
298.35963031
 21
329.7575626453
  0
LINE
  5
3B6
100
AcDbEntity
  8
KONSTRUKTIONSELEMENTE
100
AcDbLine
 62
7
  6
CONTINUOUS
 10
306.1733799929
 20
329.6491724624
 11
306.3396293587
 21
330.1600749424
  0
LINE
  5
3B7
100
AcDbEntity
  8
KONSTRUKTIONSELEMENTE
100
AcDbLine
 62
7
  6
CONTINUOUS
 10
306.1733799929
 20
329.2466601653
 11
306.3396293587
 21
329.7575626453
  0
LINE
  5
3B8
100
AcDbEntity
  8
KONSTRUKTIONSELEMENTE
100
AcDbLine
 62
7
  6
CONTINUOUS
 10
305.3421293587
 20
330.1600749424
 11
305.1758799929
 21
329.7513529584
  0
LINE
  5
3B9
100
AcDbEntity
  8
BEZUGSACHSEN
100
AcDbLine
 62
7
  6
CONTINUOUS
 10
337.8771299929
 20
313.3216804971
 11
352.8771299929
 21
321.9819345349
  0
LINE
  5
3BA
100
AcDbEntity
  8
BEZUGSACHSEN
100
AcDbLine
 62
7
  6
CONTINUOUS
 10
352.8771299929
 20
229.3024426106
 11
337.8771299929
 21
237.9626966484
  0
LWPOLYLINE
  5
3BB
100
AcDbEntity
  8
KONSTRUKTIONSELEMENTE
100
AcDbPolyline
 62
7
  6
CONTINUOUS
 90
3
 70
0
 10
282.3047736004
 20
278.5793806652
 10
282.3687819934
 20
278.4407279155
 10
282.4970318731
 20
278.1514164483
  0
LWPOLYLINE
  5
3BC
100
AcDbEntity
  8
KONSTRUKTIONSELEMENTE
100
AcDbPolyline
 62
7
  6
CONTINUOUS
 90
4
 70
0
 10
280.0990468176
 20
283.2993746815
 10
280.1239892842
 20
283.2442257399
 10
280.1484773429
 20
283.1907595063
 10
282.304773368
 20
278.5793814055
  0
LINE
  5
3BD
100
AcDbEntity
  8
KONSTRUKTIONSELEMENTE
100
AcDbLine
 62
7
  6
CONTINUOUS
 10
280.0511088629
 20
283.4071531853
 11
280.0990468176
 21
283.2993746815
  0
LINE
  5
3BE
100
AcDbEntity
  8
KONSTRUKTIONSELEMENTE
100
AcDbLine
 62
7
  6
CONTINUOUS
 10
280.0066825226
 20
283.5091058135
 11
280.0511088629
 21
283.4071531853
  0
LWPOLYLINE
  5
3BF
100
AcDbEntity
  8
KONSTRUKTIONSELEMENTE
100
AcDbPolyline
 62
7
  6
CONTINUOUS
 90
3
 70
0
 10
279.9436668056
 20
283.6551356414
 10
279.9711151822
 20
283.5919751058
 10
280.0066825226
 20
283.5091058135
  0
LINE
  5
3C0
100
AcDbEntity
  8
KONSTRUKTIONSELEMENTE
100
AcDbLine
 62
7
  6
CONTINUOUS
 10
282.4970318731
 20
278.1514164483
 11
282.6190663064
 21
277.8598957481
  0
LWPOLYLINE
  5
3C1
100
AcDbEntity
  8
KONSTRUKTIONSELEMENTE
100
AcDbPolyline
 62
7
  6
CONTINUOUS
 90
6
 70
0
 10
279.7730960781
 20
284.0509693645
 10
279.7988830987
 20
283.9886486632
 10
279.8249647112
 20
283.9266190858
 10
279.850866925
 20
283.8660329382
 10
279.8766679978
 20
283.8066416446
 10
279.9436668056
 20
283.6551356414
  0
LINE
  5
3C2
100
AcDbEntity
  8
KONSTRUKTIONSELEMENTE
100
AcDbLine
 62
7
  6
CONTINUOUS
 10
279.7235178477
 20
284.1730541968
 11
279.7730960781
 21
284.0509693645
  0
LINE
  5
3C3
100
AcDbEntity
  8
KONSTRUKTIONSELEMENTE
100
AcDbLine
 62
7
  6
CONTINUOUS
 10
279.6303243742
 20
284.4056895638
 11
279.7235178477
 21
284.1730541968
  0
LWPOLYLINE
  5
3C4
100
AcDbEntity
  8
KONSTRUKTIONSELEMENTE
100
AcDbPolyline
 62
7
  6
CONTINUOUS
 90
4
 70
0
 10
282.6190663064
 20
277.8598957481
 10
282.7347601643
 20
277.5662599807
 10
282.8439897252
 20
277.2706061124
 10
282.9008394285
 20
277.1084159209
  0
LINE
  5
3C5
100
AcDbEntity
  8
KONSTRUKTIONSELEMENTE
100
AcDbLine
 62
7
  6
CONTINUOUS
 10
279.5800603286
 20
284.5332720147
 11
279.6303243742
 21
284.4056895638
  0
LWPOLYLINE
  5
3C6
100
AcDbEntity
  8
KONSTRUKTIONSELEMENTE
100
AcDbPolyline
 62
7
  6
CONTINUOUS
 90
7
 70
0
 10
279.3934155246
 20
285.0341675557
 10
279.4200496449
 20
284.9595601575
 10
279.446935615
 20
284.8853459927
 10
279.4739171526
 20
284.8119771473
 10
279.5008209676
 20
284.7398980603
 10
279.527565593
 20
284.6692625062
 10
279.5800603286
 20
284.5332720147
  0
LINE
  5
3C7
100
AcDbEntity
  8
KONSTRUKTIONSELEMENTE
100
AcDbLine
 62
7
  6
CONTINUOUS
 10
282.9007961052
 20
277.1085423751
 11
282.9008395643
 21
277.1084159677
  0
LWPOLYLINE
  5
3C8
100
AcDbEntity
  8
KONSTRUKTIONSELEMENTE
100
AcDbPolyline
 62
7
  6
CONTINUOUS
 90
7
 70
0
 10
282.9007961052
 20
277.1085423751
 10
283.1374527397
 20
276.3363782969
 10
283.3584531176
 20
275.3705773914
 10
283.5080825446
 20
274.3788222843
 10
283.5881959964
 20
273.3716180087
 10
283.6024134998
 20
272.3601495527
 10
283.5576829359
 20
271.3791521476
  0
LINE
  5
3C9
100
AcDbEntity
  8
KONSTRUKTIONSELEMENTE
100
AcDbLine
 62
7
  6
CONTINUOUS
 10
288.5510059378
 20
330.268261944
 11
288.5508799136
 21
330.6709775655
  0
LINE
  5
3CA
100
AcDbEntity
  8
KONSTRUKTIONSELEMENTE
100
AcDbLine
 62
7
  6
CONTINUOUS
 10
288.8833798344
 20
332.5418181247
 11
288.8833798344
 21
332.8167682679
  0
LINE
  5
3CB
100
AcDbEntity
  8
KONSTRUKTIONSELEMENTE
100
AcDbLine
 62
7
  6
CONTINUOUS
 10
289.3821298344
 20
332.4277745088
 11
289.3821298344
 21
332.7145877719
  0
LINE
  5
3CC
100
AcDbEntity
  8
KONSTRUKTIONSELEMENTE
100
AcDbLine
 62
7
  6
CONTINUOUS
 10
289.7146299929
 20
332.2014322767
 11
289.7146299929
 21
332.5102267799
  0
LINE
  5
3CD
100
AcDbEntity
  8
KONSTRUKTIONSELEMENTE
100
AcDbLine
 62
7
  6
CONTINUOUS
 10
289.8808798344
 20
332.2036852919
 11
289.8808798344
 21
331.8971435176
  0
LINE
  5
3CE
100
AcDbEntity
  8
KONSTRUKTIONSELEMENTE
100
AcDbLine
 62
7
  6
CONTINUOUS
 10
289.8808798344
 20
328.1226745661
 11
289.8808798344
 21
328.5251868632
  0
LINE
  5
3CF
100
AcDbEntity
  8
KONSTRUKTIONSELEMENTE
100
AcDbLine
 62
7
  6
CONTINUOUS
 10
290.2133799929
 20
330.6818674779
 11
290.2133799929
 21
331.0796995496
  0
LINE
  5
3D0
100
AcDbEntity
  8
KONSTRUKTIONSELEMENTE
100
AcDbLine
 62
7
  6
CONTINUOUS
 10
290.7121299929
 20
331.1044832252
 11
290.7121299929
 21
331.4884215336
  0
LINE
  5
3D1
100
AcDbEntity
  8
KONSTRUKTIONSELEMENTE
100
AcDbLine
 62
7
  6
CONTINUOUS
 10
290.8783798344
 20
331.4274985601
 11
290.8783798344
 21
332.2036852919
  0
LINE
  5
3D2
100
AcDbEntity
  8
KONSTRUKTIONSELEMENTE
100
AcDbLine
 62
7
  6
CONTINUOUS
 10
291.0446301515
 20
328.1226745661
 11
291.0446301515
 21
328.5251868632
  0
LINE
  5
3D3
100
AcDbEntity
  8
KONSTRUKTIONSELEMENTE
100
AcDbLine
 62
7
  6
CONTINUOUS
 10
292.3746298344
 20
329.7575626453
 11
292.3746298344
 21
333.3276707479
  0
LINE
  5
3D4
100
AcDbEntity
  8
KONSTRUKTIONSELEMENTE
100
AcDbLine
 62
7
  6
CONTINUOUS
 10
292.5408801515
 20
329.2466601653
 11
292.5408801515
 21
329.6491724624
  0
LINE
  5
3D5
100
AcDbEntity
  8
KONSTRUKTIONSELEMENTE
100
AcDbLine
 62
7
  6
CONTINUOUS
 10
292.87338031
 20
328.8379381097
 11
292.87338031
 21
329.2404504068
  0
LINE
  5
3D6
100
AcDbEntity
  8
KONSTRUKTIONSELEMENTE
100
AcDbLine
 62
7
  6
CONTINUOUS
 10
293.37213031
 20
330.1600749424
 11
293.37213031
 21
333.3276707479
  0
LINE
  5
3D7
100
AcDbEntity
  8
KONSTRUKTIONSELEMENTE
100
AcDbLine
 62
7
  6
CONTINUOUS
 10
293.5383796758
 20
328.4292160899
 11
293.5383796758
 21
328.831728387
  0
LINE
  5
3D8
100
AcDbEntity
  8
KONSTRUKTIONSELEMENTE
100
AcDbLine
 62
7
  6
CONTINUOUS
 10
294.2033799929
 20
328.2248550711
 11
294.2033799929
 21
328.6273673681
  0
LINE
  5
3D9
100
AcDbEntity
  8
KONSTRUKTIONSELEMENTE
100
AcDbLine
 62
7
  6
CONTINUOUS
 10
295.0346296758
 20
328.1226745661
 11
295.0346296758
 21
328.5251868632
  0
LINE
  5
3DA
100
AcDbEntity
  8
BG_STARTBEZUEGE
100
AcDbLine
 62
2
  6
CENTER
 10
295.3771299929
 20
254.6421885727
 11
295.3771299929
 21
163.2550953545
  0
LINE
  5
3DB
100
AcDbEntity
  8
BG_STARTBEZUEGE
100
AcDbLine
 62
2
  6
CENTER
 10
295.3771299929
 20
254.6421885727
 11
295.3771299929
 21
388.5449437625
  0
LINE
  5
3DC
100
AcDbEntity
  8
KONSTRUKTIONSELEMENTE
100
AcDbLine
 62
7
  6
CONTINUOUS
 10
295.6996299929
 20
328.1226745661
 11
295.6996299929
 21
328.5251868632
  0
LINE
  5
3DD
100
AcDbEntity
  8
KONSTRUKTIONSELEMENTE
100
AcDbLine
 62
7
  6
CONTINUOUS
 10
279.9834662549
 20
294.2975378236
 11
282.8073157789
 21
289.4700085721
  0
LINE
  5
3DE
100
AcDbEntity
  8
KONSTRUKTIONSELEMENTE
100
AcDbLine
 62
7
  6
CONTINUOUS
 10
279.0567518979
 20
303.9527345042
 11
276.2734931879
 21
309.7862702655
  0
LINE
  5
3DF
100
AcDbEntity
  8
KONSTRUKTIONSELEMENTE
100
AcDbLine
 62
7
  6
CONTINUOUS
 10
278.2510717104
 20
314.7065459564
 11
280.7648652264
 21
306.9236655313
  0
LINE
  5
3E0
100
AcDbEntity
  8
BEZUGSACHSEN
100
AcDbLine
 62
7
  6
CONTINUOUS
 10
280.7440792293
 20
321.9470210183
 11
280.714759916
 21
322.1178790703
  0
LINE
  5
3E1
100
AcDbEntity
  8
KONSTRUKTIONSELEMENTE
100
AcDbLine
 62
7
  6
CONTINUOUS
 10
296.5308796758
 20
328.2248550711
 11
296.5308796758
 21
328.6273673681
  0
LINE
  5
3E2
100
AcDbEntity
  8
KONSTRUKTIONSELEMENTE
100
AcDbLine
 62
7
  6
CONTINUOUS
 10
297.1958799929
 20
328.4292160899
 11
297.1958799929
 21
328.831728387
  0
LINE
  5
3E3
100
AcDbEntity
  8
KONSTRUKTIONSELEMENTE
100
AcDbLine
 62
7
  6
CONTINUOUS
 10
297.36213031
 20
333.3276707479
 11
297.36213031
 21
330.1600749424
  0
LINE
  5
3E4
100
AcDbEntity
  8
KONSTRUKTIONSELEMENTE
100
AcDbLine
 62
7
  6
CONTINUOUS
 10
297.86088031
 20
328.8379381097
 11
297.86088031
 21
329.2404504068
  0
LINE
  5
3E5
100
AcDbEntity
  8
KONSTRUKTIONSELEMENTE
100
AcDbLine
 62
7
  6
CONTINUOUS
 10
298.1933799929
 20
329.2466601653
 11
298.1933799929
 21
329.6491724624
  0
LINE
  5
3E6
100
AcDbEntity
  8
KONSTRUKTIONSELEMENTE
100
AcDbLine
 62
7
  6
CONTINUOUS
 10
298.35963031
 20
329.7575626453
 11
298.35963031
 21
333.3276707479
  0
LINE
  5
3E7
100
AcDbEntity
  8
KONSTRUKTIONSELEMENTE
100
AcDbLine
 62
7
  6
CONTINUOUS
 10
299.6896299929
 20
328.1226745661
 11
299.6896299929
 21
333.3276707479
  0
LINE
  5
3E8
100
AcDbEntity
  8
KONSTRUKTIONSELEMENTE
100
AcDbLine
 62
7
  6
CONTINUOUS
 10
300.6871299929
 20
329.1382699108
 11
300.6871299929
 21
332.7145877719
  0
LINE
  5
3E9
100
AcDbEntity
  8
KONSTRUKTIONSELEMENTE
100
AcDbLine
 62
7
  6
CONTINUOUS
 10
303.6796299929
 20
328.1226745661
 11
303.6796299929
 21
328.5251868632
  0
LINE
  5
3EA
100
AcDbEntity
  8
KONSTRUKTIONSELEMENTE
100
AcDbLine
 62
7
  6
CONTINUOUS
 10
303.6796299929
 20
332.4277745088
 11
303.6796299929
 21
332.7145877719
  0
LINE
  5
3EB
100
AcDbEntity
  8
KONSTRUKTIONSELEMENTE
100
AcDbLine
 62
7
  6
CONTINUOUS
 10
304.3446293587
 20
332.3143127655
 11
304.3446293587
 21
332.6124072759
  0
LINE
  5
3EC
100
AcDbEntity
  8
0
100
AcDbLine
 62
7
  6
CONTINUOUS
 10
310.0101807565
 20
321.9470210183
 11
310.0395000699
 21
322.1178790703
  0
LINE
  5
3ED
100
AcDbEntity
  8
0
100
AcDbLine
 62
7
  6
CONTINUOUS
 10
312.5031882754
 20
314.7065459564
 11
309.9893947595
 21
306.9236655313
  0
LINE
  5
3EE
100
AcDbEntity
  8
0
100
AcDbLine
 62
7
  6
CONTINUOUS
 10
311.6975080879
 20
303.9527345042
 11
314.4807667979
 21
309.7862702655
  0
LINE
  5
3EF
100
AcDbEntity
  8
0
100
AcDbLine
 62
7
  6
CONTINUOUS
 10
310.770793731
 20
294.2975378236
 11
307.9469442069
 21
289.4700085721
  0
LINE
  5
3F0
100
AcDbEntity
  8
0
100
AcDbLine
 62
7
  6
CONTINUOUS
 10
310.7271299929
 20
223.4651608338
 11
307.2801630345
 21
270.2447856263
  0
LINE
  5
3F1
100
AcDbEntity
  8
0
100
AcDbLine
 62
7
  6
CONTINUOUS
 10
307.2731299929
 20
270.3402327393
 11
306.3635136192
 21
282.6848572106
  0
LWPOLYLINE
  5
3F2
100
AcDbEntity
  8
0
100
AcDbPolyline
 62
7
  6
CONTINUOUS
 90
7
 70
0
 10
307.1965770499
 20
271.3791521476
 10
307.151846486
 20
272.3601495527
 10
307.1660639894
 20
273.3716180087
 10
307.2461774412
 20
274.3788222843
 10
307.3958068682
 20
275.3705773914
 10
307.6168072461
 20
276.3363782969
 10
307.8534638806
 20
277.1085423751
  0
LINE
  5
3F3
100
AcDbEntity
  8
0
100
AcDbLine
 62
7
  6
CONTINUOUS
 10
304.3771299929
 20
352.4207675299
 11
304.3771299929
 21
334.7996015827
  0
LINE
  5
3F4
100
AcDbEntity
  8
KONSTRUKTIONSELEMENTE
100
AcDbLine
 62
7
  6
CONTINUOUS
 10
304.5108806271
 20
328.2248550711
 11
304.5108806271
 21
328.6273673681
  0
LINE
  5
3F5
100
AcDbEntity
  8
KONSTRUKTIONSELEMENTE
100
AcDbLine
 62
7
  6
CONTINUOUS
 10
304.8433793587
 20
332.0891324566
 11
304.8433793587
 21
332.4080462839
  0
LINE
  5
3F6
100
AcDbEntity
  8
KONSTRUKTIONSELEMENTE
100
AcDbLine
 62
7
  6
CONTINUOUS
 10
305.1758799929
 20
328.4292160899
 11
305.1758799929
 21
328.831728387
  0
LINE
  5
3F7
100
AcDbEntity
  8
KONSTRUKTIONSELEMENTE
100
AcDbLine
 62
7
  6
CONTINUOUS
 10
305.1758799929
 20
331.7557113309
 11
305.1758799929
 21
332.1015045096
  0
LINE
  5
3F8
100
AcDbEntity
  8
KONSTRUKTIONSELEMENTE
100
AcDbLine
 62
7
  6
CONTINUOUS
 10
305.3421293587
 20
331.6927825256
 11
305.3421293587
 21
330.1600749424
  0
LINE
  5
3F9
100
AcDbEntity
  8
0
100
AcDbLine
 62
7
  6
CONTINUOUS
 10
305.3771299929
 20
334.7996015827
 11
305.3771299929
 21
355.418942792
  0
LINE
  5
3FA
100
AcDbEntity
  8
KONSTRUKTIONSELEMENTE
100
AcDbLine
 62
7
  6
CONTINUOUS
 10
305.8408793587
 20
328.8379381097
 11
305.8408793587
 21
329.2404504068
  0
LINE
  5
3FB
100
AcDbEntity
  8
KONSTRUKTIONSELEMENTE
100
AcDbLine
 62
7
  6
CONTINUOUS
 10
306.1733799929
 20
329.2466601653
 11
306.1733799929
 21
329.6491724624
  0
LINE
  5
3FC
100
AcDbEntity
  8
KONSTRUKTIONSELEMENTE
100
AcDbLine
 62
7
  6
CONTINUOUS
 10
306.3396293587
 20
329.7575626453
 11
306.3396293587
 21
331.6927825256
  0
LINE
  5
3FD
100
AcDbEntity
  8
0
100
AcDbLine
 62
7
  6
CONTINUOUS
 10
307.2731299929
 20
172.1407500342
 11
307.2731299929
 21
270.3402327393
  0
LINE
  5
3FE
100
AcDbEntity
  8
DEFAULT_2
100
AcDbLine
 62
8
  6
HIDDEN
 10
310.7271299929
 20
223.6380208227
 11
310.7271299929
 21
223.4651608338
  0
LINE
  5
3FF
100
AcDbEntity
  8
0
100
AcDbLine
 62
7
  6
CONTINUOUS
 10
310.7271299929
 20
173.8943952073
 11
310.7271299929
 21
223.4651608338
  0
LINE
  5
400
100
AcDbEntity
  8
0
100
AcDbLine
 62
7
  6
CONTINUOUS
 10
310.7271299929
 20
223.6380208227
 11
310.7271299929
 21
228.9607694717
  0
LINE
  5
401
100
AcDbEntity
  8
0
100
AcDbLine
 62
7
  6
CONTINUOUS
 10
312.7713386083
 20
315.0983405205
 11
312.7708936101
 21
315.0802115808
  0
LINE
  5
402
100
AcDbEntity
  8
0
100
AcDbLine
 62
7
  6
CONTINUOUS
 10
310.0101807565
 20
317.9028240628
 11
310.0199231525
 21
318.0027265282
  0
LWPOLYLINE
  5
403
100
AcDbEntity
  8
0
100
AcDbPolyline
 62
7
  6
CONTINUOUS
 90
10
 70
0
 10
311.8746312037
 20
286.8032205282
 10
311.9597819583
 20
287.215628516
 10
312.034913807
 20
287.6361267638
 10
312.1013882803
 20
288.0702581439
 10
312.1585937774
 20
288.5199214526
 10
312.2051739546
 20
288.9803607743
 10
312.2402942413
 20
289.4496491806
 10
312.26297538
 20
289.9272851186
 10
312.2727391141
 20
290.4146668198
 10
312.2731297542
 20
290.533775396
  0
LWPOLYLINE
  5
404
100
AcDbEntity
  8
0
100
AcDbPolyline
 62
7
  6
CONTINUOUS
 90
4
 70
0
 10
311.6080047377
 20
285.785301589
 10
311.677609811
 20
286.0224772589
 10
311.7801032255
 20
286.4042431917
 10
311.8746312037
 20
286.8032205282
  0
LWPOLYLINE
  5
405
100
AcDbEntity
  8
0
100
AcDbPolyline
 62
7
  6
CONTINUOUS
 90
8
 70
0
 10
311.4444444244
 20
285.2750353515
 10
311.4703831459
 20
285.3520026512
 10
311.4964163141
 20
285.4305213923
 10
311.52245543
 20
285.5104465637
 10
311.5483590754
 20
285.5914381491
 10
311.5740215698
 20
285.6732247363
 10
311.5993368847
 20
285.7554893011
 10
311.6083487503
 20
285.7851848837
  0
LINE
  5
406
100
AcDbEntity
  8
0
100
AcDbLine
 62
7
  6
CONTINUOUS
 10
307.8534638806
 20
277.1085423751
 11
307.8534204215
 21
277.1084159677
  0
LINE
  5
407
100
AcDbEntity
  8
0
100
AcDbLine
 62
7
  6
CONTINUOUS
 10
311.3933266964
 20
285.1265721891
 11
311.4444444244
 21
285.2750353515
  0
LWPOLYLINE
  5
408
100
AcDbEntity
  8
0
100
AcDbPolyline
 62
7
  6
CONTINUOUS
 90
3
 70
0
 10
307.8534205574
 20
277.1084159209
 10
307.9102702607
 20
277.2706061124
 10
308.0194998215
 20
277.5662599807
  0
LWPOLYLINE
  5
409
100
AcDbEntity
  8
0
100
AcDbPolyline
 62
7
  6
CONTINUOUS
 90
6
 70
0
 10
311.2355256766
 20
284.6924787221
 10
311.2618346272
 20
284.7622781303
 10
311.2883013991
 20
284.833503924
 10
311.3148469505
 20
284.9059990687
 10
311.341284888
 20
284.9792723732
 10
311.3933266964
 20
285.1265721891
  0
LINE
  5
40A
100
AcDbEntity
  8
0
100
AcDbLine
 62
7
  6
CONTINUOUS
 10
311.1839019021
 20
284.5581667189
 11
311.2355256766
 21
284.6924787221
  0
LWPOLYLINE
  5
40B
100
AcDbEntity
  8
0
100
AcDbPolyline
 62
7
  6
CONTINUOUS
 90
3
 70
0
 10
308.0194998215
 20
277.5662599807
 10
308.1351936794
 20
277.8598957481
 10
308.2572281127
 20
278.1514164483
  0
LINE
  5
40C
100
AcDbEntity
  8
0
100
AcDbLine
 62
7
  6
CONTINUOUS
 10
311.1345148722
 20
284.4323726824
 11
311.1839019021
 21
284.5581667189
  0
LINE
  5
40D
100
AcDbEntity
  8
0
100
AcDbLine
 62
7
  6
CONTINUOUS
 10
311.0448365165
 20
284.2080544598
 11
311.1345148722
 21
284.4323726824
  0
LINE
  5
40E
100
AcDbEntity
  8
0
100
AcDbLine
 62
7
  6
CONTINUOUS
 10
311.0012731486
 20
284.1001895452
 11
311.0448365165
 21
284.2080544598
  0
LWPOLYLINE
  5
40F
100
AcDbEntity
  8
0
100
AcDbPolyline
 62
7
  6
CONTINUOUS
 90
3
 70
0
 10
310.7426571871
 20
283.4976911019
 10
310.7915079939
 20
283.6113631247
 10
310.8046325046
 20
283.6415408151
  0
LWPOLYLINE
  5
410
100
AcDbEntity
  8
0
100
AcDbPolyline
 62
7
  6
CONTINUOUS
 90
5
 70
0
 10
310.8864758585
 20
283.826990648
 10
310.9143258528
 20
283.8914830984
 10
310.9368811551
 20
283.9445540138
 10
310.9577984632
 20
283.9944599214
 10
311.0012731486
 20
284.1001895452
  0
LINE
  5
411
100
AcDbEntity
  8
0
100
AcDbLine
 62
7
  6
CONTINUOUS
 10
310.6978697544
 20
283.3951737329
 11
310.7426571871
 21
283.4976911019
  0
LWPOLYLINE
  5
412
100
AcDbEntity
  8
0
100
AcDbPolyline
 62
7
  6
CONTINUOUS
 90
3
 70
0
 10
308.2572281127
 20
278.1514164483
 10
308.3854779925
 20
278.4407279155
 10
308.4494863855
 20
278.5793806652
  0
LINE
  5
413
100
AcDbEntity
  8
0
100
AcDbLine
 62
7
  6
CONTINUOUS
 10
310.8046325046
 20
283.6415408151
 11
310.8864758585
 21
283.826990648
  0
LINE
  5
414
100
AcDbEntity
  8
0
100
AcDbLine
 62
7
  6
CONTINUOUS
 10
310.6532085402
 20
283.2949170572
 11
310.6978697544
 21
283.3951737329
  0
LINE
  5
415
100
AcDbEntity
  8
0
100
AcDbLine
 62
7
  6
CONTINUOUS
 10
310.6091208058
 20
283.198008738
 11
310.6532085402
 21
283.2949170572
  0
LINE
  5
416
100
AcDbEntity
  8
0
100
AcDbLine
 62
7
  6
CONTINUOUS
 10
310.5683939492
 20
283.110315814
 11
310.6091208058
 21
283.198008738
  0
LINE
  5
417
100
AcDbEntity
  8
0
100
AcDbLine
 62
7
  6
CONTINUOUS
 10
308.4494866178
 20
278.5793814055
 11
310.5683939492
 21
283.110315814
  0
LINE
  5
418
100
AcDbEntity
  8
BEZUGSACHSEN
100
AcDbLine
 62
7
  6
CONTINUOUS
 10
252.8771299929
 20
237.9626966484
 11
237.8771299929
 21
229.3024426106
  0
LINE
  5
419
100
AcDbEntity
  8
KONSTRUKTIONSELEMENTE
100
AcDbLine
 62
7
  6
CONTINUOUS
 10
279.3521780004
 20
285.1518025802
 11
277.3771299929
 21
285.1518025802
  0
LINE
  5
41A
100
AcDbEntity
  8
KONSTRUKTIONSELEMENTE
100
AcDbLine
 62
7
  6
CONTINUOUS
 10
279.1846504995
 20
286.0974586063
 11
277.3771299929
 21
286.0974586063
  0
LINE
  5
41B
100
AcDbEntity
  8
KONSTRUKTIONSELEMENTE
100
AcDbLine
 62
7
  6
CONTINUOUS
 10
278.5553170199
 20
289.1234199001
 11
277.3771299929
 21
289.1234199001
  0
LINE
  5
41C
100
AcDbEntity
  8
KONSTRUKTIONSELEMENTE
100
AcDbLine
 62
7
  6
CONTINUOUS
 10
278.8618123195
 20
289.9918140874
 11
277.3771299929
 21
289.9918140874
  0
LINE
  5
41D
100
AcDbEntity
  8
BEZUGSACHSEN
100
AcDbLine
 62
7
  6
CONTINUOUS
 10
237.8771299929
 20
321.9819345349
 11
252.8771299929
 21
313.3216804971
  0
LINE
  5
41E
100
AcDbEntity
  8
KONSTRUKTIONSELEMENTE
100
AcDbLine
 62
7
  6
CONTINUOUS
 10
292.3746298344
 20
329.7575626453
 11
292.5408801515
 21
329.2466601653
  0
LINE
  5
41F
100
AcDbEntity
  8
KONSTRUKTIONSELEMENTE
100
AcDbLine
 62
7
  6
CONTINUOUS
 10
292.3746298344
 20
330.1600749424
 11
292.5408801515
 21
329.6491724624
  0
LINE
  5
420
100
AcDbEntity
  8
0
100
AcDbLine
 62
7
  6
CONTINUOUS
 10
312.2731299929
 20
301.4295565898
 11
312.2731299929
 21
290.5348746448
  0
LINE
  5
421
100
AcDbEntity
  8
0
100
AcDbLine
 62
7
  6
CONTINUOUS
 10
313.7647093482
 20
329.05209503
 11
313.7647093482
 21
330.2651360485
  0
LINE
  5
422
100
AcDbEntity
  8
0
100
AcDbLine
 62
7
  6
CONTINUOUS
 10
315.2471299929
 20
361.2550312345
 11
315.2471299929
 21
371.5662768174
  0
LINE
  5
423
100
AcDbEntity
  8
0
100
AcDbLine
 62
7
  6
CONTINUOUS
 10
314.6965490478
 20
310.6293337422
 11
315.4071417948
 21
328.919892379
  0
LINE
  5
424
100
AcDbEntity
  8
KONSTRUKTIONSELEMENTE
100
AcDbLine
 62
7
  6
CONTINUOUS
 10
278.4811299929
 20
296.0891837448
 11
277.3771299929
 21
296.0891837448
  0
LINE
  5
425
100
AcDbEntity
  8
KONSTRUKTIONSELEMENTE
100
AcDbLine
 62
7
  6
CONTINUOUS
 10
288.5508799136
 20
330.2684652685
 11
289.8808798344
 21
328.1226745661
  0
LINE
  5
426
100
AcDbEntity
  8
KONSTRUKTIONSELEMENTE
100
AcDbLine
 62
7
  6
CONTINUOUS
 10
288.5508799136
 20
330.6709775655
 11
289.8808798344
 21
328.5251868632
  0
LINE
  5
427
100
AcDbEntity
  8
KONSTRUKTIONSELEMENTE
100
AcDbLine
 62
7
  6
CONTINUOUS
 10
289.7146299929
 20
332.5102267799
 11
289.8808798344
 21
332.2036852919
  0
LINE
  5
428
100
AcDbEntity
  8
KONSTRUKTIONSELEMENTE
100
AcDbLine
 62
7
  6
CONTINUOUS
 10
290.8783798344
 20
332.2036852919
 11
290.7121299929
 21
332.5102267799
  0
LINE
  5
429
100
AcDbEntity
  8
KONSTRUKTIONSELEMENTE
100
AcDbLine
 62
7
  6
CONTINUOUS
 10
293.5383796758
 20
329.7513529584
 11
293.37213031
 21
330.1600749424
  0
LINE
  5
42A
100
AcDbEntity
  8
0
100
AcDbLine
 62
7
  6
CONTINUOUS
 10
310.0612268657
 20
315.3564715062
 11
310.0517125203
 21
315.4280835863
  0
LINE
  5
42B
100
AcDbEntity
  8
0
100
AcDbLine
 62
7
  6
CONTINUOUS
 10
312.755308133
 20
327.3507761925
 11
312.7708936101
 21
327.2128024475
  0
LINE
  5
42C
100
AcDbEntity
  8
0
100
AcDbLine
 62
7
  6
CONTINUOUS
 10
309.9307246162
 20
306.7943501456
 11
309.9490719933
 21
306.6299442463
  0
LINE
  5
42D
100
AcDbEntity
  8
0
100
AcDbLine
 62
7
  6
CONTINUOUS
 10
313.1522887035
 20
358.1227404755
 11
314.3771299929
 21
346.9418433348
  0
LINE
  5
42E
100
AcDbEntity
  8
BEZUGSACHSEN
100
AcDbLine
 62
7
  6
CONTINUOUS
 10
322.8771299929
 20
339.3024426106
 11
322.8771299929
 21
321.9819345349
  0
LINE
  5
42F
100
AcDbEntity
  8
BEZUGSACHSEN
100
AcDbLine
 62
7
  6
CONTINUOUS
 10
322.8771299929
 20
229.3024426106
 11
322.8771299929
 21
211.9819345349
  0
LINE
  5
430
100
AcDbEntity
  8
BEZUGSACHSEN
100
AcDbLine
 62
7
  6
CONTINUOUS
 10
325.5031570009
 20
346.9864525375
 11
325.5031299929
 21
372.8964935198
  0
LINE
  5
431
100
AcDbEntity
  8
0
100
AcDbLine
 62
7
  6
CONTINUOUS
 10
307.6362552351
 20
309.8730573773
 11
310.9820834283
 21
305.1814192227
  0
LINE
  5
432
100
AcDbEntity
  8
KONSTRUKTIONSELEMENTE
100
AcDbLine
 62
7
  6
CONTINUOUS
 10
291.0446301515
 20
328.5251868632
 11
289.5483801515
 21
330.8753385576
  0
LINE
  5
433
100
AcDbEntity
  8
KONSTRUKTIONSELEMENTE
100
AcDbLine
 62
7
  6
CONTINUOUS
 10
305.1758799929
 20
332.1015045096
 11
305.3421293587
 21
331.6927825256
  0
LINE
  5
434
100
AcDbEntity
  8
KONSTRUKTIONSELEMENTE
100
AcDbLine
 62
7
  6
CONTINUOUS
 10
306.3396293587
 20
331.6927825256
 11
306.1733799929
 21
332.2036852919
  0
LINE
  5
435
100
AcDbEntity
  8
BEZUGSACHSEN
100
AcDbLine
 62
7
  6
CONTINUOUS
 10
252.8771299929
 20
203.3216804971
 11
267.8771299929
 21
211.9819345349
  0
LINE
  5
436
100
AcDbEntity
  8
AUSFORMSCHRAEGEN
100
AcDbLine
 62
7
  6
CONTINUOUS
 10
295.3771299929
 20
312.7029885727
 11
285.6698768608
 21
311.8537139697
  0
LINE
  5
437
100
AcDbEntity
  8
0
100
AcDbLine
 62
7
  6
CONTINUOUS
 10
309.9307246162
 20
306.7943501456
 11
309.8318264013
 21
306.7943501456
  0
LINE
  5
438
100
AcDbEntity
  8
KONSTRUKTIONSELEMENTE
100
AcDbLine
 62
7
  6
CONTINUOUS
 10
280.8235353696
 20
306.7943501456
 11
280.9224335845
 21
306.7943501456
  0
LINE
  5
439
100
AcDbEntity
  8
0
100
AcDbLine
 62
7
  6
CONTINUOUS
 10
305.084383125
 20
311.8537139697
 11
295.3771299929
 21
312.7029885727
  0
LINE
  5
43A
100
AcDbEntity
  8
KONSTRUKTIONSELEMENTE
100
AcDbLine
 62
7
  6
CONTINUOUS
 10
293.87088031
 20
329.4448114704
 11
293.5383796758
 21
329.7513529584
  0
LINE
  5
43B
100
AcDbEntity
  8
KONSTRUKTIONSELEMENTE
100
AcDbLine
 62
7
  6
CONTINUOUS
 10
292.5408801515
 20
329.2466601653
 11
292.87338031
 21
328.8379381097
  0
LINE
  5
43C
100
AcDbEntity
  8
KONSTRUKTIONSELEMENTE
100
AcDbLine
 62
7
  6
CONTINUOUS
 10
292.5408801515
 20
329.6491724624
 11
292.87338031
 21
329.2404504068
  0
LINE
  5
43D
100
AcDbEntity
  8
BEZUGSACHSEN
100
AcDbLine
 62
2
  6
CENTER
 10
337.8771299929
 20
330.6421885727
 11
337.8771299929
 21
310.1421885727
  0
LINE
  5
43E
100
AcDbEntity
  8
BEZUGSACHSEN
100
AcDbLine
 62
2
  6
CENTER
 10
337.8771299929
 20
220.6421885727
 11
337.8771299929
 21
200.1421885727
  0
LINE
  5
43F
100
AcDbEntity
  8
BEZUGSACHSEN
100
AcDbLine
 62
2
  6
CENTER
 10
337.8771299929
 20
220.6421885727
 11
337.8771299929
 21
241.1421885727
  0
LINE
  5
440
100
AcDbEntity
  8
BEZUGSACHSEN
100
AcDbLine
 62
2
  6
CENTER
 10
337.8771299929
 20
330.6421885727
 11
337.8771299929
 21
351.1421885727
  0
LINE
  5
441
100
AcDbEntity
  8
0
100
AcDbLine
 62
7
  6
CONTINUOUS
 10
293.3771299929
 20
314.0161304234
 11
297.3771299929
 21
314.0161304234
  0
LINE
  5
442
100
AcDbEntity
  8
BEZUGSACHSEN
100
AcDbLine
 62
7
  6
CONTINUOUS
 10
267.8771299929
 20
339.3024426106
 11
252.8771299929
 21
347.9626966484
  0
LINE
  5
443
100
AcDbEntity
  8
KONSTRUKTIONSELEMENTE
100
AcDbLine
 62
7
  6
CONTINUOUS
 10
292.87338031
 20
328.8379381097
 11
293.5383796758
 21
328.4292160899
  0
LINE
  5
444
100
AcDbEntity
  8
KONSTRUKTIONSELEMENTE
100
AcDbLine
 62
7
  6
CONTINUOUS
 10
292.87338031
 20
329.2404504068
 11
293.5383796758
 21
328.831728387
  0
LINE
  5
445
100
AcDbEntity
  8
KONSTRUKTIONSELEMENTE
100
AcDbLine
 62
7
  6
CONTINUOUS
 10
289.3821298344
 20
332.7145877719
 11
289.7146299929
 21
332.5102267799
  0
LINE
  5
446
100
AcDbEntity
  8
KONSTRUKTIONSELEMENTE
100
AcDbLine
 62
7
  6
CONTINUOUS
 10
290.7121299929
 20
332.5102267799
 11
290.2133799929
 21
332.9189487639
  0
LINE
  5
447
100
AcDbEntity
  8
KONSTRUKTIONSELEMENTE
100
AcDbLine
 62
7
  6
CONTINUOUS
 10
306.1733799929
 20
332.2036852919
 11
305.8408793587
 21
332.6124072759
  0
LINE
  5
448
100
AcDbEntity
  8
BEZUGSACHSEN
100
AcDbLine
 62
7
  6
CONTINUOUS
 10
337.8771299929
 20
237.9626966484
 11
322.8771299929
 21
229.3024426106
  0
LINE
  5
449
100
AcDbEntity
  8
KONSTRUKTIONSELEMENTE
100
AcDbLine
 62
7
  6
CONTINUOUS
 10
304.3446293587
 20
329.2404504068
 11
303.6796299929
 21
329.1382699108
  0
LINE
  5
44A
100
AcDbEntity
  8
KONSTRUKTIONSELEMENTE
100
AcDbLine
 62
7
  6
CONTINUOUS
 10
296.36463031
 20
329.2404504068
 11
295.6996299929
 21
329.1382699108
  0
LINE
  5
44B
100
AcDbEntity
  8
KONSTRUKTIONSELEMENTE
100
AcDbLine
 62
7
  6
CONTINUOUS
 10
303.6796299929
 20
328.1226745661
 11
304.5108806271
 21
328.2248550711
  0
LINE
  5
44C
100
AcDbEntity
  8
KONSTRUKTIONSELEMENTE
100
AcDbLine
 62
7
  6
CONTINUOUS
 10
303.6796299929
 20
328.5251868632
 11
304.5108806271
 21
328.6273673681
  0
LINE
  5
44D
100
AcDbEntity
  8
KONSTRUKTIONSELEMENTE
100
AcDbLine
 62
7
  6
CONTINUOUS
 10
295.6996299929
 20
328.1226745661
 11
296.5308796758
 21
328.2248550711
  0
LINE
  5
44E
100
AcDbEntity
  8
KONSTRUKTIONSELEMENTE
100
AcDbLine
 62
7
  6
CONTINUOUS
 10
295.6996299929
 20
328.5251868632
 11
296.5308796758
 21
328.6273673681
  0
LINE
  5
44F
100
AcDbEntity
  8
KONSTRUKTIONSELEMENTE
100
AcDbLine
 62
7
  6
CONTINUOUS
 10
284.7271299929
 20
328.1226745661
 11
285.7246299929
 21
328.1226745661
  0
LINE
  5
450
100
AcDbEntity
  8
KONSTRUKTIONSELEMENTE
100
AcDbLine
 62
7
  6
CONTINUOUS
 10
289.8808798344
 20
328.1226745661
 11
291.0446301515
 21
328.1226745661
  0
LINE
  5
451
100
AcDbEntity
  8
KONSTRUKTIONSELEMENTE
100
AcDbLine
 62
7
  6
CONTINUOUS
 10
295.0346296758
 20
328.1226745661
 11
295.6996299929
 21
328.1226745661
  0
LINE
  5
452
100
AcDbEntity
  8
KONSTRUKTIONSELEMENTE
100
AcDbLine
 62
7
  6
CONTINUOUS
 10
299.6896299929
 20
328.1226745661
 11
303.6796299929
 21
328.1226745661
  0
LINE
  5
453
100
AcDbEntity
  8
KONSTRUKTIONSELEMENTE
100
AcDbLine
 62
7
  6
CONTINUOUS
 10
284.7271299929
 20
328.5251868632
 11
285.7246299929
 21
328.5251868632
  0
LINE
  5
454
100
AcDbEntity
  8
KONSTRUKTIONSELEMENTE
100
AcDbLine
 62
7
  6
CONTINUOUS
 10
289.8808798344
 20
328.5251868632
 11
291.0446301515
 21
328.5251868632
  0
LINE
  5
455
100
AcDbEntity
  8
KONSTRUKTIONSELEMENTE
100
AcDbLine
 62
7
  6
CONTINUOUS
 10
295.0346296758
 20
328.5251868632
 11
295.6996299929
 21
328.5251868632
  0
LINE
  5
456
100
AcDbEntity
  8
KONSTRUKTIONSELEMENTE
100
AcDbLine
 62
7
  6
CONTINUOUS
 10
299.6896299929
 20
328.5251868632
 11
303.6796299929
 21
328.5251868632
  0
LINE
  5
457
100
AcDbEntity
  8
KONSTRUKTIONSELEMENTE
100
AcDbLine
 62
7
  6
CONTINUOUS
 10
303.6796299929
 20
329.1382699108
 11
300.6871299929
 21
329.1382699108
  0
LINE
  5
458
100
AcDbEntity
  8
KONSTRUKTIONSELEMENTE
100
AcDbLine
 62
7
  6
CONTINUOUS
 10
295.6996299929
 20
329.1382699108
 11
295.0346296758
 21
329.1382699108
  0
LINE
  5
459
100
AcDbEntity
  8
KONSTRUKTIONSELEMENTE
100
AcDbLine
 62
7
  6
CONTINUOUS
 10
294.2033799929
 20
328.2248550711
 11
295.0346296758
 21
328.1226745661
  0
LINE
  5
45A
100
AcDbEntity
  8
KONSTRUKTIONSELEMENTE
100
AcDbLine
 62
7
  6
CONTINUOUS
 10
294.2033799929
 20
328.6273673681
 11
295.0346296758
 21
328.5251868632
  0
LINE
  5
45B
100
AcDbEntity
  8
KONSTRUKTIONSELEMENTE
100
AcDbLine
 62
7
  6
CONTINUOUS
 10
295.0346296758
 20
329.1382699108
 11
294.36963031
 21
329.2404504068
  0
LINE
  5
45C
100
AcDbEntity
  8
KONSTRUKTIONSELEMENTE
100
AcDbLine
 62
7
  6
CONTINUOUS
 10
293.5383796758
 20
328.4292160899
 11
294.2033799929
 21
328.2248550711
  0
LINE
  5
45D
100
AcDbEntity
  8
KONSTRUKTIONSELEMENTE
100
AcDbLine
 62
7
  6
CONTINUOUS
 10
293.5383796758
 20
328.831728387
 11
294.2033799929
 21
328.6273673681
  0
LINE
  5
45E
100
AcDbEntity
  8
KONSTRUKTIONSELEMENTE
100
AcDbLine
 62
7
  6
CONTINUOUS
 10
294.36963031
 20
329.2404504068
 11
293.87088031
 21
329.4448114704
  0
LINE
  5
45F
100
AcDbEntity
  8
KONSTRUKTIONSELEMENTE
100
AcDbLine
 62
7
  6
CONTINUOUS
 10
290.2133799929
 20
332.9189487639
 11
289.5483801515
 21
333.2254902519
  0
LINE
  5
460
100
AcDbEntity
  8
BEZUGSACHSEN
100
AcDbLine
 62
7
  6
CONTINUOUS
 10
322.8771299929
 20
321.9819345349
 11
337.8771299929
 21
313.3216804971
  0
LINE
  5
461
100
AcDbEntity
  8
KONSTRUKTIONSELEMENTE
100
AcDbLine
 62
7
  6
CONTINUOUS
 10
305.8408793587
 20
332.6124072759
 11
305.1758799929
 21
333.0211292599
  0
LINE
  5
462
100
AcDbEntity
  8
KONSTRUKTIONSELEMENTE
100
AcDbLine
 62
7
  6
CONTINUOUS
 10
304.8433793587
 20
332.4080462839
 11
305.1758799929
 21
332.1015045096
  0
LINE
  5
463
100
AcDbEntity
  8
BEZUGSACHSEN
100
AcDbLine
 62
7
  6
CONTINUOUS
 10
352.8771299929
 20
211.9819345349
 11
352.8771299929
 21
229.3024426106
  0
LINE
  5
464
100
AcDbEntity
  8
BEZUGSACHSEN
100
AcDbLine
 62
7
  6
CONTINUOUS
 10
352.8771299929
 20
321.9819345349
 11
352.8771299929
 21
339.3024426106
  0
LINE
  5
465
100
AcDbEntity
  8
BEZUGSACHSEN
100
AcDbLine
 62
7
  6
CONTINUOUS
 10
354.3212055598
 20
342.8832007348
 11
354.3212055598
 21
318.4011764107
  0
LINE
  5
466
100
AcDbEntity
  8
BEZUGSACHSEN
100
AcDbLine
 62
7
  6
CONTINUOUS
 10
354.3212055598
 20
232.8832007348
 11
354.3212055598
 21
208.4011764107
  0
LINE
  5
467
100
AcDbEntity
  8
0
100
AcDbLine
 62
7
  6
CONTINUOUS
 10
355.3771299929
 20
201.0779745164
 11
355.3771299929
 21
349.3102386455
  0
LINE
  5
468
100
AcDbEntity
  8
KONSTRUKTIONSELEMENTE
100
AcDbLine
 62
7
  6
CONTINUOUS
 10
289.3821298344
 20
331.3862410376
 11
288.8833798344
 21
331.2840605416
  0
LINE
  5
469
100
AcDbEntity
  8
KONSTRUKTIONSELEMENTE
100
AcDbLine
 62
7
  6
CONTINUOUS
 10
285.7246299929
 20
330.2684652685
 11
288.551911669
 21
330.2684652685
  0
LINE
  5
46A
100
AcDbEntity
  8
BEZUGSACHSEN
100
AcDbLine
 62
2
  6
CENTER
 10
337.8771299929
 20
330.6421885727
 11
317.3771299929
 21
330.6421885727
  0
LINE
  5
46B
100
AcDbEntity
  8
BEZUGSACHSEN
100
AcDbLine
 62
2
  6
CENTER
 10
252.8771299929
 20
330.6421885727
 11
232.3771299929
 21
330.6421885727
  0
LINE
  5
46C
100
AcDbEntity
  8
BEZUGSACHSEN
100
AcDbLine
 62
2
  6
CENTER
 10
252.8771299929
 20
330.6421885727
 11
273.3771299929
 21
330.6421885727
  0
LINE
  5
46D
100
AcDbEntity
  8
BEZUGSACHSEN
100
AcDbLine
 62
2
  6
CENTER
 10
337.8771299929
 20
330.6421885727
 11
358.3771299929
 21
330.6421885727
  0
LINE
  5
46E
100
AcDbEntity
  8
KONSTRUKTIONSELEMENTE
100
AcDbLine
 62
7
  6
CONTINUOUS
 10
285.7246299929
 20
330.6709775655
 11
288.5508799136
 21
330.6709775655
  0
LINE
  5
46F
100
AcDbEntity
  8
KONSTRUKTIONSELEMENTE
100
AcDbLine
 62
7
  6
CONTINUOUS
 10
288.8833798344
 20
331.2840605416
 11
285.7246299929
 21
331.2840605416
  0
LINE
  5
470
100
AcDbEntity
  8
KONSTRUKTIONSELEMENTE
100
AcDbLine
 62
7
  6
CONTINUOUS
 10
300.6871299929
 20
332.4277745088
 11
303.6796299929
 21
332.4277745088
  0
LINE
  5
471
100
AcDbEntity
  8
KONSTRUKTIONSELEMENTE
100
AcDbLine
 62
7
  6
CONTINUOUS
 10
285.7246299929
 20
332.5418181247
 11
288.8833798344
 21
332.5418181247
  0
LINE
  5
472
100
AcDbEntity
  8
KONSTRUKTIONSELEMENTE
100
AcDbLine
 62
7
  6
CONTINUOUS
 10
300.6871299929
 20
332.7145877719
 11
303.6796299929
 21
332.7145877719
  0
LINE
  5
473
100
AcDbEntity
  8
KONSTRUKTIONSELEMENTE
100
AcDbLine
 62
7
  6
CONTINUOUS
 10
285.7246299929
 20
332.8167682679
 11
288.8833798344
 21
332.8167682679
  0
LINE
  5
474
100
AcDbEntity
  8
KONSTRUKTIONSELEMENTE
100
AcDbLine
 62
7
  6
CONTINUOUS
 10
303.6796299929
 20
333.3276707479
 11
299.6896299929
 21
333.3276707479
  0
LINE
  5
475
100
AcDbEntity
  8
KONSTRUKTIONSELEMENTE
100
AcDbLine
 62
7
  6
CONTINUOUS
 10
298.35963031
 20
333.3276707479
 11
297.36213031
 21
333.3276707479
  0
LINE
  5
476
100
AcDbEntity
  8
KONSTRUKTIONSELEMENTE
100
AcDbLine
 62
7
  6
CONTINUOUS
 10
293.37213031
 20
333.3276707479
 11
292.3746298344
 21
333.3276707479
  0
LINE
  5
477
100
AcDbEntity
  8
KONSTRUKTIONSELEMENTE
100
AcDbLine
 62
7
  6
CONTINUOUS
 10
288.7171299929
 20
333.3276707479
 11
284.7271299929
 21
333.3276707479
  0
LINE
  5
478
100
AcDbEntity
  8
0
100
AcDbLine
 62
7
  6
CONTINUOUS
 10
305.3771299929
 20
334.7996015827
 11
285.3771299929
 21
334.7996015827
  0
LINE
  5
479
100
AcDbEntity
  8
KONSTRUKTIONSELEMENTE
100
AcDbLine
 62
7
  6
CONTINUOUS
 10
289.5483801515
 20
333.2254902519
 11
288.7171299929
 21
333.3276707479
  0
LINE
  5
47A
100
AcDbEntity
  8
KONSTRUKTIONSELEMENTE
100
AcDbLine
 62
7
  6
CONTINUOUS
 10
304.5108806271
 20
333.2254902519
 11
303.6796299929
 21
333.3276707479
  0
LINE
  5
47B
100
AcDbEntity
  8
KONSTRUKTIONSELEMENTE
100
AcDbLine
 62
7
  6
CONTINUOUS
 10
303.6796299929
 20
332.7145877719
 11
304.3446293587
 21
332.6124072759
  0
LINE
  5
47C
100
AcDbEntity
  8
KONSTRUKTIONSELEMENTE
100
AcDbLine
 62
7
  6
CONTINUOUS
 10
288.8833798344
 20
332.8167682679
 11
289.3821298344
 21
332.7145877719
  0
LINE
  5
47D
100
AcDbEntity
  8
KONSTRUKTIONSELEMENTE
100
AcDbLine
 62
7
  6
CONTINUOUS
 10
305.1758799929
 20
333.0211292599
 11
304.5108806271
 21
333.2254902519
  0
LINE
  5
47E
100
AcDbEntity
  8
KONSTRUKTIONSELEMENTE
100
AcDbLine
 62
7
  6
CONTINUOUS
 10
304.3446293587
 20
332.6124072759
 11
304.8433793587
 21
332.4080462839
  0
LINE
  5
47F
100
AcDbEntity
  8
KONSTRUKTIONSELEMENTE
100
AcDbLine
 62
7
  6
CONTINUOUS
 10
285.3771299929
 20
344.720063057
 11
286.3771299929
 21
344.720063057
  0
LINE
  5
480
100
AcDbEntity
  8
KONSTRUKTIONSELEMENTE
100
AcDbLine
 62
7
  6
CONTINUOUS
 10
304.3771299929
 20
344.720063057
 11
305.3771299929
 21
344.720063057
  0
LINE
  5
481
100
AcDbEntity
  8
BEZUGSACHSEN
100
AcDbLine
 62
7
  6
CONTINUOUS
 10
337.8771299929
 20
203.3216804971
 11
352.8771299929
 21
211.9819345349
  0
LWPOLYLINE
  5
482
100
AcDbEntity
  8
0
100
AcDbPolyline
 62
7
  6
CONTINUOUS
 90
7
 70
0
 10
295.3771299929
 20
358.7507802303
 10
298.257228386
 20
359.1311003932
 10
301.5330020173
 20
359.5559436026
 10
304.9038018973
 20
359.9849905275
 10
308.3696436654
 20
360.4180103855
 10
311.9305397669
 20
360.8547953128
 10
315.2471299929
 20
361.2545996812
  0
LINE
  5
483
100
AcDbEntity
  8
0
100
AcDbLine
 62
7
  6
CONTINUOUS
 10
305.3771299929
 20
353.9830022109
 11
285.3771299929
 21
353.9830022109
  0
LINE
  5
484
100
AcDbEntity
  8
0
100
AcDbLine
 62
7
  6
CONTINUOUS
 10
285.3771299929
 20
355.418942792
 11
305.3771299929
 21
355.418942792
  0
LINE
  5
485
100
AcDbEntity
  8
KONSTRUKTIONSELEMENTE
100
AcDbLine
 62
7
  6
CONTINUOUS
 10
312.9207010648
 20
359.317295406
 11
299.6928938264
 21
359.317295406
  0
LINE
  5
486
100
AcDbEntity
  8
KONSTRUKTIONSELEMENTE
100
AcDbLine
 62
7
  6
CONTINUOUS
 10
291.0613661595
 20
359.317295406
 11
277.833558921
 21
359.317295406
  0
LWPOLYLINE
  5
487
100
AcDbEntity
  8
KONSTRUKTIONSELEMENTE
100
AcDbPolyline
 62
7
  6
CONTINUOUS
 90
7
 70
0
 10
275.5071299929
 20
361.2545996812
 10
278.823720219
 20
360.8547953128
 10
282.3846163204
 20
360.4180103855
 10
285.8504580885
 20
359.9849905275
 10
289.2212579685
 20
359.5559436026
 10
292.4970315999
 20
359.1311003932
 10
295.3771299929
 20
358.7507802303
  0
LINE
  5
488
100
AcDbEntity
  8
BEZUGSACHSEN
100
AcDbLine
 62
7
  6
CONTINUOUS
 10
352.8771299929
 20
339.3024426106
 11
337.8771299929
 21
347.9626966484
  0
LINE
  5
489
100
AcDbEntity
  8
0
100
AcDbLine
 62
7
  6
CONTINUOUS
 10
295.3771299929
 20
375.6421885727
 11
256.3725479097
 21
372.2297298149
  0
LINE
  5
48A
100
AcDbEntity
  8
0
100
AcDbLine
 62
7
  6
CONTINUOUS
 10
295.3771299929
 20
375.6421885727
 11
334.3817120761
 21
372.2297298149
  0
LINE
  5
48B
100
AcDbEntity
  8
0
100
AcDbLine
 62
7
  6
CONTINUOUS
 10
25.9251533167
 20
67.6682702855
 11
24.674833334
 21
79.5642702855
  0
LINE
  5
48C
100
AcDbEntity
  8
KONSTRUKTIONSELEMENTE
100
AcDbLine
 62
7
  6
CONTINUOUS
 10
24.674833334
 20
79.5642702855
 11
25.9251533167
 21
91.4602702855
  0
LINE
  5
48D
100
AcDbEntity
  8
0
100
AcDbLine
 62
7
  6
CONTINUOUS
 10
159.1072147514
 20
19.5642702855
 11
170.514833334
 21
19.5642702855
  0
LINE
  5
48E
100
AcDbEntity
  8
KONSTRUKTIONSELEMENTE
100
AcDbLine
 62
7
  6
CONTINUOUS
 10
160.1567391202
 20
19.5642702855
 11
170.514833334
 21
19.5642702855
  0
LINE
  5
48F
100
AcDbEntity
  8
BEZUGSACHSEN
100
AcDbLine
 62
7
  6
CONTINUOUS
 10
146.5148333339
 20
22.0642702855
 11
158.514833334
 21
22.0642702855
  0
LINE
  5
490
100
AcDbEntity
  8
BEZUGSACHSEN
100
AcDbLine
 62
7
  6
CONTINUOUS
 10
158.8010044291
 20
23.0642702855
 11
158.514833334
 21
23.0642702855
  0
LINE
  5
491
100
AcDbEntity
  8
BEZUGSACHSEN
100
AcDbLine
 62
7
  6
CONTINUOUS
 10
197.014833334
 20
27.0642702855
 11
170.514833334
 21
27.0642702855
  0
LINE
  5
492
100
AcDbEntity
  8
0
100
AcDbLine
 62
2
  6
CONTINUOUS
 10
170.514833334
 20
28.5977702855
 11
199.014833334
 21
28.5977702855
  0
LINE
  5
493
100
AcDbEntity
  8
BEZUGSACHSEN
100
AcDbLine
 62
7
  6
CONTINUOUS
 10
157.5761631397
 20
37.0642702855
 11
147.8545792962
 21
37.0642702855
  0
LINE
  5
494
100
AcDbEntity
  8
BEZUGSACHSEN
100
AcDbLine
 62
2
  6
CENTER
 10
157.5761631397
 20
37.0642702855
 11
202.014833334
 21
37.0642702855
  0
LINE
  5
495
100
AcDbEntity
  8
KONSTRUKTIONSELEMENTE
100
AcDbLine
 62
7
  6
CONTINUOUS
 10
70.5375861784
 20
96.4602702855
 11
70.5375861784
 21
97.5642702855
  0
LINE
  5
496
100
AcDbEntity
  8
KONSTRUKTIONSELEMENTE
100
AcDbLine
 62
7
  6
CONTINUOUS
 10
75.3074918147
 20
96.4255662027
 11
75.3074918147
 21
97.5642702855
  0
LINE
  5
497
100
AcDbEntity
  8
KONSTRUKTIONSELEMENTE
100
AcDbLine
 62
7
  6
CONTINUOUS
 10
55.0546592193
 20
94.9579340236
 11
48.5524516099
 21
92.1340844995
  0
LINE
  5
498
100
AcDbEntity
  8
0
100
AcDbLine
 62
7
  6
CONTINUOUS
 10
55.0546592193
 20
64.1706065475
 11
48.5524516099
 21
66.9944560716
  0
LINE
  5
499
100
AcDbEntity
  8
KONSTRUKTIONSELEMENTE
100
AcDbLine
 62
7
  6
CONTINUOUS
 10
77.6320905538
 20
96.4579640832
 11
77.6320905538
 21
97.5642702855
  0
LINE
  5
49A
100
AcDbEntity
  8
KONSTRUKTIONSELEMENTE
100
AcDbLine
 62
7
  6
CONTINUOUS
 10
79.996230619
 20
96.4255978404
 11
79.996230619
 21
97.5642702855
  0
LINE
  5
49B
100
AcDbEntity
  8
KONSTRUKTIONSELEMENTE
100
AcDbLine
 62
7
  6
CONTINUOUS
 10
81.208913334
 20
96.2734357728
 11
81.208913334
 21
97.5642702855
  0
LINE
  5
49C
100
AcDbEntity
  8
0
100
AcDbLine
 62
2
  6
CONTINUOUS
 10
170.514833334
 20
45.5307702855
 11
199.014833334
 21
45.5307702855
  0
LINE
  5
49D
100
AcDbEntity
  8
BEZUGSACHSEN
100
AcDbLine
 62
7
  6
CONTINUOUS
 10
197.014833334
 20
47.0642702855
 11
170.514833334
 21
47.0642702855
  0
LINE
  5
49E
100
AcDbEntity
  8
BEZUGSACHSEN
100
AcDbLine
 62
7
  6
CONTINUOUS
 10
154.3804351175
 20
52.0642702855
 11
146.5148333339
 21
52.0642702855
  0
LINE
  5
49F
100
AcDbEntity
  8
KONSTRUKTIONSELEMENTE
100
AcDbLine
 62
7
  6
CONTINUOUS
 10
85.1894555289
 20
94.1178649089
 11
85.1894555289
 21
93.2121296611
  0
LINE
  5
4A0
100
AcDbEntity
  8
0
100
AcDbLine
 62
7
  6
CONTINUOUS
 10
85.1894555289
 20
65.0106756622
 11
85.1894555289
 21
65.91641091
  0
LINE
  5
4A1
100
AcDbEntity
  8
KONSTRUKTIONSELEMENTE
100
AcDbLine
 62
7
  6
CONTINUOUS
 10
86.1962650883
 20
91.6686678548
 11
86.1962650883
 21
90.4563722889
  0
LINE
  5
4A2
100
AcDbEntity
  8
0
100
AcDbLine
 62
7
  6
CONTINUOUS
 10
86.1962650883
 20
67.4598727163
 11
86.1962650883
 21
68.6721682822
  0
LINE
  5
4A3
100
AcDbEntity
  8
0
100
AcDbLine
 62
7
  6
CONTINUOUS
 10
95.6892940072
 20
62.438212003
 11
85.3610628418
 21
64.952005519
  0
LINE
  5
4A4
100
AcDbEntity
  8
KONSTRUKTIONSELEMENTE
100
AcDbLine
 62
7
  6
CONTINUOUS
 10
93.6949926778
 20
79.5642702855
 11
93.3950829607
 21
82.3142702855
  0
LINE
  5
4A5
100
AcDbEntity
  8
0
100
AcDbLine
 62
7
  6
CONTINUOUS
 10
94.7730816495
 20
81.5642702855
 11
94.7730816495
 21
77.5642702855
  0
LINE
  5
4A6
100
AcDbEntity
  8
0
100
AcDbLine
 62
7
  6
CONTINUOUS
 10
93.3950829607
 20
76.8142702855
 11
93.6949926778
 21
79.5642702855
  0
LINE
  5
4A7
100
AcDbEntity
  8
0
100
AcDbLine
 62
7
  6
CONTINUOUS
 10
90.484316953
 20
70.7722774732
 11
91.7884586827
 21
76.8142702855
  0
LWPOLYLINE
  5
4A8
100
AcDbEntity
  8
0
100
AcDbPolyline
 62
7
  6
CONTINUOUS
 90
10
 70
0
 10
79.4025984133
 20
62.6682705364
 10
79.9272332549
 20
62.6835696966
 10
80.6268330845
 20
62.7519798973
 10
81.3170806971
 20
62.8742661539
 10
81.9975289392
 20
63.0500132457
 10
82.6664410702
 20
63.2790366005
 10
83.3218486288
 20
63.5613597672
 10
83.9618642199
 20
63.8973157551
 10
84.5840662891
 20
64.2872128392
 10
85.1871541092
 20
64.7324159546
  0
LINE
  5
4A9
100
AcDbEntity
  8
0
100
AcDbLine
 62
7
  6
CONTINUOUS
 10
129.7532330783
 20
59.6942702855
 11
138.324835951
 21
59.6942702855
  0
LINE
  5
4AA
100
AcDbEntity
  8
0
100
AcDbLine
 62
7
  6
CONTINUOUS
 10
114.7264806187
 20
61.1766909302
 11
116.3362404208
 21
61.1766909302
  0
LINE
  5
4AB
100
AcDbEntity
  8
0
100
AcDbLine
 62
7
  6
CONTINUOUS
 10
79.4033818603
 20
62.6682702855
 11
62.057510009
 21
62.6682702855
  0
LINE
  5
4AC
100
AcDbEntity
  8
0
100
AcDbLine
 62
7
  6
CONTINUOUS
 10
84.4676637571
 20
64.2142702855
 11
88.3921391739
 21
64.2142702855
  0
LINE
  5
4AD
100
AcDbEntity
  8
0
100
AcDbLine
 62
7
  6
CONTINUOUS
 10
113.7279669881
 20
62.1705066683
 11
113.6698790759
 21
62.1714029243
  0
LINE
  5
4AE
100
AcDbEntity
  8
0
100
AcDbLine
 62
7
  6
CONTINUOUS
 10
107.9767407537
 20
60.2448512306
 11
129.7558824934
 21
59.8350882432
  0
LINE
  5
4AF
100
AcDbEntity
  8
0
100
AcDbLine
 62
7
  6
CONTINUOUS
 10
138.3244522274
 20
59.6738751534
 11
145.7451596455
 21
59.5342584836
  0
LINE
  5
4B0
100
AcDbEntity
  8
0
100
AcDbLine
 62
7
  6
CONTINUOUS
 10
141.6730491304
 20
61.7891115749
 11
150.0984594546
 21
60.5642702855
  0
LINE
  5
4B1
100
AcDbEntity
  8
0
100
AcDbLine
 62
7
  6
CONTINUOUS
 10
102.2616837417
 20
61.0166352157
 11
106.9127085297
 21
60.3328497611
  0
LINE
  5
4B2
100
AcDbEntity
  8
KONSTRUKTIONSELEMENTE
100
AcDbLine
 62
7
  6
CONTINUOUS
 10
90.484316953
 20
88.3562630979
 11
91.7884586827
 21
82.3142702855
  0
LINE
  5
4B3
100
AcDbEntity
  8
BEZUGSACHSEN
100
AcDbLine
 62
2
  6
CENTER
 10
101.514833334
 20
68.1834704752
 11
101.514833334
 21
77.38696395
  0
LINE
  5
4B4
100
AcDbEntity
  8
0
100
AcDbLine
 62
7
  6
CONTINUOUS
 10
73.9745325196
 20
67.3051450433
 11
68.6793018288
 21
63.9593168502
  0
LINE
  5
4B5
100
AcDbEntity
  8
KONSTRUKTIONSELEMENTE
100
AcDbLine
 62
7
  6
CONTINUOUS
 10
117.3933246541
 20
68.6017709197
 11
118.0713155245
 21
68.7680202855
  0
LWPOLYLINE
  5
4B6
100
AcDbEntity
  8
0
100
AcDbPolyline
 62
7
  6
CONTINUOUS
 90
3
 70
0
 10
44.5212804847
 20
68.0021563301
 10
45.4998396184
 20
68.0194132651
 10
45.5841235366
 20
68.0203669469
  0
LINE
  5
4B7
100
AcDbEntity
  8
0
100
AcDbLine
 62
7
  6
CONTINUOUS
 10
25.9251568584
 20
67.6682702855
 11
46.7724619138
 21
67.6682702855
  0
LINE
  5
4B8
100
AcDbEntity
  8
KONSTRUKTIONSELEMENTE
100
AcDbLine
 62
7
  6
CONTINUOUS
 10
115.3593529928
 20
68.6017709197
 11
117.6748017986
 21
68.6017709197
  0
LINE
  5
4B9
100
AcDbEntity
  8
KONSTRUKTIONSELEMENTE
100
AcDbLine
 62
7
  6
CONTINUOUS
 10
118.3255741927
 20
68.7680202855
 11
118.0713155245
 21
68.7680202855
  0
LINE
  5
4BA
100
AcDbEntity
  8
KONSTRUKTIONSELEMENTE
100
AcDbLine
 62
7
  6
CONTINUOUS
 10
118.8383382424
 20
69.1005209197
 11
118.6137079168
 21
69.1005209197
  0
LINE
  5
4BB
100
AcDbEntity
  8
0
100
AcDbLine
 62
7
  6
CONTINUOUS
 10
121.3950581563
 20
69.5642702855
 11
128.8897199693
 21
69.5642702855
  0
LINE
  5
4BC
100
AcDbEntity
  8
KONSTRUKTIONSELEMENTE
100
AcDbLine
 62
7
  6
CONTINUOUS
 10
117.3933246541
 20
69.5992709197
 11
115.3593529928
 21
69.5992709197
  0
LINE
  5
4BD
100
AcDbEntity
  8
KONSTRUKTIONSELEMENTE
100
AcDbLine
 62
7
  6
CONTINUOUS
 10
119.3440936943
 20
69.7655202855
 11
119.1561003092
 21
69.7655202855
  0
LINE
  5
4BE
100
AcDbEntity
  8
KONSTRUKTIONSELEMENTE
100
AcDbLine
 62
7
  6
CONTINUOUS
 10
115.1202753721
 20
69.7655202855
 11
114.8169606004
 21
69.7655202855
  0
LINE
  5
4BF
100
AcDbEntity
  8
KONSTRUKTIONSELEMENTE
100
AcDbLine
 62
7
  6
CONTINUOUS
 10
114.7134810778
 20
70.0980209197
 11
114.4101663061
 21
70.0980209197
  0
LINE
  5
4C0
100
AcDbEntity
  8
KONSTRUKTIONSELEMENTE
100
AcDbLine
 62
7
  6
CONTINUOUS
 10
119.5943333796
 20
70.4305196513
 11
119.4272965054
 21
70.4305196513
  0
LINE
  5
4C1
100
AcDbEntity
  8
KONSTRUKTIONSELEMENTE
100
AcDbLine
 62
7
  6
CONTINUOUS
 10
114.4422847866
 20
70.5967709197
 11
114.1389700149
 21
70.5967709197
  0
LINE
  5
4C2
100
AcDbEntity
  8
KONSTRUKTIONSELEMENTE
100
AcDbLine
 62
7
  6
CONTINUOUS
 10
119.7187917538
 20
71.2617702855
 11
119.5628946035
 21
71.2617702855
  0
LINE
  5
4C3
100
AcDbEntity
  8
KONSTRUKTIONSELEMENTE
100
AcDbLine
 62
7
  6
CONTINUOUS
 10
114.3066866885
 20
71.2617702855
 11
114.0033719169
 21
71.2617702855
  0
LINE
  5
4C4
100
AcDbEntity
  8
0
100
AcDbLine
 62
7
  6
CONTINUOUS
 10
90.484316953
 20
70.7722774732
 11
89.4195496336
 21
70.8442282619
  0
LINE
  5
4C5
100
AcDbEntity
  8
KONSTRUKTIONSELEMENTE
100
AcDbLine
 62
7
  6
CONTINUOUS
 10
114.6813625023
 20
68.7680202855
 11
115.3593529928
 21
68.6017709197
  0
LINE
  5
4C6
100
AcDbEntity
  8
KONSTRUKTIONSELEMENTE
100
AcDbLine
 62
7
  6
CONTINUOUS
 10
115.3593529928
 20
69.5992709197
 11
114.8169606004
 21
69.7655202855
  0
LINE
  5
4C7
100
AcDbEntity
  8
KONSTRUKTIONSELEMENTE
100
AcDbLine
 62
7
  6
CONTINUOUS
 10
115.6626677644
 20
69.5992709197
 11
115.1202753721
 21
69.7655202855
  0
LINE
  5
4C8
100
AcDbEntity
  8
KONSTRUKTIONSELEMENTE
100
AcDbLine
 62
7
  6
CONTINUOUS
 10
114.1389700149
 20
69.1005209197
 11
114.6813625023
 21
68.7680202855
  0
LINE
  5
4C9
100
AcDbEntity
  8
KONSTRUKTIONSELEMENTE
100
AcDbLine
 62
7
  6
CONTINUOUS
 10
73.9745325196
 20
91.8233955277
 11
68.6793018288
 21
95.1692237209
  0
LINE
  5
4CA
100
AcDbEntity
  8
KONSTRUKTIONSELEMENTE
100
AcDbLine
 62
7
  6
CONTINUOUS
 10
113.5965775751
 20
81.4030206026
 11
113.3253813433
 21
80.7380202855
  0
LINE
  5
4CB
100
AcDbEntity
  8
KONSTRUKTIONSELEMENTE
100
AcDbLine
 62
7
  6
CONTINUOUS
 10
114.1389700149
 20
82.0680199684
 11
113.5965775751
 21
81.4030206026
  0
LINE
  5
4CC
100
AcDbEntity
  8
0
100
AcDbLine
 62
7
  6
CONTINUOUS
 10
85.1871541092
 20
64.7324159546
 11
85.3974858629
 21
64.9084978117
  0
LINE
  5
4CD
100
AcDbEntity
  8
KONSTRUKTIONSELEMENTE
100
AcDbLine
 62
7
  6
CONTINUOUS
 10
114.4101663061
 20
81.0705199684
 11
114.8169606004
 21
81.4030206026
  0
LINE
  5
4CE
100
AcDbEntity
  8
KONSTRUKTIONSELEMENTE
100
AcDbLine
 62
7
  6
CONTINUOUS
 10
114.7134810778
 20
81.0705199684
 11
115.1202753721
 21
81.4030206026
  0
LINE
  5
4CF
100
AcDbEntity
  8
KONSTRUKTIONSELEMENTE
100
AcDbLine
 62
7
  6
CONTINUOUS
 10
114.6813625023
 20
82.400520127
 11
114.1389700149
 21
82.0680199684
  0
LINE
  5
4D0
100
AcDbEntity
  8
0
100
AcDbLine
 62
7
  6
CONTINUOUS
 10
85.8811318675
 20
67.2758725906
 11
91.0841411773
 21
70.3138079892
  0
LINE
  5
4D1
100
AcDbEntity
  8
0
100
AcDbLine
 62
7
  6
CONTINUOUS
 10
90.484316953
 20
70.7722774732
 11
84.4101811562
 21
67.7974187689
  0
LINE
  5
4D2
100
AcDbEntity
  8
KONSTRUKTIONSELEMENTE
100
AcDbLine
 62
7
  6
CONTINUOUS
 10
113.1897832333
 20
83.896770127
 11
116.3085398694
 21
85.393020127
  0
LINE
  5
4D3
100
AcDbEntity
  8
KONSTRUKTIONSELEMENTE
100
AcDbLine
 62
7
  6
CONTINUOUS
 10
113.493098005
 20
83.896770127
 11
116.3362404208
 21
85.2607918626
  0
LINE
  5
4D4
100
AcDbEntity
  8
KONSTRUKTIONSELEMENTE
100
AcDbLine
 62
7
  6
CONTINUOUS
 10
116.0373436732
 20
86.3905203648
 11
113.1897832333
 21
85.0605204441
  0
LINE
  5
4D5
100
AcDbEntity
  8
KONSTRUKTIONSELEMENTE
100
AcDbLine
 62
7
  6
CONTINUOUS
 10
118.4781098187
 20
85.2267702855
 11
118.0713155245
 21
85.0605204441
  0
LINE
  5
4D6
100
AcDbEntity
  8
KONSTRUKTIONSELEMENTE
100
AcDbLine
 62
7
  6
CONTINUOUS
 10
118.0713155245
 20
84.0630204441
 11
118.4781098187
 21
84.2292702855
  0
LINE
  5
4D7
100
AcDbEntity
  8
KONSTRUKTIONSELEMENTE
100
AcDbLine
 62
7
  6
CONTINUOUS
 10
114.8169606004
 20
81.4030206026
 11
115.3593529928
 21
81.5692699684
  0
LINE
  5
4D8
100
AcDbEntity
  8
KONSTRUKTIONSELEMENTE
100
AcDbLine
 62
7
  6
CONTINUOUS
 10
115.1202753721
 20
81.4030206026
 11
115.6626677644
 21
81.5692699684
  0
LWPOLYLINE
  5
4D9
100
AcDbEntity
  8
0
100
AcDbPolyline
 62
7
  6
CONTINUOUS
 90
14
 70
0
 10
39.267329881
 20
67.6910272425
 10
39.415744837
 20
67.7107621476
 10
39.7204323378
 20
67.7463646783
 10
40.06534059
 20
67.7809636304
 10
40.4416288889
 20
67.8137074825
 10
40.8418904292
 20
67.8441571353
 10
41.262162315
 20
67.87219353
 10
41.6984231826
 20
67.8977879067
 10
42.1478279051
 20
67.9209687067
 10
42.6077825099
 20
67.9417369234
 10
43.076524399
 20
67.9601871134
 10
43.5527831486
 20
67.9763884813
 10
44.0347158987
 20
67.9903507282
 10
44.5212804847
 20
68.0021563301
  0
LINE
  5
4DA
100
AcDbEntity
  8
KONSTRUKTIONSELEMENTE
100
AcDbLine
 62
7
  6
CONTINUOUS
 10
114.0033719169
 20
74.2542702855
 11
118.7493060149
 21
74.2542702855
  0
LINE
  5
4DB
100
AcDbEntity
  8
KONSTRUKTIONSELEMENTE
100
AcDbLine
 62
7
  6
CONTINUOUS
 10
119.7187917538
 20
75.2517702855
 11
113.1897832333
 21
75.2517702855
  0
LINE
  5
4DC
100
AcDbEntity
  8
0
100
AcDbLine
 62
7
  6
CONTINUOUS
 10
91.5186508208
 20
75.5642702855
 11
93.7833024338
 21
75.5642702855
  0
LINE
  5
4DD
100
AcDbEntity
  8
KONSTRUKTIONSELEMENTE
100
AcDbLine
 62
7
  6
CONTINUOUS
 10
115.3593529928
 20
76.5817699684
 11
119.7187917538
 21
76.5817699684
  0
LINE
  5
4DE
100
AcDbEntity
  8
0
100
AcDbLine
 62
7
  6
CONTINUOUS
 10
91.7884586827
 20
76.8142702855
 11
93.3946774639
 21
76.8142702855
  0
LINE
  5
4DF
100
AcDbEntity
  8
KONSTRUKTIONSELEMENTE
100
AcDbLine
 62
7
  6
CONTINUOUS
 10
119.7187917538
 20
77.5792699684
 11
115.3593529928
 21
77.5792699684
  0
LINE
  5
4E0
100
AcDbEntity
  8
KONSTRUKTIONSELEMENTE
100
AcDbLine
 62
7
  6
CONTINUOUS
 10
115.1202753721
 20
77.7455202855
 11
114.8169606004
 21
77.7455202855
  0
LINE
  5
4E1
100
AcDbEntity
  8
KONSTRUKTIONSELEMENTE
100
AcDbLine
 62
7
  6
CONTINUOUS
 10
114.7134810778
 20
78.0780199684
 11
114.4101663061
 21
78.0780199684
  0
LINE
  5
4E2
100
AcDbEntity
  8
KONSTRUKTIONSELEMENTE
100
AcDbLine
 62
7
  6
CONTINUOUS
 10
114.4422847866
 20
78.5767699684
 11
114.1389700149
 21
78.5767699684
  0
LINE
  5
4E3
100
AcDbEntity
  8
KONSTRUKTIONSELEMENTE
100
AcDbLine
 62
7
  6
CONTINUOUS
 10
114.3066866885
 20
79.2417702855
 11
114.0033719169
 21
79.2417702855
  0
LINE
  5
4E4
100
AcDbEntity
  8
BG_STARTBEZUEGE
100
AcDbLine
 62
2
  6
CENTER
 10
202.014833334
 20
79.5642702855
 11
21.674833334
 21
79.5642702855
  0
LINE
  5
4E5
100
AcDbEntity
  8
KONSTRUKTIONSELEMENTE
100
AcDbLine
 62
7
  6
CONTINUOUS
 10
160.1567391202
 20
79.5642702855
 11
170.514833334
 21
79.5642702855
  0
LINE
  5
4E6
100
AcDbEntity
  8
KONSTRUKTIONSELEMENTE
100
AcDbLine
 62
7
  6
CONTINUOUS
 10
114.3066866885
 20
79.9067706026
 11
114.0033719169
 21
79.9067706026
  0
LINE
  5
4E7
100
AcDbEntity
  8
KONSTRUKTIONSELEMENTE
100
AcDbLine
 62
7
  6
CONTINUOUS
 10
114.6813625023
 20
76.7480202855
 11
115.3593529928
 21
76.5817699684
  0
LINE
  5
4E8
100
AcDbEntity
  8
KONSTRUKTIONSELEMENTE
100
AcDbLine
 62
7
  6
CONTINUOUS
 10
115.3593529928
 20
77.5792699684
 11
114.8169606004
 21
77.7455202855
  0
LINE
  5
4E9
100
AcDbEntity
  8
KONSTRUKTIONSELEMENTE
100
AcDbLine
 62
7
  6
CONTINUOUS
 10
115.6626677644
 20
77.5792699684
 11
115.1202753721
 21
77.7455202855
  0
LINE
  5
4EA
100
AcDbEntity
  8
KONSTRUKTIONSELEMENTE
100
AcDbLine
 62
7
  6
CONTINUOUS
 10
90.484316953
 20
88.3562630979
 11
84.4101811562
 21
91.3311218022
  0
LINE
  5
4EB
100
AcDbEntity
  8
KONSTRUKTIONSELEMENTE
100
AcDbLine
 62
7
  6
CONTINUOUS
 10
85.8811318675
 20
91.8526679805
 11
91.0841411773
 21
88.8147325818
  0
LINE
  5
4EC
100
AcDbEntity
  8
KONSTRUKTIONSELEMENTE
100
AcDbLine
 62
7
  6
CONTINUOUS
 10
114.1389700149
 20
77.0805199684
 11
114.6813625023
 21
76.7480202855
  0
LINE
  5
4ED
100
AcDbEntity
  8
KONSTRUKTIONSELEMENTE
100
AcDbLine
 62
7
  6
CONTINUOUS
 10
114.8169606004
 20
69.7655202855
 11
114.4101663061
 21
70.0980209197
  0
LINE
  5
4EE
100
AcDbEntity
  8
KONSTRUKTIONSELEMENTE
100
AcDbLine
 62
7
  6
CONTINUOUS
 10
115.1202753721
 20
69.7655202855
 11
114.7134810778
 21
70.0980209197
  0
LINE
  5
4EF
100
AcDbEntity
  8
KONSTRUKTIONSELEMENTE
100
AcDbLine
 62
7
  6
CONTINUOUS
 10
114.8169606004
 20
77.7455202855
 11
114.4101663061
 21
78.0780199684
  0
LINE
  5
4F0
100
AcDbEntity
  8
KONSTRUKTIONSELEMENTE
100
AcDbLine
 62
7
  6
CONTINUOUS
 10
115.1202753721
 20
77.7455202855
 11
114.7134810778
 21
78.0780199684
  0
LWPOLYLINE
  5
4F1
100
AcDbEntity
  8
KONSTRUKTIONSELEMENTE
100
AcDbPolyline
 62
7
  6
CONTINUOUS
 90
10
 70
0
 10
85.4295457127
 20
94.1932031334
 10
85.187127132
 20
94.3961461529
 10
84.5840263281
 20
94.8413549389
 10
83.961831715
 20
95.231243493
 10
83.3218371602
 20
95.5671862735
 10
82.666458924
 20
95.8494970809
 10
81.9975765746
 20
96.0785130418
 10
81.3171498565
 20
96.2542593802
 10
80.6269070943
 20
96.3765505062
 10
80.5359410882
 20
96.3885764443
  0
LINE
  5
4F2
100
AcDbEntity
  8
KONSTRUKTIONSELEMENTE
100
AcDbLine
 62
7
  6
CONTINUOUS
 10
113.5965775751
 20
69.7655202855
 11
114.1389700149
 21
69.1005209197
  0
LINE
  5
4F3
100
AcDbEntity
  8
KONSTRUKTIONSELEMENTE
100
AcDbLine
 62
7
  6
CONTINUOUS
 10
113.5965775751
 20
77.7455202855
 11
114.1389700149
 21
77.0805199684
  0
LINE
  5
4F4
100
AcDbEntity
  8
KONSTRUKTIONSELEMENTE
100
AcDbLine
 62
7
  6
CONTINUOUS
 10
114.4101663061
 20
70.0980209197
 11
114.1389700149
 21
70.5967709197
  0
LINE
  5
4F5
100
AcDbEntity
  8
KONSTRUKTIONSELEMENTE
100
AcDbLine
 62
7
  6
CONTINUOUS
 10
114.7134810778
 20
70.0980209197
 11
114.4422847866
 21
70.5967709197
  0
LINE
  5
4F6
100
AcDbEntity
  8
KONSTRUKTIONSELEMENTE
100
AcDbLine
 62
7
  6
CONTINUOUS
 10
113.3253813433
 20
70.4305196513
 11
113.5965775751
 21
69.7655202855
  0
LINE
  5
4F7
100
AcDbEntity
  8
KONSTRUKTIONSELEMENTE
100
AcDbLine
 62
7
  6
CONTINUOUS
 10
113.3253813433
 20
78.4105206026
 11
113.5965775751
 21
77.7455202855
  0
LINE
  5
4F8
100
AcDbEntity
  8
KONSTRUKTIONSELEMENTE
100
AcDbLine
 62
7
  6
CONTINUOUS
 10
114.1389700149
 20
70.5967709197
 11
114.0033719169
 21
71.2617702855
  0
LINE
  5
4F9
100
AcDbEntity
  8
KONSTRUKTIONSELEMENTE
100
AcDbLine
 62
7
  6
CONTINUOUS
 10
114.4422847866
 20
70.5967709197
 11
114.3066866885
 21
71.2617702855
  0
LINE
  5
4FA
100
AcDbEntity
  8
KONSTRUKTIONSELEMENTE
100
AcDbLine
 62
7
  6
CONTINUOUS
 10
113.1897832333
 20
71.2617702855
 11
113.3253813433
 21
70.4305196513
  0
LINE
  5
4FB
100
AcDbEntity
  8
KONSTRUKTIONSELEMENTE
100
AcDbLine
 62
7
  6
CONTINUOUS
 10
113.1897832333
 20
90.2142702855
 11
113.1897832333
 21
89.2167702855
  0
LINE
  5
4FC
100
AcDbEntity
  8
KONSTRUKTIONSELEMENTE
100
AcDbLine
 62
7
  6
CONTINUOUS
 10
113.1897832333
 20
85.0605204441
 11
113.1897832333
 21
83.896770127
  0
LINE
  5
4FD
100
AcDbEntity
  8
KONSTRUKTIONSELEMENTE
100
AcDbLine
 62
7
  6
CONTINUOUS
 10
113.1897832333
 20
79.9067706026
 11
113.1897832333
 21
79.2417702855
  0
LINE
  5
4FE
100
AcDbEntity
  8
KONSTRUKTIONSELEMENTE
100
AcDbLine
 62
7
  6
CONTINUOUS
 10
113.1897832333
 20
75.2517702855
 11
113.1897832333
 21
71.2617702855
  0
LINE
  5
4FF
100
AcDbEntity
  8
KONSTRUKTIONSELEMENTE
100
AcDbLine
 62
7
  6
CONTINUOUS
 10
114.0033719169
 20
71.2617702855
 11
114.0033719169
 21
74.2542702855
  0
LINE
  5
500
100
AcDbEntity
  8
KONSTRUKTIONSELEMENTE
100
AcDbLine
 62
7
  6
CONTINUOUS
 10
114.0033719169
 20
79.2417702855
 11
114.0033719169
 21
79.9067706026
  0
LINE
  5
501
100
AcDbEntity
  8
KONSTRUKTIONSELEMENTE
100
AcDbLine
 62
7
  6
CONTINUOUS
 10
114.3066866885
 20
71.2617702855
 11
114.3066866885
 21
74.2542702855
  0
LINE
  5
502
100
AcDbEntity
  8
KONSTRUKTIONSELEMENTE
100
AcDbLine
 62
7
  6
CONTINUOUS
 10
114.3066866885
 20
79.2417702855
 11
114.3066866885
 21
79.9067706026
  0
LINE
  5
503
100
AcDbEntity
  8
KONSTRUKTIONSELEMENTE
100
AcDbLine
 62
7
  6
CONTINUOUS
 10
116.0373436732
 20
89.2167702855
 11
116.0373436732
 21
86.3905203648
  0
LINE
  5
504
100
AcDbEntity
  8
KONSTRUKTIONSELEMENTE
100
AcDbLine
 62
7
  6
CONTINUOUS
 10
116.8509322617
 20
86.0580204441
 11
116.8509322617
 21
89.2167702855
  0
LINE
  5
505
100
AcDbEntity
  8
KONSTRUKTIONSELEMENTE
100
AcDbLine
 62
7
  6
CONTINUOUS
 10
117.1463536965
 20
89.2167702855
 11
117.1463536965
 21
86.0580204441
  0
LINE
  5
506
100
AcDbEntity
  8
KONSTRUKTIONSELEMENTE
100
AcDbLine
 62
7
  6
CONTINUOUS
 10
118.7493060149
 20
74.2542702855
 11
118.7493060149
 21
71.2617702855
  0
LINE
  5
507
100
AcDbEntity
  8
KONSTRUKTIONSELEMENTE
100
AcDbLine
 62
7
  6
CONTINUOUS
 10
118.884904113
 20
89.2167702855
 11
118.884904113
 21
86.0580204441
  0
LINE
  5
508
100
AcDbEntity
  8
KONSTRUKTIONSELEMENTE
100
AcDbLine
 62
7
  6
CONTINUOUS
 10
119.5628946035
 20
71.2617702855
 11
119.5628946035
 21
75.2517702855
  0
LINE
  5
509
100
AcDbEntity
  8
KONSTRUKTIONSELEMENTE
100
AcDbLine
 62
7
  6
CONTINUOUS
 10
119.5628946035
 20
76.5817699684
 11
119.5628946035
 21
77.5792699684
  0
LINE
  5
50A
100
AcDbEntity
  8
KONSTRUKTIONSELEMENTE
100
AcDbLine
 62
7
  6
CONTINUOUS
 10
119.5628946035
 20
81.5692699684
 11
119.5628946035
 21
82.5667704441
  0
LINE
  5
50B
100
AcDbEntity
  8
KONSTRUKTIONSELEMENTE
100
AcDbLine
 62
7
  6
CONTINUOUS
 10
119.5628946035
 20
86.2242702855
 11
119.5628946035
 21
90.2142702855
  0
LINE
  5
50C
100
AcDbEntity
  8
KONSTRUKTIONSELEMENTE
100
AcDbLine
 62
7
  6
CONTINUOUS
 10
119.7187917538
 20
90.2142702855
 11
119.7187917538
 21
86.2242702855
  0
LINE
  5
50D
100
AcDbEntity
  8
KONSTRUKTIONSELEMENTE
100
AcDbLine
 62
7
  6
CONTINUOUS
 10
119.7187917538
 20
82.5667704441
 11
119.7187917538
 21
81.5692699684
  0
LINE
  5
50E
100
AcDbEntity
  8
KONSTRUKTIONSELEMENTE
100
AcDbLine
 62
7
  6
CONTINUOUS
 10
119.7187917538
 20
77.5792699684
 11
119.7187917538
 21
76.5817699684
  0
LINE
  5
50F
100
AcDbEntity
  8
KONSTRUKTIONSELEMENTE
100
AcDbLine
 62
7
  6
CONTINUOUS
 10
119.7187917538
 20
75.2517702855
 11
119.7187917538
 21
71.2617702855
  0
LINE
  5
510
100
AcDbEntity
  8
KONSTRUKTIONSELEMENTE
100
AcDbLine
 62
7
  6
CONTINUOUS
 10
113.3253813433
 20
80.7380202855
 11
113.1897832333
 21
79.9067706026
  0
LINE
  5
511
100
AcDbEntity
  8
KONSTRUKTIONSELEMENTE
100
AcDbLine
 62
7
  6
CONTINUOUS
 10
119.4272965054
 20
85.393020127
 11
119.5628946035
 21
86.2242702855
  0
LINE
  5
512
100
AcDbEntity
  8
KONSTRUKTIONSELEMENTE
100
AcDbLine
 62
7
  6
CONTINUOUS
 10
114.0033719169
 20
79.9067706026
 11
114.1389700149
 21
80.5717699684
  0
LINE
  5
513
100
AcDbEntity
  8
KONSTRUKTIONSELEMENTE
100
AcDbLine
 62
7
  6
CONTINUOUS
 10
114.3066866885
 20
79.9067706026
 11
114.4422847866
 21
80.5717699684
  0
LINE
  5
514
100
AcDbEntity
  8
KONSTRUKTIONSELEMENTE
100
AcDbLine
 62
7
  6
CONTINUOUS
 10
118.884904113
 20
86.0580204441
 11
118.7493060149
 21
85.5592704441
  0
LINE
  5
515
100
AcDbEntity
  8
KONSTRUKTIONSELEMENTE
100
AcDbLine
 62
7
  6
CONTINUOUS
 10
114.1389700149
 20
80.5717699684
 11
114.4101663061
 21
81.0705199684
  0
LINE
  5
516
100
AcDbEntity
  8
KONSTRUKTIONSELEMENTE
100
AcDbLine
 62
7
  6
CONTINUOUS
 10
114.4422847866
 20
80.5717699684
 11
114.7134810778
 21
81.0705199684
  0
LINE
  5
517
100
AcDbEntity
  8
KONSTRUKTIONSELEMENTE
100
AcDbLine
 62
7
  6
CONTINUOUS
 10
119.0205022111
 20
84.7280202855
 11
119.4272965054
 21
85.393020127
  0
LINE
  5
518
100
AcDbEntity
  8
KONSTRUKTIONSELEMENTE
100
AcDbLine
 62
7
  6
CONTINUOUS
 10
118.7493060149
 20
85.5592704441
 11
118.4781098187
 21
85.2267702855
  0
LINE
  5
519
100
AcDbEntity
  8
KONSTRUKTIONSELEMENTE
100
AcDbLine
 62
7
  6
CONTINUOUS
 10
118.4781098187
 20
84.2292702855
 11
119.0205022111
 21
84.7280202855
  0
LINE
  5
51A
100
AcDbEntity
  8
KONSTRUKTIONSELEMENTE
100
AcDbLine
 62
7
  6
CONTINUOUS
 10
115.3593529928
 20
82.5667704441
 11
114.6813625023
 21
82.400520127
  0
LINE
  5
51B
100
AcDbEntity
  8
KONSTRUKTIONSELEMENTE
100
AcDbLine
 62
7
  6
CONTINUOUS
 10
114.4422847866
 20
80.5717699684
 11
114.1389700149
 21
80.5717699684
  0
LINE
  5
51C
100
AcDbEntity
  8
KONSTRUKTIONSELEMENTE
100
AcDbLine
 62
7
  6
CONTINUOUS
 10
114.7134810778
 20
81.0705199684
 11
114.4101663061
 21
81.0705199684
  0
LINE
  5
51D
100
AcDbEntity
  8
KONSTRUKTIONSELEMENTE
100
AcDbLine
 62
7
  6
CONTINUOUS
 10
115.1202753721
 20
81.4030206026
 11
114.8169606004
 21
81.4030206026
  0
LINE
  5
51E
100
AcDbEntity
  8
KONSTRUKTIONSELEMENTE
100
AcDbLine
 62
7
  6
CONTINUOUS
 10
115.3593529928
 20
81.5692699684
 11
119.7187917538
 21
81.5692699684
  0
LINE
  5
51F
100
AcDbEntity
  8
KONSTRUKTIONSELEMENTE
100
AcDbLine
 62
7
  6
CONTINUOUS
 10
91.7884586827
 20
82.3142702855
 11
93.3946774639
 21
82.3142702855
  0
LINE
  5
520
100
AcDbEntity
  8
KONSTRUKTIONSELEMENTE
100
AcDbLine
 62
7
  6
CONTINUOUS
 10
119.7187917538
 20
82.5667704441
 11
115.3593529928
 21
82.5667704441
  0
LINE
  5
521
100
AcDbEntity
  8
KONSTRUKTIONSELEMENTE
100
AcDbLine
 62
7
  6
CONTINUOUS
 10
91.5186508208
 20
83.5642702855
 11
93.7833024338
 21
83.5642702855
  0
LINE
  5
522
100
AcDbEntity
  8
KONSTRUKTIONSELEMENTE
100
AcDbLine
 62
7
  6
CONTINUOUS
 10
113.493098005
 20
83.896770127
 11
113.1897832333
 21
83.896770127
  0
LINE
  5
523
100
AcDbEntity
  8
KONSTRUKTIONSELEMENTE
100
AcDbLine
 62
7
  6
CONTINUOUS
 10
117.5289227522
 20
84.0630204441
 11
118.3255741927
 21
84.0630204441
  0
LINE
  5
524
100
AcDbEntity
  8
KONSTRUKTIONSELEMENTE
100
AcDbLine
 62
7
  6
CONTINUOUS
 10
118.7108031673
 20
84.2292702855
 11
118.4781098187
 21
84.2292702855
  0
LINE
  5
525
100
AcDbEntity
  8
KONSTRUKTIONSELEMENTE
100
AcDbLine
 62
7
  6
CONTINUOUS
 10
119.21831354
 20
84.7280202855
 11
119.0205022111
 21
84.7280202855
  0
LINE
  5
526
100
AcDbEntity
  8
KONSTRUKTIONSELEMENTE
100
AcDbLine
 62
7
  6
CONTINUOUS
 10
118.0713155245
 20
85.0605204441
 11
117.6645208503
 21
85.0605204441
  0
LINE
  5
527
100
AcDbEntity
  8
KONSTRUKTIONSELEMENTE
100
AcDbLine
 62
7
  6
CONTINUOUS
 10
117.5433416037
 20
85.2267702855
 11
117.257726556
 21
85.2267702855
  0
LINE
  5
528
100
AcDbEntity
  8
KONSTRUKTIONSELEMENTE
100
AcDbLine
 62
7
  6
CONTINUOUS
 10
119.5943333796
 20
85.393020127
 11
119.4272965054
 21
85.393020127
  0
LINE
  5
529
100
AcDbEntity
  8
KONSTRUKTIONSELEMENTE
100
AcDbLine
 62
7
  6
CONTINUOUS
 10
117.2791173638
 20
85.5592704441
 11
116.9865303598
 21
85.5592704441
  0
LINE
  5
52A
100
AcDbEntity
  8
KONSTRUKTIONSELEMENTE
100
AcDbLine
 62
7
  6
CONTINUOUS
 10
117.1463536965
 20
86.0580204441
 11
116.8509322617
 21
86.0580204441
  0
LINE
  5
52B
100
AcDbEntity
  8
KONSTRUKTIONSELEMENTE
100
AcDbLine
 62
7
  6
CONTINUOUS
 10
119.7187917538
 20
86.2242702855
 11
119.5628946035
 21
86.2242702855
  0
LINE
  5
52C
100
AcDbEntity
  8
KONSTRUKTIONSELEMENTE
100
AcDbLine
 62
7
  6
CONTINUOUS
 10
117.1221284579
 20
84.2292702855
 11
117.5289227522
 21
84.0630204441
  0
LINE
  5
52D
100
AcDbEntity
  8
KONSTRUKTIONSELEMENTE
100
AcDbLine
 62
7
  6
CONTINUOUS
 10
117.6645208503
 20
85.0605204441
 11
117.257726556
 21
85.2267702855
  0
LINE
  5
52E
100
AcDbEntity
  8
KONSTRUKTIONSELEMENTE
100
AcDbLine
 62
7
  6
CONTINUOUS
 10
116.5797360656
 20
84.7280202855
 11
117.1221284579
 21
84.2292702855
  0
LINE
  5
52F
100
AcDbEntity
  8
KONSTRUKTIONSELEMENTE
100
AcDbLine
 62
7
  6
CONTINUOUS
 10
117.257726556
 20
85.2267702855
 11
116.9865303598
 21
85.5592704441
  0
LINE
  5
530
100
AcDbEntity
  8
KONSTRUKTIONSELEMENTE
100
AcDbLine
 62
7
  6
CONTINUOUS
 10
114.4101663061
 20
78.0780199684
 11
114.1389700149
 21
78.5767699684
  0
LINE
  5
531
100
AcDbEntity
  8
KONSTRUKTIONSELEMENTE
100
AcDbLine
 62
7
  6
CONTINUOUS
 10
114.7134810778
 20
78.0780199684
 11
114.4422847866
 21
78.5767699684
  0
LINE
  5
532
100
AcDbEntity
  8
KONSTRUKTIONSELEMENTE
100
AcDbLine
 62
7
  6
CONTINUOUS
 10
116.3085398694
 20
85.393020127
 11
116.5797360656
 21
84.7280202855
  0
LINE
  5
533
100
AcDbEntity
  8
KONSTRUKTIONSELEMENTE
100
AcDbLine
 62
7
  6
CONTINUOUS
 10
116.9865303598
 20
85.5592704441
 11
116.8509322617
 21
86.0580204441
  0
LINE
  5
534
100
AcDbEntity
  8
KONSTRUKTIONSELEMENTE
100
AcDbLine
 62
7
  6
CONTINUOUS
 10
114.1389700149
 20
78.5767699684
 11
114.0033719169
 21
79.2417702855
  0
LINE
  5
535
100
AcDbEntity
  8
KONSTRUKTIONSELEMENTE
100
AcDbLine
 62
7
  6
CONTINUOUS
 10
114.4422847866
 20
78.5767699684
 11
114.3066866885
 21
79.2417702855
  0
LINE
  5
536
100
AcDbEntity
  8
KONSTRUKTIONSELEMENTE
100
AcDbLine
 62
7
  6
CONTINUOUS
 10
113.1897832333
 20
79.2417702855
 11
113.3253813433
 21
78.4105206026
  0
LINE
  5
537
100
AcDbEntity
  8
0
100
AcDbLine
 62
7
  6
CONTINUOUS
 10
127.1425042578
 20
72.3899587979
 11
126.514833334
 21
79.5642702855
  0
LINE
  5
538
100
AcDbEntity
  8
0
100
AcDbLine
 62
7
  6
CONTINUOUS
 10
121.3950581563
 20
69.5642702855
 11
121.3950581563
 21
89.5642702855
  0
LINE
  5
539
100
AcDbEntity
  8
0
100
AcDbLine
 62
7
  6
CONTINUOUS
 10
126.0789897471
 20
69.5642702855
 11
126.0789897471
 21
89.5642702855
  0
LINE
  5
53A
100
AcDbEntity
  8
0
100
AcDbLine
 62
7
  6
CONTINUOUS
 10
126.2889306572
 20
89.5642702855
 11
126.2889306572
 21
69.5642702855
  0
LINE
  5
53B
100
AcDbEntity
  8
AUSFORMSCHRAEGEN
100
AcDbLine
 62
7
  6
CONTINUOUS
 10
126.514833334
 20
79.5642702855
 11
127.1425042578
 21
86.7385817732
  0
LINE
  5
53C
100
AcDbEntity
  8
KONSTRUKTIONSELEMENTE
100
AcDbLine
 62
7
  6
CONTINUOUS
 10
119.4272965054
 20
70.4305196513
 11
119.5628946035
 21
71.2617702855
  0
LINE
  5
53D
100
AcDbEntity
  8
KONSTRUKTIONSELEMENTE
100
AcDbLine
 62
7
  6
CONTINUOUS
 10
118.7493060149
 20
71.2617702855
 11
118.6137079168
 21
70.5967709197
  0
LINE
  5
53E
100
AcDbEntity
  8
KONSTRUKTIONSELEMENTE
100
AcDbLine
 62
7
  6
CONTINUOUS
 10
119.1561003092
 20
69.7655202855
 11
119.4272965054
 21
70.4305196513
  0
LINE
  5
53F
100
AcDbEntity
  8
KONSTRUKTIONSELEMENTE
100
AcDbLine
 62
7
  6
CONTINUOUS
 10
118.6137079168
 20
70.5967709197
 11
118.3425117206
 21
70.0980209197
  0
LINE
  5
540
100
AcDbEntity
  8
KONSTRUKTIONSELEMENTE
100
AcDbLine
 62
7
  6
CONTINUOUS
 10
118.6137079168
 20
69.1005209197
 11
119.1561003092
 21
69.7655202855
  0
LINE
  5
541
100
AcDbEntity
  8
KONSTRUKTIONSELEMENTE
100
AcDbLine
 62
7
  6
CONTINUOUS
 10
118.3425117206
 20
70.0980209197
 11
117.9357170465
 21
69.7655202855
  0
LINE
  5
542
100
AcDbEntity
  8
KONSTRUKTIONSELEMENTE
100
AcDbLine
 62
7
  6
CONTINUOUS
 10
118.0713155245
 20
68.7680202855
 11
118.6137079168
 21
69.1005209197
  0
LINE
  5
543
100
AcDbEntity
  8
KONSTRUKTIONSELEMENTE
100
AcDbLine
 62
7
  6
CONTINUOUS
 10
117.9357170465
 20
69.7655202855
 11
117.3933246541
 21
69.5992709197
  0
LINE
  5
544
100
AcDbEntity
  8
AUSFORMSCHRAEGEN
100
AcDbLine
 62
7
  6
CONTINUOUS
 10
141.6730491304
 20
97.3394289962
 11
150.0984594546
 21
98.5642702855
  0
LINE
  5
545
100
AcDbEntity
  8
KONSTRUKTIONSELEMENTE
100
AcDbLine
 62
7
  6
CONTINUOUS
 10
90.484316953
 20
88.3562630979
 11
89.4195496336
 21
88.2843123092
  0
LINE
  5
546
100
AcDbEntity
  8
KONSTRUKTIONSELEMENTE
100
AcDbLine
 62
7
  6
CONTINUOUS
 10
113.1897832333
 20
89.2167702855
 11
116.0373436732
 21
89.2167702855
  0
LINE
  5
547
100
AcDbEntity
  8
KONSTRUKTIONSELEMENTE
100
AcDbLine
 62
7
  6
CONTINUOUS
 10
116.8509322617
 20
89.2167702855
 11
118.884904113
 21
89.2167702855
  0
LINE
  5
548
100
AcDbEntity
  8
KONSTRUKTIONSELEMENTE
100
AcDbLine
 62
7
  6
CONTINUOUS
 10
121.3950581563
 20
89.5642702855
 11
128.8897199693
 21
89.5642702855
  0
LINE
  5
549
100
AcDbEntity
  8
KONSTRUKTIONSELEMENTE
100
AcDbLine
 62
7
  6
CONTINUOUS
 10
119.7187917538
 20
90.2142702855
 11
113.1897832333
 21
90.2142702855
  0
LINE
  5
54A
100
AcDbEntity
  8
KONSTRUKTIONSELEMENTE
100
AcDbLine
 62
7
  6
CONTINUOUS
 10
25.9251568584
 20
91.4602702855
 11
46.7724619138
 21
91.4602702855
  0
LINE
  5
54B
100
AcDbEntity
  8
KONSTRUKTIONSELEMENTE
100
AcDbLine
 62
7
  6
CONTINUOUS
 10
45.5843965285
 20
91.1082395379
 11
44.9324389586
 21
91.1180980612
  0
LWPOLYLINE
  5
54C
100
AcDbEntity
  8
KONSTRUKTIONSELEMENTE
100
AcDbPolyline
 62
7
  6
CONTINUOUS
 90
15
 70
0
 10
44.9324389586
 20
91.1180980612
 10
44.0328774788
 20
91.1382386909
 10
43.5877425138
 20
91.1510591635
 10
43.1478383369
 20
91.1657684813
 10
42.7138799367
 20
91.1823996894
 10
42.2871433634
 20
91.2009823401
 10
41.8689372925
 20
91.2215982653
 10
41.4608491174
 20
91.2442863316
 10
41.0652607359
 20
91.2690292746
 10
40.6846677048
 20
91.2958659211
 10
40.3225807445
 20
91.3247144363
 10
39.9823704664
 20
91.3554465876
 10
39.6702599407
 20
91.3876661765
 10
39.3936688387
 20
91.4205969578
 10
39.2670386928
 20
91.4375543885
  0
LINE
  5
54D
100
AcDbEntity
  8
0
100
AcDbLine
 62
7
  6
CONTINUOUS
 10
129.7532330783
 20
59.6942702855
 11
128.014833334
 21
79.5642702855
  0
LINE
  5
54E
100
AcDbEntity
  8
0
100
AcDbLine
 62
7
  6
CONTINUOUS
 10
129.7532330783
 20
99.4342702855
 11
128.014833334
 21
79.5642702855
  0
LINE
  5
54F
100
AcDbEntity
  8
KONSTRUKTIONSELEMENTE
100
AcDbLine
 62
7
  6
CONTINUOUS
 10
95.6892940072
 20
96.6903285681
 11
85.3610628418
 21
94.1765350521
  0
LINE
  5
550
100
AcDbEntity
  8
KONSTRUKTIONSELEMENTE
100
AcDbLine
 62
7
  6
CONTINUOUS
 10
106.9127085297
 20
98.79569081
 11
103.1818660953
 21
98.2471889407
  0
LINE
  5
551
100
AcDbEntity
  8
KONSTRUKTIONSELEMENTE
100
AcDbLine
 62
7
  6
CONTINUOUS
 10
107.9767407537
 20
98.8836893405
 11
129.7558824934
 21
99.2934523279
  0
LINE
  5
552
100
AcDbEntity
  8
KONSTRUKTIONSELEMENTE
100
AcDbLine
 62
7
  6
CONTINUOUS
 10
138.3244522274
 20
99.4546654177
 11
145.7451596455
 21
99.5942820875
  0
LINE
  5
553
100
AcDbEntity
  8
BEZUGSACHSEN
100
AcDbLine
 62
7
  6
CONTINUOUS
 10
113.7279669881
 20
96.9580339027
 11
113.6698790759
 21
96.9571376468
  0
LINE
  5
554
100
AcDbEntity
  8
KONSTRUKTIONSELEMENTE
100
AcDbLine
 62
7
  6
CONTINUOUS
 10
88.3921391739
 20
94.9142702855
 11
84.467666062
 21
94.9142702855
  0
LINE
  5
555
100
AcDbEntity
  8
KONSTRUKTIONSELEMENTE
100
AcDbLine
 62
7
  6
CONTINUOUS
 10
62.057510009
 20
96.4602702855
 11
74.7332268698
 21
96.4602702855
  0
LINE
  5
556
100
AcDbEntity
  8
KONSTRUKTIONSELEMENTE
100
AcDbLine
 62
7
  6
CONTINUOUS
 10
70.5375861784
 20
97.5642702855
 11
81.208913334
 21
97.5642702855
  0
LINE
  5
557
100
AcDbEntity
  8
AUSFORMSCHRAEGEN
100
AcDbLine
 62
7
  6
CONTINUOUS
 10
114.7264806187
 20
97.9518496409
 11
116.3362404208
 21
97.9518496409
  0
LINE
  5
558
100
AcDbEntity
  8
KONSTRUKTIONSELEMENTE
100
AcDbLine
 62
7
  6
CONTINUOUS
 10
129.7532330783
 20
99.4342702855
 11
138.324835951
 21
99.4342702855
  0
LINE
  5
559
100
AcDbEntity
  8
KONSTRUKTIONSELEMENTE
100
AcDbLine
 62
7
  6
CONTINUOUS
 10
79.4563550746
 20
96.4601136712
 11
75.8690211766
 21
96.4602702855
  0
LINE
  5
55A
100
AcDbEntity
  8
BEZUGSACHSEN
100
AcDbLine
 62
7
  6
CONTINUOUS
 10
146.5148333339
 20
107.0642702855
 11
154.3804351175
 21
107.0642702855
  0
LINE
  5
55B
100
AcDbEntity
  8
BEZUGSACHSEN
100
AcDbLine
 62
7
  6
CONTINUOUS
 10
146.514833334
 20
22.0642702855
 11
146.514833334
 21
52.0642702856
  0
LINE
  5
55C
100
AcDbEntity
  8
BEZUGSACHSEN
100
AcDbLine
 62
7
  6
CONTINUOUS
 10
146.514833334
 20
107.0642702855
 11
146.514833334
 21
137.0642702856
  0
LINE
  5
55D
100
AcDbEntity
  8
0
100
AcDbLine
 62
7
  6
CONTINUOUS
 10
138.324835951
 20
59.6942702855
 11
138.7635560564
 21
62.1823756431
  0
LINE
  5
55E
100
AcDbEntity
  8
KONSTRUKTIONSELEMENTE
100
AcDbLine
 62
7
  6
CONTINUOUS
 10
149.948028747
 20
95.8187783747
 11
155.4154720213
 21
109.6902702855
  0
LINE
  5
55F
100
AcDbEntity
  8
BEZUGSACHSEN
100
AcDbLine
 62
7
  6
CONTINUOUS
 10
197.014833334
 20
112.0642702855
 11
170.514833334
 21
112.0642702855
  0
LINE
  5
560
100
AcDbEntity
  8
0
100
AcDbLine
 62
2
  6
CONTINUOUS
 10
170.514833334
 20
113.5977702855
 11
199.014833334
 21
113.5977702855
  0
LINE
  5
561
100
AcDbEntity
  8
0
100
AcDbLine
 62
7
  6
CONTINUOUS
 10
149.948028747
 20
63.3097621964
 11
155.4154720213
 21
49.4382702855
  0
LINE
  5
562
100
AcDbEntity
  8
KONSTRUKTIONSELEMENTE
100
AcDbLine
 62
7
  6
CONTINUOUS
 10
138.324835951
 20
99.4342702855
 11
138.7635560564
 21
96.946164928
  0
LINE
  5
563
100
AcDbEntity
  8
0
100
AcDbLine
 62
7
  6
CONTINUOUS
 10
157.1022367062
 20
42.4812742089
 11
159.1072147514
 21
19.5642702855
  0
LINE
  5
564
100
AcDbEntity
  8
RUNDUNGEN
100
AcDbLine
 62
7
  6
CONTINUOUS
 10
157.1022367062
 20
116.6472663622
 11
159.1072147514
 21
139.5642702855
  0
LINE
  5
565
100
AcDbEntity
  8
BEZUGSACHSEN
100
AcDbLine
 62
7
  6
CONTINUOUS
 10
199.014833334
 20
114.0642702855
 11
197.014833334
 21
112.0642702855
  0
LINE
  5
566
100
AcDbEntity
  8
BEZUGSACHSEN
100
AcDbLine
 62
7
  6
CONTINUOUS
 10
157.5761631397
 20
122.0642702855
 11
147.8545792962
 21
122.0642702855
  0
LINE
  5
567
100
AcDbEntity
  8
BEZUGSACHSEN
100
AcDbLine
 62
2
  6
CENTER
 10
157.5761631397
 20
122.0642702855
 11
202.014833334
 21
122.0642702855
  0
LINE
  5
568
100
AcDbEntity
  8
BEZUGSACHSEN
100
AcDbLine
 62
7
  6
CONTINUOUS
 10
199.014833334
 20
45.0642702855
 11
197.014833334
 21
47.0642702855
  0
LINE
  5
569
100
AcDbEntity
  8
KONSTRUKTIONSELEMENTE
100
AcDbLine
 62
7
  6
CONTINUOUS
 10
158.514833334
 20
22.0642702855
 11
158.514833334
 21
26.3352208701
  0
LINE
  5
56A
100
AcDbEntity
  8
KONSTRUKTIONSELEMENTE
100
AcDbLine
 62
7
  6
CONTINUOUS
 10
158.514833334
 20
132.793319701
 11
158.514833334
 21
137.0642702855
  0
LINE
  5
56B
100
AcDbEntity
  8
0
100
AcDbLine
 62
2
  6
CONTINUOUS
 10
170.514833334
 20
130.5307702855
 11
199.014833334
 21
130.5307702855
  0
LINE
  5
56C
100
AcDbEntity
  8
BEZUGSACHSEN
100
AcDbLine
 62
7
  6
CONTINUOUS
 10
197.014833334
 20
132.0642702855
 11
170.514833334
 21
132.0642702855
  0
LINE
  5
56D
100
AcDbEntity
  8
BEZUGSACHSEN
100
AcDbLine
 62
7
  6
CONTINUOUS
 10
158.8010044291
 20
136.0642702855
 11
158.514833334
 21
136.0642702855
  0
LINE
  5
56E
100
AcDbEntity
  8
KONSTRUKTIONSELEMENTE
100
AcDbLine
 62
7
  6
CONTINUOUS
 10
170.514833334
 20
19.5642702855
 11
170.514833334
 21
139.5642702855
  0
LINE
  5
56F
100
AcDbEntity
  8
BEZUGSACHSEN
100
AcDbLine
 62
7
  6
CONTINUOUS
 10
158.514833334
 20
137.0642702855
 11
146.5148333339
 21
137.0642702855
  0
LINE
  5
570
100
AcDbEntity
  8
KONSTRUKTIONSELEMENTE
100
AcDbLine
 62
7
  6
CONTINUOUS
 10
160.1567391202
 20
139.5642702855
 11
170.514833334
 21
139.5642702855
  0
LINE
  5
571
100
AcDbEntity
  8
RUNDUNGEN
100
AcDbLine
 62
7
  6
CONTINUOUS
 10
159.1072147514
 20
139.5642702855
 11
170.514833334
 21
139.5642702855
  0
LINE
  5
572
100
AcDbEntity
  8
BEZUGSACHSEN
100
AcDbLine
 62
7
  6
CONTINUOUS
 10
197.014833334
 20
27.0642702855
 11
197.014833334
 21
47.0642702855
  0
LINE
  5
573
100
AcDbEntity
  8
BEZUGSACHSEN
100
AcDbLine
 62
7
  6
CONTINUOUS
 10
197.014833334
 20
112.0642702855
 11
197.014833334
 21
132.0642702855
  0
LINE
  5
574
100
AcDbEntity
  8
0
100
AcDbLine
 62
7
  6
CONTINUOUS
 10
199.014833334
 20
130.5307702855
 11
199.014833334
 21
113.5977702855
  0
LINE
  5
575
100
AcDbEntity
  8
0
100
AcDbLine
 62
7
  6
CONTINUOUS
 10
199.014833334
 20
45.5307702855
 11
199.014833334
 21
28.5977702855
  0
LINE
  5
576
100
AcDbEntity
  8
BEZUGSACHSEN
100
AcDbLine
 62
7
  6
CONTINUOUS
 10
199.014833334
 20
29.0649066613
 11
199.014833334
 21
45.0636339097
  0
LINE
  5
577
100
AcDbEntity
  8
BEZUGSACHSEN
100
AcDbLine
 62
7
  6
CONTINUOUS
 10
199.014833334
 20
114.0649066613
 11
199.014833334
 21
130.0636339097
  0
LINE
  5
578
100
AcDbEntity
  8
BEZUGSACHSEN
100
AcDbLine
 62
7
  6
CONTINUOUS
 10
199.014833334
 20
29.0642702855
 11
197.014833334
 21
27.0642702855
  0
LINE
  5
579
100
AcDbEntity
  8
BEZUGSACHSEN
100
AcDbLine
 62
7
  6
CONTINUOUS
 10
199.014833334
 20
130.0642702855
 11
197.014833334
 21
132.0642702855
  0
ARC
  5
57A
100
AcDbEntity
  8
0
100
AcDbCircle
 62
7
  6
CONTINUOUS
 10
97.674833334
 20
243.8901885727
 40
73.0
100
AcDbArc
 50
167.3734240923
 51
273.015306652
  0
ARC
  5
57B
100
AcDbEntity
  8
0
100
AcDbCircle
 62
7
  6
CONTINUOUS
 10
97.674833334
 20
243.8901885727
 40
71.7496800173
100
AcDbArc
 50
167.3734240923
 51
273.015306652
  0
ARC
  5
57C
100
AcDbEntity
  8
0
100
AcDbCircle
 62
7
  6
CONTINUOUS
 10
97.674833334
 20
243.8901885727
 40
61.44
100
AcDbArc
 50
156.5805443717
 51
273.767027135
  0
ARC
  5
57D
100
AcDbEntity
  8
0
100
AcDbCircle
 62
7
  6
CONTINUOUS
 10
101.514833334
 20
254.6421885727
 40
49.152
100
AcDbArc
 50
168.423283736
 51
295.3361329433
  0
ARC
  5
57E
100
AcDbEntity
  8
0
100
AcDbCircle
 62
7
  6
CONTINUOUS
 10
73.6762845733
 20
249.2661885727
 40
48.4066732909
100
AcDbArc
 50
128.692152864
 51
167.3734240923
  0
ARC
  5
57F
100
AcDbEntity
  8
0
100
AcDbCircle
 62
7
  6
CONTINUOUS
 10
73.6762845733
 20
249.2661885727
 40
47.1563533081
100
AcDbArc
 50
153.4552122978
 51
167.3734240923
  0
ARC
  5
580
100
AcDbEntity
  8
0
100
AcDbCircle
 62
7
  6
CONTINUOUS
 10
68.5605313107
 20
254.686055637
 40
39.8026807499
100
AcDbArc
 50
127.821548908
 51
135.2963408404
  0
ARC
  5
581
100
AcDbEntity
  8
0
100
AcDbCircle
 62
7
  6
CONTINUOUS
 10
101.514833334
 20
254.6421885727
 40
32.256
100
AcDbArc
 50
142.0
 51
322.0
  0
ARC
  5
582
100
AcDbEntity
  8
0
100
AcDbCircle
 62
7
  6
CONTINUOUS
 10
47.1322335269
 20
265.7823039648
 40
6.359884608
100
AcDbArc
 50
348.423283736
 51
156.5805443717
  0
ARC
  5
583
100
AcDbEntity
  8
0
100
AcDbCircle
 62
7
  6
CONTINUOUS
 10
37.4023176136
 20
390.0306723283
 40
109.1472141487
100
AcDbArc
 50
298.3186734554
 51
298.739163588
  0
ARC
  5
584
100
AcDbEntity
  8
0
100
AcDbCircle
 62
7
  6
CONTINUOUS
 10
16.0055789369
 20
334.8060285727
 40
84.48
100
AcDbArc
 50
322.0
 51
335.7550363583
  0
ARC
  5
585
100
AcDbEntity
  8
0
100
AcDbCircle
 62
7
  6
CONTINUOUS
 10
16.0055789369
 20
334.8060285727
 40
84.2394061753
100
AcDbArc
 50
331.2815245644
 51
335.6090271875
  0
ARC
  5
586
100
AcDbEntity
  8
0
100
AcDbCircle
 62
7
  6
CONTINUOUS
 10
84.394833334
 20
292.6066492951
 40
69.12
100
AcDbArc
 50
322.0
 51
360.0
  0
ARC
  5
587
100
AcDbEntity
  8
0
100
AcDbCircle
 62
7
  6
CONTINUOUS
 10
92.2636394947
 20
362.2105564504
 40
40.0
100
AcDbArc
 50
307.0
 51
350.1918441469
  0
ARC
  5
588
100
AcDbEntity
  8
0
100
AcDbCircle
 62
7
  6
CONTINUOUS
 10
91.6088526987
 20
339.8233594958
 40
25.5124460644
100
AcDbArc
 50
297.0011427723
 51
306.9907640251
  0
ARC
  5
589
100
AcDbEntity
  8
0
100
AcDbCircle
 62
7
  6
CONTINUOUS
 10
91.6465006642
 20
339.7700156801
 40
25.4471864409
100
AcDbArc
 50
306.9953247506
 51
335.090706388
  0
ARC
  5
58A
100
AcDbEntity
  8
0
100
AcDbCircle
 62
7
  6
CONTINUOUS
 10
92.1659498198
 20
338.798551463
 40
24.3482788631
100
AcDbArc
 50
278.3202597794
 51
292.3568345271
  0
ARC
  5
58B
100
AcDbEntity
  8
0
100
AcDbCircle
 62
7
  6
CONTINUOUS
 10
92.2208461928
 20
338.623935854
 40
24.1659125383
100
AcDbArc
 50
292.3939377985
 51
296.999396815
  0
ARC
  5
58C
100
AcDbEntity
  8
0
100
AcDbCircle
 62
7
  6
CONTINUOUS
 10
80.839592362
 20
297.3429885727
 40
15.36
100
AcDbArc
 50
55.7358586983
 51
122.2019944822
  0
ARC
  5
58D
100
AcDbEntity
  8
0
100
AcDbCircle
 62
7
  6
CONTINUOUS
 10
85.9156883253
 20
303.1092126673
 40
7.4793158083
100
AcDbArc
 50
335.5913338654
 51
3.4630161642
  0
ARC
  5
58E
100
AcDbEntity
  8
0
100
AcDbCircle
 62
7
  6
CONTINUOUS
 10
86.2160732669
 20
303.1885249053
 40
7.4788312483
100
AcDbArc
 50
335.7369112192
 51
3.9396108714
  0
ARC
  5
58F
100
AcDbEntity
  8
0
100
AcDbCircle
 62
7
  6
CONTINUOUS
 10
86.2772740163
 20
302.1130536139
 40
2.0
100
AcDbArc
 50
123.0
 51
214.7365015759
  0
ARC
  5
590
100
AcDbEntity
  8
0
100
AcDbCircle
 62
7
  6
CONTINUOUS
 10
97.706912362
 20
314.974794781
 40
1.4
100
AcDbArc
 50
25.8820318276
 51
182.3846210317
  0
ARC
  5
591
100
AcDbEntity
  8
0
100
AcDbCircle
 62
7
  6
CONTINUOUS
 10
100.631053685
 20
316.6774390548
 40
1.4
100
AcDbArc
 50
35.7444056065
 51
187.4542829352
  0
ARC
  5
592
100
AcDbEntity
  8
0
100
AcDbCircle
 62
7
  6
CONTINUOUS
 10
136.5526488916
 20
265.5802344007
 40
108.9613948504
100
AcDbArc
 50
80.0310339601
 51
82.9383680929
  0
ARC
  5
593
100
AcDbEntity
  8
0
100
AcDbCircle
 62
7
  6
CONTINUOUS
 10
160.1567391202
 20
270.7821885727
 40
104.86
100
AcDbArc
 50
90.0
 51
106.6292554642
  0
ARC
  5
594
100
AcDbEntity
  8
0
100
AcDbCircle
 62
7
  6
CONTINUOUS
 10
160.1567391202
 20
270.7821885727
 40
103.1216002557
100
AcDbArc
 50
102.2225980487
 51
105.8896236316
  0
ARC
  5
595
100
AcDbEntity
  8
0
100
AcDbCircle
 62
7
  6
CONTINUOUS
 10
125.834833334
 20
203.2766960315
 40
7.68
100
AcDbArc
 50
111.3613943932
 51
115.3361329433
  0
ARC
  5
596
100
AcDbEntity
  8
0
100
AcDbCircle
 62
7
  6
CONTINUOUS
 10
123.5709796169
 20
177.5438840502
 40
6.5256260925
100
AcDbArc
 50
62.3040607323
 51
64.4013781771
  0
ARC
  5
597
100
AcDbEntity
  8
0
100
AcDbCircle
 62
7
  6
CONTINUOUS
 10
140.514833334
 20
339.720063057
 40
68.0
100
AcDbArc
 50
214.7365015759
 51
221.8762173803
  0
ARC
  5
598
100
AcDbEntity
  8
BEZUGSACHSEN
100
AcDbCircle
 62
7
  6
CONTINUOUS
 10
188.4571685306
 20
317.759947905
 40
32.4880358839
100
AcDbArc
 50
187.8585135689
 51
189.0310495602
  0
ARC
  5
599
100
AcDbEntity
  8
0
100
AcDbCircle
 62
7
  6
CONTINUOUS
 10
140.514833334
 20
339.720063057
 40
22.7383997443
100
AcDbArc
 50
101.6387548987
 51
107.5858670094
  0
ARC
  5
59A
100
AcDbEntity
  8
0
100
AcDbCircle
 62
7
  6
CONTINUOUS
 10
140.514833334
 20
339.720063057
 40
21.0
100
AcDbArc
 50
100.1033142492
 51
113.3594464908
  0
ARC
  5
59B
100
AcDbEntity
  8
0
100
AcDbCircle
 62
7
  6
CONTINUOUS
 10
141.9152838672
 20
339.5232425701
 40
20.0
100
AcDbArc
 50
98.9275130641
 51
115.3561677678
  0
ARC
  5
59C
100
AcDbEntity
  8
0
100
AcDbCircle
 62
7
  6
CONTINUOUS
 10
140.514833334
 20
339.720063057
 40
14.0
100
AcDbArc
 50
264.8727689465
 51
270.0
  0
ARC
  5
59D
100
AcDbEntity
  8
0
100
AcDbCircle
 62
7
  6
CONTINUOUS
 10
140.514833334
 20
339.720063057
 40
14.0
100
AcDbArc
 50
138.8176693047
 51
171.3015155184
  0
ARC
  5
59E
100
AcDbEntity
  8
0
100
AcDbCircle
 62
7
  6
CONTINUOUS
 10
140.514833334
 20
339.720063057
 40
12.0
100
AcDbArc
 50
295.8400631278
 51
300.0115486828
  0
ARC
  5
59F
100
AcDbEntity
  8
0
100
AcDbCircle
 62
7
  6
CONTINUOUS
 10
144.554833334
 20
316.760063057
 40
8.96
100
AcDbArc
 50
77.361472434
 51
90.0
  0
CIRCLE
  5
5A0
100
AcDbEntity
  8
0
100
AcDbCircle
 62
7
  6
CONTINUOUS
 10
140.514833334
 20
339.720063057
 40
5.0
  0
ARC
  5
5A1
100
AcDbEntity
  8
0
100
AcDbCircle
 62
7
  6
CONTINUOUS
 10
137.535531708
 20
356.4455626278
 40
4.0112221899
100
AcDbArc
 50
78.2110548317
 51
100.1154640194
  0
ARC
  5
5A2
100
AcDbEntity
  8
0
100
AcDbCircle
 62
7
  6
CONTINUOUS
 10
137.5461279918
 20
356.4959532257
 40
3.9597295935
100
AcDbArc
 50
73.8231346974
 51
78.2121778698
  0
ARC
  5
5A3
100
AcDbEntity
  8
0
100
AcDbCircle
 62
7
  6
CONTINUOUS
 10
139.2771426003
 20
356.317295406
 40
3.0
100
AcDbArc
 50
37.0
 51
98.9275130641
  0
ARC
  5
5A4
100
AcDbEntity
  8
0
100
AcDbCircle
 62
7
  6
CONTINUOUS
 10
134.635136865
 20
354.8855164782
 40
3.0
100
AcDbArc
 50
115.3561677678
 51
170.1918441469
  0
ARC
  5
5A5
100
AcDbEntity
  8
0
100
AcDbCircle
 62
7
  6
CONTINUOUS
 10
131.0009390624
 20
368.3948397013
 40
2.9860913062
100
AcDbArc
 50
106.5938290185
 51
180.03542642
  0
ARC
  5
5A6
100
AcDbEntity
  8
0
100
AcDbCircle
 62
7
  6
CONTINUOUS
 10
132.7392732982
 20
367.0911339271
 40
2.9860239259
100
AcDbArc
 50
105.8527677266
 51
180.0368559053
  0
ARC
  5
5A7
100
AcDbEntity
  8
0
100
AcDbCircle
 62
7
  6
CONTINUOUS
 10
104.0968285288
 20
317.6613113695
 40
1.4
100
AcDbArc
 50
35.1091272942
 51
203.7982710701
  0
ARC
  5
5A8
100
AcDbEntity
  8
0
100
AcDbCircle
 62
7
  6
CONTINUOUS
 10
113.8074042445
 20
327.1073856477
 40
1.4
100
AcDbArc
 50
71.6153789683
 51
228.1179681724
  0
ARC
  5
5A9
100
AcDbEntity
  8
0
100
AcDbCircle
 62
7
  6
CONTINUOUS
 10
111.36471494
 20
324.7658329659
 40
1.4
100
AcDbArc
 50
66.5549996621
 51
218.2577066871
  0
ARC
  5
5AA
100
AcDbEntity
  8
0
100
AcDbCircle
 62
7
  6
CONTINUOUS
 10
109.4636591564
 20
321.7055083251
 40
1.4
100
AcDbArc
 50
50.2036493673
 51
218.8888868747
  0
ARC
  5
5AB
100
AcDbEntity
  8
0
100
AcDbCircle
 62
7
  6
CONTINUOUS
 10
106.479336331
 20
320.0827276023
 40
1.4
100
AcDbArc
 50
45.9752053111
 51
208.0404335021
  0
ARC
  5
5AC
100
AcDbEntity
  8
0
100
AcDbCircle
 62
7
  6
CONTINUOUS
 10
278.4037071041
 20
-307.2769715499
 40
681.8022427518
100
AcDbArc
 50
86.0388086813
 51
87.206558537
  0
ARC
  5
5AD
100
AcDbEntity
  8
KONSTRUKTIONSELEMENTE
100
AcDbCircle
 62
7
  6
CONTINUOUS
 10
223.9677386846
 20
541.4594554817
 40
220.9426998384
100
AcDbArc
 50
287.3247347318
 51
287.4474992724
  0
ARC
  5
5AE
100
AcDbEntity
  8
BEZUGSACHSEN
100
AcDbCircle
 62
7
  6
CONTINUOUS
 10
252.8771299929
 20
220.6421885727
 40
20.5
100
AcDbArc
 50
216.6640918519
 51
143.3359081481
  0
ARC
  5
5AF
100
AcDbEntity
  8
BEZUGSACHSEN
100
AcDbCircle
 62
7
  6
CONTINUOUS
 10
252.8771299929
 20
330.6421885727
 40
20.5
100
AcDbArc
 50
216.6640918519
 51
143.3359081481
  0
CIRCLE
  5
5B0
100
AcDbEntity
  8
BEZUGSACHSEN
100
AcDbCircle
 62
7
  6
CONTINUOUS
 10
252.8771299929
 20
220.6421885727
 40
15.0
  0
CIRCLE
  5
5B1
100
AcDbEntity
  8
BEZUGSACHSEN
100
AcDbCircle
 62
7
  6
CONTINUOUS
 10
252.8771299929
 20
330.6421885727
 40
15.0
  0
ARC
  5
5B2
100
AcDbEntity
  8
BEZUGSACHSEN
100
AcDbCircle
 62
7
  6
CONTINUOUS
 10
279.3899023745
 20
314.9719533907
 40
1.4128832376
100
AcDbArc
 50
169.0956823133
 51
174.8685931297
  0
ARC
  5
5B3
100
AcDbEntity
  8
BEZUGSACHSEN
100
AcDbCircle
 62
7
  6
CONTINUOUS
 10
279.3858962789
 20
327.1042533544
 40
1.4091380345
100
AcDbArc
 50
162.6683072897
 51
169.9225854215
  0
ARC
  5
5B4
100
AcDbEntity
  8
BEZUGSACHSEN
100
AcDbCircle
 62
7
  6
CONTINUOUS
 10
279.3771428162
 20
327.1074558886
 40
1.3999149437
100
AcDbArc
 50
36.9358875626
 51
162.6867033153
  0
ARC
  5
5B5
100
AcDbEntity
  8
BEZUGSACHSEN
100
AcDbCircle
 62
7
  6
CONTINUOUS
 10
279.377172379
 20
317.6614348671
 40
1.3998909468
100
AcDbArc
 50
14.0752584673
 51
181.2551245997
  0
ARC
  5
5B6
100
AcDbEntity
  8
BEZUGSACHSEN
100
AcDbCircle
 62
7
  6
CONTINUOUS
 10
279.3771103458
 20
321.7056215783
 40
1.3998637386
100
AcDbArc
 50
17.1277089056
 51
181.5343744354
  0
ARC
  5
5B7
100
AcDbEntity
  8
BEZUGSACHSEN
100
AcDbCircle
 62
7
  6
CONTINUOUS
 10
279.3797098584
 20
314.976148571
 40
1.3970959027
100
AcDbArc
 50
18.8668543607
 51
169.1149886804
  0
ARC
  5
5B8
100
AcDbEntity
  8
KONSTRUKTIONSELEMENTE
100
AcDbCircle
 62
7
  6
CONTINUOUS
 10
312.3505528817
 20
-307.2769715499
 40
681.8022427518
100
AcDbArc
 50
92.793441463
 51
93.9611913187
  0
ARC
  5
5B9
100
AcDbEntity
  8
KONSTRUKTIONSELEMENTE
100
AcDbCircle
 62
7
  6
CONTINUOUS
 10
288.5124076406
 20
224.4992896612
 40
8.4856120267
100
AcDbArc
 50
167.0945306352
 51
176.7215761348
  0
ARC
  5
5BA
100
AcDbEntity
  8
0
100
AcDbCircle
 62
7
  6
CONTINUOUS
 10
302.2418523452
 20
224.4992896612
 40
8.4856120267
100
AcDbArc
 50
3.2784238652
 51
12.9054693648
  0
ARC
  5
5BB
100
AcDbEntity
  8
0
100
AcDbCircle
 62
7
  6
CONTINUOUS
 10
302.3341636015
 20
224.5075592847
 40
8.392979449
100
AcDbArc
 50
1.5899315191
 51
3.2581010721
  0
ARC
  5
5BC
100
AcDbEntity
  8
KONSTRUKTIONSELEMENTE
100
AcDbCircle
 62
7
  6
CONTINUOUS
 10
288.4200963836
 20
224.5075592848
 40
8.3929794484
100
AcDbArc
 50
176.7418989279
 51
178.410068481
  0
ARC
  5
5BD
100
AcDbEntity
  8
KONSTRUKTIONSELEMENTE
100
AcDbCircle
 62
7
  6
CONTINUOUS
 10
288.386363705
 20
224.5084979437
 40
8.3592337126
100
AcDbArc
 50
178.4100845978
 51
179.9993849084
  0
ARC
  5
5BE
100
AcDbEntity
  8
0
100
AcDbCircle
 62
7
  6
CONTINUOUS
 10
302.3678962806
 20
224.5084979437
 40
8.3592337128
100
AcDbArc
 50
0.0006150916
 51
1.5899154021
  0
ARC
  5
5BF
100
AcDbEntity
  8
DEFAULT_2
100
AcDbCircle
 62
8
  6
HIDDEN
 10
302.7271299929
 20
213.7125881955
 40
8.0
100
AcDbArc
 50
27.4000169325
 51
85.0
  0
ARC
  5
5C0
100
AcDbEntity
  8
KONSTRUKTIONSELEMENTE
100
AcDbCircle
 62
8
  6
HIDDEN
 10
288.0271299929
 20
213.7125881955
 40
8.0
100
AcDbArc
 50
95.0
 51
152.5999830675
  0
ARC
  5
5C1
100
AcDbEntity
  8
KONSTRUKTIONSELEMENTE
100
AcDbCircle
 62
8
  6
HIDDEN
 10
287.5981172538
 20
213.766184953
 40
7.570987261
100
AcDbArc
 50
179.0431045646
 51
179.9997343181
  0
ARC
  5
5C2
100
AcDbEntity
  8
DEFAULT_2
100
AcDbCircle
 62
8
  6
HIDDEN
 10
303.156142732
 20
213.766184953
 40
7.570987261
100
AcDbArc
 50
0.0002656819
 51
0.9568954354
  0
ARC
  5
5C3
100
AcDbEntity
  8
KONSTRUKTIONSELEMENTE
100
AcDbCircle
 62
7
  6
CONTINUOUS
 10
283.3340926215
 20
180.5185671894
 40
3.7229977056
100
AcDbArc
 50
128.5800734762
 51
131.1523005497
  0
ARC
  5
5C4
100
AcDbEntity
  8
0
100
AcDbCircle
 62
7
  6
CONTINUOUS
 10
307.4201673642
 20
180.5185671893
 40
3.7229977058
100
AcDbArc
 50
48.8476994504
 51
51.4199265237
  0
ARC
  5
5C5
100
AcDbEntity
  8
0
100
AcDbCircle
 62
7
  6
CONTINUOUS
 10
307.7271299929
 20
208.4901885727
 40
3.0
100
AcDbArc
 50
270.0
 51
360.0
  0
ARC
  5
5C6
100
AcDbEntity
  8
KONSTRUKTIONSELEMENTE
100
AcDbCircle
 62
7
  6
CONTINUOUS
 10
283.0271299929
 20
208.4901885727
 40
3.0
100
AcDbArc
 50
180.0
 51
270.0
  0
ARC
  5
5C7
100
AcDbEntity
  8
KONSTRUKTIONSELEMENTE
100
AcDbCircle
 62
7
  6
CONTINUOUS
 10
282.6127783012
 20
181.4250789922
 40
2.5645267171
100
AcDbArc
 50
118.9586334478
 51
128.6120089227
  0
ARC
  5
5C8
100
AcDbEntity
  8
0
100
AcDbCircle
 62
7
  6
CONTINUOUS
 10
308.1414816847
 20
181.4250789922
 40
2.5645267171
100
AcDbArc
 50
51.3879910773
 51
61.0413665522
  0
ARC
  5
5C9
100
AcDbEntity
  8
KONSTRUKTIONSELEMENTE
100
AcDbCircle
 62
7
  6
CONTINUOUS
 10
282.2870701499
 20
286.1601633189
 40
3.103285889
100
AcDbArc
 50
193.8645534589
 51
198.9615304078
  0
ARC
  5
5CA
100
AcDbEntity
  8
KONSTRUKTIONSELEMENTE
100
AcDbCircle
 62
7
  6
CONTINUOUS
 10
282.1516370506
 20
286.127304313
 40
2.963924776
100
AcDbArc
 50
183.3055012066
 51
193.8752209665
  0
ARC
  5
5CB
100
AcDbEntity
  8
BEZUGSACHSEN
100
AcDbCircle
 62
7
  6
CONTINUOUS
 10
283.3771189517
 20
320.0827469719
 40
1.3999757322
100
AcDbArc
 50
30.2069852237
 51
188.9119780982
  0
ARC
  5
5CC
100
AcDbEntity
  8
0
100
AcDbCircle
 62
7
  6
CONTINUOUS
 10
307.3771409214
 20
320.0827470976
 40
1.399975605
100
AcDbArc
 50
351.0880219018
 51
149.7930169023
  0
ARC
  5
5CD
100
AcDbEntity
  8
0
100
AcDbCircle
 62
7
  6
CONTINUOUS
 10
307.3770989171
 20
316.6775323817
 40
1.3998971441
100
AcDbArc
 50
357.7818676548
 51
148.5484805194
  0
ARC
  5
5CE
100
AcDbEntity
  8
BEZUGSACHSEN
100
AcDbCircle
 62
7
  6
CONTINUOUS
 10
283.3771610687
 20
316.6775323816
 40
1.3998971442
100
AcDbArc
 50
31.4515194807
 51
182.2181323452
  0
ARC
  5
5CF
100
AcDbEntity
  8
BEZUGSACHSEN
100
AcDbCircle
 62
7
  6
CONTINUOUS
 10
283.37710825
 20
324.76594066
 40
1.3998840152
100
AcDbArc
 50
46.5322248855
 51
183.384912689
  0
ARC
  5
5D0
100
AcDbEntity
  8
0
100
AcDbCircle
 62
7
  6
CONTINUOUS
 10
307.3771516869
 20
324.7659406427
 40
1.3998840092
100
AcDbArc
 50
356.6150873111
 51
133.4677731751
  0
ARC
  5
5D1
100
AcDbEntity
  8
0
100
AcDbCircle
 62
7
  6
CONTINUOUS
 10
307.9318323881
 20
324.7332487566
 40
0.8443249667
100
AcDbArc
 50
346.2038748281
 51
356.5994247398
  0
ARC
  5
5D2
100
AcDbEntity
  8
BEZUGSACHSEN
100
AcDbCircle
 62
7
  6
CONTINUOUS
 10
282.8224275977
 20
324.7332487566
 40
0.8443249667
100
AcDbArc
 50
183.4005752602
 51
193.7961251718
  0
ARC
  5
5D3
100
AcDbEntity
  8
BEZUGSACHSEN
100
AcDbCircle
 62
7
  6
CONTINUOUS
 10
337.8771299929
 20
220.6421885727
 40
20.5
100
AcDbArc
 50
36.6640918519
 51
323.3359081481
  0
CIRCLE
  5
5D4
100
AcDbEntity
  8
BEZUGSACHSEN
100
AcDbCircle
 62
7
  6
CONTINUOUS
 10
337.8771299929
 20
220.6421885727
 40
15.0
  0
ARC
  5
5D5
100
AcDbEntity
  8
BEZUGSACHSEN
100
AcDbCircle
 62
7
  6
CONTINUOUS
 10
337.8771299929
 20
330.6421885727
 40
20.5
100
AcDbArc
 50
36.6640918519
 51
323.3359081481
  0
CIRCLE
  5
5D6
100
AcDbEntity
  8
BEZUGSACHSEN
100
AcDbCircle
 62
7
  6
CONTINUOUS
 10
337.8771299929
 20
330.6421885727
 40
15.0
  0
ARC
  5
5D7
100
AcDbEntity
  8
0
100
AcDbCircle
 62
7
  6
CONTINUOUS
 10
311.3643576114
 20
314.9719533907
 40
1.4128832376
100
AcDbArc
 50
5.1314068703
 51
10.9043176867
  0
ARC
  5
5D8
100
AcDbEntity
  8
0
100
AcDbCircle
 62
7
  6
CONTINUOUS
 10
311.3683637069
 20
327.1042533544
 40
1.4091380344
100
AcDbArc
 50
10.0774145785
 51
17.3316927103
  0
ARC
  5
5D9
100
AcDbEntity
  8
0
100
AcDbCircle
 62
7
  6
CONTINUOUS
 10
311.3771172795
 20
327.1074559864
 40
1.3999148885
100
AcDbArc
 50
17.3132942015
 51
143.064118339
  0
ARC
  5
5DA
100
AcDbEntity
  8
0
100
AcDbCircle
 62
7
  6
CONTINUOUS
 10
311.3770876069
 20
317.661434867
 40
1.3998909468
100
AcDbArc
 50
358.7448753999
 51
165.9247415327
  0
ARC
  5
5DB
100
AcDbEntity
  8
0
100
AcDbCircle
 62
7
  6
CONTINUOUS
 10
311.3771495575
 20
321.7056216228
 40
1.3998637137
100
AcDbArc
 50
358.4656255642
 51
162.8722918383
  0
ARC
  5
5DC
100
AcDbEntity
  8
0
100
AcDbCircle
 62
7
  6
CONTINUOUS
 10
311.3745501275
 20
314.976148571
 40
1.3970959027
100
AcDbArc
 50
10.8850132187
 51
161.1331456393
  0
ARC
  5
5DD
100
AcDbEntity
  8
0
100
AcDbCircle
 62
7
  6
CONTINUOUS
 10
-19.1567356729
 20
-470.313888521
 40
544.9902853685
100
AcDbArc
 50
77.6804330679
 51
77.8348400735
  0
ARC
  5
5DE
100
AcDbEntity
  8
0
100
AcDbCircle
 62
7
  6
CONTINUOUS
 10
-9.5806018368
 20
-426.6777250408
 40
500.3157072309
100
AcDbArc
 50
77.180762493
 51
77.630332513
  0
ARC
  5
5DF
100
AcDbEntity
  8
0
100
AcDbCircle
 62
7
  6
CONTINUOUS
 10
38.9426502938
 20
69.993245394
 40
2.3249751534
100
AcDbArc
 50
270.0112668104
 51
278.0274390091
  0
ARC
  5
5E0
100
AcDbEntity
  8
KONSTRUKTIONSELEMENTE
100
AcDbCircle
 62
7
  6
CONTINUOUS
 10
-19.1567356736
 20
629.4424290954
 40
544.9902853719
100
AcDbArc
 50
282.1651599265
 51
282.3195669321
  0
ARC
  5
5E1
100
AcDbEntity
  8
KONSTRUKTIONSELEMENTE
100
AcDbCircle
 62
7
  6
CONTINUOUS
 10
-9.5806018363
 20
585.8062656095
 40
500.3157072286
100
AcDbArc
 50
282.369667487
 51
282.819237507
  0
ARC
  5
5E2
100
AcDbEntity
  8
KONSTRUKTIONSELEMENTE
100
AcDbCircle
 62
7
  6
CONTINUOUS
 10
38.9426511377
 20
89.1353079461
 40
2.3249623842
100
AcDbArc
 50
81.9797845305
 51
89.9887539234
  0
ARC
  5
5E3
100
AcDbEntity
  8
KONSTRUKTIONSELEMENTE
100
AcDbCircle
 62
7
  6
CONTINUOUS
 10
107.0155569122
 20
-117.4032923935
 40
215.6174050008
100
AcDbArc
 50
90.0149380921
 51
91.0161588464
  0
ARC
  5
5E4
100
AcDbEntity
  8
0
100
AcDbCircle
 62
7
  6
CONTINUOUS
 10
133.384833334
 20
40.4062702855
 40
23.808
100
AcDbArc
 50
5.0
 51
22.2924506164
  0
ARC
  5
5E5
100
AcDbEntity
  8
0
100
AcDbCircle
 62
7
  6
CONTINUOUS
 10
133.384833334
 20
40.4062702855
 40
23.808
100
AcDbArc
 50
29.3189693992
 51
53.3866661905
  0
ARC
  5
5E6
100
AcDbEntity
  8
0
100
AcDbCircle
 62
7
  6
CONTINUOUS
 10
103.4440870125
 20
69.9949466663
 40
9.0548126354
100
AcDbArc
 50
257.1311347259
 51
261.6312123052
  0
ARC
  5
5E7
100
AcDbEntity
  8
0
100
AcDbCircle
 62
7
  6
CONTINUOUS
 10
144.514833334
 20
61.1682702855
 40
5.84
100
AcDbArc
 50
21.5118605372
 51
170.0
  0
ARC
  5
5E8
100
AcDbEntity
  8
0
100
AcDbCircle
 62
7
  6
CONTINUOUS
 10
84.361929297
 20
67.5871731319
 40
2.6474060823
100
AcDbArc
 50
284.5841665328
 51
288.2081621256
  0
ARC
  5
5E9
100
AcDbEntity
  8
0
100
AcDbCircle
 62
7
  6
CONTINUOUS
 10
129.1348936538
 20
72.5642702855
 40
2.0
100
AcDbArc
 50
185.0000000612
 51
260.3258303522
  0
ARC
  5
5EA
100
AcDbEntity
  8
0
100
AcDbCircle
 62
7
  6
CONTINUOUS
 10
113.8104947625
 20
63.5779265781
 40
1.4137853017
100
AcDbArc
 50
258.766849821
 51
264.2926392325
  0
ARC
  5
5EB
100
AcDbEntity
  8
0
100
AcDbCircle
 62
7
  6
CONTINUOUS
 10
106.4789665039
 20
67.5678977649
 40
1.4036275281
100
AcDbArc
 50
270.015096267
 51
281.6244013438
  0
ARC
  5
5EC
100
AcDbEntity
  8
0
100
AcDbCircle
 62
7
  6
CONTINUOUS
 10
100.6311448763
 20
67.5643196412
 40
1.4000644198
100
AcDbArc
 50
160.1178405662
 51
275.523655288
  0
ARC
  5
5ED
100
AcDbEntity
  8
0
100
AcDbCircle
 62
7
  6
CONTINUOUS
 10
106.4793884577
 20
67.5643003893
 40
1.3999905545
100
AcDbArc
 50
128.7588579087
 51
269.9978667336
  0
ARC
  5
5EE
100
AcDbEntity
  8
0
100
AcDbCircle
 62
7
  6
CONTINUOUS
 10
104.0967909955
 20
63.5642886327
 40
1.3999275413
100
AcDbArc
 50
114.8677417625
 51
272.2201313123
  0
ARC
  5
5EF
100
AcDbEntity
  8
0
100
AcDbCircle
 62
7
  6
CONTINUOUS
 10
113.8073687085
 20
63.5643096809
 40
1.399921671
100
AcDbArc
 50
111.1249943202
 51
258.7837775706
  0
ARC
  5
5F0
100
AcDbEntity
  8
0
100
AcDbCircle
 62
7
  6
CONTINUOUS
 10
111.3646421036
 20
67.5642932171
 40
1.399892005
100
AcDbArc
 50
126.4173168915
 51
272.5925219628
  0
ARC
  5
5F1
100
AcDbEntity
  8
0
100
AcDbCircle
 62
7
  6
CONTINUOUS
 10
109.4635620875
 20
63.5642821026
 40
1.3998676291
100
AcDbArc
 50
107.45992796
 51
271.5562075641
  0
ARC
  5
5F2
100
AcDbEntity
  8
0
100
AcDbCircle
 62
7
  6
CONTINUOUS
 10
97.7066169245
 20
63.5641505335
 40
1.399629503
100
AcDbArc
 50
166.4860061513
 51
246.8422343401
  0
ARC
  5
5F3
100
AcDbEntity
  8
0
100
AcDbCircle
 62
7
  6
CONTINUOUS
 10
104.1102600568
 20
63.2153804091
 40
1.0508500895
100
AcDbArc
 50
272.2254284891
 51
284.8027547551
  0
ARC
  5
5F4
100
AcDbEntity
  8
0
100
AcDbCircle
 62
7
  6
CONTINUOUS
 10
107.0155569122
 20
276.5318329646
 40
215.6174050008
100
AcDbArc
 50
268.9838411536
 51
269.9850619079
  0
ARC
  5
5F5
100
AcDbEntity
  8
BEZUGSACHSEN
100
AcDbCircle
 62
7
  6
CONTINUOUS
 10
133.384833334
 20
118.7222702855
 40
23.808
100
AcDbArc
 50
306.6171908063
 51
330.6813966073
  0
ARC
  5
5F6
100
AcDbEntity
  8
KONSTRUKTIONSELEMENTE
100
AcDbCircle
 62
7
  6
CONTINUOUS
 10
133.384833334
 20
118.7222702855
 40
23.808
100
AcDbArc
 50
337.7075493836
 51
355.0
  0
ARC
  5
5F7
100
AcDbEntity
  8
KONSTRUKTIONSELEMENTE
100
AcDbCircle
 62
7
  6
CONTINUOUS
 10
103.4440870125
 20
89.1335939048
 40
9.0548126354
100
AcDbArc
 50
98.3687876948
 51
102.8688652741
  0
ARC
  5
5F8
100
AcDbEntity
  8
KONSTRUKTIONSELEMENTE
100
AcDbCircle
 62
7
  6
CONTINUOUS
 10
144.514833334
 20
97.9602702855
 40
5.84
100
AcDbArc
 50
190.0
 51
338.4881394628
  0
ARC
  5
5F9
100
AcDbEntity
  8
KONSTRUKTIONSELEMENTE
100
AcDbCircle
 62
7
  6
CONTINUOUS
 10
79.4033817988
 20
91.2590075433
 40
5.2012627422
100
AcDbArc
 50
89.6825883529
 51
89.9999993223
  0
ARC
  5
5FA
100
AcDbEntity
  8
KONSTRUKTIONSELEMENTE
100
AcDbCircle
 62
7
  6
CONTINUOUS
 10
79.4280193682
 20
91.7806449112
 40
4.6795781583
100
AcDbArc
 50
83.0257300023
 51
88.2205865076
  0
ARC
  5
5FB
100
AcDbEntity
  8
KONSTRUKTIONSELEMENTE
100
AcDbCircle
 62
7
  6
CONTINUOUS
 10
79.9469026896
 20
91.7538751581
 40
4.6719830977
100
AcDbArc
 50
82.7569355782
 51
89.3950460384
  0
ARC
  5
5FC
100
AcDbEntity
  8
KONSTRUKTIONSELEMENTE
100
AcDbCircle
 62
7
  6
CONTINUOUS
 10
79.4294975788
 20
91.8099906856
 40
4.6502006686
100
AcDbArc
 50
88.2275635212
 51
89.6690831564
  0
ARC
  5
5FD
100
AcDbEntity
  8
KONSTRUKTIONSELEMENTE
100
AcDbCircle
 62
7
  6
CONTINUOUS
 10
84.361929297
 20
91.5413674392
 40
2.6474060823
100
AcDbArc
 50
71.7918378744
 51
75.4158334672
  0
ARC
  5
5FE
100
AcDbEntity
  8
KONSTRUKTIONSELEMENTE
100
AcDbCircle
 62
7
  6
CONTINUOUS
 10
129.1348936538
 20
86.5642702855
 40
2.0
100
AcDbArc
 50
99.6741696478
 51
174.9999999388
  0
ARC
  5
5FF
100
AcDbEntity
  8
BEZUGSACHSEN
100
AcDbCircle
 62
7
  6
CONTINUOUS
 10
113.8104947625
 20
95.550613993
 40
1.4137853017
100
AcDbArc
 50
95.7073607675
 51
101.233150179
  0
ARC
  5
600
100
AcDbEntity
  8
BEZUGSACHSEN
100
AcDbCircle
 62
7
  6
CONTINUOUS
 10
106.4789665039
 20
91.5606428062
 40
1.4036275281
100
AcDbArc
 50
78.3755986562
 51
89.984903733
  0
ARC
  5
601
100
AcDbEntity
  8
BEZUGSACHSEN
100
AcDbCircle
 62
7
  6
CONTINUOUS
 10
100.6311448763
 20
91.5642209299
 40
1.4000644198
100
AcDbArc
 50
84.476344712
 51
199.8821594331
  0
ARC
  5
602
100
AcDbEntity
  8
BEZUGSACHSEN
100
AcDbCircle
 62
7
  6
CONTINUOUS
 10
106.4793883025
 20
91.5642401339
 40
1.3999902313
100
AcDbArc
 50
90.0021269136
 51
231.2411458183
  0
ARC
  5
603
100
AcDbEntity
  8
BEZUGSACHSEN
100
AcDbCircle
 62
7
  6
CONTINUOUS
 10
104.0967908933
 20
95.5642519147
 40
1.3999274256
100
AcDbArc
 50
87.7798686877
 51
245.132261622
  0
ARC
  5
604
100
AcDbEntity
  8
BEZUGSACHSEN
100
AcDbCircle
 62
7
  6
CONTINUOUS
 10
113.8073687084
 20
95.5642308902
 40
1.3999216709
100
AcDbArc
 50
101.2162224277
 51
248.8750056816
  0
ARC
  5
605
100
AcDbEntity
  8
BEZUGSACHSEN
100
AcDbCircle
 62
7
  6
CONTINUOUS
 10
111.3646421037
 20
91.564247354
 40
1.3998920061
100
AcDbArc
 50
87.4074780371
 51
233.5826831049
  0
ARC
  5
606
100
AcDbEntity
  8
BEZUGSACHSEN
100
AcDbCircle
 62
7
  6
CONTINUOUS
 10
109.4635620913
 20
95.5642584688
 40
1.3998676291
100
AcDbArc
 50
88.4437924359
 51
252.5400718957
  0
ARC
  5
607
100
AcDbEntity
  8
BEZUGSACHSEN
100
AcDbCircle
 62
7
  6
CONTINUOUS
 10
97.7066169286
 20
95.5643900457
 40
1.399629503
100
AcDbArc
 50
113.1577659422
 51
193.513994131
  0
ARC
  5
608
100
AcDbEntity
  8
BEZUGSACHSEN
100
AcDbCircle
 62
7
  6
CONTINUOUS
 10
104.1102600568
 20
95.9131601619
 40
1.0508500895
100
AcDbArc
 50
75.1972452449
 51
87.7745715109
  0
SPLINE
  5
609
100
AcDbEntity
  8
BEZUGSACHSEN
100
AcDbSpline
 62
7
  6
CONTINUOUS
 70
0
 71
3
 72
11
 73
7
 74
0
 42
0.0000001
 43
0.0000001
 44
0.0000000001
 40
0.0
 40
0.0
 40
0.0
 40
0.0
 40
0.2404100007
 40
0.4855110071
 40
0.738364343
 40
1.0
 40
1.0
 40
1.0
 40
1.0
 10
146.5148333064
 20
233.6325699693
 30
0.0
 10
146.5148333064
 20
233.9998270086
 30
0.0
 10
146.578853611
 20
234.742883807
 30
0.0
 10
146.8554409352
 20
235.8404466862
 30
0.0
 10
147.287731292
 20
236.9202021734
 30
0.0
 10
147.6547383235
 20
237.6165619304
 30
0.0
 10
147.8545792962
 20
237.9626966484
 30
0.0
  0
SPLINE
  5
60A
100
AcDbEntity
  8
BEZUGSACHSEN
100
AcDbSpline
 62
7
  6
CONTINUOUS
 70
0
 71
3
 72
11
 73
7
 74
0
 42
0.0000001
 43
0.0000001
 44
0.0000000001
 40
0.0
 40
0.0
 40
0.0
 40
0.0
 40
0.2404100005
 40
0.4855110066
 40
0.7383643424
 40
1.0
 40
1.0
 40
1.0
 40
1.0
 10
146.514833334
 20
207.6518075153
 30
0.0
 10
146.514833334
 20
208.0190645813
 30
0.0
 10
146.5788535381
 20
208.7621214411
 30
0.0
 10
146.8554408842
 20
209.8596844065
 30
0.0
 10
147.2877312488
 20
210.9394399807
 30
0.0
 10
147.6547383083
 20
211.6357997905
 30
0.0
 10
147.8545792962
 20
211.9819345349
 30
0.0
  0
SPLINE
  5
60B
100
AcDbEntity
  8
BEZUGSACHSEN
100
AcDbSpline
 62
7
  6
CONTINUOUS
 70
0
 71
3
 72
11
 73
7
 74
0
 42
0.0000001
 43
0.0000001
 44
0.0000000001
 40
0.0
 40
0.0
 40
0.0
 40
0.0
 40
0.2616356616
 40
0.5144890271
 40
0.7595900246
 40
1.0
 40
1.0
 40
1.0
 40
1.0
 10
147.8545792962
 20
203.3216804971
 30
0.0
 10
147.6547383053
 20
203.6678152467
 30
0.0
 10
147.2877312177
 20
204.3641750997
 30
0.0
 10
146.8554408506
 20
205.4439307155
 30
0.0
 10
146.5788535279
 20
206.54149368
 30
0.0
 10
146.5148333341
 20
207.2845504877
 30
0.0
 10
146.514833334
 20
207.6518075153
 30
0.0
  0
SPLINE
  5
60C
100
AcDbEntity
  8
BEZUGSACHSEN
100
AcDbSpline
 62
7
  6
CONTINUOUS
 70
0
 71
3
 72
10
 73
6
 74
0
 42
0.0000001
 43
0.0000001
 44
0.0000000001
 40
0.0
 40
0.0
 40
0.0
 40
0.0
 40
0.2500542058
 40
0.5001084765
 40
1.0
 40
1.0
 40
1.0
 40
1.0
 10
146.5148333339
 20
220.6421885727
 30
0.0
 10
146.5148333339
 20
221.3747695665
 30
0.0
 10
146.5773436826
 20
222.8407084383
 30
0.0
 10
146.9405877605
 20
225.7502296625
 30
0.0
 10
147.4483927075
 20
227.8953709929
 30
0.0
 10
147.8545792962
 20
229.3024426106
 30
0.0
  0
SPLINE
  5
60D
100
AcDbEntity
  8
BEZUGSACHSEN
100
AcDbSpline
 62
7
  6
CONTINUOUS
 70
0
 71
3
 72
10
 73
6
 74
0
 42
0.0000001
 43
0.0000001
 44
0.0000000001
 40
0.0
 40
0.0
 40
0.0
 40
0.0
 40
0.4998915617
 40
0.7499458185
 40
1.0
 40
1.0
 40
1.0
 40
1.0
 10
147.8545792962
 20
211.9819345349
 30
0.0
 10
147.4483926765
 20
213.3890062601
 30
0.0
 10
146.940587717
 20
215.5341476625
 30
0.0
 10
146.5773436683
 20
218.4436688904
 30
0.0
 10
146.5148333339
 20
219.9096076502
 30
0.0
 10
146.5148333339
 20
220.6421885727
 30
0.0
  0
SPLINE
  5
60E
100
AcDbEntity
  8
BEZUGSACHSEN
100
AcDbSpline
 62
7
  6
CONTINUOUS
 70
0
 71
3
 72
11
 73
7
 74
0
 42
0.0000001
 43
0.0000001
 44
0.0000000001
 40
0.0
 40
0.0
 40
0.0
 40
0.0
 40
0.261635662
 40
0.5144890272
 40
0.7595900242
 40
1.0
 40
1.0
 40
1.0
 40
1.0
 10
147.8545792962
 20
229.3024426106
 30
0.0
 10
147.6547382901
 20
229.6485773866
 30
0.0
 10
147.2877311773
 20
230.3449372931
 30
0.0
 10
146.8554407903
 20
231.4246929945
 30
0.0
 10
146.5788534836
 20
232.5222560505
 30
0.0
 10
146.5148333064
 20
233.2653129137
 30
0.0
 10
146.5148333064
 20
233.6325699693
 30
0.0
  0
SPLINE
  5
60F
100
AcDbEntity
  8
BEZUGSACHSEN
100
AcDbSpline
 62
7
  6
CONTINUOUS
 70
0
 71
3
 72
11
 73
7
 74
0
 42
0.0000001
 43
0.0000001
 44
0.0000000001
 40
0.0
 40
0.0
 40
0.0
 40
0.0
 40
0.2404100007
 40
0.4855110071
 40
0.738364343
 40
1.0
 40
1.0
 40
1.0
 40
1.0
 10
146.5148333064
 20
343.6325699693
 30
0.0
 10
146.5148333064
 20
343.9998270086
 30
0.0
 10
146.578853611
 20
344.742883807
 30
0.0
 10
146.8554409352
 20
345.8404466862
 30
0.0
 10
147.287731292
 20
346.9202021734
 30
0.0
 10
147.6547383235
 20
347.6165619304
 30
0.0
 10
147.8545792962
 20
347.9626966484
 30
0.0
  0
SPLINE
  5
610
100
AcDbEntity
  8
BEZUGSACHSEN
100
AcDbSpline
 62
7
  6
CONTINUOUS
 70
0
 71
3
 72
11
 73
7
 74
0
 42
0.0000001
 43
0.0000001
 44
0.0000000001
 40
0.0
 40
0.0
 40
0.0
 40
0.0
 40
0.2404100005
 40
0.4855110066
 40
0.7383643424
 40
1.0
 40
1.0
 40
1.0
 40
1.0
 10
146.514833334
 20
317.6518075153
 30
0.0
 10
146.514833334
 20
318.0190645813
 30
0.0
 10
146.5788535381
 20
318.7621214411
 30
0.0
 10
146.8554408842
 20
319.8596844065
 30
0.0
 10
147.2877312488
 20
320.9394399807
 30
0.0
 10
147.6547383083
 20
321.6357997905
 30
0.0
 10
147.8545792962
 20
321.9819345349
 30
0.0
  0
SPLINE
  5
611
100
AcDbEntity
  8
BEZUGSACHSEN
100
AcDbSpline
 62
7
  6
CONTINUOUS
 70
0
 71
3
 72
11
 73
7
 74
0
 42
0.0000001
 43
0.0000001
 44
0.0000000001
 40
0.0
 40
0.0
 40
0.0
 40
0.0
 40
0.2616356616
 40
0.5144890271
 40
0.7595900246
 40
1.0
 40
1.0
 40
1.0
 40
1.0
 10
147.8545792962
 20
313.3216804971
 30
0.0
 10
147.6547383053
 20
313.6678152467
 30
0.0
 10
147.2877312177
 20
314.3641750997
 30
0.0
 10
146.8554408506
 20
315.4439307155
 30
0.0
 10
146.5788535279
 20
316.54149368
 30
0.0
 10
146.5148333341
 20
317.2845504877
 30
0.0
 10
146.514833334
 20
317.6518075153
 30
0.0
  0
SPLINE
  5
612
100
AcDbEntity
  8
BEZUGSACHSEN
100
AcDbSpline
 62
7
  6
CONTINUOUS
 70
0
 71
3
 72
10
 73
6
 74
0
 42
0.0000001
 43
0.0000001
 44
0.0000000001
 40
0.0
 40
0.0
 40
0.0
 40
0.0
 40
0.2500542058
 40
0.5001084765
 40
1.0
 40
1.0
 40
1.0
 40
1.0
 10
146.5148333339
 20
330.6421885727
 30
0.0
 10
146.5148333339
 20
331.3747695665
 30
0.0
 10
146.5773436826
 20
332.8407084383
 30
0.0
 10
146.9405877605
 20
335.7502296625
 30
0.0
 10
147.4483927075
 20
337.8953709929
 30
0.0
 10
147.8545792962
 20
339.3024426106
 30
0.0
  0
SPLINE
  5
613
100
AcDbEntity
  8
BEZUGSACHSEN
100
AcDbSpline
 62
7
  6
CONTINUOUS
 70
0
 71
3
 72
10
 73
6
 74
0
 42
0.0000001
 43
0.0000001
 44
0.0000000001
 40
0.0
 40
0.0
 40
0.0
 40
0.0
 40
0.4998915617
 40
0.7499458185
 40
1.0
 40
1.0
 40
1.0
 40
1.0
 10
147.8545792962
 20
321.9819345349
 30
0.0
 10
147.4483926765
 20
323.3890062601
 30
0.0
 10
146.940587717
 20
325.5341476625
 30
0.0
 10
146.5773436683
 20
328.4436688904
 30
0.0
 10
146.5148333339
 20
329.9096076502
 30
0.0
 10
146.5148333339
 20
330.6421885727
 30
0.0
  0
SPLINE
  5
614
100
AcDbEntity
  8
BEZUGSACHSEN
100
AcDbSpline
 62
7
  6
CONTINUOUS
 70
0
 71
3
 72
11
 73
7
 74
0
 42
0.0000001
 43
0.0000001
 44
0.0000000001
 40
0.0
 40
0.0
 40
0.0
 40
0.0
 40
0.261635662
 40
0.5144890272
 40
0.7595900242
 40
1.0
 40
1.0
 40
1.0
 40
1.0
 10
147.8545792962
 20
339.3024426106
 30
0.0
 10
147.6547382901
 20
339.6485773866
 30
0.0
 10
147.2877311773
 20
340.3449372931
 30
0.0
 10
146.8554407903
 20
341.4246929945
 30
0.0
 10
146.5788534836
 20
342.5222560505
 30
0.0
 10
146.5148333064
 20
343.2653129137
 30
0.0
 10
146.5148333064
 20
343.6325699693
 30
0.0
  0
SPLINE
  5
615
100
AcDbEntity
  8
0
100
AcDbSpline
 62
7
  6
CONTINUOUS
 70
0
 71
3
 72
15
 73
11
 74
0
 42
0.0000001
 43
0.0000001
 44
0.0000000001
 40
0.0
 40
0.0
 40
0.0
 40
0.0
 40
0.0510194398
 40
0.1168996347
 40
0.2086839062
 40
0.3278759274
 40
0.4717847228
 40
0.6358999203
 40
0.8145026011
 40
1.0
 40
1.0
 40
1.0
 40
1.0
 10
101.7703807394
 20
317.4909428305
 30
0.0
 10
101.7850405426
 20
317.4704665014
 30
0.0
 10
101.7984530427
 20
317.4083500119
 30
0.0
 10
101.7524733192
 20
317.3119971
 30
0.0
 10
101.6639845582
 20
317.2077205976
 30
0.0
 10
101.5298293283
 20
317.0938692884
 30
0.0
 10
101.3557018733
 20
316.9746672222
 30
0.0
 10
101.1473087856
 20
316.8547410316
 30
0.0
 10
100.9133328964
 20
316.7394020844
 30
0.0
 10
100.7478428466
 20
316.6690332032
 30
0.0
 10
100.662627976
 20
316.6355385554
 30
0.0
  0
SPLINE
  5
616
100
AcDbEntity
  8
0
100
AcDbSpline
 62
7
  6
CONTINUOUS
 70
0
 71
3
 72
15
 73
11
 74
0
 42
0.0000001
 43
0.0000001
 44
0.0000000001
 40
0.0
 40
0.0
 40
0.0
 40
0.0
 40
0.0268106784
 40
0.0513879004
 40
0.0845598342
 40
0.1263362655
 40
0.176525715
 40
0.300161396
 40
0.6222852946
 40
1.0
 40
1.0
 40
1.0
 40
1.0
 10
98.9701956
 20
315.5780664813
 30
0.0
 10
98.9758370072
 20
315.5663733278
 30
0.0
 10
98.9580882406
 20
315.5389315364
 30
0.0
 10
98.9271239286
 20
315.5159798011
 30
0.0
 10
98.8856540391
 20
315.4896170404
 30
0.0
 10
98.8320553682
 20
315.4619443533
 30
0.0
 10
98.7370586358
 20
315.4182316208
 30
0.0
 10
98.5133933616
 20
315.3306669469
 30
0.0
 10
98.1329774459
 20
315.209818176
 30
0.0
 10
97.8053045957
 20
315.1230038609
 30
0.0
 10
97.6274751055
 20
315.0802115808
 30
0.0
  0
SPLINE
  5
617
100
AcDbEntity
  8
0
100
AcDbSpline
 62
7
  6
CONTINUOUS
 70
0
 71
3
 72
15
 73
11
 74
0
 42
0.0000001
 43
0.0000001
 44
0.0000000001
 40
0.0
 40
0.0
 40
0.0
 40
0.0
 40
0.0507836722
 40
0.1171503836
 40
0.2096564279
 40
0.3295610611
 40
0.4738640669
 40
0.6378868658
 40
0.8157776385
 40
1.0
 40
1.0
 40
1.0
 40
1.0
 10
111.9149461593
 20
326.053076581
 30
0.0
 10
111.9382551788
 20
326.0427025531
 30
0.0
 10
111.9816786275
 20
325.9945314738
 30
0.0
 10
111.9908094461
 20
325.8859542647
 30
0.0
 10
111.9677561154
 20
325.7477132925
 30
0.0
 10
111.9098858051
 20
325.5772721911
 30
0.0
 10
111.820447266
 20
325.3814503907
 30
0.0
 10
111.701904583
 20
325.1675938962
 30
0.0
 10
111.5592382057
 20
324.9449157515
 30
0.0
 10
111.4525772782
 20
324.7974003025
 30
0.0
 10
111.396289231
 20
324.7239324666
 30
0.0
  0
SPLINE
  5
618
100
AcDbEntity
  8
0
100
AcDbSpline
 62
7
  6
CONTINUOUS
 70
0
 71
3
 72
14
 73
10
 74
0
 42
0.0000001
 43
0.0000001
 44
0.0000000001
 40
0.0
 40
0.0
 40
0.0
 40
0.0
 40
0.0284073208
 40
0.0536979111
 40
0.0873791649
 40
0.1795921328
 40
0.3026523582
 40
0.6226318278
 40
1.0
 40
1.0
 40
1.0
 40
1.0
 10
105.2426747312
 20
318.4656854026
 30
0.0
 10
105.2502347769
 20
318.4545879207
 30
0.0
 10
105.2386561377
 20
318.4244577236
 30
0.0
 10
105.215065342
 20
318.393285209
 30
0.0
 10
105.1661111958
 20
318.3396098971
 30
0.0
 10
105.0773521595
 20
318.2630734039
 30
0.0
 10
104.8758761191
 20
318.109281257
 30
0.0
 10
104.5519498732
 20
317.8958384195
 30
0.0
 10
104.2684256889
 20
317.7274071023
 30
0.0
 10
104.1130541569
 20
317.6397792338
 30
0.0
  0
SPLINE
  5
619
100
AcDbEntity
  8
0
100
AcDbSpline
 62
7
  6
CONTINUOUS
 70
0
 71
3
 72
14
 73
10
 74
0
 42
0.0000001
 43
0.0000001
 44
0.0000000001
 40
0.0
 40
0.0
 40
0.0
 40
0.0
 40
0.0282541183
 40
0.0534548703
 40
0.087123682
 40
0.1793970843
 40
0.3026249545
 40
0.6228350893
 40
1.0
 40
1.0
 40
1.0
 40
1.0
 10
110.3585034677
 20
322.7821670568
 30
0.0
 10
110.3687857778
 20
322.7735364054
 30
0.0
 10
110.365714561
 20
322.74132655
 30
0.0
 10
110.3510879385
 20
322.7049835485
 30
0.0
 10
110.3177354672
 20
322.6400419643
 30
0.0
 10
110.2517030306
 20
322.5423615198
 30
0.0
 10
110.096530252
 20
322.3400181639
 30
0.0
 10
109.8383371831
 20
322.0476994012
 30
0.0
 10
109.6075310338
 20
321.8097535249
 30
0.0
 10
109.4798847844
 20
321.6839761894
 30
0.0
  0
SPLINE
  5
61A
100
AcDbEntity
  8
0
100
AcDbSpline
 62
7
  6
CONTINUOUS
 70
0
 71
3
 72
15
 73
11
 74
0
 42
0.0000001
 43
0.0000001
 44
0.0000000001
 40
0.0
 40
0.0
 40
0.0
 40
0.0
 40
0.3822860846
 40
0.7028328718
 40
0.8248804637
 40
0.8743763128
 40
0.9155801134
 40
0.9483201197
 40
0.9727122724
 40
1.0
 40
1.0
 40
1.0
 40
1.0
 10
97.6274751055
 20
315.0802115808
 30
0.0
 10
97.460398182
 20
315.0400067615
 30
0.0
 10
97.1516356679
 20
314.9727149437
 30
0.0
 10
96.7855901154
 20
314.9112662221
 30
0.0
 10
96.5654156735
 20
314.8894202922
 30
0.0
 10
96.469711051
 20
314.8856550849
 30
0.0
 10
96.414449661
 20
314.8860886879
 30
0.0
 10
96.3696633453
 20
314.8905478578
 30
0.0
 10
96.3343180935
 20
314.8969065787
 30
0.0
 10
96.3084340206
 20
314.9122821217
 30
0.0
 10
96.3078505326
 20
314.924534686
 30
0.0
  0
SPLINE
  5
61B
100
AcDbEntity
  8
0
100
AcDbSpline
 62
7
  6
CONTINUOUS
 70
0
 71
3
 72
15
 73
11
 74
0
 42
0.0000001
 43
0.0000001
 44
0.0000000001
 40
0.0
 40
0.0
 40
0.0
 40
0.0
 40
0.1842033911
 40
0.3620808273
 40
0.5260921676
 40
0.6703923203
 40
0.7903058287
 40
0.8828275214
 40
0.9492121252
 40
1.0
 40
1.0
 40
1.0
 40
1.0
 10
100.662627976
 20
316.6355385554
 30
0.0
 10
100.5765034111
 20
316.6016863422
 30
0.0
 10
100.4053248667
 20
316.5398263075
 30
0.0
 10
100.1519813195
 20
316.4640699928
 30
0.0
 10
99.9137590081
 20
316.4090664247
 30
0.0
 10
99.7008825989
 20
316.3770620626
 30
0.0
 10
99.5210914197
 20
316.3684001694
 30
0.0
 10
99.3818310531
 20
316.3843298804
 30
0.0
 10
99.2799625254
 20
316.4230101468
 30
0.0
 10
99.2455774822
 20
316.4780108799
 30
0.0
 10
99.2420208538
 20
316.5032762022
 30
0.0
  0
SPLINE
  5
61C
100
AcDbEntity
  8
0
100
AcDbSpline
 62
7
  6
CONTINUOUS
 70
0
 71
3
 72
14
 73
10
 74
0
 42
0.0000001
 43
0.0000001
 44
0.0000000001
 40
0.0
 40
0.0
 40
0.0
 40
0.0
 40
0.3771637833
 40
0.6973733741
 40
0.8206021827
 40
0.9128755058
 40
0.9465452814
 40
0.9717462118
 40
1.0
 40
1.0
 40
1.0
 40
1.0
 10
104.1130541569
 20
317.6397792338
 30
0.0
 10
103.9569657856
 20
317.5517470757
 30
0.0
 10
103.6646199026
 20
317.3954690118
 30
0.0
 10
103.3124577543
 20
317.2278528749
 30
0.0
 10
103.0751821557
 20
317.1344635205
 30
0.0
 10
102.9630834496
 20
317.0979138594
 30
0.0
 10
102.8914646258
 20
317.0837530472
 30
0.0
 10
102.8524965563
 20
317.0797096644
 30
0.0
 10
102.8206905716
 20
317.0856375596
 30
0.0
 10
102.8152270478
 20
317.0978996699
 30
0.0
  0
SPLINE
  5
61D
100
AcDbEntity
  8
0
100
AcDbSpline
 62
7
  6
CONTINUOUS
 70
0
 71
3
 72
15
 73
11
 74
0
 42
0.0000001
 43
0.0000001
 44
0.0000000001
 40
0.0
 40
0.0
 40
0.0
 40
0.0
 40
0.3777147054
 40
0.699838604
 40
0.823474285
 40
0.8736637345
 40
0.9154401658
 40
0.9486120996
 40
0.9731893216
 40
1.0
 40
1.0
 40
1.0
 40
1.0
 10
113.7279669881
 20
327.2128024475
 30
0.0
 10
113.6378159579
 20
327.0536569212
 30
0.0
 10
113.4640458041
 20
326.7626068298
 30
0.0
 10
113.2430216725
 20
326.4302380171
 30
0.0
 10
113.0971986009
 20
326.2393732514
 30
0.0
 10
113.0289945773
 20
326.1601053934
 30
0.0
 10
112.9876200872
 20
326.1162106704
 30
0.0
 10
112.9508479245
 20
326.0836138158
 30
0.0
 10
112.9202503794
 20
326.0601753643
 30
0.0
 10
112.8889794134
 20
326.0506781376
 30
0.0
 10
112.8792942154
 20
326.0593240762
 30
0.0
  0
SPLINE
  5
61E
100
AcDbEntity
  8
0
100
AcDbSpline
 62
7
  6
CONTINUOUS
 70
0
 71
3
 72
15
 73
11
 74
0
 42
0.0000001
 43
0.0000001
 44
0.0000000001
 40
0.0
 40
0.0
 40
0.0
 40
0.0
 40
0.1855049909
 40
0.3640841067
 40
0.5281774081
 40
0.672082292
 40
0.7912937727
 40
0.8830864335
 40
0.9489728054
 40
1.0
 40
1.0
 40
1.0
 40
1.0
 10
111.396289231
 20
324.7239324666
 30
0.0
 10
111.3405999321
 20
324.6512461241
 30
0.0
 10
111.2273461476
 20
324.5115633469
 30
0.0
 10
111.0519863243
 20
324.318456019
 30
0.0
 10
110.8792840117
 20
324.1511971247
 30
0.0
 10
110.7166955056
 20
324.0166790985
 30
0.0
 10
110.5702716776
 20
323.9190771729
 30
0.0
 10
110.4456216514
 20
323.8627613309
 30
0.0
 10
110.3403080986
 20
323.8451229818
 30
0.0
 10
110.2842962938
 20
323.8751627035
 30
0.0
 10
110.2686558887
 20
323.8949059176
 30
0.0
  0
SPLINE
  5
61F
100
AcDbEntity
  8
0
100
AcDbSpline
 62
7
  6
CONTINUOUS
 70
0
 71
3
 72
14
 73
10
 74
0
 42
0.0000001
 43
0.0000001
 44
0.0000000001
 40
0.0
 40
0.0
 40
0.0
 40
0.0
 40
0.3773400867
 40
0.697305651
 40
0.8203690802
 40
0.9125920508
 40
0.9462808102
 40
0.9715793691
 40
1.0
 40
1.0
 40
1.0
 40
1.0
 10
109.4798847844
 20
321.6839761894
 30
0.0
 10
109.3528364635
 20
321.558788028
 30
0.0
 10
109.1127984308
 20
321.3326889163
 30
0.0
 10
108.8183568038
 20
321.0801585614
 30
0.0
 10
108.6149950214
 20
320.9288748388
 30
0.0
 10
108.5169526686
 20
320.8646444669
 30
0.0
 10
108.4518579377
 20
320.8323675707
 30
0.0
 10
108.4153783672
 20
320.8182773419
 30
0.0
 10
108.383221042
 20
320.815427824
 30
0.0
 10
108.3746219075
 20
320.825749033
 30
0.0
  0
SPLINE
  5
620
100
AcDbEntity
  8
0
100
AcDbSpline
 62
7
  6
CONTINUOUS
 70
0
 71
3
 72
15
 73
11
 74
0
 42
0.0000001
 43
0.0000001
 44
0.0000000001
 40
0.0
 40
0.0
 40
0.0
 40
0.0
 40
0.1828937536
 40
0.3595707563
 40
0.5225916315
 40
0.6664386652
 40
0.7866843297
 40
0.880493578
 40
0.9486224728
 40
1.0
 40
1.0
 40
1.0
 40
1.0
 10
106.5846689236
 20
319.9429465308
 30
0.0
 10
106.5111105035
 20
319.8875162855
 30
0.0
 10
106.3634708374
 20
319.7824853593
 30
0.0
 10
106.1408294157
 20
319.6419037584
 30
0.0
 10
105.9269544236
 20
319.5250134781
 30
0.0
 10
105.7307659355
 20
319.4364140759
 30
0.0
 10
105.5593736725
 20
319.3785932907
 30
0.0
 10
105.4190227948
 20
319.3544266023
 30
0.0
 10
105.3090775133
 20
319.3614390149
 30
0.0
 10
105.256673714
 20
319.4011118714
 30
0.0
 10
105.2442104789
 20
319.4237859705
 30
0.0
  0
SPLINE
  5
621
100
AcDbEntity
  8
0
100
AcDbSpline
 62
7
  6
CONTINUOUS
 70
0
 71
3
 72
15
 73
11
 74
0
 42
0.0000001
 43
0.0000001
 44
0.0000000001
 40
0.0
 40
0.0
 40
0.0
 40
0.0
 40
0.0272877276
 40
0.0516798803
 40
0.0844198866
 40
0.1256236872
 40
0.1751195363
 40
0.2971671282
 40
0.6177139154
 40
1.0
 40
1.0
 40
1.0
 40
1.0
 10
114.241351052
 20
328.4383966349
 30
0.0
 10
114.2529681416
 20
328.4344584858
 30
0.0
 10
114.2606134447
 20
328.4053390439
 30
0.0
 10
114.2569833678
 20
328.3696103062
 30
0.0
 10
114.2489250154
 20
328.3253298227
 30
0.0
 10
114.234109718
 20
328.272089648
 30
0.0
 10
114.2041105993
 20
328.1811302921
 30
0.0
 10
114.1224226427
 20
327.975506589
 30
0.0
 10
113.9624585122
 20
327.6405785835
 30
0.0
 10
113.8126669823
 20
327.3623251443
 30
0.0
 10
113.7279669881
 20
327.2128024475
 30
0.0
  0
SPLINE
  5
622
100
AcDbEntity
  8
0
100
AcDbSpline
 62
7
  6
CONTINUOUS
 70
0
 71
3
 72
14
 73
10
 74
0
 42
0.0000001
 43
0.0000001
 44
0.0000000001
 40
0.0
 40
0.0
 40
0.0
 40
0.0
 40
0.0513818466
 40
0.1194799253
 40
0.2132900761
 40
0.3335619859
 40
0.477544272
 40
0.6405969153
 40
1.0
 40
1.0
 40
1.0
 40
1.0
 10
107.4532213989
 20
321.0884487065
 30
0.0
 10
107.4715734173
 20
321.0702104891
 30
0.0
 10
107.4952226571
 20
321.0089190909
 30
0.0
 10
107.4717689812
 20
320.901315157
 30
0.0
 10
107.4098422261
 20
320.7730681932
 30
0.0
 10
107.3070056161
 20
320.624194957
 30
0.0
 10
107.167697326
 20
320.4599626995
 30
0.0
 10
106.931573092
 20
320.2211660473
 30
0.0
 10
106.7292039211
 20
320.0518614637
 30
0.0
 10
106.5846689236
 20
319.9429465308
 30
0.0
  0
SPLINE
  5
623
100
AcDbEntity
  8
0
100
AcDbSpline
 62
7
  6
CONTINUOUS
 70
0
 71
3
 72
9
 73
5
 74
0
 42
0.0000001
 43
0.0000001
 44
0.0000000001
 40
0.0
 40
0.0
 40
0.0
 40
0.0
 40
0.5000901639
 40
1.0
 40
1.0
 40
1.0
 40
1.0
 10
138.6298221859
 20
360.3044084073
 30
0.0
 10
138.9981212017
 20
360.1996493229
 30
0.0
 10
139.7072326093
 20
359.8760051422
 30
0.0
 10
140.2804653956
 20
359.3456248894
 30
0.0
 10
140.5153010287
 20
359.0433582244
 30
0.0
  0
SPLINE
  5
624
100
AcDbEntity
  8
0
100
AcDbSpline
 62
7
  6
CONTINUOUS
 70
0
 71
3
 72
15
 73
11
 74
0
 42
0.0000001
 43
0.0000001
 44
0.0000000001
 40
0.0
 40
0.0
 40
0.0
 40
0.0
 40
0.1250099197
 40
0.2500059263
 40
0.3750045008
 40
0.5000014394
 40
0.6249986958
 40
0.7499968173
 40
0.8749918637
 40
1.0
 40
1.0
 40
1.0
 40
1.0
 10
128.0148333285
 20
361.7424429646
 30
0.0
 10
128.0148331803
 20
361.4963547037
 30
0.0
 10
128.0751549113
 20
361.0020689209
 30
0.0
 10
128.3429021313
 20
360.3064085014
 30
0.0
 10
128.7731749597
 20
359.697102008
 30
0.0
 10
129.340555866
 20
359.2129117511
 30
0.0
 10
130.0100245184
 20
358.8840170692
 30
0.0
 10
130.7399904153
 20
358.730601989
 30
0.0
 10
131.4847862575
 20
358.7606355605
 30
0.0
 10
131.9624692352
 20
358.9012420216
 30
0.0
 10
132.1883838339
 20
358.9988140382
 30
0.0
  0
SPLINE
  5
625
100
AcDbEntity
  8
0
100
AcDbSpline
 62
7
  6
CONTINUOUS
 70
0
 71
3
 72
15
 73
11
 74
0
 42
0.0000001
 43
0.0000001
 44
0.0000000001
 40
0.0
 40
0.0
 40
0.0
 40
0.0
 40
0.1249993233
 40
0.250003355
 40
0.3750000546
 40
0.499999847
 40
0.6250046387
 40
0.7500018243
 40
0.8749996591
 40
1.0
 40
1.0
 40
1.0
 40
1.0
 10
133.6447723694
 20
361.395788772
 30
0.0
 10
133.4221789796
 20
361.3252384203
 30
0.0
 10
132.9587872649
 20
361.2354890149
 30
0.0
 10
132.2527494499
 20
361.2654562198
 30
0.0
 10
131.5726465273
 20
361.4590178099
 30
0.0
 10
130.9568009516
 20
361.8064306955
 30
0.0
 10
130.4395581657
 20
362.2885340057
 30
0.0
 10
130.049567202
 20
362.8783738147
 30
0.0
 10
129.8076855174
 20
363.5423518827
 30
0.0
 10
129.7532331914
 20
364.0111938968
 30
0.0
 10
129.7532330783
 20
364.2447020489
 30
0.0
  0
SPLINE
  5
626
100
AcDbEntity
  8
0
100
AcDbSpline
 62
7
  6
CONTINUOUS
 70
0
 71
3
 72
21
 73
17
 74
0
 42
0.0000001
 43
0.0000001
 44
0.0000000001
 40
0.0
 40
0.0
 40
0.0
 40
0.0
 40
0.0370067899
 40
0.0856595673
 40
0.144745352
 40
0.2127040881
 40
0.3677085025
 40
0.5342181984
 40
0.6951523156
 40
0.768550624
 40
0.8348523165
 40
0.8924576983
 40
0.9399308873
 40
0.976056045
 40
0.9895824019
 40
1.0
 40
1.0
 40
1.0
 40
1.0
 10
149.948028747
 20
373.7151009621
 30
0.0
 10
149.8082961749
 20
373.7324108749
 30
0.0
 10
149.4826789011
 20
373.7538943492
 30
0.0
 10
148.9319314968
 20
373.7610124746
 30
0.0
 10
148.2635085049
 20
373.7436201085
 30
0.0
 10
147.1920140542
 20
373.6825324085
 30
0.0
 10
145.7166269988
 20
373.5370266741
 30
0.0
 10
143.8995023481
 20
373.2734787356
 30
0.0
 10
142.4009233979
 20
372.9869469442
 30
0.0
 10
141.2861332957
 20
372.730331814
 30
0.0
 10
140.5592595415
 20
372.5423858664
 30
0.0
 10
139.9330704188
 20
372.3599418286
 30
0.0
 10
139.4235041785
 20
372.1895729654
 30
0.0
 10
139.0791950311
 20
372.0539622453
 30
0.0
 10
138.8741602104
 20
371.9528276595
 30
0.0
 10
138.7957409869
 20
371.9059587385
 30
0.0
 10
138.7635560564
 20
371.8828254225
 30
0.0
  0
SPLINE
  5
627
100
AcDbEntity
  8
0
100
AcDbSpline
 62
7
  6
CONTINUOUS
 70
0
 71
3
 72
11
 73
7
 74
0
 42
0.0000001
 43
0.0000001
 44
0.0000000001
 40
0.0
 40
0.0
 40
0.0
 40
0.0
 40
0.1501157151
 40
0.3648976306
 40
0.6480475826
 40
1.0
 40
1.0
 40
1.0
 40
1.0
 10
157.1022367062
 20
372.3519282262
 30
0.0
 10
157.0379431795
 20
372.4143173228
 30
0.0
 10
156.8467609838
 20
372.5269745486
 30
0.0
 10
156.4847567032
 20
372.6623742838
 30
0.0
 10
155.9930025293
 20
372.7908548688
 30
0.0
 10
155.6205842138
 20
372.8617742558
 30
0.0
 10
155.4134164646
 20
372.8964113389
 30
0.0
  0
SPLINE
  5
628
100
AcDbEntity
  8
0
100
AcDbSpline
 62
7
  6
CONTINUOUS
 70
0
 71
3
 72
9
 73
5
 74
0
 42
0.0000001
 43
0.0000001
 44
0.0000000001
 40
0.0
 40
0.0
 40
0.0
 40
0.0
 40
0.5152675224
 40
1.0
 40
1.0
 40
1.0
 40
1.0
 10
129.6941839541
 20
213.2349997421
 30
0.0
 10
129.1467307535
 20
213.0320035023
 30
0.0
 10
128.101868561
 20
212.589556232
 30
0.0
 10
127.0901197591
 20
212.0783772765
 30
0.0
 10
126.6039555046
 20
211.8227433852
 30
0.0
  0
SPLINE
  5
629
100
AcDbEntity
  8
0
100
AcDbSpline
 62
7
  6
CONTINUOUS
 70
0
 71
3
 72
9
 73
5
 74
0
 42
0.0000001
 43
0.0000001
 44
0.0000000001
 40
0.0
 40
0.0
 40
0.0
 40
0.0
 40
0.4847377405
 40
1.0
 40
1.0
 40
1.0
 40
1.0
 10
126.6039555046
 20
183.3218467677
 30
0.0
 10
127.0901250465
 20
183.0662100961
 30
0.0
 10
128.1018732466
 20
182.5550297742
 30
0.0
 10
129.146736335
 20
182.1125845809
 30
0.0
 10
129.6941839541
 20
181.9095904108
 30
0.0
  0
SPLINE
  5
62A
100
AcDbEntity
  8
0
100
AcDbSpline
 62
7
  6
CONTINUOUS
 70
0
 71
3
 72
9
 73
5
 74
0
 42
0.0000001
 43
0.0000001
 44
0.0000000001
 40
0.0
 40
0.0
 40
0.0
 40
0.0
 40
0.251232788
 40
1.0
 40
1.0
 40
1.0
 40
1.0
 10
126.390468096
 20
183.4289737365
 30
0.0
 10
126.3418740047
 20
183.4522965001
 30
0.0
 10
126.1468274791
 20
183.5417300633
 30
0.0
 10
125.9459364829
 20
183.6182343721
 30
0.0
 10
125.7935102973
 20
183.6689616599
 30
0.0
  0
SPLINE
  5
62B
100
AcDbEntity
  8
BEZUGSACHSEN
100
AcDbSpline
 62
7
  6
CONTINUOUS
 70
0
 71
3
 72
9
 73
5
 74
0
 42
0.0000001
 43
0.0000001
 44
0.0000000001
 40
0.0
 40
0.0
 40
0.0
 40
0.0
 40
0.7478510292
 40
1.0
 40
1.0
 40
1.0
 40
1.0
 10
156.5130343951
 20
312.2188810018
 30
0.0
 10
156.461215171
 20
312.3224222468
 30
0.0
 10
156.4079769881
 20
312.4698156725
 30
0.0
 10
156.3780339291
 20
312.6217618619
 30
0.0
 10
156.371873148
 20
312.6603110745
 30
0.0
  0
SPLINE
  5
62C
100
AcDbEntity
  8
0
100
AcDbSpline
 62
7
  6
CONTINUOUS
 70
0
 71
3
 72
17
 73
13
 74
0
 42
0.0000001
 43
0.0000001
 44
0.0000000001
 40
0.0
 40
0.0
 40
0.0
 40
0.0
 40
0.1861697107
 40
0.3722012082
 40
0.5463351058
 40
0.6968556894
 40
0.8168186903
 40
0.8647855204
 40
0.9049661423
 40
0.9377887925
 40
0.9638933253
 40
1.0
 40
1.0
 40
1.0
 40
1.0
 10
83.5641376045
 20
299.2728841792
 30
0.0
 10
83.8352672155
 20
298.8609642064
 30
0.0
 10
84.3997045446
 20
298.051878277
 30
0.0
 10
85.2951992101
 20
296.9139695962
 30
0.0
 10
86.1980018103
 20
295.9051055881
 30
0.0
 10
87.0446501898
 20
295.0849644771
 30
0.0
 10
87.6985857677
 20
294.5496488702
 30
0.0
 10
88.1562433995
 20
294.241353373
 30
0.0
 10
88.4343924513
 20
294.0822846136
 30
0.0
 10
88.6756121577
 20
293.9745097564
 30
0.0
 10
88.9142500367
 20
293.9032765687
 30
0.0
 10
89.0948468414
 20
293.9005216161
 30
0.0
 10
89.1790431902
 20
293.9458918108
 30
0.0
  0
SPLINE
  5
62D
100
AcDbEntity
  8
0
100
AcDbSpline
 62
7
  6
CONTINUOUS
 70
0
 71
3
 72
11
 73
7
 74
0
 42
0.0000001
 43
0.0000001
 44
0.0000000001
 40
0.0
 40
0.0
 40
0.0
 40
0.0
 40
0.2497381832
 40
0.4991631021
 40
0.7488303167
 40
1.0
 40
1.0
 40
1.0
 40
1.0
 10
123.0373982427
 20
210.4290912185
 30
0.0
 10
123.3343920436
 20
210.5452510305
 30
0.0
 10
123.9309877012
 20
210.7697864089
 30
0.0
 10
124.8314667686
 20
211.0917020568
 30
0.0
 10
125.7310110189
 20
211.4205867499
 30
0.0
 10
126.3200775961
 20
211.6734752855
 30
0.0
 10
126.6039555046
 20
211.8227433852
 30
0.0
  0
SPLINE
  5
62E
100
AcDbEntity
  8
BEZUGSACHSEN
100
AcDbSpline
 62
7
  6
CONTINUOUS
 70
0
 71
3
 72
9
 73
5
 74
0
 42
0.0000001
 43
0.0000001
 44
0.0000000001
 40
0.0
 40
0.0
 40
0.0
 40
0.0
 40
0.4330559223
 40
1.0
 40
1.0
 40
1.0
 40
1.0
 10
157.1022367062
 20
310.8708439423
 30
0.0
 10
157.0375965164
 20
311.0732734338
 30
0.0
 10
156.8507915729
 20
311.5282406818
 30
0.0
 10
156.6375462218
 20
311.9700893367
 30
0.0
 10
156.5130388171
 20
312.2188705933
 30
0.0
  0
SPLINE
  5
62F
100
AcDbEntity
  8
BEZUGSACHSEN
100
AcDbSpline
 62
7
  6
CONTINUOUS
 70
0
 71
3
 72
10
 73
6
 74
0
 42
0.0000001
 43
0.0000001
 44
0.0000000001
 40
0.0
 40
0.0
 40
0.0
 40
0.0
 40
0.1823509095
 40
0.4119983163
 40
1.0
 40
1.0
 40
1.0
 40
1.0
 10
157.1022367062
 20
200.8708439423
 30
0.0
 10
157.0522492776
 20
201.0273863316
 30
0.0
 10
156.9163795132
 20
201.3735744412
 30
0.0
 10
156.5383326181
 20
202.1917154668
 30
0.0
 10
156.1942455991
 20
202.8437759335
 30
0.0
 10
155.9447243931
 20
203.3112414064
 30
0.0
  0
SPLINE
  5
630
100
AcDbEntity
  8
BEZUGSACHSEN
100
AcDbSpline
 62
7
  6
CONTINUOUS
 70
0
 71
3
 72
10
 73
6
 74
0
 42
0.0000001
 43
0.0000001
 44
0.0000000001
 40
0.0
 40
0.0
 40
0.0
 40
0.0
 40
0.5880021768
 40
0.8176490921
 40
1.0
 40
1.0
 40
1.0
 40
1.0
 10
155.9447628087
 20
237.973207836
 30
0.0
 10
156.1942763303
 20
238.4406597699
 30
0.0
 10
156.5383511351
 20
239.0927014462
 30
0.0
 10
156.9163865486
 20
239.9108178375
 30
0.0
 10
157.0522507881
 20
240.2569955441
 30
0.0
 10
157.1022367062
 20
240.4135332032
 30
0.0
  0
SPLINE
  5
631
100
AcDbEntity
  8
BEZUGSACHSEN
100
AcDbSpline
 62
7
  6
CONTINUOUS
 70
0
 71
3
 72
10
 73
6
 74
0
 42
0.0000001
 43
0.0000001
 44
0.0000000001
 40
0.0
 40
0.0
 40
0.0
 40
0.0
 40
0.5880706937
 40
0.8176784322
 40
1.0
 40
1.0
 40
1.0
 40
1.0
 10
155.9434157348
 20
347.9707110084
 30
0.0
 10
156.1932338665
 20
348.4387006896
 30
0.0
 10
156.5377209383
 20
349.0914287827
 30
0.0
 10
156.9162155208
 20
349.9103750918
 30
0.0
 10
157.0522063864
 20
350.2568564943
 30
0.0
 10
157.1022367062
 20
350.4135332032
 30
0.0
  0
LINE
  5
632
100
AcDbEntity
  8
0
100
AcDbLine
 62
7
  6
CONTINUOUS
 10
157.1022367062
 20
372.3519282262
 11
157.2703536977
 21
372.1886597828
  0
SPLINE
  5
633
100
AcDbEntity
  8
0
100
AcDbSpline
 62
7
  6
CONTINUOUS
 70
0
 71
3
 72
20
 73
16
 74
0
 42
0.0000001
 43
0.0000001
 44
0.0000000001
 40
0.0
 40
0.0
 40
0.0
 40
0.0
 40
0.0063879394
 40
0.0145265613
 40
0.0364765676
 40
0.0662236324
 40
0.103718159
 40
0.1487370455
 40
0.2009531261
 40
0.2599595702
 40
0.3252763566
 40
0.4726139441
 40
0.638013388
 40
0.8158376676
 40
1.0
 40
1.0
 40
1.0
 40
1.0
 10
157.2703536977
 20
372.1886597828
 30
0.0
 10
157.3055612541
 20
372.1544400983
 30
0.0
 10
157.37400556
 20
372.0649273946
 30
0.0
 10
157.5078524017
 20
371.8180880058
 30
0.0
 10
157.6626746558
 20
371.3828171161
 30
0.0
 10
157.8336966019
 20
370.7189410776
 30
0.0
 10
157.9999946639
 20
369.8717674196
 30
0.0
 10
158.1601195979
 20
368.8485899292
 30
0.0
 10
158.311955088
 20
367.6572143164
 30
0.0
 10
158.4540440578
 20
366.3077222143
 30
0.0
 10
158.6359013457
 20
364.2275943508
 30
0.0
 10
158.8236183359
 20
361.3275995222
 30
0.0
 10
158.985384163
 20
357.5604173249
 30
0.0
 10
159.0849304309
 20
353.507970622
 30
0.0
 10
159.1072147514
 20
350.7257028465
 30
0.0
 10
159.1072147514
 20
349.3102386455
 30
0.0
  0
SPLINE
  5
634
100
AcDbEntity
  8
0
100
AcDbSpline
 62
7
  6
CONTINUOUS
 70
0
 71
3
 72
11
 73
7
 74
0
 42
0.0000001
 43
0.0000001
 44
0.0000000001
 40
0.0
 40
0.0
 40
0.0
 40
0.0
 40
0.249978627
 40
0.4999542037
 40
0.7499561779
 40
1.0
 40
1.0
 40
1.0
 40
1.0
 10
138.324835951
 20
364.9042859293
 30
0.0
 10
138.3248359558
 20
364.5655513951
 30
0.0
 10
138.2062432436
 20
363.8822591672
 30
0.0
 10
137.6917983168
 20
362.9830126581
 30
0.0
 10
136.9054757691
 20
362.3090625527
 30
0.0
 10
136.2594344453
 20
362.0592932266
 30
0.0
 10
135.9275781016
 20
361.9909389348
 30
0.0
  0
SPLINE
  5
635
100
AcDbEntity
  8
0
100
AcDbSpline
 62
7
  6
CONTINUOUS
 70
0
 71
3
 72
9
 73
5
 74
0
 42
0.0000001
 43
0.0000001
 44
0.0000000001
 40
0.0
 40
0.0
 40
0.0
 40
0.0
 40
0.5008888611
 40
1.0
 40
1.0
 40
1.0
 40
1.0
 10
125.7935102973
 20
183.6689616599
 30
0.0
 10
125.2951495378
 20
183.8348097978
 30
0.0
 10
124.2486268647
 20
184.0116072676
 30
0.0
 10
123.1978260112
 20
183.9976394753
 30
0.0
 10
122.6755885206
 20
183.9632543537
 30
0.0
  0
SPLINE
  5
636
100
AcDbEntity
  8
DEFAULT_2
100
AcDbSpline
 62
8
  6
HIDDEN
 70
0
 71
3
 72
9
 73
5
 74
0
 42
0.0000001
 43
0.0000001
 44
0.0000000001
 40
0.0
 40
0.0
 40
0.0
 40
0.0
 40
0.5034986784
 40
1.0
 40
1.0
 40
1.0
 40
1.0
 10
309.829651986
 20
217.3941885727
 30
0.0
 10
310.120384723
 20
216.8333086707
 30
0.0
 10
310.5708082408
 20
215.6482799773
 30
0.0
 10
310.7271299929
 20
214.3891932427
 30
0.0
 10
310.7271299929
 20
213.7662200599
 30
0.0
  0
SPLINE
  5
637
100
AcDbEntity
  8
KONSTRUKTIONSELEMENTE
100
AcDbSpline
 62
8
  6
HIDDEN
 70
0
 71
3
 72
9
 73
5
 74
0
 42
0.0000001
 43
0.0000001
 44
0.0000000001
 40
0.0
 40
0.0
 40
0.0
 40
0.0
 40
0.5034986784
 40
1.0
 40
1.0
 40
1.0
 40
1.0
 10
280.9246079998
 20
217.3941885727
 30
0.0
 10
280.6338752628
 20
216.8333086707
 30
0.0
 10
280.183451745
 20
215.6482799773
 30
0.0
 10
280.0271299929
 20
214.3891932427
 30
0.0
 10
280.0271299929
 20
213.7662200599
 30
0.0
  0
SPLINE
  5
638
100
AcDbEntity
  8
AUSFORMSCHRAEGEN
100
AcDbSpline
 62
7
  6
CONTINUOUS
 70
0
 71
3
 72
9
 73
5
 74
0
 42
0.0000001
 43
0.0000001
 44
0.0000000001
 40
0.0
 40
0.0
 40
0.0
 40
0.0
 40
0.4501551615
 40
1.0
 40
1.0
 40
1.0
 40
1.0
 10
276.7272949995
 20
319.4457393851
 30
0.0
 10
276.7272949995
 20
320.8878103196
 30
0.0
 10
276.7871285241
 20
324.09122382
 30
0.0
 10
276.9096127188
 20
327.2924832899
 30
0.0
 10
276.9895506376
 20
329.05209503
 30
0.0
  0
SPLINE
  5
639
100
AcDbEntity
  8
BEZUGSACHSEN
100
AcDbSpline
 62
7
  6
CONTINUOUS
 70
0
 71
3
 72
8
 73
4
 74
0
 42
0.0000001
 43
0.0000001
 44
0.0000000001
 40
0.0
 40
0.0
 40
0.0
 40
0.0
 40
1.0
 40
1.0
 40
1.0
 40
1.0
 10
277.9776325375
 20
321.6680202192
 30
0.0
 10
277.9800525196
 20
321.5778765742
 30
0.0
 10
278.0012990173
 20
321.4866021242
 30
0.0
 10
278.0383698219
 20
321.4043981797
 30
0.0
  0
SPLINE
  5
63A
100
AcDbEntity
  8
BEZUGSACHSEN
100
AcDbSpline
 62
7
  6
CONTINUOUS
 70
0
 71
3
 72
15
 73
11
 74
0
 42
0.0000001
 43
0.0000001
 44
0.0000000001
 40
0.0
 40
0.0
 40
0.0
 40
0.0
 40
0.1063304722
 40
0.2270875895
 40
0.3620431307
 40
0.504926709
 40
0.6467376073
 40
0.7788118468
 40
0.8959910629
 40
1.0
 40
1.0
 40
1.0
 40
1.0
 10
278.0383698219
 20
321.4043981797
 30
0.0
 10
278.0888428088
 20
321.2924751002
 30
0.0
 10
278.2617466035
 20
321.0812411341
 30
0.0
 10
278.639044755
 20
320.8839235284
 30
0.0
 10
279.0974184984
 20
320.7995853069
 30
0.0
 10
279.5855471333
 20
320.8358723867
 30
0.0
 10
280.0475497991
 20
320.9876608551
 30
0.0
 10
280.4298692766
 20
321.2394627277
 30
0.0
 10
280.6880650019
 20
321.5668646499
 30
0.0
 10
280.7489671137
 20
321.8270237186
 30
0.0
 10
280.7440792293
 20
321.9470210183
 30
0.0
  0
SPLINE
  5
63B
100
AcDbEntity
  8
0
100
AcDbSpline
 62
7
  6
CONTINUOUS
 70
0
 71
3
 72
8
 73
4
 74
0
 42
0.0000001
 43
0.0000001
 44
0.0000000001
 40
0.0
 40
0.0
 40
0.0
 40
0.0
 40
1.0
 40
1.0
 40
1.0
 40
1.0
 10
312.7766274483
 20
321.6680202192
 30
0.0
 10
312.7742074662
 20
321.5778765742
 30
0.0
 10
312.7529609685
 20
321.4866021242
 30
0.0
 10
312.7158901639
 20
321.4043981797
 30
0.0
  0
SPLINE
  5
63C
100
AcDbEntity
  8
0
100
AcDbSpline
 62
7
  6
CONTINUOUS
 70
0
 71
3
 72
15
 73
11
 74
0
 42
0.0000001
 43
0.0000001
 44
0.0000000001
 40
0.0
 40
0.0
 40
0.0
 40
0.0
 40
0.1063304722
 40
0.2270875895
 40
0.3620431307
 40
0.504926709
 40
0.6467376073
 40
0.7788118468
 40
0.8959910629
 40
1.0
 40
1.0
 40
1.0
 40
1.0
 10
312.7158901639
 20
321.4043981797
 30
0.0
 10
312.6654171771
 20
321.2924751002
 30
0.0
 10
312.4925133824
 20
321.0812411341
 30
0.0
 10
312.1152152308
 20
320.8839235284
 30
0.0
 10
311.6568414874
 20
320.7995853069
 30
0.0
 10
311.1687128525
 20
320.8358723867
 30
0.0
 10
310.7067101867
 20
320.9876608551
 30
0.0
 10
310.3243907092
 20
321.2394627277
 30
0.0
 10
310.0661949839
 20
321.5668646499
 30
0.0
 10
310.0052928721
 20
321.8270237186
 30
0.0
 10
310.0101807565
 20
321.9470210183
 30
0.0
  0
SPLINE
  5
63D
100
AcDbEntity
  8
BEZUGSACHSEN
100
AcDbSpline
 62
7
  6
CONTINUOUS
 70
0
 71
3
 72
17
 73
13
 74
0
 42
0.0000001
 43
0.0000001
 44
0.0000000001
 40
0.0
 40
0.0
 40
0.0
 40
0.0
 40
0.0449885741
 40
0.0913394922
 40
0.1416899698
 40
0.197717227
 40
0.3275292941
 40
0.4760663431
 40
0.6307174091
 40
0.7058657467
 40
0.7771577568
 40
1.0
 40
1.0
 40
1.0
 40
1.0
 10
281.9941373148
 20
319.8657147476
 30
0.0
 10
282.0020891886
 20
319.8155340217
 30
0.0
 10
282.0349729259
 20
319.7154204305
 30
0.0
 10
282.133492562
 20
319.5860894412
 30
0.0
 10
282.2746128592
 20
319.4834619464
 30
0.0
 10
282.522610074
 20
319.3803232769
 30
0.0
 10
282.9050135885
 20
319.338813329
 30
0.0
 10
283.3924701109
 20
319.4101342378
 30
0.0
 10
283.7955776476
 20
319.5612660136
 30
0.0
 10
284.0907788914
 20
319.7339428612
 30
0.0
 10
284.4192421347
 20
319.9820027646
 30
0.0
 10
284.6514426919
 20
320.2940862765
 30
0.0
 10
284.6514426919
 20
320.5457483052
 30
0.0
  0
SPLINE
  5
63E
100
AcDbEntity
  8
KONSTRUKTIONSELEMENTE
100
AcDbSpline
 62
7
  6
CONTINUOUS
 70
0
 71
3
 72
9
 73
5
 74
0
 42
0.0000001
 43
0.0000001
 44
0.0000000001
 40
0.0
 40
0.0
 40
0.0
 40
0.0
 40
0.275959109
 40
1.0
 40
1.0
 40
1.0
 40
1.0
 10
276.7272949995
 20
319.4457393851
 30
0.0
 10
276.7272949995
 20
319.2291846611
 30
0.0
 10
276.729774872
 20
318.4444621185
 30
0.0
 10
276.7421723232
 20
317.6596961268
 30
0.0
 10
276.7611970923
 20
317.0918346217
 30
0.0
  0
SPLINE
  5
63F
100
AcDbEntity
  8
0
100
AcDbSpline
 62
7
  6
CONTINUOUS
 70
0
 71
3
 72
17
 73
13
 74
0
 42
0.0000001
 43
0.0000001
 44
0.0000000001
 40
0.0
 40
0.0
 40
0.0
 40
0.0
 40
0.0449885741
 40
0.0913394922
 40
0.1416899698
 40
0.197717227
 40
0.3275292941
 40
0.4760663431
 40
0.6307174091
 40
0.7058657467
 40
0.7771577568
 40
1.0
 40
1.0
 40
1.0
 40
1.0
 10
308.7601226711
 20
319.8657147476
 30
0.0
 10
308.7521707972
 20
319.8155340217
 30
0.0
 10
308.7192870599
 20
319.7154204305
 30
0.0
 10
308.6207674238
 20
319.5860894412
 30
0.0
 10
308.4796471266
 20
319.4834619464
 30
0.0
 10
308.2316499118
 20
319.3803232769
 30
0.0
 10
307.8492463973
 20
319.338813329
 30
0.0
 10
307.3617898749
 20
319.4101342378
 30
0.0
 10
306.9586823382
 20
319.5612660136
 30
0.0
 10
306.6634810944
 20
319.7339428612
 30
0.0
 10
306.3350178511
 20
319.9820027646
 30
0.0
 10
306.1028172939
 20
320.2940862765
 30
0.0
 10
306.1028172939
 20
320.5457483052
 30
0.0
  0
SPLINE
  5
640
100
AcDbEntity
  8
0
100
AcDbSpline
 62
7
  6
CONTINUOUS
 70
0
 71
3
 72
9
 73
5
 74
0
 42
0.0000001
 43
0.0000001
 44
0.0000000001
 40
0.0
 40
0.0
 40
0.0
 40
0.0
 40
0.4763353332
 40
1.0
 40
1.0
 40
1.0
 40
1.0
 10
312.7767926168
 20
317.6306476449
 30
0.0
 10
312.7757234437
 20
317.5825341509
 30
0.0
 10
312.750139261
 20
317.480984887
 30
0.0
 10
312.6861195082
 20
317.3996237492
 30
0.0
 10
312.6479692264
 20
317.3629668919
 30
0.0
  0
SPLINE
  5
641
100
AcDbEntity
  8
0
100
AcDbSpline
 62
7
  6
CONTINUOUS
 70
0
 71
3
 72
15
 73
11
 74
0
 42
0.0000001
 43
0.0000001
 44
0.0000000001
 40
0.0
 40
0.0
 40
0.0
 40
0.0
 40
0.0981845354
 40
0.2198259691
 40
0.3599513036
 40
0.5093741703
 40
0.6572288505
 40
0.7929330052
 40
0.9081957707
 40
1.0
 40
1.0
 40
1.0
 40
1.0
 10
312.6479692264
 20
317.3629668919
 30
0.0
 10
312.5799771476
 20
317.2976364195
 30
0.0
 10
312.3926747285
 20
317.1890529667
 30
0.0
 10
312.0567361245
 20
317.0999234641
 30
0.0
 10
311.6608462247
 20
317.0707667853
 30
0.0
 10
311.2407020088
 20
317.1054111469
 30
0.0
 10
310.834242787
 20
317.2002964687
 30
0.0
 10
310.4782510375
 20
317.3475264839
 30
0.0
 10
310.2031709499
 20
317.532394546
 30
0.0
 10
310.0751800946
 20
317.6932236986
 30
0.0
 10
310.0410890039
 20
317.7745305999
 30
0.0
  0
SPLINE
  5
642
100
AcDbEntity
  8
0
100
AcDbSpline
 62
7
  6
CONTINUOUS
 70
0
 71
3
 72
9
 73
5
 74
0
 42
0.0000001
 43
0.0000001
 44
0.0000000001
 40
0.0
 40
0.0
 40
0.0
 40
0.0
 40
0.2607079111
 40
1.0
 40
1.0
 40
1.0
 40
1.0
 10
310.0410890039
 20
317.7745305999
 30
0.0
 10
310.0366429009
 20
317.7851345098
 30
0.0
 10
310.0210956868
 20
317.8264043178
 30
0.0
 10
310.0120591093
 20
317.8702723853
 30
0.0
 10
310.0101807565
 20
317.9028240628
 30
0.0
  0
SPLINE
  5
643
100
AcDbEntity
  8
AUSFORMSCHRAEGEN
100
AcDbSpline
 62
7
  6
CONTINUOUS
 70
0
 71
3
 72
21
 73
17
 74
0
 42
0.0000001
 43
0.0000001
 44
0.0000000001
 40
0.0
 40
0.0
 40
0.0
 40
0.0
 40
0.1560496556
 40
0.2300832397
 40
0.2998538943
 40
0.3646027597
 40
0.4240228249
 40
0.4784078403
 40
0.5287881106
 40
0.5769588211
 40
0.6252334124
 40
0.6758938334
 40
0.7306750747
 40
0.7905450416
 40
0.855743074
 40
1.0
 40
1.0
 40
1.0
 40
1.0
 10
276.9895506376
 20
329.05209503
 30
0.0
 10
278.3185664225
 20
329.0112228262
 30
0.0
 10
280.2821560918
 20
328.7565662198
 30
0.0
 10
282.7293276251
 20
328.0071284328
 30
0.0
 10
284.3564252723
 20
327.2795751762
 30
0.0
 10
285.7606037015
 20
326.3964479095
 30
0.0
 10
286.9031841418
 20
325.3793145438
 30
0.0
 10
287.7500396447
 20
324.2519150452
 30
0.0
 10
288.2701542459
 20
323.0413813258
 30
0.0
 10
288.4365806154
 20
321.7843634934
 30
0.0
 10
288.238339793
 20
320.5297063441
 30
0.0
 10
287.6886446263
 20
319.3253229016
 30
0.0
 10
286.8149479751
 20
318.206805329
 30
0.0
 10
285.6482323816
 20
317.2004456681
 30
0.0
 10
283.68341445
 20
316.0008143773
 30
0.0
 10
281.9746628839
 20
315.4050768719
 30
0.0
 10
280.7787068718
 20
315.1212996783
 30
0.0
  0
SPLINE
  5
644
100
AcDbEntity
  8
AUSFORMSCHRAEGEN
100
AcDbSpline
 62
7
  6
CONTINUOUS
 70
0
 71
3
 72
9
 73
5
 74
0
 42
0.0000001
 43
0.0000001
 44
0.0000000001
 40
0.0
 40
0.0
 40
0.0
 40
0.0
 40
0.246374824
 40
1.0
 40
1.0
 40
1.0
 40
1.0
 10
280.7787068718
 20
315.1212996783
 30
0.0
 10
280.573939869
 20
315.0727124352
 30
0.0
 10
279.7392987142
 20
314.8905621167
 30
0.0
 10
278.8919212884
 20
314.7675214132
 30
0.0
 10
278.2510717104
 20
314.7065459564
 30
0.0
  0
SPLINE
  5
645
100
AcDbEntity
  8
KONSTRUKTIONSELEMENTE
100
AcDbSpline
 62
7
  6
CONTINUOUS
 70
0
 71
3
 72
9
 73
5
 74
0
 42
0.0000001
 43
0.0000001
 44
0.0000000001
 40
0.0
 40
0.0
 40
0.0
 40
0.0
 40
0.23573969
 40
1.0
 40
1.0
 40
1.0
 40
1.0
 10
278.2510717104
 20
314.7065459564
 30
0.0
 10
278.2209817212
 20
314.7269572795
 30
0.0
 10
278.0957154754
 20
314.81703754
 30
0.0
 10
277.9798821279
 20
314.919847992
 30
0.0
 10
277.8961358332
 20
315.002803113
 30
0.0
  0
SPLINE
  5
646
100
AcDbEntity
  8
KONSTRUKTIONSELEMENTE
100
AcDbSpline
 62
7
  6
CONTINUOUS
 70
0
 71
3
 72
9
 73
5
 74
0
 42
0.0000001
 43
0.0000001
 44
0.0000000001
 40
0.0
 40
0.0
 40
0.0
 40
0.0
 40
0.4538930038
 40
1.0
 40
1.0
 40
1.0
 40
1.0
 10
277.8961358332
 20
315.002803113
 30
0.0
 10
277.7267642347
 20
315.1705746126
 30
0.0
 10
277.3938751242
 20
315.5806519562
 30
0.0
 10
277.1193791394
 20
316.0295331209
 30
0.0
 10
276.9804292156
 20
316.2804630406
 30
0.0
  0
SPLINE
  5
647
100
AcDbEntity
  8
BEZUGSACHSEN
100
AcDbSpline
 62
7
  6
CONTINUOUS
 70
0
 71
3
 72
9
 73
5
 74
0
 42
0.0000001
 43
0.0000001
 44
0.0000000001
 40
0.0
 40
0.0
 40
0.0
 40
0.0
 40
0.254311277
 40
1.0
 40
1.0
 40
1.0
 40
1.0
 10
284.6514426919
 20
320.5457483052
 30
0.0
 10
284.6514426919
 20
320.5670657095
 30
0.0
 10
284.6462927175
 20
320.6508224258
 30
0.0
 10
284.6184197246
 20
320.7330854829
 30
0.0
 10
284.5869597447
 20
320.7870979996
 30
0.0
  0
SPLINE
  5
648
100
AcDbEntity
  8
BEZUGSACHSEN
100
AcDbSpline
 62
7
  6
CONTINUOUS
 70
0
 71
3
 72
9
 73
5
 74
0
 42
0.0000001
 43
0.0000001
 44
0.0000000001
 40
0.0
 40
0.0
 40
0.0
 40
0.0
 40
0.4973329541
 40
1.0
 40
1.0
 40
1.0
 40
1.0
 10
284.5833912234
 20
325.3333329542
 30
0.0
 10
284.5683689928
 20
325.417698413
 30
0.0
 10
284.5107242524
 20
325.5836663314
 30
0.0
 10
284.4030843796
 20
325.7224108996
 30
0.0
 10
284.3401928295
 20
325.7819609884
 30
0.0
  0
SPLINE
  5
649
100
AcDbEntity
  8
BEZUGSACHSEN
100
AcDbSpline
 62
7
  6
CONTINUOUS
 70
0
 71
3
 72
15
 73
11
 74
0
 42
0.0000001
 43
0.0000001
 44
0.0000000001
 40
0.0
 40
0.0
 40
0.0
 40
0.0
 40
0.1160764945
 40
0.234843927
 40
0.3606868018
 40
0.4930848416
 40
0.6275961938
 40
0.7586105677
 40
0.8824677867
 40
1.0
 40
1.0
 40
1.0
 40
1.0
 10
277.9833663757
 20
327.2128024475
 30
0.0
 10
277.9763390515
 20
327.0506914611
 30
0.0
 10
278.042441323
 20
326.7134585819
 30
0.0
 10
278.3716703073
 20
326.3084143095
 30
0.0
 10
278.8584557251
 20
326.0706194246
 30
0.0
 10
279.4181454511
 20
326.0294920653
 30
0.0
 10
279.9640489985
 20
326.1857998251
 30
0.0
 10
280.4119498794
 20
326.5170436014
 30
0.0
 10
280.6884498007
 20
326.9757884712
 30
0.0
 10
280.7190258966
 20
327.326833318
 30
0.0
 10
280.6930331201
 20
327.4890623729
 30
0.0
  0
SPLINE
  5
64A
100
AcDbEntity
  8
BEZUGSACHSEN
100
AcDbSpline
 62
7
  6
CONTINUOUS
 70
0
 71
3
 72
9
 73
5
 74
0
 42
0.0000001
 43
0.0000001
 44
0.0000000001
 40
0.0
 40
0.0
 40
0.0
 40
0.0
 40
0.746357998
 40
1.0
 40
1.0
 40
1.0
 40
1.0
 10
280.6930331201
 20
327.4890623729
 30
0.0
 10
280.6732420873
 20
327.6125844045
 30
0.0
 10
280.6145824587
 20
327.7750559202
 30
0.0
 10
280.5217217904
 20
327.9147615412
 30
0.0
 10
280.4961459964
 20
327.9487209323
 30
0.0
  0
SPLINE
  5
64B
100
AcDbEntity
  8
BEZUGSACHSEN
100
AcDbSpline
 62
7
  6
CONTINUOUS
 70
0
 71
3
 72
9
 73
5
 74
0
 42
0.0000001
 43
0.0000001
 44
0.0000000001
 40
0.0
 40
0.0
 40
0.0
 40
0.0
 40
0.5204164849
 40
1.0
 40
1.0
 40
1.0
 40
1.0
 10
284.5833912234
 20
317.244939043
 30
0.0
 10
284.5928585874
 20
317.272437793
 30
0.0
 10
284.6030756849
 20
317.3292779377
 30
0.0
 10
284.5853300219
 20
317.3849532209
 30
0.0
 10
284.5714231475
 20
317.4078636933
 30
0.0
  0
SPLINE
  5
64C
100
AcDbEntity
  8
BEZUGSACHSEN
100
AcDbSpline
 62
7
  6
CONTINUOUS
 70
0
 71
3
 72
10
 73
6
 74
0
 42
0.0000001
 43
0.0000001
 44
0.0000000001
 40
0.0
 40
0.0
 40
0.0
 40
0.0
 40
0.3744322788
 40
0.6521494712
 40
1.0
 40
1.0
 40
1.0
 40
1.0
 10
277.9833663757
 20
315.0802115808
 30
0.0
 10
277.9887483827
 20
315.0468276319
 30
0.0
 10
278.0381176739
 20
315.0002205549
 30
0.0
 10
278.1187506
 20
314.9636257878
 30
0.0
 10
278.1733855558
 20
314.9468923185
 30
0.0
 10
278.2038365319
 20
314.9391720551
 30
0.0
  0
SPLINE
  5
64D
100
AcDbEntity
  8
BEZUGSACHSEN
100
AcDbSpline
 62
7
  6
CONTINUOUS
 70
0
 71
3
 72
12
 73
8
 74
0
 42
0.0000001
 43
0.0000001
 44
0.0000000001
 40
0.0
 40
0.0
 40
0.0
 40
0.0
 40
0.0929611527
 40
0.2077902701
 40
0.4802619482
 40
0.763403182
 40
1.0
 40
1.0
 40
1.0
 40
1.0
 10
278.2038365319
 20
314.9391720551
 30
0.0
 10
278.2705881784
 20
314.9222484498
 30
0.0
 10
278.4232169634
 20
314.8982951876
 30
0.0
 10
278.7786058681
 20
314.8776984662
 30
0.0
 10
279.276224877
 20
314.9030848432
 30
0.0
 10
279.8565624643
 20
314.9925787983
 30
0.0
 10
280.2304900189
 20
315.0932237204
 30
0.0
 10
280.3930176231
 20
315.1588197576
 30
0.0
  0
SPLINE
  5
64E
100
AcDbEntity
  8
BEZUGSACHSEN
100
AcDbSpline
 62
7
  6
CONTINUOUS
 70
0
 71
3
 72
10
 73
6
 74
0
 42
0.0000001
 43
0.0000001
 44
0.0000000001
 40
0.0
 40
0.0
 40
0.0
 40
0.0
 40
0.6071545133
 40
0.8295303246
 40
1.0
 40
1.0
 40
1.0
 40
1.0
 10
280.3930176231
 20
315.1588197576
 30
0.0
 10
280.4613479088
 20
315.1863978173
 30
0.0
 10
280.5538447898
 20
315.2288396001
 30
0.0
 10
280.651331243
 20
315.3015751957
 30
0.0
 10
280.6831677477
 20
315.338286561
 30
0.0
 10
280.6930331201
 20
315.3564715062
 30
0.0
  0
SPLINE
  5
64F
100
AcDbEntity
  8
KONSTRUKTIONSELEMENTE
100
AcDbSpline
 62
7
  6
CONTINUOUS
 70
0
 71
3
 72
9
 73
5
 74
0
 42
0.0000001
 43
0.0000001
 44
0.0000000001
 40
0.0
 40
0.0
 40
0.0
 40
0.0
 40
0.5083480285
 40
1.0
 40
1.0
 40
1.0
 40
1.0
 10
276.7611970923
 20
317.0918346217
 30
0.0
 10
276.7659998752
 20
316.9484785845
 30
0.0
 10
276.8060047623
 20
316.6662513904
 30
0.0
 10
276.9132266094
 20
316.4018243491
 30
0.0
 10
276.9804292156
 20
316.2804630406
 30
0.0
  0
SPLINE
  5
650
100
AcDbEntity
  8
0
100
AcDbSpline
 62
7
  6
CONTINUOUS
 70
0
 71
3
 72
9
 73
5
 74
0
 42
0.0000001
 43
0.0000001
 44
0.0000000001
 40
0.0
 40
0.0
 40
0.0
 40
0.0
 40
0.275959109
 40
1.0
 40
1.0
 40
1.0
 40
1.0
 10
314.0269649864
 20
319.4457393851
 30
0.0
 10
314.0269649864
 20
319.2291846611
 30
0.0
 10
314.0244851138
 20
318.4444621185
 30
0.0
 10
314.0120876627
 20
317.6596961268
 30
0.0
 10
313.9930628935
 20
317.0918346217
 30
0.0
  0
SPLINE
  5
651
100
AcDbEntity
  8
0
100
AcDbSpline
 62
7
  6
CONTINUOUS
 70
0
 71
3
 72
9
 73
5
 74
0
 42
0.0000001
 43
0.0000001
 44
0.0000000001
 40
0.0
 40
0.0
 40
0.0
 40
0.0
 40
0.4501551615
 40
1.0
 40
1.0
 40
1.0
 40
1.0
 10
314.0269649864
 20
319.4457393851
 30
0.0
 10
314.0269649864
 20
320.8878103196
 30
0.0
 10
313.9671314618
 20
324.09122382
 30
0.0
 10
313.8446472671
 20
327.2924832899
 30
0.0
 10
313.7647093482
 20
329.05209503
 30
0.0
  0
SPLINE
  5
652
100
AcDbEntity
  8
0
100
AcDbSpline
 62
7
  6
CONTINUOUS
 70
0
 71
3
 72
11
 73
7
 74
0
 42
0.0000001
 43
0.0000001
 44
0.0000000001
 40
0.0
 40
0.0
 40
0.0
 40
0.0
 40
0.1981354227
 40
0.4143620294
 40
0.6773813451
 40
1.0
 40
1.0
 40
1.0
 40
1.0
 10
308.7760740175
 20
316.6232543332
 30
0.0
 10
308.7750133558
 20
316.5966013157
 30
0.0
 10
308.7589853562
 20
316.5404265127
 30
0.0
 10
308.6940299511
 20
316.4727755601
 30
0.0
 10
308.596709822
 20
316.4233810205
 30
0.0
 10
308.5200874353
 20
316.4030316557
 30
0.0
 10
308.4774583352
 20
316.3947151796
 30
0.0
  0
SPLINE
  5
653
100
AcDbEntity
  8
0
100
AcDbSpline
 62
7
  6
CONTINUOUS
 70
0
 71
3
 72
13
 73
9
 74
0
 42
0.0000001
 43
0.0000001
 44
0.0000000001
 40
0.0
 40
0.0
 40
0.0
 40
0.0
 40
0.104079232
 40
0.2296751234
 40
0.516809318
 40
0.7944042714
 40
0.9091118696
 40
1.0
 40
1.0
 40
1.0
 40
1.0
 10
308.4774583352
 20
316.3947151796
 30
0.0
 10
308.3944498703
 20
316.3785211263
 30
0.0
 10
308.2069382051
 20
316.3657658904
 30
0.0
 10
307.7873902894
 20
316.3965244852
 30
0.0
 10
307.2386456365
 20
316.5280054111
 30
0.0
 10
306.7258489564
 20
316.7439019283
 30
0.0
 10
306.3976060004
 20
316.960751023
 30
0.0
 10
306.2749173081
 20
317.0771621144
 30
0.0
 10
306.2308449211
 20
317.1364251231
 30
0.0
  0
SPLINE
  5
654
100
AcDbEntity
  8
0
100
AcDbSpline
 62
7
  6
CONTINUOUS
 70
0
 71
3
 72
9
 73
5
 74
0
 42
0.0000001
 43
0.0000001
 44
0.0000000001
 40
0.0
 40
0.0
 40
0.0
 40
0.0
 40
0.2740165452
 40
1.0
 40
1.0
 40
1.0
 40
1.0
 10
306.2308449211
 20
317.1364251231
 30
0.0
 10
306.2240731649
 20
317.14553093
 30
0.0
 10
306.2003501855
 20
317.1794385808
 30
0.0
 10
306.1806558489
 20
317.2165116322
 30
0.0
 10
306.1708687624
 20
317.244939043
 30
0.0
  0
SPLINE
  5
655
100
AcDbEntity
  8
BEZUGSACHSEN
100
AcDbSpline
 62
7
  6
CONTINUOUS
 70
0
 71
3
 72
11
 73
7
 74
0
 42
0.0000001
 43
0.0000001
 44
0.0000000001
 40
0.0
 40
0.0
 40
0.0
 40
0.0
 40
0.1981354227
 40
0.4143620294
 40
0.6773813451
 40
1.0
 40
1.0
 40
1.0
 40
1.0
 10
281.9781859683
 20
316.6232543332
 30
0.0
 10
281.97924663
 20
316.5966013157
 30
0.0
 10
281.9952746296
 20
316.5404265127
 30
0.0
 10
282.0602300347
 20
316.4727755601
 30
0.0
 10
282.1575501638
 20
316.4233810205
 30
0.0
 10
282.2341725505
 20
316.4030316557
 30
0.0
 10
282.2768016507
 20
316.3947151796
 30
0.0
  0
SPLINE
  5
656
100
AcDbEntity
  8
BEZUGSACHSEN
100
AcDbSpline
 62
7
  6
CONTINUOUS
 70
0
 71
3
 72
13
 73
9
 74
0
 42
0.0000001
 43
0.0000001
 44
0.0000000001
 40
0.0
 40
0.0
 40
0.0
 40
0.0
 40
0.104079232
 40
0.2296751234
 40
0.516809318
 40
0.7944042714
 40
0.9091118696
 40
1.0
 40
1.0
 40
1.0
 40
1.0
 10
282.2768016507
 20
316.3947151796
 30
0.0
 10
282.3598101155
 20
316.3785211263
 30
0.0
 10
282.5473217807
 20
316.3657658904
 30
0.0
 10
282.9668696964
 20
316.3965244852
 30
0.0
 10
283.5156143493
 20
316.5280054111
 30
0.0
 10
284.0284110294
 20
316.7439019283
 30
0.0
 10
284.3566539854
 20
316.960751023
 30
0.0
 10
284.4793426777
 20
317.0771621144
 30
0.0
 10
284.5234150647
 20
317.1364251231
 30
0.0
  0
SPLINE
  5
657
100
AcDbEntity
  8
BEZUGSACHSEN
100
AcDbSpline
 62
7
  6
CONTINUOUS
 70
0
 71
3
 72
9
 73
5
 74
0
 42
0.0000001
 43
0.0000001
 44
0.0000000001
 40
0.0
 40
0.0
 40
0.0
 40
0.0
 40
0.2740165452
 40
1.0
 40
1.0
 40
1.0
 40
1.0
 10
284.5234150647
 20
317.1364251231
 30
0.0
 10
284.5301868209
 20
317.14553093
 30
0.0
 10
284.5539098003
 20
317.1794385808
 30
0.0
 10
284.5736041369
 20
317.2165116322
 30
0.0
 10
284.5833912234
 20
317.244939043
 30
0.0
  0
SPLINE
  5
658
100
AcDbEntity
  8
0
100
AcDbSpline
 62
7
  6
CONTINUOUS
 70
0
 71
3
 72
15
 73
11
 74
0
 42
0.0000001
 43
0.0000001
 44
0.0000000001
 40
0.0
 40
0.0
 40
0.0
 40
0.0
 40
0.1078297675
 40
0.2218707249
 40
0.3480645294
 40
0.4848337032
 40
0.6254573999
 40
0.7615826629
 40
0.8867747102
 40
1.0
 40
1.0
 40
1.0
 40
1.0
 10
308.7517989251
 20
324.5319044557
 30
0.0
 10
308.7198694962
 20
324.4023365577
 30
0.0
 10
308.5826076586
 20
324.1483279634
 30
0.0
 10
308.2080246607
 20
323.9074621133
 30
0.0
 10
307.7382058319
 20
323.8269106716
 30
0.0
 10
307.2372267771
 20
323.9062731621
 30
0.0
 10
306.7696288903
 20
324.1312946312
 30
0.0
 10
306.3973126439
 20
324.4730693739
 30
0.0
 10
306.1710523873
 20
324.8889996608
 30
0.0
 10
306.1463049392
 20
325.195381523
 30
0.0
 10
306.1708687624
 20
325.3333329542
 30
0.0
  0
SPLINE
  5
659
100
AcDbEntity
  8
0
100
AcDbSpline
 62
7
  6
CONTINUOUS
 70
0
 71
3
 72
9
 73
5
 74
0
 42
0.0000001
 43
0.0000001
 44
0.0000000001
 40
0.0
 40
0.0
 40
0.0
 40
0.0
 40
0.23573969
 40
1.0
 40
1.0
 40
1.0
 40
1.0
 10
312.5031882754
 20
314.7065459564
 30
0.0
 10
312.5332782646
 20
314.7269572795
 30
0.0
 10
312.6585445104
 20
314.81703754
 30
0.0
 10
312.7743778579
 20
314.919847992
 30
0.0
 10
312.8581241526
 20
315.002803113
 30
0.0
  0
SPLINE
  5
65A
100
AcDbEntity
  8
0
100
AcDbSpline
 62
7
  6
CONTINUOUS
 70
0
 71
3
 72
9
 73
5
 74
0
 42
0.0000001
 43
0.0000001
 44
0.0000000001
 40
0.0
 40
0.0
 40
0.0
 40
0.0
 40
0.4538930038
 40
1.0
 40
1.0
 40
1.0
 40
1.0
 10
312.8581241526
 20
315.002803113
 30
0.0
 10
313.0274957511
 20
315.1705746126
 30
0.0
 10
313.3603848616
 20
315.5806519562
 30
0.0
 10
313.6348808464
 20
316.0295331209
 30
0.0
 10
313.7738307702
 20
316.2804630406
 30
0.0
  0
SPLINE
  5
65B
100
AcDbEntity
  8
0
100
AcDbSpline
 62
7
  6
CONTINUOUS
 70
0
 71
3
 72
21
 73
17
 74
0
 42
0.0000001
 43
0.0000001
 44
0.0000000001
 40
0.0
 40
0.0
 40
0.0
 40
0.0
 40
0.1560496556
 40
0.2300832397
 40
0.2998538943
 40
0.3646027597
 40
0.4240228249
 40
0.4784078403
 40
0.5287881106
 40
0.5769588211
 40
0.6252334124
 40
0.6758938334
 40
0.7306750747
 40
0.7905450416
 40
0.855743074
 40
1.0
 40
1.0
 40
1.0
 40
1.0
 10
313.7647093482
 20
329.05209503
 30
0.0
 10
312.4356935633
 20
329.0112228262
 30
0.0
 10
310.472103894
 20
328.7565662198
 30
0.0
 10
308.0249323608
 20
328.0071284328
 30
0.0
 10
306.3978347135
 20
327.2795751762
 30
0.0
 10
304.9936562843
 20
326.3964479095
 30
0.0
 10
303.851075844
 20
325.3793145438
 30
0.0
 10
303.0042203412
 20
324.2519150452
 30
0.0
 10
302.48410574
 20
323.0413813258
 30
0.0
 10
302.3176793704
 20
321.7843634934
 30
0.0
 10
302.5159201929
 20
320.5297063441
 30
0.0
 10
303.0656153595
 20
319.3253229016
 30
0.0
 10
303.9393120107
 20
318.206805329
 30
0.0
 10
305.1060276042
 20
317.2004456681
 30
0.0
 10
307.0708455358
 20
316.0008143773
 30
0.0
 10
308.7795971019
 20
315.4050768719
 30
0.0
 10
309.975553114
 20
315.1212996783
 30
0.0
  0
SPLINE
  5
65C
100
AcDbEntity
  8
0
100
AcDbSpline
 62
7
  6
CONTINUOUS
 70
0
 71
3
 72
9
 73
5
 74
0
 42
0.0000001
 43
0.0000001
 44
0.0000000001
 40
0.0
 40
0.0
 40
0.0
 40
0.0
 40
0.246374824
 40
1.0
 40
1.0
 40
1.0
 40
1.0
 10
309.975553114
 20
315.1212996783
 30
0.0
 10
310.1803201169
 20
315.0727124352
 30
0.0
 10
311.0149612716
 20
314.8905621167
 30
0.0
 10
311.8623386974
 20
314.7675214132
 30
0.0
 10
312.5031882754
 20
314.7065459564
 30
0.0
  0
SPLINE
  5
65D
100
AcDbEntity
  8
0
100
AcDbSpline
 62
7
  6
CONTINUOUS
 70
0
 71
3
 72
9
 73
5
 74
0
 42
0.0000001
 43
0.0000001
 44
0.0000000001
 40
0.0
 40
0.0
 40
0.0
 40
0.0
 40
0.254311277
 40
1.0
 40
1.0
 40
1.0
 40
1.0
 10
306.1028172939
 20
320.5457483052
 30
0.0
 10
306.1028172939
 20
320.5670657095
 30
0.0
 10
306.1079672683
 20
320.6508224258
 30
0.0
 10
306.1358402612
 20
320.7330854829
 30
0.0
 10
306.1673002411
 20
320.7870979996
 30
0.0
  0
SPLINE
  5
65E
100
AcDbEntity
  8
0
100
AcDbSpline
 62
7
  6
CONTINUOUS
 70
0
 71
3
 72
9
 73
5
 74
0
 42
0.0000001
 43
0.0000001
 44
0.0000000001
 40
0.0
 40
0.0
 40
0.0
 40
0.0
 40
0.4973329541
 40
1.0
 40
1.0
 40
1.0
 40
1.0
 10
306.1708687624
 20
325.3333329542
 30
0.0
 10
306.185890993
 20
325.417698413
 30
0.0
 10
306.2435357334
 20
325.5836663314
 30
0.0
 10
306.3511756062
 20
325.7224108996
 30
0.0
 10
306.4140671564
 20
325.7819609884
 30
0.0
  0
SPLINE
  5
65F
100
AcDbEntity
  8
0
100
AcDbSpline
 62
7
  6
CONTINUOUS
 70
0
 71
3
 72
15
 73
11
 74
0
 42
0.0000001
 43
0.0000001
 44
0.0000000001
 40
0.0
 40
0.0
 40
0.0
 40
0.0
 40
0.1160764945
 40
0.234843927
 40
0.3606868018
 40
0.4930848416
 40
0.6275961938
 40
0.7586105677
 40
0.8824677867
 40
1.0
 40
1.0
 40
1.0
 40
1.0
 10
312.7708936101
 20
327.2128024475
 30
0.0
 10
312.7779209344
 20
327.0506914611
 30
0.0
 10
312.7118186628
 20
326.7134585819
 30
0.0
 10
312.3825896785
 20
326.3084143095
 30
0.0
 10
311.8958042607
 20
326.0706194246
 30
0.0
 10
311.3361145347
 20
326.0294920653
 30
0.0
 10
310.7902109873
 20
326.1857998251
 30
0.0
 10
310.3423101064
 20
326.5170436014
 30
0.0
 10
310.0658101851
 20
326.9757884712
 30
0.0
 10
310.0352340892
 20
327.326833318
 30
0.0
 10
310.0612268657
 20
327.4890623729
 30
0.0
  0
SPLINE
  5
660
100
AcDbEntity
  8
0
100
AcDbSpline
 62
7
  6
CONTINUOUS
 70
0
 71
3
 72
9
 73
5
 74
0
 42
0.0000001
 43
0.0000001
 44
0.0000000001
 40
0.0
 40
0.0
 40
0.0
 40
0.0
 40
0.746357998
 40
1.0
 40
1.0
 40
1.0
 40
1.0
 10
310.0612268657
 20
327.4890623729
 30
0.0
 10
310.0810178986
 20
327.6125844045
 30
0.0
 10
310.1396775271
 20
327.7750559202
 30
0.0
 10
310.2325381954
 20
327.9147615412
 30
0.0
 10
310.2581139894
 20
327.9487209323
 30
0.0
  0
SPLINE
  5
661
100
AcDbEntity
  8
0
100
AcDbSpline
 62
7
  6
CONTINUOUS
 70
0
 71
3
 72
9
 73
5
 74
0
 42
0.0000001
 43
0.0000001
 44
0.0000000001
 40
0.0
 40
0.0
 40
0.0
 40
0.0
 40
0.5204164849
 40
1.0
 40
1.0
 40
1.0
 40
1.0
 10
306.1708687624
 20
317.244939043
 30
0.0
 10
306.1614013984
 20
317.272437793
 30
0.0
 10
306.1511843009
 20
317.3292779377
 30
0.0
 10
306.168929964
 20
317.3849532209
 30
0.0
 10
306.1828368384
 20
317.4078636933
 30
0.0
  0
SPLINE
  5
662
100
AcDbEntity
  8
0
100
AcDbSpline
 62
7
  6
CONTINUOUS
 70
0
 71
3
 72
10
 73
6
 74
0
 42
0.0000001
 43
0.0000001
 44
0.0000000001
 40
0.0
 40
0.0
 40
0.0
 40
0.0
 40
0.3744322788
 40
0.6521494712
 40
1.0
 40
1.0
 40
1.0
 40
1.0
 10
312.7708936101
 20
315.0802115808
 30
0.0
 10
312.7655116031
 20
315.0468276319
 30
0.0
 10
312.7161423119
 20
315.0002205549
 30
0.0
 10
312.6355093858
 20
314.9636257878
 30
0.0
 10
312.58087443
 20
314.9468923185
 30
0.0
 10
312.550423454
 20
314.9391720551
 30
0.0
  0
SPLINE
  5
663
100
AcDbEntity
  8
0
100
AcDbSpline
 62
7
  6
CONTINUOUS
 70
0
 71
3
 72
12
 73
8
 74
0
 42
0.0000001
 43
0.0000001
 44
0.0000000001
 40
0.0
 40
0.0
 40
0.0
 40
0.0
 40
0.0929611527
 40
0.2077902701
 40
0.4802619482
 40
0.763403182
 40
1.0
 40
1.0
 40
1.0
 40
1.0
 10
312.550423454
 20
314.9391720551
 30
0.0
 10
312.4836718074
 20
314.9222484498
 30
0.0
 10
312.3310430224
 20
314.8982951876
 30
0.0
 10
311.9756541177
 20
314.8776984662
 30
0.0
 10
311.4780351089
 20
314.9030848432
 30
0.0
 10
310.8976975215
 20
314.9925787983
 30
0.0
 10
310.5237699669
 20
315.0932237204
 30
0.0
 10
310.3612423627
 20
315.1588197576
 30
0.0
  0
SPLINE
  5
664
100
AcDbEntity
  8
0
100
AcDbSpline
 62
7
  6
CONTINUOUS
 70
0
 71
3
 72
10
 73
6
 74
0
 42
0.0000001
 43
0.0000001
 44
0.0000000001
 40
0.0
 40
0.0
 40
0.0
 40
0.0
 40
0.6071545133
 40
0.8295303246
 40
1.0
 40
1.0
 40
1.0
 40
1.0
 10
310.3612423627
 20
315.1588197576
 30
0.0
 10
310.2929120771
 20
315.1863978173
 30
0.0
 10
310.200415196
 20
315.2288396001
 30
0.0
 10
310.1029287428
 20
315.3015751957
 30
0.0
 10
310.0710922381
 20
315.338286561
 30
0.0
 10
310.0612268657
 20
315.3564715062
 30
0.0
  0
SPLINE
  5
665
100
AcDbEntity
  8
0
100
AcDbSpline
 62
7
  6
CONTINUOUS
 70
0
 71
3
 72
9
 73
5
 74
0
 42
0.0000001
 43
0.0000001
 44
0.0000000001
 40
0.0
 40
0.0
 40
0.0
 40
0.0
 40
0.5083480285
 40
1.0
 40
1.0
 40
1.0
 40
1.0
 10
313.9930628935
 20
317.0918346217
 30
0.0
 10
313.9882601106
 20
316.9484785845
 30
0.0
 10
313.9482552236
 20
316.6662513904
 30
0.0
 10
313.8410333764
 20
316.4018243491
 30
0.0
 10
313.7738307702
 20
316.2804630406
 30
0.0
  0
SPLINE
  5
666
100
AcDbEntity
  8
BEZUGSACHSEN
100
AcDbSpline
 62
7
  6
CONTINUOUS
 70
0
 71
3
 72
9
 73
5
 74
0
 42
0.0000001
 43
0.0000001
 44
0.0000000001
 40
0.0
 40
0.0
 40
0.0
 40
0.0
 40
0.4763353332
 40
1.0
 40
1.0
 40
1.0
 40
1.0
 10
277.977467369
 20
317.6306476449
 30
0.0
 10
277.9785365421
 20
317.5825341509
 30
0.0
 10
278.0041207248
 20
317.480984887
 30
0.0
 10
278.0681404776
 20
317.3996237492
 30
0.0
 10
278.1062907594
 20
317.3629668919
 30
0.0
  0
SPLINE
  5
667
100
AcDbEntity
  8
BEZUGSACHSEN
100
AcDbSpline
 62
7
  6
CONTINUOUS
 70
0
 71
3
 72
15
 73
11
 74
0
 42
0.0000001
 43
0.0000001
 44
0.0000000001
 40
0.0
 40
0.0
 40
0.0
 40
0.0
 40
0.0981845354
 40
0.2198259691
 40
0.3599513036
 40
0.5093741703
 40
0.6572288505
 40
0.7929330052
 40
0.9081957707
 40
1.0
 40
1.0
 40
1.0
 40
1.0
 10
278.1062907594
 20
317.3629668919
 30
0.0
 10
278.1742828382
 20
317.2976364195
 30
0.0
 10
278.3615852573
 20
317.1890529667
 30
0.0
 10
278.6975238613
 20
317.0999234641
 30
0.0
 10
279.0934137612
 20
317.0707667853
 30
0.0
 10
279.513557977
 20
317.1054111469
 30
0.0
 10
279.9200171988
 20
317.2002964687
 30
0.0
 10
280.2760089483
 20
317.3475264839
 30
0.0
 10
280.5510890359
 20
317.532394546
 30
0.0
 10
280.6790798912
 20
317.6932236986
 30
0.0
 10
280.7131709819
 20
317.7745305999
 30
0.0
  0
SPLINE
  5
668
100
AcDbEntity
  8
BEZUGSACHSEN
100
AcDbSpline
 62
7
  6
CONTINUOUS
 70
0
 71
3
 72
9
 73
5
 74
0
 42
0.0000001
 43
0.0000001
 44
0.0000000001
 40
0.0
 40
0.0
 40
0.0
 40
0.0
 40
0.2607079111
 40
1.0
 40
1.0
 40
1.0
 40
1.0
 10
280.7131709819
 20
317.7745305999
 30
0.0
 10
280.7176170849
 20
317.7851345098
 30
0.0
 10
280.733164299
 20
317.8264043178
 30
0.0
 10
280.7422008765
 20
317.8702723853
 30
0.0
 10
280.7440792293
 20
317.9028240628
 30
0.0
  0
SPLINE
  5
669
100
AcDbEntity
  8
BEZUGSACHSEN
100
AcDbSpline
 62
7
  6
CONTINUOUS
 70
0
 71
3
 72
15
 73
11
 74
0
 42
0.0000001
 43
0.0000001
 44
0.0000000001
 40
0.0
 40
0.0
 40
0.0
 40
0.0
 40
0.1078297675
 40
0.2218707249
 40
0.3480645294
 40
0.4848337032
 40
0.6254573999
 40
0.7615826629
 40
0.8867747102
 40
1.0
 40
1.0
 40
1.0
 40
1.0
 10
282.0024610607
 20
324.5319044557
 30
0.0
 10
282.0343904897
 20
324.4023365577
 30
0.0
 10
282.1716523272
 20
324.1483279634
 30
0.0
 10
282.5462353252
 20
323.9074621133
 30
0.0
 10
283.0160541539
 20
323.8269106716
 30
0.0
 10
283.5170332087
 20
323.9062731621
 30
0.0
 10
283.9846310956
 20
324.1312946312
 30
0.0
 10
284.3569473419
 20
324.4730693739
 30
0.0
 10
284.5832075985
 20
324.8889996608
 30
0.0
 10
284.6079550466
 20
325.195381523
 30
0.0
 10
284.5833912234
 20
325.3333329542
 30
0.0
  0
SPLINE
  5
66A
100
AcDbEntity
  8
0
100
AcDbSpline
 62
7
  6
CONTINUOUS
 70
0
 71
3
 72
11
 73
7
 74
0
 42
0.0000001
 43
0.0000001
 44
0.0000000001
 40
0.0
 40
0.0
 40
0.0
 40
0.0
 40
0.2201514612
 40
0.4645650253
 40
0.7273617293
 40
1.0
 40
1.0
 40
1.0
 40
1.0
 10
303.9342335904
 20
311.9596737797
 30
0.0
 10
303.5450998717
 20
312.2948790808
 30
0.0
 10
302.6288200452
 20
312.8939283666
 30
0.0
 10
301.0472224488
 20
313.5304816742
 30
0.0
 10
299.2642543332
 20
313.927059206
 30
0.0
 10
298.0131817717
 20
314.0161304234
 30
0.0
 10
297.3771299929
 20
314.0161304234
 30
0.0
  0
SPLINE
  5
66B
100
AcDbEntity
  8
KONSTRUKTIONSELEMENTE
100
AcDbSpline
 62
7
  6
CONTINUOUS
 70
0
 71
3
 72
11
 73
7
 74
0
 42
0.0000001
 43
0.0000001
 44
0.0000000001
 40
0.0
 40
0.0
 40
0.0
 40
0.0
 40
0.2201514612
 40
0.4645650253
 40
0.7273617293
 40
1.0
 40
1.0
 40
1.0
 40
1.0
 10
286.8200263954
 20
311.9596737797
 30
0.0
 10
287.2091601142
 20
312.2948790808
 30
0.0
 10
288.1254399406
 20
312.8939283666
 30
0.0
 10
289.707037537
 20
313.5304816742
 30
0.0
 10
291.4900056527
 20
313.927059206
 30
0.0
 10
292.7410782141
 20
314.0161304234
 30
0.0
 10
293.3771299929
 20
314.0161304234
 30
0.0
  0
SPLINE
  5
66C
100
AcDbEntity
  8
0
100
AcDbSpline
 62
7
  6
CONTINUOUS
 70
0
 71
3
 72
16
 73
12
 74
0
 42
0.0000001
 43
0.0000001
 44
0.0000000001
 40
0.0
 40
0.0
 40
0.0
 40
0.0
 40
0.0370060934
 40
0.0649623449
 40
0.1001271975
 40
0.1426103032
 40
0.1922912019
 40
0.312172093
 40
0.45696441
 40
0.6229483641
 40
1.0
 40
1.0
 40
1.0
 40
1.0
 10
307.9331300788
 20
373.3580377081
 30
0.0
 10
307.9330653248
 20
373.2945757909
 30
0.0
 10
308.0084771781
 20
373.1929658251
 30
0.0
 10
308.140437287
 20
373.0886531029
 30
0.0
 10
308.2959419611
 20
372.9928144905
 30
0.0
 10
308.4908305547
 20
372.8949042248
 30
0.0
 10
308.8252537885
 20
372.7512174765
 30
0.0
 10
309.3351504077
 20
372.5746956259
 30
0.0
 10
310.0466425682
 20
372.3754332141
 30
0.0
 10
311.1969683544
 20
372.1129915438
 30
0.0
 10
312.1175480172
 20
371.9641243688
 30
0.0
 10
312.7590246353
 20
371.8828254225
 30
0.0
  0
SPLINE
  5
66D
100
AcDbEntity
  8
KONSTRUKTIONSELEMENTE
100
AcDbSpline
 62
7
  6
CONTINUOUS
 70
0
 71
3
 72
16
 73
12
 74
0
 42
0.0000001
 43
0.0000001
 44
0.0000000001
 40
0.0
 40
0.0
 40
0.0
 40
0.0
 40
0.0370060934
 40
0.0649623449
 40
0.1001271975
 40
0.1426103032
 40
0.1922912019
 40
0.312172093
 40
0.45696441
 40
0.6229483641
 40
1.0
 40
1.0
 40
1.0
 40
1.0
 10
282.821129907
 20
373.3580377081
 30
0.0
 10
282.821194661
 20
373.2945757909
 30
0.0
 10
282.7457828077
 20
373.1929658251
 30
0.0
 10
282.6138226988
 20
373.0886531029
 30
0.0
 10
282.4583180247
 20
372.9928144905
 30
0.0
 10
282.2634294311
 20
372.8949042248
 30
0.0
 10
281.9290061973
 20
372.7512174765
 30
0.0
 10
281.4191095781
 20
372.5746956259
 30
0.0
 10
280.7076174176
 20
372.3754332141
 30
0.0
 10
279.5572916314
 20
372.1129915438
 30
0.0
 10
278.6367119686
 20
371.9641243688
 30
0.0
 10
277.9952353505
 20
371.8828254225
 30
0.0
  0
SPLINE
  5
66E
100
AcDbEntity
  8
BEZUGSACHSEN
100
AcDbSpline
 62
7
  6
CONTINUOUS
 70
0
 71
3
 72
10
 73
6
 74
0
 42
0.0000001
 43
0.0000001
 44
0.0000000001
 40
0.0
 40
0.0
 40
0.0
 40
0.0
 40
0.5730060519
 40
0.8060851033
 40
1.0
 40
1.0
 40
1.0
 40
1.0
 10
280.7851299929
 20
234.6612266774
 30
0.0
 10
280.5677518699
 20
234.3738891532
 30
0.0
 10
280.2851145988
 20
233.9491310274
 30
0.0
 10
280.018524658
 20
233.3787065969
 30
0.0
 10
279.9348070478
 20
233.1223801523
 30
0.0
 10
279.9076906574
 20
233.0035020022
 30
0.0
  0
SPLINE
  5
66F
100
AcDbEntity
  8
BEZUGSACHSEN
100
AcDbSpline
 62
7
  6
CONTINUOUS
 70
0
 71
3
 72
11
 73
7
 74
0
 42
0.0000001
 43
0.0000001
 44
0.0000000001
 40
0.0
 40
0.0
 40
0.0
 40
0.0
 40
0.3193227835
 40
0.5746398442
 40
0.7887915314
 40
1.0
 40
1.0
 40
1.0
 40
1.0
 10
279.9076906574
 20
233.0035020022
 30
0.0
 10
279.880390508
 20
232.8838182536
 30
0.0
 10
279.8177886678
 20
232.6708076435
 30
0.0
 10
279.6674725902
 20
232.4023587239
 30
0.0
 10
279.4570615152
 20
232.2326400797
 30
0.0
 10
279.289845391
 20
232.201115382
 30
0.0
 10
279.2086501618
 20
232.2010199643
 30
0.0
  0
LINE
  5
670
100
AcDbEntity
  8
0
100
AcDbLine
 62
7
  6
CONTINUOUS
 10
332.4601260696
 20
372.3519282262
 11
334.3817120761
 21
372.1886597828
  0
SPLINE
  5
671
100
AcDbEntity
  8
0
100
AcDbSpline
 62
7
  6
CONTINUOUS
 70
0
 71
3
 72
15
 73
11
 74
0
 42
0.0000001
 43
0.0000001
 44
0.0000000001
 40
0.0
 40
0.0
 40
0.0
 40
0.0
 40
0.124767452
 40
0.2495743156
 40
0.374452021
 40
0.499414729
 40
0.6244647509
 40
0.7495922525
 40
0.8747774593
 40
1.0
 40
1.0
 40
1.0
 40
1.0
 10
334.3817120761
 20
372.1886597828
 30
0.0
 10
335.792992677
 20
372.068653144
 30
0.0
 10
338.6006386791
 20
371.5650406561
 30
0.0
 10
342.5957993835
 20
370.046070125
 30
0.0
 10
346.2451358407
 20
367.8139421022
 30
0.0
 10
349.420912545
 20
364.9441921185
 30
0.0
 10
352.0137136412
 20
361.534963782
 30
0.0
 10
353.9330498143
 20
357.7027021708
 30
0.0
 10
355.1121256639
 20
353.581494342
 30
0.0
 10
355.3771299929
 20
350.7317785867
 30
0.0
 10
355.3771299929
 20
349.3102386455
 30
0.0
  0
SPLINE
  5
672
100
AcDbEntity
  8
0
100
AcDbSpline
 62
7
  6
CONTINUOUS
 70
0
 71
3
 72
13
 73
9
 74
0
 42
0.0000001
 43
0.0000001
 44
0.0000000001
 40
0.0
 40
0.0
 40
0.0
 40
0.0
 40
0.1004813038
 40
0.2057106
 40
0.3186884182
 40
0.4407988532
 40
0.7097908471
 40
1.0
 40
1.0
 40
1.0
 40
1.0
 10
310.7271299929
 20
223.4144666317
 30
0.0
 10
310.7271299929
 20
223.2804136274
 30
0.0
 10
310.6860851879
 20
223.0045427421
 30
0.0
 10
310.5084286408
 20
222.6132195051
 30
0.0
 10
310.2244623532
 20
222.2539679976
 30
0.0
 10
309.7046657169
 20
221.821177716
 30
0.0
 10
308.8615664168
 20
221.4398213317
 30
0.0
 10
308.1142239923
 20
221.3287163123
 30
0.0
 10
307.7271299929
 20
221.3210139883
 30
0.0
  0
SPLINE
  5
673
100
AcDbEntity
  8
RUNDUNGEN
100
AcDbSpline
 62
7
  6
CONTINUOUS
 70
0
 71
3
 72
15
 73
11
 74
0
 42
0.0000001
 43
0.0000001
 44
0.0000000001
 40
0.0
 40
0.0
 40
0.0
 40
0.0
 40
0.124767452
 40
0.2495743156
 40
0.374452021
 40
0.499414729
 40
0.6244647509
 40
0.7495922525
 40
0.8747774593
 40
1.0
 40
1.0
 40
1.0
 40
1.0
 10
256.3725479097
 20
372.1886597828
 30
0.0
 10
254.9612673089
 20
372.068653144
 30
0.0
 10
252.1536213067
 20
371.5650406561
 30
0.0
 10
248.1584606023
 20
370.046070125
 30
0.0
 10
244.5091241452
 20
367.8139421022
 30
0.0
 10
241.3333474408
 20
364.9441921185
 30
0.0
 10
238.7405463446
 20
361.534963782
 30
0.0
 10
236.8212101715
 20
357.7027021708
 30
0.0
 10
235.6421343219
 20
353.581494342
 30
0.0
 10
235.3771299929
 20
350.7317785867
 30
0.0
 10
235.3771299929
 20
349.3102386455
 30
0.0
  0
LINE
  5
674
100
AcDbEntity
  8
RUNDUNGEN
100
AcDbLine
 62
7
  6
CONTINUOUS
 10
258.2941339162
 20
372.3519282262
 11
256.3725479097
 21
372.1886597828
  0
SPLINE
  5
675
100
AcDbEntity
  8
BEZUGSACHSEN
100
AcDbSpline
 62
7
  6
CONTINUOUS
 70
0
 71
3
 72
11
 73
7
 74
0
 42
0.0000001
 43
0.0000001
 44
0.0000000001
 40
0.0
 40
0.0
 40
0.0
 40
0.0
 40
0.2247224938
 40
0.4637834778
 40
0.7222401306
 40
1.0
 40
1.0
 40
1.0
 40
1.0
 10
276.8067302608
 20
249.1312135546
 30
0.0
 10
277.0063188806
 20
249.3959451032
 30
0.0
 10
277.5255427634
 20
249.8643913358
 30
0.0
 10
278.4913556756
 20
250.3329058912
 30
0.0
 10
279.5961624287
 20
250.6432956557
 30
0.0
 10
280.3784749964
 20
250.7686267607
 30
0.0
 10
280.7851299929
 20
250.8191944949
 30
0.0
  0
SPLINE
  5
676
100
AcDbEntity
  8
KONSTRUKTIONSELEMENTE
100
AcDbSpline
 62
7
  6
CONTINUOUS
 70
0
 71
3
 72
11
 73
7
 74
0
 42
0.0000001
 43
0.0000001
 44
0.0000000001
 40
0.0
 40
0.0
 40
0.0
 40
0.0
 40
0.2037409091
 40
0.4290430471
 40
0.6913522782
 40
1.0
 40
1.0
 40
1.0
 40
1.0
 10
280.0271299929
 20
227.520769796
 30
0.0
 10
280.0271299929
 20
227.5618227998
 30
0.0
 10
280.0431561751
 20
227.6487736993
 30
0.0
 10
280.1105318399
 20
227.7725569568
 30
0.0
 10
280.218009722
 20
227.892994823
 30
0.0
 10
280.307947758
 20
227.9654060007
 30
0.0
 10
280.3584447058
 20
228.0017077715
 30
0.0
  0
LINE
  5
677
100
AcDbEntity
  8
0
100
AcDbLine
 62
7
  6
CONTINUOUS
 10
295.3771299929
 20
353.9826817075
 11
295.3771298599
 21
353.5253502985
  0
SPLINE
  5
678
100
AcDbEntity
  8
KONSTRUKTIONSELEMENTE
100
AcDbSpline
 62
7
  6
CONTINUOUS
 70
0
 71
3
 72
16
 73
12
 74
0
 42
0.0000001
 43
0.0000001
 44
0.0000000001
 40
0.0
 40
0.0
 40
0.0
 40
0.0
 40
0.2072902269
 40
0.3973173593
 40
0.5657782124
 40
0.7090845613
 40
0.770401853
 40
0.8244704983
 40
0.8711524035
 40
0.9104206147
 40
1.0
 40
1.0
 40
1.0
 40
1.0
 10
279.1226219038
 20
373.7151009621
 30
0.0
 10
279.384709121
 20
373.7278978445
 30
0.0
 10
279.8872943099
 20
373.7480450708
 30
0.0
 10
280.6034339804
 20
373.7607031926
 30
0.0
 10
281.2387657937
 20
373.752930673
 30
0.0
 10
281.7104114734
 20
373.7277768547
 30
0.0
 10
282.0365388575
 20
373.6936327472
 30
0.0
 10
282.2387168235
 20
373.6640522802
 30
0.0
 10
282.4150708978
 20
373.6274120664
 30
0.0
 10
282.6178452278
 20
373.5707970927
 30
0.0
 10
282.8210142038
 20
373.471432195
 30
0.0
 10
282.821129907
 20
373.3580377081
 30
0.0
  0
SPLINE
  5
679
100
AcDbEntity
  8
KONSTRUKTIONSELEMENTE
100
AcDbSpline
 62
7
  6
CONTINUOUS
 70
0
 71
3
 72
9
 73
5
 74
0
 42
0.0000001
 43
0.0000001
 44
0.0000000001
 40
0.0
 40
0.0
 40
0.0
 40
0.0
 40
0.2561238108
 40
1.0
 40
1.0
 40
1.0
 40
1.0
 10
258.2941339162
 20
372.3519282262
 30
0.0
 10
258.8876996797
 20
372.4023202818
 30
0.0
 10
261.2054278803
 20
372.5961940339
 30
0.0
 10
263.5242388421
 20
372.7780966326
 30
0.0
 10
265.250319796
 20
372.8964113389
 30
0.0
  0
SPLINE
  5
67A
100
AcDbEntity
  8
KONSTRUKTIONSELEMENTE
100
AcDbSpline
 62
7
  6
CONTINUOUS
 70
0
 71
3
 72
9
 73
5
 74
0
 42
0.0000001
 43
0.0000001
 44
0.0000000001
 40
0.0
 40
0.0
 40
0.0
 40
0.0
 40
0.516731978
 40
1.0
 40
1.0
 40
1.0
 40
1.0
 10
284.3907463666
 20
282.6848572106
 30
0.0
 10
284.4345490846
 20
283.2793145226
 30
0.0
 10
284.4407460539
 20
284.43739507
 30
0.0
 10
284.2728220162
 20
285.5839073231
 30
0.0
 10
284.1477640865
 20
286.1271660394
 30
0.0
  0
SPLINE
  5
67B
100
AcDbEntity
  8
KONSTRUKTIONSELEMENTE
100
AcDbSpline
 62
7
  6
CONTINUOUS
 70
0
 71
3
 72
10
 73
6
 74
0
 42
0.0000001
 43
0.0000001
 44
0.0000000001
 40
0.0
 40
0.0
 40
0.0
 40
0.0
 40
0.2601933724
 40
0.5095389501
 40
1.0
 40
1.0
 40
1.0
 40
1.0
 10
281.3710907977
 20
183.6689616599
 30
0.0
 10
281.5170315233
 20
183.7497910908
 30
0.0
 10
281.8211518968
 20
183.8768946587
 30
0.0
 10
282.4514985064
 20
184.0077895559
 30
0.0
 10
282.9319269526
 20
183.9975088909
 30
0.0
 10
283.2445272065
 20
183.9632543537
 30
0.0
  0
SPLINE
  5
67C
100
AcDbEntity
  8
0
100
AcDbSpline
 62
7
  6
CONTINUOUS
 70
0
 71
3
 72
9
 73
5
 74
0
 42
0.0000001
 43
0.0000001
 44
0.0000000001
 40
0.0
 40
0.0
 40
0.0
 40
0.0
 40
0.516731978
 40
1.0
 40
1.0
 40
1.0
 40
1.0
 10
306.3635136192
 20
282.6848572106
 30
0.0
 10
306.3197109012
 20
283.2793145226
 30
0.0
 10
306.3135139319
 20
284.43739507
 30
0.0
 10
306.4814379696
 20
285.5839073231
 30
0.0
 10
306.6064958993
 20
286.1271660394
 30
0.0
  0
SPLINE
  5
67D
100
AcDbEntity
  8
KONSTRUKTIONSELEMENTE
100
AcDbSpline
 62
7
  6
CONTINUOUS
 70
0
 71
3
 72
13
 73
9
 74
0
 42
0.0000001
 43
0.0000001
 44
0.0000000001
 40
0.0
 40
0.0
 40
0.0
 40
0.0
 40
0.1004813038
 40
0.2057106
 40
0.3186884182
 40
0.4407988532
 40
0.7097908471
 40
1.0
 40
1.0
 40
1.0
 40
1.0
 10
280.0271299929
 20
223.4144666317
 30
0.0
 10
280.0271299929
 20
223.2804136274
 30
0.0
 10
280.0681747979
 20
223.0045427421
 30
0.0
 10
280.2458313451
 20
222.6132195051
 30
0.0
 10
280.5297976326
 20
222.2539679976
 30
0.0
 10
281.0495942689
 20
221.821177716
 30
0.0
 10
281.892693569
 20
221.4398213317
 30
0.0
 10
282.6400359935
 20
221.3287163123
 30
0.0
 10
283.0271299929
 20
221.3210139883
 30
0.0
  0
SPLINE
  5
67E
100
AcDbEntity
  8
KONSTRUKTIONSELEMENTE
100
AcDbSpline
 62
7
  6
CONTINUOUS
 70
0
 71
3
 72
11
 73
7
 74
0
 42
0.0000001
 43
0.0000001
 44
0.0000000001
 40
0.0
 40
0.0
 40
0.0
 40
0.0
 40
0.3070325764
 40
0.5754866561
 40
0.8051226656
 40
1.0
 40
1.0
 40
1.0
 40
1.0
 10
280.8841261887
 20
183.3218467677
 30
0.0
 10
280.7537093242
 20
183.2077179231
 30
0.0
 10
280.5222292024
 20
182.9781445162
 30
0.0
 10
280.2490292881
 20
182.612434689
 30
0.0
 10
280.0751418724
 20
182.2592658961
 30
0.0
 10
280.0271299929
 20
182.0195879863
 30
0.0
 10
280.0271299929
 20
181.9095904108
 30
0.0
  0
LINE
  5
67F
100
AcDbEntity
  8
KONSTRUKTIONSELEMENTE
100
AcDbLine
 62
7
  6
CONTINUOUS
 10
279.1926434006
 20
285.9564047612
 11
279.1846504995
 21
286.0974586063
  0
SPLINE
  5
680
100
AcDbEntity
  8
0
100
AcDbSpline
 62
7
  6
CONTINUOUS
 70
0
 71
3
 72
11
 73
7
 74
0
 42
0.0000001
 43
0.0000001
 44
0.0000000001
 40
0.0
 40
0.0
 40
0.0
 40
0.0
 40
0.3070325764
 40
0.5754866561
 40
0.8051226656
 40
1.0
 40
1.0
 40
1.0
 40
1.0
 10
309.8701337971
 20
183.3218467677
 30
0.0
 10
310.0005506616
 20
183.2077179231
 30
0.0
 10
310.2320307834
 20
182.9781445162
 30
0.0
 10
310.5052306977
 20
182.612434689
 30
0.0
 10
310.6791181134
 20
182.2592658961
 30
0.0
 10
310.7271299929
 20
182.0195879863
 30
0.0
 10
310.7271299929
 20
181.9095904108
 30
0.0
  0
SPLINE
  5
681
100
AcDbEntity
  8
0
100
AcDbSpline
 62
7
  6
CONTINUOUS
 70
0
 71
3
 72
10
 73
6
 74
0
 42
0.0000001
 43
0.0000001
 44
0.0000000001
 40
0.0
 40
0.0
 40
0.0
 40
0.0
 40
0.2601933724
 40
0.5095389501
 40
1.0
 40
1.0
 40
1.0
 40
1.0
 10
309.3831691881
 20
183.6689616599
 30
0.0
 10
309.2372284625
 20
183.7497910908
 30
0.0
 10
308.933108089
 20
183.8768946587
 30
0.0
 10
308.3027614794
 20
184.0077895559
 30
0.0
 10
307.8223330332
 20
183.9975088909
 30
0.0
 10
307.5097327793
 20
183.9632543537
 30
0.0
  0
SPLINE
  5
682
100
AcDbEntity
  8
BEZUGSACHSEN
100
AcDbSpline
 62
7
  6
CONTINUOUS
 70
0
 71
3
 72
23
 73
19
 74
0
 42
0.0000001
 43
0.0000001
 44
0.0000000001
 40
0.0
 40
0.0
 40
0.0
 40
0.0
 40
0.0241343498
 40
0.0393996645
 40
0.0569446331
 40
0.0987165743
 40
0.1487710422
 40
0.2061346527
 40
0.2698742209
 40
0.3391505282
 40
0.4131477971
 40
0.4908668338
 40
0.570849707
 40
0.6511322617
 40
0.7296676743
 40
0.875334567
 40
0.9407389286
 40
1.0
 40
1.0
 40
1.0
 40
1.0
 10
279.2086501618
 20
232.2010199643
 30
0.0
 10
279.0533844542
 20
232.2008375017
 30
0.0
 10
278.8024151674
 20
232.282955707
 30
0.0
 10
278.4847602828
 20
232.4630633404
 30
0.0
 10
278.0942460304
 20
232.7442565832
 30
0.0
 10
277.5786598079
 20
233.226060079
 30
0.0
 10
276.9498984156
 20
233.952967972
 30
0.0
 10
276.3057531217
 20
234.8477314661
 30
0.0
 10
275.6760991695
 20
235.9000301099
 30
0.0
 10
275.0972473175
 20
237.101707892
 30
0.0
 10
274.6135506783
 20
238.4416993365
 30
0.0
 10
274.2767879239
 20
239.8979712858
 30
0.0
 10
274.1357001132
 20
241.4276141166
 30
0.0
 10
274.2150663259
 20
242.9673316643
 30
0.0
 10
274.586325819
 20
244.8957448679
 30
0.0
 10
275.267299819
 20
246.6487528523
 30
0.0
 10
276.1237046055
 20
248.1637151302
 30
0.0
 10
276.5772156705
 20
248.8267886177
 30
0.0
 10
276.8067302608
 20
249.1312135546
 30
0.0
  0
SPLINE
  5
683
100
AcDbEntity
  8
0
100
AcDbSpline
 62
7
  6
CONTINUOUS
 70
0
 71
3
 72
16
 73
12
 74
0
 42
0.0000001
 43
0.0000001
 44
0.0000000001
 40
0.0
 40
0.0
 40
0.0
 40
0.0
 40
0.2072902269
 40
0.3973173593
 40
0.5657782124
 40
0.7090845613
 40
0.770401853
 40
0.8244704983
 40
0.8711524035
 40
0.9104206147
 40
1.0
 40
1.0
 40
1.0
 40
1.0
 10
311.631638082
 20
373.7151009621
 30
0.0
 10
311.3695508648
 20
373.7278978445
 30
0.0
 10
310.8669656759
 20
373.7480450708
 30
0.0
 10
310.1508260054
 20
373.7607031926
 30
0.0
 10
309.5154941921
 20
373.752930673
 30
0.0
 10
309.0438485124
 20
373.7277768547
 30
0.0
 10
308.7177211284
 20
373.6936327472
 30
0.0
 10
308.5155431624
 20
373.6640522802
 30
0.0
 10
308.339189088
 20
373.6274120664
 30
0.0
 10
308.136414758
 20
373.5707970927
 30
0.0
 10
307.933245782
 20
373.471432195
 30
0.0
 10
307.9331300788
 20
373.3580377081
 30
0.0
  0
SPLINE
  5
684
100
AcDbEntity
  8
0
100
AcDbSpline
 62
7
  6
CONTINUOUS
 70
0
 71
3
 72
9
 73
5
 74
0
 42
0.0000001
 43
0.0000001
 44
0.0000000001
 40
0.0
 40
0.0
 40
0.0
 40
0.0
 40
0.2561238108
 40
1.0
 40
1.0
 40
1.0
 40
1.0
 10
332.4601260696
 20
372.3519282262
 30
0.0
 10
331.8665603061
 20
372.4023202818
 30
0.0
 10
329.5488321055
 20
372.5961940339
 30
0.0
 10
327.2300211437
 20
372.7780966326
 30
0.0
 10
325.5039401898
 20
372.8964113389
 30
0.0
  0
SPLINE
  5
685
100
AcDbEntity
  8
0
100
AcDbSpline
 62
7
  6
CONTINUOUS
 70
0
 71
3
 72
11
 73
7
 74
0
 42
0.0000001
 43
0.0000001
 44
0.0000000001
 40
0.0
 40
0.0
 40
0.0
 40
0.0
 40
0.2037409091
 40
0.4290430471
 40
0.6913522782
 40
1.0
 40
1.0
 40
1.0
 40
1.0
 10
310.7271299929
 20
227.520769796
 30
0.0
 10
310.7271299929
 20
227.5618227998
 30
0.0
 10
310.7111038107
 20
227.6487736993
 30
0.0
 10
310.643728146
 20
227.7725569568
 30
0.0
 10
310.5362502639
 20
227.892994823
 30
0.0
 10
310.4463122278
 20
227.9654060007
 30
0.0
 10
310.3958152801
 20
228.0017077715
 30
0.0
  0
SPLINE
  5
686
100
AcDbEntity
  8
BEZUGSACHSEN
100
AcDbSpline
 62
7
  6
CONTINUOUS
 70
0
 71
3
 72
10
 73
6
 74
0
 42
0.0000001
 43
0.0000001
 44
0.0000000001
 40
0.0
 40
0.0
 40
0.0
 40
0.0
 40
0.5015949673
 40
0.7510711479
 40
1.0
 40
1.0
 40
1.0
 40
1.0
 10
147.8545792962
 20
122.0642702855
 30
0.0
 10
147.4501986408
 20
123.2774122516
 30
0.0
 10
146.9420576133
 20
125.1320995672
 30
0.0
 10
146.577511601
 20
127.6581319072
 30
0.0
 10
146.514833334
 20
128.9296522087
 30
0.0
 10
146.514833334
 20
129.5642702843
 30
0.0
  0
SPLINE
  5
687
100
AcDbEntity
  8
BEZUGSACHSEN
100
AcDbSpline
 62
7
  6
CONTINUOUS
 70
0
 71
3
 72
10
 73
6
 74
0
 42
0.0000001
 43
0.0000001
 44
0.0000000001
 40
0.0
 40
0.0
 40
0.0
 40
0.0
 40
0.5015949673
 40
0.7510711478
 40
1.0
 40
1.0
 40
1.0
 40
1.0
 10
147.8545792962
 20
107.0642702855
 30
0.0
 10
147.4501986096
 20
108.2774123451
 30
0.0
 10
146.9420575476
 20
110.1320998067
 30
0.0
 10
146.5775115573
 20
112.6581323495
 30
0.0
 10
146.5148333064
 20
113.9296527492
 30
0.0
 10
146.5148333064
 20
114.564270874
 30
0.0
  0
SPLINE
  5
688
100
AcDbEntity
  8
BEZUGSACHSEN
100
AcDbSpline
 62
7
  6
CONTINUOUS
 70
0
 71
3
 72
10
 73
6
 74
0
 42
0.0000001
 43
0.0000001
 44
0.0000000001
 40
0.0
 40
0.0
 40
0.0
 40
0.0
 40
0.248928878
 40
0.4984050665
 40
1.0
 40
1.0
 40
1.0
 40
1.0
 10
146.5148333064
 20
114.564270874
 30
0.0
 10
146.5148333064
 20
115.1988889672
 30
0.0
 10
146.577511682
 20
116.4704092537
 30
0.0
 10
146.9420577019
 20
118.996441391
 30
0.0
 10
147.4501986989
 20
120.8511284939
 30
0.0
 10
147.8545792962
 20
122.0642702855
 30
0.0
  0
SPLINE
  5
689
100
AcDbEntity
  8
BEZUGSACHSEN
100
AcDbSpline
 62
7
  6
CONTINUOUS
 70
0
 71
3
 72
10
 73
6
 74
0
 42
0.0000001
 43
0.0000001
 44
0.0000000001
 40
0.0
 40
0.0
 40
0.0
 40
0.0
 40
0.248928878
 40
0.4984050664
 40
1.0
 40
1.0
 40
1.0
 40
1.0
 10
146.514833334
 20
129.5642702843
 30
0.0
 10
146.514833334
 20
130.1988884262
 30
0.0
 10
146.5775116104
 20
131.4704088145
 30
0.0
 10
146.9420576545
 20
133.9964411509
 30
0.0
 10
147.4501986679
 20
135.8511284007
 30
0.0
 10
147.8545792962
 20
137.0642702855
 30
0.0
  0
SPLINE
  5
68A
100
AcDbEntity
  8
BEZUGSACHSEN
100
AcDbSpline
 62
7
  6
CONTINUOUS
 70
0
 71
3
 72
10
 73
6
 74
0
 42
0.0000001
 43
0.0000001
 44
0.0000000001
 40
0.0
 40
0.0
 40
0.0
 40
0.0
 40
0.5015949673
 40
0.7510711479
 40
1.0
 40
1.0
 40
1.0
 40
1.0
 10
147.8545792962
 20
37.0642702855
 30
0.0
 10
147.4501986408
 20
38.2774122516
 30
0.0
 10
146.9420576133
 20
40.1320995672
 30
0.0
 10
146.577511601
 20
42.6581319072
 30
0.0
 10
146.514833334
 20
43.9296522087
 30
0.0
 10
146.514833334
 20
44.5642702843
 30
0.0
  0
SPLINE
  5
68B
100
AcDbEntity
  8
BEZUGSACHSEN
100
AcDbSpline
 62
7
  6
CONTINUOUS
 70
0
 71
3
 72
10
 73
6
 74
0
 42
0.0000001
 43
0.0000001
 44
0.0000000001
 40
0.0
 40
0.0
 40
0.0
 40
0.0
 40
0.5015949673
 40
0.7510711478
 40
1.0
 40
1.0
 40
1.0
 40
1.0
 10
147.8545792962
 20
22.0642702855
 30
0.0
 10
147.4501986096
 20
23.2774123451
 30
0.0
 10
146.9420575476
 20
25.1320998067
 30
0.0
 10
146.5775115573
 20
27.6581323495
 30
0.0
 10
146.5148333064
 20
28.9296527492
 30
0.0
 10
146.5148333064
 20
29.564270874
 30
0.0
  0
SPLINE
  5
68C
100
AcDbEntity
  8
BEZUGSACHSEN
100
AcDbSpline
 62
7
  6
CONTINUOUS
 70
0
 71
3
 72
10
 73
6
 74
0
 42
0.0000001
 43
0.0000001
 44
0.0000000001
 40
0.0
 40
0.0
 40
0.0
 40
0.0
 40
0.248928878
 40
0.4984050665
 40
1.0
 40
1.0
 40
1.0
 40
1.0
 10
146.5148333064
 20
29.564270874
 30
0.0
 10
146.5148333064
 20
30.1988889672
 30
0.0
 10
146.577511682
 20
31.4704092537
 30
0.0
 10
146.9420577019
 20
33.996441391
 30
0.0
 10
147.4501986989
 20
35.8511284939
 30
0.0
 10
147.8545792962
 20
37.0642702855
 30
0.0
  0
SPLINE
  5
68D
100
AcDbEntity
  8
BEZUGSACHSEN
100
AcDbSpline
 62
7
  6
CONTINUOUS
 70
0
 71
3
 72
10
 73
6
 74
0
 42
0.0000001
 43
0.0000001
 44
0.0000000001
 40
0.0
 40
0.0
 40
0.0
 40
0.0
 40
0.248928878
 40
0.4984050664
 40
1.0
 40
1.0
 40
1.0
 40
1.0
 10
146.514833334
 20
44.5642702843
 30
0.0
 10
146.514833334
 20
45.1988884262
 30
0.0
 10
146.5775116104
 20
46.4704088145
 30
0.0
 10
146.9420576545
 20
48.9964411509
 30
0.0
 10
147.4501986679
 20
50.8511284007
 30
0.0
 10
147.8545792962
 20
52.0642702855
 30
0.0
  0
SPLINE
  5
68E
100
AcDbEntity
  8
0
100
AcDbSpline
 62
7
  6
CONTINUOUS
 70
0
 71
3
 72
9
 73
5
 74
0
 42
0.0000001
 43
0.0000001
 44
0.0000000001
 40
0.0
 40
0.0
 40
0.0
 40
0.0
 40
0.4818309449
 40
1.0
 40
1.0
 40
1.0
 40
1.0
 10
93.7833024338
 20
75.5642702855
 30
0.0
 10
93.9447345739
 20
75.5642702855
 30
0.0
 10
94.2839195969
 20
75.6543311611
 30
0.0
 10
94.5410087233
 20
75.8868008217
 30
0.0
 10
94.6467397516
 20
76.0244971491
 30
0.0
  0
SPLINE
  5
68F
100
AcDbEntity
  8
KONSTRUKTIONSELEMENTE
100
AcDbSpline
 62
7
  6
CONTINUOUS
 70
0
 71
3
 72
9
 73
5
 74
0
 42
0.0000001
 43
0.0000001
 44
0.0000000001
 40
0.0
 40
0.0
 40
0.0
 40
0.0
 40
0.4818309449
 40
1.0
 40
1.0
 40
1.0
 40
1.0
 10
93.7833024338
 20
83.5642702855
 30
0.0
 10
93.9447345739
 20
83.5642702855
 30
0.0
 10
94.2839195969
 20
83.47420941
 30
0.0
 10
94.5410087233
 20
83.2417397494
 30
0.0
 10
94.6467397516
 20
83.104043422
 30
0.0
  0
SPLINE
  5
690
100
AcDbEntity
  8
0
100
AcDbSpline
 62
7
  6
CONTINUOUS
 70
0
 71
3
 72
9
 73
5
 74
0
 42
0.0000001
 43
0.0000001
 44
0.0000000001
 40
0.0
 40
0.0
 40
0.0
 40
0.0
 40
0.5250227277
 40
1.0
 40
1.0
 40
1.0
 40
1.0
 10
85.1894555289
 20
65.91641091
 30
0.0
 10
85.1894555289
 20
66.1922514343
 30
0.0
 10
85.3023560547
 20
66.7258464368
 30
0.0
 10
85.6656295487
 20
67.1500450005
 30
0.0
 10
85.8811318675
 20
67.2758725906
 30
0.0
  0
SPLINE
  5
691
100
AcDbEntity
  8
0
100
AcDbSpline
 62
7
  6
CONTINUOUS
 70
0
 71
3
 72
11
 73
7
 74
0
 42
0.0000001
 43
0.0000001
 44
0.0000000001
 40
0.0
 40
0.0
 40
0.0
 40
0.0
 40
0.2304104901
 40
0.4758194165
 40
0.734195046
 40
1.0
 40
1.0
 40
1.0
 40
1.0
 10
91.0841411773
 20
70.3138079892
 30
0.0
 10
91.6463950339
 20
70.6420970221
 30
0.0
 10
92.6988169849
 20
71.5180928401
 30
0.0
 10
93.8691066646
 20
73.2590155792
 30
0.0
 10
94.6064862396
 20
75.326304482
 30
0.0
 10
94.7730816495
 20
76.8131765952
 30
0.0
 10
94.7730816495
 20
77.5642702855
 30
0.0
  0
SPLINE
  5
692
100
AcDbEntity
  8
KONSTRUKTIONSELEMENTE
100
AcDbSpline
 62
7
  6
CONTINUOUS
 70
0
 71
3
 72
11
 73
7
 74
0
 42
0.0000001
 43
0.0000001
 44
0.0000000001
 40
0.0
 40
0.0
 40
0.0
 40
0.0
 40
0.2304104901
 40
0.4758194165
 40
0.734195046
 40
1.0
 40
1.0
 40
1.0
 40
1.0
 10
91.0841411773
 20
88.8147325818
 30
0.0
 10
91.6463950339
 20
88.486443549
 30
0.0
 10
92.6988169849
 20
87.6104477309
 30
0.0
 10
93.8691066646
 20
85.8695249919
 30
0.0
 10
94.6064862396
 20
83.8022360891
 30
0.0
 10
94.7730816495
 20
82.3153639759
 30
0.0
 10
94.7730816495
 20
81.5642702855
 30
0.0
  0
SPLINE
  5
693
100
AcDbEntity
  8
KONSTRUKTIONSELEMENTE
100
AcDbSpline
 62
7
  6
CONTINUOUS
 70
0
 71
3
 72
9
 73
5
 74
0
 42
0.0000001
 43
0.0000001
 44
0.0000000001
 40
0.0
 40
0.0
 40
0.0
 40
0.0
 40
0.5250227277
 40
1.0
 40
1.0
 40
1.0
 40
1.0
 10
85.1894555289
 20
93.2121296611
 30
0.0
 10
85.1894555289
 20
92.9362891368
 30
0.0
 10
85.3023560547
 20
92.4026941343
 30
0.0
 10
85.6656295487
 20
91.9784955706
 30
0.0
 10
85.8811318675
 20
91.8526679805
 30
0.0
  0
LINE
  5
694
100
AcDbEntity
  8
KONSTRUKTIONSELEMENTE
100
AcDbLine
 62
7
  6
CONTINUOUS
 10
97.1245945348
 20
97.0017625468
 11
97.5961507245
 21
97.1049758525
  0
LINE
  5
695
100
AcDbEntity
  8
0
100
AcDbLine
 62
7
  6
CONTINUOUS
 10
97.1245945348
 20
62.1267780243
 11
97.5961507245
 21
62.0235647186
  0
SPLINE
  5
696
100
AcDbEntity
  8
AUSFORMSCHRAEGEN
100
AcDbSpline
 62
7
  6
CONTINUOUS
 70
0
 71
3
 72
21
 73
17
 74
0
 42
0.0000001
 43
0.0000001
 44
0.0000000001
 40
0.0
 40
0.0
 40
0.0
 40
0.0
 40
0.1377323248
 40
0.2044986482
 40
0.2689784889
 40
0.3309242976
 40
0.3904129241
 40
0.4478687587
 40
0.5040391441
 40
0.5599051408
 40
0.6165041107
 40
0.6747334687
 40
0.7352177082
 40
0.7982397013
 40
0.8637344338
 40
1.0
 40
1.0
 40
1.0
 40
1.0
 10
114.7264806187
 20
97.9518496409
 30
0.0
 10
114.6676052998
 20
96.5092368943
 30
0.0
 10
114.2679702351
 20
94.359718334
 30
0.0
 10
113.121708283
 20
91.7738929232
 30
0.0
 10
112.0031318318
 20
90.0731252252
 30
0.0
 10
110.6527381358
 20
88.6525530582
 30
0.0
 10
109.1124894071
 20
87.5604974662
 30
0.0
 10
107.4322517507
 20
86.8377115526
 30
0.0
 10
105.6696130322
 20
86.513121787
 30
0.0
 10
103.8881872138
 20
86.600752645
 30
0.0
 10
102.1531859944
 20
87.0966058584
 30
0.0
 10
100.5259595578
 20
87.9799422962
 30
0.0
 10
99.0607422128
 20
89.2162071736
 30
0.0
 10
97.8037034156
 20
90.7620321991
 30
0.0
 10
96.4416734003
 20
93.1916438211
 30
0.0
 10
95.8682355909
 20
95.2731429873
 30
0.0
 10
95.6892940072
 20
96.6903285681
 30
0.0
  0
SPLINE
  5
697
100
AcDbEntity
  8
BEZUGSACHSEN
100
AcDbSpline
 62
7
  6
CONTINUOUS
 70
0
 71
3
 72
15
 73
11
 74
0
 42
0.0000001
 43
0.0000001
 44
0.0000000001
 40
0.0
 40
0.0
 40
0.0
 40
0.0
 40
0.1169913677
 40
0.2457729746
 40
0.3834025586
 40
0.5230878645
 40
0.6572243007
 40
0.7804919981
 40
0.8926729004
 40
1.0
 40
1.0
 40
1.0
 40
1.0
 10
106.1304252051
 20
90.2899575865
 30
0.0
 10
106.2732417863
 20
90.2899575865
 30
0.0
 10
106.5749591952
 20
90.3619470458
 30
0.0
 10
106.9663308849
 20
90.6331114955
 30
0.0
 10
107.2748253449
 20
91.0301717347
 30
0.0
 10
107.4632315648
 20
91.5029255239
 30
0.0
 10
107.5086003758
 20
91.9930007954
 30
0.0
 10
107.4011609783
 20
92.4414285218
 30
0.0
 10
107.1436660194
 20
92.788593848
 30
0.0
 10
106.8901174761
 20
92.9090627299
 30
0.0
 10
106.7617876265
 20
92.9354714843
 30
0.0
  0
SPLINE
  5
698
100
AcDbEntity
  8
BEZUGSACHSEN
100
AcDbSpline
 62
7
  6
CONTINUOUS
 70
0
 71
3
 72
15
 73
11
 74
0
 42
0.0000001
 43
0.0000001
 44
0.0000000001
 40
0.0
 40
0.0
 40
0.0
 40
0.0
 40
0.1058188011
 40
0.2248385355
 40
0.3576725356
 40
0.4990399205
 40
0.6406420374
 40
0.7740909987
 40
0.8937816343
 40
1.0
 40
1.0
 40
1.0
 40
1.0
 10
109.2816662882
 20
94.1973210491
 30
0.0
 10
109.4027888065
 20
94.2021528316
 30
0.0
 10
109.6591387596
 20
94.2808569763
 30
0.0
 10
109.9765456503
 20
94.5525034895
 30
0.0
 10
110.217002073
 20
94.9403987604
 30
0.0
 10
110.3568019483
 20
95.4008801793
 30
0.0
 10
110.3816113038
 20
95.8821548897
 30
0.0
 10
110.2874437547
 20
96.3304196965
 30
0.0
 10
110.0823064945
 20
96.6962790721
 30
0.0
 10
109.8691295046
 20
96.8606464459
 30
0.0
 10
109.7570710609
 20
96.9080604992
 30
0.0
  0
SPLINE
  5
699
100
AcDbEntity
  8
BEZUGSACHSEN
100
AcDbSpline
 62
7
  6
CONTINUOUS
 70
0
 71
3
 72
8
 73
4
 74
0
 42
0.0000001
 43
0.0000001
 44
0.0000000001
 40
0.0
 40
0.0
 40
0.0
 40
0.0
 40
1.0
 40
1.0
 40
1.0
 40
1.0
 10
109.7570710609
 20
96.9080604992
 30
0.0
 10
109.6768262281
 20
96.9420136101
 30
0.0
 10
109.5887745707
 20
96.96135573
 30
0.0
 10
109.5016751237
 20
96.9637501542
 30
0.0
  0
SPLINE
  5
69A
100
AcDbEntity
  8
BEZUGSACHSEN
100
AcDbSpline
 62
7
  6
CONTINUOUS
 70
0
 71
3
 72
15
 73
11
 74
0
 42
0.0000001
 43
0.0000001
 44
0.0000000001
 40
0.0
 40
0.0
 40
0.0
 40
0.0
 40
0.1047227634
 40
0.2297605009
 40
0.3707457067
 40
0.5188865193
 40
0.6635590954
 40
0.7949262022
 40
0.9067124326
 40
1.0
 40
1.0
 40
1.0
 40
1.0
 10
110.9370730255
 20
90.358009055
 30
0.0
 10
111.0408981968
 20
90.3804237652
 30
0.0
 10
111.2559172342
 20
90.4874049982
 30
0.0
 10
111.5270094087
 20
90.7530509538
 30
0.0
 10
111.7548551371
 20
91.109772315
 30
0.0
 10
111.9162663601
 20
91.5218623925
 30
0.0
 10
111.9954509982
 20
91.9476450972
 30
0.0
 10
111.9834160971
 20
92.3444936844
 30
0.0
 10
111.8810589707
 20
92.6758090772
 30
0.0
 10
111.7387977806
 20
92.8408917827
 30
0.0
 10
111.6586388583
 20
92.89116366
 30
0.0
  0
SPLINE
  5
69B
100
AcDbEntity
  8
BEZUGSACHSEN
100
AcDbSpline
 62
7
  6
CONTINUOUS
 70
0
 71
3
 72
9
 73
5
 74
0
 42
0.0000001
 43
0.0000001
 44
0.0000000001
 40
0.0
 40
0.0
 40
0.0
 40
0.0
 40
0.7468850195
 40
1.0
 40
1.0
 40
1.0
 40
1.0
 10
111.6586388583
 20
92.89116366
 30
0.0
 10
111.6073870383
 20
92.9233063727
 30
0.0
 10
111.529145963
 20
92.9532683662
 30
0.0
 10
111.4485183804
 20
92.9618770565
 30
0.0
 10
111.4280380441
 20
92.9628220319
 30
0.0
  0
SPLINE
  5
69C
100
AcDbEntity
  8
BEZUGSACHSEN
100
AcDbSpline
 62
7
  6
CONTINUOUS
 70
0
 71
3
 72
15
 73
11
 74
0
 42
0.0000001
 43
0.0000001
 44
0.0000000001
 40
0.0
 40
0.0
 40
0.0
 40
0.0
 40
0.0888443188
 40
0.2019982414
 40
0.3374696497
 40
0.4867756035
 40
0.6383711188
 40
0.7802690768
 40
0.9024567749
 40
1.0
 40
1.0
 40
1.0
 40
1.0
 10
113.5197902024
 20
94.2483671583
 30
0.0
 10
113.6034863114
 20
94.2709434139
 30
0.0
 10
113.7755363034
 20
94.3840216809
 30
0.0
 10
113.9726718944
 20
94.651362176
 30
0.0
 10
114.1307177643
 20
95.0088816069
 30
0.0
 10
114.2330313402
 20
95.4240625744
 30
0.0
 10
114.2703764227
 20
95.8562262704
 30
0.0
 10
114.2384126788
 20
96.2629635514
 30
0.0
 10
114.141863255
 20
96.6045714922
 30
0.0
 10
114.0232152894
 20
96.7911692834
 30
0.0
 10
113.9526522167
 20
96.8550377485
 30
0.0
  0
SPLINE
  5
69D
100
AcDbEntity
  8
BEZUGSACHSEN
100
AcDbSpline
 62
7
  6
CONTINUOUS
 70
0
 71
3
 72
9
 73
5
 74
0
 42
0.0000001
 43
0.0000001
 44
0.0000000001
 40
0.0
 40
0.0
 40
0.0
 40
0.0
 40
0.5192157404
 40
1.0
 40
1.0
 40
1.0
 40
1.0
 10
113.9526522167
 20
96.8550377485
 30
0.0
 10
113.9204915061
 20
96.8841472408
 30
0.0
 10
113.8506606883
 20
96.9326336767
 30
0.0
 10
113.7680173694
 20
96.9549690618
 30
0.0
 10
113.7279669881
 20
96.9580339027
 30
0.0
  0
SPLINE
  5
69E
100
AcDbEntity
  8
BEZUGSACHSEN
100
AcDbSpline
 62
7
  6
CONTINUOUS
 70
0
 71
3
 72
15
 73
11
 74
0
 42
0.0000001
 43
0.0000001
 44
0.0000000001
 40
0.0
 40
0.0
 40
0.0
 40
0.0
 40
0.1179462853
 40
0.2417750228
 40
0.3716405541
 40
0.5046971091
 40
0.6366630105
 40
0.7637055835
 40
0.8842292152
 40
1.0
 40
1.0
 40
1.0
 40
1.0
 10
103.9148356607
 20
94.1973210491
 30
0.0
 10
104.0652909275
 20
94.1923894746
 30
0.0
 10
104.3789016069
 20
94.2504008186
 30
0.0
 10
104.7849752757
 20
94.5151500968
 30
0.0
 10
105.0874023963
 20
94.9169437447
 30
0.0
 10
105.2504454419
 20
95.4027216252
 30
0.0
 10
105.2554458141
 20
95.9116826965
 30
0.0
 10
105.0997094998
 20
96.380729657
 30
0.0
 10
104.7992541503
 20
96.7486159103
 30
0.0
 10
104.5215754761
 20
96.8912911979
 30
0.0
 10
104.3787441022
 20
96.9291336989
 30
0.0
  0
SPLINE
  5
69F
100
AcDbEntity
  8
BEZUGSACHSEN
100
AcDbSpline
 62
7
  6
CONTINUOUS
 70
0
 71
3
 72
15
 73
11
 74
0
 42
0.0000001
 43
0.0000001
 44
0.0000000001
 40
0.0
 40
0.0
 40
0.0
 40
0.0
 40
0.1236083136
 40
0.2523864619
 40
0.3840308872
 40
0.5146841662
 40
0.6410331936
 40
0.7621636183
 40
0.8803626921
 40
1.0
 40
1.0
 40
1.0
 40
1.0
 10
100.2034117704
 20
90.358009055
 30
0.0
 10
100.3700883305
 20
90.3330396814
 30
0.0
 10
100.7247806581
 20
90.3568673413
 30
0.0
 10
101.2049766957
 20
90.5932613848
 30
0.0
 10
101.5781327568
 20
90.9899337096
 30
0.0
 10
101.7893473437
 20
91.4884628278
 30
0.0
 10
101.8057593313
 20
92.0167504461
 30
0.0
 10
101.6175743235
 20
92.4949327505
 30
0.0
 10
101.2494853709
 20
92.8416720872
 30
0.0
 10
100.928194443
 20
92.941861099
 30
0.0
 10
100.7658436969
 20
92.957706068
 30
0.0
  0
SPLINE
  5
6A0
100
AcDbEntity
  8
BEZUGSACHSEN
100
AcDbSpline
 62
7
  6
CONTINUOUS
 70
0
 71
3
 72
17
 73
13
 74
0
 42
0.0000001
 43
0.0000001
 44
0.0000000001
 40
0.0
 40
0.0
 40
0.0
 40
0.0
 40
0.1238427333
 40
0.1867830694
 40
0.2501191218
 40
0.3770680793
 40
0.504040117
 40
0.5674303734
 40
0.6303834834
 40
0.7542640216
 40
0.8769765076
 40
1.0
 40
1.0
 40
1.0
 40
1.0
 10
97.4192983199
 20
94.2483671583
 30
0.0
 10
97.6007204924
 20
94.2225286794
 30
0.0
 10
97.8871068935
 20
94.2436914729
 30
0.0
 10
98.2315664729
 20
94.384119946
 30
0.0
 10
98.544968465
 20
94.5938231151
 30
0.0
 10
98.8478853487
 20
94.9700070999
 30
0.0
 10
98.97992501
 20
95.4346162641
 30
0.0
 10
98.9706072434
 20
95.8116387728
 30
0.0
 10
98.8864535439
 20
96.1744816342
 30
0.0
 10
98.6440856728
 20
96.5805416814
 30
0.0
 10
98.1807569439
 20
96.900849714
 30
0.0
 10
97.8093789422
 20
96.9650907392
 30
0.0
 10
97.6274751055
 20
96.9580339027
 30
0.0
  0
SPLINE
  5
6A1
100
AcDbEntity
  8
BEZUGSACHSEN
100
AcDbSpline
 62
7
  6
CONTINUOUS
 70
0
 71
3
 72
9
 73
5
 74
0
 42
0.0000001
 43
0.0000001
 44
0.0000000001
 40
0.0
 40
0.0
 40
0.0
 40
0.0
 40
0.7478504749
 40
1.0
 40
1.0
 40
1.0
 40
1.0
 10
97.6274751055
 20
96.9580339027
 30
0.0
 10
97.5067231172
 20
96.9533494109
 30
0.0
 10
97.3449997753
 20
96.9240612526
 30
0.0
 10
97.1935990334
 20
96.8673817961
 30
0.0
 10
97.1561305128
 20
96.8513759269
 30
0.0
  0
SPLINE
  5
6A2
100
AcDbEntity
  8
BEZUGSACHSEN
100
AcDbSpline
 62
7
  6
CONTINUOUS
 70
0
 71
3
 72
11
 73
7
 74
0
 42
0.0000001
 43
0.0000001
 44
0.0000000001
 40
0.0
 40
0.0
 40
0.0
 40
0.0
 40
0.25251503
 40
0.5025223719
 40
0.7513664759
 40
1.0
 40
1.0
 40
1.0
 40
1.0
 10
96.3456474333
 20
95.2372954466
 30
0.0
 10
96.3759527515
 20
95.1108279134
 30
0.0
 10
96.4735652974
 20
94.8664320452
 30
0.0
 10
96.7189735278
 20
94.5600279583
 30
0.0
 10
97.0427400502
 20
94.3413613833
 30
0.0
 10
97.2925287046
 20
94.2664219197
 30
0.0
 10
97.4192983199
 20
94.2483671583
 30
0.0
  0
SPLINE
  5
6A3
100
AcDbEntity
  8
KONSTRUKTIONSELEMENTE
100
AcDbSpline
 62
7
  6
CONTINUOUS
 70
0
 71
3
 72
9
 73
5
 74
0
 42
0.0000001
 43
0.0000001
 44
0.0000000001
 40
0.0
 40
0.0
 40
0.0
 40
0.0
 40
0.247697802
 40
1.0
 40
1.0
 40
1.0
 40
1.0
 10
103.1917142227
 20
98.1802031861
 30
0.0
 10
103.1034172374
 20
98.1786964882
 30
0.0
 10
102.7470661012
 20
98.1666206585
 30
0.0
 10
102.3915788311
 20
98.1309599223
 30
0.0
 10
102.1262125166
 20
98.0919887764
 30
0.0
  0
SPLINE
  5
6A4
100
AcDbEntity
  8
BEZUGSACHSEN
100
AcDbSpline
 62
7
  6
CONTINUOUS
 70
0
 71
3
 72
9
 73
5
 74
0
 42
0.0000001
 43
0.0000001
 44
0.0000000001
 40
0.0
 40
0.0
 40
0.0
 40
0.0
 40
0.5006291217
 40
1.0
 40
1.0
 40
1.0
 40
1.0
 10
99.3146205582
 20
91.0881197707
 30
0.0
 10
99.3824515407
 20
90.9007209745
 30
0.0
 10
99.6198156106
 20
90.5533484729
 30
0.0
 10
100.006809385
 20
90.3874615373
 30
0.0
 10
100.2034117704
 20
90.358009055
 30
0.0
  0
SPLINE
  5
6A5
100
AcDbEntity
  8
0
100
AcDbSpline
 62
7
  6
CONTINUOUS
 70
0
 71
3
 72
10
 73
6
 74
0
 42
0.0000001
 43
0.0000001
 44
0.0000000001
 40
0.0
 40
0.0
 40
0.0
 40
0.0
 40
0.5758628317
 40
0.8086621238
 40
1.0
 40
1.0
 40
1.0
 40
1.0
 10
106.9593413819
 20
60.9144352921
 30
0.0
 10
108.4515624361
 20
60.9144352921
 30
0.0
 10
110.5475071088
 20
60.9368504135
 30
0.0
 10
113.1365148376
 20
61.0490396245
 30
0.0
 10
114.233028077
 20
61.1284011941
 30
0.0
 10
114.7264806187
 20
61.1766909302
 30
0.0
  0
SPLINE
  5
6A6
100
AcDbEntity
  8
BEZUGSACHSEN
100
AcDbSpline
 62
7
  6
CONTINUOUS
 70
0
 71
3
 72
8
 73
4
 74
0
 42
0.0000001
 43
0.0000001
 44
0.0000000001
 40
0.0
 40
0.0
 40
0.0
 40
0.0
 40
1.0
 40
1.0
 40
1.0
 40
1.0
 10
103.5080780626
 20
94.2941013082
 30
0.0
 10
103.6345535934
 20
94.2355506434
 30
0.0
 10
103.7755395958
 20
94.2018868509
 30
0.0
 10
103.9148356607
 20
94.1973210491
 30
0.0
  0
SPLINE
  5
6A7
100
AcDbEntity
  8
0
100
AcDbSpline
 62
7
  6
CONTINUOUS
 70
0
 71
3
 72
9
 73
5
 74
0
 42
0.0000001
 43
0.0000001
 44
0.0000000001
 40
0.0
 40
0.0
 40
0.0
 40
0.0
 40
0.7430467926
 40
1.0
 40
1.0
 40
1.0
 40
1.0
 10
113.3028347916
 20
64.8700967782
 30
0.0
 10
113.3535384978
 20
64.8895554878
 30
0.0
 10
113.4298268644
 20
64.8991683281
 30
0.0
 10
113.5016575514
 20
64.8850645286
 30
0.0
 10
113.5197902024
 20
64.8801734128
 30
0.0
  0
SPLINE
  5
6A8
100
AcDbEntity
  8
BEZUGSACHSEN
100
AcDbSpline
 62
7
  6
CONTINUOUS
 70
0
 71
3
 72
9
 73
5
 74
0
 42
0.0000001
 43
0.0000001
 44
0.0000000001
 40
0.0
 40
0.0
 40
0.0
 40
0.0
 40
0.7430467926
 40
1.0
 40
1.0
 40
1.0
 40
1.0
 10
113.3028347916
 20
94.2584437929
 30
0.0
 10
113.3535384978
 20
94.2389850833
 30
0.0
 10
113.4298268644
 20
94.229372243
 30
0.0
 10
113.5016575514
 20
94.2434760425
 30
0.0
 10
113.5197902024
 20
94.2483671583
 30
0.0
  0
SPLINE
  5
6A9
100
AcDbEntity
  8
AUSFORMSCHRAEGEN
100
AcDbSpline
 62
7
  6
CONTINUOUS
 70
0
 71
3
 72
10
 73
6
 74
0
 42
0.0000001
 43
0.0000001
 44
0.0000000001
 40
0.0
 40
0.0
 40
0.0
 40
0.0
 40
0.5758628317
 40
0.8086621238
 40
1.0
 40
1.0
 40
1.0
 40
1.0
 10
106.9593413819
 20
98.214105279
 30
0.0
 10
108.4515624361
 20
98.214105279
 30
0.0
 10
110.5475071088
 20
98.1916901576
 30
0.0
 10
113.1365148376
 20
98.0795009466
 30
0.0
 10
114.233028077
 20
98.000139377
 30
0.0
 10
114.7264806187
 20
97.9518496409
 30
0.0
  0
SPLINE
  5
6AA
100
AcDbEntity
  8
0
100
AcDbSpline
 62
7
  6
CONTINUOUS
 70
0
 71
3
 72
9
 73
5
 74
0
 42
0.0000001
 43
0.0000001
 44
0.0000000001
 40
0.0
 40
0.0
 40
0.0
 40
0.0
 40
0.4904583712
 40
1.0
 40
1.0
 40
1.0
 40
1.0
 10
110.5335573887
 20
68.6908425745
 30
0.0
 10
110.5889784738
 20
68.7317128829
 30
0.0
 10
110.7222174272
 20
68.7911819922
 30
0.0
 10
110.8671434796
 20
68.7856285343
 30
0.0
 10
110.9370730255
 20
68.7705315161
 30
0.0
  0
SPLINE
  5
6AB
100
AcDbEntity
  8
BEZUGSACHSEN
100
AcDbSpline
 62
7
  6
CONTINUOUS
 70
0
 71
3
 72
9
 73
5
 74
0
 42
0.0000001
 43
0.0000001
 44
0.0000000001
 40
0.0
 40
0.0
 40
0.0
 40
0.0
 40
0.4904583712
 40
1.0
 40
1.0
 40
1.0
 40
1.0
 10
110.5335573887
 20
90.4376979965
 30
0.0
 10
110.5889784738
 20
90.3968276882
 30
0.0
 10
110.7222174272
 20
90.3373585789
 30
0.0
 10
110.8671434796
 20
90.3429120368
 30
0.0
 10
110.9370730255
 20
90.358009055
 30
0.0
  0
SPLINE
  5
6AC
100
AcDbEntity
  8
BEZUGSACHSEN
100
AcDbSpline
 62
7
  6
CONTINUOUS
 70
0
 71
3
 72
8
 73
4
 74
0
 42
0.0000001
 43
0.0000001
 44
0.0000000001
 40
0.0
 40
0.0
 40
0.0
 40
0.0
 40
1.0
 40
1.0
 40
1.0
 40
1.0
 10
109.0435500662
 20
94.2289464206
 30
0.0
 10
109.1199714805
 20
94.2050545199
 30
0.0
 10
109.2016608542
 20
94.1941294968
 30
0.0
 10
109.2816662882
 20
94.1973210491
 30
0.0
  0
SPLINE
  5
6AD
100
AcDbEntity
  8
0
100
AcDbSpline
 62
7
  6
CONTINUOUS
 70
0
 71
3
 72
21
 73
17
 74
0
 42
0.0000001
 43
0.0000001
 44
0.0000000001
 40
0.0
 40
0.0
 40
0.0
 40
0.0
 40
0.1377323248
 40
0.2044986482
 40
0.2689784889
 40
0.3309242976
 40
0.3904129241
 40
0.4478687587
 40
0.5040391441
 40
0.5599051408
 40
0.6165041107
 40
0.6747334687
 40
0.7352177082
 40
0.7982397013
 40
0.8637344338
 40
1.0
 40
1.0
 40
1.0
 40
1.0
 10
114.7264806187
 20
61.1766909302
 30
0.0
 10
114.6676052998
 20
62.6193036768
 30
0.0
 10
114.2679702351
 20
64.7688222371
 30
0.0
 10
113.121708283
 20
67.3546476479
 30
0.0
 10
112.0031318318
 20
69.0554153458
 30
0.0
 10
110.6527381358
 20
70.4759875129
 30
0.0
 10
109.1124894071
 20
71.5680431048
 30
0.0
 10
107.4322517507
 20
72.2908290185
 30
0.0
 10
105.6696130322
 20
72.6154187841
 30
0.0
 10
103.8881872138
 20
72.5277879261
 30
0.0
 10
102.1531859944
 20
72.0319347126
 30
0.0
 10
100.5259595578
 20
71.1485982749
 30
0.0
 10
99.0607422128
 20
69.9123333975
 30
0.0
 10
97.8037034156
 20
68.366508372
 30
0.0
 10
96.4416734003
 20
65.93689675
 30
0.0
 10
95.8682355909
 20
63.8553975838
 30
0.0
 10
95.6892940072
 20
62.438212003
 30
0.0
  0
SPLINE
  5
6AE
100
AcDbEntity
  8
0
100
AcDbSpline
 62
7
  6
CONTINUOUS
 70
0
 71
3
 72
11
 73
7
 74
0
 42
0.0000001
 43
0.0000001
 44
0.0000000001
 40
0.0
 40
0.0
 40
0.0
 40
0.0
 40
0.25251503
 40
0.5025223719
 40
0.7513664759
 40
1.0
 40
1.0
 40
1.0
 40
1.0
 10
96.3456474333
 20
63.8912451245
 30
0.0
 10
96.3759527515
 20
64.0177126577
 30
0.0
 10
96.4735652974
 20
64.2621085258
 30
0.0
 10
96.7189735278
 20
64.5685126128
 30
0.0
 10
97.0427400502
 20
64.7871791878
 30
0.0
 10
97.2925287046
 20
64.8621186514
 30
0.0
 10
97.4192983199
 20
64.8801734128
 30
0.0
  0
SPLINE
  5
6AF
100
AcDbEntity
  8
0
100
AcDbSpline
 62
7
  6
CONTINUOUS
 70
0
 71
3
 72
15
 73
11
 74
0
 42
0.0000001
 43
0.0000001
 44
0.0000000001
 40
0.0
 40
0.0
 40
0.0
 40
0.0
 40
0.1169913677
 40
0.2457729746
 40
0.3834025586
 40
0.5230878645
 40
0.6572243007
 40
0.7804919981
 40
0.8926729004
 40
1.0
 40
1.0
 40
1.0
 40
1.0
 10
106.1304252051
 20
68.8385829846
 30
0.0
 10
106.2732417863
 20
68.8385829846
 30
0.0
 10
106.5749591952
 20
68.7665935253
 30
0.0
 10
106.9663308849
 20
68.4954290756
 30
0.0
 10
107.2748253449
 20
68.0983688364
 30
0.0
 10
107.4632315648
 20
67.6256150472
 30
0.0
 10
107.5086003758
 20
67.1355397757
 30
0.0
 10
107.4011609783
 20
66.6871120493
 30
0.0
 10
107.1436660194
 20
66.3399467231
 30
0.0
 10
106.8901174761
 20
66.2194778411
 30
0.0
 10
106.7617876265
 20
66.1930690868
 30
0.0
  0
SPLINE
  5
6B0
100
AcDbEntity
  8
0
100
AcDbSpline
 62
7
  6
CONTINUOUS
 70
0
 71
3
 72
15
 73
11
 74
0
 42
0.0000001
 43
0.0000001
 44
0.0000000001
 40
0.0
 40
0.0
 40
0.0
 40
0.0
 40
0.1058188011
 40
0.2248385355
 40
0.3576725356
 40
0.4990399205
 40
0.6406420374
 40
0.7740909987
 40
0.8937816343
 40
1.0
 40
1.0
 40
1.0
 40
1.0
 10
109.2816662882
 20
64.931219522
 30
0.0
 10
109.4027888065
 20
64.9263877395
 30
0.0
 10
109.6591387596
 20
64.8476835947
 30
0.0
 10
109.9765456503
 20
64.5760370815
 30
0.0
 10
110.217002073
 20
64.1881418107
 30
0.0
 10
110.3568019483
 20
63.7276603917
 30
0.0
 10
110.3816113038
 20
63.2463856814
 30
0.0
 10
110.2874437547
 20
62.7981208746
 30
0.0
 10
110.0823064945
 20
62.432261499
 30
0.0
 10
109.8691295046
 20
62.2678941252
 30
0.0
 10
109.7570710609
 20
62.2204800719
 30
0.0
  0
SPLINE
  5
6B1
100
AcDbEntity
  8
0
100
AcDbSpline
 62
7
  6
CONTINUOUS
 70
0
 71
3
 72
8
 73
4
 74
0
 42
0.0000001
 43
0.0000001
 44
0.0000000001
 40
0.0
 40
0.0
 40
0.0
 40
0.0
 40
1.0
 40
1.0
 40
1.0
 40
1.0
 10
109.7570710609
 20
62.2204800719
 30
0.0
 10
109.6768262281
 20
62.1865269609
 30
0.0
 10
109.5887745707
 20
62.1671848411
 30
0.0
 10
109.5016751237
 20
62.1647904169
 30
0.0
  0
SPLINE
  5
6B2
100
AcDbEntity
  8
0
100
AcDbSpline
 62
7
  6
CONTINUOUS
 70
0
 71
3
 72
15
 73
11
 74
0
 42
0.0000001
 43
0.0000001
 44
0.0000000001
 40
0.0
 40
0.0
 40
0.0
 40
0.0
 40
0.1047227634
 40
0.2297605009
 40
0.3707457067
 40
0.5188865193
 40
0.6635590954
 40
0.7949262022
 40
0.9067124326
 40
1.0
 40
1.0
 40
1.0
 40
1.0
 10
110.9370730255
 20
68.7705315161
 30
0.0
 10
111.0408981968
 20
68.7481168059
 30
0.0
 10
111.2559172342
 20
68.6411355729
 30
0.0
 10
111.5270094087
 20
68.3754896173
 30
0.0
 10
111.7548551371
 20
68.0187682561
 30
0.0
 10
111.9162663601
 20
67.6066781786
 30
0.0
 10
111.9954509982
 20
67.1808954739
 30
0.0
 10
111.9834160971
 20
66.7840468866
 30
0.0
 10
111.8810589707
 20
66.4527314939
 30
0.0
 10
111.7387977806
 20
66.2876487884
 30
0.0
 10
111.6586388583
 20
66.2373769111
 30
0.0
  0
SPLINE
  5
6B3
100
AcDbEntity
  8
0
100
AcDbSpline
 62
7
  6
CONTINUOUS
 70
0
 71
3
 72
9
 73
5
 74
0
 42
0.0000001
 43
0.0000001
 44
0.0000000001
 40
0.0
 40
0.0
 40
0.0
 40
0.0
 40
0.7468850195
 40
1.0
 40
1.0
 40
1.0
 40
1.0
 10
111.6586388583
 20
66.2373769111
 30
0.0
 10
111.6073870383
 20
66.2052341983
 30
0.0
 10
111.529145963
 20
66.1752722049
 30
0.0
 10
111.4485183804
 20
66.1666635146
 30
0.0
 10
111.4280380441
 20
66.1657185391
 30
0.0
  0
SPLINE
  5
6B4
100
AcDbEntity
  8
0
100
AcDbSpline
 62
7
  6
CONTINUOUS
 70
0
 71
3
 72
15
 73
11
 74
0
 42
0.0000001
 43
0.0000001
 44
0.0000000001
 40
0.0
 40
0.0
 40
0.0
 40
0.0
 40
0.0888443188
 40
0.2019982414
 40
0.3374696497
 40
0.4867756035
 40
0.6383711188
 40
0.7802690768
 40
0.9024567749
 40
1.0
 40
1.0
 40
1.0
 40
1.0
 10
113.5197902024
 20
64.8801734128
 30
0.0
 10
113.6034863114
 20
64.8575971572
 30
0.0
 10
113.7755363034
 20
64.7445188901
 30
0.0
 10
113.9726718944
 20
64.4771783951
 30
0.0
 10
114.1307177643
 20
64.1196589642
 30
0.0
 10
114.2330313402
 20
63.7044779967
 30
0.0
 10
114.2703764227
 20
63.2723143007
 30
0.0
 10
114.2384126788
 20
62.8655770197
 30
0.0
 10
114.141863255
 20
62.5239690789
 30
0.0
 10
114.0232152894
 20
62.3373712877
 30
0.0
 10
113.9526522167
 20
62.2735028225
 30
0.0
  0
SPLINE
  5
6B5
100
AcDbEntity
  8
0
100
AcDbSpline
 62
7
  6
CONTINUOUS
 70
0
 71
3
 72
9
 73
5
 74
0
 42
0.0000001
 43
0.0000001
 44
0.0000000001
 40
0.0
 40
0.0
 40
0.0
 40
0.0
 40
0.5192157404
 40
1.0
 40
1.0
 40
1.0
 40
1.0
 10
113.9526522167
 20
62.2735028225
 30
0.0
 10
113.9204915061
 20
62.2443933303
 30
0.0
 10
113.8506606883
 20
62.1959068944
 30
0.0
 10
113.7680173694
 20
62.1735715093
 30
0.0
 10
113.7279669881
 20
62.1705066683
 30
0.0
  0
SPLINE
  5
6B6
100
AcDbEntity
  8
0
100
AcDbSpline
 62
7
  6
CONTINUOUS
 70
0
 71
3
 72
15
 73
11
 74
0
 42
0.0000001
 43
0.0000001
 44
0.0000000001
 40
0.0
 40
0.0
 40
0.0
 40
0.0
 40
0.1179462853
 40
0.2417750228
 40
0.3716405541
 40
0.5046971091
 40
0.6366630105
 40
0.7637055835
 40
0.8842292152
 40
1.0
 40
1.0
 40
1.0
 40
1.0
 10
103.9148356607
 20
64.931219522
 30
0.0
 10
104.0652909275
 20
64.9361510965
 30
0.0
 10
104.3789016069
 20
64.8781397525
 30
0.0
 10
104.7849752757
 20
64.6133904743
 30
0.0
 10
105.0874023963
 20
64.2115968263
 30
0.0
 10
105.2504454419
 20
63.7258189458
 30
0.0
 10
105.2554458141
 20
63.2168578746
 30
0.0
 10
105.0997094998
 20
62.7478109141
 30
0.0
 10
104.7992541503
 20
62.3799246608
 30
0.0
 10
104.5215754761
 20
62.2372493731
 30
0.0
 10
104.3787441022
 20
62.1994068721
 30
0.0
  0
SPLINE
  5
6B7
100
AcDbEntity
  8
0
100
AcDbSpline
 62
7
  6
CONTINUOUS
 70
0
 71
3
 72
15
 73
11
 74
0
 42
0.0000001
 43
0.0000001
 44
0.0000000001
 40
0.0
 40
0.0
 40
0.0
 40
0.0
 40
0.1236083136
 40
0.2523864619
 40
0.3840308872
 40
0.5146841662
 40
0.6410331936
 40
0.7621636183
 40
0.8803626921
 40
1.0
 40
1.0
 40
1.0
 40
1.0
 10
100.2034117704
 20
68.7705315161
 30
0.0
 10
100.3700883305
 20
68.7955008897
 30
0.0
 10
100.7247806581
 20
68.7716732298
 30
0.0
 10
101.2049766957
 20
68.5352791862
 30
0.0
 10
101.5781327568
 20
68.1386068615
 30
0.0
 10
101.7893473437
 20
67.6400777433
 30
0.0
 10
101.8057593313
 20
67.111790125
 30
0.0
 10
101.6175743235
 20
66.6336078206
 30
0.0
 10
101.2494853709
 20
66.2868684838
 30
0.0
 10
100.928194443
 20
66.1866794721
 30
0.0
 10
100.7658436969
 20
66.1708345031
 30
0.0
  0
SPLINE
  5
6B8
100
AcDbEntity
  8
0
100
AcDbSpline
 62
7
  6
CONTINUOUS
 70
0
 71
3
 72
17
 73
13
 74
0
 42
0.0000001
 43
0.0000001
 44
0.0000000001
 40
0.0
 40
0.0
 40
0.0
 40
0.0
 40
0.1238427333
 40
0.1867830694
 40
0.2501191218
 40
0.3770680793
 40
0.504040117
 40
0.5674303734
 40
0.6303834834
 40
0.7542640216
 40
0.8769765076
 40
1.0
 40
1.0
 40
1.0
 40
1.0
 10
97.4192983199
 20
64.8801734128
 30
0.0
 10
97.6007204924
 20
64.9060118917
 30
0.0
 10
97.8871068935
 20
64.8848490982
 30
0.0
 10
98.2315664729
 20
64.7444206251
 30
0.0
 10
98.544968465
 20
64.5347174559
 30
0.0
 10
98.8478853487
 20
64.1585334712
 30
0.0
 10
98.97992501
 20
63.693924307
 30
0.0
 10
98.9706072434
 20
63.3169017983
 30
0.0
 10
98.8864535439
 20
62.9540589369
 30
0.0
 10
98.6440856728
 20
62.5479988897
 30
0.0
 10
98.1807569439
 20
62.2276908571
 30
0.0
 10
97.8093789422
 20
62.1634498318
 30
0.0
 10
97.6274751055
 20
62.1705066683
 30
0.0
  0
SPLINE
  5
6B9
100
AcDbEntity
  8
0
100
AcDbSpline
 62
7
  6
CONTINUOUS
 70
0
 71
3
 72
9
 73
5
 74
0
 42
0.0000001
 43
0.0000001
 44
0.0000000001
 40
0.0
 40
0.0
 40
0.0
 40
0.0
 40
0.7478504749
 40
1.0
 40
1.0
 40
1.0
 40
1.0
 10
97.6274751055
 20
62.1705066683
 30
0.0
 10
97.5067231172
 20
62.1751911602
 30
0.0
 10
97.3449997753
 20
62.2044793185
 30
0.0
 10
97.1935990334
 20
62.261158775
 30
0.0
 10
97.1561305128
 20
62.2771646442
 30
0.0
  0
SPLINE
  5
6BA
100
AcDbEntity
  8
0
100
AcDbSpline
 62
7
  6
CONTINUOUS
 70
0
 71
3
 72
8
 73
4
 74
0
 42
0.0000001
 43
0.0000001
 44
0.0000000001
 40
0.0
 40
0.0
 40
0.0
 40
0.0
 40
1.0
 40
1.0
 40
1.0
 40
1.0
 10
109.0435500662
 20
64.8995941505
 30
0.0
 10
109.1199714805
 20
64.9234860512
 30
0.0
 10
109.2016608542
 20
64.9344110742
 30
0.0
 10
109.2816662882
 20
64.931219522
 30
0.0
  0
SPLINE
  5
6BB
100
AcDbEntity
  8
0
100
AcDbSpline
 62
7
  6
CONTINUOUS
 70
0
 71
3
 72
9
 73
5
 74
0
 42
0.0000001
 43
0.0000001
 44
0.0000000001
 40
0.0
 40
0.0
 40
0.0
 40
0.0
 40
0.247697802
 40
1.0
 40
1.0
 40
1.0
 40
1.0
 10
103.1917142227
 20
60.948337385
 30
0.0
 10
103.1034172374
 20
60.9498440829
 30
0.0
 10
102.7470661012
 20
60.9619199126
 30
0.0
 10
102.3915788311
 20
60.9975806487
 30
0.0
 10
102.1262125166
 20
61.0365517947
 30
0.0
  0
SPLINE
  5
6BC
100
AcDbEntity
  8
BEZUGSACHSEN
100
AcDbSpline
 62
7
  6
CONTINUOUS
 70
0
 71
3
 72
9
 73
5
 74
0
 42
0.0000001
 43
0.0000001
 44
0.0000000001
 40
0.0
 40
0.0
 40
0.0
 40
0.0
 40
0.4971533388
 40
1.0
 40
1.0
 40
1.0
 40
1.0
 10
105.6029156019
 20
90.472514258
 30
0.0
 10
105.6761119422
 20
90.4137639833
 30
0.0
 10
105.8451522007
 20
90.320415242
 30
0.0
 10
106.0354924935
 20
90.2899575865
 30
0.0
 10
106.1304252051
 20
90.2899575865
 30
0.0
  0
SPLINE
  5
6BD
100
AcDbEntity
  8
0
100
AcDbSpline
 62
7
  6
CONTINUOUS
 70
0
 71
3
 72
9
 73
5
 74
0
 42
0.0000001
 43
0.0000001
 44
0.0000000001
 40
0.0
 40
0.0
 40
0.0
 40
0.0
 40
0.5006291217
 40
1.0
 40
1.0
 40
1.0
 40
1.0
 10
99.3146205582
 20
68.0404208004
 30
0.0
 10
99.3824515407
 20
68.2278195966
 30
0.0
 10
99.6198156106
 20
68.5751920982
 30
0.0
 10
100.006809385
 20
68.7410790338
 30
0.0
 10
100.2034117704
 20
68.7705315161
 30
0.0
  0
SPLINE
  5
6BE
100
AcDbEntity
  8
0
100
AcDbSpline
 62
7
  6
CONTINUOUS
 70
0
 71
3
 72
9
 73
5
 74
0
 42
0.0000001
 43
0.0000001
 44
0.0000000001
 40
0.0
 40
0.0
 40
0.0
 40
0.0
 40
0.4971533388
 40
1.0
 40
1.0
 40
1.0
 40
1.0
 10
105.6029156019
 20
68.6560263131
 30
0.0
 10
105.6761119422
 20
68.7147765878
 30
0.0
 10
105.8451522007
 20
68.8081253291
 30
0.0
 10
106.0354924935
 20
68.8385829846
 30
0.0
 10
106.1304252051
 20
68.8385829846
 30
0.0
  0
SPLINE
  5
6BF
100
AcDbEntity
  8
0
100
AcDbSpline
 62
7
  6
CONTINUOUS
 70
0
 71
3
 72
8
 73
4
 74
0
 42
0.0000001
 43
0.0000001
 44
0.0000000001
 40
0.0
 40
0.0
 40
0.0
 40
0.0
 40
1.0
 40
1.0
 40
1.0
 40
1.0
 10
103.5080780626
 20
64.8344392629
 30
0.0
 10
103.6345535934
 20
64.8929899277
 30
0.0
 10
103.7755395958
 20
64.9266537202
 30
0.0
 10
103.9148356607
 20
64.931219522
 30
0.0
  0
SPLINE
  5
6C0
100
AcDbEntity
  8
0
100
AcDbSpline
 62
7
  6
CONTINUOUS
 70
0
 71
3
 72
9
 73
5
 74
0
 42
0.0000001
 43
0.0000001
 44
0.0000000001
 40
0.0
 40
0.0
 40
0.0
 40
0.0
 40
0.2432045015
 40
1.0
 40
1.0
 40
1.0
 40
1.0
 10
41.7118869361
 20
68.603866385
 30
0.0
 10
41.9109884763
 20
68.5969694131
 30
0.0
 10
42.7290489836
 20
68.5519190527
 30
0.0
 10
43.5431128628
 20
68.4440346618
 30
0.0
 10
44.1533608163
 20
68.3349043791
 30
0.0
  0
SPLINE
  5
6C1
100
AcDbEntity
  8
KONSTRUKTIONSELEMENTE
100
AcDbSpline
 62
7
  6
CONTINUOUS
 70
0
 71
3
 72
9
 73
5
 74
0
 42
0.0000001
 43
0.0000001
 44
0.0000000001
 40
0.0
 40
0.0
 40
0.0
 40
0.0
 40
0.2432045015
 40
1.0
 40
1.0
 40
1.0
 40
1.0
 10
41.7118869361
 20
90.524674186
 30
0.0
 10
41.9109884763
 20
90.531571158
 30
0.0
 10
42.7290489836
 20
90.5766215184
 30
0.0
 10
43.5431128628
 20
90.6845059093
 30
0.0
 10
44.1533608163
 20
90.793636192
 30
0.0
  0
SPLINE
  5
6C2
100
AcDbEntity
  8
KONSTRUKTIONSELEMENTE
100
AcDbSpline
 62
7
  6
CONTINUOUS
 70
0
 71
3
 72
9
 73
5
 74
0
 42
0.0000001
 43
0.0000001
 44
0.0000000001
 40
0.0
 40
0.0
 40
0.0
 40
0.0
 40
0.2455810426
 40
1.0
 40
1.0
 40
1.0
 40
1.0
 10
40.2705948434
 20
90.5506539118
 30
0.0
 10
40.3883062285
 20
90.5418876972
 30
0.0
 10
40.8681394698
 20
90.5132800048
 30
0.0
 10
41.3494964366
 20
90.512120807
 30
0.0
 10
41.7118869361
 20
90.524674186
 30
0.0
  0
SPLINE
  5
6C3
100
AcDbEntity
  8
KONSTRUKTIONSELEMENTE
100
AcDbSpline
 62
7
  6
CONTINUOUS
 70
0
 71
3
 72
9
 73
5
 74
0
 42
0.0000001
 43
0.0000001
 44
0.0000000001
 40
0.0
 40
0.0
 40
0.0
 40
0.0
 40
0.4873020228
 40
1.0
 40
1.0
 40
1.0
 40
1.0
 10
83.5641376045
 20
94.0097839371
 30
0.0
 10
83.7879109836
 20
94.1007942718
 30
0.0
 10
84.2790724275
 20
94.2197469371
 30
0.0
 10
84.7825601154
 20
94.1673998571
 30
0.0
 10
85.0285512472
 20
94.1034708993
 30
0.0
  0
SPLINE
  5
6C4
100
AcDbEntity
  8
0
100
AcDbSpline
 62
7
  6
CONTINUOUS
 70
0
 71
3
 72
9
 73
5
 74
0
 42
0.0000001
 43
0.0000001
 44
0.0000000001
 40
0.0
 40
0.0
 40
0.0
 40
0.0
 40
0.4873020228
 40
1.0
 40
1.0
 40
1.0
 40
1.0
 10
83.5641376045
 20
65.1187566339
 30
0.0
 10
83.7879109836
 20
65.0277462993
 30
0.0
 10
84.2790724275
 20
64.908793634
 30
0.0
 10
84.7825601154
 20
64.9611407139
 30
0.0
 10
85.0285512472
 20
65.0250696718
 30
0.0
  0
SPLINE
  5
6C5
100
AcDbEntity
  8
0
100
AcDbSpline
 62
7
  6
CONTINUOUS
 70
0
 71
3
 72
9
 73
5
 74
0
 42
0.0000001
 43
0.0000001
 44
0.0000000001
 40
0.0
 40
0.0
 40
0.0
 40
0.0
 40
0.2455810426
 40
1.0
 40
1.0
 40
1.0
 40
1.0
 10
40.2705948434
 20
68.5778866592
 30
0.0
 10
40.3883062285
 20
68.5866528738
 30
0.0
 10
40.8681394698
 20
68.6152605662
 30
0.0
 10
41.3494964366
 20
68.6164197641
 30
0.0
 10
41.7118869361
 20
68.603866385
 30
0.0
  0
ELLIPSE
  5
6C6
100
AcDbEntity
  8
0
100
AcDbEllipse
 62
7
  6
CONTINUOUS
 10
43.7515756563
 20
282.7329881992
 30
0.0
 11
20.1124440973
 21
15.9152139774
 31
0.0
 40
0.0944783471
 41
1.2558285943
 42
1.4762506564
  0
ELLIPSE
  5
6C7
100
AcDbEntity
  8
0
100
AcDbEllipse
 62
7
  6
CONTINUOUS
 10
59.8064632734
 20
301.0036426545
 30
0.0
 11
19.3749902157
 21
15.3983861071
 31
0.0
 40
0.0977754624
 41
-1.895370031
 42
-1.5322535739
  0
ELLIPSE
  5
6C8
100
AcDbEntity
  8
0
100
AcDbEllipse
 62
7
  6
CONTINUOUS
 10
63.0114028181
 20
302.1226992238
 30
0.0
 11
10.3333281151
 21
8.2124725905
 31
0.0
 40
0.0977754624
 41
-1.5322535739
 42
-1.0697413222
  0
ELLIPSE
  5
6C9
100
AcDbEntity
  8
0
100
AcDbEllipse
 62
7
  6
CONTINUOUS
 10
133.384833334
 20
176.7914069634
 30
0.0
 11
23.8076279842
 21
1.2680907531
 31
0.0
 40
0.1049554763
 41
-1.576386607
 42
-0.0928567584
  0
ELLIPSE
  5
6CA
100
AcDbEntity
  8
0
100
AcDbEllipse
 62
7
  6
CONTINUOUS
 10
106.645073334
 20
175.74682657
 30
0.0
 11
30.7195199796
 21
1.636246133
 31
0.0
 40
0.1049554763
 41
-1.5763866226
 42
-1.2224381927
  0
ELLIPSE
  5
6CB
100
AcDbEntity
  8
BEZUGSACHSEN
100
AcDbEllipse
 62
7
  6
CONTINUOUS
 10
157.5761631397
 20
330.6421885727
 30
0.0
 11
0.0
 21
20.5
 31
0.0
 40
0.0874886635
 41
5.3522981005
 42
6.5506053808
  0
ELLIPSE
  5
6CC
100
AcDbEntity
  8
BEZUGSACHSEN
100
AcDbEllipse
 62
7
  6
CONTINUOUS
 10
157.5761631397
 20
330.6421885727
 30
0.0
 11
0.0
 21
20.5
 31
0.0
 40
0.0874886635
 41
-3.4090127272
 42
-2.2107054469
  0
ELLIPSE
  5
6CD
100
AcDbEntity
  8
0
100
AcDbEllipse
 62
7
  6
CONTINUOUS
 10
157.0949754903
 20
200.9719784686
 30
0.0
 11
0.0093317425
 21
23.0321311338
 31
0.0
 40
0.0873656724
 41
-3.0322353903
 42
-1.5661588186
  0
ELLIPSE
  5
6CE
100
AcDbEntity
  8
BEZUGSACHSEN
100
AcDbEllipse
 62
7
  6
CONTINUOUS
 10
157.5761631397
 20
220.6421885727
 30
0.0
 11
-0.0
 21
20.5
 31
0.0
 40
0.0874886635
 41
5.3522981005
 42
6.5506053808
  0
ELLIPSE
  5
6CF
100
AcDbEntity
  8
0
100
AcDbEllipse
 62
7
  6
CONTINUOUS
 10
235.1632998182
 20
270.7821885727
 30
0.0
 11
151.1702184967
 21
0.0
 31
0.0
 40
0.8682237535
 41
2.2622920589
 42
2.2660655664
  0
ELLIPSE
  5
6D0
100
AcDbEntity
  8
0
100
AcDbEllipse
 62
7
  6
CONTINUOUS
 10
86.1361861377
 20
301.8686822399
 30
0.0
 11
1.786655971
 21
3.0945789174
 31
0.0
 40
0.9968771855
 41
1.030357271
 42
2.6656584265
  0
ELLIPSE
  5
6D1
100
AcDbEntity
  8
0
100
AcDbEllipse
 62
7
  6
CONTINUOUS
 10
137.9387328985
 20
335.2581262173
 30
0.0
 11
32.6222583504
 21
56.5034089205
 31
0.0
 40
0.9968771855
 41
-3.6175268807
 42
-3.6054129089
  0
ELLIPSE
  5
6D2
100
AcDbEntity
  8
BEZUGSACHSEN
100
AcDbEllipse
 62
7
  6
CONTINUOUS
 10
157.5761631397
 20
220.6421885727
 30
0.0
 11
0.0
 21
20.5
 31
0.0
 40
0.0874886635
 41
-3.4090127272
 42
-2.2107054469
  0
ELLIPSE
  5
6D3
100
AcDbEntity
  8
0
100
AcDbEllipse
 62
7
  6
CONTINUOUS
 10
125.9578578044
 20
171.2631464077
 30
0.0
 11
24.9996093584
 21
1.3315805119
 31
0.0
 40
0.1049554763
 41
1.565206031
 42
1.9191544607
  0
ELLIPSE
  5
6D4
100
AcDbEntity
  8
0
100
AcDbEllipse
 62
7
  6
CONTINUOUS
 10
73.6762845733
 20
249.6301548459
 30
0.0
 11
0.0
 21
46.9959614439
 31
0.0
 40
0.9999700099
 41
0.7906942597
 42
1.1144426998
  0
ELLIPSE
  5
6D5
100
AcDbEntity
  8
AUSFORMSCHRAEGEN
100
AcDbEllipse
 62
7
  6
CONTINUOUS
 10
276.3771299929
 20
339.720063057
 30
0.0
 11
0.8407724527
 21
11.9999191398
 31
0.0
 40
0.0523954879
 41
0.9286955687
 42
2.6942695382
  0
ELLIPSE
  5
6D6
100
AcDbEntity
  8
KONSTRUKTIONSELEMENTE
100
AcDbEllipse
 62
7
  6
CONTINUOUS
 10
286.0957828002
 20
310.6325901733
 30
0.0
 11
10.0394711207
 21
-0.090536537
 31
0.0
 40
0.4417039506
 41
-3.1204447762
 42
-2.9291913634
  0
ELLIPSE
  5
6D7
100
AcDbEntity
  8
0
100
AcDbEllipse
 62
7
  6
CONTINUOUS
 10
314.3771299929
 20
339.720063057
 30
0.0
 11
-0.8407724527
 21
11.9999191398
 31
0.0
 40
0.0523954879
 41
-2.6942695382
 42
-0.9286955687
  0
ELLIPSE
  5
6D8
100
AcDbEntity
  8
0
100
AcDbEllipse
 62
7
  6
CONTINUOUS
 10
304.6584771856
 20
310.6325901733
 30
0.0
 11
10.0394711207
 21
0.090536537
 31
0.0
 40
0.4417039506
 41
-0.2124012902
 42
-0.0211478773
  0
ELLIPSE
  5
6D9
100
AcDbEntity
  8
AUSFORMSCHRAEGEN
100
AcDbEllipse
 62
7
  6
CONTINUOUS
 10
276.3771299929
 20
339.720063057
 30
0.0
 11
0.3503218553
 21
4.9999663082
 31
0.0
 40
0.0523954879
 41
0.0
 42
6.2831853072
  0
ELLIPSE
  5
6DA
100
AcDbEntity
  8
KONSTRUKTIONSELEMENTE
100
AcDbEllipse
 62
7
  6
CONTINUOUS
 10
305.7591069473
 20
362.2105564504
 30
0.0
 11
-6.1189371643
 21
39.9828889406
 31
0.0
 40
0.1911881624
 41
-3.8762144576
 42
-3.8592133411
  0
ELLIPSE
  5
6DB
100
AcDbEntity
  8
KONSTRUKTIONSELEMENTE
100
AcDbEllipse
 62
7
  6
CONTINUOUS
 10
306.7311593183
 20
362.2105564504
 30
0.0
 11
-19.8398538356
 21
39.0595870538
 31
0.0
 40
0.4346083861
 41
-4.0769950333
 42
-4.0642331254
  0
ELLIPSE
  5
6DC
100
AcDbEntity
  8
KONSTRUKTIONSELEMENTE
100
AcDbEllipse
 62
7
  6
CONTINUOUS
 10
309.0908801326
 20
362.2105564504
 30
0.0
 11
57.119375217
 21
-30.8786256953
 31
0.0
 40
0.4451479058
 41
-1.415515887
 42
-1.4070015217
  0
ELLIPSE
  5
6DD
100
AcDbEntity
  8
AUSFORMSCHRAEGEN
100
AcDbEllipse
 62
7
  6
CONTINUOUS
 10
276.2896413294
 20
339.5232425701
 30
0.0
 11
1.4012874212
 21
19.999865233
 31
0.0
 40
0.0523954879
 41
-0.4388775481
 42
-0.1521434318
  0
ELLIPSE
  5
6DE
100
AcDbEntity
  8
KONSTRUKTIONSELEMENTE
100
AcDbEllipse
 62
7
  6
CONTINUOUS
 10
282.2433547051
 20
307.0952576572
 30
0.0
 11
1.5059458203
 21
0.0
 31
0.0
 40
0.5994389191
 41
-2.9503460585
 42
-2.8017557441
  0
ELLIPSE
  5
6DF
100
AcDbEntity
  8
AUSFORMSCHRAEGEN
100
AcDbEllipse
 62
7
  6
CONTINUOUS
 10
280.4890971786
 20
362.2105564504
 30
0.0
 11
2.8025748423
 21
39.9997304659
 31
0.0
 40
0.0523954879
 41
-4.537533302
 42
-3.7836934117
  0
ELLIPSE
  5
6E0
100
AcDbEntity
  8
0
100
AcDbEllipse
 62
7
  6
CONTINUOUS
 10
314.3771299929
 20
339.720063057
 30
0.0
 11
-0.3503218553
 21
4.9999663082
 31
0.0
 40
0.0523954879
 41
0.0
 42
6.2831853072
  0
ELLIPSE
  5
6E1
100
AcDbEntity
  8
0
100
AcDbEllipse
 62
7
  6
CONTINUOUS
 10
310.2651628072
 20
362.2105564504
 30
0.0
 11
-2.8025748423
 21
39.9997304659
 31
0.0
 40
0.0523954879
 41
-2.4994918955
 42
-1.7456520051
  0
ELLIPSE
  5
6E2
100
AcDbEntity
  8
0
100
AcDbEllipse
 62
7
  6
CONTINUOUS
 10
314.4646186564
 20
339.5232425701
 30
0.0
 11
-1.4012874212
 21
19.999865233
 31
0.0
 40
0.0523954879
 41
0.1521434318
 42
0.4388775481
  0
ELLIPSE
  5
6E3
100
AcDbEntity
  8
KONSTRUKTIONSELEMENTE
100
AcDbEllipse
 62
7
  6
CONTINUOUS
 10
317.0012860188
 20
362.2105564504
 30
0.0
 11
156.5870226034
 21
-25.078037776
 31
0.0
 40
0.1990097832
 41
-1.6240696223
 42
-1.6198102741
  0
ELLIPSE
  5
6E4
100
AcDbEntity
  8
0
100
AcDbEllipse
 62
7
  6
CONTINUOUS
 10
313.1522887035
 20
356.317295406
 30
0.0
 11
-0.2101931132
 21
2.9999797849
 31
0.0
 40
0.0523954879
 41
5.3544897385
 42
6.435328739
  0
ELLIPSE
  5
6E5
100
AcDbEntity
  8
AUSFORMSCHRAEGEN
100
AcDbEllipse
 62
7
  6
CONTINUOUS
 10
277.6019712823
 20
356.317295406
 30
0.0
 11
0.2101931132
 21
2.9999797849
 31
0.0
 40
0.0523954879
 41
-0.1521434318
 42
0.9286955687
  0
ELLIPSE
  5
6E6
100
AcDbEntity
  8
KONSTRUKTIONSELEMENTE
100
AcDbEllipse
 62
7
  6
CONTINUOUS
 10
290.7139347674
 20
362.2105564504
 30
0.0
 11
-8.3939026192
 21
39.9447702641
 31
0.0
 40
0.2503327014
 41
-3.9165378715
 42
-3.9043880653
  0
ELLIPSE
  5
6E7
100
AcDbEntity
  8
KONSTRUKTIONSELEMENTE
100
AcDbEllipse
 62
7
  6
CONTINUOUS
 10
292.712548605
 20
362.2105564504
 30
0.0
 11
34.8041833892
 21
-36.0430927314
 31
0.0
 40
0.4983980951
 41
-1.1794554785
 42
-1.170938252
  0
ELLIPSE
  5
6E8
100
AcDbEntity
  8
0
100
AcDbEllipse
 62
7
  6
CONTINUOUS
 10
313.0079184722
 20
354.8855164782
 30
0.0
 11
-0.2101931132
 21
2.9999797849
 31
0.0
 40
0.0523954879
 41
0.4388775481
 42
1.3959406485
  0
ELLIPSE
  5
6E9
100
AcDbEntity
  8
0
100
AcDbEllipse
 62
7
  6
CONTINUOUS
 10
308.5109052807
 20
307.0952576572
 30
0.0
 11
1.5059458203
 21
0.0
 31
0.0
 40
0.5994389191
 41
-0.3398369095
 42
-0.1912465951
  0
ELLIPSE
  5
6EA
100
AcDbEntity
  8
AUSFORMSCHRAEGEN
100
AcDbEllipse
 62
7
  6
CONTINUOUS
 10
277.7463415136
 20
354.8855164782
 30
0.0
 11
0.2101931132
 21
2.9999797849
 31
0.0
 40
0.0523954879
 41
-1.3959406485
 42
-0.4388775481
  0
ELLIPSE
  5
6EB
100
AcDbEntity
  8
KONSTRUKTIONSELEMENTE
100
AcDbEllipse
 62
7
  6
CONTINUOUS
 10
299.3733813821
 20
362.2105564504
 30
0.0
 11
117.3072672751
 21
-25.862138721
 31
0.0
 40
0.2601266541
 41
-1.6029058885
 42
-1.5986449914
  0
ELLIPSE
  5
6EC
100
AcDbEntity
  8
KONSTRUKTIONSELEMENTE
100
AcDbEllipse
 62
7
  6
CONTINUOUS
 10
289.7105674553
 20
362.2105564504
 30
0.0
 11
23.3575102312
 21
38.5134547243
 31
0.0
 40
0.4625243127
 41
-2.2052212377
 42
-2.1882367427
  0
ELLIPSE
  5
6ED
100
AcDbEntity
  8
KONSTRUKTIONSELEMENTE
100
AcDbEllipse
 62
7
  6
CONTINUOUS
 10
290.2669915118
 20
362.2105564504
 30
0.0
 11
8.3939026192
 21
39.9447702641
 31
0.0
 40
0.2503327014
 41
-2.4091625799
 42
-2.3964180151
  0
ELLIPSE
  5
6EE
100
AcDbEntity
  8
0
100
AcDbEllipse
 62
7
  6
CONTINUOUS
 10
332.3771299929
 20
200.9719784686
 30
0.0
 11
13.7435831136
 21
18.5310837339
 31
0.0
 40
0.9952023366
 41
-2.3964344122
 42
-0.9303578405
  0
ELLIPSE
  5
6EF
100
AcDbEntity
  8
KONSTRUKTIONSELEMENTE
100
AcDbEllipse
 62
7
  6
CONTINUOUS
 10
279.7233818878
 20
297.871496021
 30
0.0
 11
6.3444267586
 21
13.9246388381
 31
0.0
 40
0.2081940889
 41
0.1168745318
 42
0.633926684
  0
ELLIPSE
  5
6F0
100
AcDbEntity
  8
RUNDUNGEN
100
AcDbEllipse
 62
7
  6
CONTINUOUS
 10
258.3771299929
 20
200.9719784686
 30
0.0
 11
13.7435831136
 21
-18.5310837339
 31
0.0
 40
0.9952023366
 41
-2.211234813
 42
-0.7451582414
  0
ELLIPSE
  5
6F1
100
AcDbEntity
  8
0
100
AcDbEllipse
 62
7
  6
CONTINUOUS
 10
299.9851299929
 20
302.1226992238
 30
0.0
 11
12.2595758914
 21
-1.2520362516
 31
0.0
 40
0.6671612737
 41
0.068030173
 42
0.5305424247
  0
ELLIPSE
  5
6F2
100
AcDbEntity
  8
KONSTRUKTIONSELEMENTE
100
AcDbEllipse
 62
7
  6
CONTINUOUS
 10
824.7053495623
 20
270.7821885727
 30
0.0
 11
857.3289118279
 21
0.0
 31
0.0
 40
0.153091273
 41
2.2622920589
 42
2.2660655664
  0
ELLIPSE
  5
6F3
100
AcDbEntity
  8
KONSTRUKTIONSELEMENTE
100
AcDbEllipse
 62
7
  6
CONTINUOUS
 10
256.2191299929
 20
176.7914069634
 30
0.0
 11
23.8076401357
 21
-2.5126482983
 31
0.0
 40
0.0520969732
 41
0.0054982528
 42
1.4890281014
  0
ELLIPSE
  5
6F4
100
AcDbEntity
  8
KONSTRUKTIONSELEMENTE
100
AcDbEllipse
 62
7
  6
CONTINUOUS
 10
252.7611299929
 20
175.74682657
 30
0.0
 11
30.719535659
 21
-3.2421268365
 31
0.0
 40
0.0520969732
 41
0.0054982372
 42
0.359446667
  0
ELLIPSE
  5
6F5
100
AcDbEntity
  8
KONSTRUKTIONSELEMENTE
100
AcDbEllipse
 62
7
  6
CONTINUOUS
 10
290.7691299929
 20
302.1226992238
 30
0.0
 11
12.2595758914
 21
1.2520362516
 31
0.0
 40
0.6671612737
 41
2.6110502288
 42
3.0735624806
  0
ELLIPSE
  5
6F6
100
AcDbEntity
  8
KONSTRUKTIONSELEMENTE
100
AcDbEllipse
 62
7
  6
CONTINUOUS
 10
305.0271299929
 20
171.2631464077
 30
0.0
 11
24.9996221183
 21
-2.638449574
 31
0.0
 40
0.0520969732
 41
-3.1360944164
 42
-2.7821459867
  0
ELLIPSE
  5
6F7
100
AcDbEntity
  8
0
100
AcDbEllipse
 62
7
  6
CONTINUOUS
 10
311.0308780981
 20
297.871496021
 30
0.0
 11
-6.3444267586
 21
13.9246388381
 31
0.0
 40
0.2081940889
 41
-0.633926684
 42
-0.1168745318
  0
ELLIPSE
  5
6F8
100
AcDbEntity
  8
0
100
AcDbEllipse
 62
7
  6
CONTINUOUS
 10
-233.9510895765
 20
270.7821885727
 30
0.0
 11
857.3289118279
 21
-0.0
 31
0.0
 40
0.153091273
 41
0.8755270872
 42
0.8793005947
  0
ELLIPSE
  5
6F9
100
AcDbEntity
  8
0
100
AcDbEllipse
 62
7
  6
CONTINUOUS
 10
285.7271299929
 20
171.2631464077
 30
0.0
 11
24.9996221183
 21
2.638449574
 31
0.0
 40
0.0520969732
 41
-0.3594466669
 42
-0.0054982372
  0
ELLIPSE
  5
6FA
100
AcDbEntity
  8
0
100
AcDbEllipse
 62
7
  6
CONTINUOUS
 10
337.9931299929
 20
175.74682657
 30
0.0
 11
30.719535659
 21
3.2421268365
 31
0.0
 40
0.0520969732
 41
2.7821459866
 42
3.1360944164
  0
ELLIPSE
  5
6FB
100
AcDbEntity
  8
0
100
AcDbEllipse
 62
7
  6
CONTINUOUS
 10
334.5351299929
 20
176.7914069634
 30
0.0
 11
23.8076401357
 21
2.5126482983
 31
0.0
 40
0.0520969732
 41
1.6525645522
 42
3.1360944008
  0
ELLIPSE
  5
6FC
100
AcDbEntity
  8
KONSTRUKTIONSELEMENTE
100
AcDbEllipse
 62
7
  6
CONTINUOUS
 10
261.3319380492
 20
282.7329881992
 30
0.0
 11
23.0678437655
 21
1.7371947371
 31
0.0
 40
0.6907376954
 41
0.1047810997
 42
0.3252031618
  0
ELLIPSE
  5
6FD
100
AcDbEntity
  8
KONSTRUKTIONSELEMENTE
100
AcDbEllipse
 62
7
  6
CONTINUOUS
 10
301.5211299929
 20
301.0036426545
 30
0.0
 11
22.9867047963
 21
2.3475679717
 31
0.0
 40
0.6671612737
 41
3.0735624806
 42
3.4366789377
  0
ELLIPSE
  5
6FE
100
AcDbEntity
  8
KONSTRUKTIONSELEMENTE
100
AcDbEllipse
 62
7
  6
CONTINUOUS
 10
301.5211299929
 20
293.3095531621
 30
0.0
 11
23.04
 21
0.0
 31
0.0
 40
0.7954374101
 41
3.1415926536
 42
3.3236276598
  0
ELLIPSE
  5
6FF
100
AcDbEntity
  8
KONSTRUKTIONSELEMENTE
100
AcDbEllipse
 62
7
  6
CONTINUOUS
 10
301.5211299929
 20
288.432956781
 30
0.0
 11
23.04
 21
-0.0
 31
0.0
 40
0.3737404873
 41
2.9595576474
 42
3.0613224535
  0
ELLIPSE
  5
700
100
AcDbEntity
  8
KONSTRUKTIONSELEMENTE
100
AcDbEllipse
 62
7
  6
CONTINUOUS
 10
301.5211299929
 20
290.593529478
 30
0.0
 11
23.04
 21
0.0
 31
0.0
 40
0.7957549864
 41
-3.0613224535
 42
-2.8938370596
  0
ELLIPSE
  5
701
100
AcDbEntity
  8
0
100
AcDbEllipse
 62
7
  6
CONTINUOUS
 10
329.4223219366
 20
282.7329881992
 30
0.0
 11
23.0678437655
 21
-1.7371947371
 31
0.0
 40
0.6907376954
 41
2.8163894918
 42
3.0368115539
  0
ELLIPSE
  5
702
100
AcDbEntity
  8
0
100
AcDbEllipse
 62
7
  6
CONTINUOUS
 10
289.2331299929
 20
301.0036426545
 30
0.0
 11
22.9867047963
 21
-2.3475679717
 31
0.0
 40
0.6671612737
 41
-0.2950862841
 42
0.068030173
  0
ELLIPSE
  5
703
100
AcDbEntity
  8
AUSFORMSCHRAEGEN
100
AcDbEllipse
 62
7
  6
CONTINUOUS
 10
140.514833334
 20
98.5642702855
 30
0.0
 11
11.9999184545
 21
0.6349106556
 31
0.0
 40
0.0696774463
 41
0.4300520616
 42
1.1161155585
  0
ELLIPSE
  5
704
100
AcDbEntity
  8
0
100
AcDbEllipse
 62
7
  6
CONTINUOUS
 10
107.9834650017
 20
70.2829230929
 30
0.0
 11
-0.8869465958
 21
10.0069876829
 31
0.0
 40
0.9109299734
 41
-3.3557525476
 42
-3.2393206946
  0
ELLIPSE
  5
705
100
AcDbEntity
  8
KONSTRUKTIONSELEMENTE
100
AcDbEllipse
 62
7
  6
CONTINUOUS
 10
107.9834650017
 20
88.8456174782
 30
0.0
 11
0.8869465958
 21
10.0069876829
 31
0.0
 40
0.9109299734
 41
0.097728041
 42
0.214159894
  0
ELLIPSE
  5
706
100
AcDbEntity
  8
KONSTRUKTIONSELEMENTE
100
AcDbEllipse
 62
7
  6
CONTINUOUS
 10
85.5887732839
 20
92.6980455733
 30
0.0
 11
-0.0
 21
1.5059458203
 31
0.0
 40
0.7954823134
 41
0.1912465951
 42
0.3398369095
  0
ELLIPSE
  5
707
100
AcDbEntity
  8
0
100
AcDbEllipse
 62
7
  6
CONTINUOUS
 10
140.514833334
 20
60.5642702855
 30
0.0
 11
11.9999184545
 21
-0.6349106556
 31
0.0
 40
0.0696774463
 41
5.1670697487
 42
5.8531332456
  0
ELLIPSE
  5
708
100
AcDbEntity
  8
0
100
AcDbEllipse
 62
7
  6
CONTINUOUS
 10
85.5887732839
 20
66.4304949978
 30
0.0
 11
0.0
 21
1.5059458203
 31
0.0
 40
0.7954823134
 41
-3.481429563
 42
-3.3328392486
  0
ELLIPSE
  5
709
100
AcDbEntity
  8
AUSFORMSCHRAEGEN
100
AcDbEllipse
 62
7
  6
CONTINUOUS
 10
139.2771426003
 20
97.3394289962
 30
0.0
 11
2.9999796136
 21
0.1587276639
 31
0.0
 40
0.0696774463
 41
-1.7302974116
 42
-0.649458411
  0
ELLIPSE
  5
70A
100
AcDbEntity
  8
KONSTRUKTIONSELEMENTE
100
AcDbEllipse
 62
7
  6
CONTINUOUS
 10
92.2636394947
 20
65.9363567547
 30
0.0
 11
38.0324128687
 21
37.0429149041
 31
0.0
 40
0.3345024868
 41
-1.159104123
 42
-1.1420571202
  0
ELLIPSE
  5
70B
100
AcDbEntity
  8
KONSTRUKTIONSELEMENTE
100
AcDbEllipse
 62
7
  6
CONTINUOUS
 10
92.2636394947
 20
67.5184343109
 30
0.0
 11
39.7736788725
 21
16.8034238635
 31
0.0
 40
0.2528684094
 41
-0.9675997832
 42
-0.9505763046
  0
ELLIPSE
  5
70C
100
AcDbEntity
  8
KONSTRUKTIONSELEMENTE
100
AcDbEllipse
 62
7
  6
CONTINUOUS
 10
92.2636394947
 20
68.2681890358
 30
0.0
 11
39.9933524476
 21
6.3408539029
 31
0.0
 40
0.1150032433
 41
-0.9006579982
 42
-0.8794040872
  0
ELLIPSE
  5
70D
100
AcDbEntity
  8
0
100
AcDbEllipse
 62
7
  6
CONTINUOUS
 10
92.2636394947
 20
64.6762374713
 30
0.0
 11
39.9997281817
 21
-2.1163688521
 31
0.0
 40
0.0696774463
 41
-0.9213379158
 42
-0.364459453
  0
ELLIPSE
  5
70E
100
AcDbEntity
  8
0
100
AcDbEllipse
 62
7
  6
CONTINUOUS
 10
141.9152838672
 20
60.476781622
 30
0.0
 11
19.9998640909
 21
-1.0581844261
 31
0.0
 40
0.0696774463
 41
1.7302974116
 42
1.7330613979
  0
ELLIPSE
  5
70F
100
AcDbEntity
  8
KONSTRUKTIONSELEMENTE
100
AcDbEllipse
 62
7
  6
CONTINUOUS
 10
92.2636394947
 20
89.0667705947
 30
0.0
 11
-33.1929593759
 21
117.3302107945
 31
0.0
 40
0.1902409359
 41
-1.6544195043
 42
-1.650173188
  0
ELLIPSE
  5
710
100
AcDbEntity
  8
KONSTRUKTIONSELEMENTE
100
AcDbEllipse
 62
7
  6
CONTINUOUS
 10
92.2636394947
 20
86.7284377184
 30
0.0
 11
-38.0324061948
 21
37.0429747466
 31
0.0
 40
0.3345024994
 41
-1.9399624397
 42
-1.9314681146
  0
ELLIPSE
  5
711
100
AcDbEntity
  8
KONSTRUKTIONSELEMENTE
100
AcDbEllipse
 62
7
  6
CONTINUOUS
 10
92.2636394947
 20
85.7273253805
 30
0.0
 11
39.9508511176
 21
-10.8031836552
 31
0.0
 40
0.1834917784
 41
0.9266923192
 42
0.9362523737
  0
ELLIPSE
  5
712
100
AcDbEntity
  8
KONSTRUKTIONSELEMENTE
100
AcDbEllipse
 62
7
  6
CONTINUOUS
 10
92.2636394947
 20
64.5846802451
 30
0.0
 11
32.4160854324
 21
195.7949549939
 31
0.0
 40
0.1196913433
 41
-1.4445263717
 42
-1.4402565378
  0
ELLIPSE
  5
713
100
AcDbEntity
  8
KONSTRUKTIONSELEMENTE
100
AcDbEllipse
 62
7
  6
CONTINUOUS
 10
92.2636394947
 20
79.8441318732
 30
0.0
 11
36.5268432344
 21
50.8945441392
 31
0.0
 40
0.3203301844
 41
-1.2511648705
 42
-1.2383667321
  0
ELLIPSE
  5
714
100
AcDbEntity
  8
KONSTRUKTIONSELEMENTE
100
AcDbEllipse
 62
7
  6
CONTINUOUS
 10
92.2636394947
 20
81.9808323986
 30
0.0
 11
39.1046726658
 21
26.654213746
 31
0.0
 40
0.3157374627
 41
-1.0603843015
 42
-1.0433436529
  0
ELLIPSE
  5
715
100
AcDbEntity
  8
KONSTRUKTIONSELEMENTE
100
AcDbEllipse
 62
7
  6
CONTINUOUS
 10
92.2636394947
 20
83.229965511
 30
0.0
 11
39.9508511176
 21
10.8031836552
 31
0.0
 40
0.1834917784
 41
-0.9107503001
 42
-0.8979846997
  0
ELLIPSE
  5
716
100
AcDbEntity
  8
AUSFORMSCHRAEGEN
100
AcDbEllipse
 62
7
  6
CONTINUOUS
 10
140.514833334
 20
98.5642702855
 30
0.0
 11
4.9999660227
 21
0.2645461065
 31
0.0
 40
0.0696774463
 41
4.3053175496
 42
8.2783728186
  0
ELLIPSE
  5
717
100
AcDbEntity
  8
AUSFORMSCHRAEGEN
100
AcDbEllipse
 62
7
  6
CONTINUOUS
 10
140.514833334
 20
98.5642702855
 30
0.0
 11
11.9999184545
 21
0.6349106556
 31
0.0
 40
0.0696774463
 41
-0.649458411
 42
-0.4948780795
  0
ELLIPSE
  5
718
100
AcDbEntity
  8
0
100
AcDbEllipse
 62
7
  6
CONTINUOUS
 10
140.514833334
 20
60.5642702855
 30
0.0
 11
4.9999660227
 21
-0.2645461065
 31
0.0
 40
0.0696774463
 41
4.2879977957
 42
8.2610530648
  0
ELLIPSE
  5
719
100
AcDbEntity
  8
0
100
AcDbEllipse
 62
7
  6
CONTINUOUS
 10
140.514833334
 20
60.5642702855
 30
0.0
 11
11.9999184545
 21
-0.6349106556
 31
0.0
 40
0.0696774463
 41
0.4948780795
 42
0.649458411
  0
ELLIPSE
  5
71A
100
AcDbEntity
  8
AUSFORMSCHRAEGEN
100
AcDbEllipse
 62
7
  6
CONTINUOUS
 10
141.9152838672
 20
98.6517589491
 30
0.0
 11
19.9998640909
 21
1.0581844261
 31
0.0
 40
0.0696774463
 41
-1.7330613979
 42
-1.7302974116
  0
ELLIPSE
  5
71B
100
AcDbEntity
  8
AUSFORMSCHRAEGEN
100
AcDbEllipse
 62
7
  6
CONTINUOUS
 10
92.2636394947
 20
94.4523030998
 30
0.0
 11
39.9997281817
 21
2.1163688521
 31
0.0
 40
0.0696774463
 41
0.364459453
 42
0.9213379158
  0
ELLIPSE
  5
71C
100
AcDbEntity
  8
0
100
AcDbEllipse
 62
7
  6
CONTINUOUS
 10
139.2771426003
 20
61.7891115749
 30
0.0
 11
2.9999796136
 21
-0.1587276639
 31
0.0
 40
0.0696774463
 41
0.649458411
 42
1.7302974116
  0
ELLIPSE
  5
71D
100
AcDbEntity
  8
KONSTRUKTIONSELEMENTE
100
AcDbEllipse
 62
7
  6
CONTINUOUS
 10
92.2636394947
 20
49.6221678629
 30
0.0
 11
32.4160849076
 21
195.7950671155
 31
0.0
 40
0.1196912785
 41
-1.4445263941
 42
-1.4402565602
  0
ELLIPSE
  5
71E
100
AcDbEntity
  8
KONSTRUKTIONSELEMENTE
100
AcDbEllipse
 62
7
  6
CONTINUOUS
 10
92.2636394947
 20
62.1071932239
 30
0.0
 11
34.4937893204
 21
77.8171355798
 31
0.0
 40
0.2602622649
 41
-1.3580159681
 42
-1.3494820621
  0
ELLIPSE
  5
71F
100
AcDbEntity
  8
KONSTRUKTIONSELEMENTE
100
AcDbEllipse
 62
7
  6
CONTINUOUS
 10
43.7515756563
 20
113.6094622292
 30
0.0
 11
9.0682821142
 21
21.8562898411
 31
0.0
 40
0.824244533
 41
-2.6553252273
 42
-2.4349031652
  0
ELLIPSE
  5
720
100
AcDbEntity
  8
KONSTRUKTIONSELEMENTE
100
AcDbEllipse
 62
7
  6
CONTINUOUS
 10
59.8064632734
 20
73.4202702855
 30
0.0
 11
6.8566675374
 21
22.3547647027
 31
0.0
 40
0.8134102776
 41
0.244498336
 42
0.6076147931
  0
ELLIPSE
  5
721
100
AcDbEntity
  8
0
100
AcDbEllipse
 62
7
  6
CONTINUOUS
 10
43.7515756563
 20
45.5190783418
 30
0.0
 11
-9.0682821142
 21
21.8562898411
 31
0.0
 40
0.824244533
 41
-0.7066894884
 42
-0.4862674263
  0
ELLIPSE
  5
722
100
AcDbEntity
  8
0
100
AcDbEllipse
 62
7
  6
CONTINUOUS
 10
59.8064632734
 20
85.7082702855
 30
0.0
 11
-6.8566675374
 21
22.3547647027
 31
0.0
 40
0.8134102776
 41
-3.7492074467
 42
-3.3860909896
  0
ELLIPSE
  5
723
100
AcDbEntity
  8
KONSTRUKTIONSELEMENTE
100
AcDbEllipse
 62
7
  6
CONTINUOUS
 10
86.1361861377
 20
92.2477709423
 30
0.0
 11
3.5387716544
 21
-1.0728059295
 31
0.0
 40
0.4019394451
 41
2.6929380131
 42
4.3282391686
  0
ELLIPSE
  5
724
100
AcDbEntity
  8
KONSTRUKTIONSELEMENTE
100
AcDbEllipse
 62
7
  6
CONTINUOUS
 10
75.8690211766
 20
84.1722702855
 30
0.0
 11
0.0
 21
12.288
 31
0.0
 40
0.6084619688
 41
0.0
 42
0.0751738767
  0
ELLIPSE
  5
725
100
AcDbEntity
  8
0
100
AcDbEllipse
 62
7
  6
CONTINUOUS
 10
63.0114028181
 20
74.9562702855
 30
0.0
 11
-3.6568893533
 21
11.9225411748
 31
0.0
 40
0.8134102776
 41
-3.3860909896
 42
-2.9235787378
  0
ELLIPSE
  5
726
100
AcDbEntity
  8
KONSTRUKTIONSELEMENTE
100
AcDbEllipse
 62
7
  6
CONTINUOUS
 10
63.0114028181
 20
84.1722702855
 30
0.0
 11
3.6568893533
 21
11.9225411748
 31
0.0
 40
0.8134102776
 41
-0.2180139158
 42
0.244498336
  0
ELLIPSE
  5
727
100
AcDbEntity
  8
KONSTRUKTIONSELEMENTE
100
AcDbEllipse
 62
7
  6
CONTINUOUS
 10
73.6762845733
 20
92.9862969376
 30
0.0
 11
46.9945520309
 21
0.0
 31
0.0
 40
0.0736874302
 41
-2.6852390266
 42
-2.3614905865
  0
ELLIPSE
  5
728
100
AcDbEntity
  8
KONSTRUKTIONSELEMENTE
100
AcDbEllipse
 62
7
  6
CONTINUOUS
 10
74.7332268698
 20
84.1722702855
 30
0.0
 11
0.0
 21
12.288
 31
0.0
 40
0.6222619915
 41
-0.0751738767
 42
0.0
  0
ELLIPSE
  5
729
100
AcDbEntity
  8
0
100
AcDbEllipse
 62
7
  6
CONTINUOUS
 10
81.1447262795
 20
63.9105221804
 30
0.0
 11
13.8786934486
 21
4.1922547224
 31
0.0
 40
0.4016980177
 41
0.8166541888
 42
1.9885744285
  0
ELLIPSE
  5
72A
100
AcDbEntity
  8
0
100
AcDbEllipse
 62
7
  6
CONTINUOUS
 10
73.6762845733
 20
66.1422436335
 30
0.0
 11
46.9945520309
 21
0.0
 31
0.0
 40
0.0736874302
 41
2.3614905865
 42
2.6852390266
  0
ELLIPSE
  5
72B
100
AcDbEntity
  8
0
100
AcDbEllipse
 62
7
  6
CONTINUOUS
 10
137.9387328985
 20
94.2117071399
 30
0.0
 11
64.6138512543
 21
19.5881875183
 31
0.0
 40
0.4019394451
 41
-2.6929380131
 42
-2.6808240414
  0
ELLIPSE
  5
72C
100
AcDbEntity
  8
0
100
AcDbEllipse
 62
7
  6
CONTINUOUS
 10
86.1361861377
 20
66.8807696288
 30
0.0
 11
3.5387716544
 21
1.0728059295
 31
0.0
 40
0.4019394451
 41
8.2381314458
 42
9.8734326012
  0
ELLIPSE
  5
72D
100
AcDbEntity
  8
KONSTRUKTIONSELEMENTE
100
AcDbEllipse
 62
7
  6
CONTINUOUS
 10
81.1447262795
 20
95.2180183907
 30
0.0
 11
13.8786934486
 21
-4.1922547224
 31
0.0
 40
0.4016980177
 41
-1.9885744285
 42
-0.8166541888
  0
ELLIPSE
  5
72E
100
AcDbEntity
  8
KONSTRUKTIONSELEMENTE
100
AcDbEllipse
 62
7
  6
CONTINUOUS
 10
137.9387328985
 20
64.9168334312
 30
0.0
 11
64.6138512543
 21
-19.5881875183
 31
0.0
 40
0.4019394451
 41
2.6808240414
 42
2.6929380131
  0
ENDSEC
  0
SECTION
  2
OBJECTS
  0
DICTIONARY
  5
C
100
AcDbDictionary
280
0
281
1
  3
ACAD_GROUP
350
D
  3
ACAD_MLINESTYLE
350
17
  3
ACAD_LAYOUT
350
1A
  3
ACAD_PLOTSETTINGS
350
19
  3
ACAD_PLOTSTYLENAME
350
E
  0
DICTIONARY
  5
D
102
{ACAD_REACTORS
330
C
102
}
100
AcDbDictionary
280
0
281
1
  0
ACDBDICTIONARYWDFLT
  5
E
102
{ACAD_REACTORS
330
C
102
}
100
AcDbDictionary
281
1
  3
Normal
350
F
100
AcDbDictionaryWithDefault
340
F
  0
DICTIONARY
  5
17
102
{ACAD_REACTORS
330
C
102
}
100
AcDbDictionary
280
0
281
1
  3
Standard
350
18
  0
DICTIONARY
  5
19
102
{ACAD_REACTORS
330
C
102
}
100
AcDbDictionary
281
1
  0
DICTIONARY
  5
1A
102
{ACAD_REACTORS
330
C
102
}
100
AcDbDictionary
281
1
  3
Model
350
72F
  3
Layout1
350
730
  0
ACDBPLACEHOLDER
  5
F
102
{ACAD_REACTORS
330
E
102
}
  0
MLINESTYLE
  5
18
102
{ACAD_REACTORS
330
17
102
}
100
AcDbMlineStyle
  2
STANDARD
 70
0
  3

 62
256
 51
90.0
 52
90.0
 71
2
 49
0.5
 62
256
  6
BYLAYER
 49
-0.5
 62
256
  6
BYLAYER
  0
LAYOUT
  5
72F
102
{ACAD_REACTORS
330
1A
102
}
100
AcDbPlotSettings
  1

  2
none_device
  4
ISO_A3_(420.00_x_297.00_MM)
  6

 40
0.0
 41
0.0
 42
0.0
 43
0.0
 44
420.0
 45
297.0
 46
0.0
 47
0.0
 48
0.0
 49
0.0
140
0.0
141
0.0
142
1.0
143
1.0
 70
1024
 72
1
 73
0
 74
0
  7

 75
0
147
1.0
148
0.0
149
0.0
100
AcDbLayout
  1
Model
 70
0
 71
0
 10
0.0
 20
0.0
 11
420.0
 21
297.0
 12
0.0
 22
0.0
 32
0.0
 14
0.0
 24
0.0
 34
0.0
 15
0.0
 25
0.0
 35
0.0
146
0.0
 13
0.0
 23
0.0
 33
0.0
 16
1.0
 26
0.0
 36
0.0
 17
0.0
 27
1.0
 37
0.0
 76
0
330
20C
345
0
346
0
  0
LAYOUT
  5
730
102
{ACAD_REACTORS
330
1A
102
}
100
AcDbPlotSettings
  1

  2
none_device
  4
ISO_A3_(420.00_x_297.00_MM)
  6

 40
0.0
 41
0.0
 42
0.0
 43
0.0
 44
420.0
 45
297.0
 46
0.0
 47
0.0
 48
0.0
 49
0.0
140
0.0
141
0.0
142
1.0
143
1.0
 70
0
 72
1
 73
0
 74
0
  7

 75
0
147
1.0
148
0.0
149
0.0
100
AcDbLayout
  1
Layout1
 70
0
 71
1
 10
0.0
 20
0.0
 11
420.0
 21
297.0
 12
0.0
 22
0.0
 32
0.0
 14
0.0
 24
0.0
 34
0.0
 15
0.0
 25
0.0
 35
0.0
146
0.0
 13
0.0
 23
0.0
 33
0.0
 16
1.0
 26
0.0
 36
0.0
 17
0.0
 27
1.0
 37
0.0
 76
0
330
20D
345
0
346
0
  0
ENDSEC
  0
EOF
