999
DXF file: vabh-b-4-0.dxf
999
Pro/ENGINEER 2010140 by Parametric Technology Corporation
  0
SECTION
  2
HEADER
  9
$ACADVER
  1
AC1015
  9
$DWGCODEPAGE
  3
ANSI_1252
  9
$EXTMAX
 10
420.0
 20
297.0
 30
0.0
  9
$EXTMIN
 10
0.0
 20
0.0
 30
0.0
  9
$LIMMIN
 10
0.0
 20
0.0
  9
$LIMMAX
 10
420.0
 20
297.0
  9
$VIEWCTR
 10
210.0
 20
148.5
  9
$VIEWSIZE
 40
297.0
  9
$CLAYER
  8
0
  9
$LTSCALE
 40
23.1
  9
$CELTYPE
  6
BYLAYER
  9
$DIMSCALE
 40
1.0
  9
$DIMASZ
 40
3.5
  9
$DIMEXO
 40
2.625
  9
$DIMDLI
 40
15.96
  9
$DIMEXE
 40
7.56
  9
$DIMCEN
 40
3.78
  9
$DIMLFAC
 40
1.0
  9
$DIMBLK
  1
_FILLED
  9
$DIMTXT
 40
3.5
  9
$DIMTOL
 70
1
  9
$DIMLIM
 70
0
  9
$DIMTFAC
 40
1.0
  9
$DIMTP
 40
0.005
  9
$DIMTM
 40
0.005
  9
$PDMODE
 70
3
  9
$PDSIZE
 40
0.3125
  9
$HANDSEED
  5
6E0
  9
$TILEMODE
 70
1
  9
$MEASUREMENT
 70
1
  9
$INSUNITS
 70
4
  0
ENDSEC
  0
SECTION
  2
CLASSES
  0
CLASS
  1
ACDBDICTIONARYWDFLT
  2
AcDbDictionaryWithDefault
  3
AutoCAD 2000
 90
0
280
0
281
0
  0
CLASS
  1
ACDBPLACEHOLDER
  2
AcDbPlaceHolder
  3
AutoCAD 2000
 90
0
280
0
281
0
  0
CLASS
  1
LAYOUT
  2
AcDbLayout
  3
AutoCAD 2000
 90
0
280
0
281
0
  0
ENDSEC
  0
SECTION
  2
TABLES
  0
TABLE
  2
VPORT
  5
8
100
AcDbSymbolTable
 70
2
  0
VPORT
  5
1F4
100
AcDbSymbolTableRecord
100
AcDbViewportTableRecord
  2
*ACTIVE
 70
0
 10
0.0
 20
0.0
 11
1.0
 21
1.0
 12
210.0
 22
148.5
 13
0.0
 23
0.0
 14
1.0
 24
1.0
 15
0.0
 25
0.0
 16
0.0
 26
0.0
 36
1.0
 17
0.0
 27
0.0
 37
0.0
 40
297.0
 41
1.4141414141
 42
50.0
 43
0.0
 44
0.0
 50
0.0
 51
0.0
 71
0
 72
100
 73
1
 74
1
 75
0
 76
0
 77
0
 78
0
  0
ENDTAB
  0
TABLE
  2
LTYPE
  5
5
100
AcDbSymbolTable
 70
6
  0
LTYPE
  5
14
100
AcDbSymbolTableRecord
100
AcDbLinetypeTableRecord
  2
BYBLOCK
 70
0
  3

 72
65
 73
0
 40
0.0
  0
LTYPE
  5
15
100
AcDbSymbolTableRecord
100
AcDbLinetypeTableRecord
  2
BYLAYER
 70
0
  3

 72
65
 73
0
 40
0.0
  0
LTYPE
  5
16
100
AcDbSymbolTableRecord
100
AcDbLinetypeTableRecord
  2
CONTINUOUS
 70
64
  3
Solid line
 72
65
 73
0
 40
0.0
  0
LTYPE
  5
1F5
100
AcDbSymbolTableRecord
100
AcDbLinetypeTableRecord
  2
CENTER
 70
64
  3
____ _ ____ _ ____ _ ____ _ ____ _ ____ _ ____
 72
65
 73
4
 40
0.6
 49
0.375
 74
0
 49
-0.075
 74
0
 49
0.075
 74
0
 49
-0.075
 74
0
  0
LTYPE
  5
1F6
100
AcDbSymbolTableRecord
100
AcDbLinetypeTableRecord
  2
HIDDEN
 70
64
  3
- - - - - - - - - - - - - - - - - - - -
 72
65
 73
2
 40
0.2
 49
0.1
 74
0
 49
-0.1
 74
0
  0
LTYPE
  5
1F7
100
AcDbSymbolTableRecord
100
AcDbLinetypeTableRecord
  2
PHANTOM
 70
64
  3
_____ _ _ _____ _ _ _____ _ _ _____
 72
65
 73
6
 40
0.8
 49
0.45
 74
0
 49
-0.05
 74
0
 49
0.1
 74
0
 49
-0.05
 74
0
 49
0.1
 74
0
 49
-0.05
 74
0
  0
LTYPE
  5
1F8
100
AcDbSymbolTableRecord
100
AcDbLinetypeTableRecord
  2
DOT
 70
64
  3
. . . . . . . . . . . . . . . . . . . .
 72
65
 73
2
 40
0.2
 49
0.1
 74
0
 49
-0.1
 74
0
  0
LTYPE
  5
1F9
100
AcDbSymbolTableRecord
100
AcDbLinetypeTableRecord
  2
DASHED
 70
64
  3
- - - - - - - - - - - - - - - - - - - -
 72
65
 73
2
 40
0.2
 49
0.1
 74
0
 49
-0.1
 74
0
  0
ENDTAB
  0
TABLE
  2
LAYER
  5
2
100
AcDbSymbolTable
 70
36
  0
LAYER
  5
10
100
AcDbSymbolTableRecord
100
AcDbLayerTableRecord
  2
0
 70
0
 62
7
  6
CONTINUOUS
370
-3
390
F
  0
LAYER
  5
1FA
100
AcDbSymbolTableRecord
100
AcDbLayerTableRecord
  2
DEFAULT_1
 70
0
 62
7
  6
CENTER
370
-3
390
F
  0
LAYER
  5
1FB
100
AcDbSymbolTableRecord
100
AcDbLayerTableRecord
  2
DEFAULT_2
 70
0
 62
8
  6
HIDDEN
370
-3
390
F
  0
LAYER
  5
1FC
100
AcDbSymbolTableRecord
100
AcDbLayerTableRecord
  2
DEFAULT_3
 70
0
 62
7
  6
PHANTOM
370
-3
390
F
  0
LAYER
  5
1FD
100
AcDbSymbolTableRecord
100
AcDbLayerTableRecord
  2
AUSFORMSCHRAEGEN
 70
0
 62
7
  6
CONTINUOUS
370
-3
390
F
  0
LAYER
  5
1FE
100
AcDbSymbolTableRecord
100
AcDbLayerTableRecord
  2
BEZUGSACHSEN
 70
0
 62
7
  6
CONTINUOUS
370
-3
390
F
  0
LAYER
  5
1FF
100
AcDbSymbolTableRecord
100
AcDbLayerTableRecord
  2
BEZUGSEBENEN
 70
0
 62
7
  6
CONTINUOUS
370
-3
390
F
  0
LAYER
  5
200
100
AcDbSymbolTableRecord
100
AcDbLayerTableRecord
  2
BG_STARTBEZUEGE
 70
0
 62
7
  6
CONTINUOUS
370
-3
390
F
  0
LAYER
  5
201
100
AcDbSymbolTableRecord
100
AcDbLayerTableRecord
  2
BOHRUNGEN
 70
0
 62
7
  6
CONTINUOUS
370
-3
390
F
  0
LAYER
  5
202
100
AcDbSymbolTableRecord
100
AcDbLayerTableRecord
  2
FASEN
 70
0
 62
7
  6
CONTINUOUS
370
-3
390
F
  0
LAYER
  5
203
100
AcDbSymbolTableRecord
100
AcDbLayerTableRecord
  2
GEWINDE
 70
0
 62
7
  6
CONTINUOUS
370
-3
390
F
  0
LAYER
  5
204
100
AcDbSymbolTableRecord
100
AcDbLayerTableRecord
  2
HILFEN
 70
0
 62
7
  6
CONTINUOUS
370
-3
390
F
  0
LAYER
  5
205
100
AcDbSymbolTableRecord
100
AcDbLayerTableRecord
  2
KONSTRUKTIONSELEMENTE
 70
0
 62
7
  6
CONTINUOUS
370
-3
390
F
  0
LAYER
  5
206
100
AcDbSymbolTableRecord
100
AcDbLayerTableRecord
  2
PLATZIERUNG
 70
0
 62
7
  6
CONTINUOUS
370
-3
390
F
  0
LAYER
  5
207
100
AcDbSymbolTableRecord
100
AcDbLayerTableRecord
  2
PLAZIERUNG
 70
0
 62
7
  6
CONTINUOUS
370
-3
390
F
  0
LAYER
  5
208
100
AcDbSymbolTableRecord
100
AcDbLayerTableRecord
  2
RUNDUNGEN
 70
0
 62
7
  6
CONTINUOUS
370
-3
390
F
  0
LAYER
  5
209
100
AcDbSymbolTableRecord
100
AcDbLayerTableRecord
  2
TEIL_STARTBEZUEGE
 70
0
 62
7
  6
CONTINUOUS
370
-3
390
F
  0
ENDTAB
  0
TABLE
  2
STYLE
  5
3
100
AcDbSymbolTable
 70
1
  0
STYLE
  5
11
100
AcDbSymbolTableRecord
100
AcDbTextStyleTableRecord
  2
STANDARD
 70
0
 40
0.0
 41
0.7
 50
0.0
 71
0
 42
0.2
  3
txt
  4

  0
STYLE
  5
20A
100
AcDbSymbolTableRecord
100
AcDbTextStyleTableRecord
  2
TEXTSTYLE_1
 70
0
 40
0.0
 41
0.8
 50
0.0
 71
0
 42
0.2
  3
gdt
  4

  0
ENDTAB
  0
TABLE
  2
VIEW
  5
6
100
AcDbSymbolTable
 70
0
  0
ENDTAB
  0
TABLE
  2
UCS
  5
7
100
AcDbSymbolTable
 70
0
  0
ENDTAB
  0
TABLE
  2
APPID
  5
9
100
AcDbSymbolTable
 70
1
  0
APPID
  5
20B
100
AcDbSymbolTableRecord
100
AcDbRegAppTableRecord
  2
ACAD
 70
0
  0
ENDTAB
  0
TABLE
  2
BLOCK_RECORD
  5
1
100
AcDbSymbolTable
 70
0
  0
BLOCK_RECORD
  5
20C
100
AcDbSymbolTableRecord
100
AcDbBlockTableRecord
  2
*Model_Space
  0
BLOCK_RECORD
  5
20D
100
AcDbSymbolTableRecord
100
AcDbBlockTableRecord
  2
*Paper_Space
  0
ENDTAB
  0
TABLE
  2
DIMSTYLE
  5
A
100
AcDbSymbolTable
 70
1
100
AcDbDimStyleTable
 71
0
  0
DIMSTYLE
105
20E
100
AcDbSymbolTableRecord
100
AcDbDimStyleTableRecord
  2
STANDARD
 70
0
  3

  4

 40
1.0
 41
3.5
 42
0.0625
 43
0.38
 44
0.18
 45
0.0
 46
0.0
 47
0.005
 48
0.005
140
3.5
141
0.09
142
0.0
143
25.4
144
1.0
145
0.0
146
1.0
147
0.09
 71
1.0
 72
0.0
 73
0
 74
0
 75
0
 76
0
 77
1
 78
8
170
0
171
2
172
0
173
0
174
0
175
0
176
0
177
0
178
5
270
2
271
3
272
3
273
2
274
2
275
0
280
0
281
0
282
0
283
1
284
8
285
0
286
0
287
3
288
0
340
11
  0
ENDTAB
  0
ENDSEC
  0
SECTION
  2
BLOCKS
  0
BLOCK
  5
20
100
AcDbEntity
  8
0
100
AcDbBlockBegin
  2
*Model_Space
 70
0
 10
0.0
 20
0.0
 30
0.0
  3
*Model_Space
  1

  0
ENDBLK
  5
21
100
AcDbEntity
  8
0
100
AcDbBlockEnd
  0
BLOCK
  5
1C
100
AcDbEntity
  8
0
100
AcDbBlockBegin
  2
*Paper_Space
 70
0
 10
0.0
 20
0.0
 30
0.0
  3
*Paper_Space
  1

  0
ENDBLK
  5
1D
100
AcDbEntity
  8
0
100
AcDbBlockEnd
  0
ENDSEC
  0
SECTION
  2
ENTITIES
  0
LINE
  5
20F
100
AcDbEntity
  8
0
100
AcDbLine
 62
7
  6
CONTINUOUS
 10
0.0
 20
0.0
 11
0.0
 21
297.0
  0
LINE
  5
210
100
AcDbEntity
  8
0
100
AcDbLine
 62
7
  6
CONTINUOUS
 10
0.0
 20
0.0
 11
420.0
 21
0.0
  0
LINE
  5
211
100
AcDbEntity
  8
0
100
AcDbLine
 62
7
  6
CONTINUOUS
 10
0.0
 20
297.0
 11
420.0
 21
297.0
  0
LINE
  5
212
100
AcDbEntity
  8
0
100
AcDbLine
 62
7
  6
CONTINUOUS
 10
420.0
 20
0.0
 11
420.0
 21
297.0
  0
LINE
  5
213
100
AcDbEntity
  8
KONSTRUKTIONSELEMENTE
100
AcDbLine
 62
7
  6
CONTINUOUS
 10
160.8886270173
 20
150.6180939503
 11
102.4611973763
 21
146.9332677921
  0
LINE
  5
214
100
AcDbEntity
  8
0
100
AcDbLine
 62
7
  6
CONTINUOUS
 10
105.8966270173
 20
147.9494108783
 11
102.4109764322
 21
147.72958234
  0
LINE
  5
215
100
AcDbEntity
  8
0
100
AcDbLine
 62
7
  6
CONTINUOUS
 10
129.5126270173
 20
149.6912624047
 11
122.2730002422
 21
149.2346829131
  0
LINE
  5
216
100
AcDbEntity
  8
0
100
AcDbLine
 62
7
  6
CONTINUOUS
 10
101.909827109
 20
155.6759183573
 11
118.9900898095
 21
156.7531144478
  0
LINE
  5
217
100
AcDbEntity
  8
KONSTRUKTIONSELEMENTE
100
AcDbLine
 62
7
  6
CONTINUOUS
 10
90.1727147538
 20
163.8894883002
 11
89.8166930396
 21
163.8706381246
  0
LINE
  5
218
100
AcDbEntity
  8
KONSTRUKTIONSELEMENTE
100
AcDbLine
 62
7
  6
CONTINUOUS
 10
89.5210844741
 20
163.2377940893
 11
90.0936374317
 21
163.1954982563
  0
LINE
  5
219
100
AcDbEntity
  8
KONSTRUKTIONSELEMENTE
100
AcDbLine
 62
7
  6
CONTINUOUS
 10
92.4630109876
 20
162.497175081
 11
93.1302740757
 21
162.3952684021
  0
LINE
  5
21A
100
AcDbEntity
  8
KONSTRUKTIONSELEMENTE
100
AcDbLine
 62
7
  6
CONTINUOUS
 10
96.2441693355
 20
161.9197037708
 11
96.9114324236
 21
161.8177970919
  0
LINE
  5
21B
100
AcDbEntity
  8
KONSTRUKTIONSELEMENTE
100
AcDbLine
 62
7
  6
CONTINUOUS
 10
93.511882068
 20
164.8939557312
 11
96.6257773278
 21
164.4183910999
  0
LINE
  5
21C
100
AcDbEntity
  8
KONSTRUKTIONSELEMENTE
100
AcDbLine
 62
7
  6
CONTINUOUS
 10
96.7298522215
 20
165.0998511938
 11
93.6159569618
 21
165.5754158251
  0
LINE
  5
21D
100
AcDbEntity
  8
KONSTRUKTIONSELEMENTE
100
AcDbLine
 62
7
  6
CONTINUOUS
 10
97.7266858551
 20
167.1559017969
 11
97.059422767
 21
167.2578084759
  0
LINE
  5
21E
100
AcDbEntity
  8
KONSTRUKTIONSELEMENTE
100
AcDbLine
 62
7
  6
CONTINUOUS
 10
93.9455275072
 20
167.7333731072
 11
93.2782644191
 21
167.8352797861
  0
LINE
  5
21F
100
AcDbEntity
  8
KONSTRUKTIONSELEMENTE
100
AcDbLine
 62
7
  6
CONTINUOUS
 10
86.9226996731
 20
163.971549107
 11
89.5210844741
 21
163.2377940893
  0
LINE
  5
220
100
AcDbEntity
  8
KONSTRUKTIONSELEMENTE
100
AcDbLine
 62
7
  6
CONTINUOUS
 10
89.8166930396
 20
163.8706381246
 11
87.7596375795
 21
164.4515277469
  0
LINE
  5
221
100
AcDbEntity
  8
KONSTRUKTIONSELEMENTE
100
AcDbLine
 62
7
  6
CONTINUOUS
 10
88.227991856
 20
166.1100712715
 11
90.2850473161
 21
165.5291816492
  0
LINE
  5
222
100
AcDbEntity
  8
KONSTRUKTIONSELEMENTE
100
AcDbLine
 62
7
  6
CONTINUOUS
 10
90.4723890004
 20
166.1925989661
 11
88.4153335403
 21
166.7734885884
  0
LINE
  5
223
100
AcDbEntity
  8
KONSTRUKTIONSELEMENTE
100
AcDbLine
 62
7
  6
CONTINUOUS
 10
88.8524642245
 20
168.3214626376
 11
90.9095196846
 21
167.7405730153
  0
LINE
  5
224
100
AcDbEntity
  8
KONSTRUKTIONSELEMENTE
100
AcDbLine
 62
7
  6
CONTINUOUS
 10
90.9885945096
 20
168.4345636912
 11
88.3902097086
 21
169.168318709
  0
LINE
  5
225
100
AcDbEntity
  8
KONSTRUKTIONSELEMENTE
100
AcDbLine
 62
7
  6
CONTINUOUS
 10
69.0782153757
 20
174.8311214153
 11
69.5594433962
 21
174.677103948
  0
LINE
  5
226
100
AcDbEntity
  8
KONSTRUKTIONSELEMENTE
100
AcDbLine
 62
7
  6
CONTINUOUS
 10
81.288673
 20
166.2294908926
 11
81.9106798353
 21
165.96732206
  0
LINE
  5
227
100
AcDbEntity
  8
KONSTRUKTIONSELEMENTE
100
AcDbLine
 62
7
  6
CONTINUOUS
 10
84.8133791912
 20
164.7438671745
 11
85.4353860265
 21
164.4816983419
  0
LINE
  5
228
100
AcDbEntity
  8
KONSTRUKTIONSELEMENTE
100
AcDbLine
 62
7
  6
CONTINUOUS
 10
82.8608456342
 20
167.0630245484
 11
84.9342009611
 21
166.1891287731
  0
LINE
  5
229
100
AcDbEntity
  8
KONSTRUKTIONSELEMENTE
100
AcDbLine
 62
7
  6
CONTINUOUS
 10
85.0090302716
 20
166.656317877
 11
83.1430097656
 21
167.4428243748
  0
LINE
  5
22A
100
AcDbEntity
  8
KONSTRUKTIONSELEMENTE
100
AcDbLine
 62
7
  6
CONTINUOUS
 10
85.8740510022
 20
170.1568702449
 11
85.044709346
 21
170.506428355
  0
LINE
  5
22B
100
AcDbEntity
  8
KONSTRUKTIONSELEMENTE
100
AcDbLine
 62
7
  6
CONTINUOUS
 10
64.9765928532
 20
179.269701731
 11
65.4354288552
 21
179.0581080387
  0
LINE
  5
22C
100
AcDbEntity
  8
KONSTRUKTIONSELEMENTE
100
AcDbLine
 62
7
  6
CONTINUOUS
 10
91.4987002364
 20
168.1711287429
 11
90.9885945096
 21
168.4345636912
  0
LINE
  5
22D
100
AcDbEntity
  8
KONSTRUKTIONSELEMENTE
100
AcDbLine
 62
7
  6
CONTINUOUS
 10
77.5276765299
 20
168.2981049097
 11
78.3057661509
 21
167.8458052339
  0
LINE
  5
22E
100
AcDbEntity
  8
KONSTRUKTIONSELEMENTE
100
AcDbLine
 62
7
  6
CONTINUOUS
 10
82.5757482618
 20
171.6097467668
 11
81.9921804894
 21
171.9489718471
  0
LINE
  5
22F
100
AcDbEntity
  8
KONSTRUKTIONSELEMENTE
100
AcDbLine
 62
7
  6
CONTINUOUS
 10
79.2688634767
 20
173.5320226534
 11
78.6852957043
 21
173.8712477337
  0
LINE
  5
230
100
AcDbEntity
  8
KONSTRUKTIONSELEMENTE
100
AcDbLine
 62
7
  6
CONTINUOUS
 10
69.4841154232
 20
175.3995588654
 11
69.0838424521
 21
175.6351044075
  0
LINE
  5
231
100
AcDbEntity
  8
KONSTRUKTIONSELEMENTE
100
AcDbLine
 62
7
  6
CONTINUOUS
 10
63.9883593426
 20
184.9179411221
 11
64.4186496994
 21
184.6530783791
  0
LINE
  5
232
100
AcDbEntity
  8
KONSTRUKTIONSELEMENTE
100
AcDbLine
 62
7
  6
CONTINUOUS
 10
68.5981122265
 20
175.1459360296
 11
69.0782153757
 21
174.8311214153
  0
LINE
  5
233
100
AcDbEntity
  8
KONSTRUKTIONSELEMENTE
100
AcDbLine
 62
7
  6
CONTINUOUS
 10
90.2850473161
 20
165.5291816492
 11
90.5786218021
 21
165.3268927192
  0
LINE
  5
234
100
AcDbEntity
  8
KONSTRUKTIONSELEMENTE
100
AcDbLine
 62
7
  6
CONTINUOUS
 10
65.4488294233
 20
179.7843553187
 11
65.0802927082
 21
180.0669883367
  0
LINE
  5
235
100
AcDbEntity
  8
KONSTRUKTIONSELEMENTE
100
AcDbLine
 62
7
  6
CONTINUOUS
 10
64.4205296586
 20
185.312781113
 11
64.1468793974
 21
185.5413031571
  0
LINE
  5
236
100
AcDbEntity
  8
KONSTRUKTIONSELEMENTE
100
AcDbLine
 62
7
  6
CONTINUOUS
 10
64.5384970657
 20
179.6407524445
 11
64.9765928532
 21
179.269701731
  0
LINE
  5
237
100
AcDbEntity
  8
KONSTRUKTIONSELEMENTE
100
AcDbLine
 62
7
  6
CONTINUOUS
 10
66.6822027415
 20
177.0483794177
 11
68.5981122265
 21
175.1459360296
  0
LINE
  5
238
100
AcDbEntity
  8
KONSTRUKTIONSELEMENTE
100
AcDbLine
 62
7
  6
CONTINUOUS
 10
69.0838424521
 20
175.6351044075
 11
67.6469103383
 21
177.0619369487
  0
LINE
  5
239
100
AcDbEntity
  8
KONSTRUKTIONSELEMENTE
100
AcDbLine
 62
7
  6
CONTINUOUS
 10
70.4803367202
 20
179.91541922
 11
71.917268834
 21
178.4885866788
  0
LINE
  5
23A
100
AcDbEntity
  8
KONSTRUKTIONSELEMENTE
100
AcDbLine
 62
7
  6
CONTINUOUS
 10
72.4029990028
 20
178.9777549997
 11
70.4870895178
 21
180.8801983878
  0
LINE
  5
23B
100
AcDbEntity
  8
KONSTRUKTIONSELEMENTE
100
AcDbLine
 62
7
  6
CONTINUOUS
 10
64.2602596139
 20
179.9944247696
 11
64.5384970657
 21
179.6407524445
  0
LINE
  5
23C
100
AcDbEntity
  8
KONSTRUKTIONSELEMENTE
100
AcDbLine
 62
7
  6
CONTINUOUS
 10
65.0802927082
 20
180.0669883367
 11
64.8020552564
 21
180.4206606617
  0
LINE
  5
23D
100
AcDbEntity
  8
KONSTRUKTIONSELEMENTE
100
AcDbLine
 62
7
  6
CONTINUOUS
 10
60.0346052007
 20
186.3303229901
 11
60.3856355301
 21
185.7537792296
  0
LINE
  5
23E
100
AcDbEntity
  8
KONSTRUKTIONSELEMENTE
100
AcDbLine
 62
7
  6
CONTINUOUS
 10
61.8482618469
 20
183.3515136523
 11
62.2577973428
 21
182.6788790817
  0
LINE
  5
23F
100
AcDbEntity
  8
KONSTRUKTIONSELEMENTE
100
AcDbLine
 62
7
  6
CONTINUOUS
 10
62.4464728311
 20
187.0085259568
 11
63.4410587366
 21
185.3749853477
  0
LINE
  5
240
100
AcDbEntity
  8
KONSTRUKTIONSELEMENTE
100
AcDbLine
 62
7
  6
CONTINUOUS
 10
64.1468793974
 20
185.5413031571
 11
63.03528341
 21
187.3670249739
  0
LINE
  5
241
100
AcDbEntity
  8
KONSTRUKTIONSELEMENTE
100
AcDbLine
 62
7
  6
CONTINUOUS
 10
64.0027623687
 20
180.5075541097
 11
64.2602596139
 21
179.9944247696
  0
LINE
  5
242
100
AcDbEntity
  8
KONSTRUKTIONSELEMENTE
100
AcDbLine
 62
7
  6
CONTINUOUS
 10
56.5132998524
 20
194.5964550214
 11
56.7502508243
 21
193.8848693014
  0
LINE
  5
243
100
AcDbEntity
  8
KONSTRUKTIONSELEMENTE
100
AcDbLine
 62
7
  6
CONTINUOUS
 10
91.0283143585
 20
165.6774515532
 11
91.2760692133
 21
165.7268750878
  0
LINE
  5
244
100
AcDbEntity
  8
KONSTRUKTIONSELEMENTE
100
AcDbLine
 62
7
  6
CONTINUOUS
 10
90.8284107146
 20
166.2114491417
 11
90.4723890004
 21
166.1925989661
  0
LINE
  5
245
100
AcDbEntity
  8
KONSTRUKTIONSELEMENTE
100
AcDbLine
 62
7
  6
CONTINUOUS
 10
69.8855142218
 20
175.3248096059
 11
69.4841154232
 21
175.3995588654
  0
LINE
  5
246
100
AcDbEntity
  8
KONSTRUKTIONSELEMENTE
100
AcDbLine
 62
7
  6
CONTINUOUS
 10
65.8381060024
 20
179.6611798653
 11
65.4488294233
 21
179.7843553187
  0
LINE
  5
247
100
AcDbEntity
  8
KONSTRUKTIONSELEMENTE
100
AcDbLine
 62
7
  6
CONTINUOUS
 10
90.9095196846
 20
167.7405730153
 11
91.2030941707
 21
167.5382840853
  0
LINE
  5
248
100
AcDbEntity
  8
KONSTRUKTIONSELEMENTE
100
AcDbLine
 62
7
  6
CONTINUOUS
 10
91.2136219852
 20
165.5057359822
 11
91.0283143585
 21
165.6774515532
  0
LINE
  5
249
100
AcDbEntity
  8
KONSTRUKTIONSELEMENTE
100
AcDbLine
 62
7
  6
CONTINUOUS
 10
69.8955123519
 20
181.5649114806
 11
69.4781563731
 21
182.0954197152
  0
LINE
  5
24A
100
AcDbEntity
  8
KONSTRUKTIONSELEMENTE
100
AcDbLine
 62
7
  6
CONTINUOUS
 10
67.808732458
 20
184.2174526535
 11
67.3913762802
 21
184.7479611411
  0
LINE
  5
24B
100
AcDbEntity
  8
KONSTRUKTIONSELEMENTE
100
AcDbLine
 62
7
  6
CONTINUOUS
 10
72.7211920886
 20
178.4998842713
 11
72.4029990028
 21
178.9777549997
  0
LINE
  5
24C
100
AcDbEntity
  8
KONSTRUKTIONSELEMENTE
100
AcDbLine
 62
7
  6
CONTINUOUS
 10
64.5073101321
 20
188.263272684
 11
65.6189061195
 21
186.4375508672
  0
LINE
  5
24D
100
AcDbEntity
  8
KONSTRUKTIONSELEMENTE
100
AcDbLine
 62
7
  6
CONTINUOUS
 10
66.0510766028
 20
186.8323905833
 11
64.6469552851
 21
189.1385656255
  0
LINE
  5
24E
100
AcDbEntity
  8
KONSTRUKTIONSELEMENTE
100
AcDbLine
 62
7
  6
CONTINUOUS
 10
71.917268834
 20
178.4885866788
 11
72.1556317488
 21
178.0899850297
  0
LINE
  5
24F
100
AcDbEntity
  8
KONSTRUKTIONSELEMENTE
100
AcDbLine
 62
7
  6
CONTINUOUS
 10
64.8020552564
 20
180.4206606617
 11
64.6141174657
 21
180.8453717879
  0
LINE
  5
250
100
AcDbEntity
  8
KONSTRUKTIONSELEMENTE
100
AcDbLine
 62
7
  6
CONTINUOUS
 10
66.2454668366
 20
186.2921875217
 11
66.0510766028
 21
186.8323905833
  0
LINE
  5
251
100
AcDbEntity
  8
KONSTRUKTIONSELEMENTE
100
AcDbLine
 62
7
  6
CONTINUOUS
 10
60.9685114827
 20
198.1879645654
 11
61.6003808165
 21
196.2904024192
  0
LINE
  5
252
100
AcDbEntity
  8
KONSTRUKTIONSELEMENTE
100
AcDbLine
 62
7
  6
CONTINUOUS
 10
61.8373317884
 20
195.5788166992
 11
62.4692008962
 21
193.6812552316
  0
LINE
  5
253
100
AcDbEntity
  8
KONSTRUKTIONSELEMENTE
100
AcDbLine
 62
7
  6
CONTINUOUS
 10
63.0748056921
 20
193.8829156092
 11
61.5741162786
 21
198.389624943
  0
LINE
  5
254
100
AcDbEntity
  8
KONSTRUKTIONSELEMENTE
100
AcDbLine
 62
7
  6
CONTINUOUS
 10
63.905123467
 20
181.0033050675
 11
64.0027623687
 21
180.5075541097
  0
LINE
  5
255
100
AcDbEntity
  8
KONSTRUKTIONSELEMENTE
100
AcDbLine
 62
7
  6
CONTINUOUS
 10
55.0538109917
 20
200.2531503788
 11
55.1884921509
 21
199.515342148
  0
LINE
  5
256
100
AcDbEntity
  8
KONSTRUKTIONSELEMENTE
100
AcDbLine
 62
7
  6
CONTINUOUS
 10
56.2732676372
 20
203.5253256324
 11
56.8119922739
 21
200.5740927094
  0
LINE
  5
257
100
AcDbEntity
  8
KONSTRUKTIONSELEMENTE
100
AcDbLine
 62
7
  6
CONTINUOUS
 10
56.9466734331
 20
199.8362844786
 11
57.1711420103
 21
198.6066042113
  0
LINE
  5
258
100
AcDbEntity
  8
KONSTRUKTIONSELEMENTE
100
AcDbLine
 62
7
  6
CONTINUOUS
 10
57.9246483746
 20
198.7441509428
 11
57.7001797973
 21
199.9738312101
  0
LINE
  5
259
100
AcDbEntity
  8
KONSTRUKTIONSELEMENTE
100
AcDbLine
 62
7
  6
CONTINUOUS
 10
57.5654986382
 20
200.7116394409
 11
57.1839020152
 21
202.802096124
  0
LINE
  5
25A
100
AcDbEntity
  8
KONSTRUKTIONSELEMENTE
100
AcDbLine
 62
7
  6
CONTINUOUS
 10
64.6141174657
 20
180.8453717879
 11
64.586038066
 21
181.2527045691
  0
LINE
  5
25B
100
AcDbEntity
  8
KONSTRUKTIONSELEMENTE
100
AcDbLine
 62
7
  6
CONTINUOUS
 10
69.5594433962
 20
174.677103948
 11
70.2025814801
 21
174.6861425948
  0
LINE
  5
25C
100
AcDbEntity
  8
BEZUGSACHSEN
100
AcDbLine
 62
7
  6
CONTINUOUS
 10
149.8499771232
 20
174.1243378541
 11
141.4604237871
 21
174.1243378541
  0
LINE
  5
25D
100
AcDbEntity
  8
BEZUGSACHSEN
100
AcDbLine
 62
7
  6
CONTINUOUS
 10
150.0684114267
 20
176.9807443147
 11
149.8886270173
 21
176.9807443147
  0
LINE
  5
25E
100
AcDbEntity
  8
0
100
AcDbLine
 62
7
  6
CONTINUOUS
 10
104.2886270173
 20
178.7238223765
 11
99.4886270173
 21
178.7238223765
  0
LINE
  5
25F
100
AcDbEntity
  8
BEZUGSACHSEN
100
AcDbLine
 62
7
  6
CONTINUOUS
 10
184.1886270173
 20
179.9807443147
 11
160.8886270173
 21
179.9807443147
  0
LINE
  5
260
100
AcDbEntity
  8
KONSTRUKTIONSELEMENTE
100
AcDbLine
 62
7
  6
CONTINUOUS
 10
65.4354288552
 20
179.0581080387
 11
66.0748633915
 21
178.9885929668
  0
LINE
  5
261
100
AcDbEntity
  8
KONSTRUKTIONSELEMENTE
100
AcDbLine
 62
7
  6
CONTINUOUS
 10
64.7338100171
 20
185.2400994402
 11
64.4205296586
 21
185.312781113
  0
LINE
  5
262
100
AcDbEntity
  8
KONSTRUKTIONSELEMENTE
100
AcDbLine
 62
7
  6
CONTINUOUS
 10
60.9562768377
 20
201.3305996522
 11
57.0267740015
 21
203.6628723639
  0
LINE
  5
263
100
AcDbEntity
  8
KONSTRUKTIONSELEMENTE
100
AcDbLine
 62
7
  6
CONTINUOUS
 10
57.1839020152
 20
202.802096124
 11
59.9516019199
 21
201.147204053
  0
LINE
  5
264
100
AcDbEntity
  8
0
100
AcDbLine
 62
7
  6
CONTINUOUS
 10
80.0694882683
 20
186.7674930159
 11
76.6753757186
 21
190.1616055656
  0
LINE
  5
265
100
AcDbEntity
  8
KONSTRUKTIONSELEMENTE
100
AcDbLine
 62
7
  6
CONTINUOUS
 10
91.8380943537
 20
167.7171273483
 11
91.4987002364
 21
168.1711287429
  0
LINE
  5
266
100
AcDbEntity
  8
KONSTRUKTIONSELEMENTE
100
AcDbLine
 62
7
  6
CONTINUOUS
 10
90.5786218021
 20
165.3268927192
 11
90.7327058148
 21
165.0446075953
  0
LINE
  5
267
100
AcDbEntity
  8
KONSTRUKTIONSELEMENTE
100
AcDbLine
 62
7
  6
CONTINUOUS
 10
72.8785999753
 20
178.0197545687
 11
72.7211920886
 21
178.4998842713
  0
LINE
  5
268
100
AcDbEntity
  8
KONSTRUKTIONSELEMENTE
100
AcDbLine
 62
7
  6
CONTINUOUS
 10
65.6189061195
 20
186.4375508672
 11
65.6962861877
 21
186.0895291508
  0
LINE
  5
269
100
AcDbEntity
  8
KONSTRUKTIONSELEMENTE
100
AcDbLine
 62
7
  6
CONTINUOUS
 10
72.1556317488
 20
178.0899850297
 11
72.2332103781
 21
177.6891234993
  0
LINE
  5
26A
100
AcDbEntity
  8
KONSTRUKTIONSELEMENTE
100
AcDbLine
 62
7
  6
CONTINUOUS
 10
61.0909579969
 20
200.5927914214
 11
60.9562768377
 21
201.3305996522
  0
LINE
  5
26B
100
AcDbEntity
  8
0
100
AcDbLine
 62
7
  6
CONTINUOUS
 10
68.6317050792
 20
209.5807443147
 11
68.6317050792
 21
214.3807443147
  0
LINE
  5
26C
100
AcDbEntity
  8
KONSTRUKTIONSELEMENTE
100
AcDbLine
 62
7
  6
CONTINUOUS
 10
70.2880387345
 20
175.4108565149
 11
69.8855142218
 21
175.3248096059
  0
LINE
  5
26D
100
AcDbEntity
  8
KONSTRUKTIONSELEMENTE
100
AcDbLine
 62
7
  6
CONTINUOUS
 10
66.2481223189
 20
179.697461877
 11
65.8381060024
 21
179.6611798653
  0
LINE
  5
26E
100
AcDbEntity
  8
BEZUGSACHSEN
100
AcDbLine
 62
7
  6
CONTINUOUS
 10
149.8886270173
 20
181.0525410844
 11
141.4604237871
 21
181.0525410844
  0
LINE
  5
26F
100
AcDbEntity
  8
0
100
AcDbLine
 62
2
  6
CONTINUOUS
 10
160.8886270173
 20
181.2077443147
 11
185.3886270173
 21
181.2077443147
  0
LINE
  5
270
100
AcDbEntity
  8
KONSTRUKTIONSELEMENTE
100
AcDbLine
 62
7
  6
CONTINUOUS
 10
64.4186496994
 20
184.6530783791
 11
64.9867052501
 21
184.6038058435
  0
LINE
  5
271
100
AcDbEntity
  8
KONSTRUKTIONSELEMENTE
100
AcDbLine
 62
7
  6
CONTINUOUS
 10
91.2030941707
 20
167.5382840853
 11
91.3571781833
 21
167.2559989614
  0
LINE
  5
272
100
AcDbEntity
  8
KONSTRUKTIONSELEMENTE
100
AcDbLine
 62
7
  6
CONTINUOUS
 10
91.4135256291
 20
164.9717383937
 11
91.2136219852
 21
165.5057359822
  0
LINE
  5
273
100
AcDbEntity
  8
KONSTRUKTIONSELEMENTE
100
AcDbLine
 62
7
  6
CONTINUOUS
 10
72.8740978057
 20
177.3765687592
 11
72.8785999753
 21
178.0197545687
  0
LINE
  5
274
100
AcDbEntity
  8
KONSTRUKTIONSELEMENTE
100
AcDbLine
 62
7
  6
CONTINUOUS
 10
66.185081711
 20
185.7285755977
 11
66.2454668366
 21
186.2921875217
  0
LINE
  5
275
100
AcDbEntity
  8
KONSTRUKTIONSELEMENTE
100
AcDbLine
 62
7
  6
CONTINUOUS
 10
63.9880834976
 20
181.6411341398
 11
63.905123467
 21
181.0033050675
  0
LINE
  5
276
100
AcDbEntity
  8
0
100
AcDbLine
 62
7
  6
CONTINUOUS
 10
79.4491924099
 20
254.5411861477
 11
75.1831972812
 21
251.1243671291
  0
LINE
  5
277
100
AcDbEntity
  8
0
100
AcDbLine
 62
7
  6
CONTINUOUS
 10
59.0553040302
 20
240.5314963694
 11
78.9611154081
 21
255.2554526718
  0
LINE
  5
278
100
AcDbEntity
  8
0
100
AcDbLine
 62
7
  6
CONTINUOUS
 10
71.6686623695
 20
248.4249169317
 11
69.9508284741
 21
247.1542673344
  0
LINE
  5
279
100
AcDbEntity
  8
0
100
AcDbLine
 62
7
  6
CONTINUOUS
 10
63.9867552942
 20
242.8826918604
 11
59.5742933489
 21
239.8298572668
  0
LINE
  5
27A
100
AcDbEntity
  8
0
100
AcDbLine
 62
7
  6
CONTINUOUS
 10
79.4491924099
 20
254.5411861477
 11
79.793652256
 21
254.7764548209
  0
LINE
  5
27B
100
AcDbEntity
  8
0
100
AcDbLine
 62
7
  6
CONTINUOUS
 10
79.3412262243
 20
255.4948397072
 11
78.9611154081
 21
255.2554526718
  0
LINE
  5
27C
100
AcDbEntity
  8
KONSTRUKTIONSELEMENTE
100
AcDbLine
 62
7
  6
CONTINUOUS
 10
66.0748633915
 20
178.9885929668
 11
66.5751790345
 21
179.0959143353
  0
LINE
  5
27D
100
AcDbEntity
  8
BEZUGSACHSEN
100
AcDbLine
 62
2
  6
CENTER
 10
147.3886270173
 20
187.9807443147
 11
188.3886270173
 21
187.9807443147
  0
LINE
  5
27E
100
AcDbEntity
  8
0
100
AcDbLine
 62
2
  6
CONTINUOUS
 10
160.8886270173
 20
194.7537443147
 11
185.3886270173
 21
194.7537443147
  0
LINE
  5
27F
100
AcDbEntity
  8
BEZUGSACHSEN
100
AcDbLine
 62
7
  6
CONTINUOUS
 10
149.8886270173
 20
194.9089475449
 11
141.4604237871
 21
194.9089475449
  0
LINE
  5
280
100
AcDbEntity
  8
0
100
AcDbLine
 62
7
  6
CONTINUOUS
 10
122.4654343499
 20
191.4039369821
 11
126.6119803675
 21
190.6515035142
  0
LINE
  5
281
100
AcDbEntity
  8
0
100
AcDbLine
 62
7
  6
CONTINUOUS
 10
68.6317050792
 20
214.3807443147
 11
72.7886270173
 21
211.9807443147
  0
LINE
  5
282
100
AcDbEntity
  8
KONSTRUKTIONSELEMENTE
100
AcDbLine
 62
7
  6
CONTINUOUS
 10
92.0379979976
 20
167.1831297598
 11
91.8380943537
 21
167.7171273483
  0
LINE
  5
283
100
AcDbEntity
  8
KONSTRUKTIONSELEMENTE
100
AcDbLine
 62
7
  6
CONTINUOUS
 10
72.2332103781
 20
177.6891234993
 11
72.1500044952
 21
177.286001859
  0
LINE
  5
284
100
AcDbEntity
  8
KONSTRUKTIONSELEMENTE
100
AcDbLine
 62
7
  6
CONTINUOUS
 10
65.6962861877
 20
186.0895291508
 11
65.6170261604
 21
185.7778481333
  0
LINE
  5
285
100
AcDbEntity
  8
KONSTRUKTIONSELEMENTE
100
AcDbLine
 62
7
  6
CONTINUOUS
 10
64.586038066
 20
181.2527045691
 11
64.7178169307
 21
181.6426589058
  0
LINE
  5
286
100
AcDbEntity
  8
KONSTRUKTIONSELEMENTE
100
AcDbLine
 62
7
  6
CONTINUOUS
 10
112.7505760712
 20
273.6536086749
 11
117.170652508
 21
277.3624931828
  0
LINE
  5
287
100
AcDbEntity
  8
0
100
AcDbLine
 62
7
  6
CONTINUOUS
 10
111.2579473372
 20
271.9311978306
 11
110.1607639059
 21
271.010551618
  0
LINE
  5
288
100
AcDbEntity
  8
0
100
AcDbLine
 62
7
  6
CONTINUOUS
 10
109.5053481739
 20
270.460592519
 11
102.807696371
 21
264.8405953614
  0
LINE
  5
289
100
AcDbEntity
  8
0
100
AcDbLine
 62
7
  6
CONTINUOUS
 10
102.1522833391
 20
264.2906385281
 11
101.0550999078
 21
263.3699923156
  0
LINE
  5
28A
100
AcDbEntity
  8
0
100
AcDbLine
 62
7
  6
CONTINUOUS
 10
100.2298790005
 20
262.6775497566
 11
89.8669554393
 21
253.9820244185
  0
LINE
  5
28B
100
AcDbEntity
  8
0
100
AcDbLine
 62
7
  6
CONTINUOUS
 10
112.0831682446
 20
272.6236403896
 11
114.5830124968
 21
274.7212587796
  0
LINE
  5
28C
100
AcDbEntity
  8
0
100
AcDbLine
 62
7
  6
CONTINUOUS
 10
88.9337753736
 20
249.2827715016
 11
91.734889843
 21
251.6331856197
  0
LINE
  5
28D
100
AcDbEntity
  8
0
100
AcDbLine
 62
7
  6
CONTINUOUS
 10
91.5420400389
 20
251.8733666763
 11
88.7772364277
 21
249.9776429784
  0
LINE
  5
28E
100
AcDbEntity
  8
0
100
AcDbLine
 62
7
  6
CONTINUOUS
 10
76.6753757186
 20
190.1616055656
 11
81.3118196848
 21
191.4039369821
  0
LINE
  5
28F
100
AcDbEntity
  8
KONSTRUKTIONSELEMENTE
100
AcDbLine
 62
7
  6
CONTINUOUS
 10
64.9867052501
 20
184.6038058435
 11
65.3396155386
 21
184.6869648169
  0
LINE
  5
290
100
AcDbEntity
  8
KONSTRUKTIONSELEMENTE
100
AcDbLine
 62
7
  6
CONTINUOUS
 10
65.0867203057
 20
185.3232584137
 11
64.7338100171
 21
185.2400994402
  0
LINE
  5
291
100
AcDbEntity
  8
BEZUGSACHSEN
100
AcDbLine
 62
7
  6
CONTINUOUS
 10
184.1886270173
 20
195.9807443147
 11
160.8886270173
 21
195.9807443147
  0
LINE
  5
292
100
AcDbEntity
  8
BEZUGSACHSEN
100
AcDbLine
 62
7
  6
CONTINUOUS
 10
150.0682606791
 20
198.9807443147
 11
149.8886270173
 21
198.9807443147
  0
LINE
  5
293
100
AcDbEntity
  8
BEZUGSACHSEN
100
AcDbLine
 62
7
  6
CONTINUOUS
 10
149.8501281179
 20
201.8371507752
 11
141.4604237871
 21
201.8371507752
  0
LINE
  5
294
100
AcDbEntity
  8
0
100
AcDbLine
 62
7
  6
CONTINUOUS
 10
104.2886270173
 20
178.7238223765
 11
101.8886270173
 21
182.8807443147
  0
LINE
  5
295
100
AcDbEntity
  8
KONSTRUKTIONSELEMENTE
100
AcDbLine
 62
7
  6
CONTINUOUS
 10
90.7327058148
 20
165.0446075953
 11
90.7473017882
 21
164.682325423
  0
LINE
  5
296
100
AcDbEntity
  8
KONSTRUKTIONSELEMENTE
100
AcDbLine
 62
7
  6
CONTINUOUS
 10
91.4281216025
 20
164.6094562214
 11
91.4135256291
 21
164.9717383937
  0
LINE
  5
297
100
AcDbEntity
  8
KONSTRUKTIONSELEMENTE
100
AcDbLine
 62
7
  6
CONTINUOUS
 10
91.3571781833
 20
167.2559989614
 11
91.3717741131
 21
166.8937166342
  0
LINE
  5
298
100
AcDbEntity
  8
KONSTRUKTIONSELEMENTE
100
AcDbLine
 62
7
  6
CONTINUOUS
 10
92.0525940148
 20
166.8208477423
 11
92.0379979976
 21
167.1831297598
  0
LINE
  5
299
100
AcDbEntity
  8
KONSTRUKTIONSELEMENTE
100
AcDbLine
 62
7
  6
CONTINUOUS
 10
85.4353860265
 20
164.4816983419
 11
85.8740510022
 21
170.1568702449
  0
LINE
  5
29A
100
AcDbEntity
  8
KONSTRUKTIONSELEMENTE
100
AcDbLine
 62
7
  6
CONTINUOUS
 10
84.9342009611
 20
166.1891287731
 11
84.8133791912
 21
164.7438671745
  0
LINE
  5
29B
100
AcDbEntity
  8
KONSTRUKTIONSELEMENTE
100
AcDbLine
 62
7
  6
CONTINUOUS
 10
85.2808810804
 20
169.908155835
 11
85.0090302716
 21
166.656317877
  0
LINE
  5
29C
100
AcDbEntity
  8
KONSTRUKTIONSELEMENTE
100
AcDbLine
 62
7
  6
CONTINUOUS
 10
78.2631628617
 20
168.6679398253
 11
79.2688634767
 21
173.5320226534
  0
LINE
  5
29D
100
AcDbEntity
  8
KONSTRUKTIONSELEMENTE
100
AcDbLine
 62
7
  6
CONTINUOUS
 10
78.6852957043
 20
173.8712477337
 11
77.5276765299
 21
168.2981049097
  0
LINE
  5
29E
100
AcDbEntity
  8
0
100
AcDbLine
 62
7
  6
CONTINUOUS
 10
80.0694882683
 20
186.7674930159
 11
81.3118196848
 21
191.4039369821
  0
LINE
  5
29F
100
AcDbEntity
  8
KONSTRUKTIONSELEMENTE
100
AcDbLine
 62
7
  6
CONTINUOUS
 10
72.7099371214
 20
176.8919192939
 11
72.8740978057
 21
177.3765687592
  0
LINE
  5
2A0
100
AcDbEntity
  8
KONSTRUKTIONSELEMENTE
100
AcDbLine
 62
7
  6
CONTINUOUS
 10
65.9680564898
 20
185.2013043727
 11
66.185081711
 21
185.7285755977
  0
LINE
  5
2A1
100
AcDbEntity
  8
KONSTRUKTIONSELEMENTE
100
AcDbLine
 62
7
  6
CONTINUOUS
 10
64.2101618877
 20
182.1021275803
 11
63.9880834976
 21
181.6411341398
  0
LINE
  5
2A2
100
AcDbEntity
  8
0
100
AcDbLine
 62
7
  6
CONTINUOUS
 10
82.0307560265
 20
227.4954134929
 11
87.0932317576
 21
233.9750869432
  0
LINE
  5
2A3
100
AcDbEntity
  8
0
100
AcDbLine
 62
7
  6
CONTINUOUS
 10
90.8621382027
 20
246.9846381722
 11
92.7006448662
 21
248.5273284355
  0
LINE
  5
2A4
100
AcDbEntity
  8
0
100
AcDbLine
 62
7
  6
CONTINUOUS
 10
92.7006448662
 20
248.5273284355
 11
138.6464564127
 21
274.2555697537
  0
LINE
  5
2A5
100
AcDbEntity
  8
KONSTRUKTIONSELEMENTE
100
AcDbLine
 62
7
  6
CONTINUOUS
 10
57.1711420103
 20
198.6066042113
 11
57.9246483746
 21
198.7441509428
  0
LINE
  5
2A6
100
AcDbEntity
  8
KONSTRUKTIONSELEMENTE
100
AcDbLine
 62
7
  6
CONTINUOUS
 10
55.1884921509
 20
199.515342148
 11
56.9466734331
 21
199.8362844786
  0
LINE
  5
2A7
100
AcDbEntity
  8
KONSTRUKTIONSELEMENTE
100
AcDbLine
 62
7
  6
CONTINUOUS
 10
57.7001797973
 20
199.9738312101
 11
61.0909579969
 21
200.5927914214
  0
LINE
  5
2A8
100
AcDbEntity
  8
KONSTRUKTIONSELEMENTE
100
AcDbLine
 62
7
  6
CONTINUOUS
 10
59.9516019199
 20
201.147204053
 11
57.5654986382
 21
200.7116394409
  0
LINE
  5
2A9
100
AcDbEntity
  8
KONSTRUKTIONSELEMENTE
100
AcDbLine
 62
7
  6
CONTINUOUS
 10
56.8119922739
 20
200.5740927094
 11
55.0538109917
 21
200.2531503788
  0
LINE
  5
2AA
100
AcDbEntity
  8
KONSTRUKTIONSELEMENTE
100
AcDbLine
 62
7
  6
CONTINUOUS
 10
57.0267740015
 20
203.6628723639
 11
56.2732676372
 21
203.5253256324
  0
LINE
  5
2AB
100
AcDbEntity
  8
BEZUGSACHSEN
100
AcDbLine
 62
2
  6
CENTER
 10
101.8886270173
 20
211.9807443147
 11
98.8885270173
 21
211.9807443147
  0
LINE
  5
2AC
100
AcDbEntity
  8
BG_STARTBEZUEGE
100
AcDbLine
 62
2
  6
CENTER
 10
188.3886270173
 20
211.9807443147
 11
39.1392576845
 21
211.9807443147
  0
LINE
  5
2AD
100
AcDbEntity
  8
BEZUGSACHSEN
100
AcDbLine
 62
2
  6
CENTER
 10
101.8886270173
 20
211.9807443147
 11
104.8887270173
 21
211.9807443147
  0
LINE
  5
2AE
100
AcDbEntity
  8
BEZUGSACHSEN
100
AcDbLine
 62
2
  6
CENTER
 10
101.8886270173
 20
211.9807443147
 11
101.8886270173
 21
202.4755131132
  0
LINE
  5
2AF
100
AcDbEntity
  8
BEZUGSACHSEN
100
AcDbLine
 62
2
  6
CENTER
 10
101.8886270173
 20
211.9807443147
 11
101.8886270173
 21
222.1701116084
  0
LINE
  5
2B0
100
AcDbEntity
  8
KONSTRUKTIONSELEMENTE
100
AcDbLine
 62
7
  6
CONTINUOUS
 10
93.2782644191
 20
167.8352797861
 11
92.4630109876
 21
162.497175081
  0
LINE
  5
2B1
100
AcDbEntity
  8
KONSTRUKTIONSELEMENTE
100
AcDbLine
 62
7
  6
CONTINUOUS
 10
93.1302740757
 20
162.3952684021
 11
93.511882068
 21
164.8939557312
  0
LINE
  5
2B2
100
AcDbEntity
  8
KONSTRUKTIONSELEMENTE
100
AcDbLine
 62
7
  6
CONTINUOUS
 10
93.6159569618
 20
165.5754158251
 11
93.9455275072
 21
167.7333731072
  0
LINE
  5
2B3
100
AcDbEntity
  8
KONSTRUKTIONSELEMENTE
100
AcDbLine
 62
7
  6
CONTINUOUS
 10
97.059422767
 20
167.2578084759
 11
96.7298522215
 21
165.0998511938
  0
LINE
  5
2B4
100
AcDbEntity
  8
KONSTRUKTIONSELEMENTE
100
AcDbLine
 62
7
  6
CONTINUOUS
 10
96.6257773278
 20
164.4183910999
 11
96.2441693355
 21
161.9197037708
  0
LINE
  5
2B5
100
AcDbEntity
  8
KONSTRUKTIONSELEMENTE
100
AcDbLine
 62
7
  6
CONTINUOUS
 10
88.3902097086
 20
169.168318709
 11
86.9226996731
 21
163.971549107
  0
LINE
  5
2B6
100
AcDbEntity
  8
KONSTRUKTIONSELEMENTE
100
AcDbLine
 62
7
  6
CONTINUOUS
 10
87.7596375795
 20
164.4515277469
 11
88.227991856
 21
166.1100712715
  0
LINE
  5
2B7
100
AcDbEntity
  8
KONSTRUKTIONSELEMENTE
100
AcDbLine
 62
7
  6
CONTINUOUS
 10
88.4153335403
 20
166.7734885884
 11
88.8524642245
 21
168.3214626376
  0
LINE
  5
2B8
100
AcDbEntity
  8
BEZUGSACHSEN
100
AcDbLine
 62
7
  6
CONTINUOUS
 10
141.4604237871
 20
291.8371507752
 11
140.3886270173
 21
289.9807443147
  0
LINE
  5
2B9
100
AcDbEntity
  8
KONSTRUKTIONSELEMENTE
100
AcDbLine
 62
7
  6
CONTINUOUS
 10
72.1500044952
 20
177.286001859
 11
71.90601364
 21
176.880621473
  0
LINE
  5
2BA
100
AcDbEntity
  8
KONSTRUKTIONSELEMENTE
100
AcDbLine
 62
7
  6
CONTINUOUS
 10
62.2577973428
 20
182.6788790817
 11
63.9883593426
 21
184.9179411221
  0
LINE
  5
2BB
100
AcDbEntity
  8
KONSTRUKTIONSELEMENTE
100
AcDbLine
 62
7
  6
CONTINUOUS
 10
64.7178169307
 20
181.6426589058
 11
65.0094549191
 21
182.0152338359
  0
LINE
  5
2BC
100
AcDbEntity
  8
KONSTRUKTIONSELEMENTE
100
AcDbLine
 62
7
  6
CONTINUOUS
 10
63.4410587366
 20
185.3749853477
 11
61.8482618469
 21
183.3515136523
  0
LINE
  5
2BD
100
AcDbEntity
  8
KONSTRUKTIONSELEMENTE
100
AcDbLine
 62
7
  6
CONTINUOUS
 10
65.6170261604
 20
185.7778481333
 11
65.38112587
 21
185.5025080896
  0
LINE
  5
2BE
100
AcDbEntity
  8
KONSTRUKTIONSELEMENTE
100
AcDbLine
 62
7
  6
CONTINUOUS
 10
65.7321561994
 20
184.925964329
 11
65.9680564898
 21
185.2013043727
  0
LINE
  5
2BF
100
AcDbEntity
  8
0
100
AcDbLine
 62
7
  6
CONTINUOUS
 10
88.9337753736
 20
249.2827715016
 11
90.8621382027
 21
246.9846381722
  0
LINE
  5
2C0
100
AcDbEntity
  8
KONSTRUKTIONSELEMENTE
100
AcDbLine
 62
7
  6
CONTINUOUS
 10
96.9114324236
 20
161.8177970919
 11
97.7266858551
 21
167.1559017969
  0
LINE
  5
2C1
100
AcDbEntity
  8
KONSTRUKTIONSELEMENTE
100
AcDbLine
 62
7
  6
CONTINUOUS
 10
91.3717741131
 20
166.8937166342
 11
91.309326885
 21
166.6725775286
  0
LINE
  5
2C2
100
AcDbEntity
  8
KONSTRUKTIONSELEMENTE
100
AcDbLine
 62
7
  6
CONTINUOUS
 10
90.7473017882
 20
164.682325423
 11
90.6536309461
 21
164.3506167645
  0
LINE
  5
2C3
100
AcDbEntity
  8
KONSTRUKTIONSELEMENTE
100
AcDbLine
 62
7
  6
CONTINUOUS
 10
91.2720035323
 20
164.0566084573
 11
91.4281216025
 21
164.6094562214
  0
LINE
  5
2C4
100
AcDbEntity
  8
KONSTRUKTIONSELEMENTE
100
AcDbLine
 62
7
  6
CONTINUOUS
 10
91.9276994712
 20
166.3785692213
 11
92.0525940148
 21
166.8208477423
  0
LINE
  5
2C5
100
AcDbEntity
  8
KONSTRUKTIONSELEMENTE
100
AcDbLine
 62
7
  6
CONTINUOUS
 10
72.3849910112
 20
176.405010626
 11
72.7099371214
 21
176.8919192939
  0
LINE
  5
2C6
100
AcDbEntity
  8
KONSTRUKTIONSELEMENTE
100
AcDbLine
 62
7
  6
CONTINUOUS
 10
64.5920987413
 20
182.5457423234
 11
64.2101618877
 21
182.1021275803
  0
LINE
  5
2C7
100
AcDbEntity
  8
0
100
AcDbLine
 62
7
  6
CONTINUOUS
 10
68.6317050792
 20
209.5807443147
 11
72.7886270173
 21
211.9807443147
  0
LINE
  5
2C8
100
AcDbEntity
  8
BEZUGSACHSEN
100
AcDbLine
 62
7
  6
CONTINUOUS
 10
141.4604237871
 20
174.1243378541
 11
140.3886270173
 21
175.9807443147
  0
LINE
  5
2C9
100
AcDbEntity
  8
0
100
AcDbLine
 62
7
  6
CONTINUOUS
 10
123.8870808608
 20
187.4367060589
 11
122.4654343499
 21
191.4039369821
  0
LINE
  5
2CA
100
AcDbEntity
  8
KONSTRUKTIONSELEMENTE
100
AcDbLine
 62
7
  6
CONTINUOUS
 10
70.4870895178
 20
180.8801983878
 11
66.6822027415
 21
177.0483794177
  0
LINE
  5
2CB
100
AcDbEntity
  8
KONSTRUKTIONSELEMENTE
100
AcDbLine
 62
7
  6
CONTINUOUS
 10
67.6469103383
 20
177.0619369487
 11
70.4803367202
 21
179.91541922
  0
LINE
  5
2CC
100
AcDbEntity
  8
KONSTRUKTIONSELEMENTE
100
AcDbLine
 62
7
  6
CONTINUOUS
 10
67.3913762802
 20
184.7479611411
 11
64.5920987413
 21
182.5457423234
  0
LINE
  5
2CD
100
AcDbEntity
  8
KONSTRUKTIONSELEMENTE
100
AcDbLine
 62
7
  6
CONTINUOUS
 10
65.0094549191
 20
182.0152338359
 11
67.808732458
 21
184.2174526535
  0
LINE
  5
2CE
100
AcDbEntity
  8
0
100
AcDbLine
 62
7
  6
CONTINUOUS
 10
122.8886270173
 20
304.3596938543
 11
122.8886270173
 21
308.7177158213
  0
LINE
  5
2CF
100
AcDbEntity
  8
0
100
AcDbLine
 62
7
  6
CONTINUOUS
 10
124.2884456338
 20
306.2334952243
 11
124.2884456338
 21
307.5872944699
  0
LINE
  5
2D0
100
AcDbEntity
  8
0
100
AcDbLine
 62
7
  6
CONTINUOUS
 10
99.4886270173
 20
178.7238223765
 11
101.8886270173
 21
182.8807443147
  0
LINE
  5
2D1
100
AcDbEntity
  8
KONSTRUKTIONSELEMENTE
100
AcDbLine
 62
7
  6
CONTINUOUS
 10
71.90601364
 20
176.880621473
 11
70.6916881044
 21
175.6577005567
  0
LINE
  5
2D2
100
AcDbEntity
  8
KONSTRUKTIONSELEMENTE
100
AcDbLine
 62
7
  6
CONTINUOUS
 10
71.1706654757
 20
175.1820897097
 11
72.3849910112
 21
176.405010626
  0
LINE
  5
2D3
100
AcDbEntity
  8
KONSTRUKTIONSELEMENTE
100
AcDbLine
 62
7
  6
CONTINUOUS
 10
69.4781563731
 20
182.0954197152
 11
66.6788788342
 21
179.8932008975
  0
LINE
  5
2D4
100
AcDbEntity
  8
KONSTRUKTIONSELEMENTE
100
AcDbLine
 62
7
  6
CONTINUOUS
 10
67.096234813
 20
179.3626926629
 11
69.8955123519
 21
181.5649114806
  0
LINE
  5
2D5
100
AcDbEntity
  8
KONSTRUKTIONSELEMENTE
100
AcDbLine
 62
7
  6
CONTINUOUS
 10
64.6469552851
 20
189.1385656255
 11
60.0346052007
 21
186.3303229901
  0
LINE
  5
2D6
100
AcDbEntity
  8
KONSTRUKTIONSELEMENTE
100
AcDbLine
 62
7
  6
CONTINUOUS
 10
60.3856355301
 20
185.7537792296
 11
62.4464728311
 21
187.0085259568
  0
LINE
  5
2D7
100
AcDbEntity
  8
KONSTRUKTIONSELEMENTE
100
AcDbLine
 62
7
  6
CONTINUOUS
 10
63.03528341
 20
187.3670249739
 11
64.5073101321
 21
188.263272684
  0
LINE
  5
2D8
100
AcDbEntity
  8
KONSTRUKTIONSELEMENTE
100
AcDbLine
 62
7
  6
CONTINUOUS
 10
65.38112587
 20
185.5025080896
 11
65.0867203057
 21
185.3232584137
  0
LINE
  5
2D9
100
AcDbEntity
  8
KONSTRUKTIONSELEMENTE
100
AcDbLine
 62
7
  6
CONTINUOUS
 10
65.3396155386
 20
184.6869648169
 11
65.7321561994
 21
184.925964329
  0
LINE
  5
2DA
100
AcDbEntity
  8
KONSTRUKTIONSELEMENTE
100
AcDbLine
 62
7
  6
CONTINUOUS
 10
61.5741162786
 20
198.389624943
 11
60.9685114827
 21
198.1879645654
  0
LINE
  5
2DB
100
AcDbEntity
  8
0
100
AcDbLine
 62
7
  6
CONTINUOUS
 10
130.8098516347
 20
303.1660242043
 11
130.8098516347
 21
311.8072324893
  0
LINE
  5
2DC
100
AcDbEntity
  8
0
100
AcDbLine
 62
7
  6
CONTINUOUS
 10
134.8886270173
 20
297.8654370594
 11
134.8886270173
 21
298.197101377
  0
LINE
  5
2DD
100
AcDbEntity
  8
KONSTRUKTIONSELEMENTE
100
AcDbLine
 62
7
  6
CONTINUOUS
 10
91.309326885
 20
166.6725775286
 11
91.1073891834
 21
166.3714422291
  0
LINE
  5
2DE
100
AcDbEntity
  8
KONSTRUKTIONSELEMENTE
100
AcDbLine
 62
7
  6
CONTINUOUS
 10
91.7257617696
 20
166.0774339219
 11
91.9276994712
 21
166.3785692213
  0
LINE
  5
2DF
100
AcDbEntity
  8
KONSTRUKTIONSELEMENTE
100
AcDbLine
 62
7
  6
CONTINUOUS
 10
90.6536309461
 20
164.3506167645
 11
90.4516932445
 21
164.0494814651
  0
LINE
  5
2E0
100
AcDbEntity
  8
KONSTRUKTIONSELEMENTE
100
AcDbLine
 62
7
  6
CONTINUOUS
 10
91.0700658088
 20
163.7554730804
 11
91.2720035323
 21
164.0566084573
  0
LINE
  5
2E1
100
AcDbEntity
  8
KONSTRUKTIONSELEMENTE
100
AcDbLine
 62
7
  6
CONTINUOUS
 10
83.1430097656
 20
167.4428243748
 11
85.2808810804
 21
169.908155835
  0
LINE
  5
2E2
100
AcDbEntity
  8
KONSTRUKTIONSELEMENTE
100
AcDbLine
 62
7
  6
CONTINUOUS
 10
81.9106798353
 20
165.96732206
 11
82.8608456342
 21
167.0630245484
  0
LINE
  5
2E3
100
AcDbEntity
  8
KONSTRUKTIONSELEMENTE
100
AcDbLine
 62
7
  6
CONTINUOUS
 10
85.044709346
 20
170.506428355
 11
81.288673
 21
166.2294908926
  0
LINE
  5
2E4
100
AcDbEntity
  8
BEZUGSACHSEN
100
AcDbLine
 62
7
  6
CONTINUOUS
 10
185.3886270173
 20
271.1807443147
 11
184.1886270173
 21
269.9807443147
  0
LINE
  5
2E5
100
AcDbEntity
  8
KONSTRUKTIONSELEMENTE
100
AcDbLine
 62
7
  6
CONTINUOUS
 10
70.6860610776
 20
174.8537176144
 11
71.1706654757
 21
175.1820897097
  0
LINE
  5
2E6
100
AcDbEntity
  8
KONSTRUKTIONSELEMENTE
100
AcDbLine
 62
7
  6
CONTINUOUS
 10
61.6003808165
 20
196.2904024192
 11
56.5132998524
 21
194.5964550214
  0
LINE
  5
2E7
100
AcDbEntity
  8
KONSTRUKTIONSELEMENTE
100
AcDbLine
 62
7
  6
CONTINUOUS
 10
56.7502508243
 20
193.8848693014
 11
61.8373317884
 21
195.5788166992
  0
LINE
  5
2E8
100
AcDbEntity
  8
KONSTRUKTIONSELEMENTE
100
AcDbLine
 62
7
  6
CONTINUOUS
 10
62.4692008962
 20
193.6812552316
 11
63.0748056921
 21
193.8829156092
  0
LINE
  5
2E9
100
AcDbEntity
  8
BEZUGSACHSEN
100
AcDbLine
 62
7
  6
CONTINUOUS
 10
140.3886270173
 20
175.9812818791
 11
140.3886270173
 21
199.9802067504
  0
LINE
  5
2EA
100
AcDbEntity
  8
BEZUGSACHSEN
100
AcDbLine
 62
7
  6
CONTINUOUS
 10
140.3886270173
 20
265.9812818791
 11
140.3886270173
 21
289.9802067504
  0
LINE
  5
2EB
100
AcDbEntity
  8
0
100
AcDbLine
 62
7
  6
CONTINUOUS
 10
133.0412077121
 20
210.92264431
 11
121.7464980082
 21
196.4660751365
  0
LINE
  5
2EC
100
AcDbEntity
  8
KONSTRUKTIONSELEMENTE
100
AcDbLine
 62
7
  6
CONTINUOUS
 10
78.3057661509
 20
167.8458052339
 11
82.5757482618
 21
171.6097467668
  0
LINE
  5
2ED
100
AcDbEntity
  8
KONSTRUKTIONSELEMENTE
100
AcDbLine
 62
7
  6
CONTINUOUS
 10
81.9921804894
 20
171.9489718471
 11
78.2631628617
 21
168.6679398253
  0
LINE
  5
2EE
100
AcDbEntity
  8
KONSTRUKTIONSELEMENTE
100
AcDbLine
 62
7
  6
CONTINUOUS
 10
70.6916881044
 20
175.6577005567
 11
70.2880387345
 21
175.4108565149
  0
LINE
  5
2EF
100
AcDbEntity
  8
KONSTRUKTIONSELEMENTE
100
AcDbLine
 62
7
  6
CONTINUOUS
 10
66.5751790345
 20
179.0959143353
 11
67.096234813
 21
179.3626926629
  0
LINE
  5
2F0
100
AcDbEntity
  8
KONSTRUKTIONSELEMENTE
100
AcDbLine
 62
7
  6
CONTINUOUS
 10
66.6788788342
 20
179.8932008975
 11
66.2481223189
 21
179.697461877
  0
LINE
  5
2F1
100
AcDbEntity
  8
BEZUGSACHSEN
100
AcDbLine
 62
7
  6
CONTINUOUS
 10
185.3886270173
 20
194.7807443147
 11
184.1886270173
 21
195.9807443147
  0
LINE
  5
2F2
100
AcDbEntity
  8
KONSTRUKTIONSELEMENTE
100
AcDbLine
 62
7
  6
CONTINUOUS
 10
112.9819796107
 20
273.3778326754
 11
112.7505760712
 21
273.6536086749
  0
LINE
  5
2F3
100
AcDbEntity
  8
KONSTRUKTIONSELEMENTE
100
AcDbLine
 62
7
  6
CONTINUOUS
 10
113.0760237873
 20
273.4567451092
 11
112.8446202478
 21
273.7325211088
  0
LINE
  5
2F4
100
AcDbEntity
  8
KONSTRUKTIONSELEMENTE
100
AcDbLine
 62
7
  6
CONTINUOUS
 10
113.2641121485
 20
273.6145699838
 11
113.0327086091
 21
273.8903459833
  0
LINE
  5
2F5
100
AcDbEntity
  8
KONSTRUKTIONSELEMENTE
100
AcDbLine
 62
7
  6
CONTINUOUS
 10
113.6402888547
 20
273.9302197192
 11
113.4088853152
 21
274.2059957187
  0
LINE
  5
2F6
100
AcDbEntity
  8
KONSTRUKTIONSELEMENTE
100
AcDbLine
 62
7
  6
CONTINUOUS
 10
114.0164655937
 20
274.2458694822
 11
113.7850620542
 21
274.5216454817
  0
LINE
  5
2F7
100
AcDbEntity
  8
KONSTRUKTIONSELEMENTE
100
AcDbLine
 62
7
  6
CONTINUOUS
 10
114.4866864352
 20
274.6404316168
 11
114.2552828957
 21
274.9162076164
  0
LINE
  5
2F8
100
AcDbEntity
  8
0
100
AcDbLine
 62
7
  6
CONTINUOUS
 10
144.4886270173
 20
264.1243378541
 11
144.4886270173
 21
244.1683639776
  0
LINE
  5
2F9
100
AcDbEntity
  8
KONSTRUKTIONSELEMENTE
100
AcDbLine
 62
7
  6
CONTINUOUS
 10
149.8886270173
 20
174.5295449224
 11
149.8886270173
 21
201.4394880474
  0
LINE
  5
2FA
100
AcDbEntity
  8
KONSTRUKTIONSELEMENTE
100
AcDbLine
 62
7
  6
CONTINUOUS
 10
149.8886270173
 20
264.5295449224
 11
149.8886270173
 21
291.4394880474
  0
LINE
  5
2FB
100
AcDbEntity
  8
BEZUGSACHSEN
100
AcDbLine
 62
7
  6
CONTINUOUS
 10
150.3512637978
 20
297.600364318
 11
150.3512637978
 21
167.366109507
  0
LINE
  5
2FC
100
AcDbEntity
  8
0
100
AcDbLine
 62
7
  6
CONTINUOUS
 10
126.6119803675
 20
190.6515035142
 11
123.8870808608
 21
187.4367060589
  0
LINE
  5
2FD
100
AcDbEntity
  8
KONSTRUKTIONSELEMENTE
100
AcDbLine
 62
7
  6
CONTINUOUS
 10
91.2760692133
 20
165.7268750878
 11
91.7257617696
 21
166.0774339219
  0
LINE
  5
2FE
100
AcDbEntity
  8
BEZUGSACHSEN
100
AcDbLine
 62
7
  6
CONTINUOUS
 10
149.8499771232
 20
264.1243378541
 11
141.4604237871
 21
264.1243378541
  0
LINE
  5
2FF
100
AcDbEntity
  8
BEZUGSACHSEN
100
AcDbLine
 62
7
  6
CONTINUOUS
 10
150.0684114267
 20
266.9807443147
 11
149.8886270173
 21
266.9807443147
  0
LINE
  5
300
100
AcDbEntity
  8
KONSTRUKTIONSELEMENTE
100
AcDbLine
 62
7
  6
CONTINUOUS
 10
115.8657861783
 20
275.8617333464
 11
115.6659455518
 21
276.0998941309
  0
LINE
  5
301
100
AcDbEntity
  8
KONSTRUKTIONSELEMENTE
100
AcDbLine
 62
7
  6
CONTINUOUS
 10
116.3093430271
 20
276.2880729251
 11
116.1361666568
 21
276.4944564866
  0
LINE
  5
302
100
AcDbEntity
  8
KONSTRUKTIONSELEMENTE
100
AcDbLine
 62
7
  6
CONTINUOUS
 10
116.6583240183
 20
276.6361331846
 11
116.51234333
 21
276.8101061943
  0
LINE
  5
303
100
AcDbEntity
  8
KONSTRUKTIONSELEMENTE
100
AcDbLine
 62
7
  6
CONTINUOUS
 10
117.0020685584
 20
276.9904340034
 11
116.8885200031
 21
277.125755902
  0
LINE
  5
304
100
AcDbEntity
  8
KONSTRUKTIONSELEMENTE
100
AcDbLine
 62
7
  6
CONTINUOUS
 10
117.171969012
 20
277.1699343321
 11
117.0766083397
 21
277.2835807559
  0
LINE
  5
305
100
AcDbEntity
  8
KONSTRUKTIONSELEMENTE
100
AcDbLine
 62
7
  6
CONTINUOUS
 10
117.2564246895
 20
277.2602738774
 11
117.170652508
 21
277.3624931828
  0
LINE
  5
306
100
AcDbEntity
  8
BEZUGSACHSEN
100
AcDbLine
 62
7
  6
CONTINUOUS
 10
141.4604237871
 20
201.8371507752
 11
140.3886270173
 21
199.9807443147
  0
LINE
  5
307
100
AcDbEntity
  8
KONSTRUKTIONSELEMENTE
100
AcDbLine
 62
7
  6
CONTINUOUS
 10
90.6203732416
 20
163.4049142076
 11
91.0700658088
 21
163.7554730804
  0
LINE
  5
308
100
AcDbEntity
  8
KONSTRUKTIONSELEMENTE
100
AcDbLine
 62
7
  6
CONTINUOUS
 10
91.1073891834
 20
166.3714422291
 11
90.8284107146
 21
166.2114491417
  0
LINE
  5
309
100
AcDbEntity
  8
KONSTRUKTIONSELEMENTE
100
AcDbLine
 62
7
  6
CONTINUOUS
 10
70.2025814801
 20
174.6861425948
 11
70.6860610776
 21
174.8537176144
  0
LINE
  5
30A
100
AcDbEntity
  8
BEZUGSACHSEN
100
AcDbLine
 62
7
  6
CONTINUOUS
 10
184.1886270173
 20
269.9807443147
 11
160.8886270173
 21
269.9807443147
  0
LINE
  5
30B
100
AcDbEntity
  8
BEZUGSACHSEN
100
AcDbLine
 62
7
  6
CONTINUOUS
 10
149.8886270173
 20
271.0525410844
 11
141.4604237871
 21
271.0525410844
  0
LINE
  5
30C
100
AcDbEntity
  8
0
100
AcDbLine
 62
2
  6
CONTINUOUS
 10
160.8886270173
 20
271.2077443147
 11
185.3886270173
 21
271.2077443147
  0
LINE
  5
30D
100
AcDbEntity
  8
0
100
AcDbLine
 62
7
  6
CONTINUOUS
 10
137.4886270173
 20
271.4807443147
 11
133.7606270173
 21
271.4807443147
  0
LINE
  5
30E
100
AcDbEntity
  8
0
100
AcDbLine
 62
7
  6
CONTINUOUS
 10
134.7848071869
 20
272.0931649593
 11
137.4886270173
 21
272.0931649593
  0
LINE
  5
30F
100
AcDbEntity
  8
BEZUGSACHSEN
100
AcDbLine
 62
7
  6
CONTINUOUS
 10
141.4604237871
 20
264.1243378541
 11
140.3886270173
 21
265.9807443147
  0
LINE
  5
310
100
AcDbEntity
  8
KONSTRUKTIONSELEMENTE
100
AcDbLine
 62
7
  6
CONTINUOUS
 10
160.8886270173
 20
150.6180939503
 11
160.8886270173
 21
314.9807443147
  0
LINE
  5
311
100
AcDbEntity
  8
KONSTRUKTIONSELEMENTE
100
AcDbLine
 62
7
  6
CONTINUOUS
 10
90.4516932445
 20
164.0494814651
 11
90.1727147538
 21
163.8894883002
  0
LINE
  5
312
100
AcDbEntity
  8
BEZUGSACHSEN
100
AcDbLine
 62
2
  6
CENTER
 10
147.3886270173
 20
277.9807443147
 11
188.3886270173
 21
277.9807443147
  0
LINE
  5
313
100
AcDbEntity
  8
KONSTRUKTIONSELEMENTE
100
AcDbLine
 62
7
  6
CONTINUOUS
 10
90.0936374317
 20
163.1954982563
 11
90.6203732416
 21
163.4049142076
  0
LINE
  5
314
100
AcDbEntity
  8
0
100
AcDbLine
 62
2
  6
CONTINUOUS
 10
160.8886270173
 20
284.7537443147
 11
185.3886270173
 21
284.7537443147
  0
LINE
  5
315
100
AcDbEntity
  8
BEZUGSACHSEN
100
AcDbLine
 62
7
  6
CONTINUOUS
 10
149.8886270173
 20
284.9089475449
 11
141.4604237871
 21
284.9089475449
  0
LINE
  5
316
100
AcDbEntity
  8
BEZUGSACHSEN
100
AcDbLine
 62
7
  6
CONTINUOUS
 10
184.1886270173
 20
285.9807443147
 11
160.8886270173
 21
285.9807443147
  0
LINE
  5
317
100
AcDbEntity
  8
BEZUGSACHSEN
100
AcDbLine
 62
7
  6
CONTINUOUS
 10
150.0682606791
 20
288.9807443147
 11
149.8886270173
 21
288.9807443147
  0
LINE
  5
318
100
AcDbEntity
  8
0
100
AcDbLine
 62
7
  6
CONTINUOUS
 10
133.834635112
 20
298.4497831705
 11
140.6137773239
 21
290.3707160849
  0
LINE
  5
319
100
AcDbEntity
  8
BEZUGSACHSEN
100
AcDbLine
 62
7
  6
CONTINUOUS
 10
149.8501281179
 20
291.8371507752
 11
141.4604237871
 21
291.8371507752
  0
LINE
  5
31A
100
AcDbEntity
  8
0
100
AcDbLine
 62
7
  6
CONTINUOUS
 10
143.7778365257
 20
292.4867208633
 11
142.1264737396
 21
293.8219996324
  0
LINE
  5
31B
100
AcDbEntity
  8
BEZUGSACHSEN
100
AcDbLine
 62
7
  6
CONTINUOUS
 10
184.1886270173
 20
285.9807443147
 11
184.1886270173
 21
269.9807443147
  0
LINE
  5
31C
100
AcDbEntity
  8
BEZUGSACHSEN
100
AcDbLine
 62
7
  6
CONTINUOUS
 10
184.1886270173
 20
195.9807443147
 11
184.1886270173
 21
179.9807443147
  0
LINE
  5
31D
100
AcDbEntity
  8
BEZUGSACHSEN
100
AcDbLine
 62
7
  6
CONTINUOUS
 10
185.3886270173
 20
284.7807443147
 11
185.3886270173
 21
271.1807443147
  0
LINE
  5
31E
100
AcDbEntity
  8
BEZUGSACHSEN
100
AcDbLine
 62
7
  6
CONTINUOUS
 10
185.3886270173
 20
194.7807443147
 11
185.3886270173
 21
181.1807443147
  0
LINE
  5
31F
100
AcDbEntity
  8
0
100
AcDbLine
 62
7
  6
CONTINUOUS
 10
149.004779922
 20
152.7390725937
 11
149.4576117558
 21
153.3353156294
  0
LINE
  5
320
100
AcDbEntity
  8
BEZUGSACHSEN
100
AcDbLine
 62
7
  6
CONTINUOUS
 10
185.3886270173
 20
181.1807443147
 11
184.1886270173
 21
179.9807443147
  0
LINE
  5
321
100
AcDbEntity
  8
KONSTRUKTIONSELEMENTE
100
AcDbLine
 62
7
  6
CONTINUOUS
 10
151.0351070743
 20
314.9807443147
 11
160.8886270173
 21
314.9807443147
  0
LINE
  5
322
100
AcDbEntity
  8
BEZUGSACHSEN
100
AcDbLine
 62
7
  6
CONTINUOUS
 10
185.3886270173
 20
284.7807443147
 11
184.1886270173
 21
285.9807443147
  0
LINE
  5
323
100
AcDbEntity
  8
0
100
AcDbLine
 62
7
  6
CONTINUOUS
 10
328.1215134655
 20
152.7390725937
 11
334.5973103914
 21
153.3353156294
  0
LINE
  5
324
100
AcDbEntity
  8
0
100
AcDbLine
 62
7
  6
CONTINUOUS
 10
304.4971299929
 20
147.618640926
 11
295.3771299929
 21
146.8207443147
  0
LINE
  5
325
100
AcDbEntity
  8
KONSTRUKTIONSELEMENTE
100
AcDbLine
 62
7
  6
CONTINUOUS
 10
295.3771299929
 20
146.8207443147
 11
286.2571299929
 21
147.618640926
  0
LINE
  5
326
100
AcDbEntity
  8
RUNDUNGEN
100
AcDbLine
 62
7
  6
CONTINUOUS
 10
262.6327465203
 20
152.7390725937
 11
256.1569495944
 21
153.3353156294
  0
LINE
  5
327
100
AcDbEntity
  8
0
100
AcDbLine
 62
7
  6
CONTINUOUS
 10
304.6487354859
 20
156.7531144478
 11
304.4971299929
 21
156.7372018378
  0
LINE
  5
328
100
AcDbEntity
  8
KONSTRUKTIONSELEMENTE
100
AcDbLine
 62
7
  6
CONTINUOUS
 10
286.1055245
 20
156.7531144478
 11
286.2571299929
 21
156.7372018378
  0
LINE
  5
329
100
AcDbEntity
  8
BEZUGSACHSEN
100
AcDbLine
 62
7
  6
CONTINUOUS
 10
260.3771299929
 20
291.8371507752
 11
248.3771299929
 21
284.9089475449
  0
LINE
  5
32A
100
AcDbEntity
  8
BEZUGSACHSEN
100
AcDbLine
 62
7
  6
CONTINUOUS
 10
248.3771299929
 20
181.0525410844
 11
260.3771299929
 21
174.1243378541
  0
LINE
  5
32B
100
AcDbEntity
  8
KONSTRUKTIONSELEMENTE
100
AcDbLine
 62
7
  6
CONTINUOUS
 10
277.1714806402
 20
292.4867208633
 11
279.3212492671
 21
293.2972968225
  0
LINE
  5
32C
100
AcDbEntity
  8
BEZUGSACHSEN
100
AcDbLine
 62
7
  6
CONTINUOUS
 10
243.3771299929
 20
297.600364318
 11
243.3771299929
 21
167.366109507
  0
LINE
  5
32D
100
AcDbEntity
  8
0
100
AcDbLine
 62
7
  6
CONTINUOUS
 10
304.8771299929
 20
173.5807443147
 11
304.4971299929
 21
173.5807443147
  0
LINE
  5
32E
100
AcDbEntity
  8
KONSTRUKTIONSELEMENTE
100
AcDbLine
 62
7
  6
CONTINUOUS
 10
286.2571299929
 20
173.5807443147
 11
285.8771299929
 21
173.5807443147
  0
LINE
  5
32F
100
AcDbEntity
  8
BEZUGSACHSEN
100
AcDbLine
 62
7
  6
CONTINUOUS
 10
248.3771299929
 20
284.9089475449
 11
248.3771299929
 21
271.0525410844
  0
LINE
  5
330
100
AcDbEntity
  8
BEZUGSACHSEN
100
AcDbLine
 62
7
  6
CONTINUOUS
 10
248.3771299929
 20
194.9089475449
 11
248.3771299929
 21
181.0525410844
  0
LINE
  5
331
100
AcDbEntity
  8
BEZUGSACHSEN
100
AcDbLine
 62
7
  6
CONTINUOUS
 10
260.3771299929
 20
264.1243378541
 11
272.3771299929
 21
271.0525410844
  0
LINE
  5
332
100
AcDbEntity
  8
KONSTRUKTIONSELEMENTE
100
AcDbLine
 62
7
  6
CONTINUOUS
 10
291.2933799929
 20
276.0209817039
 11
291.0529632116
 21
275.8631568501
  0
LINE
  5
333
100
AcDbEntity
  8
KONSTRUKTIONSELEMENTE
100
AcDbLine
 62
7
  6
CONTINUOUS
 10
296.4623385555
 20
274.3638206278
 11
296.1017135555
 21
274.2059957187
  0
LINE
  5
334
100
AcDbEntity
  8
KONSTRUKTIONSELEMENTE
100
AcDbLine
 62
7
  6
CONTINUOUS
 10
291.1731717742
 20
275.4685947154
 11
291.6540049929
 21
275.6264195693
  0
LINE
  5
335
100
AcDbEntity
  8
KONSTRUKTIONSELEMENTE
100
AcDbLine
 62
7
  6
CONTINUOUS
 10
296.2219214303
 20
273.7325211088
 11
296.7027549929
 21
273.8903459833
  0
LINE
  5
336
100
AcDbEntity
  8
KONSTRUKTIONSELEMENTE
100
AcDbLine
 62
7
  6
CONTINUOUS
 10
296.2219214303
 20
273.4567451092
 11
296.7027549929
 21
273.6145699838
  0
LINE
  5
337
100
AcDbEntity
  8
AUSFORMSCHRAEGEN
100
AcDbLine
 62
8
  6
HIDDEN
 10
295.3771299929
 20
186.7807443147
 11
289.4019020908
 21
186.2579796112
  0
LINE
  5
338
100
AcDbEntity
  8
BEZUGSACHSEN
100
AcDbLine
 62
2
  6
CENTER
 10
330.3771299929
 20
187.9807443147
 11
310.3771299929
 21
187.9807443147
  0
LINE
  5
339
100
AcDbEntity
  8
BEZUGSACHSEN
100
AcDbLine
 62
2
  6
CENTER
 10
260.3771299929
 20
187.9807443147
 11
240.3771299929
 21
187.9807443147
  0
LINE
  5
33A
100
AcDbEntity
  8
BEZUGSACHSEN
100
AcDbLine
 62
2
  6
CENTER
 10
260.3771299929
 20
187.9807443147
 11
280.3771299929
 21
187.9807443147
  0
LINE
  5
33B
100
AcDbEntity
  8
BEZUGSACHSEN
100
AcDbLine
 62
2
  6
CENTER
 10
330.3771299929
 20
187.9807443147
 11
350.3771299929
 21
187.9807443147
  0
LINE
  5
33C
100
AcDbEntity
  8
0
100
AcDbLine
 62
7
  6
CONTINUOUS
 10
307.3771299929
 20
190.6515035142
 11
307.0059138687
 21
190.6515035142
  0
LINE
  5
33D
100
AcDbEntity
  8
KONSTRUKTIONSELEMENTE
100
AcDbLine
 62
7
  6
CONTINUOUS
 10
283.3771299929
 20
190.6515035142
 11
283.7421428091
 21
190.6515035142
  0
LINE
  5
33E
100
AcDbEntity
  8
DEFAULT_2
100
AcDbLine
 62
8
  6
HIDDEN
 10
301.352357895
 20
186.2579796112
 11
295.3771299929
 21
186.7807443147
  0
LINE
  5
33F
100
AcDbEntity
  8
BEZUGSACHSEN
100
AcDbLine
 62
7
  6
CONTINUOUS
 10
272.3771299929
 20
194.9089475449
 11
260.3771299929
 21
201.8371507752
  0
LINE
  5
340
100
AcDbEntity
  8
BEZUGSACHSEN
100
AcDbLine
 62
2
  6
CENTER
 10
260.3771299929
 20
277.9807443147
 11
260.3771299929
 21
257.9807443147
  0
LINE
  5
341
100
AcDbEntity
  8
BEZUGSACHSEN
100
AcDbLine
 62
2
  6
CENTER
 10
260.3771299929
 20
187.9807443147
 11
260.3771299929
 21
167.9807443147
  0
LINE
  5
342
100
AcDbEntity
  8
BEZUGSACHSEN
100
AcDbLine
 62
2
  6
CENTER
 10
260.3771299929
 20
187.9807443147
 11
260.3771299929
 21
207.9807443147
  0
LINE
  5
343
100
AcDbEntity
  8
BEZUGSACHSEN
100
AcDbLine
 62
2
  6
CENTER
 10
260.3771299929
 20
277.9807443147
 11
260.3771299929
 21
297.9807443147
  0
LINE
  5
344
100
AcDbEntity
  8
KONSTRUKTIONSELEMENTE
100
AcDbLine
 62
7
  6
CONTINUOUS
 10
291.6540049929
 20
275.6264195693
 11
292.0146299929
 21
275.942069277
  0
LINE
  5
345
100
AcDbEntity
  8
KONSTRUKTIONSELEMENTE
100
AcDbLine
 62
7
  6
CONTINUOUS
 10
296.7027549929
 20
273.8903459833
 11
297.1835885555
 21
274.2059957187
  0
LINE
  5
346
100
AcDbEntity
  8
KONSTRUKTIONSELEMENTE
100
AcDbLine
 62
7
  6
CONTINUOUS
 10
296.7027549929
 20
273.6145699838
 11
297.1835885555
 21
273.9302197192
  0
LINE
  5
347
100
AcDbEntity
  8
BEZUGSACHSEN
100
AcDbLine
 62
7
  6
CONTINUOUS
 10
330.3771299929
 20
291.8371507752
 11
318.3771299929
 21
284.9089475449
  0
LINE
  5
348
100
AcDbEntity
  8
KONSTRUKTIONSELEMENTE
100
AcDbLine
 62
7
  6
CONTINUOUS
 10
302.2323378677
 20
274.3638206278
 11
301.8717128677
 21
274.2059957187
  0
LINE
  5
349
100
AcDbEntity
  8
KONSTRUKTIONSELEMENTE
100
AcDbLine
 62
7
  6
CONTINUOUS
 10
301.9919221181
 20
273.7325211088
 11
302.4727549929
 21
273.8903459833
  0
LINE
  5
34A
100
AcDbEntity
  8
KONSTRUKTIONSELEMENTE
100
AcDbLine
 62
7
  6
CONTINUOUS
 10
301.9919221181
 20
273.4567451092
 11
302.4727549929
 21
273.6145699838
  0
LINE
  5
34B
100
AcDbEntity
  8
KONSTRUKTIONSELEMENTE
100
AcDbLine
 62
7
  6
CONTINUOUS
 10
283.9771299929
 20
196.3317026557
 11
282.8771299929
 21
196.3317026557
  0
LINE
  5
34C
100
AcDbEntity
  8
KONSTRUKTIONSELEMENTE
100
AcDbLine
 62
7
  6
CONTINUOUS
 10
283.9771299929
 20
198.4642731183
 11
282.8771299929
 21
198.4642731183
  0
LINE
  5
34D
100
AcDbEntity
  8
KONSTRUKTIONSELEMENTE
100
AcDbLine
 62
7
  6
CONTINUOUS
 10
296.7027549929
 20
274.6005579086
 11
296.4623385555
 21
274.3638206278
  0
LINE
  5
34E
100
AcDbEntity
  8
KONSTRUKTIONSELEMENTE
100
AcDbLine
 62
7
  6
CONTINUOUS
 10
302.4727549929
 20
274.6005579086
 11
302.2323378677
 21
274.3638206278
  0
LINE
  5
34F
100
AcDbEntity
  8
KONSTRUKTIONSELEMENTE
100
AcDbLine
 62
7
  6
CONTINUOUS
 10
302.4727549929
 20
273.8903459833
 11
302.9535878677
 21
274.2059957187
  0
LINE
  5
350
100
AcDbEntity
  8
KONSTRUKTIONSELEMENTE
100
AcDbLine
 62
7
  6
CONTINUOUS
 10
302.4727549929
 20
273.6145699838
 11
302.9535878677
 21
273.9302197192
  0
LINE
  5
351
100
AcDbEntity
  8
KONSTRUKTIONSELEMENTE
100
AcDbLine
 62
7
  6
CONTINUOUS
 10
283.9771299929
 20
199.2030668887
 11
282.8771299929
 21
199.2030668887
  0
LINE
  5
352
100
AcDbEntity
  8
KONSTRUKTIONSELEMENTE
100
AcDbLine
 62
7
  6
CONTINUOUS
 10
283.9771299929
 20
204.8767443147
 11
282.8771299929
 21
204.8767443147
  0
LINE
  5
353
100
AcDbEntity
  8
BEZUGSACHSEN
100
AcDbLine
 62
7
  6
CONTINUOUS
 10
318.3771299929
 20
181.0525410844
 11
330.3771299929
 21
174.1243378541
  0
LINE
  5
354
100
AcDbEntity
  8
BEZUGSACHSEN
100
AcDbLine
 62
7
  6
CONTINUOUS
 10
272.3771299929
 20
181.0525410844
 11
272.3771299929
 21
194.9089475449
  0
LINE
  5
355
100
AcDbEntity
  8
BEZUGSACHSEN
100
AcDbLine
 62
7
  6
CONTINUOUS
 10
272.3771299929
 20
271.0525410844
 11
272.3771299929
 21
284.9089475449
  0
LINE
  5
356
100
AcDbEntity
  8
AUSFORMSCHRAEGEN
100
AcDbLine
 62
7
  6
CONTINUOUS
 10
279.9097061752
 20
298.4497831705
 11
278.8771299929
 21
289.4086204115
  0
LINE
  5
357
100
AcDbEntity
  8
KONSTRUKTIONSELEMENTE
100
AcDbLine
 62
7
  6
CONTINUOUS
 10
291.4135882116
 20
276.2577189847
 11
291.2933799929
 21
276.0209817039
  0
LINE
  5
358
100
AcDbEntity
  8
KONSTRUKTIONSELEMENTE
100
AcDbLine
 62
7
  6
CONTINUOUS
 10
292.0146299929
 20
275.942069277
 11
292.1348382116
 21
276.1788065578
  0
LINE
  5
359
100
AcDbEntity
  8
KONSTRUKTIONSELEMENTE
100
AcDbLine
 62
7
  6
CONTINUOUS
 10
285.4959271165
 20
254.5411861477
 11
283.0943605965
 21
251.1243671291
  0
LINE
  5
35A
100
AcDbEntity
  8
KONSTRUKTIONSELEMENTE
100
AcDbLine
 62
7
  6
CONTINUOUS
 10
284.6425068102
 20
254.6372078806
 11
285.9392832707
 21
256.424765573
  0
LINE
  5
35B
100
AcDbEntity
  8
KONSTRUKTIONSELEMENTE
100
AcDbLine
 62
7
  6
CONTINUOUS
 10
285.4959271165
 20
254.5411861477
 11
285.6732501225
 21
254.7764548209
  0
LINE
  5
35C
100
AcDbEntity
  8
KONSTRUKTIONSELEMENTE
100
AcDbLine
 62
7
  6
CONTINUOUS
 10
297.1835885555
 20
274.2059957187
 11
297.4240049929
 21
274.5216454817
  0
LINE
  5
35D
100
AcDbEntity
  8
KONSTRUKTIONSELEMENTE
100
AcDbLine
 62
7
  6
CONTINUOUS
 10
297.1835885555
 20
273.9302197192
 11
297.4240049929
 21
274.2458694822
  0
LINE
  5
35E
100
AcDbEntity
  8
KONSTRUKTIONSELEMENTE
100
AcDbLine
 62
7
  6
CONTINUOUS
 10
302.9535878677
 20
274.2059957187
 11
303.1940049929
 21
274.5216454817
  0
LINE
  5
35F
100
AcDbEntity
  8
KONSTRUKTIONSELEMENTE
100
AcDbLine
 62
7
  6
CONTINUOUS
 10
302.9535878677
 20
273.9302197192
 11
303.1940049929
 21
274.2458694822
  0
LWPOLYLINE
  5
360
100
AcDbEntity
  8
KONSTRUKTIONSELEMENTE
100
AcDbPolyline
 62
7
  6
CONTINUOUS
 90
4
 70
0
 10
282.221913927
 20
238.7660819808
 10
282.2639165306
 20
238.3277289975
 10
282.325591313
 20
237.8500342733
 10
282.3607959802
 20
237.6229086452
  0
LINE
  5
361
100
AcDbEntity
  8
KONSTRUKTIONSELEMENTE
100
AcDbLine
 62
7
  6
CONTINUOUS
 10
278.5389662849
 20
258.649607409
 11
278.0176044347
 21
274.2555697537
  0
LINE
  5
362
100
AcDbEntity
  8
KONSTRUKTIONSELEMENTE
100
AcDbLine
 62
7
  6
CONTINUOUS
 10
279.3771299929
 20
302.6463896189
 11
279.3771299929
 21
311.8072324893
  0
LINE
  5
363
100
AcDbEntity
  8
AUSFORMSCHRAEGEN
100
AcDbLine
 62
7
  6
CONTINUOUS
 10
279.4020619741
 20
274.4143716835
 11
279.4020619741
 21
274.7212587796
  0
LINE
  5
364
100
AcDbEntity
  8
KONSTRUKTIONSELEMENTE
100
AcDbLine
 62
7
  6
CONTINUOUS
 10
281.0771299929
 20
235.6072555926
 11
281.0771299929
 21
244.1520846275
  0
LINE
  5
365
100
AcDbEntity
  8
KONSTRUKTIONSELEMENTE
100
AcDbLine
 62
7
  6
CONTINUOUS
 10
282.1771299929
 20
248.4249169317
 11
282.1771299929
 21
241.661021245
  0
LINE
  5
366
100
AcDbEntity
  8
KONSTRUKTIONSELEMENTE
100
AcDbLine
 62
7
  6
CONTINUOUS
 10
282.8771299929
 20
196.3317026557
 11
282.8771299929
 21
204.8767443147
  0
LINE
  5
367
100
AcDbEntity
  8
KONSTRUKTIONSELEMENTE
100
AcDbLine
 62
7
  6
CONTINUOUS
 10
296.8229635555
 20
274.9162076164
 11
296.7027549929
 21
274.6005579086
  0
LINE
  5
368
100
AcDbEntity
  8
BEZUGSACHSEN
100
AcDbLine
 62
7
  6
CONTINUOUS
 10
284.3738812263
 20
267.600327924
 11
284.3706750517
 21
267.6507497607
  0
LINE
  5
369
100
AcDbEntity
  8
BEZUGSACHSEN
100
AcDbLine
 62
7
  6
CONTINUOUS
 10
284.3738812263
 20
264.5149473975
 11
284.3723674233
 21
264.5468506236
  0
LINE
  5
36A
100
AcDbEntity
  8
BEZUGSACHSEN
100
AcDbLine
 62
7
  6
CONTINUOUS
 10
284.3770804519
 20
271.6428136385
 11
284.3768787364
 21
271.6529201869
  0
LINE
  5
36B
100
AcDbEntity
  8
BEZUGSACHSEN
100
AcDbLine
 62
7
  6
CONTINUOUS
 10
284.3770804519
 20
262.386672059
 11
284.3770713017
 21
262.3886630876
  0
LINE
  5
36C
100
AcDbEntity
  8
BEZUGSACHSEN
100
AcDbLine
 62
7
  6
CONTINUOUS
 10
283.3771299929
 20
194.7803749096
 11
283.3771299929
 21
192.0963256441
  0
LINE
  5
36D
100
AcDbEntity
  8
KONSTRUKTIONSELEMENTE
100
AcDbLine
 62
7
  6
CONTINUOUS
 10
283.3771299929
 20
149.2346829131
 11
283.3771299929
 21
192.0963256441
  0
LINE
  5
36E
100
AcDbEntity
  8
BEZUGSACHSEN
100
AcDbLine
 62
7
  6
CONTINUOUS
 10
283.9771299929
 20
208.7300885635
 11
283.9771299929
 21
196.0967674922
  0
LINE
  5
36F
100
AcDbEntity
  8
KONSTRUKTIONSELEMENTE
100
AcDbLine
 62
7
  6
CONTINUOUS
 10
286.2571299929
 20
147.6187690995
 11
286.2571299929
 21
224.7018045234
  0
LINE
  5
370
100
AcDbEntity
  8
KONSTRUKTIONSELEMENTE
100
AcDbLine
 62
7
  6
CONTINUOUS
 10
287.3771299929
 20
278.1632029346
 11
287.3771299929
 21
295.9768331324
  0
LINE
  5
371
100
AcDbEntity
  8
KONSTRUKTIONSELEMENTE
100
AcDbLine
 62
7
  6
CONTINUOUS
 10
287.6871299929
 20
273.3778326754
 11
287.6871299929
 21
277.3624931828
  0
LINE
  5
372
100
AcDbEntity
  8
KONSTRUKTIONSELEMENTE
100
AcDbLine
 62
7
  6
CONTINUOUS
 10
288.3771299929
 20
278.1632029346
 11
288.3771299929
 21
294.9151035134
  0
LINE
  5
373
100
AcDbEntity
  8
KONSTRUKTIONSELEMENTE
100
AcDbLine
 62
7
  6
CONTINUOUS
 10
288.4083799929
 20
273.3778326754
 11
288.4083799929
 21
275.3107698615
  0
LINE
  5
374
100
AcDbEntity
  8
KONSTRUKTIONSELEMENTE
100
AcDbLine
 62
7
  6
CONTINUOUS
 10
288.4083799929
 20
275.7842444231
 11
288.4083799929
 21
276.9679310482
  0
LINE
  5
375
100
AcDbEntity
  8
KONSTRUKTIONSELEMENTE
100
AcDbLine
 62
7
  6
CONTINUOUS
 10
286.2401903071
 20
224.7027536043
 11
286.2371002488
 21
224.647600645
  0
LINE
  5
376
100
AcDbEntity
  8
KONSTRUKTIONSELEMENTE
100
AcDbLine
 62
7
  6
CONTINUOUS
 10
283.3771299929
 20
185.5807443147
 11
286.2411591832
 21
224.7029737018
  0
LINE
  5
377
100
AcDbEntity
  8
KONSTRUKTIONSELEMENTE
100
AcDbLine
 62
7
  6
CONTINUOUS
 10
286.2731435416
 20
225.1398754652
 11
286.9098962566
 21
233.837826543
  0
LINE
  5
378
100
AcDbEntity
  8
KONSTRUKTIONSELEMENTE
100
AcDbLine
 62
7
  6
CONTINUOUS
 10
297.4240049929
 20
274.5216454817
 11
297.5442135555
 21
274.9162076164
  0
LINE
  5
379
100
AcDbEntity
  8
KONSTRUKTIONSELEMENTE
100
AcDbLine
 62
7
  6
CONTINUOUS
 10
297.4240049929
 20
274.2458694822
 11
297.5442135555
 21
274.6404316168
  0
LINE
  5
37A
100
AcDbEntity
  8
KONSTRUKTIONSELEMENTE
100
AcDbLine
 62
7
  6
CONTINUOUS
 10
302.5929628677
 20
274.9162076164
 11
302.4727549929
 21
274.6005579086
  0
LINE
  5
37B
100
AcDbEntity
  8
BEZUGSACHSEN
100
AcDbLine
 62
7
  6
CONTINUOUS
 10
330.3771299929
 20
264.1243378541
 11
342.3771299929
 21
271.0525410844
  0
LINE
  5
37C
100
AcDbEntity
  8
BEZUGSACHSEN
100
AcDbLine
 62
7
  6
CONTINUOUS
 10
342.3771299929
 20
194.9089475449
 11
330.3771299929
 21
201.8371507752
  0
LWPOLYLINE
  5
37D
100
AcDbEntity
  8
KONSTRUKTIONSELEMENTE
100
AcDbPolyline
 62
7
  6
CONTINUOUS
 90
3
 70
0
 10
283.6681619725
 20
233.5594464573
 10
285.2168231056
 20
230.4071450827
 10
285.3153769823
 20
230.1970458203
  0
LINE
  5
37E
100
AcDbEntity
  8
KONSTRUKTIONSELEMENTE
100
AcDbLine
 62
7
  6
CONTINUOUS
 10
285.3153769823
 20
230.1970458203
 11
285.4096962476
 21
229.9854273138
  0
LWPOLYLINE
  5
37F
100
AcDbEntity
  8
KONSTRUKTIONSELEMENTE
100
AcDbPolyline
 62
7
  6
CONTINUOUS
 90
4
 70
0
 10
285.4096962476
 20
229.9854273138
 10
285.4996993626
 20
229.7723534984
 10
285.5853067965
 20
229.5578884829
 10
285.6279425187
 20
229.4461506492
  0
LWPOLYLINE
  5
380
100
AcDbEntity
  8
KONSTRUKTIONSELEMENTE
100
AcDbPolyline
 62
7
  6
CONTINUOUS
 90
3
 70
0
 10
283.1798904067
 20
234.6629798996
 10
283.4506341057
 20
234.0217132401
 10
283.668162741
 20
233.5594468349
  0
LINE
  5
381
100
AcDbEntity
  8
KONSTRUKTIONSELEMENTE
100
AcDbLine
 62
7
  6
CONTINUOUS
 10
285.6278453201
 20
229.4463902767
 11
285.6279361911
 21
229.4461482731
  0
LWPOLYLINE
  5
382
100
AcDbEntity
  8
KONSTRUKTIONSELEMENTE
100
AcDbPolyline
 62
7
  6
CONTINUOUS
 90
8
 70
0
 10
285.6278453201
 20
229.4463902767
 10
285.7897406088
 20
228.9775217299
 10
285.9613453471
 20
228.3646688863
 10
286.0947836692
 20
227.7354826615
 10
286.1906234708
 20
227.0933012703
 10
286.2497612041
 20
226.4420350256
 10
286.2736458978
 20
225.7864014029
 10
286.2664499118
 20
225.2870579785
  0
LWPOLYLINE
  5
383
100
AcDbEntity
  8
KONSTRUKTIONSELEMENTE
100
AcDbPolyline
 62
7
  6
CONTINUOUS
 90
4
 70
0
 10
282.7082159996
 20
236.0597759326
 10
282.7348475685
 20
235.9665336189
 10
282.9412207645
 20
235.3117036948
 10
283.1798904067
 20
234.6629798996
  0
LINE
  5
384
100
AcDbEntity
  8
KONSTRUKTIONSELEMENTE
100
AcDbLine
 62
7
  6
CONTINUOUS
 10
291.4135882116
 20
276.4944564866
 11
291.4135882116
 21
276.2577189847
  0
LINE
  5
385
100
AcDbEntity
  8
KONSTRUKTIONSELEMENTE
100
AcDbLine
 62
7
  6
CONTINUOUS
 10
291.4135882116
 20
273.3778326754
 11
291.4135882116
 21
273.6536086749
  0
LINE
  5
386
100
AcDbEntity
  8
KONSTRUKTIONSELEMENTE
100
AcDbLine
 62
7
  6
CONTINUOUS
 10
292.1348382116
 20
275.9462265348
 11
292.1348382116
 21
276.4944564866
  0
LINE
  5
387
100
AcDbEntity
  8
KONSTRUKTIONSELEMENTE
100
AcDbLine
 62
7
  6
CONTINUOUS
 10
292.2550467742
 20
273.3778326754
 11
292.2550467742
 21
273.6536086749
  0
LINE
  5
388
100
AcDbEntity
  8
KONSTRUKTIONSELEMENTE
100
AcDbLine
 62
7
  6
CONTINUOUS
 10
293.2167132116
 20
274.6404316168
 11
293.2167132116
 21
277.3624931828
  0
LINE
  5
389
100
AcDbEntity
  8
KONSTRUKTIONSELEMENTE
100
AcDbLine
 62
7
  6
CONTINUOUS
 10
293.3369217742
 20
274.2458694822
 11
293.3369217742
 21
274.5216454817
  0
LINE
  5
38A
100
AcDbEntity
  8
KONSTRUKTIONSELEMENTE
100
AcDbLine
 62
7
  6
CONTINUOUS
 10
293.9379635555
 20
274.9162076164
 11
293.9379635555
 21
277.3624931828
  0
LINE
  5
38B
100
AcDbEntity
  8
0
100
AcDbLine
 62
7
  6
CONTINUOUS
 10
295.3771299929
 20
255.4948397072
 11
295.3771299929
 21
255.2554526718
  0
LINE
  5
38C
100
AcDbEntity
  8
BG_STARTBEZUEGE
100
AcDbLine
 62
2
  6
CENTER
 10
295.3771299929
 20
211.9807443147
 11
295.3771299929
 21
141.420288019
  0
LINE
  5
38D
100
AcDbEntity
  8
BG_STARTBEZUEGE
100
AcDbLine
 62
2
  6
CENTER
 10
295.3771299929
 20
211.9807443147
 11
295.3771299929
 21
327.2455226646
  0
LINE
  5
38E
100
AcDbEntity
  8
KONSTRUKTIONSELEMENTE
100
AcDbLine
 62
7
  6
CONTINUOUS
 10
303.1940049929
 20
274.5216454817
 11
303.3142128677
 21
274.9162076164
  0
LINE
  5
38F
100
AcDbEntity
  8
KONSTRUKTIONSELEMENTE
100
AcDbLine
 62
7
  6
CONTINUOUS
 10
303.1940049929
 20
274.2458694822
 11
303.3142128677
 21
274.6404316168
  0
LINE
  5
390
100
AcDbEntity
  8
KONSTRUKTIONSELEMENTE
100
AcDbLine
 62
7
  6
CONTINUOUS
 10
283.4630689488
 20
242.8826918604
 11
285.401847959
 21
239.8298572668
  0
LINE
  5
391
100
AcDbEntity
  8
KONSTRUKTIONSELEMENTE
100
AcDbLine
 62
7
  6
CONTINUOUS
 10
282.5340777935
 20
250.1099621008
 11
278.8314516423
 21
257.5372554521
  0
LINE
  5
392
100
AcDbEntity
  8
KONSTRUKTIONSELEMENTE
100
AcDbLine
 62
7
  6
CONTINUOUS
 10
283.3529295872
 20
251.492245111
 11
283.3023083869
 21
251.6331856197
  0
LINE
  5
393
100
AcDbEntity
  8
AUSFORMSCHRAEGEN
100
AcDbLine
 62
7
  6
CONTINUOUS
 10
281.0254100588
 20
261.0206874569
 11
283.5534665725
 21
253.9820244185
  0
LINE
  5
394
100
AcDbEntity
  8
KONSTRUKTIONSELEMENTE
100
AcDbLine
 62
7
  6
CONTINUOUS
 10
296.8229635555
 20
277.3624931828
 11
296.8229635555
 21
274.9162076164
  0
LINE
  5
395
100
AcDbEntity
  8
KONSTRUKTIONSELEMENTE
100
AcDbLine
 62
7
  6
CONTINUOUS
 10
297.4240049929
 20
274.2458694822
 11
297.4240049929
 21
274.5216454817
  0
LINE
  5
396
100
AcDbEntity
  8
KONSTRUKTIONSELEMENTE
100
AcDbLine
 62
7
  6
CONTINUOUS
 10
297.5442135555
 20
274.6404316168
 11
297.5442135555
 21
277.3624931828
  0
LINE
  5
397
100
AcDbEntity
  8
KONSTRUKTIONSELEMENTE
100
AcDbLine
 62
7
  6
CONTINUOUS
 10
298.5058799929
 20
273.3778326754
 11
298.5058799929
 21
277.3624931828
  0
LINE
  5
398
100
AcDbEntity
  8
KONSTRUKTIONSELEMENTE
100
AcDbLine
 62
7
  6
CONTINUOUS
 10
299.2271299929
 20
274.1270832918
 11
299.2271299929
 21
276.8890186212
  0
LINE
  5
399
100
AcDbEntity
  8
0
100
AcDbLine
 62
7
  6
CONTINUOUS
 10
302.3771299929
 20
278.1632029346
 11
302.3771299929
 21
294.9151035134
  0
LINE
  5
39A
100
AcDbEntity
  8
KONSTRUKTIONSELEMENTE
100
AcDbLine
 62
7
  6
CONTINUOUS
 10
302.4727549929
 20
276.2020294926
 11
302.4727549929
 21
276.4155438386
  0
LINE
  5
39B
100
AcDbEntity
  8
KONSTRUKTIONSELEMENTE
100
AcDbLine
 62
7
  6
CONTINUOUS
 10
302.5929628677
 20
276.0998941309
 11
302.5929628677
 21
274.9162076164
  0
LINE
  5
39C
100
AcDbEntity
  8
0
100
AcDbLine
 62
7
  6
CONTINUOUS
 10
309.728849927
 20
261.0206874569
 11
307.2007934133
 21
253.9820244185
  0
LINE
  5
39D
100
AcDbEntity
  8
0
100
AcDbLine
 62
7
  6
CONTINUOUS
 10
307.4013303986
 20
251.492245111
 11
307.4519515989
 21
251.6331856197
  0
LINE
  5
39E
100
AcDbEntity
  8
0
100
AcDbLine
 62
7
  6
CONTINUOUS
 10
308.2201821924
 20
250.1099621008
 11
311.9228083435
 21
257.5372554521
  0
LINE
  5
39F
100
AcDbEntity
  8
0
100
AcDbLine
 62
7
  6
CONTINUOUS
 10
307.291191037
 20
242.8826918604
 11
305.3524120269
 21
239.8298572668
  0
LINE
  5
3A0
100
AcDbEntity
  8
KONSTRUKTIONSELEMENTE
100
AcDbLine
 62
7
  6
CONTINUOUS
 10
282.8480759837
 20
235.6072555926
 11
281.0771299929
 21
235.6072555926
  0
LINE
  5
3A1
100
AcDbEntity
  8
KONSTRUKTIONSELEMENTE
100
AcDbLine
 62
7
  6
CONTINUOUS
 10
282.6447978116
 20
236.346049363
 11
281.0771299929
 21
236.346049363
  0
LINE
  5
3A2
100
AcDbEntity
  8
0
100
AcDbLine
 62
7
  6
CONTINUOUS
 10
307.3771299929
 20
185.5807443147
 11
304.5131008026
 21
224.7029737018
  0
LINE
  5
3A3
100
AcDbEntity
  8
0
100
AcDbLine
 62
7
  6
CONTINUOUS
 10
304.4811164443
 20
225.1398754652
 11
303.8443637292
 21
233.837826543
  0
LINE
  5
3A4
100
AcDbEntity
  8
0
100
AcDbLine
 62
7
  6
CONTINUOUS
 10
304.517159737
 20
224.647600645
 11
304.5140696787
 21
224.7027536043
  0
LWPOLYLINE
  5
3A5
100
AcDbEntity
  8
0
100
AcDbPolyline
 62
7
  6
CONTINUOUS
 90
8
 70
0
 10
304.4900530251
 20
225.1314152589
 10
304.480614088
 20
225.7864014029
 10
304.5044987818
 20
226.4420350256
 10
304.563636515
 20
227.0933012703
 10
304.6594763167
 20
227.7354826615
 10
304.7929146387
 20
228.3646688863
 10
304.964519377
 20
228.9775217299
 10
305.1264146657
 20
229.4463902767
  0
LINE
  5
3A6
100
AcDbEntity
  8
KONSTRUKTIONSELEMENTE
100
AcDbLine
 62
7
  6
CONTINUOUS
 10
303.1940049929
 20
274.2458694822
 11
303.1940049929
 21
274.5216454817
  0
LINE
  5
3A7
100
AcDbEntity
  8
KONSTRUKTIONSELEMENTE
100
AcDbLine
 62
7
  6
CONTINUOUS
 10
303.3142128677
 20
274.6404316168
 11
303.3142128677
 21
276.0998941309
  0
LINE
  5
3A8
100
AcDbEntity
  8
0
100
AcDbLine
 62
7
  6
CONTINUOUS
 10
303.3771299929
 20
278.1632029346
 11
303.3771299929
 21
295.9768331324
  0
LINE
  5
3A9
100
AcDbEntity
  8
0
100
AcDbLine
 62
7
  6
CONTINUOUS
 10
304.4971299929
 20
147.6187690995
 11
304.4971299929
 21
224.7018045234
  0
LINE
  5
3AA
100
AcDbEntity
  8
0
100
AcDbLine
 62
7
  6
CONTINUOUS
 10
307.3771299929
 20
149.2346829131
 11
307.3771299929
 21
194.8777728355
  0
LINE
  5
3AB
100
AcDbEntity
  8
0
100
AcDbLine
 62
7
  6
CONTINUOUS
 10
308.5771299929
 20
248.4249169317
 11
308.5771299929
 21
239.8883345163
  0
LINE
  5
3AC
100
AcDbEntity
  8
0
100
AcDbLine
 62
7
  6
CONTINUOUS
 10
306.3771795339
 20
262.386672059
 11
306.3771886842
 21
262.3886630876
  0
LINE
  5
3AD
100
AcDbEntity
  8
0
100
AcDbLine
 62
7
  6
CONTINUOUS
 10
306.3771795339
 20
271.6428136385
 11
306.3773812494
 21
271.6529201869
  0
LINE
  5
3AE
100
AcDbEntity
  8
0
100
AcDbLine
 62
7
  6
CONTINUOUS
 10
306.3803787595
 20
264.5149473975
 11
306.3818925625
 21
264.5468506236
  0
LINE
  5
3AF
100
AcDbEntity
  8
0
100
AcDbLine
 62
7
  6
CONTINUOUS
 10
306.3803787595
 20
267.600327924
 11
306.3835849341
 21
267.6507497607
  0
LWPOLYLINE
  5
3B0
100
AcDbEntity
  8
0
100
AcDbPolyline
 62
7
  6
CONTINUOUS
 90
6
 70
0
 10
308.3600356976
 20
237.427063808
 10
308.443629512
 20
237.9548308537
 10
308.5070706064
 20
238.4855953695
 10
308.5502628257
 20
239.0186489669
 10
308.573147407
 20
239.5532678785
 10
308.577129572
 20
239.8891806904
  0
LINE
  5
3B1
100
AcDbEntity
  8
0
100
AcDbLine
 62
7
  6
CONTINUOUS
 10
308.2943687556
 20
237.0830657567
 11
308.3600356976
 21
237.427063808
  0
LINE
  5
3B2
100
AcDbEntity
  8
0
100
AcDbLine
 62
7
  6
CONTINUOUS
 10
308.2943670353
 20
237.0830661081
 11
308.2943261476
 21
237.08286556
  0
LINE
  5
3B3
100
AcDbEntity
  8
0
100
AcDbLine
 62
7
  6
CONTINUOUS
 10
305.1264146657
 20
229.4463902767
 11
305.1263237947
 21
229.4461482731
  0
LWPOLYLINE
  5
3B4
100
AcDbEntity
  8
0
100
AcDbPolyline
 62
7
  6
CONTINUOUS
 90
4
 70
0
 10
305.1263174671
 20
229.4461506492
 10
305.1689531893
 20
229.5578884829
 10
305.2545606232
 20
229.7723534984
 10
305.3445637383
 20
229.9854273138
  0
LWPOLYLINE
  5
3B5
100
AcDbEntity
  8
0
100
AcDbPolyline
 62
7
  6
CONTINUOUS
 90
6
 70
0
 10
307.3036258801
 20
234.0217132401
 10
307.5743695791
 20
234.6629798996
 10
307.8130392213
 20
235.3117036948
 10
308.0194124173
 20
235.9665336189
 10
308.1933374408
 20
236.626090428
 10
308.2943261476
 20
237.08286556
  0
LINE
  5
3B6
100
AcDbEntity
  8
0
100
AcDbLine
 62
7
  6
CONTINUOUS
 10
305.3445637383
 20
229.9854273138
 11
305.4388830035
 21
230.1970458203
  0
LINE
  5
3B7
100
AcDbEntity
  8
0
100
AcDbLine
 62
7
  6
CONTINUOUS
 10
305.4388830035
 20
230.1970458203
 11
305.5374368802
 21
230.4071450827
  0
LINE
  5
3B8
100
AcDbEntity
  8
0
100
AcDbLine
 62
7
  6
CONTINUOUS
 10
307.0860972448
 20
233.5594468349
 11
307.3036258801
 21
234.0217132401
  0
LINE
  5
3B9
100
AcDbEntity
  8
0
100
AcDbLine
 62
7
  6
CONTINUOUS
 10
305.5374368802
 20
230.4071450827
 11
307.0860660164
 21
233.5593813458
  0
LINE
  5
3BA
100
AcDbEntity
  8
BEZUGSACHSEN
100
AcDbLine
 62
7
  6
CONTINUOUS
 10
260.3771299929
 20
201.8371507752
 11
248.3771299929
 21
194.9089475449
  0
LINE
  5
3BB
100
AcDbEntity
  8
KONSTRUKTIONSELEMENTE
100
AcDbLine
 62
7
  6
CONTINUOUS
 10
282.221913927
 20
238.7100816238
 11
281.0771299929
 21
238.7100816238
  0
LINE
  5
3BC
100
AcDbEntity
  8
KONSTRUKTIONSELEMENTE
100
AcDbLine
 62
7
  6
CONTINUOUS
 10
282.4052992553
 20
239.3885145826
 11
281.0771299929
 21
239.3885145826
  0
LINE
  5
3BD
100
AcDbEntity
  8
KONSTRUKTIONSELEMENTE
100
AcDbLine
 62
7
  6
CONTINUOUS
 10
282.1771299929
 20
244.1520846275
 11
281.0771299929
 21
244.1520846275
  0
LINE
  5
3BE
100
AcDbEntity
  8
BEZUGSACHSEN
100
AcDbLine
 62
7
  6
CONTINUOUS
 10
248.3771299929
 20
271.0525410844
 11
260.3771299929
 21
264.1243378541
  0
LINE
  5
3BF
100
AcDbEntity
  8
KONSTRUKTIONSELEMENTE
100
AcDbLine
 62
7
  6
CONTINUOUS
 10
293.2167132116
 20
274.6404316168
 11
293.3369217742
 21
274.2458694822
  0
LINE
  5
3C0
100
AcDbEntity
  8
KONSTRUKTIONSELEMENTE
100
AcDbLine
 62
7
  6
CONTINUOUS
 10
293.2167132116
 20
274.9162076164
 11
293.3369217742
 21
274.5216454817
  0
LINE
  5
3C1
100
AcDbEntity
  8
0
100
AcDbLine
 62
7
  6
CONTINUOUS
 10
311.3521980118
 20
274.4143716835
 11
311.3521980118
 21
274.7212587796
  0
LINE
  5
3C2
100
AcDbEntity
  8
0
100
AcDbLine
 62
7
  6
CONTINUOUS
 10
311.3771299929
 20
302.6463896189
 11
311.3771299929
 21
311.8072324893
  0
LINE
  5
3C3
100
AcDbEntity
  8
0
100
AcDbLine
 62
7
  6
CONTINUOUS
 10
312.2152937009
 20
258.649607409
 11
312.7366555511
 21
274.2555697537
  0
LINE
  5
3C4
100
AcDbEntity
  8
KONSTRUKTIONSELEMENTE
100
AcDbLine
 62
7
  6
CONTINUOUS
 10
292.2550467742
 20
273.6536086749
 11
291.1731717742
 21
275.4685947154
  0
LINE
  5
3C5
100
AcDbEntity
  8
KONSTRUKTIONSELEMENTE
100
AcDbLine
 62
7
  6
CONTINUOUS
 10
290.6339850945
 20
274.7212587796
 11
291.4135882116
 21
273.3778326754
  0
LINE
  5
3C6
100
AcDbEntity
  8
KONSTRUKTIONSELEMENTE
100
AcDbLine
 62
7
  6
CONTINUOUS
 10
290.4519216023
 20
275.3107698615
 11
291.4135882116
 21
273.6536086749
  0
LINE
  5
3C7
100
AcDbEntity
  8
KONSTRUKTIONSELEMENTE
100
AcDbLine
 62
7
  6
CONTINUOUS
 10
292.1348382116
 20
276.4944564866
 11
292.0146299929
 21
276.7311937674
  0
LINE
  5
3C8
100
AcDbEntity
  8
KONSTRUKTIONSELEMENTE
100
AcDbLine
 62
7
  6
CONTINUOUS
 10
294.0581714303
 20
274.6005579086
 11
293.9379635555
 21
274.9162076164
  0
LINE
  5
3C9
100
AcDbEntity
  8
BEZUGSACHSEN
100
AcDbLine
 62
7
  6
CONTINUOUS
 10
318.3771299929
 20
284.9089475449
 11
318.3771299929
 21
271.0525410844
  0
LINE
  5
3CA
100
AcDbEntity
  8
BEZUGSACHSEN
100
AcDbLine
 62
7
  6
CONTINUOUS
 10
318.3771299929
 20
194.9089475449
 11
318.3771299929
 21
181.0525410844
  0
LINE
  5
3CB
100
AcDbEntity
  8
AUSFORMSCHRAEGEN
100
AcDbLine
 62
7
  6
CONTINUOUS
 10
295.3771299929
 20
257.3407443147
 11
287.8412172885
 21
256.6814373837
  0
LINE
  5
3CC
100
AcDbEntity
  8
0
100
AcDbLine
 62
7
  6
CONTINUOUS
 10
302.9130426973
 20
256.6814373837
 11
295.3771299929
 21
257.3407443147
  0
LINE
  5
3CD
100
AcDbEntity
  8
KONSTRUKTIONSELEMENTE
100
AcDbLine
 62
7
  6
CONTINUOUS
 10
293.3369217742
 20
274.2458694822
 11
293.5773385555
 21
273.9302197192
  0
LINE
  5
3CE
100
AcDbEntity
  8
KONSTRUKTIONSELEMENTE
100
AcDbLine
 62
7
  6
CONTINUOUS
 10
293.3369217742
 20
274.5216454817
 11
293.5773385555
 21
274.2059957187
  0
LINE
  5
3CF
100
AcDbEntity
  8
0
100
AcDbLine
 62
7
  6
CONTINUOUS
 10
305.2583328693
 20
254.5411861477
 11
305.0810098633
 21
254.7764548209
  0
LINE
  5
3D0
100
AcDbEntity
  8
0
100
AcDbLine
 62
7
  6
CONTINUOUS
 10
306.1117531756
 20
254.6372078806
 11
304.8149767151
 21
256.424765573
  0
LINE
  5
3D1
100
AcDbEntity
  8
0
100
AcDbLine
 62
7
  6
CONTINUOUS
 10
305.2583328693
 20
254.5411861477
 11
307.6598993893
 21
251.1243671291
  0
LINE
  5
3D2
100
AcDbEntity
  8
KONSTRUKTIONSELEMENTE
100
AcDbLine
 62
7
  6
CONTINUOUS
 10
302.4727549929
 20
276.4155438386
 11
302.5929628677
 21
276.0998941309
  0
LINE
  5
3D3
100
AcDbEntity
  8
KONSTRUKTIONSELEMENTE
100
AcDbLine
 62
7
  6
CONTINUOUS
 10
303.3142128677
 20
276.0998941309
 11
303.1940049929
 21
276.4944564866
  0
LINE
  5
3D4
100
AcDbEntity
  8
0
100
AcDbLine
 62
7
  6
CONTINUOUS
 10
310.8445538107
 20
298.4497831705
 11
311.8771299929
 21
289.4086204115
  0
LINE
  5
3D5
100
AcDbEntity
  8
BEZUGSACHSEN
100
AcDbLine
 62
7
  6
CONTINUOUS
 10
260.3771299929
 20
174.1243378541
 11
272.3771299929
 21
181.0525410844
  0
LINE
  5
3D6
100
AcDbEntity
  8
0
100
AcDbLine
 62
7
  6
CONTINUOUS
 10
291.3771299929
 20
258.6515685375
 11
299.3771299929
 21
258.6515685375
  0
LINE
  5
3D7
100
AcDbEntity
  8
KONSTRUKTIONSELEMENTE
100
AcDbLine
 62
7
  6
CONTINUOUS
 10
292.0146299929
 20
276.7311937674
 11
291.6540049929
 21
277.0468434751
  0
LINE
  5
3D8
100
AcDbEntity
  8
KONSTRUKTIONSELEMENTE
100
AcDbLine
 62
7
  6
CONTINUOUS
 10
294.2985885555
 20
274.3638206278
 11
294.0581714303
 21
274.6005579086
  0
LINE
  5
3D9
100
AcDbEntity
  8
KONSTRUKTIONSELEMENTE
100
AcDbLine
 62
7
  6
CONTINUOUS
 10
303.1940049929
 20
276.4944564866
 11
302.9535878677
 21
276.8101061943
  0
LINE
  5
3DA
100
AcDbEntity
  8
BEZUGSACHSEN
100
AcDbLine
 62
2
  6
CENTER
 10
330.3771299929
 20
277.9807443147
 11
330.3771299929
 21
257.9807443147
  0
LINE
  5
3DB
100
AcDbEntity
  8
BEZUGSACHSEN
100
AcDbLine
 62
2
  6
CENTER
 10
330.3771299929
 20
187.9807443147
 11
330.3771299929
 21
167.9807443147
  0
LINE
  5
3DC
100
AcDbEntity
  8
BEZUGSACHSEN
100
AcDbLine
 62
2
  6
CENTER
 10
330.3771299929
 20
187.9807443147
 11
330.3771299929
 21
207.9807443147
  0
LINE
  5
3DD
100
AcDbEntity
  8
BEZUGSACHSEN
100
AcDbLine
 62
2
  6
CENTER
 10
330.3771299929
 20
277.9807443147
 11
330.3771299929
 21
297.9807443147
  0
LINE
  5
3DE
100
AcDbEntity
  8
KONSTRUKTIONSELEMENTE
100
AcDbLine
 62
7
  6
CONTINUOUS
 10
294.0581714303
 20
273.6145699838
 11
294.5390049929
 21
273.4567451092
  0
LINE
  5
3DF
100
AcDbEntity
  8
KONSTRUKTIONSELEMENTE
100
AcDbLine
 62
7
  6
CONTINUOUS
 10
294.0581714303
 20
273.8903459833
 11
294.5390049929
 21
273.7325211088
  0
LINE
  5
3E0
100
AcDbEntity
  8
KONSTRUKTIONSELEMENTE
100
AcDbLine
 62
7
  6
CONTINUOUS
 10
294.6592135555
 20
274.2059957187
 11
294.2985885555
 21
274.3638206278
  0
LINE
  5
3E1
100
AcDbEntity
  8
KONSTRUKTIONSELEMENTE
100
AcDbLine
 62
7
  6
CONTINUOUS
 10
291.6540049929
 20
277.0468434751
 11
291.1731717742
 21
277.2835807559
  0
LINE
  5
3E2
100
AcDbEntity
  8
BEZUGSACHSEN
100
AcDbLine
 62
7
  6
CONTINUOUS
 10
272.3771299929
 20
284.9089475449
 11
260.3771299929
 21
291.8371507752
  0
LINE
  5
3E3
100
AcDbEntity
  8
KONSTRUKTIONSELEMENTE
100
AcDbLine
 62
7
  6
CONTINUOUS
 10
293.5773385555
 20
273.9302197192
 11
294.0581714303
 21
273.6145699838
  0
LINE
  5
3E4
100
AcDbEntity
  8
KONSTRUKTIONSELEMENTE
100
AcDbLine
 62
7
  6
CONTINUOUS
 10
293.5773385555
 20
274.2059957187
 11
294.0581714303
 21
273.8903459833
  0
LINE
  5
3E5
100
AcDbEntity
  8
KONSTRUKTIONSELEMENTE
100
AcDbLine
 62
7
  6
CONTINUOUS
 10
291.0529632116
 20
276.8890186212
 11
291.2933799929
 21
276.7311937674
  0
LINE
  5
3E6
100
AcDbEntity
  8
KONSTRUKTIONSELEMENTE
100
AcDbLine
 62
7
  6
CONTINUOUS
 10
302.2323378677
 20
276.6522813404
 11
302.4727549929
 21
276.4155438386
  0
LINE
  5
3E7
100
AcDbEntity
  8
BEZUGSACHSEN
100
AcDbLine
 62
7
  6
CONTINUOUS
 10
342.3771299929
 20
181.0525410844
 11
342.3771299929
 21
194.9089475449
  0
LINE
  5
3E8
100
AcDbEntity
  8
BEZUGSACHSEN
100
AcDbLine
 62
7
  6
CONTINUOUS
 10
342.3771299929
 20
271.0525410844
 11
342.3771299929
 21
284.9089475449
  0
LINE
  5
3E9
100
AcDbEntity
  8
BEZUGSACHSEN
100
AcDbLine
 62
7
  6
CONTINUOUS
 10
330.3771299929
 20
201.8371507752
 11
318.3771299929
 21
194.9089475449
  0
LINE
  5
3EA
100
AcDbEntity
  8
KONSTRUKTIONSELEMENTE
100
AcDbLine
 62
7
  6
CONTINUOUS
 10
291.0529632116
 20
275.8631568501
 11
290.6923382116
 21
275.7842444231
  0
LINE
  5
3EB
100
AcDbEntity
  8
KONSTRUKTIONSELEMENTE
100
AcDbLine
 62
7
  6
CONTINUOUS
 10
301.8717128677
 20
274.2059957187
 11
301.3908799929
 21
274.1270832918
  0
LINE
  5
3EC
100
AcDbEntity
  8
KONSTRUKTIONSELEMENTE
100
AcDbLine
 62
7
  6
CONTINUOUS
 10
296.1017135555
 20
274.2059957187
 11
295.6208799929
 21
274.1270832918
  0
LINE
  5
3ED
100
AcDbEntity
  8
KONSTRUKTIONSELEMENTE
100
AcDbLine
 62
7
  6
CONTINUOUS
 10
301.3908799929
 20
273.3778326754
 11
301.9919221181
 21
273.4567451092
  0
LINE
  5
3EE
100
AcDbEntity
  8
KONSTRUKTIONSELEMENTE
100
AcDbLine
 62
7
  6
CONTINUOUS
 10
301.3908799929
 20
273.6536086749
 11
301.9919221181
 21
273.7325211088
  0
LINE
  5
3EF
100
AcDbEntity
  8
KONSTRUKTIONSELEMENTE
100
AcDbLine
 62
7
  6
CONTINUOUS
 10
295.6208799929
 20
273.3778326754
 11
296.2219214303
 21
273.4567451092
  0
LINE
  5
3F0
100
AcDbEntity
  8
KONSTRUKTIONSELEMENTE
100
AcDbLine
 62
7
  6
CONTINUOUS
 10
295.6208799929
 20
273.6536086749
 11
296.2219214303
 21
273.7325211088
  0
LINE
  5
3F1
100
AcDbEntity
  8
KONSTRUKTIONSELEMENTE
100
AcDbLine
 62
7
  6
CONTINUOUS
 10
287.6871299929
 20
273.3778326754
 11
288.4083799929
 21
273.3778326754
  0
LINE
  5
3F2
100
AcDbEntity
  8
KONSTRUKTIONSELEMENTE
100
AcDbLine
 62
7
  6
CONTINUOUS
 10
291.4135882116
 20
273.3778326754
 11
292.2550467742
 21
273.3778326754
  0
LINE
  5
3F3
100
AcDbEntity
  8
KONSTRUKTIONSELEMENTE
100
AcDbLine
 62
7
  6
CONTINUOUS
 10
295.1400464303
 20
273.3778326754
 11
295.6208799929
 21
273.3778326754
  0
LINE
  5
3F4
100
AcDbEntity
  8
KONSTRUKTIONSELEMENTE
100
AcDbLine
 62
7
  6
CONTINUOUS
 10
298.5058799929
 20
273.3778326754
 11
301.3908799929
 21
273.3778326754
  0
LINE
  5
3F5
100
AcDbEntity
  8
KONSTRUKTIONSELEMENTE
100
AcDbLine
 62
7
  6
CONTINUOUS
 10
287.6871299929
 20
273.6536086749
 11
288.4083799929
 21
273.6536086749
  0
LINE
  5
3F6
100
AcDbEntity
  8
KONSTRUKTIONSELEMENTE
100
AcDbLine
 62
7
  6
CONTINUOUS
 10
291.4135882116
 20
273.6536086749
 11
292.2550467742
 21
273.6536086749
  0
LINE
  5
3F7
100
AcDbEntity
  8
KONSTRUKTIONSELEMENTE
100
AcDbLine
 62
7
  6
CONTINUOUS
 10
295.1400464303
 20
273.6536086749
 11
295.6208799929
 21
273.6536086749
  0
LINE
  5
3F8
100
AcDbEntity
  8
KONSTRUKTIONSELEMENTE
100
AcDbLine
 62
7
  6
CONTINUOUS
 10
298.5058799929
 20
273.6536086749
 11
301.3908799929
 21
273.6536086749
  0
LINE
  5
3F9
100
AcDbEntity
  8
KONSTRUKTIONSELEMENTE
100
AcDbLine
 62
7
  6
CONTINUOUS
 10
301.3908799929
 20
274.1270832918
 11
299.2271299929
 21
274.1270832918
  0
LINE
  5
3FA
100
AcDbEntity
  8
KONSTRUKTIONSELEMENTE
100
AcDbLine
 62
7
  6
CONTINUOUS
 10
295.6208799929
 20
274.1270832918
 11
295.1400464303
 21
274.1270832918
  0
LINE
  5
3FB
100
AcDbEntity
  8
KONSTRUKTIONSELEMENTE
100
AcDbLine
 62
7
  6
CONTINUOUS
 10
288.4083799929
 20
275.0380356058
 11
290.4519216023
 21
275.0380356058
  0
LINE
  5
3FC
100
AcDbEntity
  8
KONSTRUKTIONSELEMENTE
100
AcDbLine
 62
7
  6
CONTINUOUS
 10
288.4083799929
 20
275.3107698615
 11
290.4519216023
 21
275.3107698615
  0
LINE
  5
3FD
100
AcDbEntity
  8
KONSTRUKTIONSELEMENTE
100
AcDbLine
 62
7
  6
CONTINUOUS
 10
290.6923382116
 20
275.7842444231
 11
288.4083799929
 21
275.7842444231
  0
LINE
  5
3FE
100
AcDbEntity
  8
KONSTRUKTIONSELEMENTE
100
AcDbLine
 62
7
  6
CONTINUOUS
 10
299.2271299929
 20
276.7241221882
 11
301.3908799929
 21
276.7241221882
  0
LINE
  5
3FF
100
AcDbEntity
  8
KONSTRUKTIONSELEMENTE
100
AcDbLine
 62
7
  6
CONTINUOUS
 10
288.4083799929
 20
276.8125016655
 11
290.6923382116
 21
276.8125016655
  0
LINE
  5
400
100
AcDbEntity
  8
KONSTRUKTIONSELEMENTE
100
AcDbLine
 62
7
  6
CONTINUOUS
 10
299.2271299929
 20
276.8890186212
 11
301.3908799929
 21
276.8890186212
  0
LINE
  5
401
100
AcDbEntity
  8
KONSTRUKTIONSELEMENTE
100
AcDbLine
 62
7
  6
CONTINUOUS
 10
288.4083799929
 20
276.9679310482
 11
290.6923382116
 21
276.9679310482
  0
LINE
  5
402
100
AcDbEntity
  8
KONSTRUKTIONSELEMENTE
100
AcDbLine
 62
7
  6
CONTINUOUS
 10
301.3908799929
 20
277.3624931828
 11
298.5058799929
 21
277.3624931828
  0
LINE
  5
403
100
AcDbEntity
  8
KONSTRUKTIONSELEMENTE
100
AcDbLine
 62
7
  6
CONTINUOUS
 10
297.5442135555
 20
277.3624931828
 11
296.8229635555
 21
277.3624931828
  0
LINE
  5
404
100
AcDbEntity
  8
KONSTRUKTIONSELEMENTE
100
AcDbLine
 62
7
  6
CONTINUOUS
 10
293.9379635555
 20
277.3624931828
 11
293.2167132116
 21
277.3624931828
  0
LINE
  5
405
100
AcDbEntity
  8
KONSTRUKTIONSELEMENTE
100
AcDbLine
 62
7
  6
CONTINUOUS
 10
290.5721299929
 20
277.3624931828
 11
287.6871299929
 21
277.3624931828
  0
LINE
  5
406
100
AcDbEntity
  8
KONSTRUKTIONSELEMENTE
100
AcDbLine
 62
7
  6
CONTINUOUS
 10
294.5390049929
 20
273.4567451092
 11
295.1400464303
 21
273.3778326754
  0
LINE
  5
407
100
AcDbEntity
  8
KONSTRUKTIONSELEMENTE
100
AcDbLine
 62
7
  6
CONTINUOUS
 10
294.5390049929
 20
273.7325211088
 11
295.1400464303
 21
273.6536086749
  0
LINE
  5
408
100
AcDbEntity
  8
KONSTRUKTIONSELEMENTE
100
AcDbLine
 62
7
  6
CONTINUOUS
 10
291.1731717742
 20
277.2835807559
 11
290.5721299929
 21
277.3624931828
  0
LINE
  5
409
100
AcDbEntity
  8
KONSTRUKTIONSELEMENTE
100
AcDbLine
 62
7
  6
CONTINUOUS
 10
301.9919221181
 20
277.2835807559
 11
301.3908799929
 21
277.3624931828
  0
LINE
  5
40A
100
AcDbEntity
  8
KONSTRUKTIONSELEMENTE
100
AcDbLine
 62
7
  6
CONTINUOUS
 10
295.1400464303
 20
274.1270832918
 11
294.6592135555
 21
274.2059957187
  0
LINE
  5
40B
100
AcDbEntity
  8
KONSTRUKTIONSELEMENTE
100
AcDbLine
 62
7
  6
CONTINUOUS
 10
301.3908799929
 20
276.8890186212
 11
301.8717128677
 21
276.8101061943
  0
LINE
  5
40C
100
AcDbEntity
  8
KONSTRUKTIONSELEMENTE
100
AcDbLine
 62
7
  6
CONTINUOUS
 10
290.6923382116
 20
276.9679310482
 11
291.0529632116
 21
276.8890186212
  0
LINE
  5
40D
100
AcDbEntity
  8
KONSTRUKTIONSELEMENTE
100
AcDbLine
 62
7
  6
CONTINUOUS
 10
302.4727549929
 20
277.125755902
 11
301.9919221181
 21
277.2835807559
  0
LINE
  5
40E
100
AcDbEntity
  8
KONSTRUKTIONSELEMENTE
100
AcDbLine
 62
7
  6
CONTINUOUS
 10
301.8717128677
 20
276.8101061943
 11
302.2323378677
 21
276.6522813404
  0
LINE
  5
40F
100
AcDbEntity
  8
BEZUGSACHSEN
100
AcDbLine
 62
7
  6
CONTINUOUS
 10
318.3771299929
 20
271.0525410844
 11
330.3771299929
 21
264.1243378541
  0
LINE
  5
410
100
AcDbEntity
  8
KONSTRUKTIONSELEMENTE
100
AcDbLine
 62
7
  6
CONTINUOUS
 10
302.9535878677
 20
276.8101061943
 11
302.4727549929
 21
277.125755902
  0
LINE
  5
411
100
AcDbEntity
  8
BEZUGSACHSEN
100
AcDbLine
 62
7
  6
CONTINUOUS
 10
347.3771299929
 20
297.600364318
 11
347.3771299929
 21
167.366109507
  0
LINE
  5
412
100
AcDbEntity
  8
BEZUGSACHSEN
100
AcDbLine
 62
2
  6
CENTER
 10
330.3771299929
 20
277.9807443147
 11
310.3771299929
 21
277.9807443147
  0
LINE
  5
413
100
AcDbEntity
  8
BEZUGSACHSEN
100
AcDbLine
 62
2
  6
CENTER
 10
260.3771299929
 20
277.9807443147
 11
240.3771299929
 21
277.9807443147
  0
LINE
  5
414
100
AcDbEntity
  8
BEZUGSACHSEN
100
AcDbLine
 62
2
  6
CENTER
 10
260.3771299929
 20
277.9807443147
 11
280.3771299929
 21
277.9807443147
  0
LINE
  5
415
100
AcDbEntity
  8
BEZUGSACHSEN
100
AcDbLine
 62
2
  6
CENTER
 10
330.3771299929
 20
277.9807443147
 11
350.3771299929
 21
277.9807443147
  0
LINE
  5
416
100
AcDbEntity
  8
0
100
AcDbLine
 62
7
  6
CONTINUOUS
 10
303.3771299929
 20
278.1632029346
 11
287.3771299929
 21
278.1632029346
  0
LINE
  5
417
100
AcDbEntity
  8
KONSTRUKTIONSELEMENTE
100
AcDbLine
 62
7
  6
CONTINUOUS
 10
287.3771299929
 20
278.9807443147
 11
288.3771299929
 21
278.9807443147
  0
LINE
  5
418
100
AcDbEntity
  8
KONSTRUKTIONSELEMENTE
100
AcDbLine
 62
7
  6
CONTINUOUS
 10
302.3771299929
 20
278.9807443147
 11
303.3771299929
 21
278.9807443147
  0
LINE
  5
419
100
AcDbEntity
  8
KONSTRUKTIONSELEMENTE
100
AcDbLine
 62
7
  6
CONTINUOUS
 10
287.3771299929
 20
286.9807443147
 11
288.3771299929
 21
286.9807443147
  0
LINE
  5
41A
100
AcDbEntity
  8
KONSTRUKTIONSELEMENTE
100
AcDbLine
 62
7
  6
CONTINUOUS
 10
302.3771299929
 20
286.9807443147
 11
303.3771299929
 21
286.9807443147
  0
LINE
  5
41B
100
AcDbEntity
  8
BEZUGSACHSEN
100
AcDbLine
 62
7
  6
CONTINUOUS
 10
330.3771299929
 20
174.1243378541
 11
342.3771299929
 21
181.0525410844
  0
LINE
  5
41C
100
AcDbEntity
  8
0
100
AcDbLine
 62
7
  6
CONTINUOUS
 10
303.3771299929
 20
294.9151035134
 11
287.3771299929
 21
294.9151035134
  0
LINE
  5
41D
100
AcDbEntity
  8
0
100
AcDbLine
 62
7
  6
CONTINUOUS
 10
287.3771299929
 20
295.9768331324
 11
303.3771299929
 21
295.9768331324
  0
LINE
  5
41E
100
AcDbEntity
  8
0
100
AcDbLine
 62
7
  6
CONTINUOUS
 10
313.5827793456
 20
292.4867208633
 11
311.4330107187
 21
293.2972968225
  0
LWPOLYLINE
  5
41F
100
AcDbEntity
  8
0
100
AcDbPolyline
 62
7
  6
CONTINUOUS
 90
7
 70
0
 10
295.3771299929
 20
300.7712473109
 10
297.7118701231
 20
301.0549700955
 10
300.3807651997
 20
301.3748006226
 10
303.1097058796
 20
301.6970725243
 10
305.8986990916
 20
302.0216809561
 10
308.7477507532
 20
302.3485290541
 10
311.3771299929
 20
302.6460891815
  0
LINE
  5
420
100
AcDbEntity
  8
KONSTRUKTIONSELEMENTE
100
AcDbLine
 62
7
  6
CONTINUOUS
 10
310.6445760265
 20
299.5214203415
 11
280.1440957994
 21
299.5214203415
  0
LWPOLYLINE
  5
421
100
AcDbEntity
  8
KONSTRUKTIONSELEMENTE
100
AcDbPolyline
 62
7
  6
CONTINUOUS
 90
7
 70
0
 10
279.3771299929
 20
302.6460891815
 10
282.0065092326
 20
302.3485290541
 10
284.8555608942
 20
302.0216809561
 10
287.6445541062
 20
301.6970725243
 10
290.3734947861
 20
301.3748006226
 10
293.0423898628
 20
301.0549700955
 10
295.3771299929
 20
300.7712473109
  0
LINE
  5
422
100
AcDbEntity
  8
BEZUGSACHSEN
100
AcDbLine
 62
7
  6
CONTINUOUS
 10
342.3771299929
 20
284.9089475449
 11
330.3771299929
 21
291.8371507752
  0
LINE
  5
423
100
AcDbEntity
  8
0
100
AcDbLine
 62
7
  6
CONTINUOUS
 10
295.3771299929
 20
314.9807443147
 11
256.1569495944
 21
311.5494231484
  0
LINE
  5
424
100
AcDbEntity
  8
0
100
AcDbLine
 62
7
  6
CONTINUOUS
 10
295.3771299929
 20
314.9807443147
 11
334.5973103914
 21
311.5494231484
  0
LINE
  5
425
100
AcDbEntity
  8
0
100
AcDbLine
 62
7
  6
CONTINUOUS
 10
42.9371542959
 20
59.3674895618
 11
42.1392576845
 21
68.4874895618
  0
LINE
  5
426
100
AcDbEntity
  8
KONSTRUKTIONSELEMENTE
100
AcDbLine
 62
7
  6
CONTINUOUS
 10
42.1392576845
 20
68.4874895618
 11
42.9371542959
 21
77.6074895618
  0
LINE
  5
427
100
AcDbEntity
  8
0
100
AcDbLine
 62
7
  6
CONTINUOUS
 10
150.3512637978
 20
16.4874895618
 11
151.0351070743
 21
16.4874895618
  0
LINE
  5
428
100
AcDbEntity
  8
KONSTRUKTIONSELEMENTE
100
AcDbLine
 62
7
  6
CONTINUOUS
 10
151.0351070743
 20
16.4874895618
 11
160.8886270173
 21
16.4874895618
  0
LINE
  5
429
100
AcDbEntity
  8
BEZUGSACHSEN
100
AcDbLine
 62
7
  6
CONTINUOUS
 10
140.3886270173
 20
21.4874895618
 11
149.8886270173
 21
21.4874895618
  0
LINE
  5
42A
100
AcDbEntity
  8
BEZUGSACHSEN
100
AcDbLine
 62
7
  6
CONTINUOUS
 10
149.9317029261
 20
22.4874895618
 11
149.8886270173
 21
22.4874895618
  0
LINE
  5
42B
100
AcDbEntity
  8
BEZUGSACHSEN
100
AcDbLine
 62
7
  6
CONTINUOUS
 10
184.1886270173
 20
25.4874895618
 11
160.8886270173
 21
25.4874895618
  0
LINE
  5
42C
100
AcDbEntity
  8
0
100
AcDbLine
 62
2
  6
CONTINUOUS
 10
160.8886270173
 20
26.7144895618
 11
185.3886270173
 21
26.7144895618
  0
LINE
  5
42D
100
AcDbEntity
  8
KONSTRUKTIONSELEMENTE
100
AcDbLine
 62
7
  6
CONTINUOUS
 10
77.687652677
 20
81.6874895618
 11
77.687652677
 21
82.7874895618
  0
LINE
  5
42E
100
AcDbEntity
  8
BEZUGSACHSEN
100
AcDbLine
 62
7
  6
CONTINUOUS
 10
149.1625079947
 20
33.4874895618
 11
141.4604237871
 21
33.4874895618
  0
LINE
  5
42F
100
AcDbEntity
  8
BEZUGSACHSEN
100
AcDbLine
 62
2
  6
CENTER
 10
149.1625079947
 20
33.4874895618
 11
188.3886270173
 21
33.4874895618
  0
LINE
  5
430
100
AcDbEntity
  8
KONSTRUKTIONSELEMENTE
100
AcDbLine
 62
7
  6
CONTINUOUS
 10
81.4141414554
 20
81.6156360868
 11
81.4141414554
 21
82.7874895618
  0
LINE
  5
431
100
AcDbEntity
  8
KONSTRUKTIONSELEMENTE
100
AcDbLine
 62
7
  6
CONTINUOUS
 10
83.2302342203
 20
81.6874895618
 11
83.2302342203
 21
82.7874895618
  0
LINE
  5
432
100
AcDbEntity
  8
KONSTRUKTIONSELEMENTE
100
AcDbLine
 62
7
  6
CONTINUOUS
 10
63.9867552942
 20
80.4015506059
 11
59.5742933489
 21
78.4627715958
  0
LINE
  5
433
100
AcDbEntity
  8
0
100
AcDbLine
 62
7
  6
CONTINUOUS
 10
63.9867552942
 20
56.5734285178
 11
59.5742933489
 21
58.5122075279
  0
LINE
  5
434
100
AcDbEntity
  8
KONSTRUKTIONSELEMENTE
100
AcDbLine
 62
7
  6
CONTINUOUS
 10
85.0772186463
 20
81.551555804
 11
85.0772186463
 21
82.7874895618
  0
LINE
  5
435
100
AcDbEntity
  8
KONSTRUKTIONSELEMENTE
100
AcDbLine
 62
7
  6
CONTINUOUS
 10
86.0246270173
 20
81.3075981954
 11
86.0246270173
 21
82.7874895618
  0
LINE
  5
436
100
AcDbEntity
  8
KONSTRUKTIONSELEMENTE
100
AcDbLine
 62
7
  6
CONTINUOUS
 10
88.9337753736
 20
78.5190852901
 11
88.9337753736
 21
77.9521953225
  0
LINE
  5
437
100
AcDbEntity
  8
0
100
AcDbLine
 62
7
  6
CONTINUOUS
 10
88.9337753736
 20
58.4558938336
 11
88.9337753736
 21
59.0227838012
  0
LINE
  5
438
100
AcDbEntity
  8
0
100
AcDbLine
 62
2
  6
CONTINUOUS
 10
160.8886270173
 20
40.2604895618
 11
185.3886270173
 21
40.2604895618
  0
LINE
  5
439
100
AcDbEntity
  8
BEZUGSACHSEN
100
AcDbLine
 62
7
  6
CONTINUOUS
 10
184.1886270173
 20
41.4874895618
 11
160.8886270173
 21
41.4874895618
  0
LINE
  5
43A
100
AcDbEntity
  8
BEZUGSACHSEN
100
AcDbLine
 62
7
  6
CONTINUOUS
 10
146.0134789484
 20
45.4874895618
 11
140.3886270173
 21
45.4874895618
  0
LINE
  5
43B
100
AcDbEntity
  8
0
100
AcDbLine
 62
7
  6
CONTINUOUS
 10
95.0621309186
 20
70.9874895618
 11
95.0621309186
 21
65.9874895618
  0
LINE
  5
43C
100
AcDbEntity
  8
0
100
AcDbLine
 62
7
  6
CONTINUOUS
 10
95.4319014189
 20
72.4874895618
 11
95.4319014189
 21
64.4874895618
  0
LINE
  5
43D
100
AcDbEntity
  8
AUSFORMSCHRAEGEN
100
AcDbLine
 62
7
  6
CONTINUOUS
 10
98.2553074023
 20
82.839209496
 11
89.8669554393
 21
80.3111529823
  0
LINE
  5
43E
100
AcDbEntity
  8
KONSTRUKTIONSELEMENTE
100
AcDbLine
 62
7
  6
CONTINUOUS
 10
89.8253418893
 20
79.9868172968
 11
89.9530988395
 21
80.0253203057
  0
LINE
  5
43F
100
AcDbEntity
  8
0
100
AcDbLine
 62
7
  6
CONTINUOUS
 10
105.5357054789
 20
52.315997319
 11
109.85019948
 21
51.7216993578
  0
LINE
  5
440
100
AcDbEntity
  8
0
100
AcDbLine
 62
7
  6
CONTINUOUS
 10
98.2553074023
 20
54.1357696277
 11
89.8669554393
 21
56.6638261414
  0
LINE
  5
441
100
AcDbEntity
  8
0
100
AcDbLine
 62
7
  6
CONTINUOUS
 10
89.8253418893
 20
56.9881618269
 11
89.9530988395
 21
56.949658818
  0
LINE
  5
442
100
AcDbEntity
  8
BEZUGSACHSEN
100
AcDbLine
 62
2
  6
CENTER
 10
101.8886270173
 20
57.7657752372
 11
101.8886270173
 21
66.8236639999
  0
LWPOLYLINE
  5
443
100
AcDbEntity
  8
0
100
AcDbPolyline
 62
7
  6
CONTINUOUS
 90
11
 70
0
 10
83.671997895
 20
55.2874942804
 10
84.077298996
 20
55.298443007
 10
84.6348771618
 20
55.34920221
 10
85.1867056965
 20
55.4408205679
 10
85.7316933517
 20
55.573070689
 10
86.2680651444
 20
55.7457558757
 10
86.7938634955
 20
55.9586391105
 10
87.3072054193
 20
56.2115615733
 10
87.8060490253
 20
56.5043136723
 10
88.2889406108
 20
56.8370471644
 10
88.55941481
 20
57.0471280732
  0
LINE
  5
444
100
AcDbEntity
  8
0
100
AcDbLine
 62
7
  6
CONTINUOUS
 10
124.2884456338
 20
52.4874895618
 11
130.8098516347
 21
52.4874895618
  0
LINE
  5
445
100
AcDbEntity
  8
0
100
AcDbLine
 62
7
  6
CONTINUOUS
 10
114.2172786975
 20
52.512421543
 11
114.5830124968
 21
52.512421543
  0
LINE
  5
446
100
AcDbEntity
  8
0
100
AcDbLine
 62
7
  6
CONTINUOUS
 10
69.9508284741
 20
55.2874895618
 11
83.6709129081
 21
55.2874895618
  0
LINE
  5
447
100
AcDbEntity
  8
0
100
AcDbLine
 62
7
  6
CONTINUOUS
 10
90.4520583773
 20
56.4874895618
 11
87.7773810842
 21
56.4874895618
  0
LINE
  5
448
100
AcDbEntity
  8
0
100
AcDbLine
 62
7
  6
CONTINUOUS
 10
110.7771358468
 20
51.6493258538
 11
138.6464564127
 21
51.1279640036
  0
LINE
  5
449
100
AcDbEntity
  8
0
100
AcDbLine
 62
7
  6
CONTINUOUS
 10
133.834635112
 20
53.0200657441
 11
141.4210714485
 21
51.9874895618
  0
LWPOLYLINE
  5
44A
100
AcDbEntity
  8
0
100
AcDbPolyline
 62
7
  6
CONTINUOUS
 90
3
 70
0
 10
88.5604748318
 20
57.0479837177
 10
88.977819924
 20
57.3892827564
 10
89.1674642251
 20
57.5473214732
  0
LINE
  5
44B
100
AcDbEntity
  8
0
100
AcDbLine
 62
7
  6
CONTINUOUS
 10
79.4491924099
 20
58.6062866854
 11
75.1831972812
 21
56.2047201655
  0
LINE
  5
44C
100
AcDbEntity
  8
0
100
AcDbLine
 62
7
  6
CONTINUOUS
 10
79.4491924099
 20
58.6062866854
 11
79.793652256
 21
58.7836096914
  0
LINE
  5
44D
100
AcDbEntity
  8
KONSTRUKTIONSELEMENTE
100
AcDbLine
 62
7
  6
CONTINUOUS
 10
115.6659455518
 20
60.5504066871
 11
116.1361666568
 21
60.6706145618
  0
LINE
  5
44E
100
AcDbEntity
  8
0
100
AcDbLine
 62
7
  6
CONTINUOUS
 10
105.5662162026
 20
57.4774670308
 11
105.6546669362
 21
57.4842407952
  0
LINE
  5
44F
100
AcDbEntity
  8
0
100
AcDbLine
 62
7
  6
CONTINUOUS
 10
53.4524930106
 20
59.3722968729
 11
53.596564079
 21
59.380960882
  0
LINE
  5
450
100
AcDbEntity
  8
0
100
AcDbLine
 62
7
  6
CONTINUOUS
 10
109.2767269397
 20
57.4813470996
 11
109.3316802632
 21
57.4842407952
  0
LINE
  5
451
100
AcDbEntity
  8
0
100
AcDbLine
 62
7
  6
CONTINUOUS
 10
101.1542583213
 20
57.4869684901
 11
101.174546999
 21
57.4874400208
  0
LWPOLYLINE
  5
452
100
AcDbEntity
  8
0
100
AcDbPolyline
 62
7
  6
CONTINUOUS
 90
3
 70
0
 10
53.2421951178
 20
59.3674897837
 10
53.3077998689
 20
59.3679635846
 10
53.4524930106
 20
59.3722968729
  0
LINE
  5
453
100
AcDbEntity
  8
0
100
AcDbLine
 62
7
  6
CONTINUOUS
 10
112.201663397
 20
57.4874208024
 11
112.2055869799
 21
57.4874400208
  0
LINE
  5
454
100
AcDbEntity
  8
0
100
AcDbLine
 62
7
  6
CONTINUOUS
 10
57.430486905
 20
59.3674895618
 11
47.4053587461
 21
59.3674895618
  0
LINE
  5
455
100
AcDbEntity
  8
0
100
AcDbLine
 62
7
  6
CONTINUOUS
 10
42.9372658261
 20
59.3674895618
 11
47.2029222921
 21
59.3674895618
  0
LINE
  5
456
100
AcDbEntity
  8
0
100
AcDbLine
 62
7
  6
CONTINUOUS
 10
118.0636604321
 20
60.4874895618
 11
123.5885363255
 21
60.4874895618
  0
LINE
  5
457
100
AcDbEntity
  8
KONSTRUKTIONSELEMENTE
100
AcDbLine
 62
7
  6
CONTINUOUS
 10
114.2552828957
 20
60.5504066871
 11
115.8657861783
 21
60.5504066871
  0
LINE
  5
458
100
AcDbEntity
  8
KONSTRUKTIONSELEMENTE
100
AcDbLine
 62
7
  6
CONTINUOUS
 10
116.3093430271
 20
60.6706145618
 11
116.1361666568
 21
60.6706145618
  0
LINE
  5
459
100
AcDbEntity
  8
KONSTRUKTIONSELEMENTE
100
AcDbLine
 62
7
  6
CONTINUOUS
 10
116.6583240183
 20
60.9110316871
 11
116.51234333
 21
60.9110316871
  0
LINE
  5
45A
100
AcDbEntity
  8
KONSTRUKTIONSELEMENTE
100
AcDbLine
 62
7
  6
CONTINUOUS
 10
115.6659455518
 20
61.2716566871
 11
114.2552828957
 21
61.2716566871
  0
LINE
  5
45B
100
AcDbEntity
  8
KONSTRUKTIONSELEMENTE
100
AcDbLine
 62
7
  6
CONTINUOUS
 10
117.0020685584
 20
61.3918645618
 11
116.8885200031
 21
61.3918645618
  0
LINE
  5
45C
100
AcDbEntity
  8
KONSTRUKTIONSELEMENTE
100
AcDbLine
 62
7
  6
CONTINUOUS
 10
114.110509762
 20
61.3918645618
 11
113.8791062225
 21
61.3918645618
  0
LINE
  5
45D
100
AcDbEntity
  8
0
100
AcDbLine
 62
7
  6
CONTINUOUS
 10
123.501047662
 20
61.4874895618
 11
122.8730679231
 21
61.4874895618
  0
LINE
  5
45E
100
AcDbEntity
  8
KONSTRUKTIONSELEMENTE
100
AcDbLine
 62
7
  6
CONTINUOUS
 10
113.8283772571
 20
61.6322816871
 11
113.5969737176
 21
61.6322816871
  0
LINE
  5
45F
100
AcDbEntity
  8
KONSTRUKTIONSELEMENTE
100
AcDbLine
 62
7
  6
CONTINUOUS
 10
117.171969012
 20
61.8726974366
 11
117.0766083397
 21
61.8726974366
  0
LINE
  5
460
100
AcDbEntity
  8
KONSTRUKTIONSELEMENTE
100
AcDbLine
 62
7
  6
CONTINUOUS
 10
113.6402888547
 20
61.9929066871
 11
113.4088853152
 21
61.9929066871
  0
LINE
  5
461
100
AcDbEntity
  8
KONSTRUKTIONSELEMENTE
100
AcDbLine
 62
7
  6
CONTINUOUS
 10
117.2564246895
 20
62.4737395618
 11
117.170652508
 21
62.4737395618
  0
LINE
  5
462
100
AcDbEntity
  8
KONSTRUKTIONSELEMENTE
100
AcDbLine
 62
7
  6
CONTINUOUS
 10
113.5462446864
 20
62.4737395618
 11
113.3148411469
 21
62.4737395618
  0
LINE
  5
463
100
AcDbEntity
  8
0
100
AcDbLine
 62
7
  6
CONTINUOUS
 10
92.5346422094
 20
61.6741172085
 11
92.4394555193
 21
61.680185612
  0
LINE
  5
464
100
AcDbEntity
  8
KONSTRUKTIONSELEMENTE
100
AcDbLine
 62
7
  6
CONTINUOUS
 10
113.7850620542
 20
60.6706145618
 11
114.2552828957
 21
60.5504066871
  0
LINE
  5
465
100
AcDbEntity
  8
KONSTRUKTIONSELEMENTE
100
AcDbLine
 62
7
  6
CONTINUOUS
 10
114.2552828957
 20
61.2716566871
 11
113.8791062225
 21
61.3918645618
  0
LINE
  5
466
100
AcDbEntity
  8
KONSTRUKTIONSELEMENTE
100
AcDbLine
 62
7
  6
CONTINUOUS
 10
114.4866864352
 20
61.2716566871
 11
114.110509762
 21
61.3918645618
  0
LINE
  5
467
100
AcDbEntity
  8
KONSTRUKTIONSELEMENTE
100
AcDbLine
 62
7
  6
CONTINUOUS
 10
79.4491924099
 20
78.3686924382
 11
79.793652256
 21
78.1913694323
  0
LINE
  5
468
100
AcDbEntity
  8
KONSTRUKTIONSELEMENTE
100
AcDbLine
 62
7
  6
CONTINUOUS
 10
79.4491924099
 20
78.3686924382
 11
75.1831972812
 21
80.7702589582
  0
LINE
  5
469
100
AcDbEntity
  8
KONSTRUKTIONSELEMENTE
100
AcDbLine
 62
7
  6
CONTINUOUS
 10
113.4088853152
 20
60.9110316871
 11
113.7850620542
 21
60.6706145618
  0
LWPOLYLINE
  5
46A
100
AcDbEntity
  8
KONSTRUKTIONSELEMENTE
100
AcDbPolyline
 62
7
  6
CONTINUOUS
 90
8
 70
0
 10
88.5594147047
 20
79.9278511357
 10
88.2889479798
 20
80.1379264788
 10
87.806068402
 20
80.470653114
 10
87.3072436019
 20
80.7633969764
 10
86.793922506
 20
81.0163135744
 10
86.2681429159
 20
81.2291950284
 10
85.7317840231
 20
81.4018828739
 10
85.3446912101
 20
81.500171226
  0
LWPOLYLINE
  5
46B
100
AcDbEntity
  8
KONSTRUKTIONSELEMENTE
100
AcDbPolyline
 62
7
  6
CONTINUOUS
 90
3
 70
0
 10
89.1674642251
 20
79.4276576505
 10
88.977819924
 20
79.5856963673
 10
88.5604748318
 20
79.926995406
  0
LINE
  5
46C
100
AcDbEntity
  8
KONSTRUKTIONSELEMENTE
100
AcDbLine
 62
7
  6
CONTINUOUS
 10
113.8791062225
 20
61.3918645618
 11
113.5969737176
 21
61.6322816871
  0
LINE
  5
46D
100
AcDbEntity
  8
KONSTRUKTIONSELEMENTE
100
AcDbLine
 62
7
  6
CONTINUOUS
 10
114.110509762
 20
61.3918645618
 11
113.8283772571
 21
61.6322816871
  0
LINE
  5
46E
100
AcDbEntity
  8
KONSTRUKTIONSELEMENTE
100
AcDbLine
 62
7
  6
CONTINUOUS
 10
112.7505760712
 20
76.1774895618
 11
112.7505760712
 21
75.4562395618
  0
LINE
  5
46F
100
AcDbEntity
  8
KONSTRUKTIONSELEMENTE
100
AcDbLine
 62
7
  6
CONTINUOUS
 10
112.7505760712
 20
72.4510313431
 11
112.7505760712
 21
71.6095727805
  0
LINE
  5
470
100
AcDbEntity
  8
KONSTRUKTIONSELEMENTE
100
AcDbLine
 62
7
  6
CONTINUOUS
 10
112.7505760712
 20
68.7245731244
 11
112.7505760712
 21
68.2437395618
  0
LINE
  5
471
100
AcDbEntity
  8
KONSTRUKTIONSELEMENTE
100
AcDbLine
 62
7
  6
CONTINUOUS
 10
112.7505760712
 20
65.3587395618
 11
112.7505760712
 21
62.4737395618
  0
LINE
  5
472
100
AcDbEntity
  8
KONSTRUKTIONSELEMENTE
100
AcDbLine
 62
7
  6
CONTINUOUS
 10
113.3148411469
 20
62.4737395618
 11
113.3148411469
 21
64.6374895618
  0
LINE
  5
473
100
AcDbEntity
  8
KONSTRUKTIONSELEMENTE
100
AcDbLine
 62
7
  6
CONTINUOUS
 10
113.3148411469
 20
68.2437395618
 11
113.3148411469
 21
68.7245731244
  0
LINE
  5
474
100
AcDbEntity
  8
KONSTRUKTIONSELEMENTE
100
AcDbLine
 62
7
  6
CONTINUOUS
 10
113.5462446864
 20
62.4737395618
 11
113.5462446864
 21
64.6374895618
  0
LINE
  5
475
100
AcDbEntity
  8
KONSTRUKTIONSELEMENTE
100
AcDbLine
 62
7
  6
CONTINUOUS
 10
113.5462446864
 20
68.2437395618
 11
113.5462446864
 21
68.7245731244
  0
LINE
  5
476
100
AcDbEntity
  8
KONSTRUKTIONSELEMENTE
100
AcDbLine
 62
7
  6
CONTINUOUS
 10
112.8446202478
 20
69.3256145618
 11
112.7505760712
 21
68.7245731244
  0
LINE
  5
477
100
AcDbEntity
  8
KONSTRUKTIONSELEMENTE
100
AcDbLine
 62
7
  6
CONTINUOUS
 10
113.3148411469
 20
68.7245731244
 11
113.4088853152
 21
69.2054059992
  0
LINE
  5
478
100
AcDbEntity
  8
KONSTRUKTIONSELEMENTE
100
AcDbLine
 62
7
  6
CONTINUOUS
 10
113.5462446864
 20
68.7245731244
 11
113.6402888547
 21
69.2054059992
  0
LINE
  5
479
100
AcDbEntity
  8
KONSTRUKTIONSELEMENTE
100
AcDbLine
 62
7
  6
CONTINUOUS
 10
113.0327086091
 20
69.8064481244
 11
112.8446202478
 21
69.3256145618
  0
LINE
  5
47A
100
AcDbEntity
  8
KONSTRUKTIONSELEMENTE
100
AcDbLine
 62
7
  6
CONTINUOUS
 10
113.4088853152
 20
69.2054059992
 11
113.5969737176
 21
69.5660309992
  0
LINE
  5
47B
100
AcDbEntity
  8
KONSTRUKTIONSELEMENTE
100
AcDbLine
 62
7
  6
CONTINUOUS
 10
113.6402888547
 20
69.2054059992
 11
113.8283772571
 21
69.5660309992
  0
LINE
  5
47C
100
AcDbEntity
  8
KONSTRUKTIONSELEMENTE
100
AcDbLine
 62
7
  6
CONTINUOUS
 10
116.7944758349
 20
72.2106145618
 11
117.0766083397
 21
72.6914477805
  0
LINE
  5
47D
100
AcDbEntity
  8
KONSTRUKTIONSELEMENTE
100
AcDbLine
 62
7
  6
CONTINUOUS
 10
113.4088853152
 20
70.2872809992
 11
113.0327086091
 21
69.8064481244
  0
LINE
  5
47E
100
AcDbEntity
  8
KONSTRUKTIONSELEMENTE
100
AcDbLine
 62
7
  6
CONTINUOUS
 10
116.6063874983
 20
72.8116563431
 11
116.4182991617
 21
72.5712395618
  0
LINE
  5
47F
100
AcDbEntity
  8
KONSTRUKTIONSELEMENTE
100
AcDbLine
 62
7
  6
CONTINUOUS
 10
116.4182991617
 20
71.8499895618
 11
116.7944758349
 21
72.2106145618
  0
LINE
  5
480
100
AcDbEntity
  8
KONSTRUKTIONSELEMENTE
100
AcDbLine
 62
7
  6
CONTINUOUS
 10
113.5969737176
 20
69.5660309992
 11
113.8791062225
 21
69.8064481244
  0
LINE
  5
481
100
AcDbEntity
  8
KONSTRUKTIONSELEMENTE
100
AcDbLine
 62
7
  6
CONTINUOUS
 10
113.8283772571
 20
69.5660309992
 11
114.110509762
 21
69.8064481244
  0
LINE
  5
482
100
AcDbEntity
  8
KONSTRUKTIONSELEMENTE
100
AcDbLine
 62
7
  6
CONTINUOUS
 10
113.7850620542
 20
70.5276977805
 11
113.4088853152
 21
70.2872809992
  0
LINE
  5
483
100
AcDbEntity
  8
0
100
AcDbLine
 62
7
  6
CONTINUOUS
 10
90.6477726841
 20
57.7528663791
 11
92.778100986
 21
59.0496428396
  0
LINE
  5
484
100
AcDbEntity
  8
0
100
AcDbLine
 62
7
  6
CONTINUOUS
 10
93.698685696
 20
61.4808596991
 11
88.7772364277
 21
58.9420300023
  0
LINE
  5
485
100
AcDbEntity
  8
KONSTRUKTIONSELEMENTE
100
AcDbLine
 62
7
  6
CONTINUOUS
 10
112.7505760712
 20
71.6095727805
 11
114.9135922055
 21
72.6914477805
  0
LINE
  5
486
100
AcDbEntity
  8
KONSTRUKTIONSELEMENTE
100
AcDbLine
 62
7
  6
CONTINUOUS
 10
112.9819796107
 20
71.6095727805
 11
114.5830124968
 21
72.4103608219
  0
LINE
  5
487
100
AcDbEntity
  8
KONSTRUKTIONSELEMENTE
100
AcDbLine
 62
7
  6
CONTINUOUS
 10
114.7255038689
 20
73.4126979525
 11
112.7505760712
 21
72.4510313431
  0
LINE
  5
488
100
AcDbEntity
  8
KONSTRUKTIONSELEMENTE
100
AcDbLine
 62
7
  6
CONTINUOUS
 10
116.4182991617
 20
72.5712395618
 11
116.1361666568
 21
72.4510313431
  0
LINE
  5
489
100
AcDbEntity
  8
KONSTRUKTIONSELEMENTE
100
AcDbLine
 62
7
  6
CONTINUOUS
 10
116.1361666568
 20
71.7297813431
 11
116.4182991617
 21
71.8499895618
  0
LINE
  5
48A
100
AcDbEntity
  8
KONSTRUKTIONSELEMENTE
100
AcDbLine
 62
7
  6
CONTINUOUS
 10
113.8791062225
 20
69.8064481244
 11
114.2552828957
 21
69.9266559992
  0
LINE
  5
48B
100
AcDbEntity
  8
KONSTRUKTIONSELEMENTE
100
AcDbLine
 62
7
  6
CONTINUOUS
 10
114.110509762
 20
69.8064481244
 11
114.4866864352
 21
69.9266559992
  0
LINE
  5
48C
100
AcDbEntity
  8
0
100
AcDbLine
 62
7
  6
CONTINUOUS
 10
53.6647833212
 20
59.3865263381
 11
53.777964664
 21
59.3962774745
  0
LINE
  5
48D
100
AcDbEntity
  8
0
100
AcDbLine
 62
7
  6
CONTINUOUS
 10
53.596564079
 20
59.380960882
 11
53.6647833212
 21
59.3865263381
  0
LWPOLYLINE
  5
48E
100
AcDbEntity
  8
0
100
AcDbPolyline
 62
7
  6
CONTINUOUS
 90
8
 70
0
 10
53.7780170986
 20
59.3962822168
 10
53.9968288569
 20
59.413789569
 10
54.3943059149
 20
59.4418406317
 10
54.8307243983
 20
59.4681268953
 10
55.3023206046
 20
59.4921819386
 10
55.8053715004
 20
59.5136992632
 10
56.3361600627
 20
59.5323560697
 10
56.8538384304
 20
59.5469215316
  0
LINE
  5
48F
100
AcDbEntity
  8
KONSTRUKTIONSELEMENTE
100
AcDbLine
 62
7
  6
CONTINUOUS
 10
113.3148411469
 20
64.6374895618
 11
116.6063874983
 21
64.6374895618
  0
LINE
  5
490
100
AcDbEntity
  8
KONSTRUKTIONSELEMENTE
100
AcDbLine
 62
7
  6
CONTINUOUS
 10
117.2564246895
 20
65.3587395618
 11
112.7505760712
 21
65.3587395618
  0
LINE
  5
491
100
AcDbEntity
  8
0
100
AcDbLine
 62
7
  6
CONTINUOUS
 10
95.0450769573
 20
65.7374895618
 11
94.3234967797
 21
65.7374895618
  0
LINE
  5
492
100
AcDbEntity
  8
KONSTRUKTIONSELEMENTE
100
AcDbLine
 62
7
  6
CONTINUOUS
 10
114.2552828957
 20
66.3204059992
 11
117.2564246895
 21
66.3204059992
  0
LINE
  5
493
100
AcDbEntity
  8
KONSTRUKTIONSELEMENTE
100
AcDbLine
 62
7
  6
CONTINUOUS
 10
117.2564246895
 20
67.0416559992
 11
114.2552828957
 21
67.0416559992
  0
LINE
  5
494
100
AcDbEntity
  8
KONSTRUKTIONSELEMENTE
100
AcDbLine
 62
7
  6
CONTINUOUS
 10
114.110509762
 20
67.1618645618
 11
113.8791062225
 21
67.1618645618
  0
LINE
  5
495
100
AcDbEntity
  8
KONSTRUKTIONSELEMENTE
100
AcDbLine
 62
7
  6
CONTINUOUS
 10
113.8283772571
 20
67.4022809992
 11
113.5969737176
 21
67.4022809992
  0
LINE
  5
496
100
AcDbEntity
  8
KONSTRUKTIONSELEMENTE
100
AcDbLine
 62
7
  6
CONTINUOUS
 10
113.6402888547
 20
67.7629059992
 11
113.4088853152
 21
67.7629059992
  0
LINE
  5
497
100
AcDbEntity
  8
KONSTRUKTIONSELEMENTE
100
AcDbLine
 62
7
  6
CONTINUOUS
 10
113.5462446864
 20
68.2437395618
 11
113.3148411469
 21
68.2437395618
  0
LINE
  5
498
100
AcDbEntity
  8
BG_STARTBEZUEGE
100
AcDbLine
 62
2
  6
CENTER
 10
188.3886270173
 20
68.4874895618
 11
39.1392576845
 21
68.4874895618
  0
LINE
  5
499
100
AcDbEntity
  8
0
100
AcDbLine
 62
7
  6
CONTINUOUS
 10
122.2606270173
 20
68.4874895618
 11
122.8886270173
 21
68.4874895618
  0
LINE
  5
49A
100
AcDbEntity
  8
KONSTRUKTIONSELEMENTE
100
AcDbLine
 62
7
  6
CONTINUOUS
 10
151.0351070743
 20
68.4874895618
 11
160.8886270173
 21
68.4874895618
  0
LINE
  5
49B
100
AcDbEntity
  8
KONSTRUKTIONSELEMENTE
100
AcDbLine
 62
7
  6
CONTINUOUS
 10
113.5462446864
 20
68.7245731244
 11
113.3148411469
 21
68.7245731244
  0
LINE
  5
49C
100
AcDbEntity
  8
KONSTRUKTIONSELEMENTE
100
AcDbLine
 62
7
  6
CONTINUOUS
 10
113.6402888547
 20
69.2054059992
 11
113.4088853152
 21
69.2054059992
  0
LINE
  5
49D
100
AcDbEntity
  8
KONSTRUKTIONSELEMENTE
100
AcDbLine
 62
7
  6
CONTINUOUS
 10
113.7850620542
 20
66.4406145618
 11
114.2552828957
 21
66.3204059992
  0
LINE
  5
49E
100
AcDbEntity
  8
KONSTRUKTIONSELEMENTE
100
AcDbLine
 62
7
  6
CONTINUOUS
 10
114.2552828957
 20
67.0416559992
 11
113.8791062225
 21
67.1618645618
  0
LINE
  5
49F
100
AcDbEntity
  8
KONSTRUKTIONSELEMENTE
100
AcDbLine
 62
7
  6
CONTINUOUS
 10
114.4866864352
 20
67.0416559992
 11
114.110509762
 21
67.1618645618
  0
LINE
  5
4A0
100
AcDbEntity
  8
KONSTRUKTIONSELEMENTE
100
AcDbLine
 62
7
  6
CONTINUOUS
 10
93.698685696
 20
75.4941194246
 11
88.7772364277
 21
78.0329491214
  0
LINE
  5
4A1
100
AcDbEntity
  8
KONSTRUKTIONSELEMENTE
100
AcDbLine
 62
7
  6
CONTINUOUS
 10
90.6477726841
 20
79.2221127446
 11
92.778100986
 21
77.9253362841
  0
LINE
  5
4A2
100
AcDbEntity
  8
KONSTRUKTIONSELEMENTE
100
AcDbLine
 62
7
  6
CONTINUOUS
 10
113.4088853152
 20
66.6810309992
 11
113.7850620542
 21
66.4406145618
  0
LINE
  5
4A3
100
AcDbEntity
  8
KONSTRUKTIONSELEMENTE
100
AcDbLine
 62
7
  6
CONTINUOUS
 10
113.8791062225
 20
67.1618645618
 11
113.5969737176
 21
67.4022809992
  0
LINE
  5
4A4
100
AcDbEntity
  8
KONSTRUKTIONSELEMENTE
100
AcDbLine
 62
7
  6
CONTINUOUS
 10
114.110509762
 20
67.1618645618
 11
113.8283772571
 21
67.4022809992
  0
LINE
  5
4A5
100
AcDbEntity
  8
KONSTRUKTIONSELEMENTE
100
AcDbLine
 62
7
  6
CONTINUOUS
 10
113.0327086091
 20
61.3918645618
 11
113.4088853152
 21
60.9110316871
  0
LINE
  5
4A6
100
AcDbEntity
  8
KONSTRUKTIONSELEMENTE
100
AcDbLine
 62
7
  6
CONTINUOUS
 10
113.0327086091
 20
67.1618645618
 11
113.4088853152
 21
66.6810309992
  0
LINE
  5
4A7
100
AcDbEntity
  8
KONSTRUKTIONSELEMENTE
100
AcDbLine
 62
7
  6
CONTINUOUS
 10
113.5969737176
 20
61.6322816871
 11
113.4088853152
 21
61.9929066871
  0
LINE
  5
4A8
100
AcDbEntity
  8
KONSTRUKTIONSELEMENTE
100
AcDbLine
 62
7
  6
CONTINUOUS
 10
113.8283772571
 20
61.6322816871
 11
113.6402888547
 21
61.9929066871
  0
LINE
  5
4A9
100
AcDbEntity
  8
KONSTRUKTIONSELEMENTE
100
AcDbLine
 62
7
  6
CONTINUOUS
 10
113.5969737176
 20
67.4022809992
 11
113.4088853152
 21
67.7629059992
  0
LINE
  5
4AA
100
AcDbEntity
  8
KONSTRUKTIONSELEMENTE
100
AcDbLine
 62
7
  6
CONTINUOUS
 10
113.8283772571
 20
67.4022809992
 11
113.6402888547
 21
67.7629059992
  0
LINE
  5
4AB
100
AcDbEntity
  8
KONSTRUKTIONSELEMENTE
100
AcDbLine
 62
7
  6
CONTINUOUS
 10
112.8446202478
 20
61.8726974366
 11
113.0327086091
 21
61.3918645618
  0
LINE
  5
4AC
100
AcDbEntity
  8
KONSTRUKTIONSELEMENTE
100
AcDbLine
 62
7
  6
CONTINUOUS
 10
112.8446202478
 20
67.6426981244
 11
113.0327086091
 21
67.1618645618
  0
LINE
  5
4AD
100
AcDbEntity
  8
KONSTRUKTIONSELEMENTE
100
AcDbLine
 62
7
  6
CONTINUOUS
 10
113.4088853152
 20
61.9929066871
 11
113.3148411469
 21
62.4737395618
  0
LINE
  5
4AE
100
AcDbEntity
  8
KONSTRUKTIONSELEMENTE
100
AcDbLine
 62
7
  6
CONTINUOUS
 10
113.6402888547
 20
61.9929066871
 11
113.5462446864
 21
62.4737395618
  0
LINE
  5
4AF
100
AcDbEntity
  8
KONSTRUKTIONSELEMENTE
100
AcDbLine
 62
7
  6
CONTINUOUS
 10
113.4088853152
 20
67.7629059992
 11
113.3148411469
 21
68.2437395618
  0
LINE
  5
4B0
100
AcDbEntity
  8
KONSTRUKTIONSELEMENTE
100
AcDbLine
 62
7
  6
CONTINUOUS
 10
113.6402888547
 20
67.7629059992
 11
113.5462446864
 21
68.2437395618
  0
LINE
  5
4B1
100
AcDbEntity
  8
KONSTRUKTIONSELEMENTE
100
AcDbLine
 62
7
  6
CONTINUOUS
 10
112.7505760712
 20
62.4737395618
 11
112.8446202478
 21
61.8726974366
  0
LINE
  5
4B2
100
AcDbEntity
  8
KONSTRUKTIONSELEMENTE
100
AcDbLine
 62
7
  6
CONTINUOUS
 10
112.7505760712
 20
68.2437395618
 11
112.8446202478
 21
67.6426981244
  0
LINE
  5
4B3
100
AcDbEntity
  8
KONSTRUKTIONSELEMENTE
100
AcDbLine
 62
7
  6
CONTINUOUS
 10
114.7255038689
 20
75.4562395618
 11
114.7255038689
 21
73.4126979525
  0
LINE
  5
4B4
100
AcDbEntity
  8
KONSTRUKTIONSELEMENTE
100
AcDbLine
 62
7
  6
CONTINUOUS
 10
115.2897688787
 20
73.1722813431
 11
115.2897688787
 21
75.4562395618
  0
LINE
  5
4B5
100
AcDbEntity
  8
KONSTRUKTIONSELEMENTE
100
AcDbLine
 62
7
  6
CONTINUOUS
 10
115.5050977093
 20
75.4562395618
 11
115.5050977093
 21
73.1722813431
  0
LINE
  5
4B6
100
AcDbEntity
  8
KONSTRUKTIONSELEMENTE
100
AcDbLine
 62
7
  6
CONTINUOUS
 10
116.6063874983
 20
64.6374895618
 11
116.6063874983
 21
62.4737395618
  0
LINE
  5
4B7
100
AcDbEntity
  8
KONSTRUKTIONSELEMENTE
100
AcDbLine
 62
7
  6
CONTINUOUS
 10
116.7004316666
 20
75.4562395618
 11
116.7004316666
 21
73.1722813431
  0
LINE
  5
4B8
100
AcDbEntity
  8
KONSTRUKTIONSELEMENTE
100
AcDbLine
 62
7
  6
CONTINUOUS
 10
117.170652508
 20
62.4737395618
 11
117.170652508
 21
65.3587395618
  0
LINE
  5
4B9
100
AcDbEntity
  8
KONSTRUKTIONSELEMENTE
100
AcDbLine
 62
7
  6
CONTINUOUS
 10
117.170652508
 20
66.3204059992
 11
117.170652508
 21
67.0416559992
  0
LINE
  5
4BA
100
AcDbEntity
  8
KONSTRUKTIONSELEMENTE
100
AcDbLine
 62
7
  6
CONTINUOUS
 10
117.170652508
 20
69.9266559992
 11
117.170652508
 21
70.6479063431
  0
LINE
  5
4BB
100
AcDbEntity
  8
KONSTRUKTIONSELEMENTE
100
AcDbLine
 62
7
  6
CONTINUOUS
 10
117.170652508
 20
73.2924895618
 11
117.170652508
 21
76.1774895618
  0
LINE
  5
4BC
100
AcDbEntity
  8
KONSTRUKTIONSELEMENTE
100
AcDbLine
 62
7
  6
CONTINUOUS
 10
117.2564246895
 20
76.1774895618
 11
117.2564246895
 21
73.2924895618
  0
LINE
  5
4BD
100
AcDbEntity
  8
KONSTRUKTIONSELEMENTE
100
AcDbLine
 62
7
  6
CONTINUOUS
 10
117.2564246895
 20
70.6479063431
 11
117.2564246895
 21
69.9266559992
  0
LINE
  5
4BE
100
AcDbEntity
  8
KONSTRUKTIONSELEMENTE
100
AcDbLine
 62
7
  6
CONTINUOUS
 10
117.2564246895
 20
67.0416559992
 11
117.2564246895
 21
66.3204059992
  0
LINE
  5
4BF
100
AcDbEntity
  8
KONSTRUKTIONSELEMENTE
100
AcDbLine
 62
7
  6
CONTINUOUS
 10
117.2564246895
 20
65.3587395618
 11
117.2564246895
 21
62.4737395618
  0
LINE
  5
4C0
100
AcDbEntity
  8
0
100
AcDbLine
 62
7
  6
CONTINUOUS
 10
118.0636604321
 20
60.4874895618
 11
118.0636604321
 21
76.4874895618
  0
LINE
  5
4C1
100
AcDbEntity
  8
0
100
AcDbLine
 62
7
  6
CONTINUOUS
 10
119.4558934802
 20
60.4874895618
 11
119.4558934802
 21
76.4874895618
  0
LINE
  5
4C2
100
AcDbEntity
  8
0
100
AcDbLine
 62
7
  6
CONTINUOUS
 10
120.4306421979
 20
76.4874895618
 11
120.4306421979
 21
60.4874895618
  0
LINE
  5
4C3
100
AcDbEntity
  8
KONSTRUKTIONSELEMENTE
100
AcDbLine
 62
7
  6
CONTINUOUS
 10
117.0766083397
 20
72.6914477805
 11
117.170652508
 21
73.2924895618
  0
LINE
  5
4C4
100
AcDbEntity
  8
KONSTRUKTIONSELEMENTE
100
AcDbLine
 62
7
  6
CONTINUOUS
 10
117.0766083397
 20
61.8726974366
 11
117.170652508
 21
62.4737395618
  0
LINE
  5
4C5
100
AcDbEntity
  8
KONSTRUKTIONSELEMENTE
100
AcDbLine
 62
7
  6
CONTINUOUS
 10
116.6063874983
 20
62.4737395618
 11
116.51234333
 21
61.9929066871
  0
LINE
  5
4C6
100
AcDbEntity
  8
KONSTRUKTIONSELEMENTE
100
AcDbLine
 62
7
  6
CONTINUOUS
 10
116.7004316666
 20
73.1722813431
 11
116.6063874983
 21
72.8116563431
  0
LINE
  5
4C7
100
AcDbEntity
  8
KONSTRUKTIONSELEMENTE
100
AcDbLine
 62
7
  6
CONTINUOUS
 10
116.8885200031
 20
61.3918645618
 11
117.0766083397
 21
61.8726974366
  0
LINE
  5
4C8
100
AcDbEntity
  8
KONSTRUKTIONSELEMENTE
100
AcDbLine
 62
7
  6
CONTINUOUS
 10
116.51234333
 20
61.9929066871
 11
116.3242549934
 21
61.6322816871
  0
LINE
  5
4C9
100
AcDbEntity
  8
KONSTRUKTIONSELEMENTE
100
AcDbLine
 62
7
  6
CONTINUOUS
 10
114.2552828957
 20
70.6479063431
 11
113.7850620542
 21
70.5276977805
  0
LINE
  5
4CA
100
AcDbEntity
  8
KONSTRUKTIONSELEMENTE
100
AcDbLine
 62
7
  6
CONTINUOUS
 10
113.8283772571
 20
69.5660309992
 11
113.5969737176
 21
69.5660309992
  0
LINE
  5
4CB
100
AcDbEntity
  8
KONSTRUKTIONSELEMENTE
100
AcDbLine
 62
7
  6
CONTINUOUS
 10
114.110509762
 20
69.8064481244
 11
113.8791062225
 21
69.8064481244
  0
LINE
  5
4CC
100
AcDbEntity
  8
KONSTRUKTIONSELEMENTE
100
AcDbLine
 62
7
  6
CONTINUOUS
 10
114.2552828957
 20
69.9266559992
 11
117.2564246895
 21
69.9266559992
  0
LINE
  5
4CD
100
AcDbEntity
  8
KONSTRUKTIONSELEMENTE
100
AcDbLine
 62
7
  6
CONTINUOUS
 10
117.2564246895
 20
70.6479063431
 11
114.2552828957
 21
70.6479063431
  0
LINE
  5
4CE
100
AcDbEntity
  8
KONSTRUKTIONSELEMENTE
100
AcDbLine
 62
7
  6
CONTINUOUS
 10
95.0450769573
 20
71.2374895618
 11
94.3234967797
 21
71.2374895618
  0
LINE
  5
4CF
100
AcDbEntity
  8
KONSTRUKTIONSELEMENTE
100
AcDbLine
 62
7
  6
CONTINUOUS
 10
112.9819796107
 20
71.6095727805
 11
112.7505760712
 21
71.6095727805
  0
LINE
  5
4D0
100
AcDbEntity
  8
KONSTRUKTIONSELEMENTE
100
AcDbLine
 62
7
  6
CONTINUOUS
 10
115.7599897201
 20
71.7297813431
 11
116.3093430271
 21
71.7297813431
  0
LINE
  5
4D1
100
AcDbEntity
  8
KONSTRUKTIONSELEMENTE
100
AcDbLine
 62
7
  6
CONTINUOUS
 10
116.5715687456
 20
71.8499895618
 11
116.4182991617
 21
71.8499895618
  0
LINE
  5
4D2
100
AcDbEntity
  8
KONSTRUKTIONSELEMENTE
100
AcDbLine
 62
7
  6
CONTINUOUS
 10
116.9166247204
 20
72.2106145618
 11
116.7944758349
 21
72.2106145618
  0
LINE
  5
4D3
100
AcDbEntity
  8
KONSTRUKTIONSELEMENTE
100
AcDbLine
 62
7
  6
CONTINUOUS
 10
116.1361666568
 20
72.4510313431
 11
115.8540338884
 21
72.4510313431
  0
LINE
  5
4D4
100
AcDbEntity
  8
KONSTRUKTIONSELEMENTE
100
AcDbLine
 62
7
  6
CONTINUOUS
 10
115.7761003073
 20
72.5712395618
 11
115.5719013836
 21
72.5712395618
  0
LINE
  5
4D5
100
AcDbEntity
  8
KONSTRUKTIONSELEMENTE
100
AcDbLine
 62
7
  6
CONTINUOUS
 10
117.171969012
 20
72.6914477805
 11
117.0766083397
 21
72.6914477805
  0
LINE
  5
4D6
100
AcDbEntity
  8
KONSTRUKTIONSELEMENTE
100
AcDbLine
 62
7
  6
CONTINUOUS
 10
115.5957558774
 20
72.8116563431
 11
115.383813047
 21
72.8116563431
  0
LINE
  5
4D7
100
AcDbEntity
  8
KONSTRUKTIONSELEMENTE
100
AcDbLine
 62
7
  6
CONTINUOUS
 10
115.5050977093
 20
73.1722813431
 11
115.2897688787
 21
73.1722813431
  0
LINE
  5
4D8
100
AcDbEntity
  8
KONSTRUKTIONSELEMENTE
100
AcDbLine
 62
7
  6
CONTINUOUS
 10
117.2564246895
 20
73.2924895618
 11
117.170652508
 21
73.2924895618
  0
LINE
  5
4D9
100
AcDbEntity
  8
KONSTRUKTIONSELEMENTE
100
AcDbLine
 62
7
  6
CONTINUOUS
 10
53.596564079
 20
77.5940182416
 11
53.4524930106
 21
77.6026822507
  0
LINE
  5
4DA
100
AcDbEntity
  8
KONSTRUKTIONSELEMENTE
100
AcDbLine
 62
7
  6
CONTINUOUS
 10
53.6647833212
 20
77.5884527856
 11
53.596564079
 21
77.5940182416
  0
LINE
  5
4DB
100
AcDbEntity
  8
KONSTRUKTIONSELEMENTE
100
AcDbLine
 62
7
  6
CONTINUOUS
 10
53.7778778434
 20
77.578708949
 11
53.6650253606
 21
77.5884252687
  0
LINE
  5
4DC
100
AcDbEntity
  8
KONSTRUKTIONSELEMENTE
100
AcDbLine
 62
7
  6
CONTINUOUS
 10
115.4778572153
 20
71.8499895618
 11
115.7599897201
 21
71.7297813431
  0
LINE
  5
4DD
100
AcDbEntity
  8
KONSTRUKTIONSELEMENTE
100
AcDbLine
 62
7
  6
CONTINUOUS
 10
115.8540338884
 20
72.4510313431
 11
115.5719013836
 21
72.5712395618
  0
LINE
  5
4DE
100
AcDbEntity
  8
KONSTRUKTIONSELEMENTE
100
AcDbLine
 62
7
  6
CONTINUOUS
 10
115.1016805421
 20
72.2106145618
 11
115.4778572153
 21
71.8499895618
  0
LINE
  5
4DF
100
AcDbEntity
  8
KONSTRUKTIONSELEMENTE
100
AcDbLine
 62
7
  6
CONTINUOUS
 10
115.5719013836
 20
72.5712395618
 11
115.383813047
 21
72.8116563431
  0
LINE
  5
4E0
100
AcDbEntity
  8
KONSTRUKTIONSELEMENTE
100
AcDbLine
 62
7
  6
CONTINUOUS
 10
114.9135922055
 20
72.6914477805
 11
115.1016805421
 21
72.2106145618
  0
LINE
  5
4E1
100
AcDbEntity
  8
KONSTRUKTIONSELEMENTE
100
AcDbLine
 62
7
  6
CONTINUOUS
 10
115.383813047
 20
72.8116563431
 11
115.2897688787
 21
73.1722813431
  0
LINE
  5
4E2
100
AcDbEntity
  8
0
100
AcDbLine
 62
7
  6
CONTINUOUS
 10
122.873047662
 20
61.4874895618
 11
122.2606270173
 21
68.4874895618
  0
LINE
  5
4E3
100
AcDbEntity
  8
0
100
AcDbLine
 62
7
  6
CONTINUOUS
 10
124.2884456338
 20
52.4874895618
 11
122.8886270173
 21
68.4874895618
  0
LINE
  5
4E4
100
AcDbEntity
  8
AUSFORMSCHRAEGEN
100
AcDbLine
 62
7
  6
CONTINUOUS
 10
122.2606270173
 20
68.4874895618
 11
122.873047662
 21
75.4874895618
  0
LINE
  5
4E5
100
AcDbEntity
  8
0
100
AcDbLine
 62
7
  6
CONTINUOUS
 10
124.2884456338
 20
84.4874895618
 11
122.8886270173
 21
68.4874895618
  0
LINE
  5
4E6
100
AcDbEntity
  8
KONSTRUKTIONSELEMENTE
100
AcDbLine
 62
7
  6
CONTINUOUS
 10
116.51234333
 20
60.9110316871
 11
116.8885200031
 21
61.3918645618
  0
LINE
  5
4E7
100
AcDbEntity
  8
KONSTRUKTIONSELEMENTE
100
AcDbLine
 62
7
  6
CONTINUOUS
 10
116.3242549934
 20
61.6322816871
 11
116.042122225
 21
61.3918645618
  0
LINE
  5
4E8
100
AcDbEntity
  8
KONSTRUKTIONSELEMENTE
100
AcDbLine
 62
7
  6
CONTINUOUS
 10
116.1361666568
 20
60.6706145618
 11
116.51234333
 21
60.9110316871
  0
LINE
  5
4E9
100
AcDbEntity
  8
KONSTRUKTIONSELEMENTE
100
AcDbLine
 62
7
  6
CONTINUOUS
 10
116.042122225
 20
61.3918645618
 11
115.6659455518
 21
61.2716566871
  0
LINE
  5
4EA
100
AcDbEntity
  8
KONSTRUKTIONSELEMENTE
100
AcDbLine
 62
7
  6
CONTINUOUS
 10
92.5346422094
 20
75.3008619152
 11
92.4394555193
 21
75.2947935117
  0
LINE
  5
4EB
100
AcDbEntity
  8
KONSTRUKTIONSELEMENTE
100
AcDbLine
 62
7
  6
CONTINUOUS
 10
112.7505760712
 20
75.4562395618
 11
114.7255038689
 21
75.4562395618
  0
LINE
  5
4EC
100
AcDbEntity
  8
KONSTRUKTIONSELEMENTE
100
AcDbLine
 62
7
  6
CONTINUOUS
 10
115.2897688787
 20
75.4562395618
 11
116.7004316666
 21
75.4562395618
  0
LINE
  5
4ED
100
AcDbEntity
  8
KONSTRUKTIONSELEMENTE
100
AcDbLine
 62
7
  6
CONTINUOUS
 10
123.501047662
 20
75.4874895618
 11
122.8730679231
 21
75.4874895618
  0
LINE
  5
4EE
100
AcDbEntity
  8
KONSTRUKTIONSELEMENTE
100
AcDbLine
 62
7
  6
CONTINUOUS
 10
117.2564246895
 20
76.1774895618
 11
112.7505760712
 21
76.1774895618
  0
LINE
  5
4EF
100
AcDbEntity
  8
KONSTRUKTIONSELEMENTE
100
AcDbLine
 62
7
  6
CONTINUOUS
 10
118.0636604321
 20
76.4874895618
 11
123.5885363255
 21
76.4874895618
  0
LINE
  5
4F0
100
AcDbEntity
  8
KONSTRUKTIONSELEMENTE
100
AcDbLine
 62
7
  6
CONTINUOUS
 10
57.430486905
 20
77.6074895618
 11
47.4053587461
 21
77.6074895618
  0
LINE
  5
4F1
100
AcDbEntity
  8
KONSTRUKTIONSELEMENTE
100
AcDbLine
 62
7
  6
CONTINUOUS
 10
42.9372658261
 20
77.6074895618
 11
47.2029222921
 21
77.6074895618
  0
LINE
  5
4F2
100
AcDbEntity
  8
KONSTRUKTIONSELEMENTE
100
AcDbLine
 62
7
  6
CONTINUOUS
 10
90.4520583773
 20
80.4874895618
 11
87.7773797126
 21
80.4874895618
  0
LINE
  5
4F3
100
AcDbEntity
  8
BEZUGSACHSEN
100
AcDbLine
 62
7
  6
CONTINUOUS
 10
112.201663397
 20
79.4875583213
 11
112.2055869799
 21
79.4875391028
  0
LINE
  5
4F4
100
AcDbEntity
  8
KONSTRUKTIONSELEMENTE
100
AcDbLine
 62
7
  6
CONTINUOUS
 10
53.3077998689
 20
77.6070155391
 11
53.2421951178
 21
77.60748934
  0
LINE
  5
4F5
100
AcDbEntity
  8
BEZUGSACHSEN
100
AcDbLine
 62
7
  6
CONTINUOUS
 10
101.1542583213
 20
79.4880106336
 11
101.174546999
 21
79.4875391028
  0
LWPOLYLINE
  5
4F6
100
AcDbEntity
  8
KONSTRUKTIONSELEMENTE
100
AcDbPolyline
 62
7
  6
CONTINUOUS
 90
8
 70
0
 10
56.8538384304
 20
77.4280575921
 10
56.3361600627
 20
77.4426230539
 10
55.8053715004
 20
77.4612798605
 10
55.3023206046
 20
77.4827971851
 10
54.8307243983
 20
77.5068522284
 10
54.3943059149
 20
77.533138492
 10
53.9968288569
 20
77.5611895547
 10
53.7780170986
 20
77.5786969068
  0
LINE
  5
4F7
100
AcDbEntity
  8
KONSTRUKTIONSELEMENTE
100
AcDbLine
 62
7
  6
CONTINUOUS
 10
53.4524930106
 20
77.6026822507
 11
53.3077998689
 21
77.6070155391
  0
LINE
  5
4F8
100
AcDbEntity
  8
BEZUGSACHSEN
100
AcDbLine
 62
7
  6
CONTINUOUS
 10
109.2767269397
 20
79.4936320241
 11
109.3316802632
 21
79.4907383284
  0
LINE
  5
4F9
100
AcDbEntity
  8
BEZUGSACHSEN
100
AcDbLine
 62
7
  6
CONTINUOUS
 10
105.5662162026
 20
79.4975120929
 11
105.6546669362
 21
79.4907383284
  0
LWPOLYLINE
  5
4FA
100
AcDbEntity
  8
KONSTRUKTIONSELEMENTE
100
AcDbPolyline
 62
7
  6
CONTINUOUS
 90
4
 70
0
 10
84.8379343535
 20
81.5969094939
 10
84.6349593173
 20
81.6257663635
 10
84.0773492956
 20
81.6765334068
 10
83.6719978075
 20
81.6874848433
  0
LINE
  5
4FB
100
AcDbEntity
  8
KONSTRUKTIONSELEMENTE
100
AcDbLine
 62
7
  6
CONTINUOUS
 10
109.85019948
 20
85.2532797659
 11
106.332563664
 21
84.7687446632
  0
LINE
  5
4FC
100
AcDbEntity
  8
AUSFORMSCHRAEGEN
100
AcDbLine
 62
7
  6
CONTINUOUS
 10
133.834635112
 20
83.9549133796
 11
141.4210714485
 21
84.9874895618
  0
LINE
  5
4FD
100
AcDbEntity
  8
KONSTRUKTIONSELEMENTE
100
AcDbLine
 62
7
  6
CONTINUOUS
 10
110.7771358468
 20
85.3256532699
 11
138.6464564127
 21
85.8470151201
  0
LINE
  5
4FE
100
AcDbEntity
  8
KONSTRUKTIONSELEMENTE
100
AcDbLine
 62
7
  6
CONTINUOUS
 10
69.9508284741
 20
81.6874895618
 11
80.6846274939
 21
81.6874895618
  0
LINE
  5
4FF
100
AcDbEntity
  8
KONSTRUKTIONSELEMENTE
100
AcDbLine
 62
7
  6
CONTINUOUS
 10
82.1274768469
 20
81.6874895618
 11
83.6709129081
 21
81.6874895618
  0
LINE
  5
500
100
AcDbEntity
  8
KONSTRUKTIONSELEMENTE
100
AcDbLine
 62
7
  6
CONTINUOUS
 10
77.687652677
 20
82.7874895618
 11
86.0246270173
 21
82.7874895618
  0
LINE
  5
501
100
AcDbEntity
  8
AUSFORMSCHRAEGEN
100
AcDbLine
 62
7
  6
CONTINUOUS
 10
114.2172786975
 20
84.4625575807
 11
114.5830124968
 21
84.4625575807
  0
LINE
  5
502
100
AcDbEntity
  8
KONSTRUKTIONSELEMENTE
100
AcDbLine
 62
7
  6
CONTINUOUS
 10
124.2884456338
 20
84.4874895618
 11
130.8098516347
 21
84.4874895618
  0
LINE
  5
503
100
AcDbEntity
  8
KONSTRUKTIONSELEMENTE
100
AcDbLine
 62
7
  6
CONTINUOUS
 10
142.1264737396
 20
83.1517799914
 11
146.3087209499
 21
92.1206380773
  0
LINE
  5
504
100
AcDbEntity
  8
BEZUGSACHSEN
100
AcDbLine
 62
7
  6
CONTINUOUS
 10
140.3886270173
 20
91.4874895618
 11
146.0134789484
 21
91.4874895618
  0
LINE
  5
505
100
AcDbEntity
  8
0
100
AcDbLine
 62
7
  6
CONTINUOUS
 10
142.1264737396
 20
53.8231991323
 11
146.3087209499
 21
44.8543410464
  0
LINE
  5
506
100
AcDbEntity
  8
BEZUGSACHSEN
100
AcDbLine
 62
7
  6
CONTINUOUS
 10
140.3886270173
 20
21.4874895618
 11
140.3886270173
 21
45.4874895619
  0
LINE
  5
507
100
AcDbEntity
  8
BEZUGSACHSEN
100
AcDbLine
 62
7
  6
CONTINUOUS
 10
140.3886270173
 20
91.4874895618
 11
140.3886270173
 21
115.4874895619
  0
LINE
  5
508
100
AcDbEntity
  8
BEZUGSACHSEN
100
AcDbLine
 62
7
  6
CONTINUOUS
 10
184.1886270173
 20
95.4874895618
 11
160.8886270173
 21
95.4874895618
  0
LINE
  5
509
100
AcDbEntity
  8
0
100
AcDbLine
 62
2
  6
CONTINUOUS
 10
160.8886270173
 20
96.7144895618
 11
185.3886270173
 21
96.7144895618
  0
LINE
  5
50A
100
AcDbEntity
  8
0
100
AcDbLine
 62
7
  6
CONTINUOUS
 10
149.004779922
 20
35.7431060892
 11
150.3512637978
 21
16.4874895618
  0
LINE
  5
50B
100
AcDbEntity
  8
KONSTRUKTIONSELEMENTE
100
AcDbLine
 62
7
  6
CONTINUOUS
 10
149.8886270173
 20
21.4874895618
 11
149.8886270173
 21
23.1035037571
  0
LINE
  5
50C
100
AcDbEntity
  8
KONSTRUKTIONSELEMENTE
100
AcDbLine
 62
7
  6
CONTINUOUS
 10
149.8886270173
 20
113.8714753666
 11
149.8886270173
 21
115.4874895618
  0
LINE
  5
50D
100
AcDbEntity
  8
RUNDUNGEN
100
AcDbLine
 62
7
  6
CONTINUOUS
 10
149.004779922
 20
101.2318730344
 11
150.3512637978
 21
120.4874895618
  0
LINE
  5
50E
100
AcDbEntity
  8
BEZUGSACHSEN
100
AcDbLine
 62
7
  6
CONTINUOUS
 10
185.3886270173
 20
96.6874895618
 11
184.1886270173
 21
95.4874895618
  0
LINE
  5
50F
100
AcDbEntity
  8
BEZUGSACHSEN
100
AcDbLine
 62
7
  6
CONTINUOUS
 10
149.1625079947
 20
103.4874895618
 11
141.4604237871
 21
103.4874895618
  0
LINE
  5
510
100
AcDbEntity
  8
BEZUGSACHSEN
100
AcDbLine
 62
2
  6
CENTER
 10
149.1625079947
 20
103.4874895618
 11
188.3886270173
 21
103.4874895618
  0
LINE
  5
511
100
AcDbEntity
  8
BEZUGSACHSEN
100
AcDbLine
 62
7
  6
CONTINUOUS
 10
185.3886270173
 20
40.2874895618
 11
184.1886270173
 21
41.4874895618
  0
LINE
  5
512
100
AcDbEntity
  8
0
100
AcDbLine
 62
2
  6
CONTINUOUS
 10
160.8886270173
 20
110.2604895618
 11
185.3886270173
 21
110.2604895618
  0
LINE
  5
513
100
AcDbEntity
  8
KONSTRUKTIONSELEMENTE
100
AcDbLine
 62
7
  6
CONTINUOUS
 10
160.8886270173
 20
16.4874895618
 11
160.8886270173
 21
120.4874895618
  0
LINE
  5
514
100
AcDbEntity
  8
BEZUGSACHSEN
100
AcDbLine
 62
7
  6
CONTINUOUS
 10
184.1886270173
 20
111.4874895618
 11
160.8886270173
 21
111.4874895618
  0
LINE
  5
515
100
AcDbEntity
  8
BEZUGSACHSEN
100
AcDbLine
 62
7
  6
CONTINUOUS
 10
149.9317029261
 20
114.4874895618
 11
149.8886270173
 21
114.4874895618
  0
LINE
  5
516
100
AcDbEntity
  8
BEZUGSACHSEN
100
AcDbLine
 62
7
  6
CONTINUOUS
 10
149.8886270173
 20
115.4874895618
 11
140.3886270173
 21
115.4874895618
  0
LINE
  5
517
100
AcDbEntity
  8
RUNDUNGEN
100
AcDbLine
 62
7
  6
CONTINUOUS
 10
150.3512637978
 20
120.4874895618
 11
151.0351070743
 21
120.4874895618
  0
LINE
  5
518
100
AcDbEntity
  8
KONSTRUKTIONSELEMENTE
100
AcDbLine
 62
7
  6
CONTINUOUS
 10
151.0351070743
 20
120.4874895618
 11
160.8886270173
 21
120.4874895618
  0
LINE
  5
519
100
AcDbEntity
  8
BEZUGSACHSEN
100
AcDbLine
 62
7
  6
CONTINUOUS
 10
184.1886270173
 20
25.4874895618
 11
184.1886270173
 21
41.4874895618
  0
LINE
  5
51A
100
AcDbEntity
  8
BEZUGSACHSEN
100
AcDbLine
 62
7
  6
CONTINUOUS
 10
184.1886270173
 20
95.4874895618
 11
184.1886270173
 21
111.4874895618
  0
LINE
  5
51B
100
AcDbEntity
  8
BEZUGSACHSEN
100
AcDbLine
 62
7
  6
CONTINUOUS
 10
185.3886270173
 20
26.6874895618
 11
185.3886270173
 21
40.2874895618
  0
LINE
  5
51C
100
AcDbEntity
  8
BEZUGSACHSEN
100
AcDbLine
 62
7
  6
CONTINUOUS
 10
185.3886270173
 20
96.6874895618
 11
185.3886270173
 21
110.2874895618
  0
LINE
  5
51D
100
AcDbEntity
  8
BEZUGSACHSEN
100
AcDbLine
 62
7
  6
CONTINUOUS
 10
185.3886270173
 20
26.6874895618
 11
184.1886270173
 21
25.4874895618
  0
LINE
  5
51E
100
AcDbEntity
  8
BEZUGSACHSEN
100
AcDbLine
 62
7
  6
CONTINUOUS
 10
185.3886270173
 20
110.2874895618
 11
184.1886270173
 21
111.4874895618
  0
ARC
  5
51F
100
AcDbEntity
  8
0
100
AcDbCircle
 62
7
  6
CONTINUOUS
 10
89.838179314
 20
405.0455766133
 40
257.5971897717
100
AcDbArc
 50
273.5741005584
 51
275.4010269397
  0
ARC
  5
520
100
AcDbEntity
  8
0
100
AcDbCircle
 62
7
  6
CONTINUOUS
 10
66.4595340261
 20
342.274546617
 40
102.4877374281
100
AcDbArc
 50
284.8078392731
 51
284.9429419167
  0
ARC
  5
521
100
AcDbEntity
  8
0
100
AcDbCircle
 62
7
  6
CONTINUOUS
 10
35.0845220196
 20
274.6087443147
 40
66.0
100
AcDbArc
 50
322.0
 51
335.6462962571
  0
ARC
  5
522
100
AcDbEntity
  8
0
100
AcDbCircle
 62
7
  6
CONTINUOUS
 10
35.0845220196
 20
274.6087443147
 40
65.7594061753
100
AcDbArc
 50
331.5213732005
 51
335.4584508459
  0
ARC
  5
523
100
AcDbEntity
  8
0
100
AcDbCircle
 62
7
  6
CONTINUOUS
 10
90.4886270173
 20
244.1683639776
 40
54.0
100
AcDbArc
 50
322.0
 51
360.0
  0
ARC
  5
524
100
AcDbEntity
  8
0
100
AcDbCircle
 62
7
  6
CONTINUOUS
 10
82.8424011284
 20
208.3729203493
 40
40.0
100
AcDbArc
 50
126.4896400498
 51
163.3396822449
  0
ARC
  5
525
100
AcDbEntity
  8
0
100
AcDbCircle
 62
7
  6
CONTINUOUS
 10
82.8424011284
 20
208.3729203493
 40
39.2021033886
100
AcDbArc
 50
155.3842435912
 51
163.3396822449
  0
ARC
  5
526
100
AcDbEntity
  8
0
100
AcDbCircle
 62
7
  6
CONTINUOUS
 10
78.6163316697
 20
212.1700347092
 40
33.5801415598
100
AcDbArc
 50
125.3425308552
 51
139.8151188576
  0
ARC
  5
527
100
AcDbEntity
  8
0
100
AcDbCircle
 62
7
  6
CONTINUOUS
 10
85.736095008
 20
245.3407443147
 40
12.0
100
AcDbArc
 50
59.3013255364
 51
122.2019944822
  0
ARC
  5
528
100
AcDbEntity
  8
0
100
AcDbCircle
 62
7
  6
CONTINUOUS
 10
89.4606132167
 20
249.782457866
 40
5.9839617385
100
AcDbArc
 50
335.4413525623
 51
2.6544872069
  0
ARC
  5
529
100
AcDbEntity
  8
0
100
AcDbCircle
 62
7
  6
CONTINUOUS
 10
89.7614430533
 20
249.86147987
 40
5.9833960194
100
AcDbArc
 50
335.6285269135
 51
3.4829506011
  0
ARC
  5
52A
100
AcDbEntity
  8
0
100
AcDbCircle
 62
7
  6
CONTINUOUS
 10
59.2391571447
 20
220.1549954734
 40
5.0257488413
100
AcDbArc
 50
349.1501941409
 51
41.111598483
  0
ARC
  5
52B
100
AcDbEntity
  8
0
100
AcDbCircle
 62
7
  6
CONTINUOUS
 10
59.238350211
 20
220.1556507869
 40
5.0247093848
100
AcDbArc
 50
138.894048882
 51
157.3141218735
  0
ARC
  5
52C
100
AcDbEntity
  8
0
100
AcDbCircle
 62
7
  6
CONTINUOUS
 10
138.9377954478
 20
-115.5873000601
 40
265.3458084559
100
AcDbArc
 50
93.6007775907
 51
95.3743501249
  0
ARC
  5
52D
100
AcDbEntity
  8
0
100
AcDbCircle
 62
7
  6
CONTINUOUS
 10
114.6514799738
 20
193.7990391943
 40
74.1908945783
100
AcDbArc
 50
155.0115801858
 51
155.3842679237
  0
ARC
  5
52E
100
AcDbEntity
  8
0
100
AcDbCircle
 62
7
  6
CONTINUOUS
 10
98.8892576845
 20
203.5707443147
 40
56.75
100
AcDbArc
 50
163.3396822449
 51
273.6086773666
  0
ARC
  5
52F
100
AcDbEntity
  8
0
100
AcDbCircle
 62
7
  6
CONTINUOUS
 10
98.8892576845
 20
203.5707443147
 40
55.9521033886
100
AcDbArc
 50
163.3396822449
 51
273.6086773666
  0
ARC
  5
530
100
AcDbEntity
  8
0
100
AcDbCircle
 62
7
  6
CONTINUOUS
 10
98.8886270173
 20
203.5807443147
 40
48.0
100
AcDbArc
 50
157.3141218735
 51
273.6086773666
  0
ARC
  5
531
100
AcDbEntity
  8
0
100
AcDbCircle
 62
7
  6
CONTINUOUS
 10
101.8886270173
 20
211.9807443147
 40
38.4
100
AcDbArc
 50
169.1501941409
 51
297.0809790669
  0
ARC
  5
532
100
AcDbEntity
  8
0
100
AcDbCircle
 62
7
  6
CONTINUOUS
 10
101.8886270173
 20
211.9807443147
 40
25.2
100
AcDbArc
 50
142.0
 51
322.0
  0
ARC
  5
533
100
AcDbEntity
  8
0
100
AcDbCircle
 62
7
  6
CONTINUOUS
 10
118.0893622708
 20
147.6049217685
 40
9.6069675322
100
AcDbArc
 50
64.95613628
 51
65.2946041808
  0
ARC
  5
534
100
AcDbEntity
  8
0
100
AcDbCircle
 62
7
  6
CONTINUOUS
 10
95.2993842062
 20
297.7025920732
 40
30.0
100
AcDbArc
 50
310.0
 51
355.7807390401
  0
ARC
  5
535
100
AcDbEntity
  8
0
100
AcDbCircle
 62
7
  6
CONTINUOUS
 10
95.2355343879
 20
280.666948474
 40
19.989257509
100
AcDbArc
 50
303.746791294
 51
309.9977425574
  0
ARC
  5
536
100
AcDbEntity
  8
0
100
AcDbCircle
 62
7
  6
CONTINUOUS
 10
95.2583559252
 20
280.6421689577
 40
19.9556060187
100
AcDbArc
 50
309.9932759719
 51
341.8152178659
  0
ARC
  5
537
100
AcDbEntity
  8
0
100
AcDbCircle
 62
7
  6
CONTINUOUS
 10
95.8826690193
 20
279.6864926246
 40
18.8159957339
100
AcDbArc
 50
277.2441037024
 51
296.8522323724
  0
ARC
  5
538
100
AcDbEntity
  8
0
100
AcDbCircle
 62
7
  6
CONTINUOUS
 10
101.1809452242
 20
262.3790469511
 40
1.0
100
AcDbArc
 50
5.4449282366
 51
211.3227628464
  0
ARC
  5
539
100
AcDbEntity
  8
0
100
AcDbCircle
 62
7
  6
CONTINUOUS
 10
103.0580191443
 20
263.8757745478
 40
1.0
100
AcDbArc
 50
26.2914864032
 51
204.2594889357
  0
ARC
  5
53A
100
AcDbEntity
  8
0
100
AcDbCircle
 62
7
  6
CONTINUOUS
 10
105.706438196
 20
264.4532488127
 40
1.0
100
AcDbArc
 50
24.2129244138
 51
221.714633798
  0
ARC
  5
53B
100
AcDbEntity
  8
0
100
AcDbCircle
 62
7
  6
CONTINUOUS
 10
112.2119852051
 20
271.6351885306
 40
1.0
100
AcDbArc
 50
48.665046696
 51
254.5550717634
  0
ARC
  5
53C
100
AcDbEntity
  8
0
100
AcDbCircle
 62
7
  6
CONTINUOUS
 10
110.4120457982
 20
270.0465356008
 40
1.0
100
AcDbArc
 50
56.0307699159
 51
233.7006965858
  0
ARC
  5
53D
100
AcDbEntity
  8
0
100
AcDbCircle
 62
7
  6
CONTINUOUS
 10
109.3834515229
 20
267.5386293392
 40
1.0
100
AcDbArc
 50
38.2866556856
 51
235.7870885454
  0
ARC
  5
53E
100
AcDbEntity
  8
0
100
AcDbCircle
 62
7
  6
CONTINUOUS
 10
107.0564262761
 20
266.5781328527
 40
1.0
100
AcDbArc
 50
33.4793810962
 51
226.5399849322
  0
ARC
  5
53F
100
AcDbEntity
  8
0
100
AcDbCircle
 62
7
  6
CONTINUOUS
 10
151.0351070743
 20
197.3807443147
 40
117.6
100
AcDbArc
 50
90.0
 51
102.4398337139
  0
ARC
  5
540
100
AcDbEntity
  8
0
100
AcDbCircle
 62
7
  6
CONTINUOUS
 10
151.0351070743
 20
197.3807443147
 40
116.2001813836
100
AcDbArc
 50
100.0236861056
 51
101.8682362545
  0
ARC
  5
541
100
AcDbEntity
  8
0
100
AcDbCircle
 62
7
  6
CONTINUOUS
 10
133.7606270173
 20
282.9807443147
 40
20.3998186164
100
AcDbArc
 50
98.3168462829
 51
104.2047017542
  0
ARC
  5
542
100
AcDbEntity
  8
0
100
AcDbCircle
 62
7
  6
CONTINUOUS
 10
133.7606270173
 20
282.9807443147
 40
19.0
100
AcDbArc
 50
99.1775003297
 51
108.818528403
  0
ARC
  5
543
100
AcDbEntity
  8
0
100
AcDbCircle
 62
7
  6
CONTINUOUS
 10
134.7468094543
 20
282.8944645313
 40
17.0
100
AcDbArc
 50
103.2563160496
 51
117.834467988
  0
ARC
  5
544
100
AcDbEntity
  8
0
100
AcDbCircle
 62
7
  6
CONTINUOUS
 10
133.7606270173
 20
282.9807443147
 40
11.5
100
AcDbArc
 50
269.6761154718
 51
270.0
  0
ARC
  5
545
100
AcDbEntity
  8
0
100
AcDbCircle
 62
7
  6
CONTINUOUS
 10
133.7606270173
 20
282.9807443147
 40
11.5
100
AcDbArc
 50
147.8353117434
 51
170.2731731926
  0
ARC
  5
546
100
AcDbEntity
  8
0
100
AcDbCircle
 62
7
  6
CONTINUOUS
 10
133.7606270173
 20
282.9807443147
 40
10.0
100
AcDbArc
 50
299.2474847866
 51
311.5273589059
  0
ARC
  5
547
100
AcDbEntity
  8
0
100
AcDbCircle
 62
7
  6
CONTINUOUS
 10
137.4933482897
 20
264.24404388
 40
7.8491224993
100
AcDbArc
 50
68.3460036435
 51
90.0344635971
  0
ARC
  5
548
100
AcDbEntity
  8
0
100
AcDbCircle
 62
7
  6
CONTINUOUS
 10
137.4886270173
 20
264.4807443147
 40
7.0
100
AcDbArc
 50
65.5246313824
 51
90.0
  0
CIRCLE
  5
549
100
AcDbEntity
  8
0
100
AcDbCircle
 62
7
  6
CONTINUOUS
 10
133.7606270173
 20
282.9807443147
 40
4.0
  0
ARC
  5
54A
100
AcDbEntity
  8
0
100
AcDbCircle
 62
7
  6
CONTINUOUS
 10
131.2804700857
 20
297.8659363555
 40
3.6081569727
100
AcDbArc
 50
350.2720410857
 51
359.9913629735
  0
ARC
  5
54B
100
AcDbEntity
  8
0
100
AcDbCircle
 62
7
  6
CONTINUOUS
 10
126.4715054213
 20
308.7204654314
 40
3.5828547532
100
AcDbArc
 50
102.3958599948
 51
180.0439737064
  0
ARC
  5
54C
100
AcDbEntity
  8
0
100
AcDbCircle
 62
7
  6
CONTINUOUS
 10
127.8712783487
 20
307.5901099233
 40
3.5828089039
100
AcDbArc
 50
101.823217867
 51
180.045018388
  0
ARC
  5
54D
100
AcDbEntity
  8
0
100
AcDbCircle
 62
7
  6
CONTINUOUS
 10
131.5365017827
 20
296.5214203415
 40
3.0
100
AcDbArc
 50
40.0
 51
103.2563160496
  0
ARC
  5
54E
100
AcDbEntity
  8
0
100
AcDbCircle
 62
7
  6
CONTINUOUS
 10
128.2099476259
 20
295.2746679802
 40
3.0
100
AcDbArc
 50
117.834467988
 51
175.7807390401
  0
ARC
  5
54F
100
AcDbEntity
  8
0
100
AcDbCircle
 62
7
  6
CONTINUOUS
 10
135.8143995727
 20
303.0240183701
 40
2.9069256731
100
AcDbArc
 50
267.3106024894
 51
269.4022893041
  0
CIRCLE
  5
550
100
AcDbEntity
  8
BEZUGSACHSEN
100
AcDbCircle
 62
7
  6
CONTINUOUS
 10
260.3771299929
 20
187.9807443147
 40
17.0
  0
CIRCLE
  5
551
100
AcDbEntity
  8
BEZUGSACHSEN
100
AcDbCircle
 62
7
  6
CONTINUOUS
 10
260.3771299929
 20
187.9807443147
 40
12.0
  0
ARC
  5
552
100
AcDbEntity
  8
0
100
AcDbCircle
 62
7
  6
CONTINUOUS
 10
232.2296819918
 20
265.331329764
 40
79.3848343321
100
AcDbArc
 50
359.0721798884
 51
0.0162052761
  0
CIRCLE
  5
553
100
AcDbEntity
  8
BEZUGSACHSEN
100
AcDbCircle
 62
7
  6
CONTINUOUS
 10
260.3771299929
 20
277.9807443147
 40
17.0
  0
ARC
  5
554
100
AcDbEntity
  8
RUNDUNGEN
100
AcDbCircle
 62
7
  6
CONTINUOUS
 10
257.3644316812
 20
297.6039738756
 40
13.9869965334
100
AcDbArc
 50
94.9525271535
 51
180.0147857262
  0
CIRCLE
  5
555
100
AcDbEntity
  8
BEZUGSACHSEN
100
AcDbCircle
 62
7
  6
CONTINUOUS
 10
260.3771299929
 20
277.9807443147
 40
12.0
  0
ARC
  5
556
100
AcDbEntity
  8
KONSTRUKTIONSELEMENTE
100
AcDbCircle
 62
7
  6
CONTINUOUS
 10
280.3906278256
 20
186.9751314923
 40
126.1379713589
100
AcDbArc
 50
93.9306574546
 51
94.2910214866
  0
ARC
  5
557
100
AcDbEntity
  8
KONSTRUKTIONSELEMENTE
100
AcDbCircle
 62
7
  6
CONTINUOUS
 10
290.377728041
 20
188.1005139703
 40
7.0008388314
100
AcDbArc
 50
162.0496126895
 51
178.3237998289
  0
ARC
  5
558
100
AcDbEntity
  8
KONSTRUKTIONSELEMENTE
100
AcDbCircle
 62
7
  6
CONTINUOUS
 10
290.2511602735
 20
188.110701535
 40
6.874030281
100
AcDbArc
 50
178.3778193896
 51
179.9993759777
  0
ARC
  5
559
100
AcDbEntity
  8
KONSTRUKTIONSELEMENTE
100
AcDbCircle
 62
8
  6
HIDDEN
 10
289.9771299929
 20
179.6830946038
 40
6.6
100
AcDbArc
 50
95.0
 51
151.0207800899
  0
ARC
  5
55A
100
AcDbEntity
  8
KONSTRUKTIONSELEMENTE
100
AcDbCircle
 62
7
  6
CONTINUOUS
 10
292.2571299929
 20
224.7018045234
 40
6.0
100
AcDbArc
 50
175.8130050637
 51
180.0
  0
ARC
  5
55B
100
AcDbEntity
  8
BEZUGSACHSEN
100
AcDbCircle
 62
7
  6
CONTINUOUS
 10
285.6698750643
 20
203.0970756105
 40
5.8818552179
100
AcDbArc
 50
106.7257533143
 51
107.4971623601
  0
ARC
  5
55C
100
AcDbEntity
  8
KONSTRUKTIONSELEMENTE
100
AcDbCircle
 62
7
  6
CONTINUOUS
 10
285.8771299929
 20
176.0807443147
 40
2.5
100
AcDbArc
 50
180.0
 51
270.0
  0
ARC
  5
55D
100
AcDbEntity
  8
KONSTRUKTIONSELEMENTE
100
AcDbCircle
 62
7
  6
CONTINUOUS
 10
285.50692765
 20
154.6701291137
 40
2.0937225688
100
AcDbArc
 50
127.4387618876
 51
128.5005729334
  0
ARC
  5
55E
100
AcDbEntity
  8
KONSTRUKTIONSELEMENTE
100
AcDbCircle
 62
7
  6
CONTINUOUS
 10
293.8940750064
 20
239.520664359
 40
11.6886448222
100
AcDbArc
 50
191.557771887
 51
195.7593917354
  0
ARC
  5
55F
100
AcDbEntity
  8
KONSTRUKTIONSELEMENTE
100
AcDbCircle
 62
7
  6
CONTINUOUS
 10
293.6257849718
 20
239.4641217012
 40
11.4144663189
100
AcDbArc
 50
189.2826642258
 51
191.549526425
  0
ARC
  5
560
100
AcDbEntity
  8
AUSFORMSCHRAEGEN
100
AcDbCircle
 62
7
  6
CONTINUOUS
 10
282.8577901089
 20
254.4804810906
 40
2.8817855572
100
AcDbArc
 50
278.8733587805
 51
282.4619062656
  0
ARC
  5
561
100
AcDbEntity
  8
KONSTRUKTIONSELEMENTE
100
AcDbCircle
 62
7
  6
CONTINUOUS
 10
285.1737910942
 20
236.7561348378
 40
2.5620259796
100
AcDbArc
 50
189.2105509555
 51
195.7714115366
  0
ARC
  5
562
100
AcDbEntity
  8
BEZUGSACHSEN
100
AcDbCircle
 62
7
  6
CONTINUOUS
 10
283.3673578127
 20
267.5366309329
 40
1.0098563492
100
AcDbArc
 50
6.4903030177
 51
10.3721761225
  0
ARC
  5
563
100
AcDbEntity
  8
BEZUGSACHSEN
100
AcDbCircle
 62
7
  6
CONTINUOUS
 10
283.3688721958
 20
264.4516450194
 40
1.0083189381
100
AcDbArc
 50
5.42329766
 51
10.0119760336
  0
ARC
  5
564
100
AcDbEntity
  8
BEZUGSACHSEN
100
AcDbCircle
 62
7
  6
CONTINUOUS
 10
286.3771508832
 20
263.8757196
 40
1.0000125355
100
AcDbArc
 50
25.1675392232
 51
179.9968517875
  0
ARC
  5
565
100
AcDbEntity
  8
BEZUGSACHSEN
100
AcDbCircle
 62
7
  6
CONTINUOUS
 10
283.3771250685
 20
262.3790324444
 40
1.0000041044
100
AcDbArc
 50
0.55199812
 51
179.9991688211
  0
ARC
  5
566
100
AcDbEntity
  8
BEZUGSACHSEN
100
AcDbCircle
 62
7
  6
CONTINUOUS
 10
283.3771089178
 20
264.4532791179
 40
0.9999649187
100
AcDbArc
 50
10.0018209349
 51
180.0017363988
  0
ARC
  5
567
100
AcDbEntity
  8
BEZUGSACHSEN
100
AcDbCircle
 62
7
  6
CONTINUOUS
 10
283.3770529672
 20
267.538607929
 40
0.9999229745
100
AcDbArc
 50
10.3586666115
 51
211.149122713
  0
ARC
  5
568
100
AcDbEntity
  8
BEZUGSACHSEN
100
AcDbCircle
 62
7
  6
CONTINUOUS
 10
286.3770333377
 20
270.0465068966
 40
0.9999033452
100
AcDbArc
 50
36.7132592103
 51
213.6804095993
  0
ARC
  5
569
100
AcDbEntity
  8
BEZUGSACHSEN
100
AcDbCircle
 62
7
  6
CONTINUOUS
 10
286.376937997
 20
266.5780819947
 40
0.9998080054
100
AcDbArc
 50
20.4574212574
 51
215.5842402226
  0
ARC
  5
56A
100
AcDbEntity
  8
BEZUGSACHSEN
100
AcDbCircle
 62
7
  6
CONTINUOUS
 10
283.3768458647
 20
271.6350608818
 40
0.9997158799
100
AcDbArc
 50
1.0177349803
 51
231.9376654452
  0
ARC
  5
56B
100
AcDbEntity
  8
KONSTRUKTIONSELEMENTE
100
AcDbCircle
 62
7
  6
CONTINUOUS
 10
283.8581225073
 20
526.9549364787
 40
226.8378238462
100
AcDbArc
 50
270.0632550858
 51
270.3034719746
  0
ARC
  5
56C
100
AcDbEntity
  8
0
100
AcDbCircle
 62
7
  6
CONTINUOUS
 10
310.3636321601
 20
186.9751314914
 40
126.1379713599
100
AcDbArc
 50
85.7089785134
 51
86.0693425454
  0
ARC
  5
56D
100
AcDbEntity
  8
0
100
AcDbCircle
 62
7
  6
CONTINUOUS
 10
300.3765319448
 20
188.1005139703
 40
7.0008388314
100
AcDbArc
 50
1.6762001711
 51
17.9503873105
  0
ARC
  5
56E
100
AcDbEntity
  8
0
100
AcDbCircle
 62
7
  6
CONTINUOUS
 10
300.5030997124
 20
188.110701535
 40
6.874030281
100
AcDbArc
 50
0.0006240223
 51
1.6221806104
  0
ARC
  5
56F
100
AcDbEntity
  8
DEFAULT_2
100
AcDbCircle
 62
8
  6
HIDDEN
 10
300.7771299929
 20
179.6830946038
 40
6.6
100
AcDbArc
 50
28.9792199101
 51
85.0
  0
ARC
  5
570
100
AcDbEntity
  8
0
100
AcDbCircle
 62
7
  6
CONTINUOUS
 10
298.4971299929
 20
224.7018045234
 40
6.0
100
AcDbArc
 50
0.0
 51
4.1869949363
  0
ARC
  5
571
100
AcDbEntity
  8
0
100
AcDbCircle
 62
7
  6
CONTINUOUS
 10
304.8771299929
 20
176.0807443147
 40
2.5
100
AcDbArc
 50
270.0
 51
360.0
  0
ARC
  5
572
100
AcDbEntity
  8
0
100
AcDbCircle
 62
7
  6
CONTINUOUS
 10
305.2473323358
 20
154.6701291137
 40
2.0937225688
100
AcDbArc
 50
51.4994270666
 51
52.5612381124
  0
ARC
  5
573
100
AcDbEntity
  8
0
100
AcDbCircle
 62
7
  6
CONTINUOUS
 10
307.8964698769
 20
254.4804810906
 40
2.8817855572
100
AcDbArc
 50
257.5380937344
 51
261.1266412195
  0
ARC
  5
574
100
AcDbEntity
  8
0
100
AcDbCircle
 62
7
  6
CONTINUOUS
 10
307.3869021731
 20
267.5366309329
 40
1.0098563492
100
AcDbArc
 50
169.6278238774
 51
173.5096969823
  0
ARC
  5
575
100
AcDbEntity
  8
0
100
AcDbCircle
 62
7
  6
CONTINUOUS
 10
307.38538779
 20
264.4516450194
 40
1.008318938
100
AcDbArc
 50
169.9880239663
 51
174.5767023402
  0
ARC
  5
576
100
AcDbEntity
  8
0
100
AcDbCircle
 62
7
  6
CONTINUOUS
 10
304.377107482
 20
263.875719868
 40
1.0000130651
100
AcDbArc
 50
0.003132851
 51
154.8324607768
  0
ARC
  5
577
100
AcDbEntity
  8
0
100
AcDbCircle
 62
7
  6
CONTINUOUS
 10
307.3771347644
 20
262.3790322837
 40
1.0000041755
100
AcDbArc
 50
0.0008403852
 51
179.4479925897
  0
ARC
  5
578
100
AcDbEntity
  8
0
100
AcDbCircle
 62
7
  6
CONTINUOUS
 10
307.3771511742
 20
264.4532790402
 40
0.9999648843
100
AcDbArc
 50
359.9982680551
 51
169.9981757351
  0
ARC
  5
579
100
AcDbEntity
  8
0
100
AcDbCircle
 62
7
  6
CONTINUOUS
 10
307.3772070186
 20
267.538607929
 40
0.9999229745
100
AcDbArc
 50
328.850877287
 51
169.6413430362
  0
ARC
  5
57A
100
AcDbEntity
  8
0
100
AcDbCircle
 62
7
  6
CONTINUOUS
 10
304.3772266481
 20
270.0465068966
 40
0.9999033452
100
AcDbArc
 50
326.3195904006
 51
143.2867396551
  0
ARC
  5
57B
100
AcDbEntity
  8
0
100
AcDbCircle
 62
7
  6
CONTINUOUS
 10
304.3773219888
 20
266.5780819947
 40
0.9998080054
100
AcDbArc
 50
324.4157597774
 51
159.5425802923
  0
ARC
  5
57C
100
AcDbEntity
  8
0
100
AcDbCircle
 62
7
  6
CONTINUOUS
 10
307.3774141211
 20
271.6350608818
 40
0.9997158799
100
AcDbArc
 50
308.0623345547
 51
178.9822746342
  0
CIRCLE
  5
57D
100
AcDbEntity
  8
BEZUGSACHSEN
100
AcDbCircle
 62
7
  6
CONTINUOUS
 10
330.3771299929
 20
187.9807443147
 40
17.0
  0
CIRCLE
  5
57E
100
AcDbEntity
  8
BEZUGSACHSEN
100
AcDbCircle
 62
7
  6
CONTINUOUS
 10
330.3771299929
 20
187.9807443147
 40
12.0
  0
ARC
  5
57F
100
AcDbEntity
  8
KONSTRUKTIONSELEMENTE
100
AcDbCircle
 62
7
  6
CONTINUOUS
 10
358.524577994
 20
265.331329764
 40
79.3848343322
100
AcDbArc
 50
179.9837947239
 51
180.9278201116
  0
CIRCLE
  5
580
100
AcDbEntity
  8
BEZUGSACHSEN
100
AcDbCircle
 62
7
  6
CONTINUOUS
 10
330.3771299929
 20
277.9807443147
 40
17.0
  0
ARC
  5
581
100
AcDbEntity
  8
0
100
AcDbCircle
 62
7
  6
CONTINUOUS
 10
333.3898285476
 20
297.6039744908
 40
13.9869965334
100
AcDbArc
 50
359.9852117535
 51
85.0474736204
  0
CIRCLE
  5
582
100
AcDbEntity
  8
BEZUGSACHSEN
100
AcDbCircle
 62
7
  6
CONTINUOUS
 10
330.3771299929
 20
277.9807443147
 40
12.0
  0
ARC
  5
583
100
AcDbEntity
  8
0
100
AcDbCircle
 62
7
  6
CONTINUOUS
 10
306.8961374785
 20
526.9549364787
 40
226.8378238463
100
AcDbArc
 50
269.6965280254
 51
269.9367449142
  0
ARC
  5
584
100
AcDbEntity
  8
0
100
AcDbCircle
 62
7
  6
CONTINUOUS
 10
43.3859249017
 20
-170.3479838573
 40
231.0921995973
100
AcDbArc
 50
74.6956924935
 51
76.2647971638
  0
ARC
  5
585
100
AcDbEntity
  8
0
100
AcDbCircle
 62
7
  6
CONTINUOUS
 10
101.1809511888
 20
56.4874785737
 40
0.9999885168
100
AcDbArc
 50
91.5316717778
 51
342.5775377154
  0
ARC
  5
586
100
AcDbEntity
  8
0
100
AcDbCircle
 62
7
  6
CONTINUOUS
 10
105.706476406
 20
56.4873791648
 40
0.9998896037
100
AcDbArc
 50
98.0630851353
 51
308.2001700631
  0
ARC
  5
587
100
AcDbEntity
  8
0
100
AcDbCircle
 62
7
  6
CONTINUOUS
 10
103.0580701651
 20
59.4873561887
 40
0.9998666281
100
AcDbArc
 50
135.6959906606
 51
311.9280517827
  0
ARC
  5
588
100
AcDbEntity
  8
KONSTRUKTIONSELEMENTE
100
AcDbCircle
 62
7
  6
CONTINUOUS
 10
43.3859249018
 20
307.3229629807
 40
231.092199597
100
AcDbArc
 50
283.7352028362
 51
285.3043075065
  0
ARC
  5
589
100
AcDbEntity
  8
KONSTRUKTIONSELEMENTE
100
AcDbCircle
 62
7
  6
CONTINUOUS
 10
84.4286986103
 20
77.4540055507
 40
4.1485535208
100
AcDbArc
 50
77.2440890239
 51
81.0063862695
  0
ARC
  5
58A
100
AcDbEntity
  8
KONSTRUKTIONSELEMENTE
100
AcDbCircle
 62
7
  6
CONTINUOUS
 10
84.2591637455
 20
77.8894338691
 40
3.7523793634
100
AcDbArc
 50
77.4078431612
 51
81.1272227216
  0
ARC
  5
58B
100
AcDbEntity
  8
BEZUGSACHSEN
100
AcDbCircle
 62
7
  6
CONTINUOUS
 10
101.180951248
 20
80.4875006306
 40
0.9999885168
100
AcDbArc
 50
17.4224588928
 51
268.4683282222
  0
ARC
  5
58C
100
AcDbEntity
  8
BEZUGSACHSEN
100
AcDbCircle
 62
7
  6
CONTINUOUS
 10
105.706476406
 20
80.4875999588
 40
0.9998896037
100
AcDbArc
 50
51.7998299369
 51
261.9369144894
  0
ARC
  5
58D
100
AcDbEntity
  8
BEZUGSACHSEN
100
AcDbCircle
 62
7
  6
CONTINUOUS
 10
103.0580701651
 20
77.487622935
 40
0.9998666281
100
AcDbArc
 50
48.0719482173
 51
224.3040055996
  0
ARC
  5
58E
100
AcDbEntity
  8
KONSTRUKTIONSELEMENTE
100
AcDbCircle
 62
7
  6
CONTINUOUS
 10
108.1026284237
 20
-64.5509340943
 40
149.2758080021
100
AcDbArc
 50
90.0072352185
 51
90.6765411207
  0
ARC
  5
58F
100
AcDbEntity
  8
0
100
AcDbCircle
 62
7
  6
CONTINUOUS
 10
169.4185367713
 20
51.5681811601
 40
24.0
100
AcDbArc
 50
198.2228936988
 51
203.996644015
  0
ARC
  5
590
100
AcDbEntity
  8
0
100
AcDbCircle
 62
7
  6
CONTINUOUS
 10
129.5126270173
 20
37.8874895618
 40
18.6
100
AcDbArc
 50
37.366101908
 51
45.5817735429
  0
ARC
  5
591
100
AcDbEntity
  8
0
100
AcDbCircle
 62
7
  6
CONTINUOUS
 10
131.0486270173
 20
34.4874895618
 40
18.0
100
AcDbArc
 50
4.0
 51
23.996644015
  0
ARC
  5
592
100
AcDbEntity
  8
0
100
AcDbCircle
 62
7
  6
CONTINUOUS
 10
139.7833048833
 20
41.8114895618
 40
7.2
100
AcDbArc
 50
18.2228936988
 51
25.0
  0
ARC
  5
593
100
AcDbEntity
  8
0
100
AcDbCircle
 62
7
  6
CONTINUOUS
 10
136.6886270173
 20
51.2874895618
 40
6.0
100
AcDbArc
 50
25.0
 51
168.4630409672
  0
ARC
  5
594
100
AcDbEntity
  8
0
100
AcDbCircle
 62
7
  6
CONTINUOUS
 10
109.385021539
 20
56.4790668227
 40
1.008484949
100
AcDbArc
 50
96.1704475603
 51
99.7519712669
  0
ARC
  5
595
100
AcDbEntity
  8
0
100
AcDbCircle
 62
7
  6
CONTINUOUS
 10
110.412105911
 20
59.4874983661
 40
1.0000167811
100
AcDbArc
 50
117.4814609987
 51
269.9965558197
  0
ARC
  5
596
100
AcDbEntity
  8
0
100
AcDbCircle
 62
7
  6
CONTINUOUS
 10
109.3835074536
 20
56.4871763348
 40
0.9996867745
100
AcDbArc
 50
99.742753606
 51
299.0888024188
  0
ARC
  5
597
100
AcDbEntity
  8
0
100
AcDbCircle
 62
7
  6
CONTINUOUS
 10
112.2120881145
 20
56.4871591496
 40
0.999669593
100
AcDbArc
 50
90.5926925976
 51
299.0799520554
  0
ARC
  5
598
100
AcDbEntity
  8
0
100
AcDbCircle
 62
7
  6
CONTINUOUS
 10
107.0565576197
 20
59.4869962523
 40
0.9995066991
100
AcDbArc
 50
113.8022123063
 51
311.0568019098
  0
ARC
  5
599
100
AcDbEntity
  8
0
100
AcDbCircle
 62
7
  6
CONTINUOUS
 10
108.1026284237
 20
201.5259132189
 40
149.2758080031
100
AcDbArc
 50
269.3234588793
 51
269.9927647815
  0
ARC
  5
59A
100
AcDbEntity
  8
KONSTRUKTIONSELEMENTE
100
AcDbCircle
 62
7
  6
CONTINUOUS
 10
169.4185367713
 20
85.4067979636
 40
24.0
100
AcDbArc
 50
156.003355985
 51
161.7771063012
  0
ARC
  5
59B
100
AcDbEntity
  8
BEZUGSACHSEN
100
AcDbCircle
 62
7
  6
CONTINUOUS
 10
129.5126270173
 20
99.0874895618
 40
18.6
100
AcDbArc
 50
314.4289406758
 51
322.6780012944
  0
ARC
  5
59C
100
AcDbEntity
  8
KONSTRUKTIONSELEMENTE
100
AcDbCircle
 62
7
  6
CONTINUOUS
 10
131.0486270173
 20
102.4874895618
 40
18.0
100
AcDbArc
 50
336.003355985
 51
356.0
  0
ARC
  5
59D
100
AcDbEntity
  8
KONSTRUKTIONSELEMENTE
100
AcDbCircle
 62
7
  6
CONTINUOUS
 10
139.7833048833
 20
95.1634895618
 40
7.2
100
AcDbArc
 50
335.0
 51
341.7771063012
  0
ARC
  5
59E
100
AcDbEntity
  8
KONSTRUKTIONSELEMENTE
100
AcDbCircle
 62
7
  6
CONTINUOUS
 10
136.6886270173
 20
85.6874895618
 40
6.0
100
AcDbArc
 50
191.5369590328
 51
335.0
  0
ARC
  5
59F
100
AcDbEntity
  8
BEZUGSACHSEN
100
AcDbCircle
 62
7
  6
CONTINUOUS
 10
109.385021539
 20
80.4959123009
 40
1.008484949
100
AcDbArc
 50
260.2480287331
 51
263.8295524397
  0
ARC
  5
5A0
100
AcDbEntity
  8
BEZUGSACHSEN
100
AcDbCircle
 62
7
  6
CONTINUOUS
 10
110.412105975
 20
77.4874810192
 40
1.0000167811
100
AcDbArc
 50
90.0034478467
 51
242.5185426685
  0
ARC
  5
5A1
100
AcDbEntity
  8
BEZUGSACHSEN
100
AcDbCircle
 62
7
  6
CONTINUOUS
 10
109.3835074536
 20
80.4878027889
 40
0.9996867745
100
AcDbArc
 50
60.9111975812
 51
260.257237702
  0
ARC
  5
5A2
100
AcDbEntity
  8
BEZUGSACHSEN
100
AcDbCircle
 62
7
  6
CONTINUOUS
 10
112.2120881145
 20
80.4878199741
 40
0.999669593
100
AcDbArc
 50
60.9200479446
 51
269.4073074024
  0
ARC
  5
5A3
100
AcDbEntity
  8
BEZUGSACHSEN
100
AcDbCircle
 62
7
  6
CONTINUOUS
 10
107.0565576197
 20
77.4879828714
 40
0.9995066991
100
AcDbArc
 50
48.9431980902
 51
246.1977906061
  0
SPLINE
  5
5A4
100
AcDbEntity
  8
BEZUGSACHSEN
100
AcDbSpline
 62
7
  6
CONTINUOUS
 70
0
 71
3
 72
9
 73
5
 74
0
 42
0.0000001
 43
0.0000001
 44
0.0000000001
 40
0.0
 40
0.0
 40
0.0
 40
0.0
 40
0.4961584458
 40
1.0
 40
1.0
 40
1.0
 40
1.0
 10
140.3886270173
 20
198.3730491601
 30
0.0
 10
140.3886270432
 20
198.6318196685
 30
0.0
 10
140.4281070794
 20
199.1540710437
 30
0.0
 10
140.5417804722
 20
199.6648432449
 30
0.0
 10
140.614447176
 20
199.9173736932
 30
0.0
  0
SPLINE
  5
5A5
100
AcDbEntity
  8
BEZUGSACHSEN
100
AcDbSpline
 62
7
  6
CONTINUOUS
 70
0
 71
3
 72
9
 73
5
 74
0
 42
0.0000001
 43
0.0000001
 44
0.0000000001
 40
0.0
 40
0.0
 40
0.0
 40
0.0
 40
0.2431746277
 40
1.0
 40
1.0
 40
1.0
 40
1.0
 10
140.614447176
 20
199.9173736932
 30
0.0
 10
140.6615433201
 20
200.0810416422
 30
0.0
 10
140.8820574006
 20
200.7464251189
 30
0.0
 10
141.1953994897
 20
201.378115227
 30
0.0
 10
141.4604237871
 20
201.8371507752
 30
0.0
  0
SPLINE
  5
5A6
100
AcDbEntity
  8
BEZUGSACHSEN
100
AcDbSpline
 62
7
  6
CONTINUOUS
 70
0
 71
3
 72
11
 73
7
 74
0
 42
0.0000001
 43
0.0000001
 44
0.0000000001
 40
0.0
 40
0.0
 40
0.0
 40
0.0
 40
0.2404100398
 40
0.4855110518
 40
0.7383643655
 40
1.0
 40
1.0
 40
1.0
 40
1.0
 10
140.3886270173
 20
177.5884394694
 30
0.0
 10
140.3886270174
 20
177.8822451701
 30
0.0
 10
140.4398431915
 20
178.4766907135
 30
0.0
 10
140.6611131032
 20
179.3547411063
 30
0.0
 10
141.0069453998
 20
180.2185455098
 30
0.0
 10
141.300551011
 20
180.7756333135
 30
0.0
 10
141.4604237871
 20
181.0525410844
 30
0.0
  0
SPLINE
  5
5A7
100
AcDbEntity
  8
BEZUGSACHSEN
100
AcDbSpline
 62
7
  6
CONTINUOUS
 70
0
 71
3
 72
11
 73
7
 74
0
 42
0.0000001
 43
0.0000001
 44
0.0000000001
 40
0.0
 40
0.0
 40
0.0
 40
0.0
 40
0.261635636
 40
0.5144889974
 40
0.7595899979
 40
1.0
 40
1.0
 40
1.0
 40
1.0
 10
141.4604237871
 20
174.1243378541
 30
0.0
 10
141.30055101
 20
174.4012456267
 30
0.0
 10
141.0069453678
 20
174.9583334822
 30
0.0
 10
140.6611130638
 20
175.8221379342
 30
0.0
 10
140.4398431791
 20
176.7001883319
 30
0.0
 10
140.3886270174
 20
177.2946338147
 30
0.0
 10
140.3886270173
 20
177.5884394694
 30
0.0
  0
SPLINE
  5
5A8
100
AcDbEntity
  8
BEZUGSACHSEN
100
AcDbSpline
 62
7
  6
CONTINUOUS
 70
0
 71
3
 72
10
 73
6
 74
0
 42
0.0000001
 43
0.0000001
 44
0.0000000001
 40
0.0
 40
0.0
 40
0.0
 40
0.0
 40
0.2500542352
 40
0.5001085202
 40
1.0
 40
1.0
 40
1.0
 40
1.0
 10
140.3886270173
 20
187.9807443147
 30
0.0
 10
140.3886270173
 20
188.5668091785
 30
0.0
 10
140.4386353092
 20
189.7395603785
 30
0.0
 10
140.7292306015
 20
192.067177354
 30
0.0
 10
141.1354745446
 20
193.7832903492
 30
0.0
 10
141.4604237871
 20
194.9089475449
 30
0.0
  0
SPLINE
  5
5A9
100
AcDbEntity
  8
BEZUGSACHSEN
100
AcDbSpline
 62
7
  6
CONTINUOUS
 70
0
 71
3
 72
10
 73
6
 74
0
 42
0.0000001
 43
0.0000001
 44
0.0000000001
 40
0.0
 40
0.0
 40
0.0
 40
0.0
 40
0.4998915143
 40
0.7499457876
 40
1.0
 40
1.0
 40
1.0
 40
1.0
 10
141.4604237871
 20
181.0525410844
 30
0.0
 10
141.1354745221
 20
182.1781983579
 30
0.0
 10
140.7292305693
 20
183.8943114071
 30
0.0
 10
140.4386352986
 20
186.2219283854
 30
0.0
 10
140.3886270173
 20
187.3946795043
 30
0.0
 10
140.3886270173
 20
187.9807443147
 30
0.0
  0
SPLINE
  5
5AA
100
AcDbEntity
  8
BEZUGSACHSEN
100
AcDbSpline
 62
7
  6
CONTINUOUS
 70
0
 71
3
 72
11
 73
7
 74
0
 42
0.0000001
 43
0.0000001
 44
0.0000000001
 40
0.0
 40
0.0
 40
0.0
 40
0.0
 40
0.261635636
 40
0.5144889974
 40
0.7595899979
 40
1.0
 40
1.0
 40
1.0
 40
1.0
 10
141.4604237871
 20
194.9089475449
 30
0.0
 10
141.30055101
 20
195.1858553175
 30
0.0
 10
141.0069453678
 20
195.7429431729
 30
0.0
 10
140.6611130638
 20
196.606747625
 30
0.0
 10
140.4398431792
 20
197.4847980226
 30
0.0
 10
140.3886270173
 20
198.0792435054
 30
0.0
 10
140.3886270173
 20
198.3730491601
 30
0.0
  0
SPLINE
  5
5AB
100
AcDbEntity
  8
BEZUGSACHSEN
100
AcDbSpline
 62
7
  6
CONTINUOUS
 70
0
 71
3
 72
9
 73
5
 74
0
 42
0.0000001
 43
0.0000001
 44
0.0000000001
 40
0.0
 40
0.0
 40
0.0
 40
0.0
 40
0.4961584458
 40
1.0
 40
1.0
 40
1.0
 40
1.0
 10
140.3886270173
 20
288.3730491601
 30
0.0
 10
140.3886270432
 20
288.6318196685
 30
0.0
 10
140.4281070794
 20
289.1540710437
 30
0.0
 10
140.5417804722
 20
289.6648432449
 30
0.0
 10
140.614447176
 20
289.9173736932
 30
0.0
  0
SPLINE
  5
5AC
100
AcDbEntity
  8
BEZUGSACHSEN
100
AcDbSpline
 62
7
  6
CONTINUOUS
 70
0
 71
3
 72
9
 73
5
 74
0
 42
0.0000001
 43
0.0000001
 44
0.0000000001
 40
0.0
 40
0.0
 40
0.0
 40
0.0
 40
0.2431746277
 40
1.0
 40
1.0
 40
1.0
 40
1.0
 10
140.614447176
 20
289.9173736932
 30
0.0
 10
140.6615433201
 20
290.0810416422
 30
0.0
 10
140.8820574006
 20
290.7464251189
 30
0.0
 10
141.1953994897
 20
291.378115227
 30
0.0
 10
141.4604237871
 20
291.8371507752
 30
0.0
  0
SPLINE
  5
5AD
100
AcDbEntity
  8
BEZUGSACHSEN
100
AcDbSpline
 62
7
  6
CONTINUOUS
 70
0
 71
3
 72
11
 73
7
 74
0
 42
0.0000001
 43
0.0000001
 44
0.0000000001
 40
0.0
 40
0.0
 40
0.0
 40
0.0
 40
0.2404100398
 40
0.4855110518
 40
0.7383643655
 40
1.0
 40
1.0
 40
1.0
 40
1.0
 10
140.3886270173
 20
267.5884394694
 30
0.0
 10
140.3886270174
 20
267.8822451701
 30
0.0
 10
140.4398431915
 20
268.4766907135
 30
0.0
 10
140.6611131032
 20
269.3547411063
 30
0.0
 10
141.0069453998
 20
270.2185455098
 30
0.0
 10
141.300551011
 20
270.7756333135
 30
0.0
 10
141.4604237871
 20
271.0525410844
 30
0.0
  0
SPLINE
  5
5AE
100
AcDbEntity
  8
BEZUGSACHSEN
100
AcDbSpline
 62
7
  6
CONTINUOUS
 70
0
 71
3
 72
11
 73
7
 74
0
 42
0.0000001
 43
0.0000001
 44
0.0000000001
 40
0.0
 40
0.0
 40
0.0
 40
0.0
 40
0.261635636
 40
0.5144889974
 40
0.7595899979
 40
1.0
 40
1.0
 40
1.0
 40
1.0
 10
141.4604237871
 20
264.1243378541
 30
0.0
 10
141.30055101
 20
264.4012456267
 30
0.0
 10
141.0069453678
 20
264.9583334822
 30
0.0
 10
140.6611130638
 20
265.8221379342
 30
0.0
 10
140.4398431791
 20
266.7001883319
 30
0.0
 10
140.3886270174
 20
267.2946338147
 30
0.0
 10
140.3886270173
 20
267.5884394694
 30
0.0
  0
SPLINE
  5
5AF
100
AcDbEntity
  8
BEZUGSACHSEN
100
AcDbSpline
 62
7
  6
CONTINUOUS
 70
0
 71
3
 72
10
 73
6
 74
0
 42
0.0000001
 43
0.0000001
 44
0.0000000001
 40
0.0
 40
0.0
 40
0.0
 40
0.0
 40
0.2500542352
 40
0.5001085202
 40
1.0
 40
1.0
 40
1.0
 40
1.0
 10
140.3886270173
 20
277.9807443147
 30
0.0
 10
140.3886270173
 20
278.5668091785
 30
0.0
 10
140.4386353092
 20
279.7395603785
 30
0.0
 10
140.7292306015
 20
282.067177354
 30
0.0
 10
141.1354745446
 20
283.7832903492
 30
0.0
 10
141.4604237871
 20
284.9089475449
 30
0.0
  0
SPLINE
  5
5B0
100
AcDbEntity
  8
BEZUGSACHSEN
100
AcDbSpline
 62
7
  6
CONTINUOUS
 70
0
 71
3
 72
10
 73
6
 74
0
 42
0.0000001
 43
0.0000001
 44
0.0000000001
 40
0.0
 40
0.0
 40
0.0
 40
0.0
 40
0.4998915143
 40
0.7499457876
 40
1.0
 40
1.0
 40
1.0
 40
1.0
 10
141.4604237871
 20
271.0525410844
 30
0.0
 10
141.1354745221
 20
272.1781983579
 30
0.0
 10
140.7292305693
 20
273.8943114071
 30
0.0
 10
140.4386352986
 20
276.2219283854
 30
0.0
 10
140.3886270173
 20
277.3946795043
 30
0.0
 10
140.3886270173
 20
277.9807443147
 30
0.0
  0
SPLINE
  5
5B1
100
AcDbEntity
  8
BEZUGSACHSEN
100
AcDbSpline
 62
7
  6
CONTINUOUS
 70
0
 71
3
 72
11
 73
7
 74
0
 42
0.0000001
 43
0.0000001
 44
0.0000000001
 40
0.0
 40
0.0
 40
0.0
 40
0.0
 40
0.261635636
 40
0.5144889974
 40
0.7595899979
 40
1.0
 40
1.0
 40
1.0
 40
1.0
 10
141.4604237871
 20
284.9089475449
 30
0.0
 10
141.30055101
 20
285.1858553175
 30
0.0
 10
141.0069453678
 20
285.7429431729
 30
0.0
 10
140.6611130638
 20
286.606747625
 30
0.0
 10
140.4398431792
 20
287.4847980226
 30
0.0
 10
140.3886270173
 20
288.0792435054
 30
0.0
 10
140.3886270173
 20
288.3730491601
 30
0.0
  0
SPLINE
  5
5B2
100
AcDbEntity
  8
0
100
AcDbSpline
 62
7
  6
CONTINUOUS
 70
0
 71
3
 72
13
 73
9
 74
0
 42
0.0000001
 43
0.0000001
 44
0.0000000001
 40
0.0
 40
0.0
 40
0.0
 40
0.0
 40
0.0679195019
 40
0.1500768585
 40
0.2515285782
 40
0.372972509
 40
0.6661891318
 40
1.0
 40
1.0
 40
1.0
 40
1.0
 10
107.8907356643
 20
267.1293454718
 30
0.0
 10
107.9045988537
 20
267.1083073164
 30
0.0
 10
107.9224027837
 20
267.0531761614
 30
0.0
 10
107.9151552979
 20
266.9588592694
 30
0.0
 10
107.8805375777
 20
266.8504317257
 30
0.0
 10
107.7931446338
 20
266.6794237246
 30
0.0
 10
107.6233326907
 20
266.4573389649
 30
0.0
 10
107.4553165443
 20
266.2953973745
 30
0.0
 10
107.3604581716
 20
266.215801749
 30
0.0
  0
SPLINE
  5
5B3
100
AcDbEntity
  8
0
100
AcDbSpline
 62
7
  6
CONTINUOUS
 70
0
 71
3
 72
14
 73
10
 74
0
 42
0.0000001
 43
0.0000001
 44
0.0000000001
 40
0.0
 40
0.0
 40
0.0
 40
0.0
 40
0.0680780096
 40
0.1478900354
 40
0.2463017121
 40
0.3651610073
 40
0.5033320933
 40
0.6580544363
 40
1.0
 40
1.0
 40
1.0
 40
1.0
 10
103.9560616257
 20
264.3156063982
 30
0.0
 10
103.9665252927
 20
264.2944085615
 30
0.0
 10
103.9767336099
 20
264.24174207
 30
0.0
 10
103.9561704332
 20
264.1570851244
 30
0.0
 10
103.906077228
 20
264.0660700515
 30
0.0
 10
103.8280581134
 20
263.9698385274
 30
0.0
 10
103.7243944179
 20
263.8709365253
 30
0.0
 10
103.5503873656
 20
263.7352018227
 30
0.0
 10
103.4014326553
 20
263.6465412302
 30
0.0
 10
103.2956886198
 20
263.5925310965
 30
0.0
  0
SPLINE
  5
5B4
100
AcDbEntity
  8
0
100
AcDbSpline
 62
7
  6
CONTINUOUS
 70
0
 71
3
 72
13
 73
9
 74
0
 42
0.0000001
 43
0.0000001
 44
0.0000000001
 40
0.0
 40
0.0
 40
0.0
 40
0.0
 40
0.0503041818
 40
0.1209348241
 40
0.2161563193
 40
0.3356682483
 40
0.638255559
 40
1.0
 40
1.0
 40
1.0
 40
1.0
 10
102.1769553081
 20
262.4678131744
 30
0.0
 10
102.1784391904
 20
262.4536325518
 30
0.0
 10
102.1680788649
 20
262.4187771833
 30
0.0
 10
102.1295936862
 20
262.3706885218
 30
0.0
 10
102.0686583853
 20
262.3170172709
 30
0.0
 10
101.9477638833
 20
262.2337108073
 30
0.0
 10
101.7503871165
 20
262.1302999379
 30
0.0
 10
101.5762837547
 20
262.058158394
 30
0.0
 10
101.4801754362
 20
262.0224382709
 30
0.0
  0
SPLINE
  5
5B5
100
AcDbEntity
  8
0
100
AcDbSpline
 62
7
  6
CONTINUOUS
 70
0
 71
3
 72
14
 73
10
 74
0
 42
0.0000001
 43
0.0000001
 44
0.0000000001
 40
0.0
 40
0.0
 40
0.0
 40
0.0
 40
0.0654248348
 40
0.1447885497
 40
0.2450828357
 40
0.3671751861
 40
0.5085410219
 40
0.6649135595
 40
1.0
 40
1.0
 40
1.0
 40
1.0
 10
110.9700228922
 20
270.8763874121
 30
0.0
 10
110.9922975706
 20
270.8613568554
 30
0.0
 10
111.0312968249
 20
270.8122649154
 30
0.0
 10
111.0527582372
 20
270.7119081419
 30
0.0
 10
111.0465849333
 20
270.5873344469
 30
0.0
 10
111.0133303567
 20
270.4411245476
 30
0.0
 10
110.954606802
 20
270.2786387562
 30
0.0
 10
110.8424818211
 20
270.0438518493
 30
0.0
 10
110.7326497144
 20
269.8731253124
 30
0.0
 10
110.6497152737
 20
269.7632921495
 30
0.0
  0
SPLINE
  5
5B6
100
AcDbEntity
  8
0
100
AcDbSpline
 62
7
  6
CONTINUOUS
 70
0
 71
3
 72
14
 73
10
 74
0
 42
0.0000001
 43
0.0000001
 44
0.0000000001
 40
0.0
 40
0.0
 40
0.0
 40
0.0
 40
0.0478318463
 40
0.1175277496
 40
0.2134972623
 40
0.3350274721
 40
0.4790526331
 40
0.6414376162
 40
1.0
 40
1.0
 40
1.0
 40
1.0
 10
106.6192925368
 20
264.8614482641
 30
0.0
 10
106.6257456135
 20
264.8469614753
 30
0.0
 10
106.6243545224
 20
264.8050379973
 30
0.0
 10
106.5933757557
 20
264.7410785806
 30
0.0
 10
106.537920298
 20
264.66319092
 30
0.0
 10
106.4571782245
 20
264.5743962264
 30
0.0
 10
106.3540140172
 20
264.476828014
 30
0.0
 10
106.1849675817
 20
264.3351553424
 30
0.0
 10
106.0444738196
 20
264.2341442788
 30
0.0
 10
105.9453015125
 20
264.1685825971
 30
0.0
  0
SPLINE
  5
5B7
100
AcDbEntity
  8
0
100
AcDbSpline
 62
7
  6
CONTINUOUS
 70
0
 71
3
 72
9
 73
5
 74
0
 42
0.0000001
 43
0.0000001
 44
0.0000000001
 40
0.0
 40
0.0
 40
0.0
 40
0.0
 40
0.2523844277
 40
1.0
 40
1.0
 40
1.0
 40
1.0
 10
106.3400400356
 20
264.0458663768
 30
0.0
 10
106.18123982
 20
263.9397819477
 30
0.0
 10
105.545886388
 20
263.5287620188
 30
0.0
 10
104.8864014059
 20
263.1548570229
 30
0.0
 10
104.381686048
 20
262.8993426282
 30
0.0
  0
SPLINE
  5
5B8
100
AcDbEntity
  8
0
100
AcDbSpline
 62
7
  6
CONTINUOUS
 70
0
 71
3
 72
12
 73
8
 74
0
 42
0.0000001
 43
0.0000001
 44
0.0000000001
 40
0.0
 40
0.0
 40
0.0
 40
0.0
 40
0.3429594303
 40
0.6529049722
 40
0.8797275768
 40
0.9524349501
 40
1.0
 40
1.0
 40
1.0
 40
1.0
 10
101.4801754362
 20
262.0224382709
 30
0.0
 10
101.3519554158
 20
261.9747833438
 30
0.0
 10
101.1030812784
 20
261.8956392568
 30
0.0
 10
100.7604940947
 20
261.8218701412
 30
0.0
 10
100.5151362621
 20
261.8002294497
 30
0.0
 10
100.3785417155
 20
261.8212014021
 30
0.0
 10
100.3338883737
 20
261.8475174452
 30
0.0
 10
100.3240060142
 20
261.863711599
 30
0.0
  0
SPLINE
  5
5B9
100
AcDbEntity
  8
0
100
AcDbSpline
 62
7
  6
CONTINUOUS
 70
0
 71
3
 72
14
 73
10
 74
0
 42
0.0000001
 43
0.0000001
 44
0.0000000001
 40
0.0
 40
0.0
 40
0.0
 40
0.0
 40
0.3346047423
 40
0.4908740765
 40
0.6321867122
 40
0.7543856268
 40
0.8548772703
 40
0.9345114641
 40
1.0
 40
1.0
 40
1.0
 40
1.0
 10
103.2956886198
 20
263.5925310965
 30
0.0
 10
103.1734739125
 20
263.5301083543
 30
0.0
 10
102.9867837363
 20
263.4517570282
 30
0.0
 10
102.7367469563
 20
263.382127299
 30
0.0
 10
102.5668327657
 20
263.352378589
 30
0.0
 10
102.4171956856
 20
263.3447550334
 30
0.0
 10
102.2933640404
 20
263.3599596093
 30
0.0
 10
102.1979650077
 20
263.3978600949
 30
0.0
 10
102.1558794529
 20
263.4443637094
 30
0.0
 10
102.144675057
 20
263.4687743421
 30
0.0
  0
SPLINE
  5
5BA
100
AcDbEntity
  8
0
100
AcDbSpline
 62
7
  6
CONTINUOUS
 70
0
 71
3
 72
14
 73
10
 74
0
 42
0.0000001
 43
0.0000001
 44
0.0000000001
 40
0.0
 40
0.0
 40
0.0
 40
0.0
 40
0.3535831443
 40
0.5164107971
 40
0.6619430991
 40
0.785312541
 40
0.882740693
 40
0.9529383322
 40
1.0
 40
1.0
 40
1.0
 40
1.0
 10
105.9453015125
 20
264.1685825971
 30
0.0
 10
105.8384471211
 20
264.097942377
 30
0.0
 10
105.677853966
 20
264.0012825607
 30
0.0
 10
105.46372624
 20
263.8931296097
 30
0.0
 10
105.3200565651
 20
263.8310117749
 30
0.0
 10
105.1945886191
 20
263.7873411088
 30
0.0
 10
105.0912026801
 20
263.7644699948
 30
0.0
 10
105.0134181451
 20
263.7600137358
 30
0.0
 10
104.9703888516
 20
263.7762459157
 30
0.0
 10
104.9590204274
 20
263.7889514989
 30
0.0
  0
SPLINE
  5
5BB
100
AcDbEntity
  8
0
100
AcDbSpline
 62
7
  6
CONTINUOUS
 70
0
 71
3
 72
13
 73
9
 74
0
 42
0.0000001
 43
0.0000001
 44
0.0000000001
 40
0.0
 40
0.0
 40
0.0
 40
0.0
 40
0.361744441
 40
0.6643317517
 40
0.7838436807
 40
0.8790651759
 40
0.9496958182
 40
1.0
 40
1.0
 40
1.0
 40
1.0
 10
112.5112154172
 20
271.2785798504
 30
0.0
 10
112.4593489286
 20
271.1901343676
 30
0.0
 10
112.3580706455
 20
271.0312032746
 30
0.0
 10
112.2219567036
 20
270.8547822135
 30
0.0
 10
112.1189227424
 20
270.7501903862
 30
0.0
 10
112.0554855745
 20
270.6995007444
 30
0.0
 10
112.0014446067
 20
270.6699507504
 30
0.0
 10
111.9653197178
 20
270.6658003928
 30
0.0
 10
111.9516122043
 20
270.6697241708
 30
0.0
  0
SPLINE
  5
5BC
100
AcDbEntity
  8
0
100
AcDbSpline
 62
7
  6
CONTINUOUS
 70
0
 71
3
 72
14
 73
10
 74
0
 42
0.0000001
 43
0.0000001
 44
0.0000000001
 40
0.0
 40
0.0
 40
0.0
 40
0.0
 40
0.3419020433
 40
0.4966102618
 40
0.6347907573
 40
0.7536795847
 40
0.8521029361
 40
0.9319182937
 40
1.0
 40
1.0
 40
1.0
 40
1.0
 10
110.6497152737
 20
269.7632921495
 30
0.0
 10
110.5781689988
 20
269.6685407579
 30
0.0
 10
110.4649962852
 20
269.5372553933
 30
0.0
 10
110.3011186876
 20
269.3894575994
 30
0.0
 10
110.1857012583
 20
269.3045405725
 30
0.0
 10
110.0773668511
 20
269.2443969211
 30
0.0
 10
109.9790139657
 20
269.210872549
 30
0.0
 10
109.8920575117
 20
269.2053253174
 30
0.0
 10
109.841968017
 20
269.2245525959
 30
0.0
 10
109.8229118598
 20
269.2385459955
 30
0.0
  0
SPLINE
  5
5BD
100
AcDbEntity
  8
0
100
AcDbSpline
 62
7
  6
CONTINUOUS
 70
0
 71
3
 72
14
 73
10
 74
0
 42
0.0000001
 43
0.0000001
 44
0.0000000001
 40
0.0
 40
0.0
 40
0.0
 40
0.0
 40
0.3585102626
 40
0.5208927586
 40
0.6649383174
 40
0.7864985668
 40
0.8824773425
 40
0.9521701313
 40
1.0
 40
1.0
 40
1.0
 40
1.0
 10
109.6223148395
 20
267.2539631236
 30
0.0
 10
109.5405390811
 20
267.1676937213
 30
0.0
 10
109.4166772226
 20
267.0468870139
 30
0.0
 10
109.2478135347
 20
266.9050102014
 30
0.0
 10
109.1337979644
 20
266.8203473382
 30
0.0
 10
109.0323160325
 20
266.7562358022
 30
0.0
 10
108.9459700869
 20
266.7151423921
 30
0.0
 10
108.8775989614
 20
266.6957433361
 30
0.0
 10
108.8360728256
 20
266.7016605229
 30
0.0
 10
108.8229285503
 20
266.7105330672
 30
0.0
  0
SPLINE
  5
5BE
100
AcDbEntity
  8
0
100
AcDbSpline
 62
7
  6
CONTINUOUS
 70
0
 71
3
 72
12
 73
8
 74
0
 42
0.0000001
 43
0.0000001
 44
0.0000000001
 40
0.0
 40
0.0
 40
0.0
 40
0.0
 40
0.3344399931
 40
0.6284172774
 40
0.7502038462
 40
0.8520202921
 40
1.0
 40
1.0
 40
1.0
 40
1.0
 10
107.3604581716
 20
266.215801749
 30
0.0
 10
107.2657554128
 20
266.136336699
 30
0.0
 10
107.0771795682
 20
265.9992396638
 30
0.0
 10
106.8299273752
 20
265.8703754913
 30
0.0
 10
106.6455943377
 20
265.8142594329
 30
0.0
 10
106.5112050641
 20
265.7945291191
 30
0.0
 10
106.4093852169
 20
265.8141917699
 30
0.0
 10
106.3693999304
 20
265.8515192379
 30
0.0
  0
SPLINE
  5
5BF
100
AcDbEntity
  8
0
100
AcDbSpline
 62
7
  6
CONTINUOUS
 70
0
 71
3
 72
14
 73
10
 74
0
 42
0.0000001
 43
0.0000001
 44
0.0000000001
 40
0.0
 40
0.0
 40
0.0
 40
0.0
 40
0.0470625708
 40
0.1172596932
 40
0.2146910722
 40
0.3380600535
 40
0.4835894574
 40
0.6464099384
 40
1.0
 40
1.0
 40
1.0
 40
1.0
 10
110.1674396469
 20
268.1593452287
 30
0.0
 10
110.1779798051
 20
268.1459439846
 30
0.0
 10
110.1864958198
 20
268.1007490467
 30
0.0
 10
110.168603628
 20
268.0249174673
 30
0.0
 10
110.1281252357
 20
267.927072457
 30
0.0
 10
110.0633315912
 20
267.811092688
 30
0.0
 10
109.9772107139
 20
267.6803946209
 30
0.0
 10
109.8335183399
 20
267.4882995793
 30
0.0
 10
109.7104393084
 20
267.3469301032
 30
0.0
 10
109.6223148395
 20
267.2539631236
 30
0.0
  0
SPLINE
  5
5C0
100
AcDbEntity
  8
0
100
AcDbSpline
 62
7
  6
CONTINUOUS
 70
0
 71
3
 72
12
 73
8
 74
0
 42
0.0000001
 43
0.0000001
 44
0.0000000001
 40
0.0
 40
0.0
 40
0.0
 40
0.0
 40
0.0475630695
 40
0.1202702655
 40
0.3470695485
 40
0.6570181459
 40
1.0
 40
1.0
 40
1.0
 40
1.0
 10
112.8683237112
 20
272.389595604
 30
0.0
 10
112.8825492402
 20
272.3770458849
 30
0.0
 10
112.900697837
 20
272.3285018487
 30
0.0
 10
112.8976156489
 20
272.1903549963
 30
0.0
 10
112.8337093959
 20
271.9524986388
 30
0.0
 10
112.7015727212
 20
271.6279333433
 30
0.0
 10
112.5804140796
 20
271.396581074
 30
0.0
 10
112.5112154172
 20
271.2785798504
 30
0.0
  0
SPLINE
  5
5C1
100
AcDbEntity
  8
0
100
AcDbSpline
 62
7
  6
CONTINUOUS
 70
0
 71
3
 72
15
 73
11
 74
0
 42
0.0000001
 43
0.0000001
 44
0.0000000001
 40
0.0
 40
0.0
 40
0.0
 40
0.0
 40
0.1250058629
 40
0.2500020689
 40
0.3750015572
 40
0.5000003204
 40
0.6249991874
 40
0.7499985254
 40
0.8749944536
 40
1.0
 40
1.0
 40
1.0
 40
1.0
 10
130.7303346036
 20
301.7375385306
 30
0.0
 10
130.9853438757
 20
301.778738228
 30
0.0
 10
131.5059261831
 20
301.8064615845
 30
0.0
 10
132.2763249813
 20
301.6800933134
 30
0.0
 10
133.0019715266
 20
301.3910989379
 30
0.0
 10
133.6481225331
 20
300.9523464023
 30
0.0
 10
134.1843162462
 20
300.3844460318
 30
0.0
 10
134.5853466141
 20
299.7141815249
 30
0.0
 10
134.832967757
 20
298.9738000001
 30
0.0
 10
134.8886270173
 20
298.455461198
 30
0.0
 10
134.8886270173
 20
298.197145875
 30
0.0
  0
SPLINE
  5
5C2
100
AcDbEntity
  8
0
100
AcDbSpline
 62
7
  6
CONTINUOUS
 70
0
 71
3
 72
15
 73
11
 74
0
 42
0.0000001
 43
0.0000001
 44
0.0000000001
 40
0.0
 40
0.0
 40
0.0
 40
0.0
 40
0.1250083674
 40
0.2500043744
 40
0.3750033231
 40
0.500001064
 40
0.6249989488
 40
0.7499975709
 40
0.8749928477
 40
1.0
 40
1.0
 40
1.0
 40
1.0
 10
122.8886270148
 20
304.3596968086
 30
0.0
 10
122.8886269581
 20
304.076253655
 30
0.0
 10
122.9554490212
 20
303.5071218686
 30
0.0
 10
123.2522434186
 20
302.7021800144
 30
0.0
 10
123.7303845166
 20
301.9892279852
 30
0.0
 10
124.3637864747
 20
301.4098632485
 30
0.0
 10
125.1164981229
 20
300.9972066277
 30
0.0
 10
125.9455727857
 20
300.7746044693
 30
0.0
 10
126.8032191618
 20
300.7533335989
 30
0.0
 10
127.363477621
 20
300.8736707988
 30
0.0
 10
127.6317667319
 20
300.965100622
 30
0.0
  0
SPLINE
  5
5C3
100
AcDbEntity
  8
0
100
AcDbSpline
 62
7
  6
CONTINUOUS
 70
0
 71
3
 72
9
 73
5
 74
0
 42
0.0000001
 43
0.0000001
 44
0.0000000001
 40
0.0
 40
0.0
 40
0.0
 40
0.0
 40
0.2480245861
 40
1.0
 40
1.0
 40
1.0
 40
1.0
 10
119.3702021015
 20
177.7907672369
 30
0.0
 10
119.4704964641
 20
177.842048448
 30
0.0
 10
119.8699301581
 20
178.0583903098
 30
0.0
 10
120.2495991832
 20
178.3107267766
 30
0.0
 10
120.5221639362
 20
178.5165064663
 30
0.0
  0
SPLINE
  5
5C4
100
AcDbEntity
  8
0
100
AcDbSpline
 62
7
  6
CONTINUOUS
 70
0
 71
3
 72
9
 73
5
 74
0
 42
0.0000001
 43
0.0000001
 44
0.0000000001
 40
0.0
 40
0.0
 40
0.0
 40
0.0
 40
0.5001625485
 40
1.0
 40
1.0
 40
1.0
 40
1.0
 10
120.5221639362
 20
178.5165064663
 30
0.0
 10
120.7818124319
 20
178.7125346994
 30
0.0
 10
121.3110894555
 20
179.0908026709
 30
0.0
 10
121.8444825876
 20
179.4632914499
 30
0.0
 10
122.1046196223
 20
179.6583185847
 30
0.0
  0
SPLINE
  5
5C5
100
AcDbEntity
  8
0
100
AcDbSpline
 62
7
  6
CONTINUOUS
 70
0
 71
3
 72
9
 73
5
 74
0
 42
0.0000001
 43
0.0000001
 44
0.0000000001
 40
0.0
 40
0.0
 40
0.0
 40
0.0
 40
0.5015626246
 40
1.0
 40
1.0
 40
1.0
 40
1.0
 10
122.1046196223
 20
156.3325522353
 30
0.0
 10
121.6238866705
 20
156.5537323495
 30
0.0
 10
120.5722725468
 20
156.7884327754
 30
0.0
 10
119.5149235197
 20
156.7862139868
 30
0.0
 10
118.9900898095
 20
156.7531144478
 30
0.0
  0
SPLINE
  5
5C6
100
AcDbEntity
  8
0
100
AcDbSpline
 62
7
  6
CONTINUOUS
 70
0
 71
3
 72
9
 73
5
 74
0
 42
0.0000001
 43
0.0000001
 44
0.0000000001
 40
0.0
 40
0.0
 40
0.0
 40
0.0
 40
0.2265310725
 40
1.0
 40
1.0
 40
1.0
 40
1.0
 10
146.6222045497
 20
312.7595218198
 30
0.0
 10
146.6874881151
 20
312.7446575631
 30
0.0
 10
146.9763563916
 20
312.6820248457
 30
0.0
 10
147.2673464419
 20
312.6295424499
 30
0.0
 10
147.4928740547
 20
312.5921316831
 30
0.0
  0
SPLINE
  5
5C7
100
AcDbEntity
  8
BEZUGSACHSEN
100
AcDbSpline
 62
7
  6
CONTINUOUS
 70
0
 71
3
 72
9
 73
5
 74
0
 42
0.0000001
 43
0.0000001
 44
0.0000000001
 40
0.0
 40
0.0
 40
0.0
 40
0.0
 40
0.2570179372
 40
1.0
 40
1.0
 40
1.0
 40
1.0
 10
146.8744861393
 20
291.8372669844
 30
0.0
 10
146.9195020048
 20
291.9248909543
 30
0.0
 10
147.1020239713
 20
292.2619276436
 30
0.0
 10
147.3159093274
 20
292.5823633945
 30
0.0
 10
147.4928740547
 20
292.8054759422
 30
0.0
  0
SPLINE
  5
5C8
100
AcDbEntity
  8
BEZUGSACHSEN
100
AcDbSpline
 62
7
  6
CONTINUOUS
 70
0
 71
3
 72
9
 73
5
 74
0
 42
0.0000001
 43
0.0000001
 44
0.0000000001
 40
0.0
 40
0.0
 40
0.0
 40
0.0
 40
0.2634833043
 40
1.0
 40
1.0
 40
1.0
 40
1.0
 10
147.6667041922
 20
202.7328514172
 30
0.0
 10
147.7026049744
 20
202.8250481438
 30
0.0
 10
147.8489004002
 20
203.1707870395
 30
0.0
 10
148.0404453401
 20
203.4987673699
 30
0.0
 10
148.2097811106
 20
203.7174335652
 30
0.0
  0
SPLINE
  5
5C9
100
AcDbEntity
  8
BEZUGSACHSEN
100
AcDbSpline
 62
7
  6
CONTINUOUS
 70
0
 71
3
 72
9
 73
5
 74
0
 42
0.0000001
 43
0.0000001
 44
0.0000000001
 40
0.0
 40
0.0
 40
0.0
 40
0.0
 40
0.2384619415
 40
1.0
 40
1.0
 40
1.0
 40
1.0
 10
148.2097811106
 20
262.2440550641
 30
0.0
 10
148.154945821
 20
262.3148648175
 30
0.0
 10
147.9374404082
 20
262.6214607075
 30
0.0
 10
147.7704850787
 20
262.9621177262
 30
0.0
 10
147.6667041922
 20
263.2286372121
 30
0.0
  0
SPLINE
  5
5CA
100
AcDbEntity
  8
BEZUGSACHSEN
100
AcDbSpline
 62
7
  6
CONTINUOUS
 70
0
 71
3
 72
9
 73
5
 74
0
 42
0.0000001
 43
0.0000001
 44
0.0000000001
 40
0.0
 40
0.0
 40
0.0
 40
0.0
 40
0.2384619415
 40
1.0
 40
1.0
 40
1.0
 40
1.0
 10
148.2097811106
 20
172.2440550641
 30
0.0
 10
148.154945821
 20
172.3148648175
 30
0.0
 10
147.9374404082
 20
172.6214607075
 30
0.0
 10
147.7704850787
 20
172.9621177262
 30
0.0
 10
147.6667041922
 20
173.2286372121
 30
0.0
  0
SPLINE
  5
5CB
100
AcDbEntity
  8
0
100
AcDbSpline
 62
7
  6
CONTINUOUS
 70
0
 71
3
 72
9
 73
5
 74
0
 42
0.0000001
 43
0.0000001
 44
0.0000000001
 40
0.0
 40
0.0
 40
0.0
 40
0.0
 40
0.5130360467
 40
1.0
 40
1.0
 40
1.0
 40
1.0
 10
125.1948480717
 20
181.5159854514
 30
0.0
 10
124.6325676549
 20
181.2607067251
 30
0.0
 10
123.5681203537
 20
180.6912755965
 30
0.0
 10
122.5735928211
 20
180.0099121183
 30
0.0
 10
122.1046196223
 20
179.6583185847
 30
0.0
  0
SPLINE
  5
5CC
100
AcDbEntity
  8
0
100
AcDbSpline
 62
7
  6
CONTINUOUS
 70
0
 71
3
 72
10
 73
6
 74
0
 42
0.0000001
 43
0.0000001
 44
0.0000000001
 40
0.0
 40
0.0
 40
0.0
 40
0.0
 40
0.2368070463
 40
0.485371234
 40
1.0
 40
1.0
 40
1.0
 40
1.0
 10
122.1561066855
 20
156.308680441
 30
0.0
 10
122.4041175954
 20
156.1927896416
 30
0.0
 10
122.9052705653
 20
155.9399043164
 30
0.0
 10
123.9193489378
 20
155.3847592343
 30
0.0
 10
124.6810560379
 20
154.9393684076
 30
0.0
 10
125.1948480717
 20
154.6394613503
 30
0.0
  0
SPLINE
  5
5CD
100
AcDbEntity
  8
0
100
AcDbSpline
 62
7
  6
CONTINUOUS
 70
0
 71
3
 72
9
 73
5
 74
0
 42
0.0000001
 43
0.0000001
 44
0.0000000001
 40
0.0
 40
0.0
 40
0.0
 40
0.0
 40
0.4906012679
 40
1.0
 40
1.0
 40
1.0
 40
1.0
 10
87.9337635847
 20
248.1938699896
 30
0.0
 10
87.9491886353
 20
248.015907162
 30
0.0
 10
88.0315457642
 20
247.6557681703
 30
0.0
 10
88.2137992957
 20
247.3334965055
 30
0.0
 10
88.3279791708
 20
247.187333331
 30
0.0
  0
SPLINE
  5
5CE
100
AcDbEntity
  8
0
100
AcDbSpline
 62
7
  6
CONTINUOUS
 70
0
 71
3
 72
9
 73
5
 74
0
 42
0.0000001
 43
0.0000001
 44
0.0000000001
 40
0.0
 40
0.0
 40
0.0
 40
0.0
 40
0.4703595983
 40
1.0
 40
1.0
 40
1.0
 40
1.0
 10
135.617479599
 20
299.0304371331
 30
0.0
 10
135.5958112545
 20
298.7611280546
 30
0.0
 10
135.562041394
 20
298.1875969982
 30
0.0
 10
135.5406418852
 20
297.6135678708
 30
0.0
 10
135.5316481617
 20
297.3094699561
 30
0.0
  0
SPLINE
  5
5CF
100
AcDbEntity
  8
0
100
AcDbSpline
 62
7
  6
CONTINUOUS
 70
0
 71
3
 72
11
 73
7
 74
0
 42
0.0000001
 43
0.0000001
 44
0.0000000001
 40
0.0
 40
0.0
 40
0.0
 40
0.0
 40
0.151275879
 40
0.3703225038
 40
0.6547086677
 40
1.0
 40
1.0
 40
1.0
 40
1.0
 10
130.8098516347
 20
303.1660242043
 30
0.0
 10
130.8764740041
 20
303.1469051785
 30
0.0
 10
131.0452201371
 20
303.1219667356
 30
0.0
 10
131.3441653513
 20
303.1001561002
 30
0.0
 10
131.732979777
 20
303.086685516
 30
0.0
 10
132.0213761701
 20
303.080510936
 30
0.0
 10
132.1795455944
 20
303.0771427091
 30
0.0
  0
SPLINE
  5
5D0
100
AcDbEntity
  8
0
100
AcDbSpline
 62
7
  6
CONTINUOUS
 70
0
 71
3
 72
12
 73
8
 74
0
 42
0.0000001
 43
0.0000001
 44
0.0000000001
 40
0.0
 40
0.0
 40
0.0
 40
0.0
 40
0.0610506893
 40
0.1385582719
 40
0.3486117566
 40
0.6356661978
 40
1.0
 40
1.0
 40
1.0
 40
1.0
 10
149.004779922
 20
312.0980164698
 30
0.0
 10
148.9841555536
 20
312.1234595896
 30
0.0
 10
148.9277384026
 20
312.1732398495
 30
0.0
 10
148.766974169
 20
312.2696250642
 30
0.0
 10
148.4766842723
 20
312.3788082361
 30
0.0
 10
148.0294960658
 20
312.495531625
 30
0.0
 10
147.6856962613
 20
312.5601461249
 30
0.0
 10
147.4928740547
 20
312.5921316831
 30
0.0
  0
SPLINE
  5
5D1
100
AcDbEntity
  8
0
100
AcDbSpline
 62
7
  6
CONTINUOUS
 70
0
 71
3
 72
9
 73
5
 74
0
 42
0.0000001
 43
0.0000001
 44
0.0000000001
 40
0.0
 40
0.0
 40
0.0
 40
0.0
 40
0.223208471
 40
1.0
 40
1.0
 40
1.0
 40
1.0
 10
146.6222045497
 20
312.7595218198
 30
0.0
 10
146.5990878929
 20
312.7647851954
 30
0.0
 10
146.4952055963
 20
312.7869740069
 30
0.0
 10
146.3903532564
 20
312.8044075604
 30
0.0
 10
146.3087209499
 20
312.8163939044
 30
0.0
  0
SPLINE
  5
5D2
100
AcDbEntity
  8
0
100
AcDbSpline
 62
7
  6
CONTINUOUS
 70
0
 71
3
 72
19
 73
15
 74
0
 42
0.0000001
 43
0.0000001
 44
0.0000000001
 40
0.0
 40
0.0
 40
0.0
 40
0.0
 40
0.0406102409
 40
0.0918797929
 40
0.2212888031
 40
0.3755789095
 40
0.5394921119
 40
0.6972865658
 40
0.7692734355
 40
0.8344299297
 40
0.8912746952
 40
0.9384974278
 40
0.9750011378
 40
1.0
 40
1.0
 40
1.0
 40
1.0
 10
142.1264737396
 20
313.3561306657
 30
0.0
 10
141.971851174
 20
313.3733491093
 30
0.0
 10
141.620418445
 20
313.3975096858
 30
0.0
 10
140.7727600295
 20
313.4173713646
 30
0.0
 10
139.4891937594
 20
313.3795841607
 30
0.0
 10
137.7788722028
 20
313.2494354854
 30
0.0
 10
135.9676864895
 20
313.0326394047
 30
0.0
 10
134.4784337985
 20
312.7906149887
 30
0.0
 10
133.3701798696
 20
312.5700044279
 30
0.0
 10
132.6451062736
 20
312.4064606429
 30
0.0
 10
132.0171281379
 20
312.2452785949
 30
0.0
 10
131.5003070967
 20
312.0926240278
 30
0.0
 10
131.1079217135
 20
311.9535382448
 30
0.0
 10
130.8915388347
 20
311.8572252291
 30
0.0
 10
130.8098516347
 20
311.8072324893
 30
0.0
  0
SPLINE
  5
5D3
100
AcDbEntity
  8
BEZUGSACHSEN
100
AcDbSpline
 62
7
  6
CONTINUOUS
 70
0
 71
3
 72
9
 73
5
 74
0
 42
0.0000001
 43
0.0000001
 44
0.0000000001
 40
0.0
 40
0.0
 40
0.0
 40
0.0
 40
0.2351944401
 40
1.0
 40
1.0
 40
1.0
 40
1.0
 10
147.6667041922
 20
263.2286372121
 30
0.0
 10
147.6391545932
 20
263.2993872817
 30
0.0
 10
147.5200823584
 20
263.5994490781
 30
0.0
 10
147.3946257177
 20
263.8969398865
 30
0.0
 10
147.2968968212
 20
264.1236658439
 30
0.0
  0
SPLINE
  5
5D4
100
AcDbEntity
  8
BEZUGSACHSEN
100
AcDbSpline
 62
7
  6
CONTINUOUS
 70
0
 71
3
 72
9
 73
5
 74
0
 42
0.0000001
 43
0.0000001
 44
0.0000000001
 40
0.0
 40
0.0
 40
0.0
 40
0.0
 40
0.2352167826
 40
1.0
 40
1.0
 40
1.0
 40
1.0
 10
147.6667041922
 20
173.2286372121
 30
0.0
 10
147.6393113924
 20
173.298984606
 30
0.0
 10
147.5209342111
 20
173.5973126304
 30
0.0
 10
147.396233918
 20
173.8930945606
 30
0.0
 10
147.2991075504
 20
174.1185168565
 30
0.0
  0
SPLINE
  5
5D5
100
AcDbEntity
  8
BEZUGSACHSEN
100
AcDbSpline
 62
7
  6
CONTINUOUS
 70
0
 71
3
 72
9
 73
5
 74
0
 42
0.0000001
 43
0.0000001
 44
0.0000000001
 40
0.0
 40
0.0
 40
0.0
 40
0.0
 40
0.2644516325
 40
1.0
 40
1.0
 40
1.0
 40
1.0
 10
147.2991045672
 20
201.842964828
 30
0.0
 10
147.3326896052
 20
201.9209128955
 30
0.0
 10
147.4588222149
 20
202.2160334053
 30
0.0
 10
147.581043818
 20
202.5128671827
 30
0.0
 10
147.6667041922
 20
202.7328514172
 30
0.0
  0
SPLINE
  5
5D6
100
AcDbEntity
  8
0
100
AcDbSpline
 62
7
  6
CONTINUOUS
 70
0
 71
3
 72
17
 73
13
 74
0
 42
0.0000001
 43
0.0000001
 44
0.0000000001
 40
0.0
 40
0.0
 40
0.0
 40
0.0
 40
0.1953657949
 40
0.3835059368
 40
0.554973732
 40
0.7020225513
 40
0.8201990653
 40
0.9081587846
 40
0.9410469392
 40
0.9668954229
 40
0.9862186825
 40
1.0
 40
1.0
 40
1.0
 40
1.0
 10
88.3279791708
 20
247.187333331
 30
0.0
 10
88.5671231219
 20
246.8812019833
 30
0.0
 10
89.0488489441
 20
246.2897260934
 30
0.0
 10
89.7819474293
 20
245.4644424514
 30
0.0
 10
90.4848757835
 20
244.7422649677
 30
0.0
 10
91.1209561323
 20
244.1504644856
 30
0.0
 10
91.6622987151
 20
243.7026509162
 30
0.0
 10
92.0505149089
 20
243.4267394417
 30
0.0
 10
92.3042313084
 20
243.282423381
 30
0.0
 10
92.4461405205
 20
243.2184009108
 30
0.0
 10
92.5588420135
 20
243.1854625703
 30
0.0
 10
92.6266546492
 20
243.1835841777
 30
0.0
 10
92.653147419
 20
243.1905877163
 30
0.0
  0
SPLINE
  5
5D7
100
AcDbEntity
  8
0
100
AcDbSpline
 62
7
  6
CONTINUOUS
 70
0
 71
3
 72
15
 73
11
 74
0
 42
0.0000001
 43
0.0000001
 44
0.0000000001
 40
0.0
 40
0.0
 40
0.0
 40
0.0
 40
0.1250071123
 40
0.2500039073
 40
0.3750020039
 40
0.5000009931
 40
0.6250012872
 40
0.7499993187
 40
0.8749928851
 40
1.0
 40
1.0
 40
1.0
 40
1.0
 10
128.754777975
 20
302.7568428922
 30
0.0
 10
128.491665359
 20
302.6902421924
 30
0.0
 10
127.9484641986
 20
302.6160379323
 30
0.0
 10
127.1309520354
 20
302.6904906581
 30
0.0
 10
126.3508376802
 20
302.9474540011
 30
0.0
 10
125.6493482153
 20
303.3746157557
 30
0.0
 10
125.0631154602
 20
303.9498421844
 30
0.0
 10
124.6225844663
 20
304.6430474901
 30
0.0
 10
124.3498050273
 20
305.4172878824
 30
0.0
 10
124.2884456842
 20
305.9620824703
 30
0.0
 10
124.2884456338
 20
306.2334934226
 30
0.0
  0
SPLINE
  5
5D8
100
AcDbEntity
  8
0
100
AcDbSpline
 62
7
  6
CONTINUOUS
 70
0
 71
3
 72
9
 73
5
 74
0
 42
0.0000001
 43
0.0000001
 44
0.0000000001
 40
0.0
 40
0.0
 40
0.0
 40
0.0
 40
0.2529802752
 40
1.0
 40
1.0
 40
1.0
 40
1.0
 10
135.4284033037
 20
296.5537192049
 30
0.0
 10
135.4437025364
 20
296.6162658387
 30
0.0
 10
135.4977940006
 20
296.8650168334
 30
0.0
 10
135.5260289371
 20
297.1194401054
 30
0.0
 10
135.5316490455
 20
297.3094945386
 30
0.0
  0
SPLINE
  5
5D9
100
AcDbEntity
  8
0
100
AcDbSpline
 62
7
  6
CONTINUOUS
 70
0
 71
3
 72
16
 73
12
 74
0
 42
0.0000001
 43
0.0000001
 44
0.0000000001
 40
0.0
 40
0.0
 40
0.0
 40
0.0
 40
0.367403711
 40
0.6801989165
 40
0.8063391194
 40
0.8591507789
 40
0.9039944455
 40
0.9400897865
 40
0.9670242513
 40
0.9857136056
 40
1.0
 40
1.0
 40
1.0
 40
1.0
 10
135.6174758007
 20
299.0303820616
 30
0.0
 10
135.6283444653
 20
299.1654652952
 30
0.0
 10
135.6388896857
 20
299.4164130244
 30
0.0
 10
135.6342121226
 20
299.7138222906
 30
0.0
 10
135.6313482836
 20
299.8951891356
 30
0.0
 10
135.6328787714
 20
299.9777524373
 30
0.0
 10
135.6358318299
 20
300.0269853315
 30
0.0
 10
135.6409597668
 20
300.0665910327
 30
0.0
 10
135.6489452391
 20
300.0956061543
 30
0.0
 10
135.6601952398
 20
300.1156057064
 30
0.0
 10
135.6727381386
 20
300.1205424728
 30
0.0
 10
135.6780019488
 20
300.1202944581
 30
0.0
  0
SPLINE
  5
5DA
100
AcDbEntity
  8
0
100
AcDbSpline
 62
7
  6
CONTINUOUS
 70
0
 71
3
 72
13
 73
9
 74
0
 42
0.0000001
 43
0.0000001
 44
0.0000000001
 40
0.0
 40
0.0
 40
0.0
 40
0.0
 40
0.2065559205
 40
0.4532541392
 40
0.5866707088
 40
0.7232635695
 40
0.8613421096
 40
1.0
 40
1.0
 40
1.0
 40
1.0
 10
132.1795455944
 20
303.0771427091
 30
0.0
 10
132.5240634576
 20
303.0698061819
 30
0.0
 10
133.2807406297
 20
302.9411569189
 30
0.0
 10
134.1698120796
 20
302.4905681751
 30
0.0
 10
134.824429753
 20
301.92421543
 30
0.0
 10
135.2562387202
 20
301.392935047
 30
0.0
 10
135.5893124741
 20
300.7849616874
 30
0.0
 10
135.7333969416
 20
300.3429534387
 30
0.0
 10
135.7840750171
 20
300.1172508716
 30
0.0
  0
SPLINE
  5
5DB
100
AcDbEntity
  8
0
100
AcDbSpline
 62
7
  6
CONTINUOUS
 70
0
 71
3
 72
20
 73
16
 74
0
 42
0.0000001
 43
0.0000001
 44
0.0000000001
 40
0.0
 40
0.0
 40
0.0
 40
0.0
 40
0.0059889332
 40
0.013848181
 40
0.0354597592
 40
0.0650359485
 40
0.1024595839
 40
0.1474723373
 40
0.1997296679
 40
0.2588085327
 40
0.3242196551
 40
0.4717921859
 40
0.6374573083
 40
0.8155560572
 40
1.0
 40
1.0
 40
1.0
 40
1.0
 10
149.4576117558
 20
311.5385243174
 30
0.0
 10
149.4751891138
 20
311.5167732672
 30
0.0
 10
149.5086390418
 20
311.4608416109
 30
0.0
 10
149.5739226179
 20
311.3085242453
 30
0.0
 10
149.648887048
 20
311.042248017
 30
0.0
 10
149.7320213128
 20
310.6369444283
 30
0.0
 10
149.8128306461
 20
310.1199555833
 30
0.0
 10
149.8907285084
 20
309.4958065041
 30
0.0
 10
149.9645691087
 20
308.7694128752
 30
0.0
 10
150.0336759682
 20
307.9469535965
 30
0.0
 10
150.1221249061
 20
306.6795956043
 30
0.0
 10
150.2133903551
 20
304.9136991468
 30
0.0
 10
150.2920342364
 20
302.6206486509
 30
0.0
 10
150.3404299578
 20
300.1545593699
 30
0.0
 10
150.3512637978
 20
298.4616321277
 30
0.0
 10
150.3512637978
 20
297.600364318
 30
0.0
  0
SPLINE
  5
5DC
100
AcDbEntity
  8
0
100
AcDbSpline
 62
7
  6
CONTINUOUS
 70
0
 71
3
 72
8
 73
4
 74
0
 42
0.0000001
 43
0.0000001
 44
0.0000000001
 40
0.0
 40
0.0
 40
0.0
 40
0.0
 40
1.0
 40
1.0
 40
1.0
 40
1.0
 10
149.004779922
 20
312.0980164698
 30
0.0
 10
149.1558639876
 20
311.9116325814
 30
0.0
 10
149.3068084429
 20
311.7251354358
 30
0.0
 10
149.4576117558
 20
311.5385243174
 30
0.0
  0
SPLINE
  5
5DD
100
AcDbEntity
  8
BEZUGSACHSEN
100
AcDbSpline
 62
7
  6
CONTINUOUS
 70
0
 71
3
 72
11
 73
7
 74
0
 42
0.0000001
 43
0.0000001
 44
0.0000000001
 40
0.0
 40
0.0
 40
0.0
 40
0.0
 40
0.3422207427
 40
0.6256202348
 40
0.8459411996
 40
1.0
 40
1.0
 40
1.0
 40
1.0
 10
148.2097811106
 20
203.7174335652
 30
0.0
 10
148.305381757
 20
203.8408843255
 30
0.0
 10
148.4791305898
 20
204.0673435933
 30
0.0
 10
148.7092738894
 20
204.3772875847
 30
0.0
 10
148.8810794595
 20
204.6232768732
 30
0.0
 10
148.9722357457
 20
204.7681363818
 30
0.0
 10
149.004779922
 20
204.8304384983
 30
0.0
  0
SPLINE
  5
5DE
100
AcDbEntity
  8
BEZUGSACHSEN
100
AcDbSpline
 62
7
  6
CONTINUOUS
 70
0
 71
3
 72
11
 73
7
 74
0
 42
0.0000001
 43
0.0000001
 44
0.0000000001
 40
0.0
 40
0.0
 40
0.0
 40
0.0
 40
0.1540588004
 40
0.3743797652
 40
0.6577792573
 40
1.0
 40
1.0
 40
1.0
 40
1.0
 10
149.004779922
 20
261.131050131
 30
0.0
 10
148.9722357457
 20
261.1933522475
 30
0.0
 10
148.8810794595
 20
261.3382117561
 30
0.0
 10
148.7092738894
 20
261.5842010446
 30
0.0
 10
148.4791305898
 20
261.894145036
 30
0.0
 10
148.305381757
 20
262.1206043038
 30
0.0
 10
148.2097811106
 20
262.2440550641
 30
0.0
  0
SPLINE
  5
5DF
100
AcDbEntity
  8
BEZUGSACHSEN
100
AcDbSpline
 62
7
  6
CONTINUOUS
 70
0
 71
3
 72
12
 73
8
 74
0
 42
0.0000001
 43
0.0000001
 44
0.0000000001
 40
0.0
 40
0.0
 40
0.0
 40
0.0
 40
0.3531428283
 40
0.6430273199
 40
0.8610289417
 40
0.9407353428
 40
1.0
 40
1.0
 40
1.0
 40
1.0
 10
147.4928740547
 20
292.8054759422
 30
0.0
 10
147.6778560742
 20
293.0386964843
 30
0.0
 10
148.0141381808
 20
293.4638232986
 30
0.0
 10
148.4581842063
 20
294.0378672866
 30
0.0
 10
148.7531866097
 20
294.4359895971
 30
0.0
 10
148.921047325
 20
294.6857270726
 30
0.0
 10
148.9816503704
 20
294.7861596077
 30
0.0
 10
149.004779922
 20
294.8304384983
 30
0.0
  0
SPLINE
  5
5E0
100
AcDbEntity
  8
BEZUGSACHSEN
100
AcDbSpline
 62
7
  6
CONTINUOUS
 70
0
 71
3
 72
11
 73
7
 74
0
 42
0.0000001
 43
0.0000001
 44
0.0000000001
 40
0.0
 40
0.0
 40
0.0
 40
0.0
 40
0.1540588004
 40
0.3743797652
 40
0.6577792573
 40
1.0
 40
1.0
 40
1.0
 40
1.0
 10
149.004779922
 20
171.131050131
 30
0.0
 10
148.9722357457
 20
171.1933522475
 30
0.0
 10
148.8810794595
 20
171.3382117561
 30
0.0
 10
148.7092738894
 20
171.5842010446
 30
0.0
 10
148.4791305898
 20
171.894145036
 30
0.0
 10
148.305381757
 20
172.1206043038
 30
0.0
 10
148.2097811106
 20
172.2440550641
 30
0.0
  0
SPLINE
  5
5E1
100
AcDbEntity
  8
0
100
AcDbSpline
 62
7
  6
CONTINUOUS
 70
0
 71
3
 72
15
 73
11
 74
0
 42
0.0000001
 43
0.0000001
 44
0.0000000001
 40
0.0
 40
0.0
 40
0.0
 40
0.0
 40
0.1250528832
 40
0.2500974662
 40
0.3751188402
 40
0.5001094166
 40
0.6250837133
 40
0.7500535493
 40
0.8750223974
 40
1.0
 40
1.0
 40
1.0
 40
1.0
 10
63.0259792113
 20
223.4592514988
 30
0.0
 10
62.7911844288
 20
223.7283558101
 30
0.0
 10
62.2630570706
 20
224.2185359955
 30
0.0
 10
61.3351037214
 20
224.7692376302
 30
0.0
 10
60.3111662191
 20
225.1108952393
 30
0.0
 10
59.238194572
 20
225.2264413627
 30
0.0
 10
58.1654133766
 20
225.1105109719
 30
0.0
 10
57.1419920182
 20
224.7686349488
 30
0.0
 10
56.214667433
 20
224.2180297438
 30
0.0
 10
55.6869250153
 20
223.7280925736
 30
0.0
 10
55.4522562658
 20
223.4591636203
 30
0.0
  0
SPLINE
  5
5E2
100
AcDbEntity
  8
KONSTRUKTIONSELEMENTE
100
AcDbSpline
 62
8
  6
HIDDEN
 70
0
 71
3
 72
9
 73
5
 74
0
 42
0.0000001
 43
0.0000001
 44
0.0000000001
 40
0.0
 40
0.0
 40
0.0
 40
0.0
 40
0.4961007624
 40
1.0
 40
1.0
 40
1.0
 40
1.0
 10
283.3771299929
 20
179.7342253854
 30
0.0
 10
283.3771299929
 20
180.276525826
 30
0.0
 10
283.5217447358
 20
181.3738808458
 30
0.0
 10
283.9366092296
 20
182.3988849598
 30
0.0
 10
284.2034798193
 20
182.8807443147
 30
0.0
  0
SPLINE
  5
5E3
100
AcDbEntity
  8
DEFAULT_2
100
AcDbSpline
 62
8
  6
HIDDEN
 70
0
 71
3
 72
9
 73
5
 74
0
 42
0.0000001
 43
0.0000001
 44
0.0000000001
 40
0.0
 40
0.0
 40
0.0
 40
0.0
 40
0.4961007624
 40
1.0
 40
1.0
 40
1.0
 40
1.0
 10
307.3771299929
 20
179.7342253854
 30
0.0
 10
307.3771299929
 20
180.276525826
 30
0.0
 10
307.2325152501
 20
181.3738808458
 30
0.0
 10
306.8176507562
 20
182.3988849598
 30
0.0
 10
306.5507801665
 20
182.8807443147
 30
0.0
  0
SPLINE
  5
5E4
100
AcDbEntity
  8
0
100
AcDbSpline
 62
7
  6
CONTINUOUS
 70
0
 71
3
 72
8
 73
4
 74
0
 42
0.0000001
 43
0.0000001
 44
0.0000000001
 40
0.0
 40
0.0
 40
0.0
 40
0.0
 40
1.0
 40
1.0
 40
1.0
 40
1.0
 10
308.2674383778
 20
261.9237057272
 30
0.0
 10
308.3385581539
 20
262.062688411
 30
0.0
 10
308.3771299929
 20
262.2229245346
 30
0.0
 10
308.3771299929
 20
262.3790469511
 30
0.0
  0
SPLINE
  5
5E5
100
AcDbEntity
  8
0
100
AcDbSpline
 62
7
  6
CONTINUOUS
 70
0
 71
3
 72
8
 73
4
 74
0
 42
0.0000001
 43
0.0000001
 44
0.0000000001
 40
0.0
 40
0.0
 40
0.0
 40
0.0
 40
1.0
 40
1.0
 40
1.0
 40
1.0
 10
305.2977942084
 20
263.4854326452
 30
0.0
 10
305.3496255725
 20
263.6076721891
 30
0.0
 10
305.3771299929
 20
263.7430003168
 30
0.0
 10
305.3771299929
 20
263.8757745478
 30
0.0
  0
SPLINE
  5
5E6
100
AcDbEntity
  8
0
100
AcDbSpline
 62
7
  6
CONTINUOUS
 70
0
 71
3
 72
8
 73
4
 74
0
 42
0.0000001
 43
0.0000001
 44
0.0000000001
 40
0.0
 40
0.0
 40
0.0
 40
0.0
 40
1.0
 40
1.0
 40
1.0
 40
1.0
 10
308.279093967
 20
264.0214475489
 30
0.0
 10
308.3428167921
 20
264.1545799007
 30
0.0
 10
308.3771299929
 20
264.3056519918
 30
0.0
 10
308.3771299929
 20
264.4532488127
 30
0.0
  0
SPLINE
  5
5E7
100
AcDbEntity
  8
BEZUGSACHSEN
100
AcDbSpline
 62
7
  6
CONTINUOUS
 70
0
 71
3
 72
8
 73
4
 74
0
 42
0.0000001
 43
0.0000001
 44
0.0000000001
 40
0.0
 40
0.0
 40
0.0
 40
0.0
 40
1.0
 40
1.0
 40
1.0
 40
1.0
 10
282.486821608
 20
261.9237057272
 30
0.0
 10
282.4157018319
 20
262.062688411
 30
0.0
 10
282.3771299929
 20
262.2229245346
 30
0.0
 10
282.3771299929
 20
262.3790469511
 30
0.0
  0
SPLINE
  5
5E8
100
AcDbEntity
  8
BEZUGSACHSEN
100
AcDbSpline
 62
7
  6
CONTINUOUS
 70
0
 71
3
 72
8
 73
4
 74
0
 42
0.0000001
 43
0.0000001
 44
0.0000000001
 40
0.0
 40
0.0
 40
0.0
 40
0.0
 40
1.0
 40
1.0
 40
1.0
 40
1.0
 10
285.4564657774
 20
263.4854326452
 30
0.0
 10
285.4046344133
 20
263.6076721891
 30
0.0
 10
285.3771299929
 20
263.7430003168
 30
0.0
 10
285.3771299929
 20
263.8757745478
 30
0.0
  0
SPLINE
  5
5E9
100
AcDbEntity
  8
BEZUGSACHSEN
100
AcDbSpline
 62
7
  6
CONTINUOUS
 70
0
 71
3
 72
8
 73
4
 74
0
 42
0.0000001
 43
0.0000001
 44
0.0000000001
 40
0.0
 40
0.0
 40
0.0
 40
0.0
 40
1.0
 40
1.0
 40
1.0
 40
1.0
 10
282.4751660189
 20
264.0214475489
 30
0.0
 10
282.4114431937
 20
264.1545799007
 30
0.0
 10
282.3771299929
 20
264.3056519918
 30
0.0
 10
282.3771299929
 20
264.4532488127
 30
0.0
  0
SPLINE
  5
5EA
100
AcDbEntity
  8
BEZUGSACHSEN
100
AcDbSpline
 62
7
  6
CONTINUOUS
 70
0
 71
3
 72
13
 73
9
 74
0
 42
0.0000001
 43
0.0000001
 44
0.0000000001
 40
0.0
 40
0.0
 40
0.0
 40
0.0
 40
0.1182954174
 40
0.2419247224
 40
0.4995372069
 40
0.7574229771
 40
0.8814660136
 40
1.0
 40
1.0
 40
1.0
 40
1.0
 10
282.7605057975
 20
270.8479400938
 30
0.0
 10
282.8278799826
 20
270.7952164443
 30
0.0
 10
282.9847055508
 20
270.710092843
 30
0.0
 10
283.3430376155
 20
270.6381117846
 30
0.0
 10
283.816705274
 20
270.7388413805
 30
0.0
 10
284.1860306205
 20
271.0524532258
 30
0.0
 10
284.3485503064
 20
271.3805454837
 30
0.0
 10
284.3774416111
 20
271.557090337
 30
0.0
 10
284.3770804519
 20
271.6428136385
 30
0.0
  0
SPLINE
  5
5EB
100
AcDbEntity
  8
0
100
AcDbSpline
 62
7
  6
CONTINUOUS
 70
0
 71
3
 72
17
 73
13
 74
0
 42
0.0000001
 43
0.0000001
 44
0.0000000001
 40
0.0
 40
0.0
 40
0.0
 40
0.0
 40
0.0320093676
 40
0.0681556805
 40
0.1112130888
 40
0.1623217987
 40
0.2874861186
 40
0.4364612494
 40
0.5963861508
 40
0.7524363799
 40
0.8904954791
 40
1.0
 40
1.0
 40
1.0
 40
1.0
 10
305.2977220649
 20
263.4854641022
 30
0.0
 10
305.2891400106
 20
263.4651549072
 30
0.0
 10
305.2607306994
 20
263.4257721649
 30
0.0
 10
305.1946582558
 20
263.3845518336
 30
0.0
 10
305.1081309786
 20
263.3581994533
 30
0.0
 10
304.9573599459
 20
263.3416578429
 30
0.0
 10
304.7324120258
 20
263.3634664918
 30
0.0
 10
304.4425823945
 20
263.439959606
 30
0.0
 10
304.1455212068
 20
263.5619818937
 30
0.0
 10
303.8726081803
 20
263.716881121
 30
0.0
 10
303.6523683696
 20
263.8876012381
 30
0.0
 10
303.5387725904
 20
264.0185326184
 30
0.0
 10
303.5018046081
 20
264.084278639
 30
0.0
  0
SPLINE
  5
5EC
100
AcDbEntity
  8
0
100
AcDbSpline
 62
7
  6
CONTINUOUS
 70
0
 71
3
 72
9
 73
5
 74
0
 42
0.0000001
 43
0.0000001
 44
0.0000000001
 40
0.0
 40
0.0
 40
0.0
 40
0.0
 40
0.2722929429
 40
1.0
 40
1.0
 40
1.0
 40
1.0
 10
303.5018046081
 20
264.084278639
 30
0.0
 10
303.4969968322
 20
264.0928290687
 30
0.0
 10
303.4802706351
 20
264.1247100991
 30
0.0
 10
303.4673828717
 20
264.1588575294
 30
0.0
 10
303.461936242
 20
264.1845012914
 30
0.0
  0
SPLINE
  5
5ED
100
AcDbEntity
  8
0
100
AcDbSpline
 62
7
  6
CONTINUOUS
 70
0
 71
3
 72
15
 73
11
 74
0
 42
0.0000001
 43
0.0000001
 44
0.0000000001
 40
0.0
 40
0.0
 40
0.0
 40
0.0
 40
0.1064767565
 40
0.220618271
 40
0.3460658559
 40
0.4810681072
 40
0.6201379028
 40
0.7563811387
 40
0.8838935834
 40
1.0
 40
1.0
 40
1.0
 40
1.0
 10
305.2092968677
 20
269.491997269
 30
0.0
 10
305.1604679687
 20
269.4187338144
 30
0.0
 10
305.0212293775
 20
269.2897210872
 30
0.0
 10
304.7422046365
 20
269.199467805
 30
0.0
 10
304.4274190533
 20
269.2112967818
 30
0.0
 10
304.1109169933
 20
269.3195367209
 30
0.0
 10
303.8261636643
 20
269.5108847212
 30
0.0
 10
303.60413018
 20
269.7646751116
 30
0.0
 10
303.4696843784
 20
270.0536655052
 30
0.0
 10
303.4502965153
 20
270.2599636241
 30
0.0
 10
303.461936242
 20
270.3552623443
 30
0.0
  0
SPLINE
  5
5EE
100
AcDbEntity
  8
BEZUGSACHSEN
100
AcDbSpline
 62
7
  6
CONTINUOUS
 70
0
 71
3
 72
15
 73
11
 74
0
 42
0.0000001
 43
0.0000001
 44
0.0000000001
 40
0.0
 40
0.0
 40
0.0
 40
0.0
 40
0.1064767565
 40
0.220618271
 40
0.3460658559
 40
0.4810681072
 40
0.6201379028
 40
0.7563811387
 40
0.8838935834
 40
1.0
 40
1.0
 40
1.0
 40
1.0
 10
285.5449631181
 20
269.491997269
 30
0.0
 10
285.5937920171
 20
269.4187338144
 30
0.0
 10
285.7330306083
 20
269.2897210872
 30
0.0
 10
286.0120553493
 20
269.199467805
 30
0.0
 10
286.3268409325
 20
269.2112967818
 30
0.0
 10
286.6433429926
 20
269.3195367209
 30
0.0
 10
286.9280963215
 20
269.5108847212
 30
0.0
 10
287.1501298058
 20
269.7646751116
 30
0.0
 10
287.2845756074
 20
270.0536655052
 30
0.0
 10
287.3039634706
 20
270.2599636241
 30
0.0
 10
287.2923237439
 20
270.3552623443
 30
0.0
  0
SPLINE
  5
5EF
100
AcDbEntity
  8
BEZUGSACHSEN
100
AcDbSpline
 62
7
  6
CONTINUOUS
 70
0
 71
3
 72
14
 73
10
 74
0
 42
0.0000001
 43
0.0000001
 44
0.0000000001
 40
0.0
 40
0.0
 40
0.0
 40
0.0
 40
0.10456373
 40
0.2203241064
 40
0.348520989
 40
0.4858062621
 40
0.6260768229
 40
0.7624054631
 40
1.0
 40
1.0
 40
1.0
 40
1.0
 10
282.5212897096
 20
267.0213793823
 30
0.0
 10
282.561863278
 20
266.9542358833
 30
0.0
 10
282.6812594541
 20
266.8319641031
 30
0.0
 10
282.9241513992
 20
266.7234936328
 30
0.0
 10
283.211367799
 20
266.6871217456
 30
0.0
 10
283.5161866937
 20
266.7241879802
 30
0.0
 10
283.8110780624
 20
266.8314811714
 30
0.0
 10
284.1357180111
 20
267.0403746165
 30
0.0
 10
284.3167738763
 20
267.2852783371
 30
0.0
 10
284.3577849433
 20
267.4587551998
 30
0.0
  0
SPLINE
  5
5F0
100
AcDbEntity
  8
BEZUGSACHSEN
100
AcDbSpline
 62
7
  6
CONTINUOUS
 70
0
 71
3
 72
9
 73
5
 74
0
 42
0.0000001
 43
0.0000001
 44
0.0000000001
 40
0.0
 40
0.0
 40
0.0
 40
0.0
 40
0.2558186918
 40
1.0
 40
1.0
 40
1.0
 40
1.0
 10
284.3577849433
 20
267.4587551998
 30
0.0
 10
284.3605841415
 20
267.4705958115
 30
0.0
 10
284.3702053829
 20
267.5171769579
 30
0.0
 10
284.3743582434
 20
267.5649371457
 30
0.0
 10
284.3738812263
 20
267.600327924
 30
0.0
  0
SPLINE
  5
5F1
100
AcDbEntity
  8
0
100
AcDbSpline
 62
7
  6
CONTINUOUS
 70
0
 71
3
 72
14
 73
10
 74
0
 42
0.0000001
 43
0.0000001
 44
0.0000000001
 40
0.0
 40
0.0
 40
0.0
 40
0.0
 40
0.10456373
 40
0.2203241064
 40
0.348520989
 40
0.4858062621
 40
0.6260768229
 40
0.7624054631
 40
1.0
 40
1.0
 40
1.0
 40
1.0
 10
308.2329702762
 20
267.0213793823
 30
0.0
 10
308.1923967078
 20
266.9542358833
 30
0.0
 10
308.0730005317
 20
266.8319641031
 30
0.0
 10
307.8301085866
 20
266.7234936328
 30
0.0
 10
307.5428921868
 20
266.6871217456
 30
0.0
 10
307.2380732922
 20
266.7241879802
 30
0.0
 10
306.9431819234
 20
266.8314811714
 30
0.0
 10
306.6185419748
 20
267.0403746165
 30
0.0
 10
306.4374861096
 20
267.2852783371
 30
0.0
 10
306.3964750425
 20
267.4587551998
 30
0.0
  0
SPLINE
  5
5F2
100
AcDbEntity
  8
0
100
AcDbSpline
 62
7
  6
CONTINUOUS
 70
0
 71
3
 72
9
 73
5
 74
0
 42
0.0000001
 43
0.0000001
 44
0.0000000001
 40
0.0
 40
0.0
 40
0.0
 40
0.0
 40
0.2558186918
 40
1.0
 40
1.0
 40
1.0
 40
1.0
 10
306.3964750425
 20
267.4587551998
 30
0.0
 10
306.3936758444
 20
267.4705958115
 30
0.0
 10
306.3840546029
 20
267.5171769579
 30
0.0
 10
306.3799017424
 20
267.5649371457
 30
0.0
 10
306.3803787595
 20
267.600327924
 30
0.0
  0
SPLINE
  5
5F3
100
AcDbEntity
  8
BEZUGSACHSEN
100
AcDbSpline
 62
7
  6
CONTINUOUS
 70
0
 71
3
 72
15
 73
11
 74
0
 42
0.0000001
 43
0.0000001
 44
0.0000000001
 40
0.0
 40
0.0
 40
0.0
 40
0.0
 40
0.0933551246
 40
0.2043386312
 40
0.3352266868
 40
0.4801273834
 40
0.6289469072
 40
0.7704803277
 40
0.8954576158
 40
1.0
 40
1.0
 40
1.0
 40
1.0
 10
285.5638302194
 20
265.9962912693
 30
0.0
 10
285.6053170442
 20
265.938387334
 30
0.0
 10
285.7369892294
 20
265.840246404
 30
0.0
 10
285.9929481716
 20
265.7900578653
 30
0.0
 10
286.2897680762
 20
265.8182385253
 30
0.0
 10
286.5994189739
 20
265.9214611156
 30
0.0
 10
286.8892876944
 20
266.0879599888
 30
0.0
 10
287.1279559752
 20
266.3004913826
 30
0.0
 10
287.290294963
 20
266.536181445
 30
0.0
 10
287.3377932169
 20
266.7111073258
 30
0.0
 10
287.3377932169
 20
266.7908756421
 30
0.0
  0
SPLINE
  5
5F4
100
AcDbEntity
  8
AUSFORMSCHRAEGEN
100
AcDbSpline
 62
7
  6
CONTINUOUS
 70
0
 71
3
 72
21
 73
17
 74
0
 42
0.0000001
 43
0.0000001
 44
0.0000000001
 40
0.0
 40
0.0
 40
0.0
 40
0.0
 40
0.1501704774
 40
0.2213747071
 40
0.2884519048
 40
0.3507731813
 40
0.4082397834
 40
0.4614258324
 40
0.5116639978
 40
0.5609387806
 40
0.6114720016
 40
0.6651722776
 40
0.7232744387
 40
0.7862604085
 40
0.8539523822
 40
1.0
 40
1.0
 40
1.0
 40
1.0
 10
279.4020619741
 20
274.4143716835
 30
0.0
 10
280.6418347809
 20
274.3746167642
 30
0.0
 10
282.4749081439
 20
274.1097521708
 30
0.0
 10
284.7303222192
 20
273.3252308266
 30
0.0
 10
286.2095171982
 20
272.5642848255
 30
0.0
 10
287.4576172962
 20
271.6432316884
 30
0.0
 10
288.4347572365
 20
270.5871738191
 30
0.0
 10
289.1053550325
 20
269.4248520993
 30
0.0
 10
289.4383492074
 20
268.191914461
 30
0.0
 10
289.4132893361
 20
266.9358321682
 30
0.0
 10
289.0320273559
 20
265.7103139851
 30
0.0
 10
288.3171951576
 20
264.5610826042
 30
0.0
 10
287.300769578
 20
263.5223419506
 30
0.0
 10
286.0182369562
 20
262.6218851887
 30
0.0
 10
283.9587845902
 20
261.6150846727
 30
0.0
 10
282.2210970245
 20
261.1807670273
 30
0.0
 10
281.0254100588
 20
261.0206874569
 30
0.0
  0
SPLINE
  5
5F5
100
AcDbEntity
  8
KONSTRUKTIONSELEMENTE
100
AcDbSpline
 62
7
  6
CONTINUOUS
 70
0
 71
3
 72
11
 73
7
 74
0
 42
0.0000001
 43
0.0000001
 44
0.0000000001
 40
0.0
 40
0.0
 40
0.0
 40
0.0
 40
0.1921360266
 40
0.4202961068
 40
0.6889661236
 40
1.0
 40
1.0
 40
1.0
 40
1.0
 10
281.0254100588
 20
261.0206874569
 30
0.0
 10
280.8839726016
 20
261.0942288326
 30
0.0
 10
280.5975823476
 20
261.2994970519
 30
0.0
 10
280.2018091063
 20
261.7145851744
 30
0.0
 10
279.8062244083
 20
262.2575165493
 30
0.0
 10
279.5619052597
 20
262.6725530117
 30
0.0
 10
279.4387670012
 20
262.8993426282
 30
0.0
  0
SPLINE
  5
5F6
100
AcDbEntity
  8
BEZUGSACHSEN
100
AcDbSpline
 62
7
  6
CONTINUOUS
 70
0
 71
3
 72
9
 73
5
 74
0
 42
0.0000001
 43
0.0000001
 44
0.0000000001
 40
0.0
 40
0.0
 40
0.0
 40
0.0
 40
0.2571282642
 40
1.0
 40
1.0
 40
1.0
 40
1.0
 10
287.3377932169
 20
266.7908756421
 30
0.0
 10
287.3377932169
 20
266.8028046881
 30
0.0
 10
287.3359022882
 20
266.8491686652
 30
0.0
 10
287.3259934537
 20
266.8952839588
 30
0.0
 10
287.3139909119
 20
266.9275907448
 30
0.0
  0
SPLINE
  5
5F7
100
AcDbEntity
  8
0
100
AcDbSpline
 62
7
  6
CONTINUOUS
 70
0
 71
3
 72
15
 73
11
 74
0
 42
0.0000001
 43
0.0000001
 44
0.0000000001
 40
0.0
 40
0.0
 40
0.0
 40
0.0
 40
0.0933551246
 40
0.2043386312
 40
0.3352266868
 40
0.4801273834
 40
0.6289469072
 40
0.7704803277
 40
0.8954576158
 40
1.0
 40
1.0
 40
1.0
 40
1.0
 10
305.1904297664
 20
265.9962912693
 30
0.0
 10
305.1489429417
 20
265.938387334
 30
0.0
 10
305.0172707564
 20
265.840246404
 30
0.0
 10
304.7613118142
 20
265.7900578653
 30
0.0
 10
304.4644919096
 20
265.8182385253
 30
0.0
 10
304.1548410119
 20
265.9214611156
 30
0.0
 10
303.8649722914
 20
266.0879599888
 30
0.0
 10
303.6263040106
 20
266.3004913826
 30
0.0
 10
303.4639650228
 20
266.536181445
 30
0.0
 10
303.4164667689
 20
266.7111073258
 30
0.0
 10
303.4164667689
 20
266.7908756421
 30
0.0
  0
SPLINE
  5
5F8
100
AcDbEntity
  8
BEZUGSACHSEN
100
AcDbSpline
 62
7
  6
CONTINUOUS
 70
0
 71
3
 72
9
 73
5
 74
0
 42
0.0000001
 43
0.0000001
 44
0.0000000001
 40
0.0
 40
0.0
 40
0.0
 40
0.0
 40
0.2559108888
 40
1.0
 40
1.0
 40
1.0
 40
1.0
 10
287.2923237439
 20
270.3552623443
 30
0.0
 10
287.2890911716
 20
270.3817286011
 30
0.0
 10
287.2702899355
 20
270.4842708222
 30
0.0
 10
287.2250762172
 20
270.5822052801
 30
0.0
 10
287.1787581989
 20
270.6443730663
 30
0.0
  0
SPLINE
  5
5F9
100
AcDbEntity
  8
BEZUGSACHSEN
100
AcDbSpline
 62
7
  6
CONTINUOUS
 70
0
 71
3
 72
9
 73
5
 74
0
 42
0.0000001
 43
0.0000001
 44
0.0000000001
 40
0.0
 40
0.0
 40
0.0
 40
0.0
 40
0.2708449515
 40
1.0
 40
1.0
 40
1.0
 40
1.0
 10
287.2923237439
 20
264.1845012914
 30
0.0
 10
287.2945366254
 20
264.1949199556
 30
0.0
 10
287.3003921625
 20
264.2337692713
 30
0.0
 10
287.2943632258
 20
264.274935722
 30
0.0
 10
287.2822009279
 20
264.3009028775
 30
0.0
  0
SPLINE
  5
5FA
100
AcDbEntity
  8
0
100
AcDbSpline
 62
7
  6
CONTINUOUS
 70
0
 71
3
 72
17
 73
13
 74
0
 42
0.0000001
 43
0.0000001
 44
0.0000000001
 40
0.0
 40
0.0
 40
0.0
 40
0.0
 40
0.0672418723
 40
0.1173530227
 40
0.1784688784
 40
0.3279067958
 40
0.4988246575
 40
0.6699295892
 40
0.819945766
 40
0.8814631024
 40
0.932029677
 40
1.0
 40
1.0
 40
1.0
 40
1.0
 10
308.2674398656
 20
261.9237042419
 30
0.0
 10
308.2461549924
 20
261.8820057155
 30
0.0
 10
308.162868162
 20
261.8411143988
 30
0.0
 10
308.0436825526
 20
261.8164170553
 30
0.0
 10
307.8612407383
 20
261.8021265899
 30
0.0
 10
307.5957751584
 20
261.8206798814
 30
0.0
 10
307.2587177683
 20
261.8839373068
 30
0.0
 10
306.9301778718
 20
261.9836844728
 30
0.0
 10
306.6854209249
 20
262.0901652972
 30
0.0
 10
306.5291568767
 20
262.1872539774
 30
0.0
 10
306.4337608399
 20
262.2647055025
 30
0.0
 10
306.3777466227
 20
262.3393514751
 30
0.0
 10
306.3771795339
 20
262.386672059
 30
0.0
  0
SPLINE
  5
5FB
100
AcDbEntity
  8
0
100
AcDbSpline
 62
7
  6
CONTINUOUS
 70
0
 71
3
 72
17
 73
13
 74
0
 42
0.0000001
 43
0.0000001
 44
0.0000000001
 40
0.0
 40
0.0
 40
0.0
 40
0.0
 40
0.0893633462
 40
0.1429174184
 40
0.2030726331
 40
0.3407956441
 40
0.4935286551
 40
0.6475386024
 40
0.7887881834
 40
0.8512150464
 40
0.9071374142
 40
1.0
 40
1.0
 40
1.0
 40
1.0
 10
308.2790811343
 20
264.0214502885
 30
0.0
 10
308.2496532085
 20
263.959877563
 30
0.0
 10
308.1649108537
 20
263.8795379461
 30
0.0
 10
308.0239477648
 20
263.8150253725
 30
0.0
 10
307.8373209174
 20
263.7655912425
 30
0.0
 10
307.5669345509
 20
263.7548961709
 30
0.0
 10
307.2301132664
 20
263.8099639787
 30
0.0
 10
306.906571444
 20
263.9268580598
 30
0.0
 10
306.6704501788
 20
264.0692573448
 30
0.0
 10
306.5243099714
 20
264.2046564941
 30
0.0
 10
306.4249728053
 20
264.3315308746
 30
0.0
 10
306.3816625291
 20
264.4440430642
 30
0.0
 10
306.3803787595
 20
264.5149473975
 30
0.0
  0
SPLINE
  5
5FC
100
AcDbEntity
  8
KONSTRUKTIONSELEMENTE
100
AcDbSpline
 62
7
  6
CONTINUOUS
 70
0
 71
3
 72
9
 73
5
 74
0
 42
0.0000001
 43
0.0000001
 44
0.0000000001
 40
0.0
 40
0.0
 40
0.0
 40
0.0
 40
0.5137484035
 40
1.0
 40
1.0
 40
1.0
 40
1.0
 10
279.1501519751
 20
264.0458663768
 30
0.0
 10
279.1536517774
 20
263.8419353436
 30
0.0
 10
279.201985694
 20
263.443882566
 30
0.0
 10
279.346653153
 20
263.0689931053
 30
0.0
 10
279.4387670012
 20
262.8993426282
 30
0.0
  0
SPLINE
  5
5FD
100
AcDbEntity
  8
0
100
AcDbSpline
 62
7
  6
CONTINUOUS
 70
0
 71
3
 72
9
 73
5
 74
0
 42
0.0000001
 43
0.0000001
 44
0.0000000001
 40
0.0
 40
0.0
 40
0.0
 40
0.0
 40
0.4526724488
 40
1.0
 40
1.0
 40
1.0
 40
1.0
 10
311.6145131487
 20
265.353782607
 30
0.0
 10
311.6145131487
 20
266.7216056037
 30
0.0
 10
311.5548770253
 20
269.7431807828
 30
0.0
 10
311.4324116947
 20
272.762479378
 30
0.0
 10
311.3521980118
 20
274.4143716835
 30
0.0
  0
SPLINE
  5
5FE
100
AcDbEntity
  8
0
100
AcDbSpline
 62
7
  6
CONTINUOUS
 70
0
 71
3
 72
13
 73
9
 74
0
 42
0.0000001
 43
0.0000001
 44
0.0000000001
 40
0.0
 40
0.0
 40
0.0
 40
0.0
 40
0.1182954174
 40
0.2419247224
 40
0.4995372069
 40
0.7574229771
 40
0.8814660136
 40
1.0
 40
1.0
 40
1.0
 40
1.0
 10
307.9937541883
 20
270.8479400938
 30
0.0
 10
307.9263800032
 20
270.7952164443
 30
0.0
 10
307.769554435
 20
270.710092843
 30
0.0
 10
307.4112223703
 20
270.6381117846
 30
0.0
 10
306.9375547118
 20
270.7388413805
 30
0.0
 10
306.5682293653
 20
271.0524532258
 30
0.0
 10
306.4057096794
 20
271.3805454837
 30
0.0
 10
306.3768183748
 20
271.557090337
 30
0.0
 10
306.3771795339
 20
271.6428136385
 30
0.0
  0
SPLINE
  5
5FF
100
AcDbEntity
  8
BEZUGSACHSEN
100
AcDbSpline
 62
7
  6
CONTINUOUS
 70
0
 71
3
 72
17
 73
13
 74
0
 42
0.0000001
 43
0.0000001
 44
0.0000000001
 40
0.0
 40
0.0
 40
0.0
 40
0.0
 40
0.0672418723
 40
0.1173530227
 40
0.1784688784
 40
0.3279067958
 40
0.4988246575
 40
0.6699295892
 40
0.819945766
 40
0.8814631024
 40
0.932029677
 40
1.0
 40
1.0
 40
1.0
 40
1.0
 10
282.4868201202
 20
261.9237042419
 30
0.0
 10
282.5081049934
 20
261.8820057155
 30
0.0
 10
282.5913918238
 20
261.8411143988
 30
0.0
 10
282.7105774333
 20
261.8164170553
 30
0.0
 10
282.8930192475
 20
261.8021265899
 30
0.0
 10
283.1584848275
 20
261.8206798814
 30
0.0
 10
283.4955422176
 20
261.8839373068
 30
0.0
 10
283.824082114
 20
261.9836844728
 30
0.0
 10
284.068839061
 20
262.0901652972
 30
0.0
 10
284.2251031091
 20
262.1872539774
 30
0.0
 10
284.3204991459
 20
262.2647055025
 30
0.0
 10
284.3765133631
 20
262.3393514751
 30
0.0
 10
284.3770804519
 20
262.386672059
 30
0.0
  0
SPLINE
  5
600
100
AcDbEntity
  8
0
100
AcDbSpline
 62
7
  6
CONTINUOUS
 70
0
 71
3
 72
11
 73
7
 74
0
 42
0.0000001
 43
0.0000001
 44
0.0000000001
 40
0.0
 40
0.0
 40
0.0
 40
0.0
 40
0.1921360266
 40
0.4202961068
 40
0.6889661236
 40
1.0
 40
1.0
 40
1.0
 40
1.0
 10
309.728849927
 20
261.0206874569
 30
0.0
 10
309.8702873842
 20
261.0942288326
 30
0.0
 10
310.1566776383
 20
261.2994970519
 30
0.0
 10
310.5524508795
 20
261.7145851744
 30
0.0
 10
310.9480355775
 20
262.2575165493
 30
0.0
 10
311.1923547261
 20
262.6725530117
 30
0.0
 10
311.3154929846
 20
262.8993426282
 30
0.0
  0
SPLINE
  5
601
100
AcDbEntity
  8
0
100
AcDbSpline
 62
7
  6
CONTINUOUS
 70
0
 71
3
 72
21
 73
17
 74
0
 42
0.0000001
 43
0.0000001
 44
0.0000000001
 40
0.0
 40
0.0
 40
0.0
 40
0.0
 40
0.1501704774
 40
0.2213747071
 40
0.2884519048
 40
0.3507731813
 40
0.4082397834
 40
0.4614258324
 40
0.5116639978
 40
0.5609387806
 40
0.6114720016
 40
0.6651722776
 40
0.7232744387
 40
0.7862604085
 40
0.8539523822
 40
1.0
 40
1.0
 40
1.0
 40
1.0
 10
311.3521980118
 20
274.4143716835
 30
0.0
 10
310.112425205
 20
274.3746167642
 30
0.0
 10
308.2793518419
 20
274.1097521708
 30
0.0
 10
306.0239377666
 20
273.3252308266
 30
0.0
 10
304.5447427877
 20
272.5642848255
 30
0.0
 10
303.2966426896
 20
271.6432316884
 30
0.0
 10
302.3195027493
 20
270.5871738191
 30
0.0
 10
301.6489049533
 20
269.4248520993
 30
0.0
 10
301.3159107784
 20
268.191914461
 30
0.0
 10
301.3409706498
 20
266.9358321682
 30
0.0
 10
301.7222326299
 20
265.7103139851
 30
0.0
 10
302.4370648283
 20
264.5610826042
 30
0.0
 10
303.4534904078
 20
263.5223419506
 30
0.0
 10
304.7360230296
 20
262.6218851887
 30
0.0
 10
306.7954753956
 20
261.6150846727
 30
0.0
 10
308.5331629613
 20
261.1807670273
 30
0.0
 10
309.728849927
 20
261.0206874569
 30
0.0
  0
SPLINE
  5
602
100
AcDbEntity
  8
0
100
AcDbSpline
 62
7
  6
CONTINUOUS
 70
0
 71
3
 72
9
 73
5
 74
0
 42
0.0000001
 43
0.0000001
 44
0.0000000001
 40
0.0
 40
0.0
 40
0.0
 40
0.0
 40
0.2571282642
 40
1.0
 40
1.0
 40
1.0
 40
1.0
 10
303.4164667689
 20
266.7908756421
 30
0.0
 10
303.4164667689
 20
266.8028046881
 30
0.0
 10
303.4183576976
 20
266.8491686652
 30
0.0
 10
303.4282665321
 20
266.8952839588
 30
0.0
 10
303.440269074
 20
266.9275907448
 30
0.0
  0
SPLINE
  5
603
100
AcDbEntity
  8
0
100
AcDbSpline
 62
7
  6
CONTINUOUS
 70
0
 71
3
 72
9
 73
5
 74
0
 42
0.0000001
 43
0.0000001
 44
0.0000000001
 40
0.0
 40
0.0
 40
0.0
 40
0.0
 40
0.2559108888
 40
1.0
 40
1.0
 40
1.0
 40
1.0
 10
303.461936242
 20
270.3552623443
 30
0.0
 10
303.4651688142
 20
270.3817286011
 30
0.0
 10
303.4839700503
 20
270.4842708222
 30
0.0
 10
303.5291837686
 20
270.5822052801
 30
0.0
 10
303.5755017869
 20
270.6443730663
 30
0.0
  0
SPLINE
  5
604
100
AcDbEntity
  8
0
100
AcDbSpline
 62
7
  6
CONTINUOUS
 70
0
 71
3
 72
9
 73
5
 74
0
 42
0.0000001
 43
0.0000001
 44
0.0000000001
 40
0.0
 40
0.0
 40
0.0
 40
0.0
 40
0.2708449515
 40
1.0
 40
1.0
 40
1.0
 40
1.0
 10
303.461936242
 20
264.1845012914
 30
0.0
 10
303.4597233604
 20
264.1949199556
 30
0.0
 10
303.4538678233
 20
264.2337692713
 30
0.0
 10
303.45989676
 20
264.274935722
 30
0.0
 10
303.4720590579
 20
264.3009028775
 30
0.0
  0
SPLINE
  5
605
100
AcDbEntity
  8
0
100
AcDbSpline
 62
7
  6
CONTINUOUS
 70
0
 71
3
 72
9
 73
5
 74
0
 42
0.0000001
 43
0.0000001
 44
0.0000000001
 40
0.0
 40
0.0
 40
0.0
 40
0.0
 40
0.5137484035
 40
1.0
 40
1.0
 40
1.0
 40
1.0
 10
311.6041080107
 20
264.0458663768
 30
0.0
 10
311.6006082084
 20
263.8419353436
 30
0.0
 10
311.5522742919
 20
263.443882566
 30
0.0
 10
311.4076068329
 20
263.0689931053
 30
0.0
 10
311.3154929846
 20
262.8993426282
 30
0.0
  0
SPLINE
  5
606
100
AcDbEntity
  8
BEZUGSACHSEN
100
AcDbSpline
 62
7
  6
CONTINUOUS
 70
0
 71
3
 72
17
 73
13
 74
0
 42
0.0000001
 43
0.0000001
 44
0.0000000001
 40
0.0
 40
0.0
 40
0.0
 40
0.0
 40
0.0320093676
 40
0.0681556805
 40
0.1112130888
 40
0.1623217987
 40
0.2874861186
 40
0.4364612494
 40
0.5963861508
 40
0.7524363799
 40
0.8904954791
 40
1.0
 40
1.0
 40
1.0
 40
1.0
 10
285.4565379209
 20
263.4854641022
 30
0.0
 10
285.4651199752
 20
263.4651549072
 30
0.0
 10
285.4935292864
 20
263.4257721649
 30
0.0
 10
285.55960173
 20
263.3845518336
 30
0.0
 10
285.6461290072
 20
263.3581994533
 30
0.0
 10
285.7969000399
 20
263.3416578429
 30
0.0
 10
286.02184796
 20
263.3634664918
 30
0.0
 10
286.3116775914
 20
263.439959606
 30
0.0
 10
286.608738779
 20
263.5619818937
 30
0.0
 10
286.8816518056
 20
263.716881121
 30
0.0
 10
287.1018916162
 20
263.8876012381
 30
0.0
 10
287.2154873955
 20
264.0185326184
 30
0.0
 10
287.2524553777
 20
264.084278639
 30
0.0
  0
SPLINE
  5
607
100
AcDbEntity
  8
BEZUGSACHSEN
100
AcDbSpline
 62
7
  6
CONTINUOUS
 70
0
 71
3
 72
9
 73
5
 74
0
 42
0.0000001
 43
0.0000001
 44
0.0000000001
 40
0.0
 40
0.0
 40
0.0
 40
0.0
 40
0.2722929429
 40
1.0
 40
1.0
 40
1.0
 40
1.0
 10
287.2524553777
 20
264.084278639
 30
0.0
 10
287.2572631536
 20
264.0928290687
 30
0.0
 10
287.2739893507
 20
264.1247100991
 30
0.0
 10
287.2868771141
 20
264.1588575294
 30
0.0
 10
287.2923237439
 20
264.1845012914
 30
0.0
  0
SPLINE
  5
608
100
AcDbEntity
  8
BEZUGSACHSEN
100
AcDbSpline
 62
7
  6
CONTINUOUS
 70
0
 71
3
 72
17
 73
13
 74
0
 42
0.0000001
 43
0.0000001
 44
0.0000000001
 40
0.0
 40
0.0
 40
0.0
 40
0.0
 40
0.0893633462
 40
0.1429174184
 40
0.2030726331
 40
0.3407956441
 40
0.4935286551
 40
0.6475386024
 40
0.7887881834
 40
0.8512150464
 40
0.9071374142
 40
1.0
 40
1.0
 40
1.0
 40
1.0
 10
282.4751788515
 20
264.0214502885
 30
0.0
 10
282.5046067773
 20
263.959877563
 30
0.0
 10
282.5893491322
 20
263.8795379461
 30
0.0
 10
282.730312221
 20
263.8150253725
 30
0.0
 10
282.9169390685
 20
263.7655912425
 30
0.0
 10
283.1873254349
 20
263.7548961709
 30
0.0
 10
283.5241467194
 20
263.8099639787
 30
0.0
 10
283.8476885419
 20
263.9268580598
 30
0.0
 10
284.0838098071
 20
264.0692573448
 30
0.0
 10
284.2299500144
 20
264.2046564941
 30
0.0
 10
284.3292871805
 20
264.3315308746
 30
0.0
 10
284.3725974567
 20
264.4440430642
 30
0.0
 10
284.3738812263
 20
264.5149473975
 30
0.0
  0
SPLINE
  5
609
100
AcDbEntity
  8
0
100
AcDbSpline
 62
7
  6
CONTINUOUS
 70
0
 71
3
 72
9
 73
5
 74
0
 42
0.0000001
 43
0.0000001
 44
0.0000000001
 40
0.0
 40
0.0
 40
0.0
 40
0.0
 40
0.2789733476
 40
1.0
 40
1.0
 40
1.0
 40
1.0
 10
307.2007934133
 20
253.9820244185
 30
0.0
 10
307.0849545957
 20
254.0109204418
 30
0.0
 10
306.6789411959
 20
254.1399981235
 30
0.0
 10
306.2929456597
 20
254.3874408401
 30
0.0
 10
306.1117531756
 20
254.6372078806
 30
0.0
  0
SPLINE
  5
60A
100
AcDbEntity
  8
0
100
AcDbSpline
 62
7
  6
CONTINUOUS
 70
0
 71
3
 72
11
 73
7
 74
0
 42
0.0000001
 43
0.0000001
 44
0.0000000001
 40
0.0
 40
0.0
 40
0.0
 40
0.0
 40
0.2144843352
 40
0.4568045744
 40
0.7220336853
 40
1.0
 40
1.0
 40
1.0
 40
1.0
 10
304.8149767151
 20
256.424765573
 30
0.0
 10
304.5603147078
 20
256.7758075945
 30
0.0
 10
303.8770069844
 20
257.4234456305
 30
0.0
 10
302.5780137725
 20
258.1161325602
 30
0.0
 10
301.0402708746
 20
258.5531530972
 30
0.0
 10
299.9391757032
 20
258.6515685375
 30
0.0
 10
299.3771299929
 20
258.6515685375
 30
0.0
  0
SPLINE
  5
60B
100
AcDbEntity
  8
KONSTRUKTIONSELEMENTE
100
AcDbSpline
 62
7
  6
CONTINUOUS
 70
0
 71
3
 72
11
 73
7
 74
0
 42
0.0000001
 43
0.0000001
 44
0.0000000001
 40
0.0
 40
0.0
 40
0.0
 40
0.0
 40
0.2144843352
 40
0.4568045744
 40
0.7220336853
 40
1.0
 40
1.0
 40
1.0
 40
1.0
 10
285.9392832707
 20
256.424765573
 30
0.0
 10
286.193945278
 20
256.7758075945
 30
0.0
 10
286.8772530014
 20
257.4234456305
 30
0.0
 10
288.1762462133
 20
258.1161325602
 30
0.0
 10
289.7139891112
 20
258.5531530972
 30
0.0
 10
290.8150842826
 20
258.6515685375
 30
0.0
 10
291.3771299929
 20
258.6515685375
 30
0.0
  0
SPLINE
  5
60C
100
AcDbEntity
  8
AUSFORMSCHRAEGEN
100
AcDbSpline
 62
7
  6
CONTINUOUS
 70
0
 71
3
 72
9
 73
5
 74
0
 42
0.0000001
 43
0.0000001
 44
0.0000000001
 40
0.0
 40
0.0
 40
0.0
 40
0.0
 40
0.2789733476
 40
1.0
 40
1.0
 40
1.0
 40
1.0
 10
283.5534665725
 20
253.9820244185
 30
0.0
 10
283.6693053902
 20
254.0109204418
 30
0.0
 10
284.0753187899
 20
254.1399981235
 30
0.0
 10
284.4613143261
 20
254.3874408401
 30
0.0
 10
284.6425068102
 20
254.6372078806
 30
0.0
  0
SPLINE
  5
60D
100
AcDbEntity
  8
AUSFORMSCHRAEGEN
100
AcDbSpline
 62
7
  6
CONTINUOUS
 70
0
 71
3
 72
9
 73
5
 74
0
 42
0.0000001
 43
0.0000001
 44
0.0000000001
 40
0.0
 40
0.0
 40
0.0
 40
0.0
 40
0.4526724488
 40
1.0
 40
1.0
 40
1.0
 40
1.0
 10
279.1397468371
 20
265.353782607
 30
0.0
 10
279.1397468371
 20
266.7216056037
 30
0.0
 10
279.1993829606
 20
269.7431807828
 30
0.0
 10
279.3218482911
 20
272.762479378
 30
0.0
 10
279.4020619741
 20
274.4143716835
 30
0.0
  0
SPLINE
  5
60E
100
AcDbEntity
  8
0
100
AcDbSpline
 62
7
  6
CONTINUOUS
 70
0
 71
3
 72
13
 73
9
 74
0
 42
0.0000001
 43
0.0000001
 44
0.0000000001
 40
0.0
 40
0.0
 40
0.0
 40
0.0
 40
0.1033364106
 40
0.1878417135
 40
0.2976770413
 40
0.4336751813
 40
0.5961412914
 40
1.0
 40
1.0
 40
1.0
 40
1.0
 10
307.3771299929
 20
149.2346829131
 30
0.0
 10
307.3771299929
 20
149.1791215651
 30
0.0
 10
307.294460716
 20
149.0933666778
 30
0.0
 10
307.1632016246
 20
149.0112187494
 30
0.0
 10
307.0017168478
 20
148.9323106363
 30
0.0
 10
306.7982237747
 20
148.8514204498
 30
0.0
 10
306.440557026
 20
148.7290160318
 30
0.0
 10
306.1472141184
 20
148.6469677501
 30
0.0
 10
305.9371297758
 20
148.5920468308
 30
0.0
  0
SPLINE
  5
60F
100
AcDbEntity
  8
0
100
AcDbSpline
 62
7
  6
CONTINUOUS
 70
0
 71
3
 72
17
 73
13
 74
0
 42
0.0000001
 43
0.0000001
 44
0.0000000001
 40
0.0
 40
0.0
 40
0.0
 40
0.0
 40
0.0139638374
 40
0.0334046017
 40
0.0599701541
 40
0.0941232457
 40
0.135904366
 40
0.1851509302
 40
0.3048776728
 40
0.4503476341
 40
0.6177650304
 40
1.0
 40
1.0
 40
1.0
 40
1.0
 10
306.5771352566
 20
313.1150579067
 30
0.0
 10
306.5771286448
 20
313.0915436764
 30
0.0
 10
306.5999587565
 20
313.0363038435
 30
0.0
 10
306.672559658
 20
312.9651257023
 30
0.0
 10
306.7844183113
 20
312.888723328
 30
0.0
 10
306.9374265739
 20
312.8083776179
 30
0.0
 10
307.1307362255
 20
312.724001346
 30
0.0
 10
307.4631664846
 20
312.5993917797
 30
0.0
 10
307.969883952
 20
312.4442629768
 30
0.0
 10
308.6765849121
 20
312.2665889062
 30
0.0
 10
309.8227114572
 20
312.0275878905
 30
0.0
 10
310.7384346276
 20
311.8870211311
 30
0.0
 10
311.3771299929
 20
311.8072324893
 30
0.0
  0
SPLINE
  5
610
100
AcDbEntity
  8
0
100
AcDbSpline
 62
7
  6
CONTINUOUS
 70
0
 71
3
 72
11
 73
7
 74
0
 42
0.0000001
 43
0.0000001
 44
0.0000000001
 40
0.0
 40
0.0
 40
0.0
 40
0.0
 40
0.2146740787
 40
0.4550280824
 40
0.7186323465
 40
1.0
 40
1.0
 40
1.0
 40
1.0
 10
306.9667327361
 20
302.1450175052
 30
0.0
 10
306.9074202658
 20
302.0098084887
 30
0.0
 10
306.8116652007
 20
301.710031632
 30
0.0
 10
306.7236714578
 20
301.2230144636
 30
0.0
 10
306.6707093296
 20
300.6851050074
 30
0.0
 10
306.6523288996
 20
300.3106537103
 30
0.0
 10
306.6457064135
 20
300.1172508716
 30
0.0
  0
SPLINE
  5
611
100
AcDbEntity
  8
KONSTRUKTIONSELEMENTE
100
AcDbSpline
 62
7
  6
CONTINUOUS
 70
0
 71
3
 72
13
 73
9
 74
0
 42
0.0000001
 43
0.0000001
 44
0.0000000001
 40
0.0
 40
0.0
 40
0.0
 40
0.0
 40
0.1033364106
 40
0.1878417135
 40
0.2976770413
 40
0.4336751813
 40
0.5961412914
 40
1.0
 40
1.0
 40
1.0
 40
1.0
 10
283.3771299929
 20
149.2346829131
 30
0.0
 10
283.3771299929
 20
149.1791215651
 30
0.0
 10
283.4597992699
 20
149.0933666778
 30
0.0
 10
283.5910583612
 20
149.0112187494
 30
0.0
 10
283.752543138
 20
148.9323106363
 30
0.0
 10
283.9560362111
 20
148.8514204498
 30
0.0
 10
284.3137029598
 20
148.7290160318
 30
0.0
 10
284.6070458675
 20
148.6469677501
 30
0.0
 10
284.81713021
 20
148.5920468308
 30
0.0
  0
SPLINE
  5
612
100
AcDbEntity
  8
KONSTRUKTIONSELEMENTE
100
AcDbSpline
 62
7
  6
CONTINUOUS
 70
0
 71
3
 72
17
 73
13
 74
0
 42
0.0000001
 43
0.0000001
 44
0.0000000001
 40
0.0
 40
0.0
 40
0.0
 40
0.0
 40
0.0139638374
 40
0.0334046017
 40
0.0599701541
 40
0.0941232457
 40
0.135904366
 40
0.1851509302
 40
0.3048776728
 40
0.4503476341
 40
0.6177650304
 40
1.0
 40
1.0
 40
1.0
 40
1.0
 10
284.1771247292
 20
313.1150579067
 30
0.0
 10
284.1771313411
 20
313.0915436764
 30
0.0
 10
284.1543012294
 20
313.0363038435
 30
0.0
 10
284.0817003278
 20
312.9651257023
 30
0.0
 10
283.9698416745
 20
312.888723328
 30
0.0
 10
283.816833412
 20
312.8083776179
 30
0.0
 10
283.6235237603
 20
312.724001346
 30
0.0
 10
283.2910935012
 20
312.5993917797
 30
0.0
 10
282.7843760339
 20
312.4442629768
 30
0.0
 10
282.0776750737
 20
312.2665889062
 30
0.0
 10
280.9315485287
 20
312.0275878905
 30
0.0
 10
280.0158253582
 20
311.8870211311
 30
0.0
 10
279.3771299929
 20
311.8072324893
 30
0.0
  0
SPLINE
  5
613
100
AcDbEntity
  8
KONSTRUKTIONSELEMENTE
100
AcDbSpline
 62
7
  6
CONTINUOUS
 70
0
 71
3
 72
11
 73
7
 74
0
 42
0.0000001
 43
0.0000001
 44
0.0000000001
 40
0.0
 40
0.0
 40
0.0
 40
0.0
 40
0.2146740787
 40
0.4550280824
 40
0.7186323465
 40
1.0
 40
1.0
 40
1.0
 40
1.0
 10
283.7875272497
 20
302.1450175052
 30
0.0
 10
283.84683972
 20
302.0098084887
 30
0.0
 10
283.9425947851
 20
301.710031632
 30
0.0
 10
284.030588528
 20
301.2230144636
 30
0.0
 10
284.0835506562
 20
300.6851050074
 30
0.0
 10
284.1019310862
 20
300.3106537103
 30
0.0
 10
284.1085535724
 20
300.1172508716
 30
0.0
  0
SPLINE
  5
614
100
AcDbEntity
  8
BEZUGSACHSEN
100
AcDbSpline
 62
7
  6
CONTINUOUS
 70
0
 71
3
 72
11
 73
7
 74
0
 42
0.0000001
 43
0.0000001
 44
0.0000000001
 40
0.0
 40
0.0
 40
0.0
 40
0.0
 40
0.3382620305
 40
0.599583605
 40
0.8060141894
 40
1.0
 40
1.0
 40
1.0
 40
1.0
 10
283.367791669
 20
194.6075703322
 30
0.0
 10
283.3642644684
 20
194.5840630142
 30
0.0
 10
283.3557053351
 20
194.5426227002
 30
0.0
 10
283.333175645
 20
194.4899776633
 30
0.0
 10
283.2994808401
 20
194.4554096026
 30
0.0
 10
283.2705380601
 20
194.4485690336
 30
0.0
 10
283.2569062297
 20
194.4485539479
 30
0.0
  0
SPLINE
  5
615
100
AcDbEntity
  8
BEZUGSACHSEN
100
AcDbSpline
 62
7
  6
CONTINUOUS
 70
0
 71
3
 72
11
 73
7
 74
0
 42
0.0000001
 43
0.0000001
 44
0.0000000001
 40
0.0
 40
0.0
 40
0.0
 40
0.0
 40
0.3272110698
 40
0.6050618642
 40
0.8292232743
 40
1.0
 40
1.0
 40
1.0
 40
1.0
 10
283.9771299929
 20
196.0967674922
 30
0.0
 10
283.8831807804
 20
195.967606224
 30
0.0
 10
283.7185884296
 20
195.7218724297
 30
0.0
 10
283.5274820978
 20
195.3639696597
 30
0.0
 10
283.4111479838
 20
195.056010529
 30
0.0
 10
283.3771299929
 20
194.8637330771
 30
0.0
 10
283.3771299929
 20
194.7803749096
 30
0.0
  0
SPLINE
  5
616
100
AcDbEntity
  8
KONSTRUKTIONSELEMENTE
100
AcDbSpline
 62
7
  6
CONTINUOUS
 70
0
 71
3
 72
13
 73
9
 74
0
 42
0.0000001
 43
0.0000001
 44
0.0000000001
 40
0.0
 40
0.0
 40
0.0
 40
0.0
 40
0.4038587271
 40
0.5663248331
 40
0.7023229656
 40
0.8121582862
 40
0.8966635853
 40
1.0
 40
1.0
 40
1.0
 40
1.0
 10
284.81713021
 20
148.5920468308
 30
0.0
 10
285.0272145033
 20
148.5371259244
 30
0.0
 10
285.320557336
 20
148.4550776613
 30
0.0
 10
285.6782239842
 20
148.3326732648
 30
0.0
 10
285.8817169875
 20
148.2517830948
 30
0.0
 10
286.0432017043
 20
148.1728749977
 30
0.0
 10
286.1744607509
 20
148.0907270827
 30
0.0
 10
286.2571299929
 20
148.0049722131
 30
0.0
 10
286.2571299929
 20
147.9494108783
 30
0.0
  0
SPLINE
  5
617
100
AcDbEntity
  8
0
100
AcDbSpline
 62
7
  6
CONTINUOUS
 70
0
 71
3
 72
13
 73
9
 74
0
 42
0.0000001
 43
0.0000001
 44
0.0000000001
 40
0.0
 40
0.0
 40
0.0
 40
0.0
 40
0.4038587271
 40
0.5663248331
 40
0.7023229656
 40
0.8121582862
 40
0.8966635853
 40
1.0
 40
1.0
 40
1.0
 40
1.0
 10
305.9371297758
 20
148.5920468308
 30
0.0
 10
305.7270454825
 20
148.5371259244
 30
0.0
 10
305.4337026498
 20
148.4550776613
 30
0.0
 10
305.0760360017
 20
148.3326732648
 30
0.0
 10
304.8725429983
 20
148.2517830948
 30
0.0
 10
304.7110582816
 20
148.1728749977
 30
0.0
 10
304.579799235
 20
148.0907270827
 30
0.0
 10
304.4971299929
 20
148.0049722131
 30
0.0
 10
304.4971299929
 20
147.9494108783
 30
0.0
  0
SPLINE
  5
618
100
AcDbEntity
  8
RUNDUNGEN
100
AcDbSpline
 62
7
  6
CONTINUOUS
 70
0
 71
3
 72
8
 73
4
 74
0
 42
0.0000001
 43
0.0000001
 44
0.0000000001
 40
0.0
 40
0.0
 40
0.0
 40
0.0
 40
1.0
 40
1.0
 40
1.0
 40
1.0
 10
262.6327465203
 20
312.0980164698
 30
0.0
 10
260.4741230064
 20
311.9118033239
 30
0.0
 10
258.3155238737
 20
311.7253073231
 30
0.0
 10
256.1569495944
 20
311.5385243174
 30
0.0
  0
SPLINE
  5
619
100
AcDbEntity
  8
BEZUGSACHSEN
100
AcDbSpline
 62
7
  6
CONTINUOUS
 70
0
 71
3
 72
9
 73
5
 74
0
 42
0.0000001
 43
0.0000001
 44
0.0000000001
 40
0.0
 40
0.0
 40
0.0
 40
0.0
 40
0.4984248083
 40
1.0
 40
1.0
 40
1.0
 40
1.0
 10
272.5584878184
 20
266.1226449084
 30
0.0
 10
272.680460477
 20
266.0551863441
 30
0.0
 10
272.9396301997
 20
265.9436460611
 30
0.0
 10
273.2193198817
 20
265.8984152911
 30
0.0
 10
273.3595360593
 20
265.8947027171
 30
0.0
  0
SPLINE
  5
61A
100
AcDbEntity
  8
BEZUGSACHSEN
100
AcDbSpline
 62
7
  6
CONTINUOUS
 70
0
 71
3
 72
11
 73
7
 74
0
 42
0.0000001
 43
0.0000001
 44
0.0000000001
 40
0.0
 40
0.0
 40
0.0
 40
0.0
 40
0.2434175658
 40
0.4855870502
 40
0.7360673888
 40
1.0
 40
1.0
 40
1.0
 40
1.0
 10
281.9141382141
 20
207.1453453782
 30
0.0
 10
281.9989589549
 20
207.3388896645
 30
0.0
 10
282.2221696309
 20
207.7039969188
 30
0.0
 10
282.6938306493
 20
208.144399121
 30
0.0
 10
283.2640345081
 20
208.4783671834
 30
0.0
 10
283.6829249701
 20
208.637890035
 30
0.0
 10
283.9014449138
 20
208.7067882242
 30
0.0
  0
SPLINE
  5
61B
100
AcDbEntity
  8
KONSTRUKTIONSELEMENTE
100
AcDbSpline
 62
7
  6
CONTINUOUS
 70
0
 71
3
 72
11
 73
7
 74
0
 42
0.0000001
 43
0.0000001
 44
0.0000000001
 40
0.0
 40
0.0
 40
0.0
 40
0.0
 40
0.2502768034
 40
0.5005568726
 40
0.7507000805
 40
1.0
 40
1.0
 40
1.0
 40
1.0
 10
286.5249070708
 20
299.5230119522
 30
0.0
 10
286.4202151304
 20
299.6074960365
 30
0.0
 10
286.2022191056
 20
299.7662668001
 30
0.0
 10
285.8470928179
 20
299.9609174507
 30
0.0
 10
285.4632033944
 20
300.0916425633
 30
0.0
 10
285.1935843941
 20
300.1210115507
 30
0.0
 10
285.0595827375
 20
300.1202944581
 30
0.0
  0
SPLINE
  5
61C
100
AcDbEntity
  8
KONSTRUKTIONSELEMENTE
100
AcDbSpline
 62
7
  6
CONTINUOUS
 70
0
 71
3
 72
11
 73
7
 74
0
 42
0.0000001
 43
0.0000001
 44
0.0000000001
 40
0.0
 40
0.0
 40
0.0
 40
0.0
 40
0.1900683088
 40
0.4092665164
 40
0.6760752503
 40
1.0
 40
1.0
 40
1.0
 40
1.0
 10
283.3771299929
 20
190.7251592132
 30
0.0
 10
283.3771299929
 20
190.7668189086
 30
0.0
 10
283.3981547838
 20
190.8570715106
 30
0.0
 10
283.4827712216
 20
190.9812493422
 30
0.0
 10
283.6152341763
 20
191.1009762989
 30
0.0
 10
283.7242078736
 20
191.1716937864
 30
0.0
 10
283.7856229
 20
191.2073169896
 30
0.0
  0
SPLINE
  5
61D
100
AcDbEntity
  8
0
100
AcDbSpline
 62
7
  6
CONTINUOUS
 70
0
 71
3
 72
14
 73
10
 74
0
 42
0.0000001
 43
0.0000001
 44
0.0000000001
 40
0.0
 40
0.0
 40
0.0
 40
0.0
 40
0.1057533598
 40
0.2151559875
 40
0.3305128572
 40
0.4530397488
 40
0.7175997009
 40
0.8577743071
 40
1.0
 40
1.0
 40
1.0
 40
1.0
 10
307.3771299929
 20
185.5309978222
 30
0.0
 10
307.3771299929
 20
185.4096763704
 30
0.0
 10
307.3434539324
 20
185.1617159685
 30
0.0
 10
307.1966639353
 20
184.8081401574
 30
0.0
 10
306.9606453857
 20
184.4830157995
 30
0.0
 10
306.5309520922
 20
184.093956036
 30
0.0
 10
305.9759388763
 20
183.8214098705
 30
0.0
 10
305.3646479888
 20
183.6743121493
 30
0.0
 10
305.0402702616
 20
183.6472554895
 30
0.0
 10
304.8771299929
 20
183.644536496
 30
0.0
  0
LINE
  5
61E
100
AcDbEntity
  8
0
100
AcDbLine
 62
7
  6
CONTINUOUS
 10
295.3771299929
 20
294.914878827
 11
295.377129993
 21
294.3270405795
  0
SPLINE
  5
61F
100
AcDbEntity
  8
KONSTRUKTIONSELEMENTE
100
AcDbSpline
 62
7
  6
CONTINUOUS
 70
0
 71
3
 72
9
 73
5
 74
0
 42
0.0000001
 43
0.0000001
 44
0.0000000001
 40
0.0
 40
0.0
 40
0.0
 40
0.0
 40
0.2535511062
 40
1.0
 40
1.0
 40
1.0
 40
1.0
 10
270.9526742079
 20
312.7595218198
 30
0.0
 10
270.7620777777
 20
312.7452345797
 30
0.0
 10
270.010354678
 20
312.6890854227
 30
0.0
 10
269.2585844914
 20
312.6335694933
 30
0.0
 10
268.6974263922
 20
312.5921316831
 30
0.0
  0
SPLINE
  5
620
100
AcDbEntity
  8
KONSTRUKTIONSELEMENTE
100
AcDbSpline
 62
7
  6
CONTINUOUS
 70
0
 71
3
 72
11
 73
7
 74
0
 42
0.0000001
 43
0.0000001
 44
0.0000000001
 40
0.0
 40
0.0
 40
0.0
 40
0.0
 40
0.2669863252
 40
0.5157667046
 40
0.7581852944
 40
1.0
 40
1.0
 40
1.0
 40
1.0
 10
284.2341261887
 20
156.3325522353
 30
0.0
 10
284.3728278505
 20
156.4387584938
 30
0.0
 10
284.6703526464
 20
156.6078535398
 30
0.0
 10
285.1510717945
 20
156.7436550061
 30
0.0
 10
285.6308950596
 20
156.7863540719
 30
0.0
 10
285.9481653556
 20
156.7696309647
 30
0.0
 10
286.1055245
 20
156.7531144478
 30
0.0
  0
SPLINE
  5
621
100
AcDbEntity
  8
KONSTRUKTIONSELEMENTE
100
AcDbSpline
 62
7
  6
CONTINUOUS
 70
0
 71
3
 72
8
 73
4
 74
0
 42
0.0000001
 43
0.0000001
 44
0.0000000001
 40
0.0
 40
0.0
 40
0.0
 40
0.0
 40
1.0
 40
1.0
 40
1.0
 40
1.0
 10
282.2219139781
 20
238.7660819808
 30
0.0
 10
282.2208167524
 20
238.7797999721
 30
0.0
 10
282.2216449306
 20
238.7937904549
 30
0.0
 10
282.2242660907
 20
238.8073003294
 30
0.0
  0
SPLINE
  5
622
100
AcDbEntity
  8
KONSTRUKTIONSELEMENTE
100
AcDbSpline
 62
7
  6
CONTINUOUS
 70
0
 71
3
 72
9
 73
5
 74
0
 42
0.0000001
 43
0.0000001
 44
0.0000000001
 40
0.0
 40
0.0
 40
0.0
 40
0.0
 40
0.2566740161
 40
1.0
 40
1.0
 40
1.0
 40
1.0
 10
282.4052992553
 20
239.3885145826
 30
0.0
 10
282.3846975016
 20
239.3406176883
 30
0.0
 10
282.3091075374
 20
239.1520533827
 30
0.0
 10
282.2530257596
 20
238.9555322265
 30
0.0
 10
282.2242660907
 20
238.8073003294
 30
0.0
  0
SPLINE
  5
623
100
AcDbEntity
  8
KONSTRUKTIONSELEMENTE
100
AcDbSpline
 62
7
  6
CONTINUOUS
 70
0
 71
3
 72
14
 73
10
 74
0
 42
0.0000001
 43
0.0000001
 44
0.0000000001
 40
0.0
 40
0.0
 40
0.0
 40
0.0
 40
0.1057533598
 40
0.2151559875
 40
0.3305128572
 40
0.4530397488
 40
0.7175997009
 40
0.8577743071
 40
1.0
 40
1.0
 40
1.0
 40
1.0
 10
283.3771299929
 20
185.5309978222
 30
0.0
 10
283.3771299929
 20
185.4096763704
 30
0.0
 10
283.4108060534
 20
185.1617159685
 30
0.0
 10
283.5575960505
 20
184.8081401574
 30
0.0
 10
283.7936146001
 20
184.4830157995
 30
0.0
 10
284.2233078936
 20
184.093956036
 30
0.0
 10
284.7783211095
 20
183.8214098705
 30
0.0
 10
285.389611997
 20
183.6743121493
 30
0.0
 10
285.7139897243
 20
183.6472554895
 30
0.0
 10
285.8771299929
 20
183.644536496
 30
0.0
  0
SPLINE
  5
624
100
AcDbEntity
  8
KONSTRUKTIONSELEMENTE
100
AcDbSpline
 62
7
  6
CONTINUOUS
 70
0
 71
3
 72
11
 73
7
 74
0
 42
0.0000001
 43
0.0000001
 44
0.0000000001
 40
0.0
 40
0.0
 40
0.0
 40
0.0
 40
0.2686503872
 40
0.5227599282
 40
0.7652988631
 40
1.0
 40
1.0
 40
1.0
 40
1.0
 10
286.9098962566
 20
233.837826543
 30
0.0
 10
286.9489512621
 20
234.3713123348
 30
0.0
 10
286.9507977841
 20
235.4168627164
 30
0.0
 10
286.7156634333
 20
236.928771438
 30
0.0
 10
286.2608469844
 20
238.318723959
 30
0.0
 10
285.8197320794
 20
239.1658776605
 30
0.0
 10
285.5712207936
 20
239.5616389094
 30
0.0
  0
SPLINE
  5
625
100
AcDbEntity
  8
KONSTRUKTIONSELEMENTE
100
AcDbSpline
 62
7
  6
CONTINUOUS
 70
0
 71
3
 72
19
 73
15
 74
0
 42
0.0000001
 43
0.0000001
 44
0.0000000001
 40
0.0
 40
0.0
 40
0.0
 40
0.0
 40
0.209901337
 40
0.4011886679
 40
0.5699386034
 40
0.7128879614
 40
0.7738440952
 40
0.8274441382
 40
0.8735316785
 40
0.9120517013
 40
0.9431059152
 40
0.9671230181
 40
0.985203162
 40
1.0
 40
1.0
 40
1.0
 40
1.0
 10
280.7128395634
 20
313.3561306657
 30
0.0
 10
280.960703863
 20
313.369001525
 30
0.0
 10
281.4346333222
 20
313.3903105562
 30
0.0
 10
282.1083753081
 20
313.4082239956
 30
0.0
 10
282.7031946583
 20
313.4092624307
 30
0.0
 10
283.1437765456
 20
313.3947496131
 30
0.0
 10
283.447437797
 20
313.3716565868
 30
0.0
 10
283.6362501521
 20
313.3504080195
 30
0.0
 10
283.7976788057
 20
313.3243733343
 30
0.0
 10
283.9310693011
 20
313.2936525146
 30
0.0
 10
284.036275974
 20
313.2583067345
 30
0.0
 10
284.1133760395
 20
313.2182592874
 30
0.0
 10
284.164268455
 20
313.1718192343
 30
0.0
 10
284.1771198095
 20
313.1325544561
 30
0.0
 10
284.1771247292
 20
313.1150579067
 30
0.0
  0
SPLINE
  5
626
100
AcDbEntity
  8
0
100
AcDbSpline
 62
7
  6
CONTINUOUS
 70
0
 71
3
 72
9
 73
5
 74
0
 42
0.0000001
 43
0.0000001
 44
0.0000000001
 40
0.0
 40
0.0
 40
0.0
 40
0.0
 40
0.5219961709
 40
1.0
 40
1.0
 40
1.0
 40
1.0
 10
306.5507216648
 20
156.308680441
 30
0.0
 10
306.8109340196
 20
156.1016641641
 30
0.0
 10
307.2301692374
 20
155.5885712084
 30
0.0
 10
307.3771299929
 20
154.9439529157
 30
0.0
 10
307.3771299929
 20
154.6394613503
 30
0.0
  0
LINE
  5
627
100
AcDbEntity
  8
0
100
AcDbLine
 62
7
  6
CONTINUOUS
 10
295.3771299929
 20
300.7723635412
 11
295.3771299929
 21
299.5220538846
  0
SPLINE
  5
628
100
AcDbEntity
  8
0
100
AcDbSpline
 62
7
  6
CONTINUOUS
 70
0
 71
3
 72
11
 73
7
 74
0
 42
0.0000001
 43
0.0000001
 44
0.0000000001
 40
0.0
 40
0.0
 40
0.0
 40
0.0
 40
0.2669863252
 40
0.5157667046
 40
0.7581852944
 40
1.0
 40
1.0
 40
1.0
 40
1.0
 10
306.5201337971
 20
156.3325522353
 30
0.0
 10
306.3814321353
 20
156.4387584938
 30
0.0
 10
306.0839073394
 20
156.6078535398
 30
0.0
 10
305.6031881913
 20
156.7436550061
 30
0.0
 10
305.1233649262
 20
156.7863540719
 30
0.0
 10
304.8060946302
 20
156.7696309647
 30
0.0
 10
304.6487354859
 20
156.7531144478
 30
0.0
  0
SPLINE
  5
629
100
AcDbEntity
  8
0
100
AcDbSpline
 62
7
  6
CONTINUOUS
 70
0
 71
3
 72
9
 73
5
 74
0
 42
0.0000001
 43
0.0000001
 44
0.0000000001
 40
0.0
 40
0.0
 40
0.0
 40
0.0
 40
0.2535511062
 40
1.0
 40
1.0
 40
1.0
 40
1.0
 10
319.8015857779
 20
312.7595218198
 30
0.0
 10
319.9921822081
 20
312.7452345797
 30
0.0
 10
320.7439053079
 20
312.6890854227
 30
0.0
 10
321.4956754944
 20
312.6335694933
 30
0.0
 10
322.0568335937
 20
312.5921316831
 30
0.0
  0
SPLINE
  5
62A
100
AcDbEntity
  8
0
100
AcDbSpline
 62
7
  6
CONTINUOUS
 70
0
 71
3
 72
8
 73
4
 74
0
 42
0.0000001
 43
0.0000001
 44
0.0000000001
 40
0.0
 40
0.0
 40
0.0
 40
0.0
 40
1.0
 40
1.0
 40
1.0
 40
1.0
 10
328.1215134655
 20
312.0980164698
 30
0.0
 10
330.2801369794
 20
311.9118033239
 30
0.0
 10
332.4387361121
 20
311.7253073231
 30
0.0
 10
334.5973103914
 20
311.5385243174
 30
0.0
  0
SPLINE
  5
62B
100
AcDbEntity
  8
KONSTRUKTIONSELEMENTE
100
AcDbSpline
 62
7
  6
CONTINUOUS
 70
0
 71
3
 72
9
 73
5
 74
0
 42
0.0000001
 43
0.0000001
 44
0.0000000001
 40
0.0
 40
0.0
 40
0.0
 40
0.0
 40
0.2571756674
 40
1.0
 40
1.0
 40
1.0
 40
1.0
 10
262.6327465203
 20
312.0980164698
 30
0.0
 10
263.1524365379
 20
312.142847406
 30
0.0
 10
265.1733367268
 20
312.3154520581
 30
0.0
 10
267.1948737062
 20
312.4811781159
 30
0.0
 10
268.6974263922
 20
312.5921316831
 30
0.0
  0
SPLINE
  5
62C
100
AcDbEntity
  8
0
100
AcDbSpline
 62
7
  6
CONTINUOUS
 70
0
 71
3
 72
11
 73
7
 74
0
 42
0.0000001
 43
0.0000001
 44
0.0000000001
 40
0.0
 40
0.0
 40
0.0
 40
0.0
 40
0.2502768034
 40
0.5005568726
 40
0.7507000805
 40
1.0
 40
1.0
 40
1.0
 40
1.0
 10
304.229352915
 20
299.5230119522
 30
0.0
 10
304.3340448555
 20
299.6074960365
 30
0.0
 10
304.5520408802
 20
299.7662668001
 30
0.0
 10
304.9071671679
 20
299.9609174507
 30
0.0
 10
305.2910565914
 20
300.0916425633
 30
0.0
 10
305.5606755917
 20
300.1210115507
 30
0.0
 10
305.6946772483
 20
300.1202944581
 30
0.0
  0
SPLINE
  5
62D
100
AcDbEntity
  8
KONSTRUKTIONSELEMENTE
100
AcDbSpline
 62
7
  6
CONTINUOUS
 70
0
 71
3
 72
9
 73
5
 74
0
 42
0.0000001
 43
0.0000001
 44
0.0000000001
 40
0.0
 40
0.0
 40
0.0
 40
0.0
 40
0.5219961709
 40
1.0
 40
1.0
 40
1.0
 40
1.0
 10
284.203538321
 20
156.308680441
 30
0.0
 10
283.9433259662
 20
156.1016641641
 30
0.0
 10
283.5240907484
 20
155.5885712084
 30
0.0
 10
283.3771299929
 20
154.9439529157
 30
0.0
 10
283.3771299929
 20
154.6394613503
 30
0.0
  0
SPLINE
  5
62E
100
AcDbEntity
  8
0
100
AcDbSpline
 62
7
  6
CONTINUOUS
 70
0
 71
3
 72
11
 73
7
 74
0
 42
0.0000001
 43
0.0000001
 44
0.0000000001
 40
0.0
 40
0.0
 40
0.0
 40
0.0
 40
0.2686503872
 40
0.5227599282
 40
0.7652988631
 40
1.0
 40
1.0
 40
1.0
 40
1.0
 10
303.8443637292
 20
233.837826543
 30
0.0
 10
303.8053087238
 20
234.3713123348
 30
0.0
 10
303.8034622017
 20
235.4168627164
 30
0.0
 10
304.0385965525
 20
236.928771438
 30
0.0
 10
304.4934130014
 20
238.318723959
 30
0.0
 10
304.9345279064
 20
239.1658776605
 30
0.0
 10
305.1830391922
 20
239.5616389094
 30
0.0
  0
SPLINE
  5
62F
100
AcDbEntity
  8
0
100
AcDbSpline
 62
7
  6
CONTINUOUS
 70
0
 71
3
 72
11
 73
7
 74
0
 42
0.0000001
 43
0.0000001
 44
0.0000000001
 40
0.0
 40
0.0
 40
0.0
 40
0.0
 40
0.1900683088
 40
0.4092665164
 40
0.6760752503
 40
1.0
 40
1.0
 40
1.0
 40
1.0
 10
307.3771299929
 20
190.7251592132
 30
0.0
 10
307.3771299929
 20
190.7668189086
 30
0.0
 10
307.356105202
 20
190.8570715106
 30
0.0
 10
307.2714887642
 20
190.9812493422
 30
0.0
 10
307.1390258095
 20
191.1009762989
 30
0.0
 10
307.0300521122
 20
191.1716937864
 30
0.0
 10
306.9686370859
 20
191.2073169896
 30
0.0
  0
SPLINE
  5
630
100
AcDbEntity
  8
0
100
AcDbSpline
 62
7
  6
CONTINUOUS
 70
0
 71
3
 72
9
 73
5
 74
0
 42
0.0000001
 43
0.0000001
 44
0.0000000001
 40
0.0
 40
0.0
 40
0.0
 40
0.0
 40
0.2571756674
 40
1.0
 40
1.0
 40
1.0
 40
1.0
 10
328.1215134655
 20
312.0980164698
 30
0.0
 10
327.6018234479
 20
312.142847406
 30
0.0
 10
325.580923259
 20
312.3154520581
 30
0.0
 10
323.5593862796
 20
312.4811781159
 30
0.0
 10
322.0568335937
 20
312.5921316831
 30
0.0
  0
SPLINE
  5
631
100
AcDbEntity
  8
0
100
AcDbSpline
 62
7
  6
CONTINUOUS
 70
0
 71
3
 72
19
 73
15
 74
0
 42
0.0000001
 43
0.0000001
 44
0.0000000001
 40
0.0
 40
0.0
 40
0.0
 40
0.0
 40
0.209901337
 40
0.4011886679
 40
0.5699386034
 40
0.7128879614
 40
0.7738440952
 40
0.8274441382
 40
0.8735316785
 40
0.9120517013
 40
0.9431059152
 40
0.9671230181
 40
0.985203162
 40
1.0
 40
1.0
 40
1.0
 40
1.0
 10
310.0414204225
 20
313.3561306657
 30
0.0
 10
309.7935561228
 20
313.369001525
 30
0.0
 10
309.3196266636
 20
313.3903105562
 30
0.0
 10
308.6458846777
 20
313.4082239956
 30
0.0
 10
308.0510653275
 20
313.4092624307
 30
0.0
 10
307.6104834402
 20
313.3947496131
 30
0.0
 10
307.3068221888
 20
313.3716565868
 30
0.0
 10
307.1180098337
 20
313.3504080195
 30
0.0
 10
306.9565811802
 20
313.3243733343
 30
0.0
 10
306.8231906847
 20
313.2936525146
 30
0.0
 10
306.7179840119
 20
313.2583067345
 30
0.0
 10
306.6408839463
 20
313.2182592874
 30
0.0
 10
306.5899915308
 20
313.1718192343
 30
0.0
 10
306.5771401763
 20
313.1325544561
 30
0.0
 10
306.5771352566
 20
313.1150579067
 30
0.0
  0
SPLINE
  5
632
100
AcDbEntity
  8
BEZUGSACHSEN
100
AcDbSpline
 62
7
  6
CONTINUOUS
 70
0
 71
3
 72
9
 73
5
 74
0
 42
0.0000001
 43
0.0000001
 44
0.0000000001
 40
0.0
 40
0.0
 40
0.0
 40
0.0
 40
0.4984248083
 40
1.0
 40
1.0
 40
1.0
 40
1.0
 10
318.1957721674
 20
266.1226449084
 30
0.0
 10
318.0737995088
 20
266.0551863441
 30
0.0
 10
317.8146297861
 20
265.9436460611
 30
0.0
 10
317.5349401042
 20
265.8984152911
 30
0.0
 10
317.3947239265
 20
265.8947027171
 30
0.0
  0
SPLINE
  5
633
100
AcDbEntity
  8
BEZUGSACHSEN
100
AcDbSpline
 62
7
  6
CONTINUOUS
 70
0
 71
3
 72
21
 73
17
 74
0
 42
0.0000001
 43
0.0000001
 44
0.0000000001
 40
0.0
 40
0.0
 40
0.0
 40
0.0
 40
0.0055804789
 40
0.0136215663
 40
0.0244795458
 40
0.0382081297
 40
0.0739462335
 40
0.1198801196
 40
0.174819295
 40
0.2375824548
 40
0.3070474887
 40
0.3820954827
 40
0.5436199321
 40
0.7094709386
 40
0.865366256
 40
1.0
 40
1.0
 40
1.0
 40
1.0
 10
283.2569062297
 20
194.4485539479
 30
0.0
 10
283.231898341
 20
194.4485262728
 30
0.0
 10
283.1721696546
 20
194.4711225785
 30
0.0
 10
283.0852168383
 20
194.5379605411
 30
0.0
 10
282.982558813
 20
194.6428285245
 30
0.0
 10
282.8121752692
 20
194.8528693595
 30
0.0
 10
282.5753649179
 20
195.2098391714
 30
0.0
 10
282.2743284464
 20
195.7432159124
 30
0.0
 10
281.9538136134
 20
196.4033212113
 30
0.0
 10
281.6326881867
 20
197.1786927217
 30
0.0
 10
281.3318826133
 20
198.0582891534
 30
0.0
 10
280.979075162
 20
199.3845303038
 30
0.0
 10
280.7240972119
 20
201.1792713739
 30
0.0
 10
280.8041351663
 20
203.3553674599
 30
0.0
 10
281.2272459401
 20
205.3647514086
 30
0.0
 10
281.6719617748
 20
206.592746295
 30
0.0
 10
281.9141382141
 20
207.1453453782
 30
0.0
  0
SPLINE
  5
634
100
AcDbEntity
  8
BEZUGSACHSEN
100
AcDbSpline
 62
7
  6
CONTINUOUS
 70
0
 71
3
 72
10
 73
6
 74
0
 42
0.0000001
 43
0.0000001
 44
0.0000000001
 40
0.0
 40
0.0
 40
0.0
 40
0.0
 40
0.5015949378
 40
0.7510711204
 40
1.0
 40
1.0
 40
1.0
 40
1.0
 10
141.4604237871
 20
103.4874895618
 30
0.0
 10
141.1369192819
 20
104.4580030775
 30
0.0
 10
140.7304064774
 20
105.9417528748
 30
0.0
 10
140.4387696365
 20
107.9625787421
 30
0.0
 10
140.3886270174
 20
108.9797950441
 30
0.0
 10
140.3886270173
 20
109.4874895606
 30
0.0
  0
SPLINE
  5
635
100
AcDbEntity
  8
BEZUGSACHSEN
100
AcDbSpline
 62
7
  6
CONTINUOUS
 70
0
 71
3
 72
10
 73
6
 74
0
 42
0.0000001
 43
0.0000001
 44
0.0000000001
 40
0.0
 40
0.0
 40
0.0
 40
0.0
 40
0.5015949378
 40
0.7510711204
 40
1.0
 40
1.0
 40
1.0
 40
1.0
 10
141.4604237871
 20
91.4874895618
 30
0.0
 10
141.1369192818
 20
92.4580030777
 30
0.0
 10
140.7304064773
 20
93.9417528753
 30
0.0
 10
140.4387696364
 20
95.9625787431
 30
0.0
 10
140.3886270173
 20
96.9797950452
 30
0.0
 10
140.3886270173
 20
97.4874895619
 30
0.0
  0
SPLINE
  5
636
100
AcDbEntity
  8
BEZUGSACHSEN
100
AcDbSpline
 62
7
  6
CONTINUOUS
 70
0
 71
3
 72
10
 73
6
 74
0
 42
0.0000001
 43
0.0000001
 44
0.0000000001
 40
0.0
 40
0.0
 40
0.0
 40
0.0
 40
0.2489289184
 40
0.4984051116
 40
1.0
 40
1.0
 40
1.0
 40
1.0
 10
140.3886270173
 20
97.4874895619
 30
0.0
 10
140.3886270466
 20
97.9951841577
 30
0.0
 10
140.4387696331
 20
99.0124005612
 30
0.0
 10
140.7304065359
 20
101.0332264233
 30
0.0
 10
141.1369193136
 20
102.5169761415
 30
0.0
 10
141.4604237871
 20
103.4874895618
 30
0.0
  0
SPLINE
  5
637
100
AcDbEntity
  8
BEZUGSACHSEN
100
AcDbSpline
 62
7
  6
CONTINUOUS
 70
0
 71
3
 72
10
 73
6
 74
0
 42
0.0000001
 43
0.0000001
 44
0.0000000001
 40
0.0
 40
0.0
 40
0.0
 40
0.0
 40
0.2489289184
 40
0.4984051116
 40
1.0
 40
1.0
 40
1.0
 40
1.0
 10
140.3886270173
 20
109.4874895606
 30
0.0
 10
140.3886270173
 20
109.9951841566
 30
0.0
 10
140.4387696479
 20
111.01240056
 30
0.0
 10
140.7304065261
 20
113.033226423
 30
0.0
 10
141.1369193135
 20
114.5169761412
 30
0.0
 10
141.4604237871
 20
115.4874895618
 30
0.0
  0
SPLINE
  5
638
100
AcDbEntity
  8
BEZUGSACHSEN
100
AcDbSpline
 62
7
  6
CONTINUOUS
 70
0
 71
3
 72
10
 73
6
 74
0
 42
0.0000001
 43
0.0000001
 44
0.0000000001
 40
0.0
 40
0.0
 40
0.0
 40
0.0
 40
0.5015949378
 40
0.7510711204
 40
1.0
 40
1.0
 40
1.0
 40
1.0
 10
141.4604237871
 20
33.4874895618
 30
0.0
 10
141.1369192819
 20
34.4580030775
 30
0.0
 10
140.7304064774
 20
35.9417528748
 30
0.0
 10
140.4387696365
 20
37.9625787421
 30
0.0
 10
140.3886270174
 20
38.9797950441
 30
0.0
 10
140.3886270173
 20
39.4874895606
 30
0.0
  0
SPLINE
  5
639
100
AcDbEntity
  8
BEZUGSACHSEN
100
AcDbSpline
 62
7
  6
CONTINUOUS
 70
0
 71
3
 72
10
 73
6
 74
0
 42
0.0000001
 43
0.0000001
 44
0.0000000001
 40
0.0
 40
0.0
 40
0.0
 40
0.0
 40
0.5015949378
 40
0.7510711204
 40
1.0
 40
1.0
 40
1.0
 40
1.0
 10
141.4604237871
 20
21.4874895618
 30
0.0
 10
141.1369192818
 20
22.4580030777
 30
0.0
 10
140.7304064773
 20
23.9417528753
 30
0.0
 10
140.4387696364
 20
25.9625787431
 30
0.0
 10
140.3886270173
 20
26.9797950452
 30
0.0
 10
140.3886270173
 20
27.4874895619
 30
0.0
  0
SPLINE
  5
63A
100
AcDbEntity
  8
BEZUGSACHSEN
100
AcDbSpline
 62
7
  6
CONTINUOUS
 70
0
 71
3
 72
10
 73
6
 74
0
 42
0.0000001
 43
0.0000001
 44
0.0000000001
 40
0.0
 40
0.0
 40
0.0
 40
0.0
 40
0.2489289184
 40
0.4984051116
 40
1.0
 40
1.0
 40
1.0
 40
1.0
 10
140.3886270173
 20
27.4874895619
 30
0.0
 10
140.3886270466
 20
27.9951841577
 30
0.0
 10
140.4387696331
 20
29.0124005612
 30
0.0
 10
140.7304065359
 20
31.0332264233
 30
0.0
 10
141.1369193136
 20
32.5169761415
 30
0.0
 10
141.4604237871
 20
33.4874895618
 30
0.0
  0
SPLINE
  5
63B
100
AcDbEntity
  8
BEZUGSACHSEN
100
AcDbSpline
 62
7
  6
CONTINUOUS
 70
0
 71
3
 72
10
 73
6
 74
0
 42
0.0000001
 43
0.0000001
 44
0.0000000001
 40
0.0
 40
0.0
 40
0.0
 40
0.0
 40
0.2489289184
 40
0.4984051116
 40
1.0
 40
1.0
 40
1.0
 40
1.0
 10
140.3886270173
 20
39.4874895606
 30
0.0
 10
140.3886270173
 20
39.9951841566
 30
0.0
 10
140.4387696479
 20
41.01240056
 30
0.0
 10
140.7304065261
 20
43.033226423
 30
0.0
 10
141.1369193135
 20
44.5169761412
 30
0.0
 10
141.4604237871
 20
45.4874895618
 30
0.0
  0
SPLINE
  5
63C
100
AcDbEntity
  8
0
100
AcDbSpline
 62
7
  6
CONTINUOUS
 70
0
 71
3
 72
8
 73
4
 74
0
 42
0.0000001
 43
0.0000001
 44
0.0000000001
 40
0.0
 40
0.0
 40
0.0
 40
0.0
 40
1.0
 40
1.0
 40
1.0
 40
1.0
 10
110.8363917037
 20
58.5819949794
 30
0.0
 10
110.7051834214
 20
58.5204769592
 30
0.0
 10
110.5569598423
 20
58.4874895618
 30
0.0
 10
110.4120457982
 20
58.4874895618
 30
0.0
  0
SPLINE
  5
63D
100
AcDbEntity
  8
0
100
AcDbSpline
 62
7
  6
CONTINUOUS
 70
0
 71
3
 72
9
 73
5
 74
0
 42
0.0000001
 43
0.0000001
 44
0.0000000001
 40
0.0
 40
0.0
 40
0.0
 40
0.0
 40
0.2461806271
 40
1.0
 40
1.0
 40
1.0
 40
1.0
 10
105.4545110513
 20
52.3271837919
 30
0.0
 10
105.3654043254
 20
52.3393825698
 30
0.0
 10
105.0043380559
 20
52.3953247634
 30
0.0
 10
104.647231681
 20
52.4761341344
 30
0.0
 10
104.381686048
 20
52.5491265701
 30
0.0
  0
SPLINE
  5
63E
100
AcDbEntity
  8
0
100
AcDbSpline
 62
7
  6
CONTINUOUS
 70
0
 71
3
 72
12
 73
8
 74
0
 42
0.0000001
 43
0.0000001
 44
0.0000000001
 40
0.0
 40
0.0
 40
0.0
 40
0.0
 40
0.1085833304
 40
0.2201594841
 40
0.4579795042
 40
0.7207844644
 40
1.0
 40
1.0
 40
1.0
 40
1.0
 10
93.9130642539
 20
64.4874895618
 30
0.0
 10
93.9883422313
 20
64.4874895618
 30
0.0
 10
94.1416325999
 20
64.5076104523
 30
0.0
 10
94.4391138794
 20
64.6265192031
 30
0.0
 10
94.763437863
 20
64.9219709136
 30
0.0
 10
95.0063340357
 20
65.4154356252
 30
0.0
 10
95.0621309186
 20
65.7939167481
 30
0.0
 10
95.0621309186
 20
65.9874895618
 30
0.0
  0
SPLINE
  5
63F
100
AcDbEntity
  8
BEZUGSACHSEN
100
AcDbSpline
 62
7
  6
CONTINUOUS
 70
0
 71
3
 72
8
 73
4
 74
0
 42
0.0000001
 43
0.0000001
 44
0.0000000001
 40
0.0
 40
0.0
 40
0.0
 40
0.0
 40
1.0
 40
1.0
 40
1.0
 40
1.0
 10
110.8363917037
 20
78.3929841443
 30
0.0
 10
110.7051834214
 20
78.4545021645
 30
0.0
 10
110.5569598423
 20
78.4874895618
 30
0.0
 10
110.4120457982
 20
78.4874895618
 30
0.0
  0
SPLINE
  5
640
100
AcDbEntity
  8
KONSTRUKTIONSELEMENTE
100
AcDbSpline
 62
7
  6
CONTINUOUS
 70
0
 71
3
 72
9
 73
5
 74
0
 42
0.0000001
 43
0.0000001
 44
0.0000000001
 40
0.0
 40
0.0
 40
0.0
 40
0.0
 40
0.2461806271
 40
1.0
 40
1.0
 40
1.0
 40
1.0
 10
105.4545110513
 20
84.6477953318
 30
0.0
 10
105.3654043254
 20
84.6355965539
 30
0.0
 10
105.0043380559
 20
84.5796543603
 30
0.0
 10
104.647231681
 20
84.4988449893
 30
0.0
 10
104.381686048
 20
84.4258525535
 30
0.0
  0
SPLINE
  5
641
100
AcDbEntity
  8
0
100
AcDbSpline
 62
7
  6
CONTINUOUS
 70
0
 71
3
 72
9
 73
5
 74
0
 42
0.0000001
 43
0.0000001
 44
0.0000000001
 40
0.0
 40
0.0
 40
0.0
 40
0.0
 40
0.5238975792
 40
1.0
 40
1.0
 40
1.0
 40
1.0
 10
89.8669554393
 20
56.6638261414
 30
0.0
 10
89.9347568135
 20
56.8918960897
 30
0.0
 10
90.1290100814
 20
57.3120408836
 30
0.0
 10
90.463073206
 20
57.6404358512
 30
0.0
 10
90.6477726841
 20
57.7528663791
 30
0.0
  0
SPLINE
  5
642
100
AcDbEntity
  8
0
100
AcDbSpline
 62
7
  6
CONTINUOUS
 70
0
 71
3
 72
11
 73
7
 74
0
 42
0.0000001
 43
0.0000001
 44
0.0000000001
 40
0.0
 40
0.0
 40
0.0
 40
0.0
 40
0.2271084234
 40
0.4718306461
 40
0.7316261264
 40
1.0
 40
1.0
 40
1.0
 40
1.0
 10
92.778100986
 20
59.0496428396
 30
0.0
 10
93.1850868517
 20
59.2973838521
 30
0.0
 10
93.9454508204
 20
59.9597240612
 30
0.0
 10
94.7842646723
 20
61.2646008543
 30
0.0
 10
95.3126337974
 20
62.8124675168
 30
0.0
 10
95.4319014189
 20
63.9244583693
 30
0.0
 10
95.4319014189
 20
64.4874895618
 30
0.0
  0
SPLINE
  5
643
100
AcDbEntity
  8
KONSTRUKTIONSELEMENTE
100
AcDbSpline
 62
7
  6
CONTINUOUS
 70
0
 71
3
 72
11
 73
7
 74
0
 42
0.0000001
 43
0.0000001
 44
0.0000000001
 40
0.0
 40
0.0
 40
0.0
 40
0.0
 40
0.2271084234
 40
0.4718306461
 40
0.7316261264
 40
1.0
 40
1.0
 40
1.0
 40
1.0
 10
92.778100986
 20
77.9253362841
 30
0.0
 10
93.1850868517
 20
77.6775952716
 30
0.0
 10
93.9454508204
 20
77.0152550625
 30
0.0
 10
94.7842646723
 20
75.7103782694
 30
0.0
 10
95.3126337974
 20
74.1625116069
 30
0.0
 10
95.4319014189
 20
73.0505207543
 30
0.0
 10
95.4319014189
 20
72.4874895618
 30
0.0
  0
SPLINE
  5
644
100
AcDbEntity
  8
AUSFORMSCHRAEGEN
100
AcDbSpline
 62
7
  6
CONTINUOUS
 70
0
 71
3
 72
9
 73
5
 74
0
 42
0.0000001
 43
0.0000001
 44
0.0000000001
 40
0.0
 40
0.0
 40
0.0
 40
0.0
 40
0.5238975792
 40
1.0
 40
1.0
 40
1.0
 40
1.0
 10
89.8669554393
 20
80.3111529823
 30
0.0
 10
89.9347568135
 20
80.083083034
 30
0.0
 10
90.1290100814
 20
79.6629382401
 30
0.0
 10
90.463073206
 20
79.3345432724
 30
0.0
 10
90.6477726841
 20
79.2221127446
 30
0.0
  0
SPLINE
  5
645
100
AcDbEntity
  8
KONSTRUKTIONSELEMENTE
100
AcDbSpline
 62
7
  6
CONTINUOUS
 70
0
 71
3
 72
12
 73
8
 74
0
 42
0.0000001
 43
0.0000001
 44
0.0000000001
 40
0.0
 40
0.0
 40
0.0
 40
0.0
 40
0.1085833304
 40
0.2201594841
 40
0.4579795042
 40
0.7207844644
 40
1.0
 40
1.0
 40
1.0
 40
1.0
 10
93.9130642539
 20
72.4874895618
 30
0.0
 10
93.9883422313
 20
72.4874895618
 30
0.0
 10
94.1416325999
 20
72.4673686713
 30
0.0
 10
94.4391138794
 20
72.3484599205
 30
0.0
 10
94.763437863
 20
72.0530082101
 30
0.0
 10
95.0063340357
 20
71.5595434984
 30
0.0
 10
95.0621309186
 20
71.1810623755
 30
0.0
 10
95.0621309186
 20
70.9874895618
 30
0.0
  0
SPLINE
  5
646
100
AcDbEntity
  8
AUSFORMSCHRAEGEN
100
AcDbSpline
 62
7
  6
CONTINUOUS
 70
0
 71
3
 72
21
 73
17
 74
0
 42
0.0000001
 43
0.0000001
 44
0.0000000001
 40
0.0
 40
0.0
 40
0.0
 40
0.0
 40
0.1404617815
 40
0.2082705572
 40
0.2734613273
 40
0.3357095722
 40
0.3950474009
 40
0.4519061149
 40
0.5071081342
 40
0.561777634
 40
0.6171399837
 40
0.6742841083
 40
0.7339897409
 40
0.7966402397
 40
0.8622169288
 40
1.0
 40
1.0
 40
1.0
 40
1.0
 10
114.2172786975
 20
84.4625575807
 30
0.0
 10
114.1696905296
 20
83.2172869518
 30
0.0
 10
113.8463470852
 20
81.3645816889
 30
0.0
 10
112.911318057
 20
79.1183113557
 30
0.0
 10
111.9988362959
 20
77.6361948563
 30
0.0
 10
110.8951072536
 20
76.3882392823
 30
0.0
 10
109.6327854526
 20
75.4153523913
 30
0.0
 10
108.2506664052
 20
74.7526478699
 30
0.0
 10
106.7941135198
 20
74.4263747388
 30
0.0
 10
105.3144947645
 20
74.4508412842
 30
0.0
 10
103.8655164489
 20
74.8247953113
 30
0.0
 10
102.4977620944
 20
75.5320811212
 30
0.0
 10
101.2555224932
 20
76.5448130615
 30
0.0
 10
100.1763225048
 20
77.8278890698
 30
0.0
 10
98.9799275553
 20
79.8715809325
 30
0.0
 10
98.4479110241
 20
81.6320641501
 30
0.0
 10
98.2553074023
 20
82.839209496
 30
0.0
  0
SPLINE
  5
647
100
AcDbEntity
  8
BEZUGSACHSEN
100
AcDbSpline
 62
7
  6
CONTINUOUS
 70
0
 71
3
 72
14
 73
10
 74
0
 42
0.0000001
 43
0.0000001
 44
0.0000000001
 40
0.0
 40
0.0
 40
0.0
 40
0.0
 40
0.238444498
 40
0.3757444344
 40
0.5168171902
 40
0.6543369044
 40
0.7819807074
 40
0.8965397012
 40
1.0
 40
1.0
 40
1.0
 40
1.0
 10
106.87791388
 20
76.5268263378
 30
0.0
 10
107.0599764908
 20
76.5268263378
 30
0.0
 10
107.3459260428
 20
76.6519057919
 30
0.0
 10
107.6276643188
 20
76.9284333123
 30
0.0
 10
107.8010617408
 20
77.198558914
 30
0.0
 10
107.9052416171
 20
77.4936850417
 30
0.0
 10
107.9306260866
 20
77.7862547414
 30
0.0
 10
107.8721941639
 20
78.0487947245
 30
0.0
 10
107.7725886058
 20
78.1897607654
 30
0.0
 10
107.7130610498
 20
78.241692433
 30
0.0
  0
SPLINE
  5
648
100
AcDbEntity
  8
BEZUGSACHSEN
100
AcDbSpline
 62
7
  6
CONTINUOUS
 70
0
 71
3
 72
9
 73
5
 74
0
 42
0.0000001
 43
0.0000001
 44
0.0000000001
 40
0.0
 40
0.0
 40
0.0
 40
0.0
 40
0.2439884701
 40
1.0
 40
1.0
 40
1.0
 40
1.0
 10
109.3316802632
 20
79.4907383284
 30
0.0
 10
109.3421806668
 20
79.4908901443
 30
0.0
 10
109.3851907488
 20
79.4929744904
 30
0.0
 10
109.4278652709
 20
79.5007670531
 30
0.0
 10
109.4592660149
 20
79.509299959
 30
0.0
  0
SPLINE
  5
649
100
AcDbEntity
  8
BEZUGSACHSEN
100
AcDbSpline
 62
7
  6
CONTINUOUS
 70
0
 71
3
 72
14
 73
10
 74
0
 42
0.0000001
 43
0.0000001
 44
0.0000000001
 40
0.0
 40
0.0
 40
0.0
 40
0.0
 40
0.2351013099
 40
0.3737730794
 40
0.517288941
 40
0.6572910404
 40
0.7862943606
 40
0.9000210733
 40
1.0
 40
1.0
 40
1.0
 40
1.0
 10
109.4592660149
 20
79.509299959
 30
0.0
 10
109.6281489744
 20
79.5551925785
 30
0.0
 10
109.86076925
 20
79.7488522031
 30
0.0
 10
110.0572970647
 20
80.0792209759
 30
0.0
 10
110.1591141969
 20
80.3798654532
 30
0.0
 10
110.1937803275
 20
80.6873276505
 30
0.0
 10
110.1582779794
 20
80.9732628869
 30
0.0
 10
110.0541107365
 20
81.2110635423
 30
0.0
 10
109.934550088
 20
81.3252057604
 30
0.0
 10
109.8695286585
 20
81.3614143766
 30
0.0
  0
SPLINE
  5
64A
100
AcDbEntity
  8
BEZUGSACHSEN
100
AcDbSpline
 62
7
  6
CONTINUOUS
 70
0
 71
3
 72
17
 73
13
 74
0
 42
0.0000001
 43
0.0000001
 44
0.0000000001
 40
0.0
 40
0.0
 40
0.0
 40
0.0
 40
0.105255736
 40
0.2349109639
 40
0.3823872241
 40
0.5359940139
 40
0.6825700061
 40
0.810637064
 40
0.8657110746
 40
0.9147193193
 40
0.9587396314
 40
1.0
 40
1.0
 40
1.0
 40
1.0
 10
110.1529933016
 20
76.5722958109
 30
0.0
 10
110.2312715129
 20
76.5848716863
 30
0.0
 10
110.3975894723
 20
76.6601235866
 30
0.0
 10
110.6147759641
 20
76.8524647199
 30
0.0
 10
110.808658042
 20
77.1153461732
 30
0.0
 10
110.9568985361
 20
77.420279619
 30
0.0
 10
111.0432985924
 20
77.7328589922
 30
0.0
 10
111.0568772119
 20
77.9842421531
 30
0.0
 10
111.0233941864
 20
78.1567728574
 30
0.0
 10
110.9803135442
 20
78.2607281038
 30
0.0
 10
110.9183906612
 20
78.3423598289
 30
0.0
 10
110.8645402613
 20
78.3798111388
 30
0.0
 10
110.8363953932
 20
78.3929924599
 30
0.0
  0
SPLINE
  5
64B
100
AcDbEntity
  8
BEZUGSACHSEN
100
AcDbSpline
 62
7
  6
CONTINUOUS
 70
0
 71
3
 72
17
 73
13
 74
0
 42
0.0000001
 43
0.0000001
 44
0.0000000001
 40
0.0
 40
0.0
 40
0.0
 40
0.0
 40
0.0849634454
 40
0.1386967202
 40
0.2001834099
 40
0.3428017351
 40
0.5011437512
 40
0.6592824745
 40
0.8013097753
 40
0.8624132453
 40
0.9157023137
 40
1.0
 40
1.0
 40
1.0
 40
1.0
 10
112.2055869799
 20
79.4875391028
 30
0.0
 10
112.2677746944
 20
79.488030378
 30
0.0
 10
112.3675237484
 20
79.5323586417
 30
0.0
 10
112.4775461154
 20
79.628295337
 30
0.0
 10
112.5998270728
 20
79.7733549155
 30
0.0
 10
112.7300498846
 20
80.0067777203
 30
0.0
 10
112.8416357574
 20
80.3252303268
 30
0.0
 10
112.9009149324
 20
80.656973793
 30
0.0
 10
112.9020371263
 20
80.9234370111
 30
0.0
 10
112.8664485367
 20
81.1087473658
 30
0.0
 10
112.8174925334
 20
81.2451204288
 30
0.0
 10
112.7518857584
 20
81.3314947986
 30
0.0
 10
112.6979546467
 20
81.3614717041
 30
0.0
  0
SPLINE
  5
64C
100
AcDbEntity
  8
BEZUGSACHSEN
100
AcDbSpline
 62
7
  6
CONTINUOUS
 70
0
 71
3
 72
15
 73
11
 74
0
 42
0.0000001
 43
0.0000001
 44
0.0000000001
 40
0.0
 40
0.0
 40
0.0
 40
0.0
 40
0.1158966389
 40
0.2395538158
 40
0.3700824384
 40
0.5042769619
 40
0.6376081869
 40
0.7658505762
 40
0.8865122822
 40
1.0
 40
1.0
 40
1.0
 40
1.0
 10
105.6546669362
 20
79.4907383284
 30
0.0
 10
105.7465848702
 20
79.4896578962
 30
0.0
 10
105.9381955887
 20
79.5251304915
 30
0.0
 10
106.1969563227
 20
79.6730684066
 30
0.0
 10
106.4116583083
 20
79.899604245
 30
0.0
 10
106.5621213115
 20
80.181310462
 30
0.0
 10
106.634030927
 20
80.490699946
 30
0.0
 10
106.6197655316
 20
80.7978100608
 30
0.0
 10
106.5191720739
 20
81.0722915821
 30
0.0
 10
106.395553822
 20
81.2176972397
 30
0.0
 10
106.3248156843
 20
81.2733620352
 30
0.0
  0
SPLINE
  5
64D
100
AcDbEntity
  8
BEZUGSACHSEN
100
AcDbSpline
 62
7
  6
CONTINUOUS
 70
0
 71
3
 72
15
 73
11
 74
0
 42
0.0000001
 43
0.0000001
 44
0.0000000001
 40
0.0
 40
0.0
 40
0.0
 40
0.0
 40
0.1223754682
 40
0.2513226558
 40
0.3843154142
 40
0.5176038166
 40
0.6472575562
 40
0.7706059647
 40
0.8873477439
 40
1.0
 40
1.0
 40
1.0
 40
1.0
 10
102.7989666476
 20
76.5722958109
 30
0.0
 10
102.8969625169
 20
76.5615786784
 30
0.0
 10
103.1032127487
 20
76.5754741474
 30
0.0
 10
103.3952738337
 20
76.6899803088
 30
0.0
 10
103.6514759047
 20
76.8856824386
 30
0.0
 10
103.8467179475
 20
77.1428202869
 30
0.0
 10
103.9616976262
 20
77.4365702069
 30
0.0
 10
103.9836995186
 20
77.738726738
 30
0.0
 10
103.9077743092
 20
78.018646422
 30
0.0
 10
103.7936930585
 20
78.1708683112
 30
0.0
 10
103.7261738226
 20
78.231500607
 30
0.0
  0
SPLINE
  5
64E
100
AcDbEntity
  8
BEZUGSACHSEN
100
AcDbSpline
 62
7
  6
CONTINUOUS
 70
0
 71
3
 72
11
 73
7
 74
0
 42
0.0000001
 43
0.0000001
 44
0.0000000001
 40
0.0
 40
0.0
 40
0.0
 40
0.0
 40
0.2467744327
 40
0.5004628082
 40
0.7538811967
 40
1.0
 40
1.0
 40
1.0
 40
1.0
 10
101.174546999
 20
79.4875391028
 30
0.0
 10
101.3267631437
 20
79.4869438835
 30
0.0
 10
101.6397940725
 20
79.5663778823
 30
0.0
 10
102.0027717681
 20
79.8810219125
 30
0.0
 10
102.1968066985
 20
80.3200169094
 30
0.0
 10
102.1805463621
 20
80.6420702445
 30
0.0
 10
102.1350432534
 20
80.7869033316
 30
0.0
  0
SPLINE
  5
64F
100
AcDbEntity
  8
KONSTRUKTIONSELEMENTE
100
AcDbSpline
 62
7
  6
CONTINUOUS
 70
0
 71
3
 72
9
 73
5
 74
0
 42
0.0000001
 43
0.0000001
 44
0.0000000001
 40
0.0
 40
0.0
 40
0.0
 40
0.0
 40
0.2466068512
 40
1.0
 40
1.0
 40
1.0
 40
1.0
 10
106.3400400356
 20
84.7144675796
 30
0.0
 10
106.2670194023
 20
84.7136304237
 30
0.0
 10
105.970986271
 20
84.7053761118
 30
0.0
 10
105.6755448036
 20
84.678055019
 30
0.0
 10
105.4545110513
 20
84.6477953318
 30
0.0
  0
SPLINE
  5
650
100
AcDbEntity
  8
0
100
AcDbSpline
 62
7
  6
CONTINUOUS
 70
0
 71
3
 72
11
 73
7
 74
0
 42
0.0000001
 43
0.0000001
 44
0.0000000001
 40
0.0
 40
0.0
 40
0.0
 40
0.0
 40
0.3244592883
 40
0.6025656671
 40
0.8291023759
 40
1.0
 40
1.0
 40
1.0
 40
1.0
 10
108.0837781157
 20
52.250106406
 30
0.0
 10
108.7481466912
 20
52.250106406
 30
0.0
 10
109.9819890072
 20
52.2590981997
 30
0.0
 10
111.6792697992
 20
52.3052306324
 30
0.0
 10
113.0604539628
 20
52.3819244241
 30
0.0
 10
113.8711121743
 20
52.4612176328
 30
0.0
 10
114.2172786975
 20
52.512421543
 30
0.0
  0
SPLINE
  5
651
100
AcDbEntity
  8
BEZUGSACHSEN
100
AcDbSpline
 62
7
  6
CONTINUOUS
 70
0
 71
3
 72
9
 73
5
 74
0
 42
0.0000001
 43
0.0000001
 44
0.0000000001
 40
0.0
 40
0.0
 40
0.0
 40
0.0
 40
0.4927761856
 40
1.0
 40
1.0
 40
1.0
 40
1.0
 10
102.342397164
 20
76.7890230669
 30
0.0
 10
102.4012170183
 20
76.7286714877
 30
0.0
 10
102.5442191749
 20
76.6274424599
 30
0.0
 10
102.712736084
 20
76.581726253
 30
0.0
 10
102.7989666476
 20
76.5722958109
 30
0.0
  0
SPLINE
  5
652
100
AcDbEntity
  8
AUSFORMSCHRAEGEN
100
AcDbSpline
 62
7
  6
CONTINUOUS
 70
0
 71
3
 72
11
 73
7
 74
0
 42
0.0000001
 43
0.0000001
 44
0.0000000001
 40
0.0
 40
0.0
 40
0.0
 40
0.0
 40
0.3244592883
 40
0.6025656671
 40
0.8291023759
 40
1.0
 40
1.0
 40
1.0
 40
1.0
 10
108.0837781157
 20
84.7248727177
 30
0.0
 10
108.7481466912
 20
84.7248727177
 30
0.0
 10
109.9819890072
 20
84.715880924
 30
0.0
 10
111.6792697992
 20
84.6697484913
 30
0.0
 10
113.0604539628
 20
84.5930546996
 30
0.0
 10
113.8711121743
 20
84.5137614909
 30
0.0
 10
114.2172786975
 20
84.4625575807
 30
0.0
  0
SPLINE
  5
653
100
AcDbEntity
  8
0
100
AcDbSpline
 62
7
  6
CONTINUOUS
 70
0
 71
3
 72
21
 73
17
 74
0
 42
0.0000001
 43
0.0000001
 44
0.0000000001
 40
0.0
 40
0.0
 40
0.0
 40
0.0
 40
0.1404617815
 40
0.2082705572
 40
0.2734613273
 40
0.3357095722
 40
0.3950474009
 40
0.4519061149
 40
0.5071081342
 40
0.561777634
 40
0.6171399837
 40
0.6742841083
 40
0.7339897409
 40
0.7966402397
 40
0.8622169288
 40
1.0
 40
1.0
 40
1.0
 40
1.0
 10
114.2172786975
 20
52.512421543
 30
0.0
 10
114.1696905296
 20
53.7576921718
 30
0.0
 10
113.8463470852
 20
55.6103974348
 30
0.0
 10
112.911318057
 20
57.856667768
 30
0.0
 10
111.9988362959
 20
59.3387842674
 30
0.0
 10
110.8951072536
 20
60.5867398413
 30
0.0
 10
109.6327854526
 20
61.5596267323
 30
0.0
 10
108.2506664052
 20
62.2223312538
 30
0.0
 10
106.7941135198
 20
62.5486043849
 30
0.0
 10
105.3144947645
 20
62.5241378395
 30
0.0
 10
103.8655164489
 20
62.1501838124
 30
0.0
 10
102.4977620944
 20
61.4428980025
 30
0.0
 10
101.2555224932
 20
60.4301660621
 30
0.0
 10
100.1763225048
 20
59.1470900539
 30
0.0
 10
98.9799275553
 20
57.1033981911
 30
0.0
 10
98.4479110241
 20
55.3429149736
 30
0.0
 10
98.2553074023
 20
54.1357696277
 30
0.0
  0
SPLINE
  5
654
100
AcDbEntity
  8
0
100
AcDbSpline
 62
7
  6
CONTINUOUS
 70
0
 71
3
 72
14
 73
10
 74
0
 42
0.0000001
 43
0.0000001
 44
0.0000000001
 40
0.0
 40
0.0
 40
0.0
 40
0.0
 40
0.238444498
 40
0.3757444344
 40
0.5168171902
 40
0.6543369044
 40
0.7819807074
 40
0.8965397012
 40
1.0
 40
1.0
 40
1.0
 40
1.0
 10
106.87791388
 20
60.4481527859
 30
0.0
 10
107.0599764908
 20
60.4481527859
 30
0.0
 10
107.3459260428
 20
60.3230733318
 30
0.0
 10
107.6276643188
 20
60.0465458114
 30
0.0
 10
107.8010617408
 20
59.7764202097
 30
0.0
 10
107.9052416171
 20
59.481294082
 30
0.0
 10
107.9306260866
 20
59.1887243823
 30
0.0
 10
107.8721941639
 20
58.9261843991
 30
0.0
 10
107.7725886058
 20
58.7852183582
 30
0.0
 10
107.7130610498
 20
58.7332866907
 30
0.0
  0
SPLINE
  5
655
100
AcDbEntity
  8
0
100
AcDbSpline
 62
7
  6
CONTINUOUS
 70
0
 71
3
 72
9
 73
5
 74
0
 42
0.0000001
 43
0.0000001
 44
0.0000000001
 40
0.0
 40
0.0
 40
0.0
 40
0.0
 40
0.2439884701
 40
1.0
 40
1.0
 40
1.0
 40
1.0
 10
109.3316802632
 20
57.4842407952
 30
0.0
 10
109.3421806668
 20
57.4840889794
 30
0.0
 10
109.3851907488
 20
57.4820046333
 30
0.0
 10
109.4278652709
 20
57.4742120705
 30
0.0
 10
109.4592660149
 20
57.4656791647
 30
0.0
  0
SPLINE
  5
656
100
AcDbEntity
  8
0
100
AcDbSpline
 62
7
  6
CONTINUOUS
 70
0
 71
3
 72
14
 73
10
 74
0
 42
0.0000001
 43
0.0000001
 44
0.0000000001
 40
0.0
 40
0.0
 40
0.0
 40
0.0
 40
0.2351013099
 40
0.3737730794
 40
0.517288941
 40
0.6572910404
 40
0.7862943606
 40
0.9000210733
 40
1.0
 40
1.0
 40
1.0
 40
1.0
 10
109.4592660149
 20
57.4656791647
 30
0.0
 10
109.6281489744
 20
57.4197865451
 30
0.0
 10
109.86076925
 20
57.2261269206
 30
0.0
 10
110.0572970647
 20
56.8957581478
 30
0.0
 10
110.1591141969
 20
56.5951136705
 30
0.0
 10
110.1937803275
 20
56.2876514731
 30
0.0
 10
110.1582779794
 20
56.0017162368
 30
0.0
 10
110.0541107365
 20
55.7639155813
 30
0.0
 10
109.934550088
 20
55.6497733633
 30
0.0
 10
109.8695286585
 20
55.6135647471
 30
0.0
  0
SPLINE
  5
657
100
AcDbEntity
  8
0
100
AcDbSpline
 62
7
  6
CONTINUOUS
 70
0
 71
3
 72
17
 73
13
 74
0
 42
0.0000001
 43
0.0000001
 44
0.0000000001
 40
0.0
 40
0.0
 40
0.0
 40
0.0
 40
0.105255736
 40
0.2349109639
 40
0.3823872241
 40
0.5359940139
 40
0.6825700061
 40
0.810637064
 40
0.8657110746
 40
0.9147193193
 40
0.9587396314
 40
1.0
 40
1.0
 40
1.0
 40
1.0
 10
110.1529933016
 20
60.4026833128
 30
0.0
 10
110.2312715129
 20
60.3901074373
 30
0.0
 10
110.3975894723
 20
60.3148555371
 30
0.0
 10
110.6147759641
 20
60.1225144037
 30
0.0
 10
110.808658042
 20
59.8596329504
 30
0.0
 10
110.9568985361
 20
59.5546995047
 30
0.0
 10
111.0432985924
 20
59.2421201315
 30
0.0
 10
111.0568772119
 20
58.9907369706
 30
0.0
 10
111.0233941864
 20
58.8182062662
 30
0.0
 10
110.9803135442
 20
58.7142510199
 30
0.0
 10
110.9183906612
 20
58.6326192948
 30
0.0
 10
110.8645402613
 20
58.5951679849
 30
0.0
 10
110.8363953932
 20
58.5819866638
 30
0.0
  0
SPLINE
  5
658
100
AcDbEntity
  8
0
100
AcDbSpline
 62
7
  6
CONTINUOUS
 70
0
 71
3
 72
17
 73
13
 74
0
 42
0.0000001
 43
0.0000001
 44
0.0000000001
 40
0.0
 40
0.0
 40
0.0
 40
0.0
 40
0.0849634454
 40
0.1386967202
 40
0.2001834099
 40
0.3428017351
 40
0.5011437512
 40
0.6592824745
 40
0.8013097753
 40
0.8624132453
 40
0.9157023137
 40
1.0
 40
1.0
 40
1.0
 40
1.0
 10
112.2055869799
 20
57.4874400208
 30
0.0
 10
112.2677746944
 20
57.4869487457
 30
0.0
 10
112.3675237484
 20
57.4426204819
 30
0.0
 10
112.4775461154
 20
57.3466837867
 30
0.0
 10
112.5998270728
 20
57.2016242082
 30
0.0
 10
112.7300498846
 20
56.9682014034
 30
0.0
 10
112.8416357574
 20
56.6497487969
 30
0.0
 10
112.9009149324
 20
56.3180053306
 30
0.0
 10
112.9020371263
 20
56.0515421125
 30
0.0
 10
112.8664485367
 20
55.8662317578
 30
0.0
 10
112.8174925334
 20
55.7298586949
 30
0.0
 10
112.7518857584
 20
55.643484325
 30
0.0
 10
112.6979546467
 20
55.6135074196
 30
0.0
  0
SPLINE
  5
659
100
AcDbEntity
  8
0
100
AcDbSpline
 62
7
  6
CONTINUOUS
 70
0
 71
3
 72
15
 73
11
 74
0
 42
0.0000001
 43
0.0000001
 44
0.0000000001
 40
0.0
 40
0.0
 40
0.0
 40
0.0
 40
0.1158966389
 40
0.2395538158
 40
0.3700824384
 40
0.5042769619
 40
0.6376081869
 40
0.7658505762
 40
0.8865122822
 40
1.0
 40
1.0
 40
1.0
 40
1.0
 10
105.6546669362
 20
57.4842407952
 30
0.0
 10
105.7465848702
 20
57.4853212275
 30
0.0
 10
105.9381955887
 20
57.4498486322
 30
0.0
 10
106.1969563227
 20
57.3019107171
 30
0.0
 10
106.4116583083
 20
57.0753748787
 30
0.0
 10
106.5621213115
 20
56.7936686617
 30
0.0
 10
106.634030927
 20
56.4842791776
 30
0.0
 10
106.6197655316
 20
56.1771690629
 30
0.0
 10
106.5191720739
 20
55.9026875416
 30
0.0
 10
106.395553822
 20
55.757281884
 30
0.0
 10
106.3248156843
 20
55.7016170885
 30
0.0
  0
SPLINE
  5
65A
100
AcDbEntity
  8
0
100
AcDbSpline
 62
7
  6
CONTINUOUS
 70
0
 71
3
 72
15
 73
11
 74
0
 42
0.0000001
 43
0.0000001
 44
0.0000000001
 40
0.0
 40
0.0
 40
0.0
 40
0.0
 40
0.1223754682
 40
0.2513226558
 40
0.3843154142
 40
0.5176038166
 40
0.6472575562
 40
0.7706059647
 40
0.8873477439
 40
1.0
 40
1.0
 40
1.0
 40
1.0
 10
102.7989666476
 20
60.4026833128
 30
0.0
 10
102.8969625169
 20
60.4134004453
 30
0.0
 10
103.1032127487
 20
60.3995049762
 30
0.0
 10
103.3952738337
 20
60.2849988148
 30
0.0
 10
103.6514759047
 20
60.0892966851
 30
0.0
 10
103.8467179475
 20
59.8321588368
 30
0.0
 10
103.9616976262
 20
59.5384089168
 30
0.0
 10
103.9836995186
 20
59.2362523857
 30
0.0
 10
103.9077743092
 20
58.9563327016
 30
0.0
 10
103.7936930585
 20
58.8041108125
 30
0.0
 10
103.7261738226
 20
58.7434785166
 30
0.0
  0
SPLINE
  5
65B
100
AcDbEntity
  8
0
100
AcDbSpline
 62
7
  6
CONTINUOUS
 70
0
 71
3
 72
11
 73
7
 74
0
 42
0.0000001
 43
0.0000001
 44
0.0000000001
 40
0.0
 40
0.0
 40
0.0
 40
0.0
 40
0.2467744327
 40
0.5004628082
 40
0.7538811967
 40
1.0
 40
1.0
 40
1.0
 40
1.0
 10
101.174546999
 20
57.4874400208
 30
0.0
 10
101.3267631437
 20
57.4880352402
 30
0.0
 10
101.6397940725
 20
57.4086012414
 30
0.0
 10
102.0027717681
 20
57.0939572112
 30
0.0
 10
102.1968066985
 20
56.6549622142
 30
0.0
 10
102.1805463621
 20
56.3329088791
 30
0.0
 10
102.1350432534
 20
56.188075792
 30
0.0
  0
SPLINE
  5
65C
100
AcDbEntity
  8
0
100
AcDbSpline
 62
7
  6
CONTINUOUS
 70
0
 71
3
 72
9
 73
5
 74
0
 42
0.0000001
 43
0.0000001
 44
0.0000000001
 40
0.0
 40
0.0
 40
0.0
 40
0.0
 40
0.4825222433
 40
1.0
 40
1.0
 40
1.0
 40
1.0
 10
109.9506336342
 20
60.3746796113
 30
0.0
 10
109.9801732738
 20
60.3900247788
 30
0.0
 10
110.0476736451
 20
60.4106419937
 30
0.0
 10
110.1177462076
 20
60.4083459749
 30
0.0
 10
110.1529933016
 20
60.4026833128
 30
0.0
  0
SPLINE
  5
65D
100
AcDbEntity
  8
0
100
AcDbSpline
 62
7
  6
CONTINUOUS
 70
0
 71
3
 72
9
 73
5
 74
0
 42
0.0000001
 43
0.0000001
 44
0.0000000001
 40
0.0
 40
0.0
 40
0.0
 40
0.0
 40
0.2466068512
 40
1.0
 40
1.0
 40
1.0
 40
1.0
 10
106.3400400356
 20
52.2605115441
 30
0.0
 10
106.2670194023
 20
52.2613487
 30
0.0
 10
105.970986271
 20
52.2696030119
 30
0.0
 10
105.6755448036
 20
52.2969241046
 30
0.0
 10
105.4545110513
 20
52.3271837919
 30
0.0
  0
SPLINE
  5
65E
100
AcDbEntity
  8
BEZUGSACHSEN
100
AcDbSpline
 62
7
  6
CONTINUOUS
 70
0
 71
3
 72
9
 73
5
 74
0
 42
0.0000001
 43
0.0000001
 44
0.0000000001
 40
0.0
 40
0.0
 40
0.0
 40
0.0
 40
0.4825222433
 40
1.0
 40
1.0
 40
1.0
 40
1.0
 10
109.9506336342
 20
76.6002995123
 30
0.0
 10
109.9801732738
 20
76.5849543448
 30
0.0
 10
110.0476736451
 20
76.5643371299
 30
0.0
 10
110.1177462076
 20
76.5666331488
 30
0.0
 10
110.1529933016
 20
76.5722958109
 30
0.0
  0
SPLINE
  5
65F
100
AcDbEntity
  8
BEZUGSACHSEN
100
AcDbSpline
 62
7
  6
CONTINUOUS
 70
0
 71
3
 72
9
 73
5
 74
0
 42
0.0000001
 43
0.0000001
 44
0.0000000001
 40
0.0
 40
0.0
 40
0.0
 40
0.0
 40
0.2449583762
 40
1.0
 40
1.0
 40
1.0
 40
1.0
 10
106.652906119
 20
76.5725494295
 30
0.0
 10
106.6701360118
 20
76.5649652391
 30
0.0
 10
106.7421650457
 20
76.5379029785
 30
0.0
 10
106.8198883914
 20
76.5268263378
 30
0.0
 10
106.87791388
 20
76.5268263378
 30
0.0
  0
SPLINE
  5
660
100
AcDbEntity
  8
0
100
AcDbSpline
 62
7
  6
CONTINUOUS
 70
0
 71
3
 72
9
 73
5
 74
0
 42
0.0000001
 43
0.0000001
 44
0.0000000001
 40
0.0
 40
0.0
 40
0.0
 40
0.0
 40
0.4927761856
 40
1.0
 40
1.0
 40
1.0
 40
1.0
 10
102.342397164
 20
60.1859560568
 30
0.0
 10
102.4012170183
 20
60.2463076359
 30
0.0
 10
102.5442191749
 20
60.3475366638
 30
0.0
 10
102.712736084
 20
60.3932528706
 30
0.0
 10
102.7989666476
 20
60.4026833128
 30
0.0
  0
SPLINE
  5
661
100
AcDbEntity
  8
0
100
AcDbSpline
 62
7
  6
CONTINUOUS
 70
0
 71
3
 72
9
 73
5
 74
0
 42
0.0000001
 43
0.0000001
 44
0.0000000001
 40
0.0
 40
0.0
 40
0.0
 40
0.0
 40
0.2449583762
 40
1.0
 40
1.0
 40
1.0
 40
1.0
 10
106.652906119
 20
60.4024296942
 30
0.0
 10
106.6701360118
 20
60.4100138845
 30
0.0
 10
106.7421650457
 20
60.4370761452
 30
0.0
 10
106.8198883914
 20
60.4481527859
 30
0.0
 10
106.87791388
 20
60.4481527859
 30
0.0
  0
SPLINE
  5
662
100
AcDbEntity
  8
0
100
AcDbSpline
 62
7
  6
CONTINUOUS
 70
0
 71
3
 72
9
 73
5
 74
0
 42
0.0000001
 43
0.0000001
 44
0.0000000001
 40
0.0
 40
0.0
 40
0.0
 40
0.0
 40
0.4730975918
 40
1.0
 40
1.0
 40
1.0
 40
1.0
 10
53.966247913
 20
60.0442193518
 30
0.0
 10
54.8210842689
 20
60.0143121555
 30
0.0
 10
56.6198707807
 20
59.7004363964
 30
0.0
 10
58.321248743
 20
59.069220722
 30
0.0
 10
59.1914526092
 20
58.6815803626
 30
0.0
  0
SPLINE
  5
663
100
AcDbEntity
  8
KONSTRUKTIONSELEMENTE
100
AcDbSpline
 62
7
  6
CONTINUOUS
 70
0
 71
3
 72
9
 73
5
 74
0
 42
0.0000001
 43
0.0000001
 44
0.0000000001
 40
0.0
 40
0.0
 40
0.0
 40
0.0
 40
0.4730975918
 40
1.0
 40
1.0
 40
1.0
 40
1.0
 10
53.966247913
 20
76.9307597719
 30
0.0
 10
54.8210842689
 20
76.9606669681
 30
0.0
 10
56.6198707807
 20
77.2745427272
 30
0.0
 10
58.321248743
 20
77.9057584017
 30
0.0
 10
59.1914526092
 20
78.2933987611
 30
0.0
  0
LINE
  5
664
100
AcDbEntity
  8
KONSTRUKTIONSELEMENTE
100
AcDbLine
 62
7
  6
CONTINUOUS
 10
94.3234967797
 20
71.2374895618
 11
94.1461825297
 21
72.452227342
  0
SPLINE
  5
665
100
AcDbEntity
  8
KONSTRUKTIONSELEMENTE
100
AcDbSpline
 62
7
  6
CONTINUOUS
 70
0
 71
3
 72
8
 73
4
 74
0
 42
0.0000001
 43
0.0000001
 44
0.0000000001
 40
0.0
 40
0.0
 40
0.0
 40
0.0
 40
1.0
 40
1.0
 40
1.0
 40
1.0
 10
94.1362485607
 20
72.5201218739
 30
0.0
 10
93.9911673284
 20
73.5115678223
 30
0.0
 10
93.8453099106
 20
74.5029004921
 30
0.0
 10
93.698685696
 20
75.4941194246
 30
0.0
  0
LINE
  5
666
100
AcDbEntity
  8
0
100
AcDbLine
 62
7
  6
CONTINUOUS
 10
94.3234967797
 20
65.7374895618
 11
94.1461825297
 21
64.5227517817
  0
SPLINE
  5
667
100
AcDbEntity
  8
0
100
AcDbSpline
 62
7
  6
CONTINUOUS
 70
0
 71
3
 72
8
 73
4
 74
0
 42
0.0000001
 43
0.0000001
 44
0.0000000001
 40
0.0
 40
0.0
 40
0.0
 40
0.0
 40
1.0
 40
1.0
 40
1.0
 40
1.0
 10
94.1362485607
 20
64.4548572498
 30
0.0
 10
93.9911673284
 20
63.4634113014
 30
0.0
 10
93.8453099106
 20
62.4720786316
 30
0.0
 10
93.698685696
 20
61.4808596991
 30
0.0
  0
SPLINE
  5
668
100
AcDbEntity
  8
KONSTRUKTIONSELEMENTE
100
AcDbSpline
 62
7
  6
CONTINUOUS
 70
0
 71
3
 72
9
 73
5
 74
0
 42
0.0000001
 43
0.0000001
 44
0.0000000001
 40
0.0
 40
0.0
 40
0.0
 40
0.0
 40
0.7474890183
 40
1.0
 40
1.0
 40
1.0
 40
1.0
 10
47.2029222921
 20
77.6074895618
 30
0.0
 10
47.2535481806
 20
77.6074895618
 30
0.0
 10
47.3213662971
 20
77.6033825408
 30
0.0
 10
47.3884638514
 20
77.5941297967
 30
0.0
 10
47.4053587461
 20
77.5914760132
 30
0.0
  0
SPLINE
  5
669
100
AcDbEntity
  8
KONSTRUKTIONSELEMENTE
100
AcDbSpline
 62
7
  6
CONTINUOUS
 70
0
 71
3
 72
9
 73
5
 74
0
 42
0.0000001
 43
0.0000001
 44
0.0000000001
 40
0.0
 40
0.0
 40
0.0
 40
0.0
 40
0.5328164006
 40
1.0
 40
1.0
 40
1.0
 40
1.0
 10
92.5346422094
 20
75.3008619152
 30
0.0
 10
92.7441264006
 20
75.3142170871
 30
0.0
 10
93.1365280709
 20
75.3557611345
 30
0.0
 10
93.5225619641
 20
75.4406797009
 30
0.0
 10
93.698685696
 20
75.4941194246
 30
0.0
  0
SPLINE
  5
66A
100
AcDbEntity
  8
KONSTRUKTIONSELEMENTE
100
AcDbSpline
 62
7
  6
CONTINUOUS
 70
0
 71
3
 72
9
 73
5
 74
0
 42
0.0000001
 43
0.0000001
 44
0.0000000001
 40
0.0
 40
0.0
 40
0.0
 40
0.0
 40
0.2454081269
 40
1.0
 40
1.0
 40
1.0
 40
1.0
 10
52.9622344487
 20
76.9547232981
 30
0.0
 10
53.0441102738
 20
76.9476199986
 30
0.0
 10
53.3782039039
 20
76.9241336656
 30
0.0
 10
53.7137013035
 20
76.9219242083
 30
0.0
 10
53.966247913
 20
76.9307597719
 30
0.0
  0
SPLINE
  5
66B
100
AcDbEntity
  8
0
100
AcDbSpline
 62
7
  6
CONTINUOUS
 70
0
 71
3
 72
9
 73
5
 74
0
 42
0.0000001
 43
0.0000001
 44
0.0000000001
 40
0.0
 40
0.0
 40
0.0
 40
0.0
 40
0.7474890183
 40
1.0
 40
1.0
 40
1.0
 40
1.0
 10
47.2029222921
 20
59.3674895618
 30
0.0
 10
47.2535481806
 20
59.3674895618
 30
0.0
 10
47.3213662971
 20
59.3715965829
 30
0.0
 10
47.3884638514
 20
59.380849327
 30
0.0
 10
47.4053587461
 20
59.3835031105
 30
0.0
  0
SPLINE
  5
66C
100
AcDbEntity
  8
KONSTRUKTIONSELEMENTE
100
AcDbSpline
 62
7
  6
CONTINUOUS
 70
0
 71
3
 72
9
 73
5
 74
0
 42
0.0000001
 43
0.0000001
 44
0.0000000001
 40
0.0
 40
0.0
 40
0.0
 40
0.0
 40
0.2445026355
 40
1.0
 40
1.0
 40
1.0
 40
1.0
 10
88.3279791708
 20
79.2154221664
 30
0.0
 10
88.3861585638
 20
79.2191256668
 30
0.0
 10
88.6246406708
 20
79.2250120977
 30
0.0
 10
88.8638027698
 20
79.1924052323
 30
0.0
 10
89.0385163651
 20
79.1485466777
 30
0.0
  0
SPLINE
  5
66D
100
AcDbEntity
  8
KONSTRUKTIONSELEMENTE
100
AcDbSpline
 62
7
  6
CONTINUOUS
 70
0
 71
3
 72
11
 73
7
 74
0
 42
0.0000001
 43
0.0000001
 44
0.0000000001
 40
0.0
 40
0.0
 40
0.0
 40
0.0
 40
0.2058844289
 40
0.4265965943
 40
0.6854697857
 40
1.0
 40
1.0
 40
1.0
 40
1.0
 10
87.9337635847
 20
78.9604244786
 30
0.0
 10
87.9412913263
 20
78.9941224938
 30
0.0
 10
87.9703695707
 20
79.061837866
 30
0.0
 10
88.0555816558
 20
79.1429901042
 30
0.0
 10
88.1793478848
 20
79.1974286615
 30
0.0
 10
88.2753363076
 20
79.2120711025
 30
0.0
 10
88.3279791708
 20
79.2154221664
 30
0.0
  0
SPLINE
  5
66E
100
AcDbEntity
  8
0
100
AcDbSpline
 62
7
  6
CONTINUOUS
 70
0
 71
3
 72
11
 73
7
 74
0
 42
0.0000001
 43
0.0000001
 44
0.0000000001
 40
0.0
 40
0.0
 40
0.0
 40
0.0
 40
0.2058844289
 40
0.4265965943
 40
0.6854697857
 40
1.0
 40
1.0
 40
1.0
 40
1.0
 10
87.9337635847
 20
58.0145546451
 30
0.0
 10
87.9412913263
 20
57.9808566299
 30
0.0
 10
87.9703695707
 20
57.9131412577
 30
0.0
 10
88.0555816558
 20
57.8319890195
 30
0.0
 10
88.1793478848
 20
57.7775504622
 30
0.0
 10
88.2753363076
 20
57.7629080212
 30
0.0
 10
88.3279791708
 20
57.7595569573
 30
0.0
  0
SPLINE
  5
66F
100
AcDbEntity
  8
0
100
AcDbSpline
 62
7
  6
CONTINUOUS
 70
0
 71
3
 72
9
 73
5
 74
0
 42
0.0000001
 43
0.0000001
 44
0.0000000001
 40
0.0
 40
0.0
 40
0.0
 40
0.0
 40
0.2445026355
 40
1.0
 40
1.0
 40
1.0
 40
1.0
 10
88.3279791708
 20
57.7595569573
 30
0.0
 10
88.3861585638
 20
57.7558534569
 30
0.0
 10
88.6246406708
 20
57.7499670259
 30
0.0
 10
88.8638027698
 20
57.7825738914
 30
0.0
 10
89.0385163651
 20
57.826432446
 30
0.0
  0
SPLINE
  5
670
100
AcDbEntity
  8
0
100
AcDbSpline
 62
7
  6
CONTINUOUS
 70
0
 71
3
 72
9
 73
5
 74
0
 42
0.0000001
 43
0.0000001
 44
0.0000000001
 40
0.0
 40
0.0
 40
0.0
 40
0.0
 40
0.2454081269
 40
1.0
 40
1.0
 40
1.0
 40
1.0
 10
52.9622344487
 20
60.0202558256
 30
0.0
 10
53.0441102738
 20
60.027359125
 30
0.0
 10
53.3782039039
 20
60.0508454581
 30
0.0
 10
53.7137013035
 20
60.0530549154
 30
0.0
 10
53.966247913
 20
60.0442193518
 30
0.0
  0
SPLINE
  5
671
100
AcDbEntity
  8
0
100
AcDbSpline
 62
7
  6
CONTINUOUS
 70
0
 71
3
 72
9
 73
5
 74
0
 42
0.0000001
 43
0.0000001
 44
0.0000000001
 40
0.0
 40
0.0
 40
0.0
 40
0.0
 40
0.5328164006
 40
1.0
 40
1.0
 40
1.0
 40
1.0
 10
92.5346422094
 20
61.6741172085
 30
0.0
 10
92.7441264006
 20
61.6607620366
 30
0.0
 10
93.1365280709
 20
61.6192179892
 30
0.0
 10
93.5225619641
 20
61.5342994228
 30
0.0
 10
93.698685696
 20
61.4808596991
 30
0.0
  0
ELLIPSE
  5
672
100
AcDbEntity
  8
0
100
AcDbEllipse
 62
7
  6
CONTINUOUS
 10
93.3936226963
 20
252.6797858628
 30
0.0
 11
-14.3470046585
 21
17.8031382883
 31
0.0
 40
0.0852130878
 41
1.4291937052
 42
1.5609162981
  0
ELLIPSE
  5
673
100
AcDbEntity
  8
0
100
AcDbEllipse
 62
7
  6
CONTINUOUS
 10
128.7404951139
 20
197.3807443147
 30
0.0
 11
118.8285187328
 21
0.0
 31
0.0
 40
0.9822416805
 41
1.4224071563
 42
1.4579071581
  0
ELLIPSE
  5
674
100
AcDbEntity
  8
BEZUGSACHSEN
100
AcDbEllipse
 62
7
  6
CONTINUOUS
 10
135.8660073726
 20
282.9807443147
 30
0.0
 11
12.4743798147
 21
0.0
 31
0.0
 40
0.9856543725
 41
0.8044527481
 42
0.8837630538
  0
ELLIPSE
  5
675
100
AcDbEntity
  8
0
100
AcDbEllipse
 62
7
  6
CONTINUOUS
 10
68.4635534464
 20
248.012945972
 30
0.0
 11
15.8238892182
 21
11.6358722027
 31
0.0
 40
0.0801278201
 41
-1.915969264
 42
-1.5356844293
  0
ELLIPSE
  5
676
100
AcDbEntity
  8
0
100
AcDbEllipse
 62
7
  6
CONTINUOUS
 10
70.8754490214
 20
248.8828788718
 30
0.0
 11
8.439407583
 21
6.2057985081
 31
0.0
 40
0.0801278201
 41
-1.5356844293
 42
-1.0949887932
  0
ELLIPSE
  5
677
100
AcDbEntity
  8
0
100
AcDbEllipse
 62
7
  6
CONTINUOUS
 10
131.0486270173
 20
151.7167074425
 30
0.0
 11
17.9997228852
 21
1.143939173
 31
0.0
 40
0.0873125237
 41
-0.3120422685
 42
-0.0753620995
  0
ELLIPSE
  5
678
100
AcDbEntity
  8
0
100
AcDbEllipse
 62
7
  6
CONTINUOUS
 10
136.6886270173
 20
299.8422099475
 30
0.0
 11
-5.990189471
 21
6.3515557118
 31
0.0
 40
0.0539981802
 41
1.4766539112
 42
2.762453591
  0
ELLIPSE
  5
679
100
AcDbEntity
  8
0
100
AcDbEllipse
 62
7
  6
CONTINUOUS
 10
171.0913199016
 20
153.1311987282
 30
0.0
 11
23.9996305135
 21
1.5252522307
 31
0.0
 40
0.0873125237
 41
2.8295503851
 42
2.9166319766
  0
ELLIPSE
  5
67A
100
AcDbEntity
  8
0
100
AcDbEllipse
 62
7
  6
CONTINUOUS
 10
129.5126270173
 20
151.3217845334
 30
0.0
 11
18.599713648
 21
1.1820704788
 31
0.0
 40
0.0873125237
 41
-1.5763452562
 42
-0.224960677
  0
ELLIPSE
  5
67B
100
AcDbEntity
  8
BEZUGSACHSEN
100
AcDbEllipse
 62
7
  6
CONTINUOUS
 10
149.1625079947
 20
277.9807443147
 30
0.0
 11
-0.0
 21
17.0
 31
0.0
 40
0.0699268119
 41
-3.2746684076
 42
0.1330757541
  0
ELLIPSE
  5
67C
100
AcDbEntity
  8
BEZUGSACHSEN
100
AcDbEllipse
 62
7
  6
CONTINUOUS
 10
149.1625079947
 20
187.9807443147
 30
0.0
 11
0.0
 21
17.0
 31
0.0
 40
0.0699268119
 41
-3.2746684076
 42
0.1330757541
  0
ELLIPSE
  5
67D
100
AcDbEntity
  8
0
100
AcDbEllipse
 62
7
  6
CONTINUOUS
 10
149.3722884306
 20
167.3043687448
 30
0.0
 11
0.0043298196
 21
14.0279501119
 31
0.0
 40
0.0697868031
 41
-3.049903369
 42
-1.5663735048
  0
ELLIPSE
  5
67E
100
AcDbEntity
  8
0
100
AcDbEllipse
 62
7
  6
CONTINUOUS
 10
89.8807670893
 20
248.3648952313
 30
0.0
 11
0.9780571717
 21
1.6940447141
 31
0.0
 40
0.9987706333
 41
1.1241586576
 42
2.1814324594
  0
ELLIPSE
  5
67F
100
AcDbEntity
  8
0
100
AcDbEllipse
 62
7
  6
CONTINUOUS
 10
82.1478073476
 20
207.1698486304
 30
0.0
 11
19.8608670501
 21
34.400030813
 31
0.0
 40
0.9993882581
 41
1.1286085066
 42
1.1403779394
  0
ELLIPSE
  5
680
100
AcDbEntity
  8
0
100
AcDbEllipse
 62
7
  6
CONTINUOUS
 10
82.8424011284
 20
208.6233334528
 30
0.0
 11
0.0000000001
 21
39.0977192311
 31
0.0
 40
0.9999794891
 41
0.8698913802
 42
1.1346578307
  0
ELLIPSE
  5
681
100
AcDbEntity
  8
AUSFORMSCHRAEGEN
100
AcDbEllipse
 62
7
  6
CONTINUOUS
 10
278.8771299929
 20
282.9807443147
 30
0.0
 11
0.6723139926
 21
9.9999291648
 31
0.0
 40
0.0559843693
 41
0.8764285424
 42
2.6348916625
  0
ELLIPSE
  5
682
100
AcDbEntity
  8
KONSTRUKTIONSELEMENTE
100
AcDbEllipse
 62
7
  6
CONTINUOUS
 10
288.5770205928
 20
258.653919791
 30
0.0
 11
10.039295433
 21
-0.1028127266
 31
0.0
 40
0.4943506781
 41
-3.1200107602
 42
-2.8939850548
  0
ELLIPSE
  5
683
100
AcDbEntity
  8
0
100
AcDbEllipse
 62
7
  6
CONTINUOUS
 10
311.8771299929
 20
282.9807443147
 30
0.0
 11
-0.6723139926
 21
9.9999291648
 31
0.0
 40
0.0559843693
 41
-2.6348916625
 42
-0.8764285424
  0
ELLIPSE
  5
684
100
AcDbEntity
  8
0
100
AcDbEllipse
 62
7
  6
CONTINUOUS
 10
302.177239393
 20
258.653919791
 30
0.0
 11
10.039295433
 21
0.1028127266
 31
0.0
 40
0.4943506781
 41
-0.2476075988
 42
-0.0215818934
  0
ELLIPSE
  5
685
100
AcDbEntity
  8
AUSFORMSCHRAEGEN
100
AcDbEllipse
 62
7
  6
CONTINUOUS
 10
278.8158879284
 20
282.8944645313
 30
0.0
 11
1.1429337874
 21
16.9998795801
 31
0.0
 40
0.0559843693
 41
-0.4820391956
 42
-0.2276024454
  0
ELLIPSE
  5
686
100
AcDbEntity
  8
AUSFORMSCHRAEGEN
100
AcDbEllipse
 62
7
  6
CONTINUOUS
 10
278.8771299929
 20
282.9807443147
 30
0.0
 11
0.268925597
 21
3.9999716659
 31
0.0
 40
0.0559843693
 41
0.0
 42
6.2831853072
  0
ELLIPSE
  5
687
100
AcDbEntity
  8
AUSFORMSCHRAEGEN
100
AcDbEllipse
 62
7
  6
CONTINUOUS
 10
282.0267218798
 20
297.7025920732
 30
0.0
 11
2.0169419778
 21
29.9997874943
 31
0.0
 40
0.0559843693
 41
-4.6349850683
 42
-3.835960438
  0
ELLIPSE
  5
688
100
AcDbEntity
  8
0
100
AcDbEllipse
 62
7
  6
CONTINUOUS
 10
308.727538106
 20
297.7025920732
 30
0.0
 11
-2.0169419778
 21
29.9997874943
 31
0.0
 40
0.0559843693
 41
-2.4472248692
 42
-1.6482002389
  0
ELLIPSE
  5
689
100
AcDbEntity
  8
0
100
AcDbEllipse
 62
7
  6
CONTINUOUS
 10
311.9383720574
 20
282.8944645313
 30
0.0
 11
-1.1429337874
 21
16.9998795801
 31
0.0
 40
0.0559843693
 41
0.2276024454
 42
0.4820391956
  0
ELLIPSE
  5
68A
100
AcDbEntity
  8
0
100
AcDbEllipse
 62
7
  6
CONTINUOUS
 10
311.8771299929
 20
282.9807443147
 30
0.0
 11
-0.268925597
 21
3.9999716659
 31
0.0
 40
0.0559843693
 41
0.0
 42
6.2831853072
  0
ELLIPSE
  5
68B
100
AcDbEntity
  8
KONSTRUKTIONSELEMENTE
100
AcDbEllipse
 62
7
  6
CONTINUOUS
 10
303.0129612887
 20
297.7025920732
 30
0.0
 11
-4.8858730345
 21
29.9866973066
 31
0.0
 40
0.1828332123
 41
-3.9431321991
 42
-3.9267281277
  0
ELLIPSE
  5
68C
100
AcDbEntity
  8
0
100
AcDbEllipse
 62
7
  6
CONTINUOUS
 10
310.8445538107
 20
296.5214203415
 30
0.0
 11
-0.2016941978
 21
2.9999787494
 31
0.0
 40
0.0559843693
 41
5.4067567648
 42
6.5107877526
  0
ELLIPSE
  5
68D
100
AcDbEntity
  8
KONSTRUKTIONSELEMENTE
100
AcDbEllipse
 62
7
  6
CONTINUOUS
 10
303.9133120128
 20
297.7025920732
 30
0.0
 11
-15.471689658
 21
29.3236362344
 31
0.0
 40
0.4094174065
 41
-4.1384142089
 42
-4.1260983474
  0
ELLIPSE
  5
68E
100
AcDbEntity
  8
KONSTRUKTIONSELEMENTE
100
AcDbEllipse
 62
7
  6
CONTINUOUS
 10
306.014526012
 20
297.7025920732
 30
0.0
 11
42.8980189913
 21
-24.0224885601
 31
0.0
 40
0.418899907
 41
-1.4345427612
 42
-1.4263250446
  0
ELLIPSE
  5
68F
100
AcDbEntity
  8
KONSTRUKTIONSELEMENTE
100
AcDbEllipse
 62
7
  6
CONTINUOUS
 10
312.9192040502
 20
297.7025920732
 30
0.0
 11
117.4381547609
 21
-20.0184375073
 31
0.0
 40
0.1902633358
 41
-1.6366470914
 42
-1.6325358753
  0
ELLIPSE
  5
690
100
AcDbEntity
  8
AUSFORMSCHRAEGEN
100
AcDbEllipse
 62
7
  6
CONTINUOUS
 10
279.9097061752
 20
296.5214203415
 30
0.0
 11
0.2016941978
 21
2.9999787494
 31
0.0
 40
0.0559843693
 41
-0.2276024454
 42
0.8764285424
  0
ELLIPSE
  5
691
100
AcDbEntity
  8
0
100
AcDbEllipse
 62
7
  6
CONTINUOUS
 10
307.9243687497
 20
252.6797858628
 30
0.0
 11
-1.9143789672
 21
17.8449575659
 31
0.0
 40
0.0324418899
 41
1.4942763877
 42
1.6259989807
  0
ELLIPSE
  5
692
100
AcDbEntity
  8
AUSFORMSCHRAEGEN
100
AcDbEllipse
 62
7
  6
CONTINUOUS
 10
282.8298912361
 20
252.6797858628
 30
0.0
 11
1.9143789672
 21
17.8449575659
 31
0.0
 40
0.0324418899
 41
-1.6259989807
 42
-1.4942763877
  0
ELLIPSE
  5
693
100
AcDbEntity
  8
0
100
AcDbEllipse
 62
7
  6
CONTINUOUS
 10
310.7410372173
 20
295.2746679802
 30
0.0
 11
-0.2016941978
 21
2.9999787494
 31
0.0
 40
0.0559843693
 41
0.4820391956
 42
1.4933924147
  0
ELLIPSE
  5
694
100
AcDbEntity
  8
AUSFORMSCHRAEGEN
100
AcDbEllipse
 62
7
  6
CONTINUOUS
 10
280.0132227685
 20
295.2746679802
 30
0.0
 11
0.2016941978
 21
2.9999787494
 31
0.0
 40
0.0559843693
 41
-1.4933924147
 42
-0.4820391956
  0
ELLIPSE
  5
695
100
AcDbEntity
  8
KONSTRUKTIONSELEMENTE
100
AcDbEllipse
 62
7
  6
CONTINUOUS
 10
292.1739348519
 20
297.7025920732
 30
0.0
 11
-6.6842098013
 21
29.9574893095
 31
0.0
 40
0.2388475145
 41
-3.9830171399
 42
-3.9706971415
  0
ELLIPSE
  5
696
100
AcDbEntity
  8
KONSTRUKTIONSELEMENTE
100
AcDbEllipse
 62
7
  6
CONTINUOUS
 10
290.6339850945
 20
297.7025920732
 30
0.0
 11
-7.7730793192
 21
29.9270457333
 31
0.0
 40
0.2689946752
 41
-3.9257483603
 42
-3.9094781377
  0
ELLIPSE
  5
697
100
AcDbEntity
  8
KONSTRUKTIONSELEMENTE
100
AcDbEllipse
 62
7
  6
CONTINUOUS
 10
293.9350483488
 20
297.7025920732
 30
0.0
 11
26.4650360741
 21
-27.3460856173
 31
0.0
 40
0.4661469566
 41
-1.220195189
 42
-1.2119743523
  0
ELLIPSE
  5
698
100
AcDbEntity
  8
KONSTRUKTIONSELEMENTE
100
AcDbEllipse
 62
7
  6
CONTINUOUS
 10
289.7365052645
 20
297.7025920732
 30
0.0
 11
58.2437255841
 21
22.1279553265
 31
0.0
 40
0.3478003168
 41
-1.675443978
 42
-1.6695274472
  0
ELLIPSE
  5
699
100
AcDbEntity
  8
KONSTRUKTIONSELEMENTE
100
AcDbEllipse
 62
7
  6
CONTINUOUS
 10
290.9349424233
 20
297.7025920732
 30
0.0
 11
18.0876461137
 21
28.9525575648
 31
0.0
 40
0.4344445519
 41
-2.1457891831
 42
-2.1294065503
  0
ELLIPSE
  5
69A
100
AcDbEntity
  8
KONSTRUKTIONSELEMENTE
100
AcDbEllipse
 62
7
  6
CONTINUOUS
 10
291.5347693085
 20
297.7025920732
 30
0.0
 11
6.6842098013
 21
29.9574893095
 31
0.0
 40
0.2388475145
 41
-2.341192178
 42
-2.3288967962
  0
ELLIPSE
  5
69B
100
AcDbEntity
  8
KONSTRUKTIONSELEMENTE
100
AcDbEllipse
 62
7
  6
CONTINUOUS
 10
299.6992145003
 20
297.7025920732
 30
0.0
 11
87.9769525712
 21
-20.5828306583
 31
0.0
 40
0.2480806209
 41
-1.6152056092
 42
-1.611092726
  0
ELLIPSE
  5
69C
100
AcDbEntity
  8
KONSTRUKTIONSELEMENTE
100
AcDbEllipse
 62
7
  6
CONTINUOUS
 10
283.4338013202
 20
245.7322161482
 30
0.0
 11
4.6802951774
 21
10.9124626082
 31
0.0
 40
0.2005649868
 41
0.1067972934
 42
0.6850764869
  0
ELLIPSE
  5
69D
100
AcDbEntity
  8
0
100
AcDbEllipse
 62
7
  6
CONTINUOUS
 10
333.3771299929
 20
167.3043687448
 30
0.0
 11
7.6120955167
 21
11.8066367848
 31
0.0
 40
0.9951795497
 41
-2.4794616514
 42
-0.9959317872
  0
ELLIPSE
  5
69E
100
AcDbEntity
  8
KONSTRUKTIONSELEMENTE
100
AcDbEllipse
 62
7
  6
CONTINUOUS
 10
278.1771299929
 20
299.8422099475
 30
0.0
 11
-3.3549376403
 21
5.6254765042
 31
0.0
 40
0.8842581901
 41
-2.1065552737
 42
-2.0128284232
  0
ELLIPSE
  5
69F
100
AcDbEntity
  8
0
100
AcDbEllipse
 62
7
  6
CONTINUOUS
 10
325.9771299929
 20
151.3217845334
 30
0.0
 11
18.5997178627
 21
1.6369584041
 31
0.0
 40
0.0625838721
 41
1.7847001329
 42
3.136084712
  0
ELLIPSE
  5
6A0
100
AcDbEntity
  8
RUNDUNGEN
100
AcDbEllipse
 62
7
  6
CONTINUOUS
 10
257.3771299929
 20
167.3043687448
 30
0.0
 11
7.6120955167
 21
-11.8066367848
 31
0.0
 40
0.9951795497
 41
-2.1456608664
 42
-0.6621310022
  0
ELLIPSE
  5
6A1
100
AcDbEntity
  8
KONSTRUKTIONSELEMENTE
100
AcDbEllipse
 62
7
  6
CONTINUOUS
 10
264.7771299929
 20
151.3217845334
 30
0.0
 11
18.5997178627
 21
-1.6369584041
 31
0.0
 40
0.0625838721
 41
0.0055079416
 42
1.3568925207
  0
ELLIPSE
  5
6A2
100
AcDbEntity
  8
KONSTRUKTIONSELEMENTE
100
AcDbEllipse
 62
7
  6
CONTINUOUS
 10
261.3771299929
 20
151.7167074425
 30
0.0
 11
17.9997269639
 21
-1.5841532943
 31
0.0
 40
0.0625838721
 41
1.2698109293
 42
1.5064910983
  0
ELLIPSE
  5
6A3
100
AcDbEntity
  8
KONSTRUKTIONSELEMENTE
100
AcDbEllipse
 62
7
  6
CONTINUOUS
 10
274.0492547783
 20
153.1311987282
 30
0.0
 11
23.9996359519
 21
-2.1122043924
 31
0.0
 40
0.0625838721
 41
-1.8717817243
 42
-1.7847001329
  0
ELLIPSE
  5
6A4
100
AcDbEntity
  8
KONSTRUKTIONSELEMENTE
100
AcDbEllipse
 62
7
  6
CONTINUOUS
 10
291.7771299929
 20
248.8828788718
 30
0.0
 11
9.5865283303
 21
0.7870251943
 31
0.0
 40
0.6459817939
 41
2.6479134868
 42
3.0886091229
  0
ELLIPSE
  5
6A5
100
AcDbEntity
  8
0
100
AcDbEllipse
 62
7
  6
CONTINUOUS
 10
307.3204586657
 20
245.7322161482
 30
0.0
 11
-4.6802951774
 21
10.9124626082
 31
0.0
 40
0.2005649868
 41
-0.6850764869
 42
-0.1067972934
  0
ELLIPSE
  5
6A6
100
AcDbEntity
  8
0
100
AcDbEllipse
 62
7
  6
CONTINUOUS
 10
312.5771299929
 20
299.8422099475
 30
0.0
 11
3.3549376403
 21
5.6254765042
 31
0.0
 40
0.8842581901
 41
-4.2703568839
 42
-4.1766300335
  0
ELLIPSE
  5
6A7
100
AcDbEntity
  8
0
100
AcDbEllipse
 62
7
  6
CONTINUOUS
 10
298.9771299929
 20
248.8828788718
 30
0.0
 11
9.5865283303
 21
-0.7870251943
 31
0.0
 40
0.6459817939
 41
0.0529835307
 42
0.4936791668
  0
ELLIPSE
  5
6A8
100
AcDbEntity
  8
0
100
AcDbEllipse
 62
7
  6
CONTINUOUS
 10
329.3771299929
 20
151.7167074425
 30
0.0
 11
17.9997269639
 21
1.5841532943
 31
0.0
 40
0.0625838721
 41
1.6351015553
 42
1.8717817243
  0
ELLIPSE
  5
6A9
100
AcDbEntity
  8
0
100
AcDbEllipse
 62
7
  6
CONTINUOUS
 10
316.7050052075
 20
153.1311987282
 30
0.0
 11
23.9996359519
 21
2.1122043924
 31
0.0
 40
0.0625838721
 41
-1.3568925207
 42
-1.2698109293
  0
ELLIPSE
  5
6AA
100
AcDbEntity
  8
KONSTRUKTIONSELEMENTE
100
AcDbEllipse
 62
7
  6
CONTINUOUS
 10
492.4970533557
 20
277.9807443147
 30
0.0
 11
384.7723584717
 21
-0.0
 31
0.0
 40
0.0382139711
 41
-2.176724315
 42
-2.1611826404
  0
ELLIPSE
  5
6AB
100
AcDbEntity
  8
KONSTRUKTIONSELEMENTE
100
AcDbEllipse
 62
7
  6
CONTINUOUS
 10
309.4191633638
 20
197.3807443147
 30
0.0
 11
254.8285807764
 21
0.0
 31
0.0
 40
0.4580268178
 41
1.6836854955
 42
1.7191854973
  0
ELLIPSE
  5
6AC
100
AcDbEntity
  8
BEZUGSACHSEN
100
AcDbEllipse
 62
7
  6
CONTINUOUS
 10
294.1384530129
 20
282.9807443147
 30
0.0
 11
26.7513938418
 21
0.0
 31
0.0
 40
0.4596181822
 41
2.2578295998
 42
2.5251979183
  0
ELLIPSE
  5
6AD
100
AcDbEntity
  8
KONSTRUKTIONSELEMENTE
100
AcDbEllipse
 62
7
  6
CONTINUOUS
 10
292.1965362027
 20
207.1698486304
 30
0.0
 11
-14.2306833565
 21
39.6350586464
 31
0.0
 40
0.1777143704
 41
-0.6807647831
 42
-0.6689953503
  0
ELLIPSE
  5
6AE
100
AcDbEntity
  8
KONSTRUKTIONSELEMENTE
100
AcDbEllipse
 62
7
  6
CONTINUOUS
 10
300.1771299929
 20
241.661021245
 30
0.0
 11
18.0
 21
0.0
 31
0.0
 40
0.7954374101
 41
-3.1415926536
 42
-2.9822004236
  0
ELLIPSE
  5
6AF
100
AcDbEntity
  8
0
100
AcDbEllipse
 62
7
  6
CONTINUOUS
 10
290.5771299929
 20
248.012945972
 30
0.0
 11
17.9747406192
 21
-1.4756722392
 31
0.0
 40
0.6459817939
 41
-0.327301304
 42
0.0529835307
  0
ELLIPSE
  5
6B0
100
AcDbEntity
  8
KONSTRUKTIONSELEMENTE
100
AcDbEllipse
 62
7
  6
CONTINUOUS
 10
300.1771299929
 20
248.012945972
 30
0.0
 11
17.9747406192
 21
1.4756722392
 31
0.0
 40
0.6459817939
 41
3.0886091229
 42
3.4688939576
  0
ELLIPSE
  5
6B1
100
AcDbEntity
  8
0
100
AcDbEllipse
 62
7
  6
CONTINUOUS
 10
298.5577237831
 20
207.1698486304
 30
0.0
 11
14.2306833565
 21
39.6350586464
 31
0.0
 40
0.1777143704
 41
0.6689953503
 42
0.6807647831
  0
ELLIPSE
  5
6B2
100
AcDbEntity
  8
0
100
AcDbEllipse
 62
7
  6
CONTINUOUS
 10
281.335096622
 20
197.3807443147
 30
0.0
 11
254.8285807764
 21
0.0
 31
0.0
 40
0.4580268178
 41
1.4224071563
 42
1.4579071581
  0
ELLIPSE
  5
6B3
100
AcDbEntity
  8
BEZUGSACHSEN
100
AcDbEllipse
 62
7
  6
CONTINUOUS
 10
296.615806973
 20
282.9807443147
 30
0.0
 11
26.7513938418
 21
0.0
 31
0.0
 40
0.4596181822
 41
0.6163947353
 42
0.8837630538
  0
ELLIPSE
  5
6B4
100
AcDbEntity
  8
0
100
AcDbEllipse
 62
7
  6
CONTINUOUS
 10
98.2572066302
 20
277.9807443147
 30
0.0
 11
384.7723584717
 21
0.0
 31
0.0
 40
0.0382139711
 41
-0.9804100132
 42
-0.9648683385
  0
ELLIPSE
  5
6B5
100
AcDbEntity
  8
AUSFORMSCHRAEGEN
100
AcDbEllipse
 62
7
  6
CONTINUOUS
 10
133.7606270173
 20
84.9874895618
 30
0.0
 11
9.9999287872
 21
0.5648915772
 31
0.0
 40
0.0668079701
 41
0.291914019
 42
1.0565574844
  0
ELLIPSE
  5
6B6
100
AcDbEntity
  8
0
100
AcDbEllipse
 62
7
  6
CONTINUOUS
 10
110.784836952
 20
61.6873801618
 30
0.0
 11
-0.6262830811
 21
10.0242118582
 31
0.0
 40
0.8821259247
 41
-3.3178827825
 42
-3.2131688482
  0
ELLIPSE
  5
6B7
100
AcDbEntity
  8
KONSTRUKTIONSELEMENTE
100
AcDbEllipse
 62
7
  6
CONTINUOUS
 10
110.784836952
 20
75.2875989619
 30
0.0
 11
0.6262830811
 21
10.0242118582
 31
0.0
 40
0.8821259247
 41
0.0715761946
 42
0.1762901289
  0
ELLIPSE
  5
6B8
100
AcDbEntity
  8
KONSTRUKTIONSELEMENTE
100
AcDbEllipse
 62
7
  6
CONTINUOUS
 10
90.0828420383
 20
78.5190852901
 30
0.0
 11
0.0
 21
1.5060345411
 31
0.0
 40
0.7629749739
 41
0.2260143686
 42
1.5707963268
  0
ELLIPSE
  5
6B9
100
AcDbEntity
  8
0
100
AcDbEllipse
 62
7
  6
CONTINUOUS
 10
133.7606270173
 20
51.9874895618
 30
0.0
 11
9.9999287872
 21
-0.5648915772
 31
0.0
 40
0.0668079701
 41
-1.0565574844
 42
-0.291914019
  0
ELLIPSE
  5
6BA
100
AcDbEntity
  8
0
100
AcDbEllipse
 62
7
  6
CONTINUOUS
 10
90.0828420383
 20
58.4558938336
 30
0.0
 11
0.0
 21
1.5060345411
 31
0.0
 40
0.7629749739
 41
1.5707963268
 42
2.915578285
  0
ELLIPSE
  5
6BB
100
AcDbEntity
  8
KONSTRUKTIONSELEMENTE
100
AcDbEllipse
 62
7
  6
CONTINUOUS
 10
95.2993842062
 20
44.4570570018
 30
0.0
 11
23.369611358
 21
146.8446164325
 31
0.0
 40
0.1281027591
 41
-1.4315581162
 42
-1.4274358169
  0
ELLIPSE
  5
6BC
100
AcDbEntity
  8
KONSTRUKTIONSELEMENTE
100
AcDbEllipse
 62
7
  6
CONTINUOUS
 10
95.2993842062
 20
54.906453221
 30
0.0
 11
25.1318965042
 21
58.3243008294
 31
0.0
 40
0.2808871206
 41
-1.3397326473
 42
-1.3314940608
  0
ELLIPSE
  5
6BD
100
AcDbEntity
  8
KONSTRUKTIONSELEMENTE
100
AcDbEllipse
 62
7
  6
CONTINUOUS
 10
95.2993842062
 20
58.1491588914
 30
0.0
 11
28.2802904061
 21
27.5136480976
 31
0.0
 40
0.3638649575
 41
-1.1187390371
 42
-1.1022838833
  0
ELLIPSE
  5
6BE
100
AcDbEntity
  8
KONSTRUKTIONSELEMENTE
100
AcDbEllipse
 62
7
  6
CONTINUOUS
 10
95.2993842062
 20
59.5300913384
 30
0.0
 11
29.8139515497
 21
12.2313308738
 31
0.0
 40
0.2727348033
 41
-0.9063613123
 42
-0.8899316934
  0
ELLIPSE
  5
6BF
100
AcDbEntity
  8
0
100
AcDbEllipse
 62
7
  6
CONTINUOUS
 10
133.7606270173
 20
51.9874895618
 30
0.0
 11
9.9999287872
 21
-0.5648915772
 31
0.0
 40
0.0668079701
 41
0.3629159557
 42
0.7019056357
  0
ELLIPSE
  5
6C0
100
AcDbEntity
  8
KONSTRUKTIONSELEMENTE
100
AcDbEllipse
 62
7
  6
CONTINUOUS
 10
95.2993842062
 20
60.2144081385
 30
0.0
 11
29.9947266321
 21
4.5705040512
 31
0.0
 40
0.1230655447
 41
-0.8341920677
 42
-0.8136840373
  0
ELLIPSE
  5
6C1
100
AcDbEntity
  8
0
100
AcDbEllipse
 62
7
  6
CONTINUOUS
 10
95.2993842062
 20
55.1370814488
 30
0.0
 11
29.9997863615
 21
-1.6946747315
 31
0.0
 40
0.0668079701
 41
-0.8688906911
 42
-0.26150507
  0
ELLIPSE
  5
6C2
100
AcDbEntity
  8
KONSTRUKTIONSELEMENTE
100
AcDbEllipse
 62
7
  6
CONTINUOUS
 10
95.2993842062
 20
76.7697816215
 30
0.0
 11
-24.0193629718
 21
87.9883075997
 31
0.0
 40
0.2042788891
 41
-1.6714334189
 42
-1.6673374525
  0
ELLIPSE
  5
6C3
100
AcDbEntity
  8
KONSTRUKTIONSELEMENTE
100
AcDbEllipse
 62
7
  6
CONTINUOUS
 10
95.2993842062
 20
74.1310320651
 30
0.0
 11
-28.2802844022
 21
27.5136936274
 31
0.0
 40
0.3638649718
 41
-1.98181693
 42
-1.9736226648
  0
ELLIPSE
  5
6C4
100
AcDbEntity
  8
KONSTRUKTIONSELEMENTE
100
AcDbEllipse
 62
7
  6
CONTINUOUS
 10
95.2993842062
 20
73.0911696525
 30
0.0
 11
29.9604997335
 21
-7.8138449319
 31
0.0
 40
0.1969553792
 41
0.8616383887
 42
0.8708621739
  0
ELLIPSE
  5
6C5
100
AcDbEntity
  8
KONSTRUKTIONSELEMENTE
100
AcDbEllipse
 62
7
  6
CONTINUOUS
 10
95.2993842062
 20
55.275817311
 30
0.0
 11
23.3696117932
 21
146.8445323382
 31
0.0
 40
0.1281028287
 41
-1.4315580931
 42
-1.4274357938
  0
ELLIPSE
  5
6C6
100
AcDbEntity
  8
KONSTRUKTIONSELEMENTE
100
AcDbEllipse
 62
7
  6
CONTINUOUS
 10
95.2993842062
 20
68.0472816484
 30
0.0
 11
26.9259066593
 21
38.0303246957
 31
0.0
 40
0.3478431617
 41
-1.2228256855
 42
-1.2104706664
  0
ELLIPSE
  5
6C7
100
AcDbEntity
  8
KONSTRUKTIONSELEMENTE
100
AcDbEllipse
 62
7
  6
CONTINUOUS
 10
95.2993842062
 20
69.8687392397
 30
0.0
 11
29.2368164618
 21
19.6214977019
 31
0.0
 40
0.3426716679
 41
-1.0086583523
 42
-0.9922100106
  0
ELLIPSE
  5
6C8
100
AcDbEntity
  8
KONSTRUKTIONSELEMENTE
100
AcDbEllipse
 62
7
  6
CONTINUOUS
 10
95.2993842062
 20
70.9694347029
 30
0.0
 11
29.9604997335
 21
7.8138449319
 31
0.0
 40
0.1969553792
 41
-0.846255706
 42
-0.8339357076
  0
ELLIPSE
  5
6C9
100
AcDbEntity
  8
KONSTRUKTIONSELEMENTE
100
AcDbEllipse
 62
7
  6
CONTINUOUS
 10
95.2993842062
 20
72.4103608219
 30
0.0
 11
29.9264688728
 21
9.3007574576
 31
0.0
 40
0.2256974419
 41
-0.9426937556
 42
-0.9265663053
  0
ELLIPSE
  5
6CA
100
AcDbEntity
  8
AUSFORMSCHRAEGEN
100
AcDbEllipse
 62
7
  6
CONTINUOUS
 10
95.2993842062
 20
81.8378976749
 30
0.0
 11
29.9997863615
 21
1.6946747315
 31
0.0
 40
0.0668079701
 41
0.26150507
 42
0.8688906911
  0
ELLIPSE
  5
6CB
100
AcDbEntity
  8
0
100
AcDbEllipse
 62
7
  6
CONTINUOUS
 10
131.5365017827
 20
53.0200657441
 30
0.0
 11
2.9999786361
 21
-0.1694674731
 31
0.0
 40
0.0668079701
 41
0.7019056357
 42
1.7470151702
  0
ELLIPSE
  5
6CC
100
AcDbEntity
  8
AUSFORMSCHRAEGEN
100
AcDbEllipse
 62
7
  6
CONTINUOUS
 10
131.5365017827
 20
83.9549133796
 30
0.0
 11
2.9999786361
 21
0.1694674731
 31
0.0
 40
0.0668079701
 41
-1.7470151702
 42
-0.7019056357
  0
ELLIPSE
  5
6CD
100
AcDbEntity
  8
AUSFORMSCHRAEGEN
100
AcDbEllipse
 62
7
  6
CONTINUOUS
 10
133.7606270173
 20
84.9874895618
 30
0.0
 11
3.9999715149
 21
0.2259566309
 31
0.0
 40
0.0668079701
 41
0.0
 42
6.2831853072
  0
ELLIPSE
  5
6CE
100
AcDbEntity
  8
0
100
AcDbEllipse
 62
7
  6
CONTINUOUS
 10
133.7606270173
 20
51.9874895618
 30
0.0
 11
3.9999715149
 21
-0.2259566309
 31
0.0
 40
0.0668079701
 41
0.0
 42
6.2831853072
  0
ELLIPSE
  5
6CF
100
AcDbEntity
  8
AUSFORMSCHRAEGEN
100
AcDbEllipse
 62
7
  6
CONTINUOUS
 10
133.7606270173
 20
84.9874895618
 30
0.0
 11
9.9999287872
 21
0.5648915772
 31
0.0
 40
0.0668079701
 41
-0.7019056357
 42
-0.3629159557
  0
ELLIPSE
  5
6D0
100
AcDbEntity
  8
KONSTRUKTIONSELEMENTE
100
AcDbEllipse
 62
7
  6
CONTINUOUS
 10
82.1478073476
 20
71.6680833521
 30
0.0
 11
39.5926930206
 21
8.9472566071
 31
0.0
 40
0.3313151057
 41
2.1008090555
 42
2.1125784883
  0
ELLIPSE
  5
6D1
100
AcDbEntity
  8
KONSTRUKTIONSELEMENTE
100
AcDbEllipse
 62
7
  6
CONTINUOUS
 10
68.4635534464
 20
63.6874895618
 30
0.0
 11
5.6913664765
 21
17.3320281386
 31
0.0
 40
0.853585082
 41
0.2732814167
 42
0.6535662514
  0
ELLIPSE
  5
6D2
100
AcDbEntity
  8
0
100
AcDbEllipse
 62
7
  6
CONTINUOUS
 10
68.4635534464
 20
73.2874895618
 30
0.0
 11
5.6913664765
 21
-17.3320281386
 31
0.0
 40
0.853585082
 41
-0.6535662514
 42
-0.2732814167
  0
ELLIPSE
  5
6D3
100
AcDbEntity
  8
0
100
AcDbEllipse
 62
7
  6
CONTINUOUS
 10
82.1478073476
 20
65.3068957716
 30
0.0
 11
39.5926930206
 21
-8.9472566071
 31
0.0
 40
0.3313151057
 41
-2.1125784883
 42
-2.1008090555
  0
ELLIPSE
  5
6D4
100
AcDbEntity
  8
0
100
AcDbEllipse
 62
7
  6
CONTINUOUS
 10
85.9621113765
 20
56.5441608891
 30
0.0
 11
10.885606567
 21
3.0475726166
 31
0.0
 40
0.3832815446
 41
0.8308076166
 42
2.0624291451
  0
ELLIPSE
  5
6D5
100
AcDbEntity
  8
KONSTRUKTIONSELEMENTE
100
AcDbEllipse
 62
7
  6
CONTINUOUS
 10
82.8424011284
 20
78.8006059423
 30
0.0
 11
39.0969172998
 21
-0.0
 31
0.0
 40
0.0732087097
 41
-2.7054541575
 42
-2.440687707
  0
ELLIPSE
  5
6D6
100
AcDbEntity
  8
KONSTRUKTIONSELEMENTE
100
AcDbEllipse
 62
7
  6
CONTINUOUS
 10
85.9621113765
 20
80.4308182346
 30
0.0
 11
10.885606567
 21
-3.0475726166
 31
0.0
 40
0.3832815446
 41
-2.0624291451
 42
-0.8308076166
  0
ELLIPSE
  5
6D7
100
AcDbEntity
  8
KONSTRUKTIONSELEMENTE
100
AcDbEllipse
 62
7
  6
CONTINUOUS
 10
89.8807670893
 20
78.4314369944
 30
0.0
 11
1.9431396433
 21
-0.5443473631
 31
0.0
 40
0.3833255948
 41
-3.1211230292
 42
-2.0638492274
  0
ELLIPSE
  5
6D8
100
AcDbEntity
  8
KONSTRUKTIONSELEMENTE
100
AcDbEllipse
 62
7
  6
CONTINUOUS
 10
82.1274768469
 20
72.0874895618
 30
0.0
 11
0.0
 21
9.6
 31
0.0
 40
0.6084619688
 41
0.0
 42
0.1224262435
  0
ELLIPSE
  5
6D9
100
AcDbEntity
  8
KONSTRUKTIONSELEMENTE
100
AcDbEllipse
 62
7
  6
CONTINUOUS
 10
80.6846274939
 20
72.0874895618
 30
0.0
 11
0.0
 21
9.6
 31
0.0
 40
0.6222619915
 41
-0.1224262435
 42
0.0
  0
ELLIPSE
  5
6DA
100
AcDbEntity
  8
0
100
AcDbEllipse
 62
7
  6
CONTINUOUS
 10
70.8754490214
 20
64.8874895618
 30
0.0
 11
3.0353954541
 21
-9.2437483406
 31
0.0
 40
0.853585082
 41
-0.2732814167
 42
0.1674142194
  0
ELLIPSE
  5
6DB
100
AcDbEntity
  8
KONSTRUKTIONSELEMENTE
100
AcDbEllipse
 62
7
  6
CONTINUOUS
 10
70.8754490214
 20
72.0874895618
 30
0.0
 11
3.0353954541
 21
9.2437483406
 31
0.0
 40
0.853585082
 41
-0.1674142194
 42
0.2732814167
  0
ELLIPSE
  5
6DC
100
AcDbEntity
  8
0
100
AcDbEllipse
 62
7
  6
CONTINUOUS
 10
82.8424011284
 20
58.1743731814
 30
0.0
 11
39.0969172998
 21
-0.0
 31
0.0
 40
0.0732087097
 41
2.440687707
 42
2.7054541575
  0
ELLIPSE
  5
6DD
100
AcDbEntity
  8
0
100
AcDbEllipse
 62
7
  6
CONTINUOUS
 10
89.8807670893
 20
58.5435421293
 30
0.0
 11
1.9431396433
 21
0.5443473631
 31
0.0
 40
0.3833255948
 41
8.3470345346
 42
9.4043083364
  0
ENDSEC
  0
SECTION
  2
OBJECTS
  0
DICTIONARY
  5
C
100
AcDbDictionary
280
0
281
1
  3
ACAD_GROUP
350
D
  3
ACAD_MLINESTYLE
350
17
  3
ACAD_LAYOUT
350
1A
  3
ACAD_PLOTSETTINGS
350
19
  3
ACAD_PLOTSTYLENAME
350
E
  0
DICTIONARY
  5
D
102
{ACAD_REACTORS
330
C
102
}
100
AcDbDictionary
280
0
281
1
  0
ACDBDICTIONARYWDFLT
  5
E
102
{ACAD_REACTORS
330
C
102
}
100
AcDbDictionary
281
1
  3
Normal
350
F
100
AcDbDictionaryWithDefault
340
F
  0
DICTIONARY
  5
17
102
{ACAD_REACTORS
330
C
102
}
100
AcDbDictionary
280
0
281
1
  3
Standard
350
18
  0
DICTIONARY
  5
19
102
{ACAD_REACTORS
330
C
102
}
100
AcDbDictionary
281
1
  0
DICTIONARY
  5
1A
102
{ACAD_REACTORS
330
C
102
}
100
AcDbDictionary
281
1
  3
Model
350
6DE
  3
Layout1
350
6DF
  0
ACDBPLACEHOLDER
  5
F
102
{ACAD_REACTORS
330
E
102
}
  0
MLINESTYLE
  5
18
102
{ACAD_REACTORS
330
17
102
}
100
AcDbMlineStyle
  2
STANDARD
 70
0
  3

 62
256
 51
90.0
 52
90.0
 71
2
 49
0.5
 62
256
  6
BYLAYER
 49
-0.5
 62
256
  6
BYLAYER
  0
LAYOUT
  5
6DE
102
{ACAD_REACTORS
330
1A
102
}
100
AcDbPlotSettings
  1

  2
none_device
  4
ISO_A3_(420.00_x_297.00_MM)
  6

 40
0.0
 41
0.0
 42
0.0
 43
0.0
 44
420.0
 45
297.0
 46
0.0
 47
0.0
 48
0.0
 49
0.0
140
0.0
141
0.0
142
1.0
143
1.0
 70
1024
 72
1
 73
0
 74
0
  7

 75
0
147
1.0
148
0.0
149
0.0
100
AcDbLayout
  1
Model
 70
0
 71
0
 10
0.0
 20
0.0
 11
420.0
 21
297.0
 12
0.0
 22
0.0
 32
0.0
 14
0.0
 24
0.0
 34
0.0
 15
0.0
 25
0.0
 35
0.0
146
0.0
 13
0.0
 23
0.0
 33
0.0
 16
1.0
 26
0.0
 36
0.0
 17
0.0
 27
1.0
 37
0.0
 76
0
330
20C
345
0
346
0
  0
LAYOUT
  5
6DF
102
{ACAD_REACTORS
330
1A
102
}
100
AcDbPlotSettings
  1

  2
none_device
  4
ISO_A3_(420.00_x_297.00_MM)
  6

 40
0.0
 41
0.0
 42
0.0
 43
0.0
 44
420.0
 45
297.0
 46
0.0
 47
0.0
 48
0.0
 49
0.0
140
0.0
141
0.0
142
1.0
143
1.0
 70
0
 72
1
 73
0
 74
0
  7

 75
0
147
1.0
148
0.0
149
0.0
100
AcDbLayout
  1
Layout1
 70
0
 71
1
 10
0.0
 20
0.0
 11
420.0
 21
297.0
 12
0.0
 22
0.0
 32
0.0
 14
0.0
 24
0.0
 34
0.0
 15
0.0
 25
0.0
 35
0.0
146
0.0
 13
0.0
 23
0.0
 33
0.0
 16
1.0
 26
0.0
 36
0.0
 17
0.0
 27
1.0
 37
0.0
 76
0
330
20D
345
0
346
0
  0
ENDSEC
  0
EOF
