999
DXF file: vrbg-fix-31_5.dxf
999
Pro/ENGINEER 2011490 by Parametric Technology Corporation
  0
SECTION
  2
HEADER
  9
$ACADVER
  1
AC1021
  9
$DWGCODEPAGE
  3
ANSI_1252
  9
$EXTMAX
 10
420.0
 20
297.0
 30
0.0
  9
$EXTMIN
 10
0.0
 20
0.0
 30
0.0
  9
$LIMMIN
 10
0.0
 20
0.0
  9
$LIMMAX
 10
420.0
 20
297.0
  9
$VIEWCTR
 10
210.0
 20
148.5
  9
$VIEWSIZE
 40
297.0
  9
$CLAYER
  8
0
  9
$LTSCALE
 40
23.1
  9
$CELTYPE
  6
BYLAYER
  9
$DIMSCALE
 40
1.0
  9
$DIMASZ
 40
3.5
  9
$DIMEXO
 40
2.625
  9
$DIMDLI
 40
15.96
  9
$DIMEXE
 40
7.56
  9
$DIMCEN
 40
3.78
  9
$DIMLFAC
 40
1.0
  9
$DIMBLK
  1
_FILLED
  9
$DIMTXT
 40
3.5
  9
$DIMTOL
 70
1
  9
$DIMLIM
 70
0
  9
$DIMTFAC
 40
1.0
  9
$DIMTP
 40
0.005
  9
$DIMTM
 40
0.005
  9
$PDMODE
 70
3
  9
$PDSIZE
 40
0.3125
  9
$HANDSEED
  5
562
  9
$TILEMODE
 70
1
  9
$MEASUREMENT
 70
1
  9
$INSUNITS
 70
4
  0
ENDSEC
  0
SECTION
  2
CLASSES
  0
CLASS
  1
ACDBDICTIONARYWDFLT
  2
AcDbDictionaryWithDefault
  3
AutoCAD 2000
 90
0
 91
1
280
0
281
0
  0
CLASS
  1
ACDBPLACEHOLDER
  2
AcDbPlaceHolder
  3
AutoCAD 2000
 90
0
 91
1
280
0
281
0
  0
CLASS
  1
LAYOUT
  2
AcDbLayout
  3
AutoCAD 2000
 90
0
 91
0
280
0
281
0
  0
ENDSEC
  0
SECTION
  2
TABLES
  0
TABLE
  2
VPORT
  5
8
100
AcDbSymbolTable
 70
2
  0
VPORT
  5
1F4
100
AcDbSymbolTableRecord
100
AcDbViewportTableRecord
  2
*ACTIVE
 70
0
 10
0.0
 20
0.0
 11
1.0
 21
1.0
 12
210.0
 22
148.5
 13
0.0
 23
0.0
 14
1.0
 24
1.0
 15
0.0
 25
0.0
 16
0.0
 26
0.0
 36
1.0
 17
0.0
 27
0.0
 37
0.0
 40
297.0
 41
1.4141414141
 42
50.0
 43
0.0
 44
0.0
 50
0.0
 51
0.0
 71
0
 72
100
 73
1
 74
1
 75
0
 76
0
 77
0
 78
0
  0
ENDTAB
  0
TABLE
  2
LTYPE
  5
5
100
AcDbSymbolTable
 70
6
  0
LTYPE
  5
14
100
AcDbSymbolTableRecord
100
AcDbLinetypeTableRecord
  2
BYBLOCK
 70
0
  3

 72
65
 73
0
 40
0.0
  0
LTYPE
  5
15
100
AcDbSymbolTableRecord
100
AcDbLinetypeTableRecord
  2
BYLAYER
 70
0
  3

 72
65
 73
0
 40
0.0
  0
LTYPE
  5
16
100
AcDbSymbolTableRecord
100
AcDbLinetypeTableRecord
  2
CONTINUOUS
 70
64
  3
Solid line
 72
65
 73
0
 40
0.0
  0
LTYPE
  5
1F5
100
AcDbSymbolTableRecord
100
AcDbLinetypeTableRecord
  2
CENTER
 70
64
  3
____ _ ____ _ ____ _ ____ _ ____ _ ____ _ ____
 72
65
 73
4
 40
0.6
 49
0.375
 74
0
 49
-0.075
 74
0
 49
0.075
 74
0
 49
-0.075
 74
0
  0
LTYPE
  5
1F6
100
AcDbSymbolTableRecord
100
AcDbLinetypeTableRecord
  2
HIDDEN
 70
64
  3
- - - - - - - - - - - - - - - - - - - -
 72
65
 73
2
 40
0.2
 49
0.1
 74
0
 49
-0.1
 74
0
  0
LTYPE
  5
1F7
100
AcDbSymbolTableRecord
100
AcDbLinetypeTableRecord
  2
PHANTOM
 70
64
  3
_____ _ _ _____ _ _ _____ _ _ _____
 72
65
 73
6
 40
0.8
 49
0.45
 74
0
 49
-0.05
 74
0
 49
0.1
 74
0
 49
-0.05
 74
0
 49
0.1
 74
0
 49
-0.05
 74
0
  0
LTYPE
  5
1F8
100
AcDbSymbolTableRecord
100
AcDbLinetypeTableRecord
  2
DOT
 70
64
  3
. . . . . . . . . . . . . . . . . . . .
 72
65
 73
2
 40
0.2
 49
0.1
 74
0
 49
-0.1
 74
0
  0
LTYPE
  5
1F9
100
AcDbSymbolTableRecord
100
AcDbLinetypeTableRecord
  2
DASHED
 70
64
  3
- - - - - - - - - - - - - - - - - - - -
 72
65
 73
2
 40
0.2
 49
0.1
 74
0
 49
-0.1
 74
0
  0
ENDTAB
  0
TABLE
  2
LAYER
  5
2
100
AcDbSymbolTable
 70
36
  0
LAYER
  5
10
100
AcDbSymbolTableRecord
100
AcDbLayerTableRecord
  2
0
 70
0
 62
7
  6
CONTINUOUS
370
-3
390
F
  0
LAYER
  5
1FA
100
AcDbSymbolTableRecord
100
AcDbLayerTableRecord
  2
DEFAULT_1
 70
0
 62
7
  6
CENTER
370
-3
390
F
  0
LAYER
  5
1FB
100
AcDbSymbolTableRecord
100
AcDbLayerTableRecord
  2
DEFAULT_2
 70
0
 62
8
  6
HIDDEN
370
-3
390
F
  0
LAYER
  5
1FC
100
AcDbSymbolTableRecord
100
AcDbLayerTableRecord
  2
DEFAULT_3
 70
0
 62
7
  6
PHANTOM
370
-3
390
F
  0
LAYER
  5
1FD
100
AcDbSymbolTableRecord
100
AcDbLayerTableRecord
  2
AUSFORMSCHRAEGEN
 70
0
 62
7
  6
CONTINUOUS
370
-3
390
F
  0
LAYER
  5
1FE
100
AcDbSymbolTableRecord
100
AcDbLayerTableRecord
  2
BEZUGSACHSEN
 70
0
 62
7
  6
CONTINUOUS
370
-3
390
F
  0
LAYER
  5
1FF
100
AcDbSymbolTableRecord
100
AcDbLayerTableRecord
  2
BEZUGSEBENEN
 70
0
 62
7
  6
CONTINUOUS
370
-3
390
F
  0
LAYER
  5
200
100
AcDbSymbolTableRecord
100
AcDbLayerTableRecord
  2
BG_STARTBEZUEGE
 70
0
 62
7
  6
CONTINUOUS
370
-3
390
F
  0
LAYER
  5
201
100
AcDbSymbolTableRecord
100
AcDbLayerTableRecord
  2
BOHRUNGEN
 70
0
 62
7
  6
CONTINUOUS
370
-3
390
F
  0
LAYER
  5
202
100
AcDbSymbolTableRecord
100
AcDbLayerTableRecord
  2
FASEN
 70
0
 62
7
  6
CONTINUOUS
370
-3
390
F
  0
LAYER
  5
203
100
AcDbSymbolTableRecord
100
AcDbLayerTableRecord
  2
FLAECHEN
 70
0
 62
7
  6
CONTINUOUS
370
-3
390
F
  0
LAYER
  5
204
100
AcDbSymbolTableRecord
100
AcDbLayerTableRecord
  2
FLAECHENVERBUND
 70
0
 62
7
  6
CONTINUOUS
370
-3
390
F
  0
LAYER
  5
205
100
AcDbSymbolTableRecord
100
AcDbLayerTableRecord
  2
GEWINDE
 70
0
 62
7
  6
CONTINUOUS
370
-3
390
F
  0
LAYER
  5
206
100
AcDbSymbolTableRecord
100
AcDbLayerTableRecord
  2
HILFEN
 70
0
 62
7
  6
CONTINUOUS
370
-3
390
F
  0
LAYER
  5
207
100
AcDbSymbolTableRecord
100
AcDbLayerTableRecord
  2
KONSTRUKTIONSELEMENTE
 70
0
 62
7
  6
CONTINUOUS
370
-3
390
F
  0
LAYER
  5
208
100
AcDbSymbolTableRecord
100
AcDbLayerTableRecord
  2
KURVEN
 70
0
 62
7
  6
CONTINUOUS
370
-3
390
F
  0
LAYER
  5
209
100
AcDbSymbolTableRecord
100
AcDbLayerTableRecord
  2
PLATZIERUNG
 70
0
 62
7
  6
CONTINUOUS
370
-3
390
F
  0
LAYER
  5
20A
100
AcDbSymbolTableRecord
100
AcDbLayerTableRecord
  2
RUNDUNGEN
 70
0
 62
7
  6
CONTINUOUS
370
-3
390
F
  0
LAYER
  5
20B
100
AcDbSymbolTableRecord
100
AcDbLayerTableRecord
  2
TEIL_STARTBEZUEGE
 70
0
 62
7
  6
CONTINUOUS
370
-3
390
F
  0
LAYER
  5
20C
100
AcDbSymbolTableRecord
100
AcDbLayerTableRecord
  2
T_STARTBEZUEGE
 70
0
 62
7
  6
CONTINUOUS
370
-3
390
F
  0
LAYER
  5
20D
100
AcDbSymbolTableRecord
100
AcDbLayerTableRecord
  2
XSEC_DATUMS
 70
0
 62
7
  6
CONTINUOUS
370
-3
390
F
  0
ENDTAB
  0
TABLE
  2
STYLE
  5
3
100
AcDbSymbolTable
 70
1
  0
STYLE
  5
11
100
AcDbSymbolTableRecord
100
AcDbTextStyleTableRecord
  2
STANDARD
 70
0
 40
0.0
 41
0.7
 50
0.0
 71
0
 42
0.2
  3
txt
  4

  0
STYLE
  5
20E
100
AcDbSymbolTableRecord
100
AcDbTextStyleTableRecord
  2
TEXTSTYLE_1
 70
0
 40
0.0
 41
0.8
 50
0.0
 71
0
 42
0.2
  3
gdt
  4

  0
ENDTAB
  0
TABLE
  2
VIEW
  5
6
100
AcDbSymbolTable
 70
0
  0
ENDTAB
  0
TABLE
  2
UCS
  5
7
100
AcDbSymbolTable
 70
0
  0
ENDTAB
  0
TABLE
  2
APPID
  5
9
100
AcDbSymbolTable
 70
1
  0
APPID
  5
20F
100
AcDbSymbolTableRecord
100
AcDbRegAppTableRecord
  2
ACAD
 70
0
  0
ENDTAB
  0
TABLE
  2
BLOCK_RECORD
  5
1
100
AcDbSymbolTable
 70
0
  0
BLOCK_RECORD
  5
210
100
AcDbSymbolTableRecord
100
AcDbBlockTableRecord
  2
*Model_Space
  0
BLOCK_RECORD
  5
211
100
AcDbSymbolTableRecord
100
AcDbBlockTableRecord
  2
*Paper_Space
  0
ENDTAB
  0
TABLE
  2
DIMSTYLE
  5
A
100
AcDbSymbolTable
 70
1
100
AcDbDimStyleTable
 71
0
  0
DIMSTYLE
105
212
100
AcDbSymbolTableRecord
100
AcDbDimStyleTableRecord
  2
STANDARD
 70
0
  3

  4

 40
1.0
 41
3.5
 42
0.0625
 43
0.38
 44
0.18
 45
0.0
 46
0.0
 47
0.005
 48
0.005
140
3.5
141
0.09
142
0.0
143
25.4
144
1.0
145
0.0
146
1.0
147
0.09
 71
1.0
 72
0.0
 73
0
 74
0
 75
0
 76
0
 77
1
 78
8
170
0
171
2
172
0
173
0
174
0
175
0
176
0
177
0
178
5
270
2
271
3
272
3
273
2
274
2
275
0
280
0
281
0
282
0
283
1
284
8
285
0
286
0
287
3
288
0
340
11
  0
ENDTAB
  0
ENDSEC
  0
SECTION
  2
BLOCKS
  0
BLOCK
  5
20
100
AcDbEntity
  8
0
100
AcDbBlockBegin
  2
*Model_Space
 70
0
 10
0.0
 20
0.0
 30
0.0
  3
*Model_Space
  1

  0
ENDBLK
  5
21
100
AcDbEntity
  8
0
100
AcDbBlockEnd
  0
BLOCK
  5
1C
100
AcDbEntity
  8
0
100
AcDbBlockBegin
  2
*Paper_Space
 70
0
 10
0.0
 20
0.0
 30
0.0
  3
*Paper_Space
  1

  0
ENDBLK
  5
1D
100
AcDbEntity
  8
0
100
AcDbBlockEnd
  0
ENDSEC
  0
SECTION
  2
ENTITIES
  0
MTEXT
  5
213
100
AcDbEntity
  8
0
100
AcDbMText
 62
5
  6
CONTINUOUS
  7
STANDARD
 71
1
 72
1
 10
112.8936478227
 20
111.2447512144
 30
0.0
 11
1.0
 21
0.0
 31
0.0
 44
0.9
  1
VRBG-FIX 31,5t
 40
12.0
 41
122.8571428571
  0
MTEXT
  5
214
100
AcDbEntity
  8
0
100
AcDbMText
 62
5
  6
CONTINUOUS
  7
STANDARD
 71
1
 72
1
 10
524.0664322391
 20
332.9936250458
 30
0.0
 11
1.0
 21
0.0
 31
0.0
 44
0.9
  1
VRBG-FIX 31,5t
 40
12.0
 41
122.8571428571
  0
LINE
  5
215
100
AcDbEntity
  8
0
100
AcDbLine
 62
7
  6
CONTINUOUS
 10
0.0
 20
0.0
 11
0.0
 21
297.0
  0
LINE
  5
216
100
AcDbEntity
  8
0
100
AcDbLine
 62
7
  6
CONTINUOUS
 10
0.0
 20
0.0
 11
420.0
 21
0.0
  0
LINE
  5
217
100
AcDbEntity
  8
0
100
AcDbLine
 62
7
  6
CONTINUOUS
 10
0.0
 20
297.0
 11
420.0
 21
297.0
  0
LINE
  5
218
100
AcDbEntity
  8
0
100
AcDbLine
 62
7
  6
CONTINUOUS
 10
420.0
 20
0.0
 11
420.0
 21
297.0
  0
LINE
  5
219
100
AcDbEntity
  8
KONSTRUKTIONSELEMENTE
100
AcDbLine
 62
7
  6
CONTINUOUS
 10
10.3429044783
 20
263.5247391872
 11
10.3429044783
 21
348.5247391872
  0
LINE
  5
21A
100
AcDbEntity
  8
0
100
AcDbLine
 62
7
  6
CONTINUOUS
 10
27.3429044783
 20
348.5247391872
 11
27.3429044783
 21
437.5244629069
  0
LINE
  5
21B
100
AcDbEntity
  8
KONSTRUKTIONSELEMENTE
100
AcDbLine
 62
7
  6
CONTINUOUS
 10
123.3431142216
 20
217.5247391872
 11
147.342694735
 21
217.5247391872
  0
LINE
  5
21C
100
AcDbEntity
  8
KONSTRUKTIONSELEMENTE
100
AcDbLine
 62
7
  6
CONTINUOUS
 10
198.3431142216
 20
217.5247391872
 11
222.342694735
 21
217.5247391872
  0
LINE
  5
21D
100
AcDbEntity
  8
KONSTRUKTIONSELEMENTE
100
AcDbLine
 62
7
  6
CONTINUOUS
 10
273.3431142216
 20
217.5247391872
 11
297.342694735
 21
217.5247391872
  0
LINE
  5
21E
100
AcDbEntity
  8
KONSTRUKTIONSELEMENTE
100
AcDbLine
 62
7
  6
CONTINUOUS
 10
120.3429044783
 20
220.5247391872
 11
150.3429044783
 21
220.5247391872
  0
LINE
  5
21F
100
AcDbEntity
  8
KONSTRUKTIONSELEMENTE
100
AcDbLine
 62
7
  6
CONTINUOUS
 10
195.3429044783
 20
220.5247391872
 11
225.3429044783
 21
220.5247391872
  0
LINE
  5
220
100
AcDbEntity
  8
KONSTRUKTIONSELEMENTE
100
AcDbLine
 62
7
  6
CONTINUOUS
 10
270.3429044783
 20
220.5247391872
 11
300.3429044783
 21
220.5247391872
  0
LINE
  5
221
100
AcDbEntity
  8
KONSTRUKTIONSELEMENTE
100
AcDbLine
 62
7
  6
CONTINUOUS
 10
123.3429044783
 20
217.5247391872
 11
120.3429044783
 21
220.5247391872
  0
LINE
  5
222
100
AcDbEntity
  8
RUNDUNGEN
100
AcDbLine
 62
7
  6
CONTINUOUS
 10
207.2814370194
 20
590.2566378449
 11
137.7439463502
 21
561.4532661164
  0
LINE
  5
223
100
AcDbEntity
  8
RUNDUNGEN
100
AcDbLine
 62
7
  6
CONTINUOUS
 10
133.4143775491
 20
557.1236973152
 11
104.1204181636
 21
486.4018232712
  0
LINE
  5
224
100
AcDbEntity
  8
KONSTRUKTIONSELEMENTE
100
AcDbLine
 62
7
  6
CONTINUOUS
 10
10.3429044783
 20
263.5247391872
 11
410.3429044783
 21
263.5247391872
  0
LINE
  5
225
100
AcDbEntity
  8
KONSTRUKTIONSELEMENTE
100
AcDbLine
 62
7
  6
CONTINUOUS
 10
198.3429044783
 20
217.5247391872
 11
195.3429044783
 21
220.5247391872
  0
LINE
  5
226
100
AcDbEntity
  8
0
100
AcDbLine
 62
7
  6
CONTINUOUS
 10
97.4685935586
 20
375.1947391872
 11
97.4685935586
 21
348.5247391872
  0
LINE
  5
227
100
AcDbEntity
  8
BEZUGSACHSEN
100
AcDbLine
 62
7
  6
CONTINUOUS
 10
103.3429044783
 20
374.5247391872
 11
103.3429044783
 21
420.5247391872
  0
LINE
  5
228
100
AcDbEntity
  8
0
100
AcDbLine
 62
7
  6
CONTINUOUS
 10
121.1499057258
 20
320.2138975257
 11
116.9615725352
 21
332.7407060409
  0
LINE
  5
229
100
AcDbEntity
  8
0
100
AcDbLine
 62
7
  6
CONTINUOUS
 10
115.1665725352
 20
332.7407060409
 11
119.9532393445
 21
318.3807060409
  0
LINE
  5
22A
100
AcDbEntity
  8
RUNDUNGEN
100
AcDbLine
 62
7
  6
CONTINUOUS
 10
103.5552792607
 20
482.5041281061
 11
109.5208127941
 21
425.7458679056
  0
LINE
  5
22B
100
AcDbEntity
  8
BEZUGSACHSEN
100
AcDbLine
 62
7
  6
CONTINUOUS
 10
102.8716177252
 20
447.5247391872
 11
103.3429044783
 21
420.5247391872
  0
LINE
  5
22C
100
AcDbEntity
  8
KONSTRUKTIONSELEMENTE
100
AcDbLine
 62
7
  6
CONTINUOUS
 10
120.3429044783
 20
220.5247391872
 11
120.3429044783
 21
263.5247391872
  0
LINE
  5
22D
100
AcDbEntity
  8
BEZUGSACHSEN
100
AcDbLine
 62
7
  6
CONTINUOUS
 10
102.8890727902
 20
348.5247391872
 11
103.3429044783
 21
374.5247391872
  0
LINE
  5
22E
100
AcDbEntity
  8
BEZUGSACHSEN
100
AcDbLine
 62
7
  6
CONTINUOUS
 10
109.4782747222
 20
423.3088372583
 11
109.0682508848
 21
420.3913660601
  0
LINE
  5
22F
100
AcDbEntity
  8
RUNDUNGEN
100
AcDbLine
 62
7
  6
CONTINUOUS
 10
109.4782747222
 20
423.3088372583
 11
109.0339602634
 21
420.1473756107
  0
LINE
  5
230
100
AcDbEntity
  8
0
100
AcDbLine
 62
7
  6
CONTINUOUS
 10
255.7749104334
 20
320.2138975257
 11
254.5782346369
 21
319.9083656472
  0
LINE
  5
231
100
AcDbEntity
  8
0
100
AcDbLine
 62
7
  6
CONTINUOUS
 10
254.5782346369
 20
318.3807060409
 11
256.0740725352
 21
318.6862379461
  0
LINE
  5
232
100
AcDbEntity
  8
0
100
AcDbLine
 62
7
  6
CONTINUOUS
 10
160.0415725352
 20
318.6862379461
 11
161.5374070097
 21
318.3807060409
  0
LINE
  5
233
100
AcDbEntity
  8
0
100
AcDbLine
 62
7
  6
CONTINUOUS
 10
161.5374070097
 20
320.2138975257
 11
160.3407380606
 21
320.5194294042
  0
LINE
  5
234
100
AcDbEntity
  8
0
100
AcDbLine
 62
7
  6
CONTINUOUS
 10
150.7674070097
 20
324.7968763447
 11
151.6649070097
 21
324.4913444662
  0
LINE
  5
235
100
AcDbEntity
  8
0
100
AcDbLine
 62
7
  6
CONTINUOUS
 10
137.0057397724
 20
331.2130466485
 11
137.9032397724
 21
330.9075147701
  0
LINE
  5
236
100
AcDbEntity
  8
0
100
AcDbLine
 62
7
  6
CONTINUOUS
 10
158.8449070097
 20
319.2973017833
 11
160.0415725352
 21
318.6862379461
  0
LINE
  5
237
100
AcDbEntity
  8
0
100
AcDbLine
 62
7
  6
CONTINUOUS
 10
153.1607380606
 20
325.4079401017
 11
152.5624070097
 21
325.7134719801
  0
LINE
  5
238
100
AcDbEntity
  8
0
100
AcDbLine
 62
7
  6
CONTINUOUS
 10
160.3407380606
 20
320.5194294042
 11
159.4432380606
 21
321.1304933751
  0
LINE
  5
239
100
AcDbEntity
  8
0
100
AcDbLine
 62
7
  6
CONTINUOUS
 10
139.3990725352
 20
331.518578527
 11
138.2024052979
 21
332.4351741624
  0
LINE
  5
23A
100
AcDbEntity
  8
0
100
AcDbLine
 62
7
  6
CONTINUOUS
 10
153.1607380606
 20
331.518578527
 11
151.9640725352
 21
332.4351741624
  0
LINE
  5
23B
100
AcDbEntity
  8
0
100
AcDbLine
 62
7
  6
CONTINUOUS
 10
137.9032397724
 20
330.9075147701
 11
138.5015725352
 21
330.2964510131
  0
LINE
  5
23C
100
AcDbEntity
  8
0
100
AcDbLine
 62
7
  6
CONTINUOUS
 10
151.6649070097
 20
324.4913444662
 11
152.2632380606
 21
323.8802807093
  0
LINE
  5
23D
100
AcDbEntity
  8
0
100
AcDbLine
 62
7
  6
CONTINUOUS
 10
157.6482380606
 20
320.5194294042
 11
158.8449070097
 21
319.2973017833
  0
LINE
  5
23E
100
AcDbEntity
  8
0
100
AcDbLine
 62
7
  6
CONTINUOUS
 10
151.6649070097
 20
330.6019828916
 11
152.2632380606
 21
329.9909191346
  0
LINE
  5
23F
100
AcDbEntity
  8
0
100
AcDbLine
 62
7
  6
CONTINUOUS
 10
140.2965725352
 20
330.2964510131
 11
139.3990725352
 21
331.518578527
  0
LINE
  5
240
100
AcDbEntity
  8
0
100
AcDbLine
 62
7
  6
CONTINUOUS
 10
154.0582380606
 20
324.1858125878
 11
153.1607380606
 21
325.4079401017
  0
LINE
  5
241
100
AcDbEntity
  8
0
100
AcDbLine
 62
7
  6
CONTINUOUS
 10
154.0582380606
 20
330.2964510131
 11
153.1607380606
 21
331.518578527
  0
LINE
  5
242
100
AcDbEntity
  8
0
100
AcDbLine
 62
7
  6
CONTINUOUS
 10
140.8949052979
 20
318.3807060409
 11
138.2024052979
 21
325.4079401017
  0
LINE
  5
243
100
AcDbEntity
  8
0
100
AcDbLine
 62
7
  6
CONTINUOUS
 10
136.4074052979
 20
324.7968763447
 11
138.8007397724
 21
318.3807060409
  0
LINE
  5
244
100
AcDbEntity
  8
0
100
AcDbLine
 62
7
  6
CONTINUOUS
 10
138.5015725352
 20
330.2964510131
 11
138.8007397724
 21
329.3798553777
  0
LINE
  5
245
100
AcDbEntity
  8
0
100
AcDbLine
 62
7
  6
CONTINUOUS
 10
140.5957397724
 20
329.3798553777
 11
140.2965725352
 21
330.2964510131
  0
LINE
  5
246
100
AcDbEntity
  8
0
100
AcDbLine
 62
7
  6
CONTINUOUS
 10
125.8329044783
 20
419.0447391872
 11
125.8329044783
 21
407.0447391872
  0
LINE
  5
247
100
AcDbEntity
  8
0
100
AcDbLine
 62
7
  6
CONTINUOUS
 10
127.3329044783
 20
407.0447391872
 11
127.3329044783
 21
412.4064413909
  0
LINE
  5
248
100
AcDbEntity
  8
0
100
AcDbLine
 62
7
  6
CONTINUOUS
 10
127.3329044783
 20
413.9383561019
 11
127.3329044783
 21
417.7681435947
  0
LINE
  5
249
100
AcDbEntity
  8
0
100
AcDbLine
 62
7
  6
CONTINUOUS
 10
129.5265725352
 20
332.7407060409
 11
129.5265725352
 21
318.3807060409
  0
LINE
  5
24A
100
AcDbEntity
  8
0
100
AcDbLine
 62
7
  6
CONTINUOUS
 10
131.3215725352
 20
318.3807060409
 11
131.3215725352
 21
324.7968763447
  0
LINE
  5
24B
100
AcDbEntity
  8
0
100
AcDbLine
 62
7
  6
CONTINUOUS
 10
131.3215725352
 20
326.6300676155
 11
131.3215725352
 21
331.2130466485
  0
LINE
  5
24C
100
AcDbEntity
  8
0
100
AcDbLine
 62
7
  6
CONTINUOUS
 10
133.5829042399
 20
416.2362288837
 11
133.5829042399
 21
415.4702708129
  0
LINE
  5
24D
100
AcDbEntity
  8
0
100
AcDbLine
 62
7
  6
CONTINUOUS
 10
135.0829042399
 20
415.2149516944
 11
135.0829042399
 21
416.2362288837
  0
LINE
  5
24E
100
AcDbEntity
  8
TEIL_STARTBEZUEGE
100
AcDbLine
 62
7
  6
CENTER
 10
135.3429044783
 20
214.5247391872
 11
135.3429044783
 21
350.5247391872
  0
LINE
  5
24F
100
AcDbEntity
  8
0
100
AcDbLine
 62
7
  6
CONTINUOUS
 10
137.3329042399
 20
419.0447391872
 11
137.3329042399
 21
411.1298454408
  0
LINE
  5
250
100
AcDbEntity
  8
0
100
AcDbLine
 62
7
  6
CONTINUOUS
 10
138.8007397724
 20
329.3798553777
 11
138.8007397724
 21
328.4632588864
  0
LINE
  5
251
100
AcDbEntity
  8
0
100
AcDbLine
 62
7
  6
CONTINUOUS
 10
138.8329049551
 20
411.1298454408
 11
138.8329049551
 21
419.0447391872
  0
LINE
  5
252
100
AcDbEntity
  8
0
100
AcDbLine
 62
7
  6
CONTINUOUS
 10
133.5829042399
 20
415.4702708129
 11
133.3329044783
 21
414.7043134574
  0
LINE
  5
253
100
AcDbEntity
  8
0
100
AcDbLine
 62
7
  6
CONTINUOUS
 10
134.8329044783
 20
414.4489943389
 11
135.0829042399
 21
415.2149516944
  0
LINE
  5
254
100
AcDbEntity
  8
0
100
AcDbLine
 62
7
  6
CONTINUOUS
 10
230.0465725352
 20
318.3807060409
 11
231.2432346369
 21
318.6862379461
  0
LINE
  5
255
100
AcDbEntity
  8
0
100
AcDbLine
 62
7
  6
CONTINUOUS
 10
251.5865725352
 20
325.7134719801
 11
252.7832346369
 21
326.0190038586
  0
LINE
  5
256
100
AcDbEntity
  8
0
100
AcDbLine
 62
7
  6
CONTINUOUS
 10
231.2432346369
 20
320.2138975257
 11
229.747403586
 21
319.9083656472
  0
LINE
  5
257
100
AcDbEntity
  8
0
100
AcDbLine
 62
7
  6
CONTINUOUS
 10
252.7832346369
 20
327.5466632509
 11
251.2874104334
 21
327.2411313725
  0
LINE
  5
258
100
AcDbEntity
  8
0
100
AcDbLine
 62
7
  6
CONTINUOUS
 10
226.7557414843
 20
330.9075147701
 11
228.2515725352
 21
331.2130466485
  0
LINE
  5
259
100
AcDbEntity
  8
0
100
AcDbLine
 62
7
  6
CONTINUOUS
 10
164.2299070097
 20
318.3807060409
 11
165.7257380606
 21
318.6862379461
  0
LINE
  5
25A
100
AcDbEntity
  8
0
100
AcDbLine
 62
7
  6
CONTINUOUS
 10
150.4682380606
 20
318.3807060409
 11
151.9640725352
 21
318.6862379461
  0
LINE
  5
25B
100
AcDbEntity
  8
0
100
AcDbLine
 62
7
  6
CONTINUOUS
 10
228.5507414843
 20
332.7407060409
 11
226.4565725352
 21
332.4351741624
  0
LINE
  5
25C
100
AcDbEntity
  8
0
100
AcDbLine
 62
7
  6
CONTINUOUS
 10
242.6115725352
 20
316.5475145561
 11
244.1074104334
 21
316.5475145561
  0
LINE
  5
25D
100
AcDbEntity
  8
0
100
AcDbLine
 62
7
  6
CONTINUOUS
 10
119.9532393445
 20
318.3807060409
 11
122.3465725352
 21
318.3807060409
  0
LINE
  5
25E
100
AcDbEntity
  8
0
100
AcDbLine
 62
7
  6
CONTINUOUS
 10
129.5265725352
 20
318.3807060409
 11
131.3215725352
 21
318.3807060409
  0
LINE
  5
25F
100
AcDbEntity
  8
0
100
AcDbLine
 62
7
  6
CONTINUOUS
 10
138.8007397724
 20
318.3807060409
 11
140.8949052979
 21
318.3807060409
  0
LINE
  5
260
100
AcDbEntity
  8
0
100
AcDbLine
 62
7
  6
CONTINUOUS
 10
143.2882397724
 20
318.3807060409
 11
150.4682380606
 21
318.3807060409
  0
LINE
  5
261
100
AcDbEntity
  8
0
100
AcDbLine
 62
7
  6
CONTINUOUS
 10
161.5374070097
 20
318.3807060409
 11
164.2299070097
 21
318.3807060409
  0
LINE
  5
262
100
AcDbEntity
  8
0
100
AcDbLine
 62
7
  6
CONTINUOUS
 10
177.3932414843
 20
318.3807060409
 11
179.1882414843
 21
318.3807060409
  0
LINE
  5
263
100
AcDbEntity
  8
0
100
AcDbLine
 62
7
  6
CONTINUOUS
 10
190.5565725352
 20
318.3807060409
 11
192.3515725352
 21
318.3807060409
  0
LINE
  5
264
100
AcDbEntity
  8
0
100
AcDbLine
 62
7
  6
CONTINUOUS
 10
194.744903586
 20
318.3807060409
 11
196.539903586
 21
318.3807060409
  0
LINE
  5
265
100
AcDbEntity
  8
0
100
AcDbLine
 62
7
  6
CONTINUOUS
 10
204.9165725352
 20
318.3807060409
 11
206.7115725352
 21
318.3807060409
  0
LINE
  5
266
100
AcDbEntity
  8
0
100
AcDbLine
 62
7
  6
CONTINUOUS
 10
227.6532414843
 20
318.3807060409
 11
230.0465725352
 21
318.3807060409
  0
LINE
  5
267
100
AcDbEntity
  8
0
100
AcDbLine
 62
7
  6
CONTINUOUS
 10
238.4232346369
 20
318.3807060409
 11
240.2182346369
 21
318.3807060409
  0
LINE
  5
268
100
AcDbEntity
  8
0
100
AcDbLine
 62
7
  6
CONTINUOUS
 10
252.7832346369
 20
318.3807060409
 11
254.5782346369
 21
318.3807060409
  0
LINE
  5
269
100
AcDbEntity
  8
0
100
AcDbLine
 62
7
  6
CONTINUOUS
 10
254.5782346369
 20
319.9083656472
 11
252.7832346369
 21
319.9083656472
  0
LINE
  5
26A
100
AcDbEntity
  8
0
100
AcDbLine
 62
7
  6
CONTINUOUS
 10
245.9024104334
 20
319.9083656472
 11
244.4065725352
 21
319.9083656472
  0
LINE
  5
26B
100
AcDbEntity
  8
0
100
AcDbLine
 62
7
  6
CONTINUOUS
 10
229.747403586
 20
319.9083656472
 11
227.952403586
 21
319.9083656472
  0
LINE
  5
26C
100
AcDbEntity
  8
0
100
AcDbLine
 62
7
  6
CONTINUOUS
 10
164.2299070097
 20
320.2138975257
 11
161.5374070097
 21
320.2138975257
  0
LINE
  5
26D
100
AcDbEntity
  8
0
100
AcDbLine
 62
7
  6
CONTINUOUS
 10
150.7674070097
 20
320.2138975257
 11
145.0832380606
 21
320.2138975257
  0
LINE
  5
26E
100
AcDbEntity
  8
0
100
AcDbLine
 62
7
  6
CONTINUOUS
 10
224.9607414843
 20
321.741557132
 11
223.464903586
 21
321.741557132
  0
LINE
  5
26F
100
AcDbEntity
  8
0
100
AcDbLine
 62
7
  6
CONTINUOUS
 10
250.0907346369
 20
322.0470890105
 11
248.2957346369
 21
322.0470890105
  0
LINE
  5
270
100
AcDbEntity
  8
0
100
AcDbLine
 62
7
  6
CONTINUOUS
 10
170.8115725352
 20
323.5747484029
 11
174.999903586
 21
323.5747484029
  0
LINE
  5
271
100
AcDbEntity
  8
0
100
AcDbLine
 62
7
  6
CONTINUOUS
 10
163.9307380606
 20
324.4913444662
 11
166.6232380606
 21
324.4913444662
  0
LINE
  5
272
100
AcDbEntity
  8
0
100
AcDbLine
 62
7
  6
CONTINUOUS
 10
131.3215725352
 20
324.7968763447
 11
136.4074052979
 21
324.7968763447
  0
LINE
  5
273
100
AcDbEntity
  8
0
100
AcDbLine
 62
7
  6
CONTINUOUS
 10
145.0832380606
 20
324.7968763447
 11
150.7674070097
 21
324.7968763447
  0
LINE
  5
274
100
AcDbEntity
  8
0
100
AcDbLine
 62
7
  6
CONTINUOUS
 10
248.2957346369
 20
324.7968763447
 11
250.3899104334
 21
324.7968763447
  0
LINE
  5
275
100
AcDbEntity
  8
0
100
AcDbLine
 62
7
  6
CONTINUOUS
 10
174.999903586
 20
325.1024082232
 11
170.8115725352
 21
325.1024082232
  0
LINE
  5
276
100
AcDbEntity
  8
0
100
AcDbLine
 62
7
  6
CONTINUOUS
 10
179.1882414843
 20
325.1024082232
 11
186.9665725352
 21
325.1024082232
  0
LINE
  5
277
100
AcDbEntity
  8
0
100
AcDbLine
 62
7
  6
CONTINUOUS
 10
228.2515725352
 20
325.1024082232
 11
229.4482414843
 21
325.1024082232
  0
LINE
  5
278
100
AcDbEntity
  8
0
100
AcDbLine
 62
7
  6
CONTINUOUS
 10
252.7832346369
 20
326.0190038586
 11
254.5782346369
 21
326.0190038586
  0
LINE
  5
279
100
AcDbEntity
  8
0
100
AcDbLine
 62
7
  6
CONTINUOUS
 10
229.4482414843
 20
326.3245357371
 11
228.2515725352
 21
326.3245357371
  0
LINE
  5
27A
100
AcDbEntity
  8
0
100
AcDbLine
 62
7
  6
CONTINUOUS
 10
168.4182380606
 20
326.3245357371
 11
163.9307380606
 21
326.3245357371
  0
LINE
  5
27B
100
AcDbEntity
  8
0
100
AcDbLine
 62
7
  6
CONTINUOUS
 10
150.7674070097
 20
326.6300676155
 11
145.0832380606
 21
326.6300676155
  0
LINE
  5
27C
100
AcDbEntity
  8
0
100
AcDbLine
 62
7
  6
CONTINUOUS
 10
137.0057397724
 20
326.6300676155
 11
131.3215725352
 21
326.6300676155
  0
LINE
  5
27D
100
AcDbEntity
  8
0
100
AcDbLine
 62
7
  6
CONTINUOUS
 10
186.9665725352
 20
326.935599494
 11
179.1882414843
 21
326.935599494
  0
LINE
  5
27E
100
AcDbEntity
  8
0
100
AcDbLine
 62
7
  6
CONTINUOUS
 10
261.4590725352
 20
326.935599494
 11
263.8524104334
 21
326.935599494
  0
LINE
  5
27F
100
AcDbEntity
  8
0
100
AcDbLine
 62
7
  6
CONTINUOUS
 10
265.3482346369
 20
326.935599494
 11
268.6390725352
 21
326.935599494
  0
LINE
  5
280
100
AcDbEntity
  8
0
100
AcDbLine
 62
7
  6
CONTINUOUS
 10
254.5782346369
 20
327.5466632509
 11
252.7832346369
 21
327.5466632509
  0
LINE
  5
281
100
AcDbEntity
  8
0
100
AcDbLine
 62
7
  6
CONTINUOUS
 10
268.6390725352
 20
328.1577270079
 11
265.3482346369
 21
328.1577270079
  0
LINE
  5
282
100
AcDbEntity
  8
0
100
AcDbLine
 62
7
  6
CONTINUOUS
 10
263.8524104334
 20
328.1577270079
 11
261.4590725352
 21
328.1577270079
  0
LINE
  5
283
100
AcDbEntity
  8
0
100
AcDbLine
 62
7
  6
CONTINUOUS
 10
166.6232380606
 20
329.0743226433
 11
168.4182380606
 21
329.0743226433
  0
LINE
  5
284
100
AcDbEntity
  8
0
100
AcDbLine
 62
7
  6
CONTINUOUS
 10
223.7640725352
 20
329.3798553777
 11
225.259903586
 21
329.3798553777
  0
LINE
  5
285
100
AcDbEntity
  8
0
100
AcDbLine
 62
7
  6
CONTINUOUS
 10
265.3482346369
 20
330.6019828916
 11
263.8524104334
 21
330.6019828916
  0
LINE
  5
286
100
AcDbEntity
  8
0
100
AcDbLine
 62
7
  6
CONTINUOUS
 10
145.0832380606
 20
330.9075147701
 11
150.7674070097
 21
330.9075147701
  0
LINE
  5
287
100
AcDbEntity
  8
0
100
AcDbLine
 62
7
  6
CONTINUOUS
 10
161.5374070097
 20
330.9075147701
 11
164.2299070097
 21
330.9075147701
  0
LINE
  5
288
100
AcDbEntity
  8
0
100
AcDbLine
 62
7
  6
CONTINUOUS
 10
179.1882414843
 20
330.9075147701
 11
188.1632414843
 21
330.9075147701
  0
LINE
  5
289
100
AcDbEntity
  8
0
100
AcDbLine
 62
7
  6
CONTINUOUS
 10
131.3215725352
 20
331.2130466485
 11
137.0057397724
 21
331.2130466485
  0
LINE
  5
28A
100
AcDbEntity
  8
0
100
AcDbLine
 62
7
  6
CONTINUOUS
 10
228.2515725352
 20
331.2130466485
 11
229.4482414843
 21
331.2130466485
  0
LINE
  5
28B
100
AcDbEntity
  8
0
100
AcDbLine
 62
7
  6
CONTINUOUS
 10
249.7915725352
 20
331.2130466485
 11
258.4674104334
 21
331.2130466485
  0
LINE
  5
28C
100
AcDbEntity
  8
0
100
AcDbLine
 62
7
  6
CONTINUOUS
 10
258.4674104334
 20
332.7407060409
 11
248.2957346369
 21
332.7407060409
  0
LINE
  5
28D
100
AcDbEntity
  8
0
100
AcDbLine
 62
7
  6
CONTINUOUS
 10
240.2182346369
 20
332.7407060409
 11
238.4232346369
 21
332.7407060409
  0
LINE
  5
28E
100
AcDbEntity
  8
0
100
AcDbLine
 62
7
  6
CONTINUOUS
 10
229.1490725352
 20
332.7407060409
 11
228.5507414843
 21
332.7407060409
  0
LINE
  5
28F
100
AcDbEntity
  8
0
100
AcDbLine
 62
7
  6
CONTINUOUS
 10
206.7115725352
 20
332.7407060409
 11
204.9165725352
 21
332.7407060409
  0
LINE
  5
290
100
AcDbEntity
  8
0
100
AcDbLine
 62
7
  6
CONTINUOUS
 10
196.539903586
 20
332.7407060409
 11
194.744903586
 21
332.7407060409
  0
LINE
  5
291
100
AcDbEntity
  8
0
100
AcDbLine
 62
7
  6
CONTINUOUS
 10
192.3515725352
 20
332.7407060409
 11
190.5565725352
 21
332.7407060409
  0
LINE
  5
292
100
AcDbEntity
  8
0
100
AcDbLine
 62
7
  6
CONTINUOUS
 10
188.1632414843
 20
332.7407060409
 11
177.3932414843
 21
332.7407060409
  0
LINE
  5
293
100
AcDbEntity
  8
0
100
AcDbLine
 62
7
  6
CONTINUOUS
 10
164.2299070097
 20
332.7407060409
 11
161.5374070097
 21
332.7407060409
  0
LINE
  5
294
100
AcDbEntity
  8
0
100
AcDbLine
 62
7
  6
CONTINUOUS
 10
150.4682380606
 20
332.7407060409
 11
143.2882397724
 21
332.7407060409
  0
LINE
  5
295
100
AcDbEntity
  8
0
100
AcDbLine
 62
7
  6
CONTINUOUS
 10
136.7065725352
 20
332.7407060409
 11
129.5265725352
 21
332.7407060409
  0
LINE
  5
296
100
AcDbEntity
  8
0
100
AcDbLine
 62
7
  6
CONTINUOUS
 10
127.1332389165
 20
332.7407060409
 11
125.3382389165
 21
332.7407060409
  0
LINE
  5
297
100
AcDbEntity
  8
0
100
AcDbLine
 62
7
  6
CONTINUOUS
 10
116.9615725352
 20
332.7407060409
 11
115.1665725352
 21
332.7407060409
  0
LINE
  5
298
100
AcDbEntity
  8
0
100
AcDbLine
 62
7
  6
CONTINUOUS
 10
266.2457346369
 20
318.6862379461
 11
268.0407346369
 21
318.3807060409
  0
LINE
  5
299
100
AcDbEntity
  8
0
100
AcDbLine
 62
7
  6
CONTINUOUS
 10
229.4482414843
 20
325.1024082232
 11
231.2432346369
 21
324.7968763447
  0
LINE
  5
29A
100
AcDbEntity
  8
0
100
AcDbLine
 62
7
  6
CONTINUOUS
 10
138.2024052979
 20
332.4351741624
 11
136.7065725352
 21
332.7407060409
  0
LINE
  5
29B
100
AcDbEntity
  8
0
100
AcDbLine
 62
7
  6
CONTINUOUS
 10
151.9640725352
 20
332.4351741624
 11
150.4682380606
 21
332.7407060409
  0
LINE
  5
29C
100
AcDbEntity
  8
0
100
AcDbLine
 62
7
  6
CONTINUOUS
 10
165.7257380606
 20
332.4351741624
 11
164.2299070097
 21
332.7407060409
  0
LINE
  5
29D
100
AcDbEntity
  8
0
100
AcDbLine
 62
7
  6
CONTINUOUS
 10
227.952403586
 20
319.9083656472
 11
226.4565725352
 21
320.2138975257
  0
LINE
  5
29E
100
AcDbEntity
  8
0
100
AcDbLine
 62
7
  6
CONTINUOUS
 10
251.2874104334
 20
318.6862379461
 11
252.7832346369
 21
318.3807060409
  0
LINE
  5
29F
100
AcDbEntity
  8
0
100
AcDbLine
 62
7
  6
CONTINUOUS
 10
268.0407346369
 20
319.6028336618
 11
266.5449104334
 21
319.9083656472
  0
LINE
  5
2A0
100
AcDbEntity
  8
0
100
AcDbLine
 62
7
  6
CONTINUOUS
 10
164.2299070097
 20
330.9075147701
 11
165.4265725352
 21
330.6019828916
  0
LINE
  5
2A1
100
AcDbEntity
  8
0
100
AcDbLine
 62
7
  6
CONTINUOUS
 10
226.4565725352
 20
318.6862379461
 11
227.6532414843
 21
318.3807060409
  0
LINE
  5
2A2
100
AcDbEntity
  8
0
100
AcDbLine
 62
7
  6
CONTINUOUS
 10
252.7832346369
 20
319.9083656472
 11
251.5865725352
 21
320.2138975257
  0
LINE
  5
2A3
100
AcDbEntity
  8
0
100
AcDbLine
 62
7
  6
CONTINUOUS
 10
150.7674070097
 20
330.9075147701
 11
151.6649070097
 21
330.6019828916
  0
LINE
  5
2A4
100
AcDbEntity
  8
0
100
AcDbLine
 62
7
  6
CONTINUOUS
 10
166.9224070097
 20
331.8241104055
 11
165.7257380606
 21
332.4351741624
  0
LINE
  5
2A5
100
AcDbEntity
  8
0
100
AcDbLine
 62
7
  6
CONTINUOUS
 10
165.4265725352
 20
330.6019828916
 11
166.3240725352
 21
329.9909191346
  0
LINE
  5
2A6
100
AcDbEntity
  8
KONSTRUKTIONSELEMENTE
100
AcDbLine
 62
7
  6
CONTINUOUS
 10
273.3429044783
 20
217.5247391872
 11
270.3429044783
 21
220.5247391872
  0
LINE
  5
2A7
100
AcDbEntity
  8
0
100
AcDbLine
 62
7
  6
CONTINUOUS
 10
168.1190725352
 20
330.6019828916
 11
166.9224070097
 21
331.8241104055
  0
LINE
  5
2A8
100
AcDbEntity
  8
0
100
AcDbLine
 62
7
  6
CONTINUOUS
 10
159.4432380606
 20
321.1304933751
 11
158.8449070097
 21
322.0470890105
  0
LINE
  5
2A9
100
AcDbEntity
  8
0
100
AcDbLine
 62
7
  6
CONTINUOUS
 10
157.0499070097
 20
321.741557132
 11
157.6482380606
 21
320.5194294042
  0
LINE
  5
2AA
100
AcDbEntity
  8
0
100
AcDbLine
 62
7
  6
CONTINUOUS
 10
131.5829043591
 20
412.4064413909
 11
133.5829042399
 21
407.0447391872
  0
LINE
  5
2AB
100
AcDbEntity
  8
0
100
AcDbLine
 62
7
  6
CONTINUOUS
 10
152.2632380606
 20
323.8802807093
 11
152.5624070097
 21
322.9636846459
  0
LINE
  5
2AC
100
AcDbEntity
  8
0
100
AcDbLine
 62
7
  6
CONTINUOUS
 10
154.3574070097
 20
323.2692165244
 11
154.0582380606
 21
324.1858125878
  0
LINE
  5
2AD
100
AcDbEntity
  8
0
100
AcDbLine
 62
7
  6
CONTINUOUS
 10
152.2632380606
 20
329.9909191346
 11
152.5624070097
 21
329.0743226433
  0
LINE
  5
2AE
100
AcDbEntity
  8
0
100
AcDbLine
 62
7
  6
CONTINUOUS
 10
154.3574070097
 20
329.3798553777
 11
154.0582380606
 21
330.2964510131
  0
LINE
  5
2AF
100
AcDbEntity
  8
0
100
AcDbLine
 62
7
  6
CONTINUOUS
 10
140.5957397724
 20
328.1577270079
 11
140.5957397724
 21
329.3798553777
  0
LINE
  5
2B0
100
AcDbEntity
  8
0
100
AcDbLine
 62
7
  6
CONTINUOUS
 10
143.2882397724
 20
332.7407060409
 11
143.2882397724
 21
318.3807060409
  0
LINE
  5
2B1
100
AcDbEntity
  8
0
100
AcDbLine
 62
7
  6
CONTINUOUS
 10
144.8329049551
 20
419.0447391872
 11
144.8329049551
 21
411.1298454408
  0
LINE
  5
2B2
100
AcDbEntity
  8
0
100
AcDbLine
 62
7
  6
CONTINUOUS
 10
145.0832380606
 20
320.2138975257
 11
145.0832380606
 21
324.7968763447
  0
LINE
  5
2B3
100
AcDbEntity
  8
0
100
AcDbLine
 62
7
  6
CONTINUOUS
 10
145.0832380606
 20
326.6300676155
 11
145.0832380606
 21
330.9075147701
  0
LINE
  5
2B4
100
AcDbEntity
  8
0
100
AcDbLine
 62
7
  6
CONTINUOUS
 10
146.3329049551
 20
411.1298454408
 11
146.3329049551
 21
419.0447391872
  0
LINE
  5
2B5
100
AcDbEntity
  8
0
100
AcDbLine
 62
7
  6
CONTINUOUS
 10
148.3329044783
 20
419.0447391872
 11
148.3329044783
 21
407.0447391872
  0
LINE
  5
2B6
100
AcDbEntity
  8
0
100
AcDbLine
 62
7
  6
CONTINUOUS
 10
149.8329044783
 20
408.576654077
 11
149.8329044783
 21
417.5128244762
  0
LINE
  5
2B7
100
AcDbEntity
  8
KONSTRUKTIONSELEMENTE
100
AcDbLine
 62
7
  6
CONTINUOUS
 10
150.3429044783
 20
220.5247391872
 11
150.3429044783
 21
263.5247391872
  0
LINE
  5
2B8
100
AcDbEntity
  8
0
100
AcDbLine
 62
7
  6
CONTINUOUS
 10
152.5624070097
 20
329.0743226433
 11
152.5624070097
 21
328.4632588864
  0
LINE
  5
2B9
100
AcDbEntity
  8
0
100
AcDbLine
 62
7
  6
CONTINUOUS
 10
152.5624070097
 20
322.9636846459
 11
152.5624070097
 21
322.0470890105
  0
LINE
  5
2BA
100
AcDbEntity
  8
0
100
AcDbLine
 62
7
  6
CONTINUOUS
 10
154.3574070097
 20
321.741557132
 11
154.3574070097
 21
323.2692165244
  0
LINE
  5
2BB
100
AcDbEntity
  8
0
100
AcDbLine
 62
7
  6
CONTINUOUS
 10
154.3574070097
 20
328.1577270079
 11
154.3574070097
 21
329.3798553777
  0
LINE
  5
2BC
100
AcDbEntity
  8
0
100
AcDbLine
 62
7
  6
CONTINUOUS
 10
156.7507380606
 20
327.8521951294
 11
156.7507380606
 21
323.2692165244
  0
LINE
  5
2BD
100
AcDbEntity
  8
0
100
AcDbLine
 62
7
  6
CONTINUOUS
 10
156.8329035246
 20
414.9596325759
 11
156.8329035246
 21
411.1298454408
  0
LINE
  5
2BE
100
AcDbEntity
  8
0
100
AcDbLine
 62
7
  6
CONTINUOUS
 10
146.0829044783
 20
409.8532498483
 11
146.3329049551
 21
411.1298454408
  0
LINE
  5
2BF
100
AcDbEntity
  8
0
100
AcDbLine
 62
7
  6
CONTINUOUS
 10
158.0829044783
 20
409.8532498483
 11
158.3329035246
 21
411.1298454408
  0
LINE
  5
2C0
100
AcDbEntity
  8
0
100
AcDbLine
 62
7
  6
CONTINUOUS
 10
144.8329049551
 20
411.1298454408
 11
144.5829044783
 21
410.1085689668
  0
LINE
  5
2C1
100
AcDbEntity
  8
0
100
AcDbLine
 62
7
  6
CONTINUOUS
 10
156.8329035246
 20
411.1298454408
 11
156.5829044783
 21
410.1085689668
  0
LINE
  5
2C2
100
AcDbEntity
  8
0
100
AcDbLine
 62
7
  6
CONTINUOUS
 10
122.3465725352
 20
318.3807060409
 11
127.1332389165
 21
332.7407060409
  0
LINE
  5
2C3
100
AcDbEntity
  8
0
100
AcDbLine
 62
7
  6
CONTINUOUS
 10
125.3382389165
 20
332.7407060409
 11
121.1499057258
 21
320.2138975257
  0
LINE
  5
2C4
100
AcDbEntity
  8
0
100
AcDbLine
 62
7
  6
CONTINUOUS
 10
145.5829049551
 20
408.8319731955
 11
146.0829044783
 21
409.8532498483
  0
LINE
  5
2C5
100
AcDbEntity
  8
0
100
AcDbLine
 62
7
  6
CONTINUOUS
 10
144.5829044783
 20
410.1085689668
 11
144.0829049551
 21
409.3426116113
  0
LINE
  5
2C6
100
AcDbEntity
  8
0
100
AcDbLine
 62
7
  6
CONTINUOUS
 10
134.0829044783
 20
413.4277178649
 11
134.8329044783
 21
414.4489943389
  0
LINE
  5
2C7
100
AcDbEntity
  8
0
100
AcDbLine
 62
7
  6
CONTINUOUS
 10
133.3329044783
 20
414.7043134574
 11
132.8329042399
 21
414.1936752204
  0
LINE
  5
2C8
100
AcDbEntity
  8
0
100
AcDbLine
 62
7
  6
CONTINUOUS
 10
165.4265725352
 20
320.5194294042
 11
164.2299070097
 21
320.2138975257
  0
LINE
  5
2C9
100
AcDbEntity
  8
0
100
AcDbLine
 62
7
  6
CONTINUOUS
 10
160.3407380606
 20
330.6019828916
 11
161.5374070097
 21
330.9075147701
  0
LINE
  5
2CA
100
AcDbEntity
  8
0
100
AcDbLine
 62
7
  6
CONTINUOUS
 10
161.5374070097
 20
332.7407060409
 11
160.0415725352
 21
332.4351741624
  0
LINE
  5
2CB
100
AcDbEntity
  8
KONSTRUKTIONSELEMENTE
100
AcDbLine
 62
7
  6
CONTINUOUS
 10
10.3429044783
 20
348.5247391872
 11
410.3429044783
 21
348.5247391872
  0
LINE
  5
2CC
100
AcDbEntity
  8
0
100
AcDbLine
 62
7
  6
CONTINUOUS
 10
231.2432346369
 20
332.4351741624
 11
229.1490725352
 21
332.7407060409
  0
LINE
  5
2CD
100
AcDbEntity
  8
0
100
AcDbLine
 62
7
  6
CONTINUOUS
 10
229.4482414843
 20
331.2130466485
 11
230.9440725352
 21
330.9075147701
  0
LINE
  5
2CE
100
AcDbEntity
  8
0
100
AcDbLine
 62
7
  6
CONTINUOUS
 10
256.0740725352
 20
327.2411313725
 11
254.5782346369
 21
327.5466632509
  0
LINE
  5
2CF
100
AcDbEntity
  8
0
100
AcDbLine
 62
7
  6
CONTINUOUS
 10
254.5782346369
 20
326.0190038586
 11
255.7749104334
 21
325.7134719801
  0
LINE
  5
2D0
100
AcDbEntity
  8
0
100
AcDbLine
 62
7
  6
CONTINUOUS
 10
265.3482346369
 20
318.9917698513
 11
266.2457346369
 21
318.6862379461
  0
LINE
  5
2D1
100
AcDbEntity
  8
0
100
AcDbLine
 62
7
  6
CONTINUOUS
 10
233.3374104334
 20
325.1024082232
 11
231.8415725352
 21
325.7134719801
  0
LINE
  5
2D2
100
AcDbEntity
  8
0
100
AcDbLine
 62
7
  6
CONTINUOUS
 10
225.259903586
 20
319.2973017833
 11
226.4565725352
 21
318.6862379461
  0
LINE
  5
2D3
100
AcDbEntity
  8
0
100
AcDbLine
 62
7
  6
CONTINUOUS
 10
226.4565725352
 20
320.2138975257
 11
225.8582414843
 21
320.5194294042
  0
LINE
  5
2D4
100
AcDbEntity
  8
0
100
AcDbLine
 62
7
  6
CONTINUOUS
 10
232.4399104334
 20
331.8241104055
 11
231.2432346369
 21
332.4351741624
  0
LINE
  5
2D5
100
AcDbEntity
  8
0
100
AcDbLine
 62
7
  6
CONTINUOUS
 10
224.362403586
 20
319.9083656472
 11
225.259903586
 21
319.2973017833
  0
LINE
  5
2D6
100
AcDbEntity
  8
0
100
AcDbLine
 62
7
  6
CONTINUOUS
 10
231.2432346369
 20
324.7968763447
 11
232.1407346369
 21
324.1858125878
  0
LINE
  5
2D7
100
AcDbEntity
  8
0
100
AcDbLine
 62
7
  6
CONTINUOUS
 10
134.8329044783
 20
417.0021862392
 11
134.0829044783
 21
418.0234627132
  0
LINE
  5
2D8
100
AcDbEntity
  8
0
100
AcDbLine
 62
7
  6
CONTINUOUS
 10
194.744903586
 20
332.7407060409
 11
199.8307414843
 21
325.7134719801
  0
LINE
  5
2D9
100
AcDbEntity
  8
0
100
AcDbLine
 62
7
  6
CONTINUOUS
 10
200.7282414843
 20
324.1858125878
 11
204.9165725352
 21
318.3807060409
  0
LINE
  5
2DA
100
AcDbEntity
  8
0
100
AcDbLine
 62
7
  6
CONTINUOUS
 10
200.7282414843
 20
326.935599494
 11
196.539903586
 21
332.7407060409
  0
LINE
  5
2DB
100
AcDbEntity
  8
0
100
AcDbLine
 62
7
  6
CONTINUOUS
 10
139.5829049551
 20
409.3426116113
 11
139.0829040014
 21
410.1085689668
  0
LINE
  5
2DC
100
AcDbEntity
  8
0
100
AcDbLine
 62
7
  6
CONTINUOUS
 10
137.5829047167
 20
409.8532498483
 11
138.0829049551
 21
408.8319731955
  0
LINE
  5
2DD
100
AcDbEntity
  8
0
100
AcDbLine
 62
7
  6
CONTINUOUS
 10
135.3329047167
 20
407.0447391872
 11
133.0829047167
 21
412.9170796279
  0
LINE
  5
2DE
100
AcDbEntity
  8
0
100
AcDbLine
 62
7
  6
CONTINUOUS
 10
133.3329044783
 20
417.0021862392
 11
133.5829042399
 21
416.2362288837
  0
LINE
  5
2DF
100
AcDbEntity
  8
0
100
AcDbLine
 62
7
  6
CONTINUOUS
 10
135.0829042399
 20
416.2362288837
 11
134.8329044783
 21
417.0021862392
  0
LINE
  5
2E0
100
AcDbEntity
  8
0
100
AcDbLine
 62
7
  6
CONTINUOUS
 10
166.3240725352
 20
329.9909191346
 11
166.6232380606
 21
329.0743226433
  0
LINE
  5
2E1
100
AcDbEntity
  8
0
100
AcDbLine
 62
7
  6
CONTINUOUS
 10
158.8449070097
 20
322.0470890105
 11
158.5457380606
 21
323.2692165244
  0
LINE
  5
2E2
100
AcDbEntity
  8
0
100
AcDbLine
 62
7
  6
CONTINUOUS
 10
139.0829040014
 20
410.1085689668
 11
138.8329049551
 21
411.1298454408
  0
LINE
  5
2E3
100
AcDbEntity
  8
0
100
AcDbLine
 62
7
  6
CONTINUOUS
 10
137.3329042399
 20
411.1298454408
 11
137.5829047167
 21
409.8532498483
  0
LINE
  5
2E4
100
AcDbEntity
  8
0
100
AcDbLine
 62
7
  6
CONTINUOUS
 10
156.7507380606
 20
323.2692165244
 11
157.0499070097
 21
321.741557132
  0
LINE
  5
2E5
100
AcDbEntity
  8
0
100
AcDbLine
 62
7
  6
CONTINUOUS
 10
168.4182380606
 20
329.0743226433
 11
168.1190725352
 21
330.6019828916
  0
LINE
  5
2E6
100
AcDbEntity
  8
0
100
AcDbLine
 62
7
  6
CONTINUOUS
 10
158.3329035246
 20
411.1298454408
 11
158.3329035246
 21
414.9596325759
  0
LINE
  5
2E7
100
AcDbEntity
  8
0
100
AcDbLine
 62
7
  6
CONTINUOUS
 10
158.5457380606
 20
323.2692165244
 11
158.5457380606
 21
327.8521951294
  0
LINE
  5
2E8
100
AcDbEntity
  8
0
100
AcDbLine
 62
7
  6
CONTINUOUS
 10
163.9307380606
 20
326.3245357371
 11
163.9307380606
 21
324.4913444662
  0
LINE
  5
2E9
100
AcDbEntity
  8
0
100
AcDbLine
 62
7
  6
CONTINUOUS
 10
166.6232380606
 20
324.4913444662
 11
166.6232380606
 21
322.0470890105
  0
LINE
  5
2EA
100
AcDbEntity
  8
0
100
AcDbLine
 62
7
  6
CONTINUOUS
 10
168.4182380606
 20
321.741557132
 11
168.4182380606
 21
326.3245357371
  0
LINE
  5
2EB
100
AcDbEntity
  8
0
100
AcDbLine
 62
7
  6
CONTINUOUS
 10
169.3788028631
 20
398.0247391872
 11
169.3788028631
 21
419.2779812524
  0
LINE
  5
2EC
100
AcDbEntity
  8
0
100
AcDbLine
 62
7
  6
CONTINUOUS
 10
170.8115725352
 20
325.1024082232
 11
170.8115725352
 21
323.5747484029
  0
LINE
  5
2ED
100
AcDbEntity
  8
0
100
AcDbLine
 62
7
  6
CONTINUOUS
 10
174.999903586
 20
323.5747484029
 11
174.999903586
 21
325.1024082232
  0
LINE
  5
2EE
100
AcDbEntity
  8
0
100
AcDbLine
 62
7
  6
CONTINUOUS
 10
157.0499070097
 20
329.3798553777
 11
156.7507380606
 21
327.8521951294
  0
LINE
  5
2EF
100
AcDbEntity
  8
0
100
AcDbLine
 62
7
  6
CONTINUOUS
 10
138.8007397724
 20
328.4632588864
 11
138.5015725352
 21
327.5466632509
  0
LINE
  5
2F0
100
AcDbEntity
  8
0
100
AcDbLine
 62
7
  6
CONTINUOUS
 10
140.2965725352
 20
327.2411313725
 11
140.5957397724
 21
328.1577270079
  0
LINE
  5
2F1
100
AcDbEntity
  8
0
100
AcDbLine
 62
7
  6
CONTINUOUS
 10
157.5829035246
 20
408.8319731955
 11
158.0829044783
 21
409.8532498483
  0
LINE
  5
2F2
100
AcDbEntity
  8
0
100
AcDbLine
 62
7
  6
CONTINUOUS
 10
156.5829044783
 20
410.1085689668
 11
156.0829035246
 21
409.3426116113
  0
LINE
  5
2F3
100
AcDbEntity
  8
0
100
AcDbLine
 62
7
  6
CONTINUOUS
 10
144.5829044783
 20
407.8106966321
 11
145.5829049551
 21
408.8319731955
  0
LINE
  5
2F4
100
AcDbEntity
  8
0
100
AcDbLine
 62
7
  6
CONTINUOUS
 10
156.5829044783
 20
407.8106966321
 11
157.5829035246
 21
408.8319731955
  0
LINE
  5
2F5
100
AcDbEntity
  8
0
100
AcDbLine
 62
7
  6
CONTINUOUS
 10
144.0829049551
 20
409.3426116113
 11
143.3329049551
 21
408.8319731955
  0
LINE
  5
2F6
100
AcDbEntity
  8
0
100
AcDbLine
 62
7
  6
CONTINUOUS
 10
156.0829035246
 20
409.3426116113
 11
155.3329035246
 21
408.8319731955
  0
LINE
  5
2F7
100
AcDbEntity
  8
0
100
AcDbLine
 62
7
  6
CONTINUOUS
 10
133.0829047167
 20
412.9170796279
 11
134.0829044783
 21
413.4277178649
  0
LINE
  5
2F8
100
AcDbEntity
  8
0
100
AcDbLine
 62
7
  6
CONTINUOUS
 10
132.8329042399
 20
414.1936752204
 11
132.0829042399
 21
413.9383561019
  0
LINE
  5
2F9
100
AcDbEntity
  8
0
100
AcDbLine
 62
7
  6
CONTINUOUS
 10
249.7915725352
 20
319.6028336618
 11
251.2874104334
 21
318.6862379461
  0
LINE
  5
2FA
100
AcDbEntity
  8
0
100
AcDbLine
 62
7
  6
CONTINUOUS
 10
257.5699104334
 20
326.3245357371
 11
256.0740725352
 21
327.2411313725
  0
LINE
  5
2FB
100
AcDbEntity
  8
0
100
AcDbLine
 62
7
  6
CONTINUOUS
 10
230.9440725352
 20
330.9075147701
 11
231.8415725352
 21
330.2964510131
  0
LINE
  5
2FC
100
AcDbEntity
  8
0
100
AcDbLine
 62
7
  6
CONTINUOUS
 10
251.5865725352
 20
320.2138975257
 11
250.6890725352
 21
320.8249612826
  0
LINE
  5
2FD
100
AcDbEntity
  8
0
100
AcDbLine
 62
7
  6
CONTINUOUS
 10
264.4507346369
 20
319.6028336618
 11
265.3482346369
 21
318.9917698513
  0
LINE
  5
2FE
100
AcDbEntity
  8
0
100
AcDbLine
 62
7
  6
CONTINUOUS
 10
255.7749104334
 20
325.7134719801
 11
256.6724104334
 21
325.1024082232
  0
LINE
  5
2FF
100
AcDbEntity
  8
0
100
AcDbLine
 62
7
  6
CONTINUOUS
 10
266.5449104334
 20
319.9083656472
 11
265.6474104334
 21
320.5194294042
  0
LINE
  5
300
100
AcDbEntity
  8
0
100
AcDbLine
 62
7
  6
CONTINUOUS
 10
140.3329049551
 20
408.8319731955
 11
139.5829049551
 21
409.3426116113
  0
LINE
  5
301
100
AcDbEntity
  8
0
100
AcDbLine
 62
7
  6
CONTINUOUS
 10
134.0829044783
 20
418.0234627132
 11
133.0829047167
 21
418.7894200687
  0
LINE
  5
302
100
AcDbEntity
  8
0
100
AcDbLine
 62
7
  6
CONTINUOUS
 10
138.0829049551
 20
408.8319731955
 11
139.0829040014
 21
407.8106966321
  0
LINE
  5
303
100
AcDbEntity
  8
0
100
AcDbLine
 62
7
  6
CONTINUOUS
 10
225.8582414843
 20
320.5194294042
 11
225.259903586
 21
321.1304933751
  0
LINE
  5
304
100
AcDbEntity
  8
0
100
AcDbLine
 62
7
  6
CONTINUOUS
 10
132.8329042399
 20
417.5128244762
 11
133.3329044783
 21
417.0021862392
  0
LINE
  5
305
100
AcDbEntity
  8
0
100
AcDbLine
 62
7
  6
CONTINUOUS
 10
233.6365725352
 20
330.6019828916
 11
232.4399104334
 21
331.8241104055
  0
LINE
  5
306
100
AcDbEntity
  8
0
100
AcDbLine
 62
7
  6
CONTINUOUS
 10
206.7115725352
 20
318.3807060409
 11
201.6257414843
 21
325.7134719801
  0
LINE
  5
307
100
AcDbEntity
  8
0
100
AcDbLine
 62
7
  6
CONTINUOUS
 10
156.0829035246
 20
416.7468671207
 11
156.5829044783
 21
415.9809090499
  0
LINE
  5
308
100
AcDbEntity
  8
0
100
AcDbLine
 62
7
  6
CONTINUOUS
 10
223.7640725352
 20
320.8249612826
 11
224.362403586
 21
319.9083656472
  0
LINE
  5
309
100
AcDbEntity
  8
0
100
AcDbLine
 62
7
  6
CONTINUOUS
 10
158.0829044783
 20
416.2362288837
 11
157.5829035246
 21
417.2575053577
  0
LINE
  5
30A
100
AcDbEntity
  8
0
100
AcDbLine
 62
7
  6
CONTINUOUS
 10
156.5829044783
 20
415.9809090499
 11
156.8329035246
 21
414.9596325759
  0
LINE
  5
30B
100
AcDbEntity
  8
0
100
AcDbLine
 62
7
  6
CONTINUOUS
 10
158.3329035246
 20
414.9596325759
 11
158.0829044783
 21
416.2362288837
  0
LINE
  5
30C
100
AcDbEntity
  8
0
100
AcDbLine
 62
7
  6
CONTINUOUS
 10
177.3932414843
 20
332.7407060409
 11
177.3932414843
 21
318.3807060409
  0
LINE
  5
30D
100
AcDbEntity
  8
0
100
AcDbLine
 62
7
  6
CONTINUOUS
 10
179.1882414843
 20
318.3807060409
 11
179.1882414843
 21
325.1024082232
  0
LINE
  5
30E
100
AcDbEntity
  8
0
100
AcDbLine
 62
7
  6
CONTINUOUS
 10
179.1882414843
 20
326.935599494
 11
179.1882414843
 21
330.9075147701
  0
LINE
  5
30F
100
AcDbEntity
  8
0
100
AcDbLine
 62
7
  6
CONTINUOUS
 10
186.9665725352
 20
325.1024082232
 11
186.9665725352
 21
326.935599494
  0
LINE
  5
310
100
AcDbEntity
  8
0
100
AcDbLine
 62
7
  6
CONTINUOUS
 10
188.1632414843
 20
330.9075147701
 11
188.1632414843
 21
332.7407060409
  0
LINE
  5
311
100
AcDbEntity
  8
0
100
AcDbLine
 62
7
  6
CONTINUOUS
 10
190.5565725352
 20
332.7407060409
 11
190.5565725352
 21
318.3807060409
  0
LINE
  5
312
100
AcDbEntity
  8
0
100
AcDbLine
 62
7
  6
CONTINUOUS
 10
191.1725028753
 20
401.5084457807
 11
191.1725028753
 21
399.5410325937
  0
LINE
  5
313
100
AcDbEntity
  8
0
100
AcDbLine
 62
7
  6
CONTINUOUS
 10
192.3515725352
 20
318.3807060409
 11
192.3515725352
 21
332.7407060409
  0
LINE
  5
314
100
AcDbEntity
  8
0
100
AcDbLine
 62
7
  6
CONTINUOUS
 10
158.5457380606
 20
327.8521951294
 11
158.8449070097
 21
329.0743226433
  0
LINE
  5
315
100
AcDbEntity
  8
0
100
AcDbLine
 62
7
  6
CONTINUOUS
 10
168.1190725352
 20
320.5194294042
 11
168.4182380606
 21
321.741557132
  0
LINE
  5
316
100
AcDbEntity
  8
0
100
AcDbLine
 62
7
  6
CONTINUOUS
 10
152.5624070097
 20
328.4632588864
 11
152.2632380606
 21
327.5466632509
  0
LINE
  5
317
100
AcDbEntity
  8
0
100
AcDbLine
 62
7
  6
CONTINUOUS
 10
154.0582380606
 20
327.2411313725
 11
154.3574070097
 21
328.1577270079
  0
LINE
  5
318
100
AcDbEntity
  8
0
100
AcDbLine
 62
7
  6
CONTINUOUS
 10
152.5624070097
 20
322.0470890105
 11
152.2632380606
 21
321.1304933751
  0
LINE
  5
319
100
AcDbEntity
  8
0
100
AcDbLine
 62
7
  6
CONTINUOUS
 10
154.0582380606
 20
320.8249612826
 11
154.3574070097
 21
321.741557132
  0
LINE
  5
31A
100
AcDbEntity
  8
0
100
AcDbLine
 62
7
  6
CONTINUOUS
 10
166.6232380606
 20
322.0470890105
 11
166.3240725352
 21
321.1304933751
  0
LINE
  5
31B
100
AcDbEntity
  8
0
100
AcDbLine
 62
7
  6
CONTINUOUS
 10
143.5829040014
 20
407.300058328
 11
144.5829044783
 21
407.8106966321
  0
LINE
  5
31C
100
AcDbEntity
  8
0
100
AcDbLine
 62
7
  6
CONTINUOUS
 10
155.582905432
 20
407.300058328
 11
156.5829044783
 21
407.8106966321
  0
LINE
  5
31D
100
AcDbEntity
  8
BEZUGSACHSEN
100
AcDbLine
 62
7
  6
CONTINUOUS
 10
317.3429044783
 20
374.5247391872
 11
308.8607445665
 21
374.5247391872
  0
LINE
  5
31E
100
AcDbEntity
  8
BEZUGSACHSEN
100
AcDbLine
 62
7
  6
CONTINUOUS
 10
111.8250643901
 20
374.5247391872
 11
103.3429044783
 21
374.5247391872
  0
LINE
  5
31F
100
AcDbEntity
  8
RUNDUNGEN
100
AcDbLine
 62
7
  6
CONTINUOUS
 10
111.8250641169
 20
374.5247391872
 11
308.8607448629
 21
374.5247391872
  0
LINE
  5
320
100
AcDbEntity
  8
0
100
AcDbLine
 62
7
  6
CONTINUOUS
 10
97.4685935586
 20
375.1947391872
 11
37.3429044783
 21
375.1947391872
  0
LINE
  5
321
100
AcDbEntity
  8
RUNDUNGEN
100
AcDbLine
 62
7
  6
CONTINUOUS
 10
323.217215398
 20
375.1947391872
 11
383.3429044783
 21
375.1947391872
  0
LINE
  5
322
100
AcDbEntity
  8
0
100
AcDbLine
 62
7
  6
CONTINUOUS
 10
139.0829040014
 20
407.8106966321
 11
140.0829044783
 21
407.300058328
  0
LINE
  5
323
100
AcDbEntity
  8
0
100
AcDbLine
 62
7
  6
CONTINUOUS
 10
155.3329035246
 20
417.2575053577
 11
156.0829035246
 21
416.7468671207
  0
LINE
  5
324
100
AcDbEntity
  8
0
100
AcDbLine
 62
7
  6
CONTINUOUS
 10
157.5829035246
 20
417.2575053577
 11
156.5829044783
 21
418.2787818317
  0
LINE
  5
325
100
AcDbEntity
  8
0
100
AcDbLine
 62
7
  6
CONTINUOUS
 10
248.8940725352
 20
320.8249612826
 11
249.7915725352
 21
319.6028336618
  0
LINE
  5
326
100
AcDbEntity
  8
0
100
AcDbLine
 62
7
  6
CONTINUOUS
 10
233.9357346369
 20
324.1858125878
 11
233.3374104334
 21
325.1024082232
  0
LINE
  5
327
100
AcDbEntity
  8
0
100
AcDbLine
 62
7
  6
CONTINUOUS
 10
231.8415725352
 20
330.2964510131
 11
232.4399104334
 21
329.3798553777
  0
LINE
  5
328
100
AcDbEntity
  8
0
100
AcDbLine
 62
7
  6
CONTINUOUS
 10
225.259903586
 20
321.1304933751
 11
224.9607414843
 21
321.741557132
  0
LINE
  5
329
100
AcDbEntity
  8
KONSTRUKTIONSELEMENTE
100
AcDbLine
 62
7
  6
CONTINUOUS
 10
195.3429044783
 20
220.5247391872
 11
195.3429044783
 21
263.5247391872
  0
LINE
  5
32A
100
AcDbEntity
  8
0
100
AcDbLine
 62
7
  6
CONTINUOUS
 10
199.8500316739
 20
404.7209375314
 11
199.8500316739
 21
402.8580727987
  0
LINE
  5
32B
100
AcDbEntity
  8
0
100
AcDbLine
 62
7
  6
CONTINUOUS
 10
202.9864878058
 20
402.8580727987
 11
202.9864878058
 21
393.5247391872
  0
LINE
  5
32C
100
AcDbEntity
  8
0
100
AcDbLine
 62
7
  6
CONTINUOUS
 10
205.6762372851
 20
393.5247391872
 11
205.6762372851
 21
407.0495188646
  0
LINE
  5
32D
100
AcDbEntity
  8
TEIL_STARTBEZUEGE
100
AcDbLine
 62
7
  6
CENTER
 10
210.3429044783
 20
214.5247391872
 11
210.3429044783
 21
350.5247391872
  0
LINE
  5
32E
100
AcDbEntity
  8
0
100
AcDbLine
 62
7
  6
CONTINUOUS
 10
211.0367254615
 20
396.3760630004
 11
211.0367254615
 21
393.5247391872
  0
LINE
  5
32F
100
AcDbEntity
  8
0
100
AcDbLine
 62
7
  6
CONTINUOUS
 10
211.0367254615
 20
391.3197154216
 11
211.0367254615
 21
390.2362124435
  0
LINE
  5
330
100
AcDbEntity
  8
0
100
AcDbLine
 62
7
  6
CONTINUOUS
 10
212.5859448313
 20
393.5247391872
 11
212.5859448313
 21
393.3156421091
  0
LINE
  5
331
100
AcDbEntity
  8
0
100
AcDbLine
 62
7
  6
CONTINUOUS
 10
157.6482380606
 20
330.6019828916
 11
157.0499070097
 21
329.3798553777
  0
LINE
  5
332
100
AcDbEntity
  8
0
100
AcDbLine
 62
7
  6
CONTINUOUS
 10
158.8449070097
 20
329.0743226433
 11
159.4432380606
 21
329.9909191346
  0
LINE
  5
333
100
AcDbEntity
  8
0
100
AcDbLine
 62
7
  6
CONTINUOUS
 10
139.3990725352
 20
326.0190038586
 11
140.2965725352
 21
327.2411313725
  0
LINE
  5
334
100
AcDbEntity
  8
0
100
AcDbLine
 62
7
  6
CONTINUOUS
 10
153.1607380606
 20
326.0190038586
 11
154.0582380606
 21
327.2411313725
  0
LINE
  5
335
100
AcDbEntity
  8
0
100
AcDbLine
 62
7
  6
CONTINUOUS
 10
138.5015725352
 20
327.5466632509
 11
137.9032397724
 21
326.935599494
  0
LINE
  5
336
100
AcDbEntity
  8
RUNDUNGEN
100
AcDbLine
 62
7
  6
CONTINUOUS
 10
174.1826504404
 20
388.5379062067
 11
246.5031585161
 21
388.5379062067
  0
LINE
  5
337
100
AcDbEntity
  8
0
100
AcDbLine
 62
7
  6
CONTINUOUS
 10
202.9864878058
 20
393.5247391872
 11
205.6762372851
 21
393.5247391872
  0
LINE
  5
338
100
AcDbEntity
  8
0
100
AcDbLine
 62
7
  6
CONTINUOUS
 10
211.0367254615
 20
393.5247391872
 11
212.5859448313
 21
393.5247391872
  0
LINE
  5
339
100
AcDbEntity
  8
0
100
AcDbLine
 62
7
  6
CONTINUOUS
 10
213.888049066
 20
396.3760630004
 11
211.0367254615
 21
396.3760630004
  0
LINE
  5
33A
100
AcDbEntity
  8
0
100
AcDbLine
 62
7
  6
CONTINUOUS
 10
219.1629979014
 20
397.2124512605
 11
216.4067198634
 21
397.2124512605
  0
LINE
  5
33B
100
AcDbEntity
  8
0
100
AcDbLine
 62
7
  6
CONTINUOUS
 10
190.4786810875
 20
397.7732117585
 11
187.7224012241
 21
397.7732117585
  0
LINE
  5
33C
100
AcDbEntity
  8
0
100
AcDbLine
 62
7
  6
CONTINUOUS
 10
191.1725028753
 20
399.5410325937
 11
191.5811929703
 21
399.5410325937
  0
LINE
  5
33D
100
AcDbEntity
  8
0
100
AcDbLine
 62
7
  6
CONTINUOUS
 10
191.7617766261
 20
401.5084457807
 11
191.1725028753
 21
401.5084457807
  0
LINE
  5
33E
100
AcDbEntity
  8
0
100
AcDbLine
 62
7
  6
CONTINUOUS
 10
227.1372024417
 20
401.7080389671
 11
228.5533596873
 21
401.7080389671
  0
LINE
  5
33F
100
AcDbEntity
  8
0
100
AcDbLine
 62
7
  6
CONTINUOUS
 10
231.2716194987
 20
401.7080389671
 11
232.9634072184
 21
401.7080389671
  0
LINE
  5
340
100
AcDbEntity
  8
0
100
AcDbLine
 62
7
  6
CONTINUOUS
 10
199.8500316739
 20
402.8580727987
 11
202.9864878058
 21
402.8580727987
  0
LINE
  5
341
100
AcDbEntity
  8
0
100
AcDbLine
 62
7
  6
CONTINUOUS
 10
187.9124894887
 20
402.9246030263
 11
190.4121500253
 21
402.9246030263
  0
LINE
  5
342
100
AcDbEntity
  8
0
100
AcDbLine
 62
7
  6
CONTINUOUS
 10
232.9634072184
 20
403.7419832162
 11
231.2716194987
 21
403.7419832162
  0
LINE
  5
343
100
AcDbEntity
  8
0
100
AcDbLine
 62
7
  6
CONTINUOUS
 10
228.5533596873
 20
403.7419832162
 11
227.1372024417
 21
403.7419832162
  0
LINE
  5
344
100
AcDbEntity
  8
0
100
AcDbLine
 62
7
  6
CONTINUOUS
 10
219.6477252841
 20
404.6734155826
 11
225.3218571543
 21
404.6734155826
  0
LINE
  5
345
100
AcDbEntity
  8
0
100
AcDbLine
 62
7
  6
CONTINUOUS
 10
231.2716194987
 20
406.4887583665
 11
228.5533596873
 21
406.4887583665
  0
LINE
  5
346
100
AcDbEntity
  8
0
100
AcDbLine
 62
7
  6
CONTINUOUS
 10
216.8344165683
 20
399.5220234804
 11
219.2200252414
 21
399.4174750261
  0
LINE
  5
347
100
AcDbEntity
  8
0
100
AcDbLine
 62
7
  6
CONTINUOUS
 10
140.0829044783
 20
407.300058328
 11
141.3329040014
 21
407.0447391872
  0
LINE
  5
348
100
AcDbEntity
  8
0
100
AcDbLine
 62
7
  6
CONTINUOUS
 10
133.0829047167
 20
418.7894200687
 11
131.8329044783
 21
419.0447391872
  0
LINE
  5
349
100
AcDbEntity
  8
0
100
AcDbLine
 62
7
  6
CONTINUOUS
 10
141.3329040014
 20
408.576654077
 11
140.3329049551
 21
408.8319731955
  0
LINE
  5
34A
100
AcDbEntity
  8
0
100
AcDbLine
 62
7
  6
CONTINUOUS
 10
154.3329044783
 20
417.5128244762
 11
155.3329035246
 21
417.2575053577
  0
LINE
  5
34B
100
AcDbEntity
  8
0
100
AcDbLine
 62
7
  6
CONTINUOUS
 10
132.0829042399
 20
417.7681435947
 11
132.8329042399
 21
417.5128244762
  0
LINE
  5
34C
100
AcDbEntity
  8
0
100
AcDbLine
 62
7
  6
CONTINUOUS
 10
156.5829044783
 20
418.2787818317
 11
155.582905432
 21
418.7894200687
  0
LINE
  5
34D
100
AcDbEntity
  8
0
100
AcDbLine
 62
7
  6
CONTINUOUS
 10
258.4674104334
 20
325.1024082232
 11
257.5699104334
 21
326.3245357371
  0
LINE
  5
34E
100
AcDbEntity
  8
0
100
AcDbLine
 62
7
  6
CONTINUOUS
 10
256.6724104334
 20
325.1024082232
 11
257.2707346369
 21
324.1858125878
  0
LINE
  5
34F
100
AcDbEntity
  8
0
100
AcDbLine
 62
7
  6
CONTINUOUS
 10
232.1407346369
 20
324.1858125878
 11
232.7390725352
 21
322.9636846459
  0
LINE
  5
350
100
AcDbEntity
  8
0
100
AcDbLine
 62
7
  6
CONTINUOUS
 10
248.2957346369
 20
322.0470890105
 11
248.8940725352
 21
320.8249612826
  0
LINE
  5
351
100
AcDbEntity
  8
0
100
AcDbLine
 62
7
  6
CONTINUOUS
 10
250.6890725352
 20
320.8249612826
 11
250.0907346369
 21
322.0470890105
  0
LINE
  5
352
100
AcDbEntity
  8
0
100
AcDbLine
 62
7
  6
CONTINUOUS
 10
223.464903586
 20
321.741557132
 11
223.7640725352
 21
320.8249612826
  0
LINE
  5
353
100
AcDbEntity
  8
0
100
AcDbLine
 62
7
  6
CONTINUOUS
 10
213.888049066
 20
393.7718539312
 11
213.888049066
 21
396.3760630004
  0
LINE
  5
354
100
AcDbEntity
  8
0
100
AcDbLine
 62
7
  6
CONTINUOUS
 10
225.3218571543
 20
404.6734155826
 11
225.3218571543
 21
407.0495188646
  0
LINE
  5
355
100
AcDbEntity
  8
KONSTRUKTIONSELEMENTE
100
AcDbLine
 62
7
  6
CONTINUOUS
 10
225.3429044783
 20
220.5247391872
 11
225.3429044783
 21
263.5247391872
  0
LINE
  5
356
100
AcDbEntity
  8
0
100
AcDbLine
 62
7
  6
CONTINUOUS
 10
227.1372024417
 20
403.7419832162
 11
227.1372024417
 21
401.7080389671
  0
LINE
  5
357
100
AcDbEntity
  8
0
100
AcDbLine
 62
7
  6
CONTINUOUS
 10
228.2515725352
 20
326.3245357371
 11
228.2515725352
 21
325.1024082232
  0
LINE
  5
358
100
AcDbEntity
  8
0
100
AcDbLine
 62
7
  6
CONTINUOUS
 10
228.5533596873
 20
406.4887583665
 11
228.5533596873
 21
403.7419832162
  0
LINE
  5
359
100
AcDbEntity
  8
0
100
AcDbLine
 62
7
  6
CONTINUOUS
 10
228.5533596873
 20
401.7080389671
 11
228.5533596873
 21
396.4901160113
  0
LINE
  5
35A
100
AcDbEntity
  8
0
100
AcDbLine
 62
7
  6
CONTINUOUS
 10
217.8323799968
 20
407.0495188646
 11
216.8344165683
 21
399.5220234804
  0
LINE
  5
35B
100
AcDbEntity
  8
0
100
AcDbLine
 62
7
  6
CONTINUOUS
 10
219.2675463557
 20
401.8030828647
 11
219.6477252841
 21
404.6734155826
  0
LINE
  5
35C
100
AcDbEntity
  8
0
100
AcDbLine
 62
7
  6
CONTINUOUS
 10
153.1607380606
 20
319.6028336618
 11
154.0582380606
 21
320.8249612826
  0
LINE
  5
35D
100
AcDbEntity
  8
0
100
AcDbLine
 62
7
  6
CONTINUOUS
 10
152.2632380606
 20
327.5466632509
 11
151.6649070097
 21
326.935599494
  0
LINE
  5
35E
100
AcDbEntity
  8
0
100
AcDbLine
 62
7
  6
CONTINUOUS
 10
158.8449070097
 20
331.8241104055
 11
157.6482380606
 21
330.6019828916
  0
LINE
  5
35F
100
AcDbEntity
  8
0
100
AcDbLine
 62
7
  6
CONTINUOUS
 10
152.2632380606
 20
321.1304933751
 11
151.6649070097
 21
320.5194294042
  0
LINE
  5
360
100
AcDbEntity
  8
0
100
AcDbLine
 62
7
  6
CONTINUOUS
 10
155.3329035246
 20
408.8319731955
 11
154.3329044783
 21
408.576654077
  0
LINE
  5
361
100
AcDbEntity
  8
0
100
AcDbLine
 62
7
  6
CONTINUOUS
 10
154.3329044783
 20
407.0447391872
 11
155.582905432
 21
407.300058328
  0
LINE
  5
362
100
AcDbEntity
  8
0
100
AcDbLine
 62
7
  6
CONTINUOUS
 10
142.3329044783
 20
407.0447391872
 11
143.5829040014
 21
407.300058328
  0
LINE
  5
363
100
AcDbEntity
  8
0
100
AcDbLine
 62
7
  6
CONTINUOUS
 10
125.8329044783
 20
407.0447391872
 11
127.3329044783
 21
407.0447391872
  0
LINE
  5
364
100
AcDbEntity
  8
0
100
AcDbLine
 62
7
  6
CONTINUOUS
 10
133.5829042399
 20
407.0447391872
 11
135.3329047167
 21
407.0447391872
  0
LINE
  5
365
100
AcDbEntity
  8
0
100
AcDbLine
 62
7
  6
CONTINUOUS
 10
141.3329040014
 20
407.0447391872
 11
142.3329044783
 21
407.0447391872
  0
LINE
  5
366
100
AcDbEntity
  8
0
100
AcDbLine
 62
7
  6
CONTINUOUS
 10
148.3329044783
 20
407.0447391872
 11
154.3329044783
 21
407.0447391872
  0
LINE
  5
367
100
AcDbEntity
  8
0
100
AcDbLine
 62
7
  6
CONTINUOUS
 10
225.3218571543
 20
407.0495188646
 11
217.8323799968
 21
407.0495188646
  0
LINE
  5
368
100
AcDbEntity
  8
0
100
AcDbLine
 62
7
  6
CONTINUOUS
 10
205.6762372851
 20
407.0495188646
 11
203.5757619738
 21
407.0495188646
  0
LINE
  5
369
100
AcDbEntity
  8
0
100
AcDbLine
 62
7
  6
CONTINUOUS
 10
154.3329044783
 20
408.576654077
 11
149.8329044783
 21
408.576654077
  0
LINE
  5
36A
100
AcDbEntity
  8
0
100
AcDbLine
 62
7
  6
CONTINUOUS
 10
142.3329044783
 20
408.576654077
 11
141.3329040014
 21
408.576654077
  0
LINE
  5
36B
100
AcDbEntity
  8
0
100
AcDbLine
 62
7
  6
CONTINUOUS
 10
127.3329044783
 20
412.4064413909
 11
131.5829043591
 21
412.4064413909
  0
LINE
  5
36C
100
AcDbEntity
  8
0
100
AcDbLine
 62
7
  6
CONTINUOUS
 10
132.0829042399
 20
413.9383561019
 11
127.3329044783
 21
413.9383561019
  0
LINE
  5
36D
100
AcDbEntity
  8
0
100
AcDbLine
 62
7
  6
CONTINUOUS
 10
149.8329044783
 20
417.5128244762
 11
154.3329044783
 21
417.5128244762
  0
LINE
  5
36E
100
AcDbEntity
  8
0
100
AcDbLine
 62
7
  6
CONTINUOUS
 10
127.3329044783
 20
417.7681435947
 11
132.0829042399
 21
417.7681435947
  0
LINE
  5
36F
100
AcDbEntity
  8
0
100
AcDbLine
 62
7
  6
CONTINUOUS
 10
154.3329044783
 20
419.0447391872
 11
148.3329044783
 21
419.0447391872
  0
LINE
  5
370
100
AcDbEntity
  8
0
100
AcDbLine
 62
7
  6
CONTINUOUS
 10
146.3329049551
 20
419.0447391872
 11
144.8329049551
 21
419.0447391872
  0
LINE
  5
371
100
AcDbEntity
  8
0
100
AcDbLine
 62
7
  6
CONTINUOUS
 10
138.8329049551
 20
419.0447391872
 11
137.3329042399
 21
419.0447391872
  0
LINE
  5
372
100
AcDbEntity
  8
0
100
AcDbLine
 62
7
  6
CONTINUOUS
 10
131.8329044783
 20
419.0447391872
 11
125.8329044783
 21
419.0447391872
  0
LINE
  5
373
100
AcDbEntity
  8
BEZUGSACHSEN
100
AcDbLine
 62
7
  6
CONTINUOUS
 10
103.3429044783
 20
420.5247391872
 11
104.5165129611
 21
420.5247391872
  0
LINE
  5
374
100
AcDbEntity
  8
BEZUGSACHSEN
100
AcDbLine
 62
7
  6
CONTINUOUS
 10
316.1692959954
 20
420.5247391872
 11
317.3429044783
 21
420.5247391872
  0
LINE
  5
375
100
AcDbEntity
  8
0
100
AcDbLine
 62
7
  6
CONTINUOUS
 10
155.582905432
 20
418.7894200687
 11
154.3329044783
 21
419.0447391872
  0
LINE
  5
376
100
AcDbEntity
  8
0
100
AcDbLine
 62
7
  6
CONTINUOUS
 10
263.8524104334
 20
320.8249612826
 11
264.4507346369
 21
319.6028336618
  0
LINE
  5
377
100
AcDbEntity
  8
0
100
AcDbLine
 62
7
  6
CONTINUOUS
 10
259.0657346369
 20
323.5747484029
 11
258.4674104334
 21
325.1024082232
  0
LINE
  5
378
100
AcDbEntity
  8
0
100
AcDbLine
 62
7
  6
CONTINUOUS
 10
257.2707346369
 20
324.1858125878
 11
257.5699104334
 21
323.2692165244
  0
LINE
  5
379
100
AcDbEntity
  8
0
100
AcDbLine
 62
7
  6
CONTINUOUS
 10
234.2349104334
 20
322.9636846459
 11
233.9357346369
 21
324.1858125878
  0
LINE
  5
37A
100
AcDbEntity
  8
0
100
AcDbLine
 62
7
  6
CONTINUOUS
 10
233.9357346369
 20
329.3798553777
 11
233.6365725352
 21
330.6019828916
  0
LINE
  5
37B
100
AcDbEntity
  8
0
100
AcDbLine
 62
7
  6
CONTINUOUS
 10
231.2716194987
 20
396.5091247074
 11
231.2716194987
 21
401.7080389671
  0
LINE
  5
37C
100
AcDbEntity
  8
0
100
AcDbLine
 62
7
  6
CONTINUOUS
 10
231.2716194987
 20
403.7419832162
 11
231.2716194987
 21
406.4887583665
  0
LINE
  5
37D
100
AcDbEntity
  8
0
100
AcDbLine
 62
7
  6
CONTINUOUS
 10
232.4399104334
 20
329.3798553777
 11
232.4399104334
 21
328.7687907648
  0
LINE
  5
37E
100
AcDbEntity
  8
0
100
AcDbLine
 62
7
  6
CONTINUOUS
 10
232.7390725352
 20
322.9636846459
 11
232.7390725352
 21
321.741557132
  0
LINE
  5
37F
100
AcDbEntity
  8
0
100
AcDbLine
 62
7
  6
CONTINUOUS
 10
232.9634072184
 20
393.3156421091
 11
232.9634072184
 21
395.3590908758
  0
LINE
  5
380
100
AcDbEntity
  8
0
100
AcDbLine
 62
7
  6
CONTINUOUS
 10
232.9634072184
 20
401.7080389671
 11
232.9634072184
 21
403.7419832162
  0
LINE
  5
381
100
AcDbEntity
  8
0
100
AcDbLine
 62
7
  6
CONTINUOUS
 10
233.9357346369
 20
328.7687907648
 11
233.9357346369
 21
329.3798553777
  0
LINE
  5
382
100
AcDbEntity
  8
0
100
AcDbLine
 62
7
  6
CONTINUOUS
 10
234.2349104334
 20
321.741557132
 11
234.2349104334
 21
322.9636846459
  0
LINE
  5
383
100
AcDbEntity
  8
0
100
AcDbLine
 62
7
  6
CONTINUOUS
 10
236.6282346369
 20
330.6019828916
 11
236.6282346369
 21
328.1577270079
  0
LINE
  5
384
100
AcDbEntity
  8
0
100
AcDbLine
 62
7
  6
CONTINUOUS
 10
238.4232346369
 20
330.2964510131
 11
238.4232346369
 21
318.3807060409
  0
LINE
  5
385
100
AcDbEntity
  8
0
100
AcDbLine
 62
7
  6
CONTINUOUS
 10
240.2182346369
 20
318.3807060409
 11
240.2182346369
 21
332.7407060409
  0
LINE
  5
386
100
AcDbEntity
  8
0
100
AcDbLine
 62
7
  6
CONTINUOUS
 10
248.2957346369
 20
332.7407060409
 11
248.2957346369
 21
324.7968763447
  0
LINE
  5
387
100
AcDbEntity
  8
0
100
AcDbLine
 62
7
  6
CONTINUOUS
 10
224.0632414843
 20
330.6019828916
 11
223.7640725352
 21
329.3798553777
  0
LINE
  5
388
100
AcDbEntity
  8
0
100
AcDbLine
 62
7
  6
CONTINUOUS
 10
199.8307414843
 20
325.7134719801
 11
194.744903586
 21
318.3807060409
  0
LINE
  5
389
100
AcDbEntity
  8
0
100
AcDbLine
 62
7
  6
CONTINUOUS
 10
204.9165725352
 20
332.7407060409
 11
200.7282414843
 21
326.935599494
  0
LINE
  5
38A
100
AcDbEntity
  8
0
100
AcDbLine
 62
7
  6
CONTINUOUS
 10
166.9224070097
 20
319.2973017833
 11
168.1190725352
 21
320.5194294042
  0
LINE
  5
38B
100
AcDbEntity
  8
0
100
AcDbLine
 62
7
  6
CONTINUOUS
 10
151.9640725352
 20
318.6862379461
 11
153.1607380606
 21
319.6028336618
  0
LINE
  5
38C
100
AcDbEntity
  8
0
100
AcDbLine
 62
7
  6
CONTINUOUS
 10
159.4432380606
 20
329.9909191346
 11
160.3407380606
 21
330.6019828916
  0
LINE
  5
38D
100
AcDbEntity
  8
0
100
AcDbLine
 62
7
  6
CONTINUOUS
 10
138.2024052979
 20
325.4079401017
 11
139.3990725352
 21
326.0190038586
  0
LINE
  5
38E
100
AcDbEntity
  8
0
100
AcDbLine
 62
7
  6
CONTINUOUS
 10
143.3329049551
 20
408.8319731955
 11
142.3329044783
 21
408.576654077
  0
LINE
  5
38F
100
AcDbEntity
  8
0
100
AcDbLine
 62
7
  6
CONTINUOUS
 10
265.6474104334
 20
320.5194294042
 11
265.3482346369
 21
321.4360252536
  0
LINE
  5
390
100
AcDbEntity
  8
0
100
AcDbLine
 62
7
  6
CONTINUOUS
 10
249.7915725352
 20
326.3245357371
 11
249.7915725352
 21
331.2130466485
  0
LINE
  5
391
100
AcDbEntity
  8
0
100
AcDbLine
 62
7
  6
CONTINUOUS
 10
251.3070060934
 20
398.0247391872
 11
251.3070060934
 21
419.2779812524
  0
LINE
  5
392
100
AcDbEntity
  8
0
100
AcDbLine
 62
7
  6
CONTINUOUS
 10
257.5699104334
 20
323.2692165244
 11
257.5699104334
 21
322.6581527674
  0
LINE
  5
393
100
AcDbEntity
  8
0
100
AcDbLine
 62
7
  6
CONTINUOUS
 10
258.4674104334
 20
331.2130466485
 11
258.4674104334
 21
332.7407060409
  0
LINE
  5
394
100
AcDbEntity
  8
0
100
AcDbLine
 62
7
  6
CONTINUOUS
 10
259.0657346369
 20
322.352620889
 11
259.0657346369
 21
323.5747484029
  0
LINE
  5
395
100
AcDbEntity
  8
0
100
AcDbLine
 62
7
  6
CONTINUOUS
 10
261.4590725352
 20
328.1577270079
 11
261.4590725352
 21
326.935599494
  0
LINE
  5
396
100
AcDbEntity
  8
0
100
AcDbLine
 62
7
  6
CONTINUOUS
 10
263.8524104334
 20
330.6019828916
 11
263.8524104334
 21
328.1577270079
  0
LINE
  5
397
100
AcDbEntity
  8
0
100
AcDbLine
 62
7
  6
CONTINUOUS
 10
263.8524104334
 20
326.935599494
 11
263.8524104334
 21
320.8249612826
  0
LINE
  5
398
100
AcDbEntity
  8
0
100
AcDbLine
 62
7
  6
CONTINUOUS
 10
265.3482346369
 20
321.4360252536
 11
265.3482346369
 21
326.935599494
  0
LINE
  5
399
100
AcDbEntity
  8
0
100
AcDbLine
 62
7
  6
CONTINUOUS
 10
265.3482346369
 20
328.1577270079
 11
265.3482346369
 21
330.6019828916
  0
LINE
  5
39A
100
AcDbEntity
  8
0
100
AcDbLine
 62
7
  6
CONTINUOUS
 10
233.6365725352
 20
327.5466632509
 11
233.9357346369
 21
328.7687907648
  0
LINE
  5
39B
100
AcDbEntity
  8
0
100
AcDbLine
 62
7
  6
CONTINUOUS
 10
233.9357346369
 20
320.8249612826
 11
234.2349104334
 21
321.741557132
  0
LINE
  5
39C
100
AcDbEntity
  8
0
100
AcDbLine
 62
7
  6
CONTINUOUS
 10
232.4399104334
 20
328.7687907648
 11
231.8415725352
 21
327.5466632509
  0
LINE
  5
39D
100
AcDbEntity
  8
0
100
AcDbLine
 62
7
  6
CONTINUOUS
 10
232.7390725352
 20
321.741557132
 11
232.4399104334
 21
321.1304933751
  0
LINE
  5
39E
100
AcDbEntity
  8
0
100
AcDbLine
 62
7
  6
CONTINUOUS
 10
225.259903586
 20
329.3798553777
 11
225.8582414843
 21
330.2964510131
  0
LINE
  5
39F
100
AcDbEntity
  8
0
100
AcDbLine
 62
7
  6
CONTINUOUS
 10
196.539903586
 20
318.3807060409
 11
200.7282414843
 21
324.1858125878
  0
LINE
  5
3A0
100
AcDbEntity
  8
0
100
AcDbLine
 62
7
  6
CONTINUOUS
 10
201.6257414843
 20
325.7134719801
 11
206.7115725352
 21
332.7407060409
  0
LINE
  5
3A1
100
AcDbEntity
  8
0
100
AcDbLine
 62
7
  6
CONTINUOUS
 10
166.3240725352
 20
321.1304933751
 11
165.4265725352
 21
320.5194294042
  0
LINE
  5
3A2
100
AcDbEntity
  8
0
100
AcDbLine
 62
7
  6
CONTINUOUS
 10
160.0415725352
 20
332.4351741624
 11
158.8449070097
 21
331.8241104055
  0
LINE
  5
3A3
100
AcDbEntity
  8
0
100
AcDbLine
 62
7
  6
CONTINUOUS
 10
152.5624070097
 20
325.7134719801
 11
153.1607380606
 21
326.0190038586
  0
LINE
  5
3A4
100
AcDbEntity
  8
0
100
AcDbLine
 62
7
  6
CONTINUOUS
 10
165.7257380606
 20
318.6862379461
 11
166.9224070097
 21
319.2973017833
  0
LINE
  5
3A5
100
AcDbEntity
  8
0
100
AcDbLine
 62
7
  6
CONTINUOUS
 10
137.9032397724
 20
326.935599494
 11
137.0057397724
 21
326.6300676155
  0
LINE
  5
3A6
100
AcDbEntity
  8
0
100
AcDbLine
 62
7
  6
CONTINUOUS
 10
151.6649070097
 20
326.935599494
 11
150.7674070097
 21
326.6300676155
  0
LINE
  5
3A7
100
AcDbEntity
  8
0
100
AcDbLine
 62
7
  6
CONTINUOUS
 10
102.8716177252
 20
447.5247391872
 11
37.3429044783
 21
447.5247391872
  0
LINE
  5
3A8
100
AcDbEntity
  8
0
100
AcDbLine
 62
7
  6
CONTINUOUS
 10
317.8141912313
 20
447.5247391872
 11
383.3429044783
 21
447.5247391872
  0
LINE
  5
3A9
100
AcDbEntity
  8
0
100
AcDbLine
 62
7
  6
CONTINUOUS
 10
268.0407346369
 20
318.3807060409
 11
268.0407346369
 21
319.6028336618
  0
LINE
  5
3AA
100
AcDbEntity
  8
0
100
AcDbLine
 62
7
  6
CONTINUOUS
 10
268.6390725352
 20
326.935599494
 11
268.6390725352
 21
328.1577270079
  0
LINE
  5
3AB
100
AcDbEntity
  8
KONSTRUKTIONSELEMENTE
100
AcDbLine
 62
7
  6
CONTINUOUS
 10
270.3429044783
 20
220.5247391872
 11
270.3429044783
 21
263.5247391872
  0
LINE
  5
3AC
100
AcDbEntity
  8
TEIL_STARTBEZUEGE
100
AcDbLine
 62
7
  6
CENTER
 10
285.3429044783
 20
214.5247391872
 11
285.3429044783
 21
350.5247391872
  0
LINE
  5
3AD
100
AcDbEntity
  8
0
100
AcDbLine
 62
7
  6
CONTINUOUS
 10
257.5699104334
 20
322.6581527674
 11
257.2707346369
 21
321.741557132
  0
LINE
  5
3AE
100
AcDbEntity
  8
0
100
AcDbLine
 62
7
  6
CONTINUOUS
 10
258.4674104334
 20
320.8249612826
 11
259.0657346369
 21
322.352620889
  0
LINE
  5
3AF
100
AcDbEntity
  8
0
100
AcDbLine
 62
7
  6
CONTINUOUS
 10
244.4065725352
 20
319.9083656472
 11
242.6115725352
 21
316.5475145561
  0
LINE
  5
3B0
100
AcDbEntity
  8
0
100
AcDbLine
 62
7
  6
CONTINUOUS
 10
244.1074104334
 20
316.5475145561
 11
245.9024104334
 21
319.9083656472
  0
LINE
  5
3B1
100
AcDbEntity
  8
0
100
AcDbLine
 62
7
  6
CONTINUOUS
 10
233.0382346369
 20
326.6300676155
 11
233.6365725352
 21
327.5466632509
  0
LINE
  5
3B2
100
AcDbEntity
  8
0
100
AcDbLine
 62
7
  6
CONTINUOUS
 10
233.3374104334
 20
319.9083656472
 11
233.9357346369
 21
320.8249612826
  0
LINE
  5
3B3
100
AcDbEntity
  8
0
100
AcDbLine
 62
7
  6
CONTINUOUS
 10
238.4232346369
 20
332.7407060409
 11
236.6282346369
 21
330.6019828916
  0
LINE
  5
3B4
100
AcDbEntity
  8
0
100
AcDbLine
 62
7
  6
CONTINUOUS
 10
236.6282346369
 20
328.1577270079
 11
238.4232346369
 21
330.2964510131
  0
LINE
  5
3B5
100
AcDbEntity
  8
0
100
AcDbLine
 62
7
  6
CONTINUOUS
 10
225.259903586
 20
331.8241104055
 11
224.0632414843
 21
330.6019828916
  0
LINE
  5
3B6
100
AcDbEntity
  8
0
100
AcDbLine
 62
7
  6
CONTINUOUS
 10
231.8415725352
 20
327.5466632509
 11
231.2432346369
 21
326.935599494
  0
LINE
  5
3B7
100
AcDbEntity
  8
0
100
AcDbLine
 62
7
  6
CONTINUOUS
 10
232.4399104334
 20
321.1304933751
 11
231.8415725352
 21
320.5194294042
  0
LINE
  5
3B8
100
AcDbEntity
  8
0
100
AcDbLine
 62
7
  6
CONTINUOUS
 10
231.8415725352
 20
325.7134719801
 11
233.0382346369
 21
326.6300676155
  0
LINE
  5
3B9
100
AcDbEntity
  8
0
100
AcDbLine
 62
7
  6
CONTINUOUS
 10
225.8582414843
 20
330.2964510131
 11
226.7557414843
 21
330.9075147701
  0
LINE
  5
3BA
100
AcDbEntity
  8
0
100
AcDbLine
 62
7
  6
CONTINUOUS
 10
226.4565725352
 20
332.4351741624
 11
225.259903586
 21
331.8241104055
  0
LINE
  5
3BB
100
AcDbEntity
  8
0
100
AcDbLine
 62
7
  6
CONTINUOUS
 10
151.6649070097
 20
320.5194294042
 11
150.7674070097
 21
320.2138975257
  0
LINE
  5
3BC
100
AcDbEntity
  8
KONSTRUKTIONSELEMENTE
100
AcDbLine
 62
7
  6
CONTINUOUS
 10
300.3429044783
 20
220.5247391872
 11
300.3429044783
 21
263.5247391872
  0
LINE
  5
3BD
100
AcDbEntity
  8
0
100
AcDbLine
 62
7
  6
CONTINUOUS
 10
257.2707346369
 20
321.741557132
 11
256.6724104334
 21
320.8249612826
  0
LINE
  5
3BE
100
AcDbEntity
  8
0
100
AcDbLine
 62
7
  6
CONTINUOUS
 10
257.5699104334
 20
319.6028336618
 11
258.4674104334
 21
320.8249612826
  0
LINE
  5
3BF
100
AcDbEntity
  8
KONSTRUKTIONSELEMENTE
100
AcDbLine
 62
7
  6
CONTINUOUS
 10
147.3429044783
 20
217.5247391872
 11
150.3429044783
 21
220.5247391872
  0
LINE
  5
3C0
100
AcDbEntity
  8
0
100
AcDbLine
 62
7
  6
CONTINUOUS
 10
250.3899104334
 20
324.7968763447
 11
251.5865725352
 21
325.7134719801
  0
LINE
  5
3C1
100
AcDbEntity
  8
0
100
AcDbLine
 62
7
  6
CONTINUOUS
 10
232.4399104334
 20
319.2973017833
 11
233.3374104334
 21
319.9083656472
  0
LINE
  5
3C2
100
AcDbEntity
  8
0
100
AcDbLine
 62
7
  6
CONTINUOUS
 10
251.2874104334
 20
327.2411313725
 11
249.7915725352
 21
326.3245357371
  0
LINE
  5
3C3
100
AcDbEntity
  8
0
100
AcDbLine
 62
7
  6
CONTINUOUS
 10
231.8415725352
 20
320.5194294042
 11
231.2432346369
 21
320.2138975257
  0
LINE
  5
3C4
100
AcDbEntity
  8
0
100
AcDbLine
 62
7
  6
CONTINUOUS
 10
231.2432346369
 20
318.6862379461
 11
232.4399104334
 21
319.2973017833
  0
LINE
  5
3C5
100
AcDbEntity
  8
0
100
AcDbLine
 62
7
  6
CONTINUOUS
 10
231.2432346369
 20
326.935599494
 11
229.4482414843
 21
326.3245357371
  0
LINE
  5
3C6
100
AcDbEntity
  8
BEZUGSACHSEN
100
AcDbLine
 62
7
  6
CONTINUOUS
 10
317.7967361664
 20
348.5247391872
 11
317.3429044783
 21
374.5247391872
  0
LINE
  5
3C7
100
AcDbEntity
  8
BEZUGSACHSEN
100
AcDbLine
 62
7
  6
CONTINUOUS
 10
317.3429044783
 20
374.5247391872
 11
317.3429044783
 21
420.5247391872
  0
LINE
  5
3C8
100
AcDbEntity
  8
BEZUGSACHSEN
100
AcDbLine
 62
7
  6
CONTINUOUS
 10
317.8141912313
 20
447.5247391872
 11
317.3429044783
 21
420.5247391872
  0
LINE
  5
3C9
100
AcDbEntity
  8
RUNDUNGEN
100
AcDbLine
 62
7
  6
CONTINUOUS
 10
311.1649961629
 20
425.7458679098
 11
317.1305296958
 21
482.5041281061
  0
LINE
  5
3CA
100
AcDbEntity
  8
0
100
AcDbLine
 62
7
  6
CONTINUOUS
 10
256.6724104334
 20
320.8249612826
 11
255.7749104334
 21
320.2138975257
  0
LINE
  5
3CB
100
AcDbEntity
  8
0
100
AcDbLine
 62
7
  6
CONTINUOUS
 10
256.0740725352
 20
318.6862379461
 11
257.5699104334
 21
319.6028336618
  0
LINE
  5
3CC
100
AcDbEntity
  8
RUNDUNGEN
100
AcDbLine
 62
7
  6
CONTINUOUS
 10
311.6518493999
 20
420.1473705818
 11
311.2075053462
 21
423.3090428079
  0
LINE
  5
3CD
100
AcDbEntity
  8
BEZUGSACHSEN
100
AcDbLine
 62
7
  6
CONTINUOUS
 10
311.6175580718
 20
420.3913660601
 11
311.2075342365
 21
423.3088372433
  0
LINE
  5
3CE
100
AcDbEntity
  8
BEZUGSACHSEN
100
AcDbLine
 62
7
  6
CONTINUOUS
 10
323.217215398
 20
375.1947391872
 11
323.217215398
 21
348.5247391872
  0
LINE
  5
3CF
100
AcDbEntity
  8
RUNDUNGEN
100
AcDbLine
 62
7
  6
CONTINUOUS
 10
316.565390793
 20
486.4018232712
 11
287.2714314075
 21
557.1236973152
  0
LINE
  5
3D0
100
AcDbEntity
  8
KONSTRUKTIONSELEMENTE
100
AcDbLine
 62
7
  6
CONTINUOUS
 10
222.3429044783
 20
217.5247391872
 11
225.3429044783
 21
220.5247391872
  0
LINE
  5
3D1
100
AcDbEntity
  8
0
100
AcDbLine
 62
7
  6
CONTINUOUS
 10
393.3429044783
 20
437.5244629069
 11
393.3429044783
 21
426.9235219564
  0
LINE
  5
3D2
100
AcDbEntity
  8
RUNDUNGEN
100
AcDbLine
 62
7
  6
CONTINUOUS
 10
393.3429044783
 20
426.9235219564
 11
393.3429044783
 21
348.5247391872
  0
LINE
  5
3D3
100
AcDbEntity
  8
RUNDUNGEN
100
AcDbLine
 62
7
  6
CONTINUOUS
 10
282.9418626063
 20
561.4532661164
 11
213.4043719372
 21
590.2566378449
  0
LINE
  5
3D4
100
AcDbEntity
  8
KONSTRUKTIONSELEMENTE
100
AcDbLine
 62
7
  6
CONTINUOUS
 10
410.3429044783
 20
263.5247391872
 11
410.3429044783
 21
348.5247391872
  0
LINE
  5
3D5
100
AcDbEntity
  8
KONSTRUKTIONSELEMENTE
100
AcDbLine
 62
7
  6
CONTINUOUS
 10
297.3429044783
 20
217.5247391872
 11
300.3429044783
 21
220.5247391872
  0
LINE
  5
3D6
100
AcDbEntity
  8
KONSTRUKTIONSELEMENTE
100
AcDbLine
 62
7
  6
CONTINUOUS
 10
514.4499656024
 20
217.5247391872
 11
538.4499656024
 21
217.5247391872
  0
LINE
  5
3D7
100
AcDbEntity
  8
KONSTRUKTIONSELEMENTE
100
AcDbLine
 62
7
  6
CONTINUOUS
 10
634.4499656024
 20
217.5247391872
 11
658.4499656024
 21
217.5247391872
  0
LINE
  5
3D8
100
AcDbEntity
  8
KONSTRUKTIONSELEMENTE
100
AcDbLine
 62
7
  6
CONTINUOUS
 10
511.4499656024
 20
220.5247391872
 11
541.4499656024
 21
220.5247391872
  0
LINE
  5
3D9
100
AcDbEntity
  8
KONSTRUKTIONSELEMENTE
100
AcDbLine
 62
7
  6
CONTINUOUS
 10
631.4499656024
 20
220.5247391872
 11
661.4499656024
 21
220.5247391872
  0
LINE
  5
3DA
100
AcDbEntity
  8
KONSTRUKTIONSELEMENTE
100
AcDbLine
 62
7
  6
CONTINUOUS
 10
514.4499656024
 20
217.5247391872
 11
511.4499656024
 21
220.5247391872
  0
LINE
  5
3DB
100
AcDbEntity
  8
KONSTRUKTIONSELEMENTE
100
AcDbLine
 62
7
  6
CONTINUOUS
 10
496.4499656024
 20
263.5247391872
 11
676.4499656024
 21
263.5247391872
  0
LINE
  5
3DC
100
AcDbEntity
  8
KONSTRUKTIONSELEMENTE
100
AcDbLine
 62
7
  6
CONTINUOUS
 10
634.4499656024
 20
217.5247391872
 11
631.4499656024
 21
220.5247391872
  0
LINE
  5
3DD
100
AcDbEntity
  8
KONSTRUKTIONSELEMENTE
100
AcDbLine
 62
7
  6
CONTINUOUS
 10
496.4499656024
 20
263.5247391872
 11
496.4499656024
 21
348.5247391872
  0
LINE
  5
3DE
100
AcDbEntity
  8
RUNDUNGEN
100
AcDbLine
 62
7
  6
CONTINUOUS
 10
506.4499656024
 20
375.1947391872
 11
506.4499656024
 21
348.5247391872
  0
LINE
  5
3DF
100
AcDbEntity
  8
KONSTRUKTIONSELEMENTE
100
AcDbLine
 62
7
  6
CONTINUOUS
 10
511.4499656024
 20
263.5247391872
 11
511.4499656024
 21
220.5247391872
  0
LINE
  5
3E0
100
AcDbEntity
  8
TEIL_STARTBEZUEGE
100
AcDbLine
 62
7
  6
CENTER
 10
526.4499656024
 20
214.5247391872
 11
526.4499656024
 21
350.5247391872
  0
LINE
  5
3E1
100
AcDbEntity
  8
KONSTRUKTIONSELEMENTE
100
AcDbLine
 62
7
  6
CONTINUOUS
 10
496.4499656024
 20
348.5247391872
 11
676.4499656024
 21
348.5247391872
  0
LINE
  5
3E2
100
AcDbEntity
  8
KONSTRUKTIONSELEMENTE
100
AcDbLine
 62
7
  6
CONTINUOUS
 10
541.4499656024
 20
263.5247391872
 11
541.4499656024
 21
220.5247391872
  0
LINE
  5
3E3
100
AcDbEntity
  8
BEZUGSACHSEN
100
AcDbLine
 62
7
  6
CONTINUOUS
 10
565.4499656024
 20
582.8656015848
 11
565.4499656024
 21
443.4320958111
  0
LINE
  5
3E4
100
AcDbEntity
  8
RUNDUNGEN
100
AcDbLine
 62
7
  6
CONTINUOUS
 10
607.4499656024
 20
582.8656015848
 11
607.4499656024
 21
443.4320958111
  0
LINE
  5
3E5
100
AcDbEntity
  8
KONSTRUKTIONSELEMENTE
100
AcDbLine
 62
7
  6
CONTINUOUS
 10
631.4499656024
 20
263.5247391872
 11
631.4499656024
 21
220.5247391872
  0
LINE
  5
3E6
100
AcDbEntity
  8
TEIL_STARTBEZUEGE
100
AcDbLine
 62
7
  6
CENTER
 10
646.4499656024
 20
214.5247391872
 11
646.4499656024
 21
350.5247391872
  0
LINE
  5
3E7
100
AcDbEntity
  8
KONSTRUKTIONSELEMENTE
100
AcDbLine
 62
7
  6
CONTINUOUS
 10
661.4499656024
 20
263.5247391872
 11
661.4499656024
 21
220.5247391872
  0
LINE
  5
3E8
100
AcDbEntity
  8
0
100
AcDbLine
 62
7
  6
CONTINUOUS
 10
666.4499656024
 20
375.1947391872
 11
666.4499656024
 21
348.5247391872
  0
LINE
  5
3E9
100
AcDbEntity
  8
KONSTRUKTIONSELEMENTE
100
AcDbLine
 62
7
  6
CONTINUOUS
 10
676.4499656024
 20
263.5247391872
 11
676.4499656024
 21
348.5247391872
  0
LINE
  5
3EA
100
AcDbEntity
  8
KONSTRUKTIONSELEMENTE
100
AcDbLine
 62
7
  6
CONTINUOUS
 10
541.4499656024
 20
220.5247391872
 11
538.4499656024
 21
217.5247391872
  0
LINE
  5
3EB
100
AcDbEntity
  8
KONSTRUKTIONSELEMENTE
100
AcDbLine
 62
7
  6
CONTINUOUS
 10
661.4499656024
 20
220.5247391872
 11
658.4499656024
 21
217.5247391872
  0
LINE
  5
3EC
100
AcDbEntity
  8
BEZUGSACHSEN
100
AcDbLine
 62
7
  6
CONTINUOUS
 10
573.4499656024
 20
590.8656015848
 11
599.4499656024
 21
590.8656015848
  0
LINE
  5
3ED
100
AcDbEntity
  8
KONSTRUKTIONSELEMENTE
100
AcDbLine
 62
7
  6
CONTINUOUS
 10
10.3429044783
 20
195.03
 11
10.3429044783
 21
15.03
  0
LINE
  5
3EE
100
AcDbEntity
  8
0
100
AcDbLine
 62
7
  6
CONTINUOUS
 10
27.3429044783
 20
35.03
 11
27.3429044783
 21
134.405605159
  0
LINE
  5
3EF
100
AcDbEntity
  8
RUNDUNGEN
100
AcDbLine
 62
7
  6
CONTINUOUS
 10
27.3429044783
 20
134.405605159
 11
27.3429044783
 21
175.03
  0
LINE
  5
3F0
100
AcDbEntity
  8
BEZUGSACHSEN
100
AcDbLine
 62
7
  6
CONTINUOUS
 10
102.8826788014
 20
154.3963113694
 11
103.3429044783
 21
128.03
  0
LINE
  5
3F1
100
AcDbEntity
  8
BEZUGSACHSEN
100
AcDbLine
 62
7
  6
CONTINUOUS
 10
103.3429044783
 20
82.03
 11
103.3429044783
 21
128.03
  0
LINE
  5
3F2
100
AcDbEntity
  8
BEZUGSACHSEN
100
AcDbLine
 62
7
  6
CONTINUOUS
 10
103.5114544237
 20
118.03
 11
103.5114544237
 21
92.03
  0
LINE
  5
3F3
100
AcDbEntity
  8
BEZUGSACHSEN
100
AcDbLine
 62
7
  6
CONTINUOUS
 10
102.8826774734
 20
55.6636125509
 11
103.3429044783
 21
82.03
  0
LINE
  5
3F4
100
AcDbEntity
  8
KONSTRUKTIONSELEMENTE
100
AcDbLine
 62
7
  6
CONTINUOUS
 10
128.9920515172
 20
176.03
 11
122.6411985561
 21
165.03
  0
LINE
  5
3F5
100
AcDbEntity
  8
KONSTRUKTIONSELEMENTE
100
AcDbLine
 62
7
  6
CONTINUOUS
 10
122.6411985561
 20
45.03
 11
128.9920515172
 21
34.03
  0
LINE
  5
3F6
100
AcDbEntity
  8
BEZUGSACHSEN
100
AcDbLine
 62
7
  6
CONTINUOUS
 10
97.4685935586
 20
25.03
 11
102.8840420645
 21
55.7425346568
  0
LINE
  5
3F7
100
AcDbEntity
  8
KONSTRUKTIONSELEMENTE
100
AcDbLine
 62
7
  6
CONTINUOUS
 10
10.3429044783
 20
15.03
 11
410.3429044783
 21
15.03
  0
LINE
  5
3F8
100
AcDbEntity
  8
BEZUGSACHSEN
100
AcDbLine
 62
7
  6
CONTINUOUS
 10
102.8840421024
 20
154.3174651285
 11
97.4685935586
 21
185.03
  0
LINE
  5
3F9
100
AcDbEntity
  8
0
100
AcDbLine
 62
7
  6
CONTINUOUS
 10
125.8329044783
 20
81.53
 11
125.8329044783
 21
81.03
  0
LINE
  5
3FA
100
AcDbEntity
  8
0
100
AcDbLine
 62
7
  6
CONTINUOUS
 10
131.8329044783
 20
81.53
 11
131.8329044783
 21
81.03
  0
LINE
  5
3FB
100
AcDbEntity
  8
0
100
AcDbLine
 62
7
  6
CONTINUOUS
 10
133.0829047167
 20
81.53
 11
133.0829047167
 21
81.03
  0
LINE
  5
3FC
100
AcDbEntity
  8
0
100
AcDbLine
 62
7
  6
CONTINUOUS
 10
133.6929044783
 20
128.53
 11
133.6929044783
 21
129.03
  0
LINE
  5
3FD
100
AcDbEntity
  8
0
100
AcDbLine
 62
7
  6
CONTINUOUS
 10
134.0829044783
 20
81.53
 11
134.0829044783
 21
81.03
  0
LINE
  5
3FE
100
AcDbEntity
  8
0
100
AcDbLine
 62
7
  6
CONTINUOUS
 10
134.8329044783
 20
81.53
 11
134.8329044783
 21
81.03
  0
LINE
  5
3FF
100
AcDbEntity
  8
0
100
AcDbLine
 62
7
  6
CONTINUOUS
 10
135.0829042399
 20
81.53
 11
135.0829042399
 21
81.03
  0
LINE
  5
400
100
AcDbEntity
  8
0
100
AcDbLine
 62
7
  6
CONTINUOUS
 10
135.3329047167
 20
81.53
 11
135.3329047167
 21
81.03
  0
LINE
  5
401
100
AcDbEntity
  8
BEZUGSACHSEN
100
AcDbLine
 62
7
  6
CENTER
 10
135.3429044783
 20
165.03
 11
135.3429044783
 21
156.03
  0
LINE
  5
402
100
AcDbEntity
  8
BEZUGSACHSEN
100
AcDbLine
 62
7
  6
CENTER
 10
135.3429044783
 20
45.03
 11
135.3429044783
 21
36.03
  0
LINE
  5
403
100
AcDbEntity
  8
BEZUGSACHSEN
100
AcDbLine
 62
7
  6
CENTER
 10
135.3429044783
 20
45.03
 11
135.3429044783
 21
54.03
  0
LINE
  5
404
100
AcDbEntity
  8
BEZUGSACHSEN
100
AcDbLine
 62
7
  6
CENTER
 10
135.3429044783
 20
165.03
 11
135.3429044783
 21
174.03
  0
LINE
  5
405
100
AcDbEntity
  8
0
100
AcDbLine
 62
7
  6
CONTINUOUS
 10
137.3329042399
 20
81.53
 11
137.3329042399
 21
81.03
  0
LINE
  5
406
100
AcDbEntity
  8
0
100
AcDbLine
 62
7
  6
CONTINUOUS
 10
138.8329049551
 20
81.53
 11
138.8329049551
 21
81.03
  0
LINE
  5
407
100
AcDbEntity
  8
0
100
AcDbLine
 62
7
  6
CONTINUOUS
 10
139.0829040014
 20
81.53
 11
139.0829040014
 21
81.03
  0
LINE
  5
408
100
AcDbEntity
  8
KONSTRUKTIONSELEMENTE
100
AcDbLine
 62
7
  6
CONTINUOUS
 10
141.6937574394
 20
154.03
 11
148.0446104005
 21
165.03
  0
LINE
  5
409
100
AcDbEntity
  8
0
100
AcDbLine
 62
7
  6
CONTINUOUS
 10
97.4685935586
 20
25.03
 11
37.3429044783
 21
25.03
  0
LINE
  5
40A
100
AcDbEntity
  8
RUNDUNGEN
100
AcDbLine
 62
7
  6
CONTINUOUS
 10
323.217215398
 20
25.03
 11
383.3429044783
 21
25.03
  0
LINE
  5
40B
100
AcDbEntity
  8
KONSTRUKTIONSELEMENTE
100
AcDbLine
 62
7
  6
CONTINUOUS
 10
148.0446104005
 20
45.03
 11
141.6937574394
 21
56.03
  0
LINE
  5
40C
100
AcDbEntity
  8
0
100
AcDbLine
 62
7
  6
CONTINUOUS
 10
139.5829049551
 20
81.53
 11
139.5829049551
 21
81.03
  0
LINE
  5
40D
100
AcDbEntity
  8
0
100
AcDbLine
 62
7
  6
CONTINUOUS
 10
139.9329044783
 20
128.53
 11
139.9329044783
 21
129.03
  0
LINE
  5
40E
100
AcDbEntity
  8
0
100
AcDbLine
 62
7
  6
CONTINUOUS
 10
140.3329049551
 20
81.53
 11
140.3329049551
 21
81.03
  0
LINE
  5
40F
100
AcDbEntity
  8
0
100
AcDbLine
 62
7
  6
CONTINUOUS
 10
141.3329040014
 20
81.53
 11
141.3329040014
 21
81.03
  0
LINE
  5
410
100
AcDbEntity
  8
0
100
AcDbLine
 62
7
  6
CONTINUOUS
 10
142.3329044783
 20
81.53
 11
142.3329044783
 21
81.03
  0
LINE
  5
411
100
AcDbEntity
  8
0
100
AcDbLine
 62
7
  6
CONTINUOUS
 10
143.3329049551
 20
81.53
 11
143.3329049551
 21
81.03
  0
LINE
  5
412
100
AcDbEntity
  8
0
100
AcDbLine
 62
7
  6
CONTINUOUS
 10
143.3429044783
 20
128.53
 11
143.3429044783
 21
129.03
  0
LINE
  5
413
100
AcDbEntity
  8
0
100
AcDbLine
 62
7
  6
CONTINUOUS
 10
144.0829049551
 20
81.53
 11
144.0829049551
 21
81.03
  0
LINE
  5
414
100
AcDbEntity
  8
0
100
AcDbLine
 62
7
  6
CONTINUOUS
 10
144.5829044783
 20
81.53
 11
144.5829044783
 21
81.03
  0
LINE
  5
415
100
AcDbEntity
  8
0
100
AcDbLine
 62
7
  6
CONTINUOUS
 10
144.8329049551
 20
81.53
 11
144.8329049551
 21
81.03
  0
LINE
  5
416
100
AcDbEntity
  8
0
100
AcDbLine
 62
7
  6
CONTINUOUS
 10
146.3329049551
 20
81.53
 11
146.3329049551
 21
81.03
  0
LINE
  5
417
100
AcDbEntity
  8
0
100
AcDbLine
 62
7
  6
CONTINUOUS
 10
148.3329044783
 20
81.53
 11
148.3329044783
 21
81.03
  0
LINE
  5
418
100
AcDbEntity
  8
0
100
AcDbLine
 62
7
  6
CONTINUOUS
 10
149.5829044783
 20
128.53
 11
149.5829044783
 21
129.03
  0
LINE
  5
419
100
AcDbEntity
  8
KONSTRUKTIONSELEMENTE
100
AcDbLine
 62
7
  6
CONTINUOUS
 10
128.9920515172
 20
34.03
 11
141.6937574394
 21
34.03
  0
LINE
  5
41A
100
AcDbEntity
  8
KONSTRUKTIONSELEMENTE
100
AcDbLine
 62
7
  6
CONTINUOUS
 10
203.9920515172
 20
34.03
 11
216.6937574394
 21
34.03
  0
LINE
  5
41B
100
AcDbEntity
  8
KONSTRUKTIONSELEMENTE
100
AcDbLine
 62
7
  6
CONTINUOUS
 10
278.9920515172
 20
34.03
 11
291.6937574394
 21
34.03
  0
LINE
  5
41C
100
AcDbEntity
  8
BEZUGSACHSEN
100
AcDbLine
 62
7
  6
CENTER
 10
285.3429044783
 20
45.03
 11
276.3429044783
 21
45.03
  0
LINE
  5
41D
100
AcDbEntity
  8
BEZUGSACHSEN
100
AcDbLine
 62
7
  6
CENTER
 10
210.3429044783
 20
45.03
 11
201.3429044783
 21
45.03
  0
LINE
  5
41E
100
AcDbEntity
  8
BEZUGSACHSEN
100
AcDbLine
 62
7
  6
CENTER
 10
135.3429044783
 20
45.03
 11
126.3429044783
 21
45.03
  0
LINE
  5
41F
100
AcDbEntity
  8
BEZUGSACHSEN
100
AcDbLine
 62
7
  6
CENTER
 10
135.3429044783
 20
45.03
 11
144.3429044783
 21
45.03
  0
LINE
  5
420
100
AcDbEntity
  8
BEZUGSACHSEN
100
AcDbLine
 62
7
  6
CENTER
 10
210.3429044783
 20
45.03
 11
219.3429044783
 21
45.03
  0
LINE
  5
421
100
AcDbEntity
  8
BEZUGSACHSEN
100
AcDbLine
 62
7
  6
CENTER
 10
285.3429044783
 20
45.03
 11
294.3429044783
 21
45.03
  0
LINE
  5
422
100
AcDbEntity
  8
0
100
AcDbLine
 62
7
  6
CONTINUOUS
 10
154.3329044783
 20
81.53
 11
154.3329044783
 21
81.03
  0
LINE
  5
423
100
AcDbEntity
  8
0
100
AcDbLine
 62
7
  6
CONTINUOUS
 10
155.582905432
 20
81.53
 11
155.582905432
 21
81.03
  0
LINE
  5
424
100
AcDbEntity
  8
0
100
AcDbLine
 62
7
  6
CONTINUOUS
 10
156.5829044783
 20
81.53
 11
156.5829044783
 21
81.03
  0
LINE
  5
425
100
AcDbEntity
  8
0
100
AcDbLine
 62
7
  6
CONTINUOUS
 10
157.5829035246
 20
81.53
 11
157.5829035246
 21
81.03
  0
LINE
  5
426
100
AcDbEntity
  8
0
100
AcDbLine
 62
7
  6
CONTINUOUS
 10
158.0829044783
 20
81.53
 11
158.0829044783
 21
81.03
  0
LINE
  5
427
100
AcDbEntity
  8
0
100
AcDbLine
 62
7
  6
CONTINUOUS
 10
158.3329035246
 20
81.53
 11
158.3329035246
 21
81.03
  0
LINE
  5
428
100
AcDbEntity
  8
KONSTRUKTIONSELEMENTE
100
AcDbLine
 62
7
  6
CONTINUOUS
 10
128.9920515172
 20
56.03
 11
122.6411985561
 21
45.03
  0
LINE
  5
429
100
AcDbEntity
  8
RUNDUNGEN
100
AcDbLine
 62
7
  6
CONTINUOUS
 10
308.7140516247
 20
81.7821758045
 11
309.045722381
 21
81.8710657643
  0
LWPOLYLINE
  5
42A
100
AcDbEntity
  8
RUNDUNGEN
100
AcDbPolyline
 62
7
  6
CONTINUOUS
 90
6
 70
0
 10
309.045722381
 20
81.8710657643
 10
309.3233395648
 20
81.9344487509
 10
309.6041689717
 20
81.981911746
 10
309.8872789167
 20
82.0132905612
 10
310.1717294025
 20
82.0284775122
 10
310.295645853
 20
82.0300152466
  0
LINE
  5
42B
100
AcDbEntity
  8
KONSTRUKTIONSELEMENTE
100
AcDbLine
 62
7
  6
CONTINUOUS
 10
291.6937574394
 20
56.03
 11
278.9920515172
 21
56.03
  0
LINE
  5
42C
100
AcDbEntity
  8
KONSTRUKTIONSELEMENTE
100
AcDbLine
 62
7
  6
CONTINUOUS
 10
216.6937574394
 20
56.03
 11
203.9920515172
 21
56.03
  0
LINE
  5
42D
100
AcDbEntity
  8
KONSTRUKTIONSELEMENTE
100
AcDbLine
 62
7
  6
CONTINUOUS
 10
141.6937574394
 20
56.03
 11
128.9920515172
 21
56.03
  0
LWPOLYLINE
  5
42E
100
AcDbEntity
  8
RUNDUNGEN
100
AcDbPolyline
 62
7
  6
CONTINUOUS
 90
6
 70
0
 10
111.9771303449
 20
81.7808238946
 10
112.4551450394
 20
81.6755451396
 10
112.93897237
 20
81.5984897472
 10
113.4266012099
 20
81.550059151
 10
113.9159810555
 20
81.5304628192
 10
114.0035818543
 20
81.5300018154
  0
LINE
  5
42F
100
AcDbEntity
  8
RUNDUNGEN
100
AcDbLine
 62
7
  6
CONTINUOUS
 10
111.7456580651
 20
81.8425314795
 11
111.9771303449
 21
81.7808238946
  0
LINE
  5
430
100
AcDbEntity
  8
KONSTRUKTIONSELEMENTE
100
AcDbLine
 62
7
  6
CONTINUOUS
 10
122.6411985561
 20
165.03
 11
128.9920515172
 21
154.03
  0
LINE
  5
431
100
AcDbEntity
  8
KONSTRUKTIONSELEMENTE
100
AcDbLine
 62
7
  6
CONTINUOUS
 10
203.9920515172
 20
176.03
 11
197.6411985561
 21
165.03
  0
LINE
  5
432
100
AcDbEntity
  8
KONSTRUKTIONSELEMENTE
100
AcDbLine
 62
7
  6
CONTINUOUS
 10
197.6411985561
 20
45.03
 11
203.9920515172
 21
34.03
  0
LINE
  5
433
100
AcDbEntity
  8
0
100
AcDbLine
 62
7
  6
CONTINUOUS
 10
187.7224012241
 20
83.53
 11
187.7224012241
 21
83.03
  0
LINE
  5
434
100
AcDbEntity
  8
0
100
AcDbLine
 62
7
  6
CONTINUOUS
 10
187.7224017381
 20
126.53
 11
187.7224017381
 21
127.03
  0
LINE
  5
435
100
AcDbEntity
  8
0
100
AcDbLine
 62
7
  6
CONTINUOUS
 10
187.9124894887
 20
83.53
 11
187.9124894887
 21
83.03
  0
LINE
  5
436
100
AcDbEntity
  8
0
100
AcDbLine
 62
7
  6
CONTINUOUS
 10
189.4141894579
 20
126.53
 11
189.4141894579
 21
127.03
  0
LINE
  5
437
100
AcDbEntity
  8
0
100
AcDbLine
 62
7
  6
CONTINUOUS
 10
192.1324492693
 20
126.53
 11
192.1324492693
 21
127.03
  0
LINE
  5
438
100
AcDbEntity
  8
0
100
AcDbLine
 62
7
  6
CONTINUOUS
 10
193.5486065149
 20
126.53
 11
193.5486065149
 21
127.03
  0
LINE
  5
439
100
AcDbEntity
  8
0
100
AcDbLine
 62
7
  6
CONTINUOUS
 10
194.8317033052
 20
126.53
 11
194.8317033052
 21
127.03
  0
LINE
  5
43A
100
AcDbEntity
  8
0
100
AcDbLine
 62
7
  6
CONTINUOUS
 10
195.3639518022
 20
126.53
 11
195.3639518022
 21
127.03
  0
LINE
  5
43B
100
AcDbEntity
  8
0
100
AcDbLine
 62
7
  6
CONTINUOUS
 10
196.6090270877
 20
83.53
 11
196.6090270877
 21
83.03
  0
LINE
  5
43C
100
AcDbEntity
  8
0
100
AcDbLine
 62
7
  6
CONTINUOUS
 10
197.008212626
 20
83.53
 11
197.008212626
 21
83.03
  0
LINE
  5
43D
100
AcDbEntity
  8
KONSTRUKTIONSELEMENTE
100
AcDbLine
 62
7
  6
CONTINUOUS
 10
141.6937574394
 20
34.03
 11
148.0446104005
 21
45.03
  0
LINE
  5
43E
100
AcDbEntity
  8
KONSTRUKTIONSELEMENTE
100
AcDbLine
 62
7
  6
CONTINUOUS
 10
216.6937574394
 20
154.03
 11
223.0446104005
 21
165.03
  0
LWPOLYLINE
  5
43F
100
AcDbEntity
  8
RUNDUNGEN
100
AcDbPolyline
 62
7
  6
CONTINUOUS
 90
6
 70
0
 10
306.6822296347
 20
81.5300018145
 10
306.7975799873
 20
81.5308015992
 10
307.2813570596
 20
81.5516308635
 10
307.7633429654
 20
81.6006389762
 10
308.2415557307
 20
81.6776178424
 10
308.7140516247
 20
81.7821758045
  0
LINE
  5
440
100
AcDbEntity
  8
0
100
AcDbLine
 62
7
  6
CONTINUOUS
 10
158.3329035246
 20
81.03
 11
148.3329044783
 21
81.03
  0
LINE
  5
441
100
AcDbEntity
  8
0
100
AcDbLine
 62
7
  6
CONTINUOUS
 10
146.3329049551
 20
81.03
 11
137.3329042399
 21
81.03
  0
LINE
  5
442
100
AcDbEntity
  8
0
100
AcDbLine
 62
7
  6
CONTINUOUS
 10
135.3329047167
 20
81.03
 11
125.8329044783
 21
81.03
  0
LINE
  5
443
100
AcDbEntity
  8
RUNDUNGEN
100
AcDbLine
 62
7
  6
CONTINUOUS
 10
306.6823403606
 20
81.53
 11
251.3070060934
 21
81.53
  0
LINE
  5
444
100
AcDbEntity
  8
0
100
AcDbLine
 62
7
  6
CONTINUOUS
 10
303.69541658
 20
81.53
 11
251.3070060934
 21
81.53
  0
LINE
  5
445
100
AcDbEntity
  8
0
100
AcDbLine
 62
7
  6
CONTINUOUS
 10
169.3788028631
 20
81.53
 11
116.9903923772
 21
81.53
  0
LINE
  5
446
100
AcDbEntity
  8
RUNDUNGEN
100
AcDbLine
 62
7
  6
CONTINUOUS
 10
169.3788028631
 20
81.53
 11
114.0034685963
 21
81.53
  0
LINE
  5
447
100
AcDbEntity
  8
BEZUGSACHSEN
100
AcDbLine
 62
7
  6
CONTINUOUS
 10
103.3429044783
 20
82.03
 11
110.3914808958
 21
82.03
  0
LINE
  5
448
100
AcDbEntity
  8
BEZUGSACHSEN
100
AcDbLine
 62
7
  6
CONTINUOUS
 10
310.2943278988
 20
82.03
 11
317.3429044783
 21
82.03
  0
LINE
  5
449
100
AcDbEntity
  8
0
100
AcDbLine
 62
7
  6
CONTINUOUS
 10
232.9634072184
 20
83.03
 11
227.1372024417
 21
83.03
  0
LINE
  5
44A
100
AcDbEntity
  8
0
100
AcDbLine
 62
7
  6
CONTINUOUS
 10
225.8541056514
 20
83.03
 11
216.4067198634
 21
83.03
  0
LINE
  5
44B
100
AcDbEntity
  8
0
100
AcDbLine
 62
7
  6
CONTINUOUS
 10
213.888049066
 20
83.03
 11
211.0367254615
 21
83.03
  0
LINE
  5
44C
100
AcDbEntity
  8
0
100
AcDbLine
 62
7
  6
CONTINUOUS
 10
205.6762372851
 20
83.03
 11
199.8500316739
 21
83.03
  0
LINE
  5
44D
100
AcDbEntity
  8
0
100
AcDbLine
 62
7
  6
CONTINUOUS
 10
197.008212626
 20
83.03
 11
187.7224012241
 21
83.03
  0
LINE
  5
44E
100
AcDbEntity
  8
RUNDUNGEN
100
AcDbLine
 62
7
  6
CONTINUOUS
 10
174.1826504404
 20
83.53
 11
179.9768002851
 21
83.53
  0
LINE
  5
44F
100
AcDbEntity
  8
0
100
AcDbLine
 62
7
  6
CONTINUOUS
 10
179.9768002851
 20
83.53
 11
240.709008501
 21
83.53
  0
LINE
  5
450
100
AcDbEntity
  8
RUNDUNGEN
100
AcDbLine
 62
7
  6
CONTINUOUS
 10
240.709008501
 20
83.53
 11
246.5031585161
 21
83.53
  0
LINE
  5
451
100
AcDbEntity
  8
RUNDUNGEN
100
AcDbLine
 62
7
  6
CONTINUOUS
 10
309.1743545329
 20
84.03
 11
111.5114544237
 21
84.03
  0
LWPOLYLINE
  5
452
100
AcDbEntity
  8
RUNDUNGEN
100
AcDbPolyline
 62
7
  6
CONTINUOUS
 90
7
 70
0
 10
110.390165355
 20
82.03001498
 10
110.527393381
 20
82.0281290651
 10
110.8118034497
 20
82.0121836023
 10
111.0948289211
 20
81.9800499006
 10
111.3755300274
 20
81.9318383059
 10
111.652975479
 20
81.8677156608
 10
111.7456900969
 20
81.8425280709
  0
LINE
  5
453
100
AcDbEntity
  8
KONSTRUKTIONSELEMENTE
100
AcDbLine
 62
7
  6
CONTINUOUS
 10
148.0446104005
 20
165.03
 11
141.6937574394
 21
176.03
  0
LINE
  5
454
100
AcDbEntity
  8
KONSTRUKTIONSELEMENTE
100
AcDbLine
 62
7
  6
CONTINUOUS
 10
223.0446104005
 20
45.03
 11
216.6937574394
 21
56.03
  0
LINE
  5
455
100
AcDbEntity
  8
0
100
AcDbLine
 62
7
  6
CONTINUOUS
 10
199.8500316739
 20
83.53
 11
199.8500316739
 21
83.03
  0
LINE
  5
456
100
AcDbEntity
  8
0
100
AcDbLine
 62
7
  6
CONTINUOUS
 10
202.8534289598
 20
126.53
 11
202.8534289598
 21
127.03
  0
LINE
  5
457
100
AcDbEntity
  8
0
100
AcDbLine
 62
7
  6
CONTINUOUS
 10
203.5757619738
 20
83.53
 11
203.5757619738
 21
83.03
  0
LINE
  5
458
100
AcDbEntity
  8
0
100
AcDbLine
 62
7
  6
CONTINUOUS
 10
203.8513923883
 20
126.53
 11
203.8513923883
 21
127.03
  0
LINE
  5
459
100
AcDbEntity
  8
0
100
AcDbLine
 62
7
  6
CONTINUOUS
 10
204.2790890932
 20
126.53
 11
204.2790890932
 21
127.03
  0
LINE
  5
45A
100
AcDbEntity
  8
0
100
AcDbLine
 62
7
  6
CONTINUOUS
 10
205.6762372851
 20
83.53
 11
205.6762372851
 21
83.03
  0
LINE
  5
45B
100
AcDbEntity
  8
0
100
AcDbLine
 62
7
  6
CONTINUOUS
 10
206.7977598905
 20
126.53
 11
206.7977598905
 21
127.03
  0
LINE
  5
45C
100
AcDbEntity
  8
0
100
AcDbLine
 62
7
  6
CONTINUOUS
 10
209.6490834951
 20
126.53
 11
209.6490834951
 21
127.03
  0
LINE
  5
45D
100
AcDbEntity
  8
BEZUGSACHSEN
100
AcDbLine
 62
7
  6
CENTER
 10
210.3429044783
 20
165.03
 11
210.3429044783
 21
156.03
  0
LINE
  5
45E
100
AcDbEntity
  8
BEZUGSACHSEN
100
AcDbLine
 62
7
  6
CENTER
 10
210.3429044783
 20
45.03
 11
210.3429044783
 21
36.03
  0
LINE
  5
45F
100
AcDbEntity
  8
BEZUGSACHSEN
100
AcDbLine
 62
7
  6
CENTER
 10
210.3429044783
 20
45.03
 11
210.3429044783
 21
54.03
  0
LINE
  5
460
100
AcDbEntity
  8
BEZUGSACHSEN
100
AcDbLine
 62
7
  6
CENTER
 10
210.3429044783
 20
165.03
 11
210.3429044783
 21
174.03
  0
LINE
  5
461
100
AcDbEntity
  8
0
100
AcDbLine
 62
7
  6
CONTINUOUS
 10
211.0367254615
 20
83.53
 11
211.0367254615
 21
83.03
  0
LINE
  5
462
100
AcDbEntity
  8
0
100
AcDbLine
 62
7
  6
CONTINUOUS
 10
169.3788028631
 20
81.53
 11
170.3298249473
 21
82.0790728563
  0
LINE
  5
463
100
AcDbEntity
  8
RUNDUNGEN
100
AcDbLine
 62
7
  6
CONTINUOUS
 10
170.3298249473
 20
82.0790728563
 11
171.6826504404
 21
82.8601270189
  0
LINE
  5
464
100
AcDbEntity
  8
BEZUGSACHSEN
100
AcDbLine
 62
7
  6
CONTINUOUS
 10
249.0031585161
 20
127.1998729811
 11
251.3070060934
 21
128.53
  0
LINE
  5
465
100
AcDbEntity
  8
BG_STARTBEZUEGE
100
AcDbLine
 62
7
  6
CENTER
 10
7.3429044783
 20
105.03
 11
413.3429044783
 21
105.03
  0
LINE
  5
466
100
AcDbEntity
  8
BEZUGSACHSEN
100
AcDbLine
 62
7
  6
CONTINUOUS
 10
169.3788028631
 20
128.53
 11
171.6826504404
 21
127.1998729811
  0
LINE
  5
467
100
AcDbEntity
  8
0
100
AcDbLine
 62
7
  6
CONTINUOUS
 10
251.3070060934
 20
81.53
 11
250.3559839905
 21
82.0790728671
  0
LINE
  5
468
100
AcDbEntity
  8
RUNDUNGEN
100
AcDbLine
 62
7
  6
CONTINUOUS
 10
249.0031585161
 20
82.8601270189
 11
250.3559839905
 21
82.0790728671
  0
LINE
  5
469
100
AcDbEntity
  8
0
100
AcDbLine
 62
7
  6
CONTINUOUS
 10
213.888049066
 20
83.53
 11
213.888049066
 21
83.03
  0
LINE
  5
46A
100
AcDbEntity
  8
0
100
AcDbLine
 62
7
  6
CONTINUOUS
 10
215.0095716715
 20
126.53
 11
215.0095716715
 21
127.03
  0
LINE
  5
46B
100
AcDbEntity
  8
0
100
AcDbLine
 62
7
  6
CONTINUOUS
 10
216.4067198634
 20
83.53
 11
216.4067198634
 21
83.03
  0
LINE
  5
46C
100
AcDbEntity
  8
0
100
AcDbLine
 62
7
  6
CONTINUOUS
 10
216.8344165683
 20
83.53
 11
216.8344165683
 21
83.03
  0
LINE
  5
46D
100
AcDbEntity
  8
0
100
AcDbLine
 62
7
  6
CONTINUOUS
 10
217.1100469827
 20
126.53
 11
217.1100469827
 21
127.03
  0
LINE
  5
46E
100
AcDbEntity
  8
0
100
AcDbLine
 62
7
  6
CONTINUOUS
 10
217.8323799968
 20
83.53
 11
217.8323799968
 21
83.03
  0
LINE
  5
46F
100
AcDbEntity
  8
0
100
AcDbLine
 62
7
  6
CONTINUOUS
 10
220.8357772827
 20
126.53
 11
220.8357772827
 21
127.03
  0
LINE
  5
470
100
AcDbEntity
  8
0
100
AcDbLine
 62
7
  6
CONTINUOUS
 10
223.6775963306
 20
126.53
 11
223.6775963306
 21
127.03
  0
LINE
  5
471
100
AcDbEntity
  8
0
100
AcDbLine
 62
7
  6
CONTINUOUS
 10
224.0767818689
 20
126.53
 11
224.0767818689
 21
127.03
  0
LINE
  5
472
100
AcDbEntity
  8
0
100
AcDbLine
 62
7
  6
CONTINUOUS
 10
225.3218571543
 20
83.53
 11
225.3218571543
 21
83.03
  0
LINE
  5
473
100
AcDbEntity
  8
0
100
AcDbLine
 62
7
  6
CONTINUOUS
 10
225.8541056514
 20
83.53
 11
225.8541056514
 21
83.03
  0
LINE
  5
474
100
AcDbEntity
  8
0
100
AcDbLine
 62
7
  6
CONTINUOUS
 10
227.1372024417
 20
83.53
 11
227.1372024417
 21
83.03
  0
LINE
  5
475
100
AcDbEntity
  8
0
100
AcDbLine
 62
7
  6
CONTINUOUS
 10
228.5533596873
 20
83.53
 11
228.5533596873
 21
83.03
  0
LINE
  5
476
100
AcDbEntity
  8
0
100
AcDbLine
 62
7
  6
CONTINUOUS
 10
231.2716194987
 20
83.53
 11
231.2716194987
 21
83.03
  0
LINE
  5
477
100
AcDbEntity
  8
0
100
AcDbLine
 62
7
  6
CONTINUOUS
 10
232.7733194679
 20
126.53
 11
232.7733194679
 21
127.03
  0
LINE
  5
478
100
AcDbEntity
  8
0
100
AcDbLine
 62
7
  6
CONTINUOUS
 10
232.9634072184
 20
83.53
 11
232.9634072184
 21
83.03
  0
LINE
  5
479
100
AcDbEntity
  8
0
100
AcDbLine
 62
7
  6
CONTINUOUS
 10
232.9634077325
 20
126.53
 11
232.9634077325
 21
127.03
  0
LINE
  5
47A
100
AcDbEntity
  8
KONSTRUKTIONSELEMENTE
100
AcDbLine
 62
7
  6
CONTINUOUS
 10
203.9920515172
 20
56.03
 11
197.6411985561
 21
45.03
  0
LINE
  5
47B
100
AcDbEntity
  8
KONSTRUKTIONSELEMENTE
100
AcDbLine
 62
7
  6
CONTINUOUS
 10
278.9920515172
 20
176.03
 11
272.6411985561
 21
165.03
  0
LWPOLYLINE
  5
47C
100
AcDbEntity
  8
BEZUGSACHSEN
100
AcDbPolyline
 62
7
  6
CONTINUOUS
 90
6
 70
0
 10
114.0035827567
 20
128.5299981843
 10
113.913634956
 20
128.5295121296
 10
113.4219191989
 20
128.5096135727
 10
112.9319866406
 20
128.460604771
 10
112.4459177412
 20
128.3826998869
 10
111.9657525284
 20
128.276308824
  0
LINE
  5
47D
100
AcDbEntity
  8
BEZUGSACHSEN
100
AcDbLine
 62
7
  6
CONTINUOUS
 10
309.1743545329
 20
126.03
 11
111.5114544237
 21
126.03
  0
LINE
  5
47E
100
AcDbEntity
  8
BEZUGSACHSEN
100
AcDbLine
 62
7
  6
CONTINUOUS
 10
174.1826504404
 20
126.53
 11
246.5031585161
 21
126.53
  0
LINE
  5
47F
100
AcDbEntity
  8
0
100
AcDbLine
 62
7
  6
CONTINUOUS
 10
187.7224017381
 20
127.03
 11
193.5486065149
 21
127.03
  0
LINE
  5
480
100
AcDbEntity
  8
0
100
AcDbLine
 62
7
  6
CONTINUOUS
 10
194.8317033052
 20
127.03
 11
204.2790890932
 21
127.03
  0
LINE
  5
481
100
AcDbEntity
  8
0
100
AcDbLine
 62
7
  6
CONTINUOUS
 10
206.7977598905
 20
127.03
 11
209.6490834951
 21
127.03
  0
LINE
  5
482
100
AcDbEntity
  8
0
100
AcDbLine
 62
7
  6
CONTINUOUS
 10
215.0095716715
 20
127.03
 11
220.8357772827
 21
127.03
  0
LINE
  5
483
100
AcDbEntity
  8
0
100
AcDbLine
 62
7
  6
CONTINUOUS
 10
223.6775963306
 20
127.03
 11
232.9634077325
 21
127.03
  0
LINE
  5
484
100
AcDbEntity
  8
BEZUGSACHSEN
100
AcDbLine
 62
7
  6
CONTINUOUS
 10
306.6823403606
 20
128.53
 11
251.3070060934
 21
128.53
  0
LINE
  5
485
100
AcDbEntity
  8
BEZUGSACHSEN
100
AcDbLine
 62
7
  6
CONTINUOUS
 10
169.3788028631
 20
128.53
 11
114.0034685963
 21
128.53
  0
LINE
  5
486
100
AcDbEntity
  8
0
100
AcDbLine
 62
7
  6
CONTINUOUS
 10
133.6929044783
 20
129.03
 11
139.9329044783
 21
129.03
  0
LINE
  5
487
100
AcDbEntity
  8
0
100
AcDbLine
 62
7
  6
CONTINUOUS
 10
143.3429044783
 20
129.03
 11
149.5829044783
 21
129.03
  0
LINE
  5
488
100
AcDbEntity
  8
0
100
AcDbLine
 62
7
  6
CONTINUOUS
 10
262.352905432
 20
129.03
 11
272.3529044783
 21
129.03
  0
LINE
  5
489
100
AcDbEntity
  8
0
100
AcDbLine
 62
7
  6
CONTINUOUS
 10
274.3529040014
 20
129.03
 11
283.3529047167
 21
129.03
  0
LINE
  5
48A
100
AcDbEntity
  8
0
100
AcDbLine
 62
7
  6
CONTINUOUS
 10
285.3529042399
 20
129.03
 11
294.8529044783
 21
129.03
  0
LWPOLYLINE
  5
48B
100
AcDbEntity
  8
BEZUGSACHSEN
100
AcDbPolyline
 62
7
  6
CONTINUOUS
 90
7
 70
0
 10
310.2956458953
 20
128.0299847534
 10
310.1584173804
 20
128.031870673
 10
309.8740073326
 20
128.0478161439
 10
309.5909818569
 20
128.0799498554
 10
309.31028072
 20
128.1281614656
 10
309.0328352113
 20
128.1922841367
 10
308.7254274321
 20
128.2749493777
  0
LINE
  5
48C
100
AcDbEntity
  8
KONSTRUKTIONSELEMENTE
100
AcDbLine
 62
7
  6
CONTINUOUS
 10
197.6411985561
 20
165.03
 11
203.9920515172
 21
154.03
  0
LINE
  5
48D
100
AcDbEntity
  8
KONSTRUKTIONSELEMENTE
100
AcDbLine
 62
7
  6
CONTINUOUS
 10
272.6411985561
 20
45.03
 11
278.9920515172
 21
34.03
  0
LINE
  5
48E
100
AcDbEntity
  8
KONSTRUKTIONSELEMENTE
100
AcDbLine
 62
7
  6
CONTINUOUS
 10
216.6937574394
 20
34.03
 11
223.0446104005
 21
45.03
  0
LWPOLYLINE
  5
48F
100
AcDbEntity
  8
BEZUGSACHSEN
100
AcDbPolyline
 62
7
  6
CONTINUOUS
 90
6
 70
0
 10
111.6400883095
 20
128.188934439
 10
111.3624711823
 20
128.125551478
 10
111.0816418056
 20
128.0780884984
 10
110.7985318649
 20
128.0467096928
 10
110.5140813582
 20
128.0315227502
 10
110.3901653974
 20
128.02998502
  0
LWPOLYLINE
  5
490
100
AcDbEntity
  8
BEZUGSACHSEN
100
AcDbPolyline
 62
7
  6
CONTINUOUS
 90
6
 70
0
 10
308.7254274321
 20
128.2749493777
 10
308.2507805431
 20
128.3806149206
 10
307.7703268113
 20
128.4584415651
 10
307.2860382224
 20
128.508029345
 10
306.7999260358
 20
128.5291655097
 10
306.6822287893
 20
128.5299981852
  0
LINE
  5
491
100
AcDbEntity
  8
KONSTRUKTIONSELEMENTE
100
AcDbLine
 62
7
  6
CONTINUOUS
 10
223.0446104005
 20
165.03
 11
216.6937574394
 21
176.03
  0
LINE
  5
492
100
AcDbEntity
  8
0
100
AcDbLine
 62
7
  6
CONTINUOUS
 10
262.352905432
 20
128.53
 11
262.352905432
 21
129.03
  0
LINE
  5
493
100
AcDbEntity
  8
0
100
AcDbLine
 62
7
  6
CONTINUOUS
 10
262.6029044783
 20
128.53
 11
262.6029044783
 21
129.03
  0
LINE
  5
494
100
AcDbEntity
  8
0
100
AcDbLine
 62
7
  6
CONTINUOUS
 10
263.102905432
 20
128.53
 11
263.102905432
 21
129.03
  0
LINE
  5
495
100
AcDbEntity
  8
0
100
AcDbLine
 62
7
  6
CONTINUOUS
 10
264.1029044783
 20
128.53
 11
264.1029044783
 21
129.03
  0
LINE
  5
496
100
AcDbEntity
  8
0
100
AcDbLine
 62
7
  6
CONTINUOUS
 10
265.1029035246
 20
128.53
 11
265.1029035246
 21
129.03
  0
LINE
  5
497
100
AcDbEntity
  8
0
100
AcDbLine
 62
7
  6
CONTINUOUS
 10
266.3529044783
 20
128.53
 11
266.3529044783
 21
129.03
  0
LINE
  5
498
100
AcDbEntity
  8
KONSTRUKTIONSELEMENTE
100
AcDbLine
 62
7
  6
CONTINUOUS
 10
291.6937574394
 20
154.03
 11
298.0446104005
 21
165.03
  0
LINE
  5
499
100
AcDbEntity
  8
BEZUGSACHSEN
100
AcDbLine
 62
7
  6
CONTINUOUS
 10
111.9657525284
 20
128.276308824
 11
111.6400883095
 21
128.188934439
  0
LINE
  5
49A
100
AcDbEntity
  8
KONSTRUKTIONSELEMENTE
100
AcDbLine
 62
7
  6
CONTINUOUS
 10
128.9920515172
 20
154.03
 11
141.6937574394
 21
154.03
  0
LINE
  5
49B
100
AcDbEntity
  8
KONSTRUKTIONSELEMENTE
100
AcDbLine
 62
7
  6
CONTINUOUS
 10
203.9920515172
 20
154.03
 11
216.6937574394
 21
154.03
  0
LINE
  5
49C
100
AcDbEntity
  8
KONSTRUKTIONSELEMENTE
100
AcDbLine
 62
7
  6
CONTINUOUS
 10
278.9920515172
 20
154.03
 11
291.6937574394
 21
154.03
  0
LINE
  5
49D
100
AcDbEntity
  8
BEZUGSACHSEN
100
AcDbLine
 62
7
  6
CENTER
 10
285.3429044783
 20
165.03
 11
276.3429044783
 21
165.03
  0
LINE
  5
49E
100
AcDbEntity
  8
BEZUGSACHSEN
100
AcDbLine
 62
7
  6
CENTER
 10
210.3429044783
 20
165.03
 11
201.3429044783
 21
165.03
  0
LINE
  5
49F
100
AcDbEntity
  8
BEZUGSACHSEN
100
AcDbLine
 62
7
  6
CENTER
 10
135.3429044783
 20
165.03
 11
126.3429044783
 21
165.03
  0
LINE
  5
4A0
100
AcDbEntity
  8
BEZUGSACHSEN
100
AcDbLine
 62
7
  6
CENTER
 10
135.3429044783
 20
165.03
 11
144.3429044783
 21
165.03
  0
LINE
  5
4A1
100
AcDbEntity
  8
BEZUGSACHSEN
100
AcDbLine
 62
7
  6
CENTER
 10
210.3429044783
 20
165.03
 11
219.3429044783
 21
165.03
  0
LINE
  5
4A2
100
AcDbEntity
  8
BEZUGSACHSEN
100
AcDbLine
 62
7
  6
CENTER
 10
285.3429044783
 20
165.03
 11
294.3429044783
 21
165.03
  0
LINE
  5
4A3
100
AcDbEntity
  8
KONSTRUKTIONSELEMENTE
100
AcDbLine
 62
7
  6
CONTINUOUS
 10
298.0446104005
 20
45.03
 11
291.6937574394
 21
56.03
  0
LINE
  5
4A4
100
AcDbEntity
  8
0
100
AcDbLine
 62
7
  6
CONTINUOUS
 10
272.3529044783
 20
128.53
 11
272.3529044783
 21
129.03
  0
LINE
  5
4A5
100
AcDbEntity
  8
0
100
AcDbLine
 62
7
  6
CONTINUOUS
 10
274.3529040014
 20
128.53
 11
274.3529040014
 21
129.03
  0
LINE
  5
4A6
100
AcDbEntity
  8
0
100
AcDbLine
 62
7
  6
CONTINUOUS
 10
275.8529040014
 20
128.53
 11
275.8529040014
 21
129.03
  0
LINE
  5
4A7
100
AcDbEntity
  8
0
100
AcDbLine
 62
7
  6
CONTINUOUS
 10
276.1029044783
 20
128.53
 11
276.1029044783
 21
129.03
  0
LINE
  5
4A8
100
AcDbEntity
  8
0
100
AcDbLine
 62
7
  6
CONTINUOUS
 10
276.6029040014
 20
128.53
 11
276.6029040014
 21
129.03
  0
LINE
  5
4A9
100
AcDbEntity
  8
0
100
AcDbLine
 62
7
  6
CONTINUOUS
 10
277.3529040014
 20
128.53
 11
277.3529040014
 21
129.03
  0
LINE
  5
4AA
100
AcDbEntity
  8
0
100
AcDbLine
 62
7
  6
CONTINUOUS
 10
278.3529044783
 20
128.53
 11
278.3529044783
 21
129.03
  0
LINE
  5
4AB
100
AcDbEntity
  8
0
100
AcDbLine
 62
7
  6
CONTINUOUS
 10
279.3529049551
 20
128.53
 11
279.3529049551
 21
129.03
  0
LINE
  5
4AC
100
AcDbEntity
  8
0
100
AcDbLine
 62
7
  6
CONTINUOUS
 10
280.3529040014
 20
128.53
 11
280.3529040014
 21
129.03
  0
LINE
  5
4AD
100
AcDbEntity
  8
0
100
AcDbLine
 62
7
  6
CONTINUOUS
 10
281.1029040014
 20
128.53
 11
281.1029040014
 21
129.03
  0
LINE
  5
4AE
100
AcDbEntity
  8
0
100
AcDbLine
 62
7
  6
CONTINUOUS
 10
281.6029049551
 20
128.53
 11
281.6029049551
 21
129.03
  0
LINE
  5
4AF
100
AcDbEntity
  8
0
100
AcDbLine
 62
7
  6
CONTINUOUS
 10
281.8529040014
 20
128.53
 11
281.8529040014
 21
129.03
  0
LINE
  5
4B0
100
AcDbEntity
  8
0
100
AcDbLine
 62
7
  6
CONTINUOUS
 10
283.3529047167
 20
128.53
 11
283.3529047167
 21
129.03
  0
LINE
  5
4B1
100
AcDbEntity
  8
BEZUGSACHSEN
100
AcDbLine
 62
7
  6
CENTER
 10
285.3429044783
 20
165.03
 11
285.3429044783
 21
156.03
  0
LINE
  5
4B2
100
AcDbEntity
  8
BEZUGSACHSEN
100
AcDbLine
 62
7
  6
CENTER
 10
285.3429044783
 20
45.03
 11
285.3429044783
 21
36.03
  0
LINE
  5
4B3
100
AcDbEntity
  8
BEZUGSACHSEN
100
AcDbLine
 62
7
  6
CENTER
 10
285.3429044783
 20
45.03
 11
285.3429044783
 21
54.03
  0
LINE
  5
4B4
100
AcDbEntity
  8
BEZUGSACHSEN
100
AcDbLine
 62
7
  6
CENTER
 10
285.3429044783
 20
165.03
 11
285.3429044783
 21
174.03
  0
LINE
  5
4B5
100
AcDbEntity
  8
0
100
AcDbLine
 62
7
  6
CONTINUOUS
 10
285.3529042399
 20
128.53
 11
285.3529042399
 21
129.03
  0
LINE
  5
4B6
100
AcDbEntity
  8
KONSTRUKTIONSELEMENTE
100
AcDbLine
 62
7
  6
CONTINUOUS
 10
291.6937574394
 20
176.03
 11
278.9920515172
 21
176.03
  0
LINE
  5
4B7
100
AcDbEntity
  8
KONSTRUKTIONSELEMENTE
100
AcDbLine
 62
7
  6
CONTINUOUS
 10
216.6937574394
 20
176.03
 11
203.9920515172
 21
176.03
  0
LINE
  5
4B8
100
AcDbEntity
  8
KONSTRUKTIONSELEMENTE
100
AcDbLine
 62
7
  6
CONTINUOUS
 10
141.6937574394
 20
176.03
 11
128.9920515172
 21
176.03
  0
LINE
  5
4B9
100
AcDbEntity
  8
0
100
AcDbLine
 62
7
  6
CONTINUOUS
 10
285.6029047167
 20
128.53
 11
285.6029047167
 21
129.03
  0
LINE
  5
4BA
100
AcDbEntity
  8
0
100
AcDbLine
 62
7
  6
CONTINUOUS
 10
285.8529044783
 20
128.53
 11
285.8529044783
 21
129.03
  0
LINE
  5
4BB
100
AcDbEntity
  8
0
100
AcDbLine
 62
7
  6
CONTINUOUS
 10
286.6029044783
 20
128.53
 11
286.6029044783
 21
129.03
  0
LINE
  5
4BC
100
AcDbEntity
  8
0
100
AcDbLine
 62
7
  6
CONTINUOUS
 10
287.6029042399
 20
128.53
 11
287.6029042399
 21
129.03
  0
LINE
  5
4BD
100
AcDbEntity
  8
0
100
AcDbLine
 62
7
  6
CONTINUOUS
 10
288.8529044783
 20
128.53
 11
288.8529044783
 21
129.03
  0
LINE
  5
4BE
100
AcDbEntity
  8
0
100
AcDbLine
 62
7
  6
CONTINUOUS
 10
294.8529044783
 20
128.53
 11
294.8529044783
 21
129.03
  0
LINE
  5
4BF
100
AcDbEntity
  8
KONSTRUKTIONSELEMENTE
100
AcDbLine
 62
7
  6
CONTINUOUS
 10
278.9920515172
 20
56.03
 11
272.6411985561
 21
45.03
  0
LINE
  5
4C0
100
AcDbEntity
  8
RUNDUNGEN
100
AcDbLine
 62
7
  6
CONTINUOUS
 10
97.4685935586
 20
185.03
 11
37.3429044783
 21
185.03
  0
LINE
  5
4C1
100
AcDbEntity
  8
0
100
AcDbLine
 62
7
  6
CONTINUOUS
 10
323.217215398
 20
185.03
 11
383.3429044783
 21
185.03
  0
LINE
  5
4C2
100
AcDbEntity
  8
KONSTRUKTIONSELEMENTE
100
AcDbLine
 62
7
  6
CONTINUOUS
 10
272.6411985561
 20
165.03
 11
278.9920515172
 21
154.03
  0
LINE
  5
4C3
100
AcDbEntity
  8
BEZUGSACHSEN
100
AcDbLine
 62
7
  6
CONTINUOUS
 10
323.217215398
 20
185.03
 11
317.801766892
 21
154.3174653432
  0
LINE
  5
4C4
100
AcDbEntity
  8
KONSTRUKTIONSELEMENTE
100
AcDbLine
 62
7
  6
CONTINUOUS
 10
410.3429044783
 20
195.03
 11
10.3429044783
 21
195.03
  0
LINE
  5
4C5
100
AcDbEntity
  8
BEZUGSACHSEN
100
AcDbLine
 62
7
  6
CONTINUOUS
 10
317.8017668542
 20
55.7425348715
 11
323.217215398
 21
25.03
  0
LINE
  5
4C6
100
AcDbEntity
  8
BEZUGSACHSEN
100
AcDbLine
 62
7
  6
CONTINUOUS
 10
317.8031301552
 20
55.6636886306
 11
317.3429044783
 21
82.03
  0
LINE
  5
4C7
100
AcDbEntity
  8
RUNDUNGEN
100
AcDbLine
 62
7
  6
CONTINUOUS
 10
317.1743545329
 20
92.03
 11
317.1743545329
 21
118.03
  0
LINE
  5
4C8
100
AcDbEntity
  8
BEZUGSACHSEN
100
AcDbLine
 62
7
  6
CONTINUOUS
 10
317.3429044783
 20
82.03
 11
317.3429044783
 21
128.03
  0
LINE
  5
4C9
100
AcDbEntity
  8
BEZUGSACHSEN
100
AcDbLine
 62
7
  6
CONTINUOUS
 10
317.8031314831
 20
154.3963874491
 11
317.3429044783
 21
128.03
  0
LINE
  5
4CA
100
AcDbEntity
  8
KONSTRUKTIONSELEMENTE
100
AcDbLine
 62
7
  6
CONTINUOUS
 10
291.6937574394
 20
34.03
 11
298.0446104005
 21
45.03
  0
LINE
  5
4CB
100
AcDbEntity
  8
KONSTRUKTIONSELEMENTE
100
AcDbLine
 62
7
  6
CONTINUOUS
 10
410.3429044783
 20
145.03
 11
405.3429044783
 21
140.03
  0
LINE
  5
4CC
100
AcDbEntity
  8
KONSTRUKTIONSELEMENTE
100
AcDbLine
 62
7
  6
CONTINUOUS
 10
405.3429044783
 20
70.03
 11
410.3429044783
 21
65.03
  0
LINE
  5
4CD
100
AcDbEntity
  8
KONSTRUKTIONSELEMENTE
100
AcDbLine
 62
7
  6
CONTINUOUS
 10
298.0446104005
 20
165.03
 11
291.6937574394
 21
176.03
  0
LINE
  5
4CE
100
AcDbEntity
  8
RUNDUNGEN
100
AcDbLine
 62
7
  6
CONTINUOUS
 10
393.3429044783
 20
75.654394841
 11
393.3429044783
 21
35.03
  0
LINE
  5
4CF
100
AcDbEntity
  8
0
100
AcDbLine
 62
7
  6
CONTINUOUS
 10
393.3429044783
 20
75.654394841
 11
393.3429044783
 21
175.03
  0
LINE
  5
4D0
100
AcDbEntity
  8
KONSTRUKTIONSELEMENTE
100
AcDbLine
 62
7
  6
CONTINUOUS
 10
405.3429044783
 20
140.03
 11
405.3429044783
 21
70.03
  0
LINE
  5
4D1
100
AcDbEntity
  8
KONSTRUKTIONSELEMENTE
100
AcDbLine
 62
7
  6
CONTINUOUS
 10
410.3429044783
 20
15.03
 11
410.3429044783
 21
65.03
  0
LINE
  5
4D2
100
AcDbEntity
  8
KONSTRUKTIONSELEMENTE
100
AcDbLine
 62
7
  6
CONTINUOUS
 10
410.3429044783
 20
145.03
 11
410.3429044783
 21
195.03
  0
ARC
  5
4D3
100
AcDbEntity
  8
BEZUGSACHSEN
100
AcDbCircle
 62
7
  6
CONTINUOUS
 10
-2301.8363550911
 20
439.8525014851
 40
2404.6870415687
100
AcDbArc
 50
359.5591116041
 51
359.8753006262
  0
ARC
  5
4D4
100
AcDbEntity
  8
0
100
AcDbCircle
 62
7
  6
CONTINUOUS
 10
37.3429044783
 20
437.5247391872
 40
10.0
100
AcDbArc
 50
90.0
 51
180.0
  0
ARC
  5
4D5
100
AcDbEntity
  8
RUNDUNGEN
100
AcDbCircle
 62
7
  6
CONTINUOUS
 10
99.5755948259
 20
424.7005738968
 40
10.0
100
AcDbArc
 50
351.9999674317
 51
6.0000540173
  0
ARC
  5
4D6
100
AcDbEntity
  8
BEZUGSACHSEN
100
AcDbCircle
 62
7
  6
CONTINUOUS
 10
111.5114544237
 20
483.3403558122
 40
8.0
100
AcDbArc
 50
182.4375000009
 51
186.0000000011
  0
ARC
  5
4D7
100
AcDbEntity
  8
RUNDUNGEN
100
AcDbCircle
 62
7
  6
CONTINUOUS
 10
111.5114544237
 20
483.3403558122
 40
8.0
100
AcDbArc
 50
157.5
 51
186.0
  0
ARC
  5
4D8
100
AcDbEntity
  8
BEZUGSACHSEN
100
AcDbCircle
 62
7
  6
CONTINUOUS
 10
104.5165129823
 20
425.5247389863
 40
4.9999999641
100
AcDbArc
 50
269.9999997581
 51
2.5300102583
  0
ARC
  5
4D9
100
AcDbEntity
  8
RUNDUNGEN
100
AcDbCircle
 62
7
  6
CONTINUOUS
 10
140.8054138092
 20
554.0622298563
 40
8.0
100
AcDbArc
 50
112.5
 51
157.5
  0
ARC
  5
4DA
100
AcDbEntity
  8
BEZUGSACHSEN
100
AcDbCircle
 62
7
  6
CONTINUOUS
 10
2722.5221640469
 20
439.8525014851
 40
2404.6870415679
100
AcDbArc
 50
180.1246993738
 51
180.4408883959
  0
ARC
  5
4DB
100
AcDbEntity
  8
0
100
AcDbCircle
 62
7
  6
CONTINUOUS
 10
210.3429044783
 20
484.5247391872
 40
67.7084973779
100
AcDbArc
 50
243.3536086044
 51
296.646391237
  0
ARC
  5
4DC
100
AcDbEntity
  8
BEZUGSACHSEN
100
AcDbCircle
 62
7
  6
CONTINUOUS
 10
210.3429044783
 20
484.5247391872
 40
65.0
100
AcDbArc
 50
235.6897771979
 51
243.3535835065
  0
CIRCLE
  5
4DD
100
AcDbEntity
  8
RUNDUNGEN
100
AcDbCircle
 62
7
  6
CONTINUOUS
 10
210.3429044783
 20
484.5247391872
 40
65.0
  0
ARC
  5
4DE
100
AcDbEntity
  8
0
100
AcDbCircle
 62
7
  6
CONTINUOUS
 10
383.3429044783
 20
437.5247391872
 40
10.0
100
AcDbArc
 50
0.0
 51
90.0
  0
ARC
  5
4DF
100
AcDbEntity
  8
RUNDUNGEN
100
AcDbCircle
 62
7
  6
CONTINUOUS
 10
321.1102141307
 20
424.7005738968
 40
10.0
100
AcDbArc
 50
173.9999459587
 51
188.000032655
  0
ARC
  5
4E0
100
AcDbEntity
  8
BEZUGSACHSEN
100
AcDbCircle
 62
7
  6
CONTINUOUS
 10
309.1743545329
 20
483.3403558122
 40
8.0
100
AcDbArc
 50
353.9999999989
 51
357.5624999991
  0
ARC
  5
4E1
100
AcDbEntity
  8
RUNDUNGEN
100
AcDbCircle
 62
7
  6
CONTINUOUS
 10
309.1743545329
 20
483.3403558122
 40
8.0
100
AcDbArc
 50
354.0
 51
22.5
  0
ARC
  5
4E2
100
AcDbEntity
  8
BEZUGSACHSEN
100
AcDbCircle
 62
7
  6
CONTINUOUS
 10
316.1692959763
 20
425.5247390056
 40
4.9999999676
100
AcDbArc
 50
177.4699802143
 51
270.0000002187
  0
ARC
  5
4E3
100
AcDbEntity
  8
RUNDUNGEN
100
AcDbCircle
 62
7
  6
CONTINUOUS
 10
279.8803951474
 20
554.0622298563
 40
8.0
100
AcDbArc
 50
22.5
 51
67.5
  0
ARC
  5
4E4
100
AcDbEntity
  8
RUNDUNGEN
100
AcDbCircle
 62
7
  6
CONTINUOUS
 10
210.3429044783
 20
582.8656015848
 40
8.0
100
AcDbArc
 50
67.5
 51
112.5
  0
ARC
  5
4E5
100
AcDbEntity
  8
RUNDUNGEN
100
AcDbCircle
 62
7
  6
CONTINUOUS
 10
650.9485769298
 20
313.8013248461
 40
157.0
100
AcDbArc
 50
129.6875124176
 51
156.9807200056
  0
ARC
  5
4E6
100
AcDbEntity
  8
0
100
AcDbCircle
 62
7
  6
CONTINUOUS
 10
521.951354275
 20
313.8013248461
 40
157.0
100
AcDbArc
 50
23.0192799944
 51
50.3124875824
  0
ARC
  5
4E7
100
AcDbEntity
  8
0
100
AcDbCircle
 62
7
  6
CONTINUOUS
 10
586.4499656024
 20
391.5247391872
 40
56.0
100
AcDbArc
 50
50.3124875824
 51
129.6875124176
  0
ARC
  5
4E8
100
AcDbEntity
  8
BEZUGSACHSEN
100
AcDbCircle
 62
7
  6
CONTINUOUS
 10
573.4499656024
 20
582.8656015848
 40
8.0
100
AcDbArc
 50
90.0
 51
180.0
  0
ARC
  5
4E9
100
AcDbEntity
  8
RUNDUNGEN
100
AcDbCircle
 62
7
  6
CONTINUOUS
 10
599.4499656024
 20
582.8656015848
 40
8.0
100
AcDbArc
 50
0.0
 51
90.0
  0
ARC
  5
4EA
100
AcDbEntity
  8
BEZUGSACHSEN
100
AcDbCircle
 62
7
  6
CONTINUOUS
 10
-2254.0634788423
 20
73.1427013629
 40
2356.9116543935
100
AcDbArc
 50
359.5625893475
 51
359.9058167598
  0
CIRCLE
  5
4EB
100
AcDbEntity
  8
BEZUGSACHSEN
100
AcDbCircle
 62
7
  6
CONTINUOUS
 10
135.3429044783
 20
45.03
 40
24.0
  0
CIRCLE
  5
4EC
100
AcDbEntity
  8
KONSTRUKTIONSELEMENTE
100
AcDbCircle
 62
7
  6
CONTINUOUS
 10
135.3429044783
 20
45.03
 40
22.5
  0
ARC
  5
4ED
100
AcDbEntity
  8
0
100
AcDbCircle
 62
7
  6
CONTINUOUS
 10
37.3429044783
 20
35.03
 40
10.0
100
AcDbArc
 50
180.0
 51
270.0
  0
ARC
  5
4EE
100
AcDbEntity
  8
RUNDUNGEN
100
AcDbCircle
 62
7
  6
CONTINUOUS
 10
111.5114746616
 20
92.0300202379
 40
8.0000202379
100
AcDbArc
 50
180.0001449427
 51
269.9998550573
  0
ARC
  5
4EF
100
AcDbEntity
  8
RUNDUNGEN
100
AcDbCircle
 62
7
  6
CONTINUOUS
 10
174.1826504404
 20
78.53
 40
5.0
100
AcDbArc
 50
90.0
 51
120.0
  0
ARC
  5
4F0
100
AcDbEntity
  8
BEZUGSACHSEN
100
AcDbCircle
 62
7
  6
CONTINUOUS
 10
-2254.0634788388
 20
136.9172986371
 40
2356.91165439
100
AcDbArc
 50
0.0941832402
 51
0.4374106525
  0
CIRCLE
  5
4F1
100
AcDbEntity
  8
BEZUGSACHSEN
100
AcDbCircle
 62
7
  6
CONTINUOUS
 10
135.3429044783
 20
165.03
 40
24.0
  0
CIRCLE
  5
4F2
100
AcDbEntity
  8
KONSTRUKTIONSELEMENTE
100
AcDbCircle
 62
7
  6
CONTINUOUS
 10
135.3429044783
 20
165.03
 40
22.5
  0
ARC
  5
4F3
100
AcDbEntity
  8
RUNDUNGEN
100
AcDbCircle
 62
7
  6
CONTINUOUS
 10
37.3429044783
 20
175.03
 40
10.0
100
AcDbArc
 50
90.0
 51
180.0
  0
ARC
  5
4F4
100
AcDbEntity
  8
BEZUGSACHSEN
100
AcDbCircle
 62
7
  6
CONTINUOUS
 10
111.5114746616
 20
118.0299797621
 40
8.0000202379
100
AcDbArc
 50
90.0001449427
 51
179.9998550573
  0
ARC
  5
4F5
100
AcDbEntity
  8
BEZUGSACHSEN
100
AcDbCircle
 62
7
  6
CONTINUOUS
 10
174.1826504404
 20
131.53
 40
5.0
100
AcDbArc
 50
240.0
 51
270.0
  0
ARC
  5
4F6
100
AcDbEntity
  8
BEZUGSACHSEN
100
AcDbCircle
 62
7
  6
CONTINUOUS
 10
2674.7492877876
 20
73.1427013628
 40
2356.9116543822
100
AcDbArc
 50
180.0941832402
 51
180.4374106525
  0
CIRCLE
  5
4F7
100
AcDbEntity
  8
BEZUGSACHSEN
100
AcDbCircle
 62
7
  6
CONTINUOUS
 10
285.3429044783
 20
45.03
 40
24.0
  0
CIRCLE
  5
4F8
100
AcDbEntity
  8
BEZUGSACHSEN
100
AcDbCircle
 62
7
  6
CONTINUOUS
 10
210.3429044783
 20
45.03
 40
24.0
  0
CIRCLE
  5
4F9
100
AcDbEntity
  8
KONSTRUKTIONSELEMENTE
100
AcDbCircle
 62
7
  6
CONTINUOUS
 10
210.3429044783
 20
45.03
 40
22.5
  0
CIRCLE
  5
4FA
100
AcDbEntity
  8
KONSTRUKTIONSELEMENTE
100
AcDbCircle
 62
7
  6
CONTINUOUS
 10
285.3429044783
 20
45.03
 40
22.5
  0
ARC
  5
4FB
100
AcDbEntity
  8
RUNDUNGEN
100
AcDbCircle
 62
7
  6
CONTINUOUS
 10
383.3429044783
 20
35.03
 40
10.0
100
AcDbArc
 50
270.0
 51
360.0
  0
ARC
  5
4FC
100
AcDbEntity
  8
RUNDUNGEN
100
AcDbCircle
 62
7
  6
CONTINUOUS
 10
309.174334295
 20
92.0300202379
 40
8.0000202379
100
AcDbArc
 50
270.0001449427
 51
359.9998550573
  0
ARC
  5
4FD
100
AcDbEntity
  8
RUNDUNGEN
100
AcDbCircle
 62
7
  6
CONTINUOUS
 10
246.5031585161
 20
78.53
 40
5.0
100
AcDbArc
 50
60.0
 51
90.0
  0
ARC
  5
4FE
100
AcDbEntity
  8
BEZUGSACHSEN
100
AcDbCircle
 62
7
  6
CONTINUOUS
 10
2674.7492877876
 20
136.9172986372
 40
2356.9116543823
100
AcDbArc
 50
179.5625893475
 51
179.9058167598
  0
CIRCLE
  5
4FF
100
AcDbEntity
  8
BEZUGSACHSEN
100
AcDbCircle
 62
7
  6
CONTINUOUS
 10
285.3429044783
 20
165.03
 40
24.0
  0
CIRCLE
  5
500
100
AcDbEntity
  8
BEZUGSACHSEN
100
AcDbCircle
 62
7
  6
CONTINUOUS
 10
210.3429044783
 20
165.03
 40
24.0
  0
CIRCLE
  5
501
100
AcDbEntity
  8
KONSTRUKTIONSELEMENTE
100
AcDbCircle
 62
7
  6
CONTINUOUS
 10
210.3429044783
 20
165.03
 40
22.5
  0
CIRCLE
  5
502
100
AcDbEntity
  8
KONSTRUKTIONSELEMENTE
100
AcDbCircle
 62
7
  6
CONTINUOUS
 10
285.3429044783
 20
165.03
 40
22.5
  0
ARC
  5
503
100
AcDbEntity
  8
0
100
AcDbCircle
 62
7
  6
CONTINUOUS
 10
383.3429044783
 20
175.03
 40
10.0
100
AcDbArc
 50
0.0
 51
90.0
  0
ARC
  5
504
100
AcDbEntity
  8
BEZUGSACHSEN
100
AcDbCircle
 62
7
  6
CONTINUOUS
 10
309.174334295
 20
118.0299797621
 40
8.0000202379
100
AcDbArc
 50
0.0001449427
 51
89.9998550573
  0
ARC
  5
505
100
AcDbEntity
  8
BEZUGSACHSEN
100
AcDbCircle
 62
7
  6
CONTINUOUS
 10
246.5031585161
 20
131.53
 40
5.0
100
AcDbArc
 50
270.0
 51
300.0
  0
SPLINE
  5
506
100
AcDbEntity
  8
RUNDUNGEN
100
AcDbSpline
 62
7
  6
CONTINUOUS
 70
0
 71
3
 72
19
 73
15
 74
0
 42
0.0000001
 43
0.0000001
 44
0.0000000001
 40
0.0
 40
0.0
 40
0.0
 40
0.0
 40
0.0198647043
 40
0.0432065548
 40
0.0722313999
 40
0.1079945078
 40
0.1508888776
 40
0.2009584528
 40
0.2580271154
 40
0.3217664791
 40
0.4673561
 40
0.6330448901
 40
0.8128627438
 40
1.0
 40
1.0
 40
1.0
 40
1.0
 10
393.3429044783
 20
373.1235260106
 30
0.0
 10
393.3429044783
 20
373.1932872226
 30
0.0
 10
393.304089402
 20
373.3460057784
 30
0.0
 10
393.148854365
 20
373.5516642499
 30
0.0
 10
392.9065604087
 20
373.7471706136
 30
0.0
 10
392.5772418655
 20
373.9352286776
 30
0.0
 10
392.1620951324
 20
374.1156939955
 30
0.0
 10
391.6634332555
 20
374.2870881019
 30
0.0
 10
391.0849996585
 20
374.4478952897
 30
0.0
 10
390.1724497658
 20
374.6552637346
 30
0.0
 10
388.8718875427
 20
374.8696779205
 30
0.0
 10
387.1565687292
 20
375.0547647315
 30
0.0
 10
385.2889280892
 20
375.1691074618
 30
0.0
 10
384.0000963296
 20
375.1947391872
 30
0.0
 10
383.3429044783
 20
375.1947391872
 30
0.0
  0
LINE
  5
507
100
AcDbEntity
  8
BEZUGSACHSEN
100
AcDbLine
 62
7
  6
CONTINUOUS
 10
317.8141912313
 20
447.5247391872
 11
317.8408177143
 21
434.6189095149
  0
SPLINE
  5
508
100
AcDbEntity
  8
BEZUGSACHSEN
100
AcDbSpline
 62
7
  6
CONTINUOUS
 70
0
 71
3
 72
11
 73
7
 74
0
 42
0.0000001
 43
0.0000001
 44
0.0000000001
 40
0.0
 40
0.0
 40
0.0
 40
0.0
 40
0.2496897193
 40
0.499684548
 40
0.7498954019
 40
1.0
 40
1.0
 40
1.0
 40
1.0
 10
318.1815076315
 20
348.5247391872
 30
0.0
 10
318.1029073797
 20
354.5855323408
 30
0.0
 10
317.9583415559
 20
366.7146986926
 30
0.0
 10
317.8124949374
 20
384.9181638532
 30
0.0
 10
317.7859172549
 20
403.1323426818
 30
0.0
 10
317.8561629251
 20
415.2775606072
 30
0.0
 10
317.9063156761
 20
421.3487275827
 30
0.0
  0
SPLINE
  5
509
100
AcDbEntity
  8
0
100
AcDbSpline
 62
7
  6
CONTINUOUS
 70
0
 71
3
 72
33
 73
29
 74
0
 42
0.0000001
 43
0.0000001
 44
0.0000000001
 40
0.0
 40
0.0
 40
0.0
 40
0.0
 40
0.0531804406
 40
0.1020378047
 40
0.1257611087
 40
0.1497439978
 40
0.1746917474
 40
0.2013168312
 40
0.2302113849
 40
0.2617683681
 40
0.2961304587
 40
0.3331905101
 40
0.3726334233
 40
0.4139838716
 40
0.5000000007
 40
0.5860161293
 40
0.6273665771
 40
0.6668094899
 40
0.7038695415
 40
0.7382316331
 40
0.7697886165
 40
0.7986831708
 40
0.8253082549
 40
0.8502560028
 40
0.8742388908
 40
0.8979621952
 40
0.9468195593
 40
1.0
 40
1.0
 40
1.0
 40
1.0
 10
333.6850877694
 20
434.6189095149
 30
0.0
 10
333.8434909129
 20
435.6596004
 30
0.0
 10
334.264251035
 20
437.6431192324
 30
0.0
 10
335.2478249414
 20
439.957794359
 30
0.0
 10
336.3478099431
 20
441.5290767093
 30
0.0
 10
337.3448243978
 20
442.5734775687
 30
0.0
 10
338.5359989876
 20
443.4871871944
 30
0.0
 10
339.930369428
 20
444.2670721869
 30
0.0
 10
341.5308328568
 20
444.9166928039
 30
0.0
 10
343.3348979592
 20
445.4431504313
 30
0.0
 10
345.3324926073
 20
445.8571371203
 30
0.0
 10
347.5054455702
 20
446.1711199818
 30
0.0
 10
349.8278538237
 20
446.3980347691
 30
0.0
 10
353.1239017876
 20
446.6028120229
 30
0.0
 10
357.3484045115
 20
446.6909270921
 30
0.0
 10
361.572907226
 20
446.6028120213
 30
0.0
 10
364.8689551601
 20
446.3980347648
 30
0.0
 10
367.1913634002
 20
446.1711199844
 30
0.0
 10
369.3643163766
 20
445.8571371099
 30
0.0
 10
371.3619110521
 20
445.4431504216
 30
0.0
 10
373.16597619
 20
444.9166927815
 30
0.0
 10
374.7664396193
 20
444.2670721121
 30
0.0
 10
376.1608100607
 20
443.4871871577
 30
0.0
 10
377.3519846135
 20
442.573477557
 30
0.0
 10
378.3489989888
 20
441.5290766903
 30
0.0
 10
379.4489840202
 20
439.9577943788
 30
0.0
 10
380.4325579171
 20
437.6431192319
 30
0.0
 10
380.8533180435
 20
435.6596004009
 30
0.0
 10
381.0117211871
 20
434.6189095149
 30
0.0
  0
SPLINE
  5
50A
100
AcDbEntity
  8
0
100
AcDbSpline
 62
7
  6
CONTINUOUS
 70
0
 71
3
 72
29
 73
25
 74
0
 42
0.0000001
 43
0.0000001
 44
0.0000000001
 40
0.0
 40
0.0
 40
0.0
 40
0.0
 40
0.0487056492
 40
0.0999478642
 40
0.1537496976
 40
0.210080668
 40
0.2689343493
 40
0.3303940643
 40
0.3946804564
 40
0.4280465243
 40
0.4622667289
 40
0.4973574295
 40
0.5332646235
 40
0.5698142517
 40
0.6066894152
 40
0.6434799324
 40
0.6798017049
 40
0.7153929023
 40
0.750134429
 40
0.7840073357
 40
0.8170423752
 40
0.8807339368
 40
0.9416568401
 40
1.0
 40
1.0
 40
1.0
 40
1.0
 10
381.0117211871
 20
434.6189095149
 30
0.0
 10
381.2667607207
 20
432.9433283865
 30
0.0
 10
381.603527288
 20
429.4759841242
 30
0.0
 10
381.7290353067
 20
424.1241832139
 30
0.0
 10
381.5195326391
 20
418.5089230711
 30
0.0
 10
380.9235087612
 20
412.6540261616
 30
0.0
 10
379.8028166071
 20
406.6004712495
 30
0.0
 10
377.9276112298
 20
400.4389630305
 30
0.0
 10
375.4799220916
 20
395.4300482489
 30
0.0
 10
372.8032700142
 20
391.6894142358
 30
0.0
 10
370.3486819581
 20
389.0758718734
 30
0.0
 10
367.4449293076
 20
386.8176159214
 30
0.0
 10
364.1081489178
 20
385.0732600519
 30
0.0
 10
360.4259452159
 20
384.0102762368
 30
0.0
 10
356.5679869998
 20
383.7568486691
 30
0.0
 10
352.7558075924
 20
384.3466170222
 30
0.0
 10
349.1966844739
 20
385.7027663682
 30
0.0
 10
346.0283169961
 20
387.6746113215
 30
0.0
 10
343.3065867619
 20
390.0934262973
 30
0.0
 10
341.0266284673
 20
392.81202769
 30
0.0
 10
338.5562227842
 20
396.6375902459
 30
0.0
 10
336.3160145928
 20
401.6813883002
 30
0.0
 10
334.6165364992
 20
407.8316118223
 30
0.0
 10
333.9353832398
 20
411.9322042344
 30
0.0
 10
333.6818194211
 20
413.9465577275
 30
0.0
  0
SPLINE
  5
50B
100
AcDbEntity
  8
0
100
AcDbSpline
 62
7
  6
CONTINUOUS
 70
0
 71
3
 72
11
 73
7
 74
0
 42
0.0000001
 43
0.0000001
 44
0.0000000001
 40
0.0
 40
0.0
 40
0.0
 40
0.0
 40
0.2673286732
 40
0.5231447492
 40
0.7673262435
 40
1.0
 40
1.0
 40
1.0
 40
1.0
 10
333.6818194211
 20
413.9465577275
 30
0.0
 10
333.4511479938
 20
415.7790502241
 30
0.0
 10
333.128143504
 20
419.3820797948
 30
0.0
 10
332.970622312
 20
424.6838973518
 30
0.0
 10
333.115392495
 20
429.7465743376
 30
0.0
 10
333.4431929909
 20
433.0296879529
 30
0.0
 10
333.6850877694
 20
434.6189095149
 30
0.0
  0
LINE
  5
50C
100
AcDbEntity
  8
BEZUGSACHSEN
100
AcDbLine
 62
7
  6
CONTINUOUS
 10
102.8449912422
 20
434.6189095149
 11
102.8716177252
 21
447.5247391872
  0
SPLINE
  5
50D
100
AcDbEntity
  8
0
100
AcDbSpline
 62
7
  6
CONTINUOUS
 70
0
 71
3
 72
19
 73
15
 74
0
 42
0.0000001
 43
0.0000001
 44
0.0000000001
 40
0.0
 40
0.0
 40
0.0
 40
0.0
 40
0.0198647043
 40
0.0432065548
 40
0.0722313999
 40
0.1079945078
 40
0.1508888776
 40
0.2009584528
 40
0.2580271154
 40
0.3217664791
 40
0.4673561
 40
0.6330448901
 40
0.8128627438
 40
1.0
 40
1.0
 40
1.0
 40
1.0
 10
27.3429044783
 20
373.1235260106
 30
0.0
 10
27.3429044783
 20
373.1932872226
 30
0.0
 10
27.3817195546
 20
373.3460057784
 30
0.0
 10
27.5369545916
 20
373.5516642499
 30
0.0
 10
27.7792485479
 20
373.7471706136
 30
0.0
 10
28.1085670911
 20
373.9352286776
 30
0.0
 10
28.5237138241
 20
374.1156939955
 30
0.0
 10
29.0223757011
 20
374.2870881019
 30
0.0
 10
29.6008092981
 20
374.4478952897
 30
0.0
 10
30.5133591907
 20
374.6552637346
 30
0.0
 10
31.8139214139
 20
374.8696779205
 30
0.0
 10
33.5292402274
 20
375.0547647315
 30
0.0
 10
35.3968808673
 20
375.1691074618
 30
0.0
 10
36.6857126269
 20
375.1947391872
 30
0.0
 10
37.3429044783
 20
375.1947391872
 30
0.0
  0
SPLINE
  5
50E
100
AcDbEntity
  8
BEZUGSACHSEN
100
AcDbSpline
 62
7
  6
CONTINUOUS
 70
0
 71
3
 72
11
 73
7
 74
0
 42
0.0000001
 43
0.0000001
 44
0.0000000001
 40
0.0
 40
0.0
 40
0.0
 40
0.0
 40
0.2501045987
 40
0.5003154539
 40
0.7503102816
 40
1.0
 40
1.0
 40
1.0
 40
1.0
 10
102.7794932805
 20
421.3487275827
 30
0.0
 10
102.8296460316
 20
415.2775605908
 30
0.0
 10
102.8998917046
 20
403.1323426183
 30
0.0
 10
102.8733140059
 20
384.9181637665
 30
0.0
 10
102.7274673971
 20
366.7146986222
 30
0.0
 10
102.5829015766
 20
354.5855323175
 30
0.0
 10
102.504301325
 20
348.5247391872
 30
0.0
  0
SPLINE
  5
50F
100
AcDbEntity
  8
0
100
AcDbSpline
 62
7
  6
CONTINUOUS
 70
0
 71
3
 72
33
 73
29
 74
0
 42
0.0000001
 43
0.0000001
 44
0.0000000001
 40
0.0
 40
0.0
 40
0.0
 40
0.0
 40
0.0531804406
 40
0.1020378047
 40
0.1257611087
 40
0.1497439978
 40
0.1746917474
 40
0.2013168312
 40
0.2302113849
 40
0.2617683681
 40
0.2961304587
 40
0.3331905101
 40
0.3726334233
 40
0.4139838716
 40
0.5000000007
 40
0.5860161293
 40
0.6273665771
 40
0.6668094899
 40
0.7038695415
 40
0.7382316331
 40
0.7697886165
 40
0.7986831708
 40
0.8253082549
 40
0.8502560028
 40
0.8742388908
 40
0.8979621952
 40
0.9468195593
 40
1.0
 40
1.0
 40
1.0
 40
1.0
 10
87.0007211871
 20
434.6189095149
 30
0.0
 10
86.8423180436
 20
435.6596004
 30
0.0
 10
86.4215579215
 20
437.6431192324
 30
0.0
 10
85.4379840152
 20
439.957794359
 30
0.0
 10
84.3379990135
 20
441.5290767093
 30
0.0
 10
83.3409845588
 20
442.5734775687
 30
0.0
 10
82.149809969
 20
443.4871871944
 30
0.0
 10
80.7554395285
 20
444.2670721869
 30
0.0
 10
79.1549760998
 20
444.9166928039
 30
0.0
 10
77.3509109974
 20
445.4431504313
 30
0.0
 10
75.3533163493
 20
445.8571371203
 30
0.0
 10
73.1803633863
 20
446.1711199818
 30
0.0
 10
70.8579551329
 20
446.3980347691
 30
0.0
 10
67.561907169
 20
446.6028120229
 30
0.0
 10
63.3374044451
 20
446.6909270921
 30
0.0
 10
59.1129017306
 20
446.6028120213
 30
0.0
 10
55.8168537965
 20
446.3980347648
 30
0.0
 10
53.4944455564
 20
446.1711199844
 30
0.0
 10
51.32149258
 20
445.8571371099
 30
0.0
 10
49.3238979045
 20
445.4431504216
 30
0.0
 10
47.5198327666
 20
444.9166927815
 30
0.0
 10
45.9193693373
 20
444.2670721121
 30
0.0
 10
44.5249988959
 20
443.4871871577
 30
0.0
 10
43.333824343
 20
442.573477557
 30
0.0
 10
42.3368099677
 20
441.5290766903
 30
0.0
 10
41.2368249364
 20
439.9577943788
 30
0.0
 10
40.2532510395
 20
437.6431192319
 30
0.0
 10
39.8324909131
 20
435.6596004009
 30
0.0
 10
39.6740877694
 20
434.6189095149
 30
0.0
  0
SPLINE
  5
510
100
AcDbEntity
  8
0
100
AcDbSpline
 62
7
  6
CONTINUOUS
 70
0
 71
3
 72
29
 73
25
 74
0
 42
0.0000001
 43
0.0000001
 44
0.0000000001
 40
0.0
 40
0.0
 40
0.0
 40
0.0
 40
0.0487056492
 40
0.0999478642
 40
0.1537496976
 40
0.210080668
 40
0.2689343493
 40
0.3303940643
 40
0.3946804564
 40
0.4280465243
 40
0.4622667289
 40
0.4973574295
 40
0.5332646235
 40
0.5698142517
 40
0.6066894152
 40
0.6434799324
 40
0.6798017049
 40
0.7153929023
 40
0.750134429
 40
0.7840073357
 40
0.8170423752
 40
0.8807339368
 40
0.9416568401
 40
1.0
 40
1.0
 40
1.0
 40
1.0
 10
39.6740877694
 20
434.6189095149
 30
0.0
 10
39.4190482359
 20
432.9433283865
 30
0.0
 10
39.0822816686
 20
429.4759841242
 30
0.0
 10
38.9567736498
 20
424.1241832139
 30
0.0
 10
39.1662763175
 20
418.5089230711
 30
0.0
 10
39.7623001954
 20
412.6540261616
 30
0.0
 10
40.8829923495
 20
406.6004712495
 30
0.0
 10
42.7581977268
 20
400.4389630305
 30
0.0
 10
45.2058868649
 20
395.4300482489
 30
0.0
 10
47.8825389424
 20
391.6894142358
 30
0.0
 10
50.3371269985
 20
389.0758718734
 30
0.0
 10
53.240879649
 20
386.8176159214
 30
0.0
 10
56.5776600388
 20
385.0732600519
 30
0.0
 10
60.2598637407
 20
384.0102762368
 30
0.0
 10
64.1178219568
 20
383.7568486691
 30
0.0
 10
67.9300013642
 20
384.3466170222
 30
0.0
 10
71.4891244826
 20
385.7027663682
 30
0.0
 10
74.6574919605
 20
387.6746113215
 30
0.0
 10
77.3792221946
 20
390.0934262973
 30
0.0
 10
79.6591804893
 20
392.81202769
 30
0.0
 10
82.1295861724
 20
396.6375902459
 30
0.0
 10
84.3697943638
 20
401.6813883002
 30
0.0
 10
86.0692724574
 20
407.8316118223
 30
0.0
 10
86.7504257167
 20
411.9322042344
 30
0.0
 10
87.0039895355
 20
413.9465577275
 30
0.0
  0
SPLINE
  5
511
100
AcDbEntity
  8
0
100
AcDbSpline
 62
7
  6
CONTINUOUS
 70
0
 71
3
 72
11
 73
7
 74
0
 42
0.0000001
 43
0.0000001
 44
0.0000000001
 40
0.0
 40
0.0
 40
0.0
 40
0.0
 40
0.2673286732
 40
0.5231447492
 40
0.7673262435
 40
1.0
 40
1.0
 40
1.0
 40
1.0
 10
87.0039895355
 20
413.9465577275
 30
0.0
 10
87.2346609628
 20
415.7790502241
 30
0.0
 10
87.5576654525
 20
419.3820797948
 30
0.0
 10
87.7151866446
 20
424.6838973518
 30
0.0
 10
87.5704164616
 20
429.7465743376
 30
0.0
 10
87.2426159656
 20
433.0296879529
 30
0.0
 10
87.0007211871
 20
434.6189095149
 30
0.0
  0
SPLINE
  5
512
100
AcDbEntity
  8
0
100
AcDbSpline
 62
7
  6
CONTINUOUS
 70
0
 71
3
 72
8
 73
4
 74
0
 42
0.0000001
 43
0.0000001
 44
0.0000000001
 40
0.0
 40
0.0
 40
0.0
 40
0.0
 40
1.0
 40
1.0
 40
1.0
 40
1.0
 10
228.5533596873
 20
396.4901160113
 30
0.0
 10
228.5533596873
 20
395.444630634
 30
0.0
 10
228.6293928027
 20
394.7413039766
 30
0.0
 10
228.7964747175
 20
394.3594025243
 30
0.0
  0
SPLINE
  5
513
100
AcDbEntity
  8
0
100
AcDbSpline
 62
7
  6
CONTINUOUS
 70
0
 71
3
 72
8
 73
4
 74
0
 42
0.0000001
 43
0.0000001
 44
0.0000000001
 40
0.0
 40
0.0
 40
0.0
 40
0.0
 40
1.0
 40
1.0
 40
1.0
 40
1.0
 10
228.7964747175
 20
394.3594025243
 30
0.0
 10
228.9620472789
 20
393.9809510223
 30
0.0
 10
229.2851988673
 20
393.6958186123
 30
0.0
 10
229.7683199715
 20
393.5110954577
 30
0.0
  0
SPLINE
  5
514
100
AcDbEntity
  8
0
100
AcDbSpline
 62
7
  6
CONTINUOUS
 70
0
 71
3
 72
8
 73
4
 74
0
 42
0.0000001
 43
0.0000001
 44
0.0000000001
 40
0.0
 40
0.0
 40
0.0
 40
0.0
 40
1.0
 40
1.0
 40
1.0
 40
1.0
 10
229.7683199715
 20
393.5110954577
 30
0.0
 10
230.2546469569
 20
393.3251465223
 30
0.0
 10
230.8059045672
 20
393.23010239
 30
0.0
 10
231.4141861796
 20
393.23010239
 30
0.0
  0
SPLINE
  5
515
100
AcDbEntity
  8
0
100
AcDbSpline
 62
7
  6
CONTINUOUS
 70
0
 71
3
 72
8
 73
4
 74
0
 42
0.0000001
 43
0.0000001
 44
0.0000000001
 40
0.0
 40
0.0
 40
0.0
 40
0.0
 40
1.0
 40
1.0
 40
1.0
 40
1.0
 10
231.4141861796
 20
393.23010239
 30
0.0
 10
231.7943617701
 20
393.23010239
 30
0.0
 10
232.3076011538
 20
393.2586156428
 30
0.0
 10
232.9634072184
 20
393.3156421091
 30
0.0
  0
SPLINE
  5
516
100
AcDbEntity
  8
0
100
AcDbSpline
 62
7
  6
CONTINUOUS
 70
0
 71
3
 72
8
 73
4
 74
0
 42
0.0000001
 43
0.0000001
 44
0.0000000001
 40
0.0
 40
0.0
 40
0.0
 40
0.0
 40
1.0
 40
1.0
 40
1.0
 40
1.0
 10
232.9634072184
 20
395.3590908758
 30
0.0
 10
232.64025563
 20
395.4731438867
 30
0.0
 10
232.4026467204
 20
395.5396747403
 30
0.0
 10
232.2409024857
 20
395.5570933123
 30
0.0
  0
SPLINE
  5
517
100
AcDbEntity
  8
0
100
AcDbSpline
 62
7
  6
CONTINUOUS
 70
0
 71
3
 72
8
 73
4
 74
0
 42
0.0000001
 43
0.0000001
 44
0.0000000001
 40
0.0
 40
0.0
 40
0.0
 40
0.0
 40
1.0
 40
1.0
 40
1.0
 40
1.0
 10
232.2409024857
 20
395.5570933123
 30
0.0
 10
231.7848588824
 20
395.6062055938
 30
0.0
 10
231.5092317462
 20
395.691745352
 30
0.0
 10
231.4141872159
 20
395.8057990178
 30
0.0
  0
SPLINE
  5
518
100
AcDbEntity
  8
0
100
AcDbSpline
 62
7
  6
CONTINUOUS
 70
0
 71
3
 72
8
 73
4
 74
0
 42
0.0000001
 43
0.0000001
 44
0.0000000001
 40
0.0
 40
0.0
 40
0.0
 40
0.0
 40
1.0
 40
1.0
 40
1.0
 40
1.0
 10
231.4141872159
 20
395.8057990178
 30
0.0
 10
231.3191439509
 20
395.9198511652
 30
0.0
 10
231.2716194987
 20
396.1479571871
 30
0.0
 10
231.2716194987
 20
396.5091247074
 30
0.0
  0
SPLINE
  5
519
100
AcDbEntity
  8
0
100
AcDbSpline
 62
7
  6
CONTINUOUS
 70
0
 71
3
 72
8
 73
4
 74
0
 42
0.0000001
 43
0.0000001
 44
0.0000000001
 40
0.0
 40
0.0
 40
0.0
 40
0.0
 40
1.0
 40
1.0
 40
1.0
 40
1.0
 10
217.9559381961
 20
394.1330223914
 30
0.0
 10
218.7353011966
 20
393.5247391872
 30
0.0
 10
219.7427675128
 20
393.23010239
 30
0.0
 10
220.9878460765
 20
393.23010239
 30
0.0
  0
SPLINE
  5
51A
100
AcDbEntity
  8
0
100
AcDbSpline
 62
7
  6
CONTINUOUS
 70
0
 71
3
 72
8
 73
4
 74
0
 42
0.0000001
 43
0.0000001
 44
0.0000000001
 40
0.0
 40
0.0
 40
0.0
 40
0.0
 40
1.0
 40
1.0
 40
1.0
 40
1.0
 10
220.9878460765
 20
393.23010239
 30
0.0
 10
222.4705335498
 20
393.23010239
 30
0.0
 10
223.6585847735
 20
393.6863141991
 30
0.0
 10
224.5329906214
 20
394.6177466298
 30
0.0
  0
SPLINE
  5
51B
100
AcDbEntity
  8
0
100
AcDbSpline
 62
7
  6
CONTINUOUS
 70
0
 71
3
 72
8
 73
4
 74
0
 42
0.0000001
 43
0.0000001
 44
0.0000000001
 40
0.0
 40
0.0
 40
0.0
 40
0.0
 40
1.0
 40
1.0
 40
1.0
 40
1.0
 10
224.5329906214
 20
394.6177466298
 30
0.0
 10
225.4073964953
 20
395.5491790883
 30
0.0
 10
225.8541056514
 20
396.7372307293
 30
0.0
 10
225.8541056514
 20
398.2009101323
 30
0.0
  0
SPLINE
  5
51C
100
AcDbEntity
  8
0
100
AcDbSpline
 62
7
  6
CONTINUOUS
 70
0
 71
3
 72
8
 73
4
 74
0
 42
0.0000001
 43
0.0000001
 44
0.0000000001
 40
0.0
 40
0.0
 40
0.0
 40
0.0
 40
1.0
 40
1.0
 40
1.0
 40
1.0
 10
225.8541056514
 20
398.2009101323
 30
0.0
 10
225.8541056514
 20
399.5220234804
 30
0.0
 10
225.4549209475
 20
400.5770134143
 30
0.0
 10
224.6755579613
 20
401.3753851215
 30
0.0
  0
SPLINE
  5
51D
100
AcDbEntity
  8
0
100
AcDbSpline
 62
7
  6
CONTINUOUS
 70
0
 71
3
 72
8
 73
4
 74
0
 42
0.0000001
 43
0.0000001
 44
0.0000000001
 40
0.0
 40
0.0
 40
0.0
 40
0.0
 40
1.0
 40
1.0
 40
1.0
 40
1.0
 10
224.6755579613
 20
401.3753851215
 30
0.0
 10
223.896197021
 20
402.173754733
 30
0.0
 10
222.8982335925
 20
402.5729402713
 30
0.0
 10
221.6911732554
 20
402.5729402713
 30
0.0
  0
SPLINE
  5
51E
100
AcDbEntity
  8
0
100
AcDbSpline
 62
7
  6
CONTINUOUS
 70
0
 71
3
 72
8
 73
4
 74
0
 42
0.0000001
 43
0.0000001
 44
0.0000000001
 40
0.0
 40
0.0
 40
0.0
 40
0.0
 40
1.0
 40
1.0
 40
1.0
 40
1.0
 10
221.6911732554
 20
402.5729402713
 30
0.0
 10
220.8357765078
 20
402.5729402713
 30
0.0
 10
220.0279008746
 20
402.3163205795
 30
0.0
 10
219.2675463557
 20
401.8030828647
 30
0.0
  0
SPLINE
  5
51F
100
AcDbEntity
  8
0
100
AcDbSpline
 62
7
  6
CONTINUOUS
 70
0
 71
3
 72
8
 73
4
 74
0
 42
0.0000001
 43
0.0000001
 44
0.0000000001
 40
0.0
 40
0.0
 40
0.0
 40
0.0
 40
1.0
 40
1.0
 40
1.0
 40
1.0
 10
219.2200252414
 20
399.4174750261
 30
0.0
 10
219.733264625
 20
400.0067487768
 30
0.0
 10
220.3605553508
 20
400.3108900003
 30
0.0
 10
221.1114036441
 20
400.3108900003
 30
0.0
  0
SPLINE
  5
520
100
AcDbEntity
  8
0
100
AcDbSpline
 62
7
  6
CONTINUOUS
 70
0
 71
3
 72
8
 73
4
 74
0
 42
0.0000001
 43
0.0000001
 44
0.0000000001
 40
0.0
 40
0.0
 40
0.0
 40
0.0
 40
1.0
 40
1.0
 40
1.0
 40
1.0
 10
221.1114036441
 20
400.3108900003
 30
0.0
 10
222.4325153231
 20
400.3108900003
 30
0.0
 10
223.0978242755
 20
399.5030147843
 30
0.0
 10
223.0978242755
 20
397.8967689089
 30
0.0
  0
SPLINE
  5
521
100
AcDbEntity
  8
0
100
AcDbSpline
 62
7
  6
CONTINUOUS
 70
0
 71
3
 72
8
 73
4
 74
0
 42
0.0000001
 43
0.0000001
 44
0.0000000001
 40
0.0
 40
0.0
 40
0.0
 40
0.0
 40
1.0
 40
1.0
 40
1.0
 40
1.0
 10
223.0978242755
 20
397.8967689089
 30
0.0
 10
223.0978242755
 20
397.1174073629
 30
0.0
 10
222.8982335925
 20
396.5186292641
 30
0.0
 10
222.5109300294
 20
396.1077105707
 30
0.0
  0
SPLINE
  5
522
100
AcDbEntity
  8
0
100
AcDbSpline
 62
7
  6
CONTINUOUS
 70
0
 71
3
 72
8
 73
4
 74
0
 42
0.0000001
 43
0.0000001
 44
0.0000000001
 40
0.0
 40
0.0
 40
0.0
 40
0.0
 40
1.0
 40
1.0
 40
1.0
 40
1.0
 10
222.5109300294
 20
396.1077105707
 30
0.0
 10
222.1188699603
 20
395.691745352
 30
0.0
 10
221.6341459155
 20
395.4921525828
 30
0.0
 10
221.0543763041
 20
395.4921525828
 30
0.0
  0
SPLINE
  5
523
100
AcDbEntity
  8
0
100
AcDbSpline
 62
7
  6
CONTINUOUS
 70
0
 71
3
 72
8
 73
4
 74
0
 42
0.0000001
 43
0.0000001
 44
0.0000000001
 40
0.0
 40
0.0
 40
0.0
 40
0.0
 40
1.0
 40
1.0
 40
1.0
 40
1.0
 10
221.0543763041
 20
395.4921525828
 30
0.0
 10
220.5601460337
 20
395.4921525828
 30
0.0
 10
220.1799704432
 20
395.6062055938
 30
0.0
 10
219.901999879
 20
395.8506287446
 30
0.0
  0
SPLINE
  5
524
100
AcDbEntity
  8
0
100
AcDbSpline
 62
7
  6
CONTINUOUS
 70
0
 71
3
 72
8
 73
4
 74
0
 42
0.0000001
 43
0.0000001
 44
0.0000000001
 40
0.0
 40
0.0
 40
0.0
 40
0.0
 40
1.0
 40
1.0
 40
1.0
 40
1.0
 10
219.901999879
 20
395.8506287446
 30
0.0
 10
219.6287161708
 20
396.0909306816
 30
0.0
 10
219.3816010356
 20
396.5471425168
 30
0.0
 10
219.1629979014
 20
397.2124512605
 30
0.0
  0
SPLINE
  5
525
100
AcDbEntity
  8
0
100
AcDbSpline
 62
7
  6
CONTINUOUS
 70
0
 71
3
 72
8
 73
4
 74
0
 42
0.0000001
 43
0.0000001
 44
0.0000000001
 40
0.0
 40
0.0
 40
0.0
 40
0.0
 40
1.0
 40
1.0
 40
1.0
 40
1.0
 10
216.4067198634
 20
397.2124512605
 30
0.0
 10
216.6633378863
 20
395.7677805535
 30
0.0
 10
217.17657727
 20
394.7413039766
 30
0.0
 10
217.9559381961
 20
394.1330223914
 30
0.0
  0
SPLINE
  5
526
100
AcDbEntity
  8
0
100
AcDbSpline
 62
7
  6
CONTINUOUS
 70
0
 71
3
 72
8
 73
4
 74
0
 42
0.0000001
 43
0.0000001
 44
0.0000000001
 40
0.0
 40
0.0
 40
0.0
 40
0.0
 40
1.0
 40
1.0
 40
1.0
 40
1.0
 10
212.5859448313
 20
393.3156421091
 30
0.0
 10
212.5479266047
 20
392.3652007989
 30
0.0
 10
212.03468889
 20
391.6998918466
 30
0.0
 10
211.0367254615
 20
391.3197154216
 30
0.0
  0
SPLINE
  5
527
100
AcDbEntity
  8
0
100
AcDbSpline
 62
7
  6
CONTINUOUS
 70
0
 71
3
 72
8
 73
4
 74
0
 42
0.0000001
 43
0.0000001
 44
0.0000000001
 40
0.0
 40
0.0
 40
0.0
 40
0.0
 40
1.0
 40
1.0
 40
1.0
 40
1.0
 10
211.0367254615
 20
390.2362124435
 30
0.0
 10
212.9376084208
 20
390.6353977732
 30
0.0
 10
213.888049066
 20
391.8139448575
 30
0.0
 10
213.888049066
 20
393.7718539312
 30
0.0
  0
SPLINE
  5
528
100
AcDbEntity
  8
0
100
AcDbSpline
 62
7
  6
CONTINUOUS
 70
0
 71
3
 72
8
 73
4
 74
0
 42
0.0000001
 43
0.0000001
 44
0.0000000001
 40
0.0
 40
0.0
 40
0.0
 40
0.0
 40
1.0
 40
1.0
 40
1.0
 40
1.0
 10
203.5757619738
 20
407.0495188646
 30
0.0
 10
203.4236907363
 20
406.3937144689
 30
0.0
 10
203.2240983844
 20
405.9279978685
 30
0.0
 10
202.9579745818
 20
405.6428649249
 30
0.0
  0
SPLINE
  5
529
100
AcDbEntity
  8
0
100
AcDbSpline
 62
7
  6
CONTINUOUS
 70
0
 71
3
 72
8
 73
4
 74
0
 42
0.0000001
 43
0.0000001
 44
0.0000000001
 40
0.0
 40
0.0
 40
0.0
 40
0.0
 40
1.0
 40
1.0
 40
1.0
 40
1.0
 10
202.9579745818
 20
405.6428649249
 30
0.0
 10
202.6918515563
 20
405.3577328138
 30
0.0
 10
202.3496925235
 20
405.1296267919
 30
0.0
 10
201.9331507149
 20
404.9639566033
 30
0.0
  0
SPLINE
  5
52A
100
AcDbEntity
  8
0
100
AcDbSpline
 62
7
  6
CONTINUOUS
 70
0
 71
3
 72
8
 73
4
 74
0
 42
0.0000001
 43
0.0000001
 44
0.0000000001
 40
0.0
 40
0.0
 40
0.0
 40
0.0
 40
1.0
 40
1.0
 40
1.0
 40
1.0
 10
201.9331507149
 20
404.9639566033
 30
0.0
 10
201.5133048892
 20
404.7969723157
 30
0.0
 10
200.8194822669
 20
404.7209375314
 30
0.0
 10
199.8500316739
 20
404.7209375314
 30
0.0
  0
SPLINE
  5
52B
100
AcDbEntity
  8
0
100
AcDbSpline
 62
7
  6
CONTINUOUS
 70
0
 71
3
 72
8
 73
4
 74
0
 42
0.0000001
 43
0.0000001
 44
0.0000000001
 40
0.0
 40
0.0
 40
0.0
 40
0.0
 40
1.0
 40
1.0
 40
1.0
 40
1.0
 10
188.3306836188
 20
395.1024717055
 30
0.0
 10
188.7298689484
 20
394.4751804582
 30
0.0
 10
189.2811248898
 20
393.9999598227
 30
0.0
 10
189.9749470973
 20
393.6958186178
 30
0.0
  0
SPLINE
  5
52C
100
AcDbEntity
  8
0
100
AcDbSpline
 62
7
  6
CONTINUOUS
 70
0
 71
3
 72
8
 73
4
 74
0
 42
0.0000001
 43
0.0000001
 44
0.0000000001
 40
0.0
 40
0.0
 40
0.0
 40
0.0
 40
1.0
 40
1.0
 40
1.0
 40
1.0
 10
189.9749470973
 20
393.6958186178
 30
0.0
 10
190.6687693
 20
393.391677415
 30
0.0
 10
191.448130846
 20
393.23010239
 30
0.0
 10
192.3035280108
 20
393.23010239
 30
0.0
  0
SPLINE
  5
52D
100
AcDbEntity
  8
0
100
AcDbSpline
 62
7
  6
CONTINUOUS
 70
0
 71
3
 72
8
 73
4
 74
0
 42
0.0000001
 43
0.0000001
 44
0.0000000001
 40
0.0
 40
0.0
 40
0.0
 40
0.0
 40
1.0
 40
1.0
 40
1.0
 40
1.0
 10
192.3035280108
 20
393.23010239
 30
0.0
 10
193.7291902303
 20
393.23010239
 30
0.0
 10
194.8697199225
 20
393.638792146
 30
0.0
 10
195.7274885314
 20
394.4727338287
 30
0.0
  0
SPLINE
  5
52E
100
AcDbEntity
  8
0
100
AcDbSpline
 62
7
  6
CONTINUOUS
 70
0
 71
3
 72
8
 73
4
 74
0
 42
0.0000001
 43
0.0000001
 44
0.0000000001
 40
0.0
 40
0.0
 40
0.0
 40
0.0
 40
1.0
 40
1.0
 40
1.0
 40
1.0
 10
195.7274885314
 20
394.4727338287
 30
0.0
 10
196.5805142522
 20
395.3020643703
 30
0.0
 10
197.008212626
 20
396.3570540957
 30
0.0
 10
197.008212626
 20
397.6401500515
 30
0.0
  0
SPLINE
  5
52F
100
AcDbEntity
  8
0
100
AcDbSpline
 62
7
  6
CONTINUOUS
 70
0
 71
3
 72
8
 73
4
 74
0
 42
0.0000001
 43
0.0000001
 44
0.0000000001
 40
0.0
 40
0.0
 40
0.0
 40
0.0
 40
1.0
 40
1.0
 40
1.0
 40
1.0
 10
197.008212626
 20
397.6401500515
 30
0.0
 10
197.008212626
 20
398.3244676999
 30
0.0
 10
196.865645945
 20
398.9327501468
 30
0.0
 10
196.5863346993
 20
399.4535005539
 30
0.0
  0
SPLINE
  5
530
100
AcDbEntity
  8
0
100
AcDbSpline
 62
7
  6
CONTINUOUS
 70
0
 71
3
 72
8
 73
4
 74
0
 42
0.0000001
 43
0.0000001
 44
0.0000000001
 40
0.0
 40
0.0
 40
0.0
 40
0.0
 40
1.0
 40
1.0
 40
1.0
 40
1.0
 10
196.5863346993
 20
399.4535005539
 30
0.0
 10
196.3048862815
 20
399.9782355241
 30
0.0
 10
195.8011522889
 20
400.4344471506
 30
0.0
 10
195.0598077178
 20
400.8241285495
 30
0.0
  0
SPLINE
  5
531
100
AcDbEntity
  8
0
100
AcDbSpline
 62
7
  6
CONTINUOUS
 70
0
 71
3
 72
8
 73
4
 74
0
 42
0.0000001
 43
0.0000001
 44
0.0000000001
 40
0.0
 40
0.0
 40
0.0
 40
0.0
 40
1.0
 40
1.0
 40
1.0
 40
1.0
 10
195.0598077178
 20
400.8241285495
 30
0.0
 10
196.0862848162
 20
401.5084457807
 30
0.0
 10
196.6090270877
 20
402.4493827037
 30
0.0
 10
196.6090270877
 20
403.6469384841
 30
0.0
  0
SPLINE
  5
532
100
AcDbEntity
  8
0
100
AcDbSpline
 62
7
  6
CONTINUOUS
 70
0
 71
3
 72
8
 73
4
 74
0
 42
0.0000001
 43
0.0000001
 44
0.0000000001
 40
0.0
 40
0.0
 40
0.0
 40
0.0
 40
1.0
 40
1.0
 40
1.0
 40
1.0
 10
196.6090270877
 20
403.6469384841
 30
0.0
 10
196.6090270877
 20
404.7399466447
 30
0.0
 10
196.219346106
 20
405.6333607845
 30
0.0
 10
195.4568846026
 20
406.3153139485
 30
0.0
  0
SPLINE
  5
533
100
AcDbEntity
  8
0
100
AcDbSpline
 62
7
  6
CONTINUOUS
 70
0
 71
3
 72
8
 73
4
 74
0
 42
0.0000001
 43
0.0000001
 44
0.0000000001
 40
0.0
 40
0.0
 40
0.0
 40
0.0
 40
1.0
 40
1.0
 40
1.0
 40
1.0
 10
195.4568846026
 20
406.3153139485
 30
0.0
 10
194.6891358495
 20
407.0019960813
 30
0.0
 10
193.6436504721
 20
407.3536596708
 30
0.0
 10
192.3130325675
 20
407.3536596708
 30
0.0
  0
SPLINE
  5
534
100
AcDbEntity
  8
0
100
AcDbSpline
 62
7
  6
CONTINUOUS
 70
0
 71
3
 72
8
 73
4
 74
0
 42
0.0000001
 43
0.0000001
 44
0.0000000001
 40
0.0
 40
0.0
 40
0.0
 40
0.0
 40
1.0
 40
1.0
 40
1.0
 40
1.0
 10
192.3130325675
 20
407.3536596708
 30
0.0
 10
190.9443972707
 20
407.3536596708
 30
0.0
 10
189.860894084
 20
406.9544741325
 30
0.0
 10
189.0839117564
 20
406.1727542958
 30
0.0
  0
SPLINE
  5
535
100
AcDbEntity
  8
0
100
AcDbSpline
 62
7
  6
CONTINUOUS
 70
0
 71
3
 72
8
 73
4
 74
0
 42
0.0000001
 43
0.0000001
 44
0.0000000001
 40
0.0
 40
0.0
 40
0.0
 40
0.0
 40
1.0
 40
1.0
 40
1.0
 40
1.0
 10
189.0839117564
 20
406.1727542958
 30
0.0
 10
188.3021704703
 20
405.3862464837
 30
0.0
 10
187.9124894887
 20
404.3027428798
 30
0.0
 10
187.9124894887
 20
402.9246030263
 30
0.0
  0
SPLINE
  5
536
100
AcDbEntity
  8
0
100
AcDbSpline
 62
7
  6
CONTINUOUS
 70
0
 71
3
 72
8
 73
4
 74
0
 42
0.0000001
 43
0.0000001
 44
0.0000000001
 40
0.0
 40
0.0
 40
0.0
 40
0.0
 40
1.0
 40
1.0
 40
1.0
 40
1.0
 10
190.4121500253
 20
402.9246030263
 30
0.0
 10
190.4311587214
 20
404.3692739419
 30
0.0
 10
191.0394411683
 20
405.0916093997
 30
0.0
 10
192.2274928093
 20
405.0916093997
 30
0.0
  0
SPLINE
  5
537
100
AcDbEntity
  8
0
100
AcDbSpline
 62
7
  6
CONTINUOUS
 70
0
 71
3
 72
8
 73
4
 74
0
 42
0.0000001
 43
0.0000001
 44
0.0000000001
 40
0.0
 40
0.0
 40
0.0
 40
0.0
 40
1.0
 40
1.0
 40
1.0
 40
1.0
 10
192.2274928093
 20
405.0916093997
 30
0.0
 10
192.6932089925
 20
405.0916093997
 30
0.0
 10
193.0828899741
 20
404.9395389966
 30
0.0
 10
193.3846476793
 20
404.6519259834
 30
0.0
  0
SPLINE
  5
538
100
AcDbEntity
  8
0
100
AcDbSpline
 62
7
  6
CONTINUOUS
 70
0
 71
3
 72
8
 73
4
 74
0
 42
0.0000001
 43
0.0000001
 44
0.0000000001
 40
0.0
 40
0.0
 40
0.0
 40
0.0
 40
1.0
 40
1.0
 40
1.0
 40
1.0
 10
193.3846476793
 20
404.6519259834
 30
0.0
 10
193.691172421
 20
404.3597693853
 30
0.0
 10
193.8527473807
 20
403.9415755681
 30
0.0
 10
193.8527473807
 20
403.4093287401
 30
0.0
  0
SPLINE
  5
539
100
AcDbEntity
  8
0
100
AcDbSpline
 62
7
  6
CONTINUOUS
 70
0
 71
3
 72
8
 73
4
 74
0
 42
0.0000001
 43
0.0000001
 44
0.0000000001
 40
0.0
 40
0.0
 40
0.0
 40
0.0
 40
1.0
 40
1.0
 40
1.0
 40
1.0
 10
193.8527473807
 20
403.4093287401
 30
0.0
 10
193.8527473807
 20
402.9816295318
 30
0.0
 10
193.7386943698
 20
402.6014531068
 30
0.0
 10
193.5200929045
 20
402.2687986307
 30
0.0
  0
SPLINE
  5
53A
100
AcDbEntity
  8
0
100
AcDbSpline
 62
7
  6
CONTINUOUS
 70
0
 71
3
 72
8
 73
4
 74
0
 42
0.0000001
 43
0.0000001
 44
0.0000000001
 40
0.0
 40
0.0
 40
0.0
 40
0.0
 40
1.0
 40
1.0
 40
1.0
 40
1.0
 10
193.5200929045
 20
402.2687986307
 30
0.0
 10
193.3014914393
 20
401.9361441545
 30
0.0
 10
193.0163593292
 20
401.7175426893
 30
0.0
 10
192.6747824953
 20
401.6111502636
 30
0.0
  0
SPLINE
  5
53B
100
AcDbEntity
  8
0
100
AcDbSpline
 62
7
  6
CONTINUOUS
 70
0
 71
3
 72
8
 73
4
 74
0
 42
0.0000001
 43
0.0000001
 44
0.0000000001
 40
0.0
 40
0.0
 40
0.0
 40
0.0
 40
1.0
 40
1.0
 40
1.0
 40
1.0
 10
192.6747824953
 20
401.6111502636
 30
0.0
 10
192.4365901351
 20
401.5369594507
 30
0.0
 10
192.1324489116
 20
401.5084457807
 30
0.0
 10
191.7617766261
 20
401.5084457807
 30
0.0
  0
SPLINE
  5
53C
100
AcDbEntity
  8
0
100
AcDbSpline
 62
7
  6
CONTINUOUS
 70
0
 71
3
 72
8
 73
4
 74
0
 42
0.0000001
 43
0.0000001
 44
0.0000000001
 40
0.0
 40
0.0
 40
0.0
 40
0.0
 40
1.0
 40
1.0
 40
1.0
 40
1.0
 10
191.5811929703
 20
399.5410325937
 30
0.0
 10
192.1704663038
 20
399.5410325937
 30
0.0
 10
192.6646957397
 20
399.4745015315
 30
0.0
 10
193.054072163
 20
399.3405560704
 30
0.0
  0
SPLINE
  5
53D
100
AcDbEntity
  8
0
100
AcDbSpline
 62
7
  6
CONTINUOUS
 70
0
 71
3
 72
8
 73
4
 74
0
 42
0.0000001
 43
0.0000001
 44
0.0000000001
 40
0.0
 40
0.0
 40
0.0
 40
0.0
 40
1.0
 40
1.0
 40
1.0
 40
1.0
 10
193.054072163
 20
399.3405560704
 30
0.0
 10
193.8527473807
 20
399.0658118538
 30
0.0
 10
194.251932919
 20
398.4385207109
 30
0.0
 10
194.251932919
 20
397.4595659785
 30
0.0
  0
SPLINE
  5
53E
100
AcDbEntity
  8
0
100
AcDbSpline
 62
7
  6
CONTINUOUS
 70
0
 71
3
 72
8
 73
4
 74
0
 42
0.0000001
 43
0.0000001
 44
0.0000000001
 40
0.0
 40
0.0
 40
0.0
 40
0.0
 40
1.0
 40
1.0
 40
1.0
 40
1.0
 10
194.251932919
 20
397.4595659785
 30
0.0
 10
194.251932919
 20
396.8702924363
 30
0.0
 10
194.0713488459
 20
396.3950719051
 30
0.0
 10
193.7196856737
 20
396.0339041762
 30
0.0
  0
SPLINE
  5
53F
100
AcDbEntity
  8
0
100
AcDbSpline
 62
7
  6
CONTINUOUS
 70
0
 71
3
 72
8
 73
4
 74
0
 42
0.0000001
 43
0.0000001
 44
0.0000000001
 40
0.0
 40
0.0
 40
0.0
 40
0.0
 40
1.0
 40
1.0
 40
1.0
 40
1.0
 10
193.7196856737
 20
396.0339041762
 30
0.0
 10
193.3680225014
 20
395.6727364473
 30
0.0
 10
192.9213150143
 20
395.4921525828
 30
0.0
 10
192.3795636296
 20
395.4921525828
 30
0.0
  0
SPLINE
  5
540
100
AcDbEntity
  8
0
100
AcDbSpline
 62
7
  6
CONTINUOUS
 70
0
 71
3
 72
8
 73
4
 74
0
 42
0.0000001
 43
0.0000001
 44
0.0000000001
 40
0.0
 40
0.0
 40
0.0
 40
0.0
 40
1.0
 40
1.0
 40
1.0
 40
1.0
 10
192.3795636296
 20
395.4921525828
 30
0.0
 10
191.2200252414
 20
395.4921525828
 30
0.0
 10
190.5927340984
 20
396.2525056414
 30
0.0
 10
190.4786810875
 20
397.7732117585
 30
0.0
  0
SPLINE
  5
541
100
AcDbEntity
  8
0
100
AcDbSpline
 62
7
  6
CONTINUOUS
 70
0
 71
3
 72
8
 73
4
 74
0
 42
0.0000001
 43
0.0000001
 44
0.0000000001
 40
0.0
 40
0.0
 40
0.0
 40
0.0
 40
1.0
 40
1.0
 40
1.0
 40
1.0
 10
187.7224012241
 20
397.7732117585
 30
0.0
 10
187.7224012241
 20
396.6136733703
 30
0.0
 10
187.9314982891
 20
395.7297629527
 30
0.0
 10
188.3306836188
 20
395.1024717055
 30
0.0
  0
SPLINE
  5
542
100
AcDbEntity
  8
0
100
AcDbSpline
 62
7
  6
CONTINUOUS
 70
0
 71
3
 72
9
 73
5
 74
0
 42
0.0000001
 43
0.0000001
 44
0.0000000001
 40
0.0
 40
0.0
 40
0.0
 40
0.0
 40
0.502112688
 40
1.0
 40
1.0
 40
1.0
 40
1.0
 10
251.3070060934
 20
419.2779812524
 30
0.0
 10
251.3070060934
 20
420.250613944
 30
0.0
 10
251.1423856439
 20
422.1911498322
 30
0.0
 10
250.6631722197
 20
424.0771764482
 30
0.0
 10
250.3559839905
 20
424.9913946646
 30
0.0
  0
SPLINE
  5
543
100
AcDbEntity
  8
0
100
AcDbSpline
 62
7
  6
CONTINUOUS
 70
0
 71
3
 72
9
 73
5
 74
0
 42
0.0000001
 43
0.0000001
 44
0.0000000001
 40
0.0
 40
0.0
 40
0.0
 40
0.0
 40
0.5021126884
 40
1.0
 40
1.0
 40
1.0
 40
1.0
 10
169.3788028631
 20
419.2779812524
 30
0.0
 10
169.3788028631
 20
420.2506139132
 30
0.0
 10
169.5434232866
 20
422.1911497413
 30
0.0
 10
170.0226367246
 20
424.07717629
 30
0.0
 10
170.3298249473
 20
424.9913944747
 30
0.0
  0
SPLINE
  5
544
100
AcDbEntity
  8
RUNDUNGEN
100
AcDbSpline
 62
7
  6
CONTINUOUS
 70
0
 71
3
 72
9
 73
5
 74
0
 42
0.0000001
 43
0.0000001
 44
0.0000000001
 40
0.0
 40
0.0
 40
0.0
 40
0.0
 40
0.4999994904
 40
1.0
 40
1.0
 40
1.0
 40
1.0
 10
174.1826504404
 20
426.93388079
 30
0.0
 10
175.1525003507
 20
426.4544681626
 30
0.0
 10
177.0814853484
 20
425.474121037
 30
0.0
 10
179.0098360086
 20
424.4926790501
 30
0.0
 10
179.9768002851
 20
424.0074675749
 30
0.0
  0
SPLINE
  5
545
100
AcDbEntity
  8
RUNDUNGEN
100
AcDbSpline
 62
7
  6
CONTINUOUS
 70
0
 71
3
 72
10
 73
6
 74
0
 42
0.0000001
 43
0.0000001
 44
0.0000000001
 40
0.0
 40
0.0
 40
0.0
 40
0.0
 40
0.5094976093
 40
0.7574156314
 40
1.0
 40
1.0
 40
1.0
 40
1.0
 10
170.3298249473
 20
424.9913944747
 30
0.0
 10
170.4603504987
 20
425.3798495774
 30
0.0
 10
170.7299129556
 20
425.9380377595
 30
0.0
 10
171.2358712812
 20
426.5663551601
 30
0.0
 10
171.5288651589
 20
426.8333933433
 30
0.0
 10
171.6826504404
 20
426.9534762153
 30
0.0
  0
SPLINE
  5
546
100
AcDbEntity
  8
RUNDUNGEN
100
AcDbSpline
 62
7
  6
CONTINUOUS
 70
0
 71
3
 72
10
 73
6
 74
0
 42
0.0000001
 43
0.0000001
 44
0.0000000001
 40
0.0
 40
0.0
 40
0.0
 40
0.0
 40
0.2425846225
 40
0.4905026144
 40
1.0
 40
1.0
 40
1.0
 40
1.0
 10
249.0031585161
 20
426.9534762944
 30
0.0
 10
249.1569439558
 20
426.8333933048
 30
0.0
 10
249.4499379708
 20
426.5663550192
 30
0.0
 10
249.9558961815
 20
425.9380375611
 30
0.0
 10
250.2254585029
 20
425.379849583
 30
0.0
 10
250.3559839905
 20
424.9913946646
 30
0.0
  0
SPLINE
  5
547
100
AcDbEntity
  8
RUNDUNGEN
100
AcDbSpline
 62
7
  6
CONTINUOUS
 70
0
 71
3
 72
9
 73
5
 74
0
 42
0.0000001
 43
0.0000001
 44
0.0000000001
 40
0.0
 40
0.0
 40
0.0
 40
0.0
 40
0.5000005097
 40
1.0
 40
1.0
 40
1.0
 40
1.0
 10
240.709008501
 20
424.0074674969
 30
0.0
 10
241.6759727912
 20
424.4926790118
 30
0.0
 10
243.6043235153
 20
425.4741210051
 30
0.0
 10
245.5333085956
 20
426.454468099
 30
0.0
 10
246.5031585161
 20
426.9338807729
 30
0.0
  0
SPLINE
  5
548
100
AcDbEntity
  8
RUNDUNGEN
100
AcDbSpline
 62
7
  6
CONTINUOUS
 70
0
 71
3
 72
12
 73
8
 74
0
 42
0.0000001
 43
0.0000001
 44
0.0000000001
 40
0.0
 40
0.0
 40
0.0
 40
0.0
 40
0.1282544462
 40
0.2557812935
 40
0.5066839756
 40
0.7540439213
 40
1.0
 40
1.0
 40
1.0
 40
1.0
 10
174.1826504404
 20
388.5379062067
 30
0.0
 10
174.0478995541
 20
388.5379062067
 30
0.0
 10
173.7785081753
 20
388.5628177144
 30
0.0
 10
173.2633083351
 20
388.7058474751
 30
0.0
 10
172.6824884189
 20
389.0360762337
 30
0.0
 10
172.1177009064
 20
389.584737135
 30
0.0
 10
171.8170480566
 20
390.010004774
 30
0.0
 10
171.6826504404
 20
390.230720198
 30
0.0
  0
SPLINE
  5
549
100
AcDbEntity
  8
RUNDUNGEN
100
AcDbSpline
 62
7
  6
CONTINUOUS
 70
0
 71
3
 72
12
 73
8
 74
0
 42
0.0000001
 43
0.0000001
 44
0.0000000001
 40
0.0
 40
0.0
 40
0.0
 40
0.0
 40
0.1187840813
 40
0.2386908029
 40
0.4845612452
 40
0.7399600569
 40
1.0
 40
1.0
 40
1.0
 40
1.0
 10
171.6826504404
 20
426.9534762153
 30
0.0
 10
171.764917361
 20
427.0177141448
 30
0.0
 10
171.942314637
 20
427.1322954148
 30
0.0
 10
172.3399861312
 20
427.2913427187
 30
0.0
 10
172.8955777877
 20
427.3412490418
 30
0.0
 10
173.5567279826
 20
427.2078899996
 30
0.0
 10
173.9778119329
 20
427.0351358049
 30
0.0
 10
174.1826504404
 20
426.93388079
 30
0.0
  0
SPLINE
  5
54A
100
AcDbEntity
  8
RUNDUNGEN
100
AcDbSpline
 62
7
  6
CONTINUOUS
 70
0
 71
3
 72
12
 73
8
 74
0
 42
0.0000001
 43
0.0000001
 44
0.0000000001
 40
0.0
 40
0.0
 40
0.0
 40
0.0
 40
0.2459561124
 40
0.4933162186
 40
0.7442194509
 40
0.8717461778
 40
1.0
 40
1.0
 40
1.0
 40
1.0
 10
249.0031585161
 20
390.230720198
 30
0.0
 10
248.8687608833
 20
390.0100047467
 30
0.0
 10
248.5681079107
 20
389.5847369546
 30
0.0
 10
248.0033198215
 20
389.0360755177
 30
0.0
 10
247.4224990853
 20
388.7058468072
 30
0.0
 10
246.9072993222
 20
388.5628176115
 30
0.0
 10
246.6379087451
 20
388.5379062067
 30
0.0
 10
246.5031585161
 20
388.5379062067
 30
0.0
  0
SPLINE
  5
54B
100
AcDbEntity
  8
RUNDUNGEN
100
AcDbSpline
 62
7
  6
CONTINUOUS
 70
0
 71
3
 72
12
 73
8
 74
0
 42
0.0000001
 43
0.0000001
 44
0.0000000001
 40
0.0
 40
0.0
 40
0.0
 40
0.0
 40
0.2600426515
 40
0.5154404524
 40
0.7613062258
 40
0.8812137433
 40
1.0
 40
1.0
 40
1.0
 40
1.0
 10
246.5031585161
 20
426.9338807729
 30
0.0
 10
246.7079991534
 20
427.0351368494
 30
0.0
 10
247.1290846542
 20
427.2078911924
 30
0.0
 10
247.7902326007
 20
427.3412491098
 30
0.0
 10
248.3458192626
 20
427.2913421599
 30
0.0
 10
248.7434901786
 20
427.1322975975
 30
0.0
 10
248.9208900875
 20
427.0177153985
 30
0.0
 10
249.0031585161
 20
426.9534762944
 30
0.0
  0
SPLINE
  5
54C
100
AcDbEntity
  8
BEZUGSACHSEN
100
AcDbSpline
 62
7
  6
CONTINUOUS
 70
0
 71
3
 72
9
 73
5
 74
0
 42
0.0000001
 43
0.0000001
 44
0.0000000001
 40
0.0
 40
0.0
 40
0.0
 40
0.0
 40
0.2698213077
 40
1.0
 40
1.0
 40
1.0
 40
1.0
 10
317.8141912313
 20
105.03
 30
0.0
 10
317.8141912313
 20
101.8135844626
 30
0.0
 10
317.8164322638
 20
89.8930455072
 30
0.0
 10
317.8261360925
 20
77.9725052289
 30
0.0
 10
317.8408177143
 20
69.2683937195
 30
0.0
  0
SPLINE
  5
54D
100
AcDbEntity
  8
BEZUGSACHSEN
100
AcDbSpline
 62
7
  6
CONTINUOUS
 70
0
 71
3
 72
9
 73
5
 74
0
 42
0.0000001
 43
0.0000001
 44
0.0000000001
 40
0.0
 40
0.0
 40
0.0
 40
0.0
 40
0.2225949065
 40
1.0
 40
1.0
 40
1.0
 40
1.0
 10
317.8408177143
 20
140.7916062805
 30
0.0
 10
317.8363420233
 20
138.1381586789
 30
0.0
 10
317.8198368577
 20
126.217630172
 30
0.0
 10
317.8141912313
 20
114.297088128
 30
0.0
 10
317.8141912313
 20
105.03
 30
0.0
  0
SPLINE
  5
54E
100
AcDbEntity
  8
0
100
AcDbSpline
 62
7
  6
CONTINUOUS
 70
0
 71
3
 72
23
 73
19
 74
0
 42
0.0000001
 43
0.0000001
 44
0.0000000001
 40
0.0
 40
0.0
 40
0.0
 40
0.0
 40
0.0537286356
 40
0.1111721332
 40
0.1718442448
 40
0.2351193531
 40
0.300237105
 40
0.3664358998
 40
0.4331330747
 40
0.5000000006
 40
0.5668669261
 40
0.6335641002
 40
0.6997628962
 40
0.7648806492
 40
0.8281557559
 40
0.8888278667
 40
0.9462713644
 40
1.0
 40
1.0
 40
1.0
 40
1.0
 10
333.6850877694
 20
69.2683937195
 30
0.0
 10
333.8578343064
 20
70.6360243249
 30
0.0
 10
334.336743655
 20
73.4522312564
 30
0.0
 10
335.4993500768
 20
77.7138976381
 30
0.0
 10
337.2739766493
 20
82.0323725472
 30
0.0
 10
339.8053959907
 20
86.1986924254
 30
0.0
 10
343.1830091418
 20
89.9236984682
 30
0.0
 10
347.3735262176
 20
92.8762403044
 30
0.0
 10
352.1927057059
 20
94.7678059251
 30
0.0
 10
357.3484045126
 20
95.4174905855
 30
0.0
 10
362.504103297
 20
94.7678059091
 30
0.0
 10
367.3232827838
 20
92.8762402869
 30
0.0
 10
371.5137998942
 20
89.9236984179
 30
0.0
 10
374.8914130153
 20
86.1986923216
 30
0.0
 10
377.422832359
 20
82.0323724872
 30
0.0
 10
379.1974588746
 20
77.7138976204
 30
0.0
 10
380.360065303
 20
73.4522312626
 30
0.0
 10
380.83897465
 20
70.6360243262
 30
0.0
 10
381.0117211871
 20
69.2683937195
 30
0.0
  0
SPLINE
  5
54F
100
AcDbEntity
  8
0
100
AcDbSpline
 62
7
  6
CONTINUOUS
 70
0
 71
3
 72
34
 73
30
 74
0
 42
0.0000001
 43
0.0000001
 44
0.0000000001
 40
0.0
 40
0.0
 40
0.0
 40
0.0
 40
0.0655587542
 40
0.1280326275
 40
0.1873862919
 40
0.2437056882
 40
0.2708688338
 40
0.2975275089
 40
0.3239186212
 40
0.3504117351
 40
0.3775467121
 40
0.4060446049
 40
0.43675119
 40
0.4704831036
 40
0.5077523761
 40
0.5484011238
 40
0.5913192743
 40
0.6345838872
 40
0.6761345811
 40
0.7145572996
 40
0.749402294
 40
0.7810056147
 40
0.8101219708
 40
0.8376113936
 40
0.8642447005
 40
0.8906205789
 40
0.9171615697
 40
0.9441424873
 40
1.0
 40
1.0
 40
1.0
 40
1.0
 10
381.0117211871
 20
69.2683937195
 30
0.0
 10
381.2628490947
 20
67.2802194942
 30
0.0
 10
381.6023714828
 20
63.3773904023
 30
0.0
 10
381.7320037337
 20
57.6474277703
 30
0.0
 10
381.5042042302
 20
52.2028142949
 30
0.0
 10
380.9582218958
 20
47.861844373
 30
0.0
 10
380.2198568569
 20
44.5742537874
 30
0.0
 10
379.4927120979
 20
42.2293236251
 30
0.0
 10
378.5478888839
 20
39.9839005403
 30
0.0
 10
377.3361699226
 20
37.8514488477
 30
0.0
 10
375.8032638658
 20
35.8522835283
 30
0.0
 10
373.8915812134
 20
34.0173149485
 30
0.0
 10
371.5504285458
 20
32.3879891996
 30
0.0
 10
368.7490529794
 20
31.0141380863
 30
0.0
 10
365.4952590658
 20
29.9512459542
 30
0.0
 10
361.8586655052
 20
29.2549451245
 30
0.0
 10
357.9839931496
 20
28.9696886847
 30
0.0
 10
354.0741121471
 20
29.1161056728
 30
0.0
 10
350.3412196741
 20
29.6834948525
 30
0.0
 10
346.9524348222
 20
30.6336232048
 30
0.0
 10
344.0013463655
 20
31.9131441883
 30
0.0
 10
341.5133314107
 20
33.4656703701
 30
0.0
 10
339.4676676213
 20
35.2391243297
 30
0.0
 10
337.8183333558
 20
37.1890329022
 30
0.0
 10
336.5090946304
 20
39.2811877912
 30
0.0
 10
335.4836751114
 20
41.4918452524
 30
0.0
 10
334.6905491998
 20
43.8056385958
 30
0.0
 10
333.879971064
 20
47.0523206039
 30
0.0
 10
333.5208766531
 20
49.5662073623
 30
0.0
 10
333.3522226511
 20
51.2652856187
 30
0.0
  0
SPLINE
  5
550
100
AcDbEntity
  8
0
100
AcDbSpline
 62
7
  6
CONTINUOUS
 70
0
 71
3
 72
11
 73
7
 74
0
 42
0.0000001
 43
0.0000001
 44
0.0000000001
 40
0.0
 40
0.0
 40
0.0
 40
0.0
 40
0.2351935011
 40
0.4802777813
 40
0.7352651642
 40
1.0
 40
1.0
 40
1.0
 40
1.0
 10
333.3522226511
 20
51.2652856187
 30
0.0
 10
333.2125340012
 20
52.6725569846
 30
0.0
 10
333.0308514935
 20
55.5569603033
 30
0.0
 10
332.9967347287
 20
59.9796206895
 30
0.0
 10
333.1900271682
 20
64.5760477394
 30
0.0
 10
333.4856092558
 20
67.689126631
 30
0.0
 10
333.6850877694
 20
69.2683937195
 30
0.0
  0
SPLINE
  5
551
100
AcDbEntity
  8
0
100
AcDbSpline
 62
7
  6
CONTINUOUS
 70
0
 71
3
 72
11
 73
7
 74
0
 42
0.0000001
 43
0.0000001
 44
0.0000000001
 40
0.0
 40
0.0
 40
0.0
 40
0.0
 40
0.2351935011
 40
0.4802777813
 40
0.7352651642
 40
1.0
 40
1.0
 40
1.0
 40
1.0
 10
333.3522226511
 20
158.7947143813
 30
0.0
 10
333.2125340012
 20
157.3874430154
 30
0.0
 10
333.0308514935
 20
154.5030396967
 30
0.0
 10
332.9967347287
 20
150.0803793105
 30
0.0
 10
333.1900271682
 20
145.4839522606
 30
0.0
 10
333.4856092558
 20
142.370873369
 30
0.0
 10
333.6850877694
 20
140.7916062805
 30
0.0
  0
SPLINE
  5
552
100
AcDbEntity
  8
0
100
AcDbSpline
 62
7
  6
CONTINUOUS
 70
0
 71
3
 72
23
 73
19
 74
0
 42
0.0000001
 43
0.0000001
 44
0.0000000001
 40
0.0
 40
0.0
 40
0.0
 40
0.0
 40
0.0537286356
 40
0.1111721332
 40
0.1718442448
 40
0.2351193531
 40
0.300237105
 40
0.3664358998
 40
0.4331330747
 40
0.5000000006
 40
0.5668669261
 40
0.6335641002
 40
0.6997628962
 40
0.7648806492
 40
0.8281557559
 40
0.8888278667
 40
0.9462713644
 40
1.0
 40
1.0
 40
1.0
 40
1.0
 10
333.6850877694
 20
140.7916062805
 30
0.0
 10
333.8578343064
 20
139.4239756751
 30
0.0
 10
334.336743655
 20
136.6077687436
 30
0.0
 10
335.4993500768
 20
132.3461023619
 30
0.0
 10
337.2739766493
 20
128.0276274528
 30
0.0
 10
339.8053959907
 20
123.8613075746
 30
0.0
 10
343.1830091418
 20
120.1363015318
 30
0.0
 10
347.3735262176
 20
117.1837596956
 30
0.0
 10
352.1927057059
 20
115.2921940749
 30
0.0
 10
357.3484045126
 20
114.6425094145
 30
0.0
 10
362.504103297
 20
115.2921940909
 30
0.0
 10
367.3232827838
 20
117.1837597131
 30
0.0
 10
371.5137998942
 20
120.1363015821
 30
0.0
 10
374.8914130153
 20
123.8613076784
 30
0.0
 10
377.422832359
 20
128.0276275128
 30
0.0
 10
379.1974588746
 20
132.3461023796
 30
0.0
 10
380.360065303
 20
136.6077687374
 30
0.0
 10
380.83897465
 20
139.4239756738
 30
0.0
 10
381.0117211871
 20
140.7916062805
 30
0.0
  0
SPLINE
  5
553
100
AcDbEntity
  8
0
100
AcDbSpline
 62
7
  6
CONTINUOUS
 70
0
 71
3
 72
34
 73
30
 74
0
 42
0.0000001
 43
0.0000001
 44
0.0000000001
 40
0.0
 40
0.0
 40
0.0
 40
0.0
 40
0.0655587542
 40
0.1280326275
 40
0.1873862919
 40
0.2437056882
 40
0.2708688338
 40
0.2975275089
 40
0.3239186212
 40
0.3504117351
 40
0.3775467121
 40
0.4060446049
 40
0.43675119
 40
0.4704831036
 40
0.5077523761
 40
0.5484011238
 40
0.5913192743
 40
0.6345838872
 40
0.6761345811
 40
0.7145572996
 40
0.749402294
 40
0.7810056147
 40
0.8101219708
 40
0.8376113936
 40
0.8642447005
 40
0.8906205789
 40
0.9171615697
 40
0.9441424873
 40
1.0
 40
1.0
 40
1.0
 40
1.0
 10
381.0117211871
 20
140.7916062805
 30
0.0
 10
381.2628490947
 20
142.7797805058
 30
0.0
 10
381.6023714828
 20
146.6826095977
 30
0.0
 10
381.7320037337
 20
152.4125722297
 30
0.0
 10
381.5042042302
 20
157.8571857051
 30
0.0
 10
380.9582218958
 20
162.198155627
 30
0.0
 10
380.2198568569
 20
165.4857462126
 30
0.0
 10
379.4927120979
 20
167.8306763749
 30
0.0
 10
378.5478888839
 20
170.0760994597
 30
0.0
 10
377.3361699226
 20
172.2085511523
 30
0.0
 10
375.8032638658
 20
174.2077164717
 30
0.0
 10
373.8915812134
 20
176.0426850515
 30
0.0
 10
371.5504285458
 20
177.6720108004
 30
0.0
 10
368.7490529794
 20
179.0458619137
 30
0.0
 10
365.4952590658
 20
180.1087540458
 30
0.0
 10
361.8586655052
 20
180.8050548755
 30
0.0
 10
357.9839931496
 20
181.0903113153
 30
0.0
 10
354.0741121471
 20
180.9438943272
 30
0.0
 10
350.3412196741
 20
180.3765051475
 30
0.0
 10
346.9524348222
 20
179.4263767952
 30
0.0
 10
344.0013463655
 20
178.1468558117
 30
0.0
 10
341.5133314107
 20
176.5943296299
 30
0.0
 10
339.4676676213
 20
174.8208756703
 30
0.0
 10
337.8183333558
 20
172.8709670977
 30
0.0
 10
336.5090946304
 20
170.7788122088
 30
0.0
 10
335.4836751114
 20
168.5681547476
 30
0.0
 10
334.6905491998
 20
166.2543614042
 30
0.0
 10
333.879971064
 20
163.0076793961
 30
0.0
 10
333.5208766531
 20
160.4937926377
 30
0.0
 10
333.3522226511
 20
158.7947143813
 30
0.0
  0
SPLINE
  5
554
100
AcDbEntity
  8
BEZUGSACHSEN
100
AcDbSpline
 62
7
  6
CONTINUOUS
 70
0
 71
3
 72
9
 73
5
 74
0
 42
0.0000001
 43
0.0000001
 44
0.0000000001
 40
0.0
 40
0.0
 40
0.0
 40
0.0
 40
0.2698213077
 40
1.0
 40
1.0
 40
1.0
 40
1.0
 10
102.8716177252
 20
105.03
 30
0.0
 10
102.8716177252
 20
108.2464155374
 30
0.0
 10
102.8693766928
 20
120.1669544928
 30
0.0
 10
102.859672864
 20
132.0874947711
 30
0.0
 10
102.8449912422
 20
140.7916062805
 30
0.0
  0
SPLINE
  5
555
100
AcDbEntity
  8
BEZUGSACHSEN
100
AcDbSpline
 62
7
  6
CONTINUOUS
 70
0
 71
3
 72
9
 73
5
 74
0
 42
0.0000001
 43
0.0000001
 44
0.0000000001
 40
0.0
 40
0.0
 40
0.0
 40
0.0
 40
0.2225949065
 40
1.0
 40
1.0
 40
1.0
 40
1.0
 10
102.8449912422
 20
69.2683937195
 30
0.0
 10
102.8494669333
 20
71.9218413211
 30
0.0
 10
102.8659720989
 20
83.842369828
 30
0.0
 10
102.8716177252
 20
95.762911872
 30
0.0
 10
102.8716177252
 20
105.03
 30
0.0
  0
SPLINE
  5
556
100
AcDbEntity
  8
0
100
AcDbSpline
 62
7
  6
CONTINUOUS
 70
0
 71
3
 72
23
 73
19
 74
0
 42
0.0000001
 43
0.0000001
 44
0.0000000001
 40
0.0
 40
0.0
 40
0.0
 40
0.0
 40
0.0537286356
 40
0.1111721332
 40
0.1718442448
 40
0.2351193531
 40
0.300237105
 40
0.3664358998
 40
0.4331330747
 40
0.5000000006
 40
0.5668669261
 40
0.6335641002
 40
0.6997628962
 40
0.7648806492
 40
0.8281557559
 40
0.8888278667
 40
0.9462713644
 40
1.0
 40
1.0
 40
1.0
 40
1.0
 10
87.0007211871
 20
140.7916062805
 30
0.0
 10
86.8279746502
 20
139.4239756751
 30
0.0
 10
86.3490653016
 20
136.6077687436
 30
0.0
 10
85.1864588797
 20
132.3461023619
 30
0.0
 10
83.4118323073
 20
128.0276274528
 30
0.0
 10
80.8804129659
 20
123.8613075746
 30
0.0
 10
77.5027998148
 20
120.1363015318
 30
0.0
 10
73.3122827389
 20
117.1837596956
 30
0.0
 10
68.4931032506
 20
115.2921940749
 30
0.0
 10
63.3374044439
 20
114.6425094145
 30
0.0
 10
58.1817056596
 20
115.2921940909
 30
0.0
 10
53.3625261727
 20
117.1837597131
 30
0.0
 10
49.1720090623
 20
120.1363015821
 30
0.0
 10
45.7943959413
 20
123.8613076784
 30
0.0
 10
43.2629765976
 20
128.0276275128
 30
0.0
 10
41.4883500819
 20
132.3461023796
 30
0.0
 10
40.3257436535
 20
136.6077687374
 30
0.0
 10
39.8468343065
 20
139.4239756738
 30
0.0
 10
39.6740877694
 20
140.7916062805
 30
0.0
  0
SPLINE
  5
557
100
AcDbEntity
  8
0
100
AcDbSpline
 62
7
  6
CONTINUOUS
 70
0
 71
3
 72
34
 73
30
 74
0
 42
0.0000001
 43
0.0000001
 44
0.0000000001
 40
0.0
 40
0.0
 40
0.0
 40
0.0
 40
0.0655587542
 40
0.1280326275
 40
0.1873862919
 40
0.2437056882
 40
0.2708688338
 40
0.2975275089
 40
0.3239186212
 40
0.3504117351
 40
0.3775467121
 40
0.4060446049
 40
0.43675119
 40
0.4704831036
 40
0.5077523761
 40
0.5484011238
 40
0.5913192743
 40
0.6345838872
 40
0.6761345811
 40
0.7145572996
 40
0.749402294
 40
0.7810056147
 40
0.8101219708
 40
0.8376113936
 40
0.8642447005
 40
0.8906205789
 40
0.9171615697
 40
0.9441424873
 40
1.0
 40
1.0
 40
1.0
 40
1.0
 10
39.6740877694
 20
140.7916062805
 30
0.0
 10
39.4229598619
 20
142.7797805058
 30
0.0
 10
39.0834374737
 20
146.6826095977
 30
0.0
 10
38.9538052229
 20
152.4125722297
 30
0.0
 10
39.1816047264
 20
157.8571857051
 30
0.0
 10
39.7275870607
 20
162.198155627
 30
0.0
 10
40.4659520997
 20
165.4857462126
 30
0.0
 10
41.1930968587
 20
167.8306763749
 30
0.0
 10
42.1379200727
 20
170.0760994597
 30
0.0
 10
43.349639034
 20
172.2085511523
 30
0.0
 10
44.8825450908
 20
174.2077164717
 30
0.0
 10
46.7942277432
 20
176.0426850515
 30
0.0
 10
49.1353804108
 20
177.6720108004
 30
0.0
 10
51.9367559772
 20
179.0458619137
 30
0.0
 10
55.1905498908
 20
180.1087540458
 30
0.0
 10
58.8271434514
 20
180.8050548755
 30
0.0
 10
62.701815807
 20
181.0903113153
 30
0.0
 10
66.6116968095
 20
180.9438943272
 30
0.0
 10
70.3445892825
 20
180.3765051475
 30
0.0
 10
73.7333741344
 20
179.4263767952
 30
0.0
 10
76.684462591
 20
178.1468558117
 30
0.0
 10
79.1724775459
 20
176.5943296299
 30
0.0
 10
81.2181413353
 20
174.8208756703
 30
0.0
 10
82.8674756007
 20
172.8709670978
 30
0.0
 10
84.1767143262
 20
170.7788122088
 30
0.0
 10
85.2021338452
 20
168.5681547476
 30
0.0
 10
85.9952597568
 20
166.2543614042
 30
0.0
 10
86.8058378926
 20
163.0076793961
 30
0.0
 10
87.1649323035
 20
160.4937926377
 30
0.0
 10
87.3335863055
 20
158.7947143813
 30
0.0
  0
SPLINE
  5
558
100
AcDbEntity
  8
0
100
AcDbSpline
 62
7
  6
CONTINUOUS
 70
0
 71
3
 72
11
 73
7
 74
0
 42
0.0000001
 43
0.0000001
 44
0.0000000001
 40
0.0
 40
0.0
 40
0.0
 40
0.0
 40
0.2351935011
 40
0.4802777813
 40
0.7352651642
 40
1.0
 40
1.0
 40
1.0
 40
1.0
 10
87.3335863055
 20
158.7947143813
 30
0.0
 10
87.4732749554
 20
157.3874430154
 30
0.0
 10
87.654957463
 20
154.5030396967
 30
0.0
 10
87.6890742279
 20
150.0803793105
 30
0.0
 10
87.4957817884
 20
145.4839522606
 30
0.0
 10
87.2001997008
 20
142.370873369
 30
0.0
 10
87.0007211871
 20
140.7916062805
 30
0.0
  0
SPLINE
  5
559
100
AcDbEntity
  8
0
100
AcDbSpline
 62
7
  6
CONTINUOUS
 70
0
 71
3
 72
11
 73
7
 74
0
 42
0.0000001
 43
0.0000001
 44
0.0000000001
 40
0.0
 40
0.0
 40
0.0
 40
0.0
 40
0.2351935011
 40
0.4802777813
 40
0.7352651642
 40
1.0
 40
1.0
 40
1.0
 40
1.0
 10
87.3335863055
 20
51.2652856187
 30
0.0
 10
87.4732749554
 20
52.6725569846
 30
0.0
 10
87.654957463
 20
55.5569603033
 30
0.0
 10
87.6890742279
 20
59.9796206895
 30
0.0
 10
87.4957817884
 20
64.5760477394
 30
0.0
 10
87.2001997008
 20
67.689126631
 30
0.0
 10
87.0007211871
 20
69.2683937195
 30
0.0
  0
SPLINE
  5
55A
100
AcDbEntity
  8
0
100
AcDbSpline
 62
7
  6
CONTINUOUS
 70
0
 71
3
 72
23
 73
19
 74
0
 42
0.0000001
 43
0.0000001
 44
0.0000000001
 40
0.0
 40
0.0
 40
0.0
 40
0.0
 40
0.0537286356
 40
0.1111721332
 40
0.1718442448
 40
0.2351193531
 40
0.300237105
 40
0.3664358998
 40
0.4331330747
 40
0.5000000006
 40
0.5668669261
 40
0.6335641002
 40
0.6997628962
 40
0.7648806492
 40
0.8281557559
 40
0.8888278667
 40
0.9462713644
 40
1.0
 40
1.0
 40
1.0
 40
1.0
 10
87.0007211871
 20
69.2683937195
 30
0.0
 10
86.8279746502
 20
70.6360243249
 30
0.0
 10
86.3490653016
 20
73.4522312564
 30
0.0
 10
85.1864588797
 20
77.7138976381
 30
0.0
 10
83.4118323073
 20
82.0323725472
 30
0.0
 10
80.8804129659
 20
86.1986924254
 30
0.0
 10
77.5027998148
 20
89.9236984682
 30
0.0
 10
73.3122827389
 20
92.8762403044
 30
0.0
 10
68.4931032506
 20
94.7678059251
 30
0.0
 10
63.3374044439
 20
95.4174905855
 30
0.0
 10
58.1817056596
 20
94.7678059091
 30
0.0
 10
53.3625261727
 20
92.8762402869
 30
0.0
 10
49.1720090623
 20
89.9236984179
 30
0.0
 10
45.7943959413
 20
86.1986923216
 30
0.0
 10
43.2629765976
 20
82.0323724872
 30
0.0
 10
41.4883500819
 20
77.7138976204
 30
0.0
 10
40.3257436535
 20
73.4522312626
 30
0.0
 10
39.8468343065
 20
70.6360243262
 30
0.0
 10
39.6740877694
 20
69.2683937195
 30
0.0
  0
SPLINE
  5
55B
100
AcDbEntity
  8
0
100
AcDbSpline
 62
7
  6
CONTINUOUS
 70
0
 71
3
 72
34
 73
30
 74
0
 42
0.0000001
 43
0.0000001
 44
0.0000000001
 40
0.0
 40
0.0
 40
0.0
 40
0.0
 40
0.0655587542
 40
0.1280326275
 40
0.1873862919
 40
0.2437056882
 40
0.2708688338
 40
0.2975275089
 40
0.3239186212
 40
0.3504117351
 40
0.3775467121
 40
0.4060446049
 40
0.43675119
 40
0.4704831036
 40
0.5077523761
 40
0.5484011238
 40
0.5913192743
 40
0.6345838872
 40
0.6761345811
 40
0.7145572996
 40
0.749402294
 40
0.7810056147
 40
0.8101219708
 40
0.8376113936
 40
0.8642447005
 40
0.8906205789
 40
0.9171615697
 40
0.9441424873
 40
1.0
 40
1.0
 40
1.0
 40
1.0
 10
39.6740877694
 20
69.2683937195
 30
0.0
 10
39.4229598619
 20
67.2802194942
 30
0.0
 10
39.0834374737
 20
63.3773904023
 30
0.0
 10
38.9538052229
 20
57.6474277703
 30
0.0
 10
39.1816047264
 20
52.2028142949
 30
0.0
 10
39.7275870607
 20
47.861844373
 30
0.0
 10
40.4659520997
 20
44.5742537874
 30
0.0
 10
41.1930968587
 20
42.2293236251
 30
0.0
 10
42.1379200727
 20
39.9839005403
 30
0.0
 10
43.349639034
 20
37.8514488477
 30
0.0
 10
44.8825450908
 20
35.8522835283
 30
0.0
 10
46.7942277432
 20
34.0173149485
 30
0.0
 10
49.1353804108
 20
32.3879891996
 30
0.0
 10
51.9367559772
 20
31.0141380863
 30
0.0
 10
55.1905498908
 20
29.9512459542
 30
0.0
 10
58.8271434514
 20
29.2549451245
 30
0.0
 10
62.701815807
 20
28.9696886847
 30
0.0
 10
66.6116968095
 20
29.1161056728
 30
0.0
 10
70.3445892825
 20
29.6834948525
 30
0.0
 10
73.7333741344
 20
30.6336232048
 30
0.0
 10
76.684462591
 20
31.9131441883
 30
0.0
 10
79.1724775459
 20
33.4656703701
 30
0.0
 10
81.2181413353
 20
35.2391243297
 30
0.0
 10
82.8674756007
 20
37.1890329022
 30
0.0
 10
84.1767143262
 20
39.2811877912
 30
0.0
 10
85.2021338452
 20
41.4918452524
 30
0.0
 10
85.9952597568
 20
43.8056385958
 30
0.0
 10
86.8058378926
 20
47.0523206039
 30
0.0
 10
87.1649323035
 20
49.5662073623
 30
0.0
 10
87.3335863055
 20
51.2652856187
 30
0.0
  0
ELLIPSE
  5
55C
100
AcDbEntity
  8
BEZUGSACHSEN
100
AcDbEllipse
 62
7
  6
CONTINUOUS
 10
297.738211546
 20
313.8013248461
 30
0.0
 11
-0.0
 21
157.0
 31
0.0
 40
0.1763269807
 41
-1.1690340995
 42
-0.8161716214
  0
ELLIPSE
  5
55D
100
AcDbEntity
  8
BEZUGSACHSEN
100
AcDbEllipse
 62
7
  6
CONTINUOUS
 10
122.9475974105
 20
313.8013248461
 30
0.0
 11
-0.0
 21
157.0
 31
0.0
 40
0.1763269807
 41
0.8161716214
 42
1.1690340995
  0
ELLIPSE
  5
55E
100
AcDbEntity
  8
RUNDUNGEN
100
AcDbEllipse
 62
7
  6
CONTINUOUS
 10
210.081996841
 20
398.0247391872
 30
0.0
 11
40.7031939779
 21
0.0
 31
0.0
 40
0.5773502692
 41
3.1415926536
 42
3.4796556861
  0
ELLIPSE
  5
55F
100
AcDbEntity
  8
RUNDUNGEN
100
AcDbEllipse
 62
7
  6
CONTINUOUS
 10
210.6038121156
 20
398.0247391872
 30
0.0
 11
40.7031939779
 21
0.0
 31
0.0
 40
0.5773502692
 41
-0.3380630325
 42
0.0
  0
ENDSEC
  0
SECTION
  2
OBJECTS
  0
DICTIONARY
  5
C
100
AcDbDictionary
280
0
281
1
  3
ACAD_GROUP
350
D
  3
ACAD_MLINESTYLE
350
17
  3
ACAD_LAYOUT
350
1A
  3
ACAD_PLOTSETTINGS
350
19
  3
ACAD_PLOTSTYLENAME
350
E
  0
DICTIONARY
  5
D
102
{ACAD_REACTORS
330
C
102
}
100
AcDbDictionary
280
0
281
1
  0
ACDBDICTIONARYWDFLT
  5
E
102
{ACAD_REACTORS
330
C
102
}
100
AcDbDictionary
281
1
  3
Normal
350
F
100
AcDbDictionaryWithDefault
340
F
  0
DICTIONARY
  5
17
102
{ACAD_REACTORS
330
C
102
}
100
AcDbDictionary
280
0
281
1
  3
Standard
350
18
  0
DICTIONARY
  5
19
102
{ACAD_REACTORS
330
C
102
}
100
AcDbDictionary
281
1
  0
DICTIONARY
  5
1A
102
{ACAD_REACTORS
330
C
102
}
100
AcDbDictionary
281
1
  3
Model
350
560
  3
Layout1
350
561
  0
ACDBPLACEHOLDER
  5
F
102
{ACAD_REACTORS
330
E
102
}
  0
MLINESTYLE
  5
18
102
{ACAD_REACTORS
330
17
102
}
100
AcDbMlineStyle
  2
STANDARD
 70
0
  3

 62
256
 51
90.0
 52
90.0
 71
2
 49
0.5
 62
256
  6
BYLAYER
 49
-0.5
 62
256
  6
BYLAYER
  0
LAYOUT
  5
560
102
{ACAD_REACTORS
330
1A
102
}
100
AcDbPlotSettings
  1

  2
none_device
  4
ISO_A3_(420.00_x_297.00_MM)
  6

 40
0.0
 41
0.0
 42
0.0
 43
0.0
 44
420.0
 45
297.0
 46
0.0
 47
0.0
 48
0.0
 49
0.0
140
0.0
141
0.0
142
1.0
143
1.0
 70
1024
 72
1
 73
0
 74
0
  7

 75
0
147
1.0
148
0.0
149
0.0
100
AcDbLayout
  1
Model
 70
0
 71
0
 10
0.0
 20
0.0
 11
420.0
 21
297.0
 12
0.0
 22
0.0
 32
0.0
 14
0.0
 24
0.0
 34
0.0
 15
0.0
 25
0.0
 35
0.0
146
0.0
 13
0.0
 23
0.0
 33
0.0
 16
1.0
 26
0.0
 36
0.0
 17
0.0
 27
1.0
 37
0.0
 76
0
330
210
345
0
346
0
  0
LAYOUT
  5
561
102
{ACAD_REACTORS
330
1A
102
}
100
AcDbPlotSettings
  1

  2
none_device
  4
ISO_A3_(420.00_x_297.00_MM)
  6

 40
0.0
 41
0.0
 42
0.0
 43
0.0
 44
420.0
 45
297.0
 46
0.0
 47
0.0
 48
0.0
 49
0.0
140
0.0
141
0.0
142
1.0
143
1.0
 70
0
 72
1
 73
0
 74
0
  7

 75
0
147
1.0
148
0.0
149
0.0
100
AcDbLayout
  1
Layout1
 70
0
 71
1
 10
0.0
 20
0.0
 11
420.0
 21
297.0
 12
0.0
 22
0.0
 32
0.0
 14
0.0
 24
0.0
 34
0.0
 15
0.0
 25
0.0
 35
0.0
146
0.0
 13
0.0
 23
0.0
 33
0.0
 16
1.0
 26
0.0
 36
0.0
 17
0.0
 27
1.0
 37
0.0
 76
0
330
211
345
0
346
0
  0
ENDSEC
  0
EOF
