999
DXF file: vrbg-31_5-oktagon.dxf
999
Pro/ENGINEER 2011490 by Parametric Technology Corporation
  0
SECTION
  2
HEADER
  9
$ACADVER
  1
AC1021
  9
$DWGCODEPAGE
  3
ANSI_1252
  9
$EXTMAX
 10
420.0
 20
297.0
 30
0.0
  9
$EXTMIN
 10
0.0
 20
0.0
 30
0.0
  9
$LIMMIN
 10
0.0
 20
0.0
  9
$LIMMAX
 10
420.0
 20
297.0
  9
$VIEWCTR
 10
210.0
 20
148.5
  9
$VIEWSIZE
 40
297.0
  9
$CLAYER
  8
0
  9
$LTSCALE
 40
23.1
  9
$CELTYPE
  6
BYLAYER
  9
$DIMSCALE
 40
1.0
  9
$DIMASZ
 40
3.5
  9
$DIMEXO
 40
2.625
  9
$DIMDLI
 40
15.96
  9
$DIMEXE
 40
7.56
  9
$DIMCEN
 40
3.78
  9
$DIMLFAC
 40
1.0
  9
$DIMBLK
  1
_FILLED
  9
$DIMTXT
 40
3.5
  9
$DIMTOL
 70
1
  9
$DIMLIM
 70
0
  9
$DIMTFAC
 40
1.0
  9
$DIMTP
 40
0.005
  9
$DIMTM
 40
0.005
  9
$PDMODE
 70
3
  9
$PDSIZE
 40
0.3125
  9
$HANDSEED
  5
586
  9
$TILEMODE
 70
1
  9
$MEASUREMENT
 70
1
  9
$INSUNITS
 70
4
  0
ENDSEC
  0
SECTION
  2
CLASSES
  0
CLASS
  1
ACDBDICTIONARYWDFLT
  2
AcDbDictionaryWithDefault
  3
AutoCAD 2000
 90
0
 91
1
280
0
281
0
  0
CLASS
  1
ACDBPLACEHOLDER
  2
AcDbPlaceHolder
  3
AutoCAD 2000
 90
0
 91
1
280
0
281
0
  0
CLASS
  1
LAYOUT
  2
AcDbLayout
  3
AutoCAD 2000
 90
0
 91
0
280
0
281
0
  0
ENDSEC
  0
SECTION
  2
TABLES
  0
TABLE
  2
VPORT
  5
8
100
AcDbSymbolTable
 70
2
  0
VPORT
  5
1F4
100
AcDbSymbolTableRecord
100
AcDbViewportTableRecord
  2
*ACTIVE
 70
0
 10
0.0
 20
0.0
 11
1.0
 21
1.0
 12
210.0
 22
148.5
 13
0.0
 23
0.0
 14
1.0
 24
1.0
 15
0.0
 25
0.0
 16
0.0
 26
0.0
 36
1.0
 17
0.0
 27
0.0
 37
0.0
 40
297.0
 41
1.4141414141
 42
50.0
 43
0.0
 44
0.0
 50
0.0
 51
0.0
 71
0
 72
100
 73
1
 74
1
 75
0
 76
0
 77
0
 78
0
  0
ENDTAB
  0
TABLE
  2
LTYPE
  5
5
100
AcDbSymbolTable
 70
6
  0
LTYPE
  5
14
100
AcDbSymbolTableRecord
100
AcDbLinetypeTableRecord
  2
BYBLOCK
 70
0
  3

 72
65
 73
0
 40
0.0
  0
LTYPE
  5
15
100
AcDbSymbolTableRecord
100
AcDbLinetypeTableRecord
  2
BYLAYER
 70
0
  3

 72
65
 73
0
 40
0.0
  0
LTYPE
  5
16
100
AcDbSymbolTableRecord
100
AcDbLinetypeTableRecord
  2
CONTINUOUS
 70
64
  3
Solid line
 72
65
 73
0
 40
0.0
  0
LTYPE
  5
1F5
100
AcDbSymbolTableRecord
100
AcDbLinetypeTableRecord
  2
CENTER
 70
64
  3
____ _ ____ _ ____ _ ____ _ ____ _ ____ _ ____
 72
65
 73
4
 40
0.6
 49
0.375
 74
0
 49
-0.075
 74
0
 49
0.075
 74
0
 49
-0.075
 74
0
  0
LTYPE
  5
1F6
100
AcDbSymbolTableRecord
100
AcDbLinetypeTableRecord
  2
HIDDEN
 70
64
  3
- - - - - - - - - - - - - - - - - - - -
 72
65
 73
2
 40
0.2
 49
0.1
 74
0
 49
-0.1
 74
0
  0
LTYPE
  5
1F7
100
AcDbSymbolTableRecord
100
AcDbLinetypeTableRecord
  2
PHANTOM
 70
64
  3
_____ _ _ _____ _ _ _____ _ _ _____
 72
65
 73
6
 40
0.8
 49
0.45
 74
0
 49
-0.05
 74
0
 49
0.1
 74
0
 49
-0.05
 74
0
 49
0.1
 74
0
 49
-0.05
 74
0
  0
LTYPE
  5
1F8
100
AcDbSymbolTableRecord
100
AcDbLinetypeTableRecord
  2
DOT
 70
64
  3
. . . . . . . . . . . . . . . . . . . .
 72
65
 73
2
 40
0.2
 49
0.1
 74
0
 49
-0.1
 74
0
  0
LTYPE
  5
1F9
100
AcDbSymbolTableRecord
100
AcDbLinetypeTableRecord
  2
DASHED
 70
64
  3
- - - - - - - - - - - - - - - - - - - -
 72
65
 73
2
 40
0.2
 49
0.1
 74
0
 49
-0.1
 74
0
  0
ENDTAB
  0
TABLE
  2
LAYER
  5
2
100
AcDbSymbolTable
 70
36
  0
LAYER
  5
10
100
AcDbSymbolTableRecord
100
AcDbLayerTableRecord
  2
0
 70
0
 62
7
  6
CONTINUOUS
370
-3
390
F
  0
LAYER
  5
1FA
100
AcDbSymbolTableRecord
100
AcDbLayerTableRecord
  2
DEFAULT_1
 70
0
 62
7
  6
CENTER
370
-3
390
F
  0
LAYER
  5
1FB
100
AcDbSymbolTableRecord
100
AcDbLayerTableRecord
  2
DEFAULT_2
 70
0
 62
8
  6
HIDDEN
370
-3
390
F
  0
LAYER
  5
1FC
100
AcDbSymbolTableRecord
100
AcDbLayerTableRecord
  2
DEFAULT_3
 70
0
 62
7
  6
PHANTOM
370
-3
390
F
  0
LAYER
  5
1FD
100
AcDbSymbolTableRecord
100
AcDbLayerTableRecord
  2
AUSFORMSCHRAEGEN
 70
0
 62
7
  6
CONTINUOUS
370
-3
390
F
  0
LAYER
  5
1FE
100
AcDbSymbolTableRecord
100
AcDbLayerTableRecord
  2
B-ACHSEN
 70
0
 62
7
  6
CONTINUOUS
370
-3
390
F
  0
LAYER
  5
1FF
100
AcDbSymbolTableRecord
100
AcDbLayerTableRecord
  2
B-EBENEN
 70
0
 62
7
  6
CONTINUOUS
370
-3
390
F
  0
LAYER
  5
200
100
AcDbSymbolTableRecord
100
AcDbLayerTableRecord
  2
B-KOORSYS
 70
0
 62
7
  6
CONTINUOUS
370
-3
390
F
  0
LAYER
  5
201
100
AcDbSymbolTableRecord
100
AcDbLayerTableRecord
  2
B-KURVEN
 70
0
 62
7
  6
CONTINUOUS
370
-3
390
F
  0
LAYER
  5
202
100
AcDbSymbolTableRecord
100
AcDbLayerTableRecord
  2
BEMASSUNG
 70
0
 62
7
  6
CONTINUOUS
370
-3
390
F
  0
LAYER
  5
203
100
AcDbSymbolTableRecord
100
AcDbLayerTableRecord
  2
BEZUGSACHSEN
 70
0
 62
7
  6
CONTINUOUS
370
-3
390
F
  0
LAYER
  5
204
100
AcDbSymbolTableRecord
100
AcDbLayerTableRecord
  2
BEZUGSEBENEN
 70
0
 62
7
  6
CONTINUOUS
370
-3
390
F
  0
LAYER
  5
205
100
AcDbSymbolTableRecord
100
AcDbLayerTableRecord
  2
BG_STARTBEZUEGE
 70
0
 62
7
  6
CONTINUOUS
370
-3
390
F
  0
LAYER
  5
206
100
AcDbSymbolTableRecord
100
AcDbLayerTableRecord
  2
BOHRUNGEN
 70
0
 62
7
  6
CONTINUOUS
370
-3
390
F
  0
LAYER
  5
207
100
AcDbSymbolTableRecord
100
AcDbLayerTableRecord
  2
FASEN
 70
0
 62
7
  6
CONTINUOUS
370
-3
390
F
  0
LAYER
  5
208
100
AcDbSymbolTableRecord
100
AcDbLayerTableRecord
  2
FLAECHEN
 70
0
 62
7
  6
CONTINUOUS
370
-3
390
F
  0
LAYER
  5
209
100
AcDbSymbolTableRecord
100
AcDbLayerTableRecord
  2
GEWINDE
 70
0
 62
7
  6
CONTINUOUS
370
-3
390
F
  0
LAYER
  5
20A
100
AcDbSymbolTableRecord
100
AcDbLayerTableRecord
  2
HILFEN
 70
0
 62
7
  6
CONTINUOUS
370
-3
390
F
  0
LAYER
  5
20B
100
AcDbSymbolTableRecord
100
AcDbLayerTableRecord
  2
KONSTRUKTIONSELEMENTE
 70
0
 62
7
  6
CONTINUOUS
370
-3
390
F
  0
LAYER
  5
20C
100
AcDbSymbolTableRecord
100
AcDbLayerTableRecord
  2
KURVEN
 70
0
 62
7
  6
CONTINUOUS
370
-3
390
F
  0
LAYER
  5
20D
100
AcDbSymbolTableRecord
100
AcDbLayerTableRecord
  2
KURVENELEMENTE
 70
0
 62
7
  6
CONTINUOUS
370
-3
390
F
  0
LAYER
  5
20E
100
AcDbSymbolTableRecord
100
AcDbLayerTableRecord
  2
NOTIZEN
 70
0
 62
7
  6
CONTINUOUS
370
-3
390
F
  0
LAYER
  5
20F
100
AcDbSymbolTableRecord
100
AcDbLayerTableRecord
  2
PLATZIERUNG
 70
0
 62
7
  6
CONTINUOUS
370
-3
390
F
  0
LAYER
  5
210
100
AcDbSymbolTableRecord
100
AcDbLayerTableRecord
  2
RUNDUNGEN
 70
0
 62
7
  6
CONTINUOUS
370
-3
390
F
  0
LAYER
  5
211
100
AcDbSymbolTableRecord
100
AcDbLayerTableRecord
  2
TEIL_STARTBEZUEGE
 70
0
 62
7
  6
CONTINUOUS
370
-3
390
F
  0
LAYER
  5
212
100
AcDbSymbolTableRecord
100
AcDbLayerTableRecord
  2
T_STARTBEZUEGE
 70
0
 62
7
  6
CONTINUOUS
370
-3
390
F
  0
LAYER
  5
213
100
AcDbSymbolTableRecord
100
AcDbLayerTableRecord
  2
VERBUNDFLAECHEN
 70
0
 62
7
  6
CONTINUOUS
370
-3
390
F
  0
LAYER
  5
214
100
AcDbSymbolTableRecord
100
AcDbLayerTableRecord
  2
ZEICHNUNGSBEMASSUNGEN
 70
0
 62
7
  6
CONTINUOUS
370
-3
390
F
  0
ENDTAB
  0
TABLE
  2
STYLE
  5
3
100
AcDbSymbolTable
 70
1
  0
STYLE
  5
11
100
AcDbSymbolTableRecord
100
AcDbTextStyleTableRecord
  2
STANDARD
 70
0
 40
0.0
 41
0.7
 50
0.0
 71
0
 42
0.2
  3
txt
  4

  0
STYLE
  5
215
100
AcDbSymbolTableRecord
100
AcDbTextStyleTableRecord
  2
TEXTSTYLE_1
 70
0
 40
0.0
 41
0.8
 50
0.0
 71
0
 42
0.2
  3
gdt
  4

  0
ENDTAB
  0
TABLE
  2
VIEW
  5
6
100
AcDbSymbolTable
 70
0
  0
ENDTAB
  0
TABLE
  2
UCS
  5
7
100
AcDbSymbolTable
 70
0
  0
ENDTAB
  0
TABLE
  2
APPID
  5
9
100
AcDbSymbolTable
 70
1
  0
APPID
  5
216
100
AcDbSymbolTableRecord
100
AcDbRegAppTableRecord
  2
ACAD
 70
0
  0
ENDTAB
  0
TABLE
  2
BLOCK_RECORD
  5
1
100
AcDbSymbolTable
 70
0
  0
BLOCK_RECORD
  5
217
100
AcDbSymbolTableRecord
100
AcDbBlockTableRecord
  2
*Model_Space
  0
BLOCK_RECORD
  5
218
100
AcDbSymbolTableRecord
100
AcDbBlockTableRecord
  2
*Paper_Space
  0
ENDTAB
  0
TABLE
  2
DIMSTYLE
  5
A
100
AcDbSymbolTable
 70
1
100
AcDbDimStyleTable
 71
0
  0
DIMSTYLE
105
219
100
AcDbSymbolTableRecord
100
AcDbDimStyleTableRecord
  2
STANDARD
 70
0
  3

  4

 40
1.0
 41
3.5
 42
0.0625
 43
0.38
 44
0.18
 45
0.0
 46
0.0
 47
0.005
 48
0.005
140
3.5
141
0.09
142
0.0
143
25.4
144
1.0
145
0.0
146
1.0
147
0.09
 71
1.0
 72
0.0
 73
0
 74
0
 75
0
 76
0
 77
1
 78
8
170
0
171
2
172
0
173
0
174
0
175
0
176
0
177
0
178
5
270
2
271
3
272
3
273
2
274
2
275
0
280
0
281
0
282
0
283
1
284
8
285
0
286
0
287
3
288
0
340
11
  0
ENDTAB
  0
ENDSEC
  0
SECTION
  2
BLOCKS
  0
BLOCK
  5
20
100
AcDbEntity
  8
0
100
AcDbBlockBegin
  2
*Model_Space
 70
0
 10
0.0
 20
0.0
 30
0.0
  3
*Model_Space
  1

  0
ENDBLK
  5
21
100
AcDbEntity
  8
0
100
AcDbBlockEnd
  0
BLOCK
  5
1C
100
AcDbEntity
  8
0
100
AcDbBlockBegin
  2
*Paper_Space
 70
0
 10
0.0
 20
0.0
 30
0.0
  3
*Paper_Space
  1

  0
ENDBLK
  5
1D
100
AcDbEntity
  8
0
100
AcDbBlockEnd
  0
ENDSEC
  0
SECTION
  2
ENTITIES
  0
MTEXT
  5
21A
100
AcDbEntity
  8
0
100
AcDbMText
 62
5
  6
CONTINUOUS
  7
STANDARD
 71
1
 72
1
 10
112.8936478227
 20
111.2447512144
 30
0.0
 11
1.0
 21
0.0
 31
0.0
 44
0.9
  1
VRBG 31,5t
 40
12.0
 41
87.7142857143
  0
MTEXT
  5
21B
100
AcDbEntity
  8
0
100
AcDbMText
 62
5
  6
CONTINUOUS
  7
STANDARD
 71
1
 72
1
 10
541.849303168
 20
331.9676901845
 30
0.0
 11
1.0
 21
0.0
 31
0.0
 44
0.9
  1
VRBG 31,5t
 40
12.0
 41
87.7142857143
  0
LINE
  5
21C
100
AcDbEntity
  8
0
100
AcDbLine
 62
7
  6
CONTINUOUS
 10
0.0
 20
0.0
 11
0.0
 21
297.0
  0
LINE
  5
21D
100
AcDbEntity
  8
0
100
AcDbLine
 62
7
  6
CONTINUOUS
 10
0.0
 20
0.0
 11
420.0
 21
0.0
  0
LINE
  5
21E
100
AcDbEntity
  8
0
100
AcDbLine
 62
7
  6
CONTINUOUS
 10
0.0
 20
297.0
 11
420.0
 21
297.0
  0
LINE
  5
21F
100
AcDbEntity
  8
0
100
AcDbLine
 62
7
  6
CONTINUOUS
 10
420.0
 20
0.0
 11
420.0
 21
297.0
  0
LINE
  5
220
100
AcDbEntity
  8
KONSTRUKTIONSELEMENTE
100
AcDbLine
 62
7
  6
CONTINUOUS
 10
10.3429044783
 20
275.0247391872
 11
10.3429044783
 21
360.0247391872
  0
LINE
  5
221
100
AcDbEntity
  8
0
100
AcDbLine
 62
7
  6
CONTINUOUS
 10
20.3429044783
 20
364.0247391872
 11
20.3429044783
 21
378.2408690549
  0
LINE
  5
222
100
AcDbEntity
  8
RUNDUNGEN
100
AcDbLine
 62
7
  6
CONTINUOUS
 10
20.3429044783
 20
378.2408690549
 11
20.3429044783
 21
384.0247391872
  0
LINE
  5
223
100
AcDbEntity
  8
RUNDUNGEN
100
AcDbLine
 62
7
  6
CONTINUOUS
 10
20.3429044783
 20
384.0247391872
 11
24.7841214731
 21
412.0654797151
  0
LINE
  5
224
100
AcDbEntity
  8
KONSTRUKTIONSELEMENTE
100
AcDbLine
 62
7
  6
CONTINUOUS
 10
123.3431142216
 20
229.0247391872
 11
147.342694735
 21
229.0247391872
  0
LINE
  5
225
100
AcDbEntity
  8
KONSTRUKTIONSELEMENTE
100
AcDbLine
 62
7
  6
CONTINUOUS
 10
198.3431142216
 20
229.0247391872
 11
222.342694735
 21
229.0247391872
  0
LINE
  5
226
100
AcDbEntity
  8
KONSTRUKTIONSELEMENTE
100
AcDbLine
 62
7
  6
CONTINUOUS
 10
273.3431142216
 20
229.0247391872
 11
297.342694735
 21
229.0247391872
  0
LINE
  5
227
100
AcDbEntity
  8
KONSTRUKTIONSELEMENTE
100
AcDbLine
 62
7
  6
CONTINUOUS
 10
123.3429044783
 20
229.0247391872
 11
120.3429044783
 21
232.0247391872
  0
LINE
  5
228
100
AcDbEntity
  8
RUNDUNGEN
100
AcDbLine
 62
7
  6
CONTINUOUS
 10
207.2814370194
 20
578.7566378449
 11
137.7439463502
 21
549.9532661164
  0
LINE
  5
229
100
AcDbEntity
  8
KONSTRUKTIONSELEMENTE
100
AcDbLine
 62
7
  6
CONTINUOUS
 10
120.3429044783
 20
232.0247391872
 11
150.3429044783
 21
232.0247391872
  0
LINE
  5
22A
100
AcDbEntity
  8
KONSTRUKTIONSELEMENTE
100
AcDbLine
 62
7
  6
CONTINUOUS
 10
195.3429044783
 20
232.0247391872
 11
225.3429044783
 21
232.0247391872
  0
LINE
  5
22B
100
AcDbEntity
  8
KONSTRUKTIONSELEMENTE
100
AcDbLine
 62
7
  6
CONTINUOUS
 10
270.3429044783
 20
232.0247391872
 11
300.3429044783
 21
232.0247391872
  0
LINE
  5
22C
100
AcDbEntity
  8
RUNDUNGEN
100
AcDbLine
 62
7
  6
CONTINUOUS
 10
133.4143775491
 20
545.6236973152
 11
104.1204181636
 21
474.9018232712
  0
LINE
  5
22D
100
AcDbEntity
  8
KONSTRUKTIONSELEMENTE
100
AcDbLine
 62
7
  6
CONTINUOUS
 10
10.3429044783
 20
275.0247391872
 11
410.3429044783
 21
275.0247391872
  0
LINE
  5
22E
100
AcDbEntity
  8
KONSTRUKTIONSELEMENTE
100
AcDbLine
 62
7
  6
CONTINUOUS
 10
198.3429044783
 20
229.0247391872
 11
195.3429044783
 21
232.0247391872
  0
LINE
  5
22F
100
AcDbEntity
  8
RUNDUNGEN
100
AcDbLine
 62
7
  6
CONTINUOUS
 10
100.3429044783
 20
428.6579426583
 11
100.3429044783
 21
363.9873438098
  0
LINE
  5
230
100
AcDbEntity
  8
0
100
AcDbLine
 62
7
  6
CONTINUOUS
 10
20.3429044783
 20
364.0247391872
 11
16.3429044783
 21
360.0247391872
  0
LINE
  5
231
100
AcDbEntity
  8
0
100
AcDbLine
 62
7
  6
CONTINUOUS
 10
100.3059695001
 20
364.0247391872
 11
104.2567228625
 21
360.0247391872
  0
LINE
  5
232
100
AcDbEntity
  8
0
100
AcDbLine
 62
7
  6
CONTINUOUS
 10
121.1499057258
 20
331.7138975257
 11
116.9615725352
 21
344.2407060409
  0
LINE
  5
233
100
AcDbEntity
  8
0
100
AcDbLine
 62
7
  6
CONTINUOUS
 10
115.1665725352
 20
344.2407060409
 11
119.9532393445
 21
329.8807060409
  0
LINE
  5
234
100
AcDbEntity
  8
RUNDUNGEN
100
AcDbLine
 62
7
  6
CONTINUOUS
 10
103.5552792607
 20
471.0041281061
 11
109.5208127941
 21
414.2458679056
  0
LINE
  5
235
100
AcDbEntity
  8
KONSTRUKTIONSELEMENTE
100
AcDbLine
 62
7
  6
CONTINUOUS
 10
120.3429044783
 20
232.0247391872
 11
120.3429044783
 21
275.0247391872
  0
LINE
  5
236
100
AcDbEntity
  8
BEZUGSACHSEN
100
AcDbLine
 62
7
  6
CONTINUOUS
 10
109.4782747222
 20
411.8088372583
 11
109.0682508848
 21
408.8913660601
  0
LINE
  5
237
100
AcDbEntity
  8
RUNDUNGEN
100
AcDbLine
 62
7
  6
CONTINUOUS
 10
109.4782747222
 20
411.8088372583
 11
109.0339602634
 21
408.6473756107
  0
LINE
  5
238
100
AcDbEntity
  8
0
100
AcDbLine
 62
7
  6
CONTINUOUS
 10
158.8449070097
 20
330.7973017833
 11
160.0415725352
 21
330.1862379461
  0
LINE
  5
239
100
AcDbEntity
  8
0
100
AcDbLine
 62
7
  6
CONTINUOUS
 10
160.3407380606
 20
332.0194294042
 11
159.4432380606
 21
332.6304933751
  0
LINE
  5
23A
100
AcDbEntity
  8
0
100
AcDbLine
 62
7
  6
CONTINUOUS
 10
139.3990725352
 20
343.018578527
 11
138.2024052979
 21
343.9351741624
  0
LINE
  5
23B
100
AcDbEntity
  8
0
100
AcDbLine
 62
7
  6
CONTINUOUS
 10
137.9032397724
 20
342.4075147701
 11
138.5015725352
 21
341.7964510131
  0
LINE
  5
23C
100
AcDbEntity
  8
0
100
AcDbLine
 62
7
  6
CONTINUOUS
 10
151.6649070097
 20
335.9913444662
 11
152.2632380606
 21
335.3802807093
  0
LINE
  5
23D
100
AcDbEntity
  8
0
100
AcDbLine
 62
7
  6
CONTINUOUS
 10
157.6482380606
 20
332.0194294042
 11
158.8449070097
 21
330.7973017833
  0
LINE
  5
23E
100
AcDbEntity
  8
0
100
AcDbLine
 62
7
  6
CONTINUOUS
 10
140.2965725352
 20
341.7964510131
 11
139.3990725352
 21
343.018578527
  0
LINE
  5
23F
100
AcDbEntity
  8
0
100
AcDbLine
 62
7
  6
CONTINUOUS
 10
140.8949052979
 20
329.8807060409
 11
138.2024052979
 21
336.9079401017
  0
LINE
  5
240
100
AcDbEntity
  8
0
100
AcDbLine
 62
7
  6
CONTINUOUS
 10
136.4074052979
 20
336.2968763447
 11
138.8007397724
 21
329.8807060409
  0
LINE
  5
241
100
AcDbEntity
  8
0
100
AcDbLine
 62
7
  6
CONTINUOUS
 10
138.5015725352
 20
341.7964510131
 11
138.8007397724
 21
340.8798553777
  0
LINE
  5
242
100
AcDbEntity
  8
0
100
AcDbLine
 62
7
  6
CONTINUOUS
 10
125.8329044783
 20
407.5447391872
 11
125.8329044783
 21
395.5447391872
  0
LINE
  5
243
100
AcDbEntity
  8
0
100
AcDbLine
 62
7
  6
CONTINUOUS
 10
127.3329044783
 20
395.5447391872
 11
127.3329044783
 21
400.9064413909
  0
LINE
  5
244
100
AcDbEntity
  8
0
100
AcDbLine
 62
7
  6
CONTINUOUS
 10
127.3329044783
 20
402.4383561019
 11
127.3329044783
 21
406.2681435947
  0
LINE
  5
245
100
AcDbEntity
  8
0
100
AcDbLine
 62
7
  6
CONTINUOUS
 10
129.5265725352
 20
344.2407060409
 11
129.5265725352
 21
329.8807060409
  0
LINE
  5
246
100
AcDbEntity
  8
0
100
AcDbLine
 62
7
  6
CONTINUOUS
 10
131.3215725352
 20
329.8807060409
 11
131.3215725352
 21
336.2968763447
  0
LINE
  5
247
100
AcDbEntity
  8
0
100
AcDbLine
 62
7
  6
CONTINUOUS
 10
131.3215725352
 20
338.1300676155
 11
131.3215725352
 21
342.7130466485
  0
LINE
  5
248
100
AcDbEntity
  8
0
100
AcDbLine
 62
7
  6
CONTINUOUS
 10
133.5829042399
 20
404.7362288837
 11
133.5829042399
 21
403.9702708129
  0
LINE
  5
249
100
AcDbEntity
  8
0
100
AcDbLine
 62
7
  6
CONTINUOUS
 10
135.0829042399
 20
403.7149516944
 11
135.0829042399
 21
404.7362288837
  0
LINE
  5
24A
100
AcDbEntity
  8
TEIL_STARTBEZUEGE
100
AcDbLine
 62
7
  6
CENTER
 10
135.3429044783
 20
226.0247391872
 11
135.3429044783
 21
362.0247391872
  0
LINE
  5
24B
100
AcDbEntity
  8
0
100
AcDbLine
 62
7
  6
CONTINUOUS
 10
137.3329042399
 20
407.5447391872
 11
137.3329042399
 21
399.6298454408
  0
LINE
  5
24C
100
AcDbEntity
  8
0
100
AcDbLine
 62
7
  6
CONTINUOUS
 10
138.8007397724
 20
340.8798553777
 11
138.8007397724
 21
339.9632588864
  0
LINE
  5
24D
100
AcDbEntity
  8
0
100
AcDbLine
 62
7
  6
CONTINUOUS
 10
138.8329049551
 20
399.6298454408
 11
138.8329049551
 21
407.5447391872
  0
LINE
  5
24E
100
AcDbEntity
  8
0
100
AcDbLine
 62
7
  6
CONTINUOUS
 10
140.5957397724
 20
339.6577270079
 11
140.5957397724
 21
340.8798553777
  0
LINE
  5
24F
100
AcDbEntity
  8
0
100
AcDbLine
 62
7
  6
CONTINUOUS
 10
133.5829042399
 20
403.9702708129
 11
133.3329044783
 21
403.2043134574
  0
LINE
  5
250
100
AcDbEntity
  8
0
100
AcDbLine
 62
7
  6
CONTINUOUS
 10
134.8329044783
 20
402.9489943389
 11
135.0829042399
 21
403.7149516944
  0
LINE
  5
251
100
AcDbEntity
  8
0
100
AcDbLine
 62
7
  6
CONTINUOUS
 10
217.4815725352
 20
331.7138975257
 11
216.284903586
 21
331.4083656472
  0
LINE
  5
252
100
AcDbEntity
  8
0
100
AcDbLine
 62
7
  6
CONTINUOUS
 10
216.284903586
 20
329.8807060409
 11
217.7807414843
 21
330.1862379461
  0
LINE
  5
253
100
AcDbEntity
  8
0
100
AcDbLine
 62
7
  6
CONTINUOUS
 10
204.3182414843
 20
328.0475145561
 11
205.8140725352
 21
328.0475145561
  0
LINE
  5
254
100
AcDbEntity
  8
0
100
AcDbLine
 62
7
  6
CONTINUOUS
 10
119.9532393445
 20
329.8807060409
 11
122.3465725352
 21
329.8807060409
  0
LINE
  5
255
100
AcDbEntity
  8
0
100
AcDbLine
 62
7
  6
CONTINUOUS
 10
129.5265725352
 20
329.8807060409
 11
131.3215725352
 21
329.8807060409
  0
LINE
  5
256
100
AcDbEntity
  8
0
100
AcDbLine
 62
7
  6
CONTINUOUS
 10
138.8007397724
 20
329.8807060409
 11
140.8949052979
 21
329.8807060409
  0
LINE
  5
257
100
AcDbEntity
  8
0
100
AcDbLine
 62
7
  6
CONTINUOUS
 10
143.2882397724
 20
329.8807060409
 11
150.4682380606
 21
329.8807060409
  0
LINE
  5
258
100
AcDbEntity
  8
0
100
AcDbLine
 62
7
  6
CONTINUOUS
 10
161.5374070097
 20
329.8807060409
 11
164.2299070097
 21
329.8807060409
  0
LINE
  5
259
100
AcDbEntity
  8
0
100
AcDbLine
 62
7
  6
CONTINUOUS
 10
189.359903586
 20
329.8807060409
 11
191.7532414843
 21
329.8807060409
  0
LINE
  5
25A
100
AcDbEntity
  8
0
100
AcDbLine
 62
7
  6
CONTINUOUS
 10
200.129903586
 20
329.8807060409
 11
201.924903586
 21
329.8807060409
  0
LINE
  5
25B
100
AcDbEntity
  8
0
100
AcDbLine
 62
7
  6
CONTINUOUS
 10
214.489903586
 20
329.8807060409
 11
216.284903586
 21
329.8807060409
  0
LINE
  5
25C
100
AcDbEntity
  8
0
100
AcDbLine
 62
7
  6
CONTINUOUS
 10
216.284903586
 20
331.4083656472
 11
214.489903586
 21
331.4083656472
  0
LINE
  5
25D
100
AcDbEntity
  8
0
100
AcDbLine
 62
7
  6
CONTINUOUS
 10
207.6090725352
 20
331.4083656472
 11
206.1132414843
 21
331.4083656472
  0
LINE
  5
25E
100
AcDbEntity
  8
0
100
AcDbLine
 62
7
  6
CONTINUOUS
 10
191.4540725352
 20
331.4083656472
 11
189.6590725352
 21
331.4083656472
  0
LINE
  5
25F
100
AcDbEntity
  8
0
100
AcDbLine
 62
7
  6
CONTINUOUS
 10
164.2299070097
 20
331.7138975257
 11
161.5374070097
 21
331.7138975257
  0
LINE
  5
260
100
AcDbEntity
  8
0
100
AcDbLine
 62
7
  6
CONTINUOUS
 10
150.7674070097
 20
331.7138975257
 11
145.0832380606
 21
331.7138975257
  0
LINE
  5
261
100
AcDbEntity
  8
0
100
AcDbLine
 62
7
  6
CONTINUOUS
 10
186.667403586
 20
333.241557132
 11
185.1715725352
 21
333.241557132
  0
LINE
  5
262
100
AcDbEntity
  8
0
100
AcDbLine
 62
7
  6
CONTINUOUS
 10
211.797403586
 20
333.5470890105
 11
210.002403586
 21
333.5470890105
  0
LINE
  5
263
100
AcDbEntity
  8
0
100
AcDbLine
 62
7
  6
CONTINUOUS
 10
227.952403586
 20
330.1862379461
 11
229.747403586
 21
329.8807060409
  0
LINE
  5
264
100
AcDbEntity
  8
0
100
AcDbLine
 62
7
  6
CONTINUOUS
 10
191.154903586
 20
336.6024082232
 11
192.949903586
 21
336.2968763447
  0
LINE
  5
265
100
AcDbEntity
  8
0
100
AcDbLine
 62
7
  6
CONTINUOUS
 10
160.0415725352
 20
330.1862379461
 11
161.5374070097
 21
329.8807060409
  0
LINE
  5
266
100
AcDbEntity
  8
0
100
AcDbLine
 62
7
  6
CONTINUOUS
 10
189.6590725352
 20
331.4083656472
 11
188.1632414843
 21
331.7138975257
  0
LINE
  5
267
100
AcDbEntity
  8
0
100
AcDbLine
 62
7
  6
CONTINUOUS
 10
138.2024052979
 20
343.9351741624
 11
136.7065725352
 21
344.2407060409
  0
LINE
  5
268
100
AcDbEntity
  8
0
100
AcDbLine
 62
7
  6
CONTINUOUS
 10
212.9940725352
 20
330.1862379461
 11
214.489903586
 21
329.8807060409
  0
LINE
  5
269
100
AcDbEntity
  8
0
100
AcDbLine
 62
7
  6
CONTINUOUS
 10
151.9640725352
 20
343.9351741624
 11
150.4682380606
 21
344.2407060409
  0
LINE
  5
26A
100
AcDbEntity
  8
0
100
AcDbLine
 62
7
  6
CONTINUOUS
 10
161.5374070097
 20
331.7138975257
 11
160.3407380606
 21
332.0194294042
  0
LINE
  5
26B
100
AcDbEntity
  8
0
100
AcDbLine
 62
7
  6
CONTINUOUS
 10
188.1632414843
 20
330.1862379461
 11
189.359903586
 21
329.8807060409
  0
LINE
  5
26C
100
AcDbEntity
  8
0
100
AcDbLine
 62
7
  6
CONTINUOUS
 10
164.2299070097
 20
342.4075147701
 11
165.4265725352
 21
342.1019828916
  0
LINE
  5
26D
100
AcDbEntity
  8
0
100
AcDbLine
 62
7
  6
CONTINUOUS
 10
214.489903586
 20
331.4083656472
 11
213.2932414843
 21
331.7138975257
  0
LINE
  5
26E
100
AcDbEntity
  8
0
100
AcDbLine
 62
7
  6
CONTINUOUS
 10
150.7674070097
 20
336.2968763447
 11
151.6649070097
 21
335.9913444662
  0
LINE
  5
26F
100
AcDbEntity
  8
0
100
AcDbLine
 62
7
  6
CONTINUOUS
 10
137.0057397724
 20
342.7130466485
 11
137.9032397724
 21
342.4075147701
  0
LINE
  5
270
100
AcDbEntity
  8
0
100
AcDbLine
 62
7
  6
CONTINUOUS
 10
150.7674070097
 20
342.4075147701
 11
151.6649070097
 21
342.1019828916
  0
LINE
  5
271
100
AcDbEntity
  8
0
100
AcDbLine
 62
7
  6
CONTINUOUS
 10
153.1607380606
 20
336.9079401017
 11
152.5624070097
 21
337.2134719801
  0
LINE
  5
272
100
AcDbEntity
  8
0
100
AcDbLine
 62
7
  6
CONTINUOUS
 10
186.9665725352
 20
330.7973017833
 11
188.1632414843
 21
330.1862379461
  0
LINE
  5
273
100
AcDbEntity
  8
0
100
AcDbLine
 62
7
  6
CONTINUOUS
 10
188.1632414843
 20
331.7138975257
 11
187.564903586
 21
332.0194294042
  0
LINE
  5
274
100
AcDbEntity
  8
0
100
AcDbLine
 62
7
  6
CONTINUOUS
 10
166.9224070097
 20
343.3241104055
 11
165.7257380606
 21
343.9351741624
  0
LINE
  5
275
100
AcDbEntity
  8
0
100
AcDbLine
 62
7
  6
CONTINUOUS
 10
165.4265725352
 20
342.1019828916
 11
166.3240725352
 21
341.4909191346
  0
LINE
  5
276
100
AcDbEntity
  8
0
100
AcDbLine
 62
7
  6
CONTINUOUS
 10
186.0690725352
 20
331.4083656472
 11
186.9665725352
 21
330.7973017833
  0
LINE
  5
277
100
AcDbEntity
  8
0
100
AcDbLine
 62
7
  6
CONTINUOUS
 10
153.1607380606
 20
343.018578527
 11
151.9640725352
 21
343.9351741624
  0
LINE
  5
278
100
AcDbEntity
  8
KONSTRUKTIONSELEMENTE
100
AcDbLine
 62
7
  6
CONTINUOUS
 10
273.3429044783
 20
229.0247391872
 11
270.3429044783
 21
232.0247391872
  0
LINE
  5
279
100
AcDbEntity
  8
0
100
AcDbLine
 62
7
  6
CONTINUOUS
 10
151.6649070097
 20
342.1019828916
 11
152.2632380606
 21
341.4909191346
  0
LINE
  5
27A
100
AcDbEntity
  8
0
100
AcDbLine
 62
7
  6
CONTINUOUS
 10
168.1190725352
 20
342.1019828916
 11
166.9224070097
 21
343.3241104055
  0
LINE
  5
27B
100
AcDbEntity
  8
0
100
AcDbLine
 62
7
  6
CONTINUOUS
 10
154.0582380606
 20
335.6858125878
 11
153.1607380606
 21
336.9079401017
  0
LINE
  5
27C
100
AcDbEntity
  8
0
100
AcDbLine
 62
7
  6
CONTINUOUS
 10
154.0582380606
 20
341.7964510131
 11
153.1607380606
 21
343.018578527
  0
LINE
  5
27D
100
AcDbEntity
  8
0
100
AcDbLine
 62
7
  6
CONTINUOUS
 10
159.4432380606
 20
332.6304933751
 11
158.8449070097
 21
333.5470890105
  0
LINE
  5
27E
100
AcDbEntity
  8
0
100
AcDbLine
 62
7
  6
CONTINUOUS
 10
157.0499070097
 20
333.241557132
 11
157.6482380606
 21
332.0194294042
  0
LINE
  5
27F
100
AcDbEntity
  8
0
100
AcDbLine
 62
7
  6
CONTINUOUS
 10
135.3329047167
 20
395.5447391872
 11
133.0829047167
 21
401.4170796279
  0
LINE
  5
280
100
AcDbEntity
  8
0
100
AcDbLine
 62
7
  6
CONTINUOUS
 10
131.5829043591
 20
400.9064413909
 11
133.5829042399
 21
395.5447391872
  0
LINE
  5
281
100
AcDbEntity
  8
0
100
AcDbLine
 62
7
  6
CONTINUOUS
 10
140.5957397724
 20
340.8798553777
 11
140.2965725352
 21
341.7964510131
  0
LINE
  5
282
100
AcDbEntity
  8
0
100
AcDbLine
 62
7
  6
CONTINUOUS
 10
152.2632380606
 20
335.3802807093
 11
152.5624070097
 21
334.4636846459
  0
LINE
  5
283
100
AcDbEntity
  8
0
100
AcDbLine
 62
7
  6
CONTINUOUS
 10
154.3574070097
 20
334.7692165244
 11
154.0582380606
 21
335.6858125878
  0
LINE
  5
284
100
AcDbEntity
  8
0
100
AcDbLine
 62
7
  6
CONTINUOUS
 10
152.2632380606
 20
341.4909191346
 11
152.5624070097
 21
340.5743226433
  0
LINE
  5
285
100
AcDbEntity
  8
0
100
AcDbLine
 62
7
  6
CONTINUOUS
 10
154.3574070097
 20
340.8798553777
 11
154.0582380606
 21
341.7964510131
  0
LINE
  5
286
100
AcDbEntity
  8
0
100
AcDbLine
 62
7
  6
CONTINUOUS
 10
133.3329044783
 20
405.5021862392
 11
133.5829042399
 21
404.7362288837
  0
LINE
  5
287
100
AcDbEntity
  8
0
100
AcDbLine
 62
7
  6
CONTINUOUS
 10
135.0829042399
 20
404.7362288837
 11
134.8329044783
 21
405.5021862392
  0
LINE
  5
288
100
AcDbEntity
  8
0
100
AcDbLine
 62
7
  6
CONTINUOUS
 10
139.0829040014
 20
398.6085689668
 11
138.8329049551
 21
399.6298454408
  0
LINE
  5
289
100
AcDbEntity
  8
0
100
AcDbLine
 62
7
  6
CONTINUOUS
 10
137.3329042399
 20
399.6298454408
 11
137.5829047167
 21
398.3532498483
  0
LINE
  5
28A
100
AcDbEntity
  8
0
100
AcDbLine
 62
7
  6
CONTINUOUS
 10
143.2882397724
 20
344.2407060409
 11
143.2882397724
 21
329.8807060409
  0
LINE
  5
28B
100
AcDbEntity
  8
0
100
AcDbLine
 62
7
  6
CONTINUOUS
 10
144.8329049551
 20
407.5447391872
 11
144.8329049551
 21
399.6298454408
  0
LINE
  5
28C
100
AcDbEntity
  8
0
100
AcDbLine
 62
7
  6
CONTINUOUS
 10
145.0832380606
 20
331.7138975257
 11
145.0832380606
 21
336.2968763447
  0
LINE
  5
28D
100
AcDbEntity
  8
0
100
AcDbLine
 62
7
  6
CONTINUOUS
 10
145.0832380606
 20
338.1300676155
 11
145.0832380606
 21
342.4075147701
  0
LINE
  5
28E
100
AcDbEntity
  8
0
100
AcDbLine
 62
7
  6
CONTINUOUS
 10
146.3329049551
 20
399.6298454408
 11
146.3329049551
 21
407.5447391872
  0
LINE
  5
28F
100
AcDbEntity
  8
0
100
AcDbLine
 62
7
  6
CONTINUOUS
 10
148.3329044783
 20
407.5447391872
 11
148.3329044783
 21
395.5447391872
  0
LINE
  5
290
100
AcDbEntity
  8
0
100
AcDbLine
 62
7
  6
CONTINUOUS
 10
149.8329044783
 20
397.076654077
 11
149.8329044783
 21
406.0128244762
  0
LINE
  5
291
100
AcDbEntity
  8
KONSTRUKTIONSELEMENTE
100
AcDbLine
 62
7
  6
CONTINUOUS
 10
150.3429044783
 20
232.0247391872
 11
150.3429044783
 21
275.0247391872
  0
LINE
  5
292
100
AcDbEntity
  8
0
100
AcDbLine
 62
7
  6
CONTINUOUS
 10
152.5624070097
 20
340.5743226433
 11
152.5624070097
 21
339.9632588864
  0
LINE
  5
293
100
AcDbEntity
  8
0
100
AcDbLine
 62
7
  6
CONTINUOUS
 10
152.5624070097
 20
334.4636846459
 11
152.5624070097
 21
333.5470890105
  0
LINE
  5
294
100
AcDbEntity
  8
0
100
AcDbLine
 62
7
  6
CONTINUOUS
 10
154.3574070097
 20
333.241557132
 11
154.3574070097
 21
334.7692165244
  0
LINE
  5
295
100
AcDbEntity
  8
0
100
AcDbLine
 62
7
  6
CONTINUOUS
 10
154.3574070097
 20
339.6577270079
 11
154.3574070097
 21
340.8798553777
  0
LINE
  5
296
100
AcDbEntity
  8
0
100
AcDbLine
 62
7
  6
CONTINUOUS
 10
156.7507380606
 20
339.3521951294
 11
156.7507380606
 21
334.7692165244
  0
LINE
  5
297
100
AcDbEntity
  8
0
100
AcDbLine
 62
7
  6
CONTINUOUS
 10
156.8329035246
 20
403.4596325759
 11
156.8329035246
 21
399.6298454408
  0
LINE
  5
298
100
AcDbEntity
  8
0
100
AcDbLine
 62
7
  6
CONTINUOUS
 10
158.3329035246
 20
399.6298454408
 11
158.3329035246
 21
403.4596325759
  0
LINE
  5
299
100
AcDbEntity
  8
0
100
AcDbLine
 62
7
  6
CONTINUOUS
 10
158.5457380606
 20
334.7692165244
 11
158.5457380606
 21
339.3521951294
  0
LINE
  5
29A
100
AcDbEntity
  8
0
100
AcDbLine
 62
7
  6
CONTINUOUS
 10
146.0829044783
 20
398.3532498483
 11
146.3329049551
 21
399.6298454408
  0
LINE
  5
29B
100
AcDbEntity
  8
0
100
AcDbLine
 62
7
  6
CONTINUOUS
 10
144.8329049551
 20
399.6298454408
 11
144.5829044783
 21
398.6085689668
  0
LINE
  5
29C
100
AcDbEntity
  8
0
100
AcDbLine
 62
7
  6
CONTINUOUS
 10
156.8329035246
 20
399.6298454408
 11
156.5829044783
 21
398.6085689668
  0
LINE
  5
29D
100
AcDbEntity
  8
0
100
AcDbLine
 62
7
  6
CONTINUOUS
 10
122.3465725352
 20
329.8807060409
 11
127.1332389165
 21
344.2407060409
  0
LINE
  5
29E
100
AcDbEntity
  8
0
100
AcDbLine
 62
7
  6
CONTINUOUS
 10
125.3382389165
 20
344.2407060409
 11
121.1499057258
 21
331.7138975257
  0
LINE
  5
29F
100
AcDbEntity
  8
0
100
AcDbLine
 62
7
  6
CONTINUOUS
 10
145.5829049551
 20
397.3319731955
 11
146.0829044783
 21
398.3532498483
  0
LINE
  5
2A0
100
AcDbEntity
  8
0
100
AcDbLine
 62
7
  6
CONTINUOUS
 10
144.5829044783
 20
398.6085689668
 11
144.0829049551
 21
397.8426116113
  0
LINE
  5
2A1
100
AcDbEntity
  8
0
100
AcDbLine
 62
7
  6
CONTINUOUS
 10
134.0829044783
 20
401.9277178649
 11
134.8329044783
 21
402.9489943389
  0
LINE
  5
2A2
100
AcDbEntity
  8
0
100
AcDbLine
 62
7
  6
CONTINUOUS
 10
133.3329044783
 20
403.2043134574
 11
132.8329042399
 21
402.6936752204
  0
LINE
  5
2A3
100
AcDbEntity
  8
0
100
AcDbLine
 62
7
  6
CONTINUOUS
 10
191.7532414843
 20
329.8807060409
 11
192.949903586
 21
330.1862379461
  0
LINE
  5
2A4
100
AcDbEntity
  8
0
100
AcDbLine
 62
7
  6
CONTINUOUS
 10
213.2932414843
 20
337.2134719801
 11
214.489903586
 21
337.5190038586
  0
LINE
  5
2A5
100
AcDbEntity
  8
0
100
AcDbLine
 62
7
  6
CONTINUOUS
 10
165.4265725352
 20
332.0194294042
 11
164.2299070097
 21
331.7138975257
  0
LINE
  5
2A6
100
AcDbEntity
  8
0
100
AcDbLine
 62
7
  6
CONTINUOUS
 10
192.949903586
 20
331.7138975257
 11
191.4540725352
 21
331.4083656472
  0
LINE
  5
2A7
100
AcDbEntity
  8
0
100
AcDbLine
 62
7
  6
CONTINUOUS
 10
214.489903586
 20
339.0466632509
 11
212.9940725352
 21
338.7411313725
  0
LINE
  5
2A8
100
AcDbEntity
  8
0
100
AcDbLine
 62
7
  6
CONTINUOUS
 10
164.2299070097
 20
329.8807060409
 11
165.7257380606
 21
330.1862379461
  0
LINE
  5
2A9
100
AcDbEntity
  8
0
100
AcDbLine
 62
7
  6
CONTINUOUS
 10
150.4682380606
 20
329.8807060409
 11
151.9640725352
 21
330.1862379461
  0
LINE
  5
2AA
100
AcDbEntity
  8
0
100
AcDbLine
 62
7
  6
CONTINUOUS
 10
188.462403586
 20
342.4075147701
 11
189.9582414843
 21
342.7130466485
  0
LINE
  5
2AB
100
AcDbEntity
  8
0
100
AcDbLine
 62
7
  6
CONTINUOUS
 10
190.257403586
 20
344.2407060409
 11
188.1632414843
 21
343.9351741624
  0
LINE
  5
2AC
100
AcDbEntity
  8
0
100
AcDbLine
 62
7
  6
CONTINUOUS
 10
163.9307380606
 20
335.9913444662
 11
166.6232380606
 21
335.9913444662
  0
LINE
  5
2AD
100
AcDbEntity
  8
0
100
AcDbLine
 62
7
  6
CONTINUOUS
 10
131.3215725352
 20
336.2968763447
 11
136.4074052979
 21
336.2968763447
  0
LINE
  5
2AE
100
AcDbEntity
  8
0
100
AcDbLine
 62
7
  6
CONTINUOUS
 10
145.0832380606
 20
336.2968763447
 11
150.7674070097
 21
336.2968763447
  0
LINE
  5
2AF
100
AcDbEntity
  8
0
100
AcDbLine
 62
7
  6
CONTINUOUS
 10
210.002403586
 20
336.2968763447
 11
212.0965725352
 21
336.2968763447
  0
LINE
  5
2B0
100
AcDbEntity
  8
0
100
AcDbLine
 62
7
  6
CONTINUOUS
 10
189.9582414843
 20
336.6024082232
 11
191.154903586
 21
336.6024082232
  0
LINE
  5
2B1
100
AcDbEntity
  8
0
100
AcDbLine
 62
7
  6
CONTINUOUS
 10
214.489903586
 20
337.5190038586
 11
216.284903586
 21
337.5190038586
  0
LINE
  5
2B2
100
AcDbEntity
  8
0
100
AcDbLine
 62
7
  6
CONTINUOUS
 10
191.154903586
 20
337.8245357371
 11
189.9582414843
 21
337.8245357371
  0
LINE
  5
2B3
100
AcDbEntity
  8
0
100
AcDbLine
 62
7
  6
CONTINUOUS
 10
168.4182380606
 20
337.8245357371
 11
163.9307380606
 21
337.8245357371
  0
LINE
  5
2B4
100
AcDbEntity
  8
0
100
AcDbLine
 62
7
  6
CONTINUOUS
 10
150.7674070097
 20
338.1300676155
 11
145.0832380606
 21
338.1300676155
  0
LINE
  5
2B5
100
AcDbEntity
  8
0
100
AcDbLine
 62
7
  6
CONTINUOUS
 10
137.0057397724
 20
338.1300676155
 11
131.3215725352
 21
338.1300676155
  0
LINE
  5
2B6
100
AcDbEntity
  8
0
100
AcDbLine
 62
7
  6
CONTINUOUS
 10
223.1657414843
 20
338.435599494
 11
225.5590725352
 21
338.435599494
  0
LINE
  5
2B7
100
AcDbEntity
  8
0
100
AcDbLine
 62
7
  6
CONTINUOUS
 10
227.054903586
 20
338.435599494
 11
230.3457346369
 21
338.435599494
  0
LINE
  5
2B8
100
AcDbEntity
  8
0
100
AcDbLine
 62
7
  6
CONTINUOUS
 10
216.284903586
 20
339.0466632509
 11
214.489903586
 21
339.0466632509
  0
LINE
  5
2B9
100
AcDbEntity
  8
0
100
AcDbLine
 62
7
  6
CONTINUOUS
 10
230.3457346369
 20
339.6577270079
 11
227.054903586
 21
339.6577270079
  0
LINE
  5
2BA
100
AcDbEntity
  8
0
100
AcDbLine
 62
7
  6
CONTINUOUS
 10
225.5590725352
 20
339.6577270079
 11
223.1657414843
 21
339.6577270079
  0
LINE
  5
2BB
100
AcDbEntity
  8
0
100
AcDbLine
 62
7
  6
CONTINUOUS
 10
166.6232380606
 20
340.5743226433
 11
168.4182380606
 21
340.5743226433
  0
LINE
  5
2BC
100
AcDbEntity
  8
0
100
AcDbLine
 62
7
  6
CONTINUOUS
 10
185.4707414843
 20
340.8798553777
 11
186.9665725352
 21
340.8798553777
  0
LINE
  5
2BD
100
AcDbEntity
  8
0
100
AcDbLine
 62
7
  6
CONTINUOUS
 10
227.054903586
 20
342.1019828916
 11
225.5590725352
 21
342.1019828916
  0
LINE
  5
2BE
100
AcDbEntity
  8
0
100
AcDbLine
 62
7
  6
CONTINUOUS
 10
145.0832380606
 20
342.4075147701
 11
150.7674070097
 21
342.4075147701
  0
LINE
  5
2BF
100
AcDbEntity
  8
0
100
AcDbLine
 62
7
  6
CONTINUOUS
 10
161.5374070097
 20
342.4075147701
 11
164.2299070097
 21
342.4075147701
  0
LINE
  5
2C0
100
AcDbEntity
  8
0
100
AcDbLine
 62
7
  6
CONTINUOUS
 10
131.3215725352
 20
342.7130466485
 11
137.0057397724
 21
342.7130466485
  0
LINE
  5
2C1
100
AcDbEntity
  8
0
100
AcDbLine
 62
7
  6
CONTINUOUS
 10
189.9582414843
 20
342.7130466485
 11
191.154903586
 21
342.7130466485
  0
LINE
  5
2C2
100
AcDbEntity
  8
0
100
AcDbLine
 62
7
  6
CONTINUOUS
 10
211.4982414843
 20
342.7130466485
 11
220.1740725352
 21
342.7130466485
  0
LINE
  5
2C3
100
AcDbEntity
  8
0
100
AcDbLine
 62
7
  6
CONTINUOUS
 10
220.1740725352
 20
344.2407060409
 11
210.002403586
 21
344.2407060409
  0
LINE
  5
2C4
100
AcDbEntity
  8
0
100
AcDbLine
 62
7
  6
CONTINUOUS
 10
201.924903586
 20
344.2407060409
 11
200.129903586
 21
344.2407060409
  0
LINE
  5
2C5
100
AcDbEntity
  8
0
100
AcDbLine
 62
7
  6
CONTINUOUS
 10
190.8557414843
 20
344.2407060409
 11
190.257403586
 21
344.2407060409
  0
LINE
  5
2C6
100
AcDbEntity
  8
0
100
AcDbLine
 62
7
  6
CONTINUOUS
 10
164.2299070097
 20
344.2407060409
 11
161.5374070097
 21
344.2407060409
  0
LINE
  5
2C7
100
AcDbEntity
  8
0
100
AcDbLine
 62
7
  6
CONTINUOUS
 10
150.4682380606
 20
344.2407060409
 11
143.2882397724
 21
344.2407060409
  0
LINE
  5
2C8
100
AcDbEntity
  8
0
100
AcDbLine
 62
7
  6
CONTINUOUS
 10
136.7065725352
 20
344.2407060409
 11
129.5265725352
 21
344.2407060409
  0
LINE
  5
2C9
100
AcDbEntity
  8
0
100
AcDbLine
 62
7
  6
CONTINUOUS
 10
127.1332389165
 20
344.2407060409
 11
125.3382389165
 21
344.2407060409
  0
LINE
  5
2CA
100
AcDbEntity
  8
0
100
AcDbLine
 62
7
  6
CONTINUOUS
 10
116.9615725352
 20
344.2407060409
 11
115.1665725352
 21
344.2407060409
  0
LINE
  5
2CB
100
AcDbEntity
  8
0
100
AcDbLine
 62
7
  6
CONTINUOUS
 10
192.949903586
 20
343.9351741624
 11
190.8557414843
 21
344.2407060409
  0
LINE
  5
2CC
100
AcDbEntity
  8
0
100
AcDbLine
 62
7
  6
CONTINUOUS
 10
165.7257380606
 20
343.9351741624
 11
164.2299070097
 21
344.2407060409
  0
LINE
  5
2CD
100
AcDbEntity
  8
0
100
AcDbLine
 62
7
  6
CONTINUOUS
 10
229.747403586
 20
331.1028336618
 11
228.2515725352
 21
331.4083656472
  0
LINE
  5
2CE
100
AcDbEntity
  8
0
100
AcDbLine
 62
7
  6
CONTINUOUS
 10
191.154903586
 20
342.7130466485
 11
192.6507414843
 21
342.4075147701
  0
LINE
  5
2CF
100
AcDbEntity
  8
0
100
AcDbLine
 62
7
  6
CONTINUOUS
 10
217.7807414843
 20
338.7411313725
 11
216.284903586
 21
339.0466632509
  0
LINE
  5
2D0
100
AcDbEntity
  8
0
100
AcDbLine
 62
7
  6
CONTINUOUS
 10
216.284903586
 20
337.5190038586
 11
217.4815725352
 21
337.2134719801
  0
LINE
  5
2D1
100
AcDbEntity
  8
0
100
AcDbLine
 62
7
  6
CONTINUOUS
 10
227.054903586
 20
330.4917698513
 11
227.952403586
 21
330.1862379461
  0
LINE
  5
2D2
100
AcDbEntity
  8
0
100
AcDbLine
 62
7
  6
CONTINUOUS
 10
195.0440725352
 20
336.6024082232
 11
193.5482414843
 21
337.2134719801
  0
LINE
  5
2D3
100
AcDbEntity
  8
0
100
AcDbLine
 62
7
  6
CONTINUOUS
 10
194.1465725352
 20
343.3241104055
 11
192.949903586
 21
343.9351741624
  0
LINE
  5
2D4
100
AcDbEntity
  8
0
100
AcDbLine
 62
7
  6
CONTINUOUS
 10
211.4982414843
 20
331.1028336618
 11
212.9940725352
 21
330.1862379461
  0
LINE
  5
2D5
100
AcDbEntity
  8
0
100
AcDbLine
 62
7
  6
CONTINUOUS
 10
219.2765725352
 20
337.8245357371
 11
217.7807414843
 21
338.7411313725
  0
LINE
  5
2D6
100
AcDbEntity
  8
0
100
AcDbLine
 62
7
  6
CONTINUOUS
 10
192.949903586
 20
336.2968763447
 11
193.847403586
 21
335.6858125878
  0
LINE
  5
2D7
100
AcDbEntity
  8
0
100
AcDbLine
 62
7
  6
CONTINUOUS
 10
192.6507414843
 20
342.4075147701
 11
193.5482414843
 21
341.7964510131
  0
LINE
  5
2D8
100
AcDbEntity
  8
0
100
AcDbLine
 62
7
  6
CONTINUOUS
 10
213.2932414843
 20
331.7138975257
 11
212.3957414843
 21
332.3249612826
  0
LINE
  5
2D9
100
AcDbEntity
  8
0
100
AcDbLine
 62
7
  6
CONTINUOUS
 10
226.157403586
 20
331.1028336618
 11
227.054903586
 21
330.4917698513
  0
LINE
  5
2DA
100
AcDbEntity
  8
0
100
AcDbLine
 62
7
  6
CONTINUOUS
 10
217.4815725352
 20
337.2134719801
 11
218.3790725352
 21
336.6024082232
  0
LINE
  5
2DB
100
AcDbEntity
  8
0
100
AcDbLine
 62
7
  6
CONTINUOUS
 10
187.564903586
 20
332.0194294042
 11
186.9665725352
 21
332.6304933751
  0
LINE
  5
2DC
100
AcDbEntity
  8
0
100
AcDbLine
 62
7
  6
CONTINUOUS
 10
138.0829049551
 20
397.3319731955
 11
139.0829040014
 21
396.3106966321
  0
LINE
  5
2DD
100
AcDbEntity
  8
0
100
AcDbLine
 62
7
  6
CONTINUOUS
 10
195.3432414843
 20
342.1019828916
 11
194.1465725352
 21
343.3241104055
  0
LINE
  5
2DE
100
AcDbEntity
  8
0
100
AcDbLine
 62
7
  6
CONTINUOUS
 10
132.8329042399
 20
406.0128244762
 11
133.3329044783
 21
405.5021862392
  0
LINE
  5
2DF
100
AcDbEntity
  8
0
100
AcDbLine
 62
7
  6
CONTINUOUS
 10
134.8329044783
 20
405.5021862392
 11
134.0829044783
 21
406.5234627132
  0
LINE
  5
2E0
100
AcDbEntity
  8
0
100
AcDbLine
 62
7
  6
CONTINUOUS
 10
139.5829049551
 20
397.8426116113
 11
139.0829040014
 21
398.6085689668
  0
LINE
  5
2E1
100
AcDbEntity
  8
0
100
AcDbLine
 62
7
  6
CONTINUOUS
 10
185.4707414843
 20
332.3249612826
 11
186.0690725352
 21
331.4083656472
  0
LINE
  5
2E2
100
AcDbEntity
  8
0
100
AcDbLine
 62
7
  6
CONTINUOUS
 10
137.5829047167
 20
398.3532498483
 11
138.0829049551
 21
397.3319731955
  0
LINE
  5
2E3
100
AcDbEntity
  8
0
100
AcDbLine
 62
7
  6
CONTINUOUS
 10
186.9665725352
 20
332.6304933751
 11
186.667403586
 21
333.241557132
  0
LINE
  5
2E4
100
AcDbEntity
  8
0
100
AcDbLine
 62
7
  6
CONTINUOUS
 10
166.3240725352
 20
341.4909191346
 11
166.6232380606
 21
340.5743226433
  0
LINE
  5
2E5
100
AcDbEntity
  8
0
100
AcDbLine
 62
7
  6
CONTINUOUS
 10
158.8449070097
 20
333.5470890105
 11
158.5457380606
 21
334.7692165244
  0
LINE
  5
2E6
100
AcDbEntity
  8
0
100
AcDbLine
 62
7
  6
CONTINUOUS
 10
156.5829044783
 20
404.4809090499
 11
156.8329035246
 21
403.4596325759
  0
LINE
  5
2E7
100
AcDbEntity
  8
0
100
AcDbLine
 62
7
  6
CONTINUOUS
 10
156.7507380606
 20
334.7692165244
 11
157.0499070097
 21
333.241557132
  0
LINE
  5
2E8
100
AcDbEntity
  8
0
100
AcDbLine
 62
7
  6
CONTINUOUS
 10
168.4182380606
 20
340.5743226433
 11
168.1190725352
 21
342.1019828916
  0
LINE
  5
2E9
100
AcDbEntity
  8
0
100
AcDbLine
 62
7
  6
CONTINUOUS
 10
158.3329035246
 20
403.4596325759
 11
158.0829044783
 21
404.7362288837
  0
LINE
  5
2EA
100
AcDbEntity
  8
0
100
AcDbLine
 62
7
  6
CONTINUOUS
 10
163.9307380606
 20
337.8245357371
 11
163.9307380606
 21
335.9913444662
  0
LINE
  5
2EB
100
AcDbEntity
  8
0
100
AcDbLine
 62
7
  6
CONTINUOUS
 10
166.6232380606
 20
335.9913444662
 11
166.6232380606
 21
333.5470890105
  0
LINE
  5
2EC
100
AcDbEntity
  8
0
100
AcDbLine
 62
7
  6
CONTINUOUS
 10
168.4182380606
 20
333.241557132
 11
168.4182380606
 21
337.8245357371
  0
LINE
  5
2ED
100
AcDbEntity
  8
0
100
AcDbLine
 62
7
  6
CONTINUOUS
 10
169.3788028631
 20
386.5247391872
 11
169.3788028631
 21
407.7779812524
  0
LINE
  5
2EE
100
AcDbEntity
  8
0
100
AcDbLine
 62
7
  6
CONTINUOUS
 10
158.0829044783
 20
398.3532498483
 11
158.3329035246
 21
399.6298454408
  0
LINE
  5
2EF
100
AcDbEntity
  8
0
100
AcDbLine
 62
7
  6
CONTINUOUS
 10
157.0499070097
 20
340.8798553777
 11
156.7507380606
 21
339.3521951294
  0
LINE
  5
2F0
100
AcDbEntity
  8
0
100
AcDbLine
 62
7
  6
CONTINUOUS
 10
158.5457380606
 20
339.3521951294
 11
158.8449070097
 21
340.5743226433
  0
LINE
  5
2F1
100
AcDbEntity
  8
0
100
AcDbLine
 62
7
  6
CONTINUOUS
 10
138.8007397724
 20
339.9632588864
 11
138.5015725352
 21
339.0466632509
  0
LINE
  5
2F2
100
AcDbEntity
  8
0
100
AcDbLine
 62
7
  6
CONTINUOUS
 10
140.2965725352
 20
338.7411313725
 11
140.5957397724
 21
339.6577270079
  0
LINE
  5
2F3
100
AcDbEntity
  8
0
100
AcDbLine
 62
7
  6
CONTINUOUS
 10
152.5624070097
 20
339.9632588864
 11
152.2632380606
 21
339.0466632509
  0
LINE
  5
2F4
100
AcDbEntity
  8
0
100
AcDbLine
 62
7
  6
CONTINUOUS
 10
154.0582380606
 20
338.7411313725
 11
154.3574070097
 21
339.6577270079
  0
LINE
  5
2F5
100
AcDbEntity
  8
0
100
AcDbLine
 62
7
  6
CONTINUOUS
 10
157.5829035246
 20
397.3319731955
 11
158.0829044783
 21
398.3532498483
  0
LINE
  5
2F6
100
AcDbEntity
  8
0
100
AcDbLine
 62
7
  6
CONTINUOUS
 10
156.5829044783
 20
398.6085689668
 11
156.0829035246
 21
397.8426116113
  0
LINE
  5
2F7
100
AcDbEntity
  8
0
100
AcDbLine
 62
7
  6
CONTINUOUS
 10
144.5829044783
 20
396.3106966321
 11
145.5829049551
 21
397.3319731955
  0
LINE
  5
2F8
100
AcDbEntity
  8
0
100
AcDbLine
 62
7
  6
CONTINUOUS
 10
160.3407380606
 20
342.1019828916
 11
161.5374070097
 21
342.4075147701
  0
LINE
  5
2F9
100
AcDbEntity
  8
0
100
AcDbLine
 62
7
  6
CONTINUOUS
 10
161.5374070097
 20
344.2407060409
 11
160.0415725352
 21
343.9351741624
  0
LINE
  5
2FA
100
AcDbEntity
  8
KONSTRUKTIONSELEMENTE
100
AcDbLine
 62
7
  6
CONTINUOUS
 10
10.3429044783
 20
360.0247391872
 11
410.3429044783
 21
360.0247391872
  0
LINE
  5
2FB
100
AcDbEntity
  8
BEZUGSACHSEN
100
AcDbLine
 62
7
  6
CONTINUOUS
 10
319.3921511159
 20
363.0247391872
 11
308.8607445665
 21
363.0247391872
  0
LINE
  5
2FC
100
AcDbEntity
  8
BEZUGSACHSEN
100
AcDbLine
 62
7
  6
CONTINUOUS
 10
111.8250643901
 20
363.0247391872
 11
101.2936578407
 21
363.0247391872
  0
LINE
  5
2FD
100
AcDbEntity
  8
RUNDUNGEN
100
AcDbLine
 62
7
  6
CONTINUOUS
 10
111.8250641169
 20
363.0247391872
 11
308.8607448629
 21
363.0247391872
  0
LINE
  5
2FE
100
AcDbEntity
  8
0
100
AcDbLine
 62
7
  6
CONTINUOUS
 10
20.3429044783
 20
364.0247391872
 11
100.3059704471
 21
364.0247391872
  0
LINE
  5
2FF
100
AcDbEntity
  8
0
100
AcDbLine
 62
7
  6
CONTINUOUS
 10
320.3798385103
 20
364.0247391872
 11
400.3429044783
 21
364.0247391872
  0
LINE
  5
300
100
AcDbEntity
  8
0
100
AcDbLine
 62
7
  6
CONTINUOUS
 10
139.0829040014
 20
396.3106966321
 11
140.0829044783
 21
395.800058328
  0
LINE
  5
301
100
AcDbEntity
  8
0
100
AcDbLine
 62
7
  6
CONTINUOUS
 10
228.2515725352
 20
331.4083656472
 11
227.3540725352
 21
332.0194294042
  0
LINE
  5
302
100
AcDbEntity
  8
0
100
AcDbLine
 62
7
  6
CONTINUOUS
 10
140.3329049551
 20
397.3319731955
 11
139.5829049551
 21
397.8426116113
  0
LINE
  5
303
100
AcDbEntity
  8
0
100
AcDbLine
 62
7
  6
CONTINUOUS
 10
134.0829044783
 20
406.5234627132
 11
133.0829047167
 21
407.2894200687
  0
LINE
  5
304
100
AcDbEntity
  8
0
100
AcDbLine
 62
7
  6
CONTINUOUS
 10
157.5829035246
 20
405.7575053577
 11
156.5829044783
 21
406.7787818317
  0
LINE
  5
305
100
AcDbEntity
  8
0
100
AcDbLine
 62
7
  6
CONTINUOUS
 10
210.6007414843
 20
332.3249612826
 11
211.4982414843
 21
331.1028336618
  0
LINE
  5
306
100
AcDbEntity
  8
0
100
AcDbLine
 62
7
  6
CONTINUOUS
 10
195.642403586
 20
335.6858125878
 11
195.0440725352
 21
336.6024082232
  0
LINE
  5
307
100
AcDbEntity
  8
0
100
AcDbLine
 62
7
  6
CONTINUOUS
 10
193.5482414843
 20
341.7964510131
 11
194.1465725352
 21
340.8798553777
  0
LINE
  5
308
100
AcDbEntity
  8
0
100
AcDbLine
 62
7
  6
CONTINUOUS
 10
156.0829035246
 20
405.2468671207
 11
156.5829044783
 21
404.4809090499
  0
LINE
  5
309
100
AcDbEntity
  8
0
100
AcDbLine
 62
7
  6
CONTINUOUS
 10
158.0829044783
 20
404.7362288837
 11
157.5829035246
 21
405.7575053577
  0
LINE
  5
30A
100
AcDbEntity
  8
0
100
AcDbLine
 62
7
  6
CONTINUOUS
 10
193.847403586
 20
335.6858125878
 11
194.4457414843
 21
334.4636846459
  0
LINE
  5
30B
100
AcDbEntity
  8
0
100
AcDbLine
 62
7
  6
CONTINUOUS
 10
185.1715725352
 20
333.241557132
 11
185.4707414843
 21
332.3249612826
  0
LINE
  5
30C
100
AcDbEntity
  8
0
100
AcDbLine
 62
7
  6
CONTINUOUS
 10
189.9582414843
 20
337.8245357371
 11
189.9582414843
 21
336.6024082232
  0
LINE
  5
30D
100
AcDbEntity
  8
0
100
AcDbLine
 62
7
  6
CONTINUOUS
 10
191.1725028753
 20
390.0084457807
 11
191.1725028753
 21
388.0410325937
  0
LINE
  5
30E
100
AcDbEntity
  8
0
100
AcDbLine
 62
7
  6
CONTINUOUS
 10
194.1465725352
 20
340.8798553777
 11
194.1465725352
 21
340.2687907648
  0
LINE
  5
30F
100
AcDbEntity
  8
0
100
AcDbLine
 62
7
  6
CONTINUOUS
 10
194.4457414843
 20
334.4636846459
 11
194.4457414843
 21
333.241557132
  0
LINE
  5
310
100
AcDbEntity
  8
0
100
AcDbLine
 62
7
  6
CONTINUOUS
 10
168.1190725352
 20
332.0194294042
 11
168.4182380606
 21
333.241557132
  0
LINE
  5
311
100
AcDbEntity
  8
0
100
AcDbLine
 62
7
  6
CONTINUOUS
 10
152.5624070097
 20
333.5470890105
 11
152.2632380606
 21
332.6304933751
  0
LINE
  5
312
100
AcDbEntity
  8
0
100
AcDbLine
 62
7
  6
CONTINUOUS
 10
154.0582380606
 20
332.3249612826
 11
154.3574070097
 21
333.241557132
  0
LINE
  5
313
100
AcDbEntity
  8
0
100
AcDbLine
 62
7
  6
CONTINUOUS
 10
166.6232380606
 20
333.5470890105
 11
166.3240725352
 21
332.6304933751
  0
LINE
  5
314
100
AcDbEntity
  8
0
100
AcDbLine
 62
7
  6
CONTINUOUS
 10
157.6482380606
 20
342.1019828916
 11
157.0499070097
 21
340.8798553777
  0
LINE
  5
315
100
AcDbEntity
  8
0
100
AcDbLine
 62
7
  6
CONTINUOUS
 10
139.3990725352
 20
337.5190038586
 11
140.2965725352
 21
338.7411313725
  0
LINE
  5
316
100
AcDbEntity
  8
0
100
AcDbLine
 62
7
  6
CONTINUOUS
 10
156.5829044783
 20
396.3106966321
 11
157.5829035246
 21
397.3319731955
  0
LINE
  5
317
100
AcDbEntity
  8
0
100
AcDbLine
 62
7
  6
CONTINUOUS
 10
144.0829049551
 20
397.8426116113
 11
143.3329049551
 21
397.3319731955
  0
LINE
  5
318
100
AcDbEntity
  8
0
100
AcDbLine
 62
7
  6
CONTINUOUS
 10
156.0829035246
 20
397.8426116113
 11
155.3329035246
 21
397.3319731955
  0
LINE
  5
319
100
AcDbEntity
  8
0
100
AcDbLine
 62
7
  6
CONTINUOUS
 10
133.0829047167
 20
401.4170796279
 11
134.0829044783
 21
401.9277178649
  0
LINE
  5
31A
100
AcDbEntity
  8
0
100
AcDbLine
 62
7
  6
CONTINUOUS
 10
143.5829040014
 20
395.800058328
 11
144.5829044783
 21
396.3106966321
  0
LINE
  5
31B
100
AcDbEntity
  8
0
100
AcDbLine
 62
7
  6
CONTINUOUS
 10
155.582905432
 20
395.800058328
 11
156.5829044783
 21
396.3106966321
  0
LINE
  5
31C
100
AcDbEntity
  8
0
100
AcDbLine
 62
7
  6
CONTINUOUS
 10
132.8329042399
 20
402.6936752204
 11
132.0829042399
 21
402.4383561019
  0
LINE
  5
31D
100
AcDbEntity
  8
RUNDUNGEN
100
AcDbLine
 62
7
  6
CONTINUOUS
 10
174.1826504404
 20
377.0379062067
 11
246.5031585161
 21
377.0379062067
  0
LINE
  5
31E
100
AcDbEntity
  8
0
100
AcDbLine
 62
7
  6
CONTINUOUS
 10
202.9864878058
 20
382.0247391872
 11
205.6762372851
 21
382.0247391872
  0
LINE
  5
31F
100
AcDbEntity
  8
0
100
AcDbLine
 62
7
  6
CONTINUOUS
 10
211.0367254615
 20
382.0247391872
 11
212.5859448313
 21
382.0247391872
  0
LINE
  5
320
100
AcDbEntity
  8
0
100
AcDbLine
 62
7
  6
CONTINUOUS
 10
213.888049066
 20
384.8760630004
 11
211.0367254615
 21
384.8760630004
  0
LINE
  5
321
100
AcDbEntity
  8
0
100
AcDbLine
 62
7
  6
CONTINUOUS
 10
219.1629979014
 20
385.7124512605
 11
216.4067198634
 21
385.7124512605
  0
LINE
  5
322
100
AcDbEntity
  8
0
100
AcDbLine
 62
7
  6
CONTINUOUS
 10
190.4786810875
 20
386.2732117585
 11
187.7224012241
 21
386.2732117585
  0
LINE
  5
323
100
AcDbEntity
  8
0
100
AcDbLine
 62
7
  6
CONTINUOUS
 10
191.1725028753
 20
388.0410325937
 11
191.5811929703
 21
388.0410325937
  0
LINE
  5
324
100
AcDbEntity
  8
0
100
AcDbLine
 62
7
  6
CONTINUOUS
 10
216.8344165683
 20
388.0220234804
 11
219.2200252414
 21
387.9174750261
  0
LINE
  5
325
100
AcDbEntity
  8
0
100
AcDbLine
 62
7
  6
CONTINUOUS
 10
140.0829044783
 20
395.800058328
 11
141.3329040014
 21
395.5447391872
  0
LINE
  5
326
100
AcDbEntity
  8
0
100
AcDbLine
 62
7
  6
CONTINUOUS
 10
141.3329040014
 20
397.076654077
 11
140.3329049551
 21
397.3319731955
  0
LINE
  5
327
100
AcDbEntity
  8
0
100
AcDbLine
 62
7
  6
CONTINUOUS
 10
132.0829042399
 20
406.2681435947
 11
132.8329042399
 21
406.0128244762
  0
LINE
  5
328
100
AcDbEntity
  8
0
100
AcDbLine
 62
7
  6
CONTINUOUS
 10
156.5829044783
 20
406.7787818317
 11
155.582905432
 21
407.2894200687
  0
LINE
  5
329
100
AcDbEntity
  8
0
100
AcDbLine
 62
7
  6
CONTINUOUS
 10
155.3329035246
 20
405.7575053577
 11
156.0829035246
 21
405.2468671207
  0
LINE
  5
32A
100
AcDbEntity
  8
0
100
AcDbLine
 62
7
  6
CONTINUOUS
 10
220.1740725352
 20
336.6024082232
 11
219.2765725352
 21
337.8245357371
  0
LINE
  5
32B
100
AcDbEntity
  8
0
100
AcDbLine
 62
7
  6
CONTINUOUS
 10
218.3790725352
 20
336.6024082232
 11
218.977403586
 21
335.6858125878
  0
LINE
  5
32C
100
AcDbEntity
  8
0
100
AcDbLine
 62
7
  6
CONTINUOUS
 10
210.002403586
 20
333.5470890105
 11
210.6007414843
 21
332.3249612826
  0
LINE
  5
32D
100
AcDbEntity
  8
0
100
AcDbLine
 62
7
  6
CONTINUOUS
 10
212.3957414843
 20
332.3249612826
 11
211.797403586
 21
333.5470890105
  0
LINE
  5
32E
100
AcDbEntity
  8
0
100
AcDbLine
 62
7
  6
CONTINUOUS
 10
225.5590725352
 20
332.3249612826
 11
226.157403586
 21
331.1028336618
  0
LINE
  5
32F
100
AcDbEntity
  8
0
100
AcDbLine
 62
7
  6
CONTINUOUS
 10
220.772403586
 20
335.0747484029
 11
220.1740725352
 21
336.6024082232
  0
LINE
  5
330
100
AcDbEntity
  8
0
100
AcDbLine
 62
7
  6
CONTINUOUS
 10
195.9415725352
 20
334.4636846459
 11
195.642403586
 21
335.6858125878
  0
LINE
  5
331
100
AcDbEntity
  8
0
100
AcDbLine
 62
7
  6
CONTINUOUS
 10
195.642403586
 20
340.8798553777
 11
195.3432414843
 21
342.1019828916
  0
LINE
  5
332
100
AcDbEntity
  8
KONSTRUKTIONSELEMENTE
100
AcDbLine
 62
7
  6
CONTINUOUS
 10
195.3429044783
 20
232.0247391872
 11
195.3429044783
 21
275.0247391872
  0
LINE
  5
333
100
AcDbEntity
  8
0
100
AcDbLine
 62
7
  6
CONTINUOUS
 10
195.642403586
 20
340.2687907648
 11
195.642403586
 21
340.8798553777
  0
LINE
  5
334
100
AcDbEntity
  8
0
100
AcDbLine
 62
7
  6
CONTINUOUS
 10
195.9415725352
 20
333.241557132
 11
195.9415725352
 21
334.4636846459
  0
LINE
  5
335
100
AcDbEntity
  8
0
100
AcDbLine
 62
7
  6
CONTINUOUS
 10
198.334903586
 20
342.1019828916
 11
198.334903586
 21
339.6577270079
  0
LINE
  5
336
100
AcDbEntity
  8
0
100
AcDbLine
 62
7
  6
CONTINUOUS
 10
199.8500316739
 20
393.2209375314
 11
199.8500316739
 21
391.3580727987
  0
LINE
  5
337
100
AcDbEntity
  8
0
100
AcDbLine
 62
7
  6
CONTINUOUS
 10
200.129903586
 20
341.7964510131
 11
200.129903586
 21
329.8807060409
  0
LINE
  5
338
100
AcDbEntity
  8
0
100
AcDbLine
 62
7
  6
CONTINUOUS
 10
201.924903586
 20
329.8807060409
 11
201.924903586
 21
344.2407060409
  0
LINE
  5
339
100
AcDbEntity
  8
0
100
AcDbLine
 62
7
  6
CONTINUOUS
 10
202.9864878058
 20
391.3580727987
 11
202.9864878058
 21
382.0247391872
  0
LINE
  5
33A
100
AcDbEntity
  8
0
100
AcDbLine
 62
7
  6
CONTINUOUS
 10
205.6762372851
 20
382.0247391872
 11
205.6762372851
 21
395.5495188646
  0
LINE
  5
33B
100
AcDbEntity
  8
0
100
AcDbLine
 62
7
  6
CONTINUOUS
 10
210.002403586
 20
344.2407060409
 11
210.002403586
 21
336.2968763447
  0
LINE
  5
33C
100
AcDbEntity
  8
TEIL_STARTBEZUEGE
100
AcDbLine
 62
7
  6
CENTER
 10
210.3429044783
 20
226.0247391872
 11
210.3429044783
 21
362.0247391872
  0
LINE
  5
33D
100
AcDbEntity
  8
0
100
AcDbLine
 62
7
  6
CONTINUOUS
 10
211.0367254615
 20
384.8760630004
 11
211.0367254615
 21
382.0247391872
  0
LINE
  5
33E
100
AcDbEntity
  8
0
100
AcDbLine
 62
7
  6
CONTINUOUS
 10
211.0367254615
 20
379.8197154216
 11
211.0367254615
 21
378.7362124435
  0
LINE
  5
33F
100
AcDbEntity
  8
0
100
AcDbLine
 62
7
  6
CONTINUOUS
 10
211.4982414843
 20
337.8245357371
 11
211.4982414843
 21
342.7130466485
  0
LINE
  5
340
100
AcDbEntity
  8
0
100
AcDbLine
 62
7
  6
CONTINUOUS
 10
212.5859448313
 20
382.0247391872
 11
212.5859448313
 21
381.8156421091
  0
LINE
  5
341
100
AcDbEntity
  8
0
100
AcDbLine
 62
7
  6
CONTINUOUS
 10
185.769903586
 20
342.1019828916
 11
185.4707414843
 21
340.8798553777
  0
LINE
  5
342
100
AcDbEntity
  8
0
100
AcDbLine
 62
7
  6
CONTINUOUS
 10
195.3432414843
 20
339.0466632509
 11
195.642403586
 21
340.2687907648
  0
LINE
  5
343
100
AcDbEntity
  8
0
100
AcDbLine
 62
7
  6
CONTINUOUS
 10
158.8449070097
 20
340.5743226433
 11
159.4432380606
 21
341.4909191346
  0
LINE
  5
344
100
AcDbEntity
  8
0
100
AcDbLine
 62
7
  6
CONTINUOUS
 10
153.1607380606
 20
337.5190038586
 11
154.0582380606
 21
338.7411313725
  0
LINE
  5
345
100
AcDbEntity
  8
0
100
AcDbLine
 62
7
  6
CONTINUOUS
 10
153.1607380606
 20
331.1028336618
 11
154.0582380606
 21
332.3249612826
  0
LINE
  5
346
100
AcDbEntity
  8
0
100
AcDbLine
 62
7
  6
CONTINUOUS
 10
138.5015725352
 20
339.0466632509
 11
137.9032397724
 21
338.435599494
  0
LINE
  5
347
100
AcDbEntity
  8
0
100
AcDbLine
 62
7
  6
CONTINUOUS
 10
191.7617766261
 20
390.0084457807
 11
191.1725028753
 21
390.0084457807
  0
LINE
  5
348
100
AcDbEntity
  8
0
100
AcDbLine
 62
7
  6
CONTINUOUS
 10
227.1372024417
 20
390.2080389671
 11
228.5533596873
 21
390.2080389671
  0
LINE
  5
349
100
AcDbEntity
  8
0
100
AcDbLine
 62
7
  6
CONTINUOUS
 10
231.2716194987
 20
390.2080389671
 11
232.9634072184
 21
390.2080389671
  0
LINE
  5
34A
100
AcDbEntity
  8
0
100
AcDbLine
 62
7
  6
CONTINUOUS
 10
199.8500316739
 20
391.3580727987
 11
202.9864878058
 21
391.3580727987
  0
LINE
  5
34B
100
AcDbEntity
  8
0
100
AcDbLine
 62
7
  6
CONTINUOUS
 10
187.9124894887
 20
391.4246030263
 11
190.4121500253
 21
391.4246030263
  0
LINE
  5
34C
100
AcDbEntity
  8
0
100
AcDbLine
 62
7
  6
CONTINUOUS
 10
232.9634072184
 20
392.2419832162
 11
231.2716194987
 21
392.2419832162
  0
LINE
  5
34D
100
AcDbEntity
  8
0
100
AcDbLine
 62
7
  6
CONTINUOUS
 10
228.5533596873
 20
392.2419832162
 11
227.1372024417
 21
392.2419832162
  0
LINE
  5
34E
100
AcDbEntity
  8
0
100
AcDbLine
 62
7
  6
CONTINUOUS
 10
219.6477252841
 20
393.1734155826
 11
225.3218571543
 21
393.1734155826
  0
LINE
  5
34F
100
AcDbEntity
  8
0
100
AcDbLine
 62
7
  6
CONTINUOUS
 10
231.2716194987
 20
394.9887583665
 11
228.5533596873
 21
394.9887583665
  0
LINE
  5
350
100
AcDbEntity
  8
0
100
AcDbLine
 62
7
  6
CONTINUOUS
 10
125.8329044783
 20
395.5447391872
 11
127.3329044783
 21
395.5447391872
  0
LINE
  5
351
100
AcDbEntity
  8
0
100
AcDbLine
 62
7
  6
CONTINUOUS
 10
133.5829042399
 20
395.5447391872
 11
135.3329047167
 21
395.5447391872
  0
LINE
  5
352
100
AcDbEntity
  8
0
100
AcDbLine
 62
7
  6
CONTINUOUS
 10
141.3329040014
 20
395.5447391872
 11
142.3329044783
 21
395.5447391872
  0
LINE
  5
353
100
AcDbEntity
  8
0
100
AcDbLine
 62
7
  6
CONTINUOUS
 10
148.3329044783
 20
395.5447391872
 11
154.3329044783
 21
395.5447391872
  0
LINE
  5
354
100
AcDbEntity
  8
0
100
AcDbLine
 62
7
  6
CONTINUOUS
 10
225.3218571543
 20
395.5495188646
 11
217.8323799968
 21
395.5495188646
  0
LINE
  5
355
100
AcDbEntity
  8
0
100
AcDbLine
 62
7
  6
CONTINUOUS
 10
205.6762372851
 20
395.5495188646
 11
203.5757619738
 21
395.5495188646
  0
LINE
  5
356
100
AcDbEntity
  8
0
100
AcDbLine
 62
7
  6
CONTINUOUS
 10
154.3329044783
 20
397.076654077
 11
149.8329044783
 21
397.076654077
  0
LINE
  5
357
100
AcDbEntity
  8
0
100
AcDbLine
 62
7
  6
CONTINUOUS
 10
142.3329044783
 20
397.076654077
 11
141.3329040014
 21
397.076654077
  0
LINE
  5
358
100
AcDbEntity
  8
0
100
AcDbLine
 62
7
  6
CONTINUOUS
 10
127.3329044783
 20
400.9064413909
 11
131.5829043591
 21
400.9064413909
  0
LINE
  5
359
100
AcDbEntity
  8
0
100
AcDbLine
 62
7
  6
CONTINUOUS
 10
132.0829042399
 20
402.4383561019
 11
127.3329044783
 21
402.4383561019
  0
LINE
  5
35A
100
AcDbEntity
  8
0
100
AcDbLine
 62
7
  6
CONTINUOUS
 10
149.8329044783
 20
406.0128244762
 11
154.3329044783
 21
406.0128244762
  0
LINE
  5
35B
100
AcDbEntity
  8
0
100
AcDbLine
 62
7
  6
CONTINUOUS
 10
127.3329044783
 20
406.2681435947
 11
132.0829042399
 21
406.2681435947
  0
LINE
  5
35C
100
AcDbEntity
  8
0
100
AcDbLine
 62
7
  6
CONTINUOUS
 10
133.0829047167
 20
407.2894200687
 11
131.8329044783
 21
407.5447391872
  0
LINE
  5
35D
100
AcDbEntity
  8
0
100
AcDbLine
 62
7
  6
CONTINUOUS
 10
155.582905432
 20
407.2894200687
 11
154.3329044783
 21
407.5447391872
  0
LINE
  5
35E
100
AcDbEntity
  8
0
100
AcDbLine
 62
7
  6
CONTINUOUS
 10
154.3329044783
 20
406.0128244762
 11
155.3329035246
 21
405.7575053577
  0
LINE
  5
35F
100
AcDbEntity
  8
0
100
AcDbLine
 62
7
  6
CONTINUOUS
 10
218.977403586
 20
335.6858125878
 11
219.2765725352
 21
334.7692165244
  0
LINE
  5
360
100
AcDbEntity
  8
0
100
AcDbLine
 62
7
  6
CONTINUOUS
 10
227.3540725352
 20
332.0194294042
 11
227.054903586
 21
332.9360252536
  0
LINE
  5
361
100
AcDbEntity
  8
0
100
AcDbLine
 62
7
  6
CONTINUOUS
 10
213.888049066
 20
382.2718539312
 11
213.888049066
 21
384.8760630004
  0
LINE
  5
362
100
AcDbEntity
  8
0
100
AcDbLine
 62
7
  6
CONTINUOUS
 10
219.2765725352
 20
334.7692165244
 11
219.2765725352
 21
334.1581527674
  0
LINE
  5
363
100
AcDbEntity
  8
0
100
AcDbLine
 62
7
  6
CONTINUOUS
 10
220.1740725352
 20
342.7130466485
 11
220.1740725352
 21
344.2407060409
  0
LINE
  5
364
100
AcDbEntity
  8
0
100
AcDbLine
 62
7
  6
CONTINUOUS
 10
220.772403586
 20
333.852620889
 11
220.772403586
 21
335.0747484029
  0
LINE
  5
365
100
AcDbEntity
  8
0
100
AcDbLine
 62
7
  6
CONTINUOUS
 10
223.1657414843
 20
339.6577270079
 11
223.1657414843
 21
338.435599494
  0
LINE
  5
366
100
AcDbEntity
  8
0
100
AcDbLine
 62
7
  6
CONTINUOUS
 10
225.3218571543
 20
393.1734155826
 11
225.3218571543
 21
395.5495188646
  0
LINE
  5
367
100
AcDbEntity
  8
KONSTRUKTIONSELEMENTE
100
AcDbLine
 62
7
  6
CONTINUOUS
 10
225.3429044783
 20
232.0247391872
 11
225.3429044783
 21
275.0247391872
  0
LINE
  5
368
100
AcDbEntity
  8
0
100
AcDbLine
 62
7
  6
CONTINUOUS
 10
225.5590725352
 20
342.1019828916
 11
225.5590725352
 21
339.6577270079
  0
LINE
  5
369
100
AcDbEntity
  8
0
100
AcDbLine
 62
7
  6
CONTINUOUS
 10
225.5590725352
 20
338.435599494
 11
225.5590725352
 21
332.3249612826
  0
LINE
  5
36A
100
AcDbEntity
  8
0
100
AcDbLine
 62
7
  6
CONTINUOUS
 10
227.054903586
 20
332.9360252536
 11
227.054903586
 21
338.435599494
  0
LINE
  5
36B
100
AcDbEntity
  8
0
100
AcDbLine
 62
7
  6
CONTINUOUS
 10
227.054903586
 20
339.6577270079
 11
227.054903586
 21
342.1019828916
  0
LINE
  5
36C
100
AcDbEntity
  8
0
100
AcDbLine
 62
7
  6
CONTINUOUS
 10
227.1372024417
 20
392.2419832162
 11
227.1372024417
 21
390.2080389671
  0
LINE
  5
36D
100
AcDbEntity
  8
0
100
AcDbLine
 62
7
  6
CONTINUOUS
 10
228.5533596873
 20
394.9887583665
 11
228.5533596873
 21
392.2419832162
  0
LINE
  5
36E
100
AcDbEntity
  8
0
100
AcDbLine
 62
7
  6
CONTINUOUS
 10
228.5533596873
 20
390.2080389671
 11
228.5533596873
 21
384.9901160113
  0
LINE
  5
36F
100
AcDbEntity
  8
0
100
AcDbLine
 62
7
  6
CONTINUOUS
 10
229.747403586
 20
329.8807060409
 11
229.747403586
 21
331.1028336618
  0
LINE
  5
370
100
AcDbEntity
  8
0
100
AcDbLine
 62
7
  6
CONTINUOUS
 10
230.3457346369
 20
338.435599494
 11
230.3457346369
 21
339.6577270079
  0
LINE
  5
371
100
AcDbEntity
  8
0
100
AcDbLine
 62
7
  6
CONTINUOUS
 10
217.8323799968
 20
395.5495188646
 11
216.8344165683
 21
388.0220234804
  0
LINE
  5
372
100
AcDbEntity
  8
0
100
AcDbLine
 62
7
  6
CONTINUOUS
 10
219.2675463557
 20
390.3030828647
 11
219.6477252841
 21
393.1734155826
  0
LINE
  5
373
100
AcDbEntity
  8
0
100
AcDbLine
 62
7
  6
CONTINUOUS
 10
195.642403586
 20
332.3249612826
 11
195.9415725352
 21
333.241557132
  0
LINE
  5
374
100
AcDbEntity
  8
0
100
AcDbLine
 62
7
  6
CONTINUOUS
 10
194.1465725352
 20
340.2687907648
 11
193.5482414843
 21
339.0466632509
  0
LINE
  5
375
100
AcDbEntity
  8
0
100
AcDbLine
 62
7
  6
CONTINUOUS
 10
194.4457414843
 20
333.241557132
 11
194.1465725352
 21
332.6304933751
  0
LINE
  5
376
100
AcDbEntity
  8
0
100
AcDbLine
 62
7
  6
CONTINUOUS
 10
186.9665725352
 20
340.8798553777
 11
187.564903586
 21
341.7964510131
  0
LINE
  5
377
100
AcDbEntity
  8
0
100
AcDbLine
 62
7
  6
CONTINUOUS
 10
152.2632380606
 20
339.0466632509
 11
151.6649070097
 21
338.435599494
  0
LINE
  5
378
100
AcDbEntity
  8
0
100
AcDbLine
 62
7
  6
CONTINUOUS
 10
158.8449070097
 20
343.3241104055
 11
157.6482380606
 21
342.1019828916
  0
LINE
  5
379
100
AcDbEntity
  8
0
100
AcDbLine
 62
7
  6
CONTINUOUS
 10
152.2632380606
 20
332.6304933751
 11
151.6649070097
 21
332.0194294042
  0
LINE
  5
37A
100
AcDbEntity
  8
0
100
AcDbLine
 62
7
  6
CONTINUOUS
 10
155.3329035246
 20
397.3319731955
 11
154.3329044783
 21
397.076654077
  0
LINE
  5
37B
100
AcDbEntity
  8
0
100
AcDbLine
 62
7
  6
CONTINUOUS
 10
143.3329049551
 20
397.3319731955
 11
142.3329044783
 21
397.076654077
  0
LINE
  5
37C
100
AcDbEntity
  8
0
100
AcDbLine
 62
7
  6
CONTINUOUS
 10
154.3329044783
 20
395.5447391872
 11
155.582905432
 21
395.800058328
  0
LINE
  5
37D
100
AcDbEntity
  8
0
100
AcDbLine
 62
7
  6
CONTINUOUS
 10
142.3329044783
 20
395.5447391872
 11
143.5829040014
 21
395.800058328
  0
LINE
  5
37E
100
AcDbEntity
  8
0
100
AcDbLine
 62
7
  6
CONTINUOUS
 10
154.3329044783
 20
407.5447391872
 11
148.3329044783
 21
407.5447391872
  0
LINE
  5
37F
100
AcDbEntity
  8
0
100
AcDbLine
 62
7
  6
CONTINUOUS
 10
146.3329049551
 20
407.5447391872
 11
144.8329049551
 21
407.5447391872
  0
LINE
  5
380
100
AcDbEntity
  8
0
100
AcDbLine
 62
7
  6
CONTINUOUS
 10
138.8329049551
 20
407.5447391872
 11
137.3329042399
 21
407.5447391872
  0
LINE
  5
381
100
AcDbEntity
  8
0
100
AcDbLine
 62
7
  6
CONTINUOUS
 10
131.8329044783
 20
407.5447391872
 11
125.8329044783
 21
407.5447391872
  0
LINE
  5
382
100
AcDbEntity
  8
BEZUGSACHSEN
100
AcDbLine
 62
7
  6
CONTINUOUS
 10
320.3429044783
 20
409.0247391872
 11
316.1692959954
 21
409.0247391872
  0
LINE
  5
383
100
AcDbEntity
  8
BEZUGSACHSEN
100
AcDbLine
 62
7
  6
CONTINUOUS
 10
104.5165129611
 20
409.0247391872
 11
100.3429044783
 21
409.0247391872
  0
LINE
  5
384
100
AcDbEntity
  8
0
100
AcDbLine
 62
7
  6
CONTINUOUS
 10
231.2716194987
 20
385.0091247074
 11
231.2716194987
 21
390.2080389671
  0
LINE
  5
385
100
AcDbEntity
  8
0
100
AcDbLine
 62
7
  6
CONTINUOUS
 10
231.2716194987
 20
392.2419832162
 11
231.2716194987
 21
394.9887583665
  0
LINE
  5
386
100
AcDbEntity
  8
0
100
AcDbLine
 62
7
  6
CONTINUOUS
 10
232.9634072184
 20
381.8156421091
 11
232.9634072184
 21
383.8590908758
  0
LINE
  5
387
100
AcDbEntity
  8
0
100
AcDbLine
 62
7
  6
CONTINUOUS
 10
232.9634072184
 20
390.2080389671
 11
232.9634072184
 21
392.2419832162
  0
LINE
  5
388
100
AcDbEntity
  8
0
100
AcDbLine
 62
7
  6
CONTINUOUS
 10
219.2765725352
 20
334.1581527674
 11
218.977403586
 21
333.241557132
  0
LINE
  5
389
100
AcDbEntity
  8
0
100
AcDbLine
 62
7
  6
CONTINUOUS
 10
220.1740725352
 20
332.3249612826
 11
220.772403586
 21
333.852620889
  0
LINE
  5
38A
100
AcDbEntity
  8
0
100
AcDbLine
 62
7
  6
CONTINUOUS
 10
206.1132414843
 20
331.4083656472
 11
204.3182414843
 21
328.0475145561
  0
LINE
  5
38B
100
AcDbEntity
  8
0
100
AcDbLine
 62
7
  6
CONTINUOUS
 10
205.8140725352
 20
328.0475145561
 11
207.6090725352
 21
331.4083656472
  0
LINE
  5
38C
100
AcDbEntity
  8
0
100
AcDbLine
 62
7
  6
CONTINUOUS
 10
194.744903586
 20
338.1300676155
 11
195.3432414843
 21
339.0466632509
  0
LINE
  5
38D
100
AcDbEntity
  8
0
100
AcDbLine
 62
7
  6
CONTINUOUS
 10
195.0440725352
 20
331.4083656472
 11
195.642403586
 21
332.3249612826
  0
LINE
  5
38E
100
AcDbEntity
  8
0
100
AcDbLine
 62
7
  6
CONTINUOUS
 10
200.129903586
 20
344.2407060409
 11
198.334903586
 21
342.1019828916
  0
LINE
  5
38F
100
AcDbEntity
  8
0
100
AcDbLine
 62
7
  6
CONTINUOUS
 10
198.334903586
 20
339.6577270079
 11
200.129903586
 21
341.7964510131
  0
LINE
  5
390
100
AcDbEntity
  8
0
100
AcDbLine
 62
7
  6
CONTINUOUS
 10
166.9224070097
 20
330.7973017833
 11
168.1190725352
 21
332.0194294042
  0
LINE
  5
391
100
AcDbEntity
  8
0
100
AcDbLine
 62
7
  6
CONTINUOUS
 10
186.9665725352
 20
343.3241104055
 11
185.769903586
 21
342.1019828916
  0
LINE
  5
392
100
AcDbEntity
  8
0
100
AcDbLine
 62
7
  6
CONTINUOUS
 10
193.5482414843
 20
339.0466632509
 11
192.949903586
 21
338.435599494
  0
LINE
  5
393
100
AcDbEntity
  8
0
100
AcDbLine
 62
7
  6
CONTINUOUS
 10
151.9640725352
 20
330.1862379461
 11
153.1607380606
 21
331.1028336618
  0
LINE
  5
394
100
AcDbEntity
  8
0
100
AcDbLine
 62
7
  6
CONTINUOUS
 10
159.4432380606
 20
341.4909191346
 11
160.3407380606
 21
342.1019828916
  0
LINE
  5
395
100
AcDbEntity
  8
0
100
AcDbLine
 62
7
  6
CONTINUOUS
 10
166.3240725352
 20
332.6304933751
 11
165.4265725352
 21
332.0194294042
  0
LINE
  5
396
100
AcDbEntity
  8
0
100
AcDbLine
 62
7
  6
CONTINUOUS
 10
138.2024052979
 20
336.9079401017
 11
139.3990725352
 21
337.5190038586
  0
LINE
  5
397
100
AcDbEntity
  8
0
100
AcDbLine
 62
7
  6
CONTINUOUS
 10
160.0415725352
 20
343.9351741624
 11
158.8449070097
 21
343.3241104055
  0
LINE
  5
398
100
AcDbEntity
  8
0
100
AcDbLine
 62
7
  6
CONTINUOUS
 10
152.5624070097
 20
337.2134719801
 11
153.1607380606
 21
337.5190038586
  0
LINE
  5
399
100
AcDbEntity
  8
0
100
AcDbLine
 62
7
  6
CONTINUOUS
 10
251.3070060934
 20
386.5247391872
 11
251.3070060934
 21
407.7779812524
  0
LINE
  5
39A
100
AcDbEntity
  8
0
100
AcDbLine
 62
7
  6
CONTINUOUS
 10
218.977403586
 20
333.241557132
 11
218.3790725352
 21
332.3249612826
  0
LINE
  5
39B
100
AcDbEntity
  8
0
100
AcDbLine
 62
7
  6
CONTINUOUS
 10
219.2765725352
 20
331.1028336618
 11
220.1740725352
 21
332.3249612826
  0
LINE
  5
39C
100
AcDbEntity
  8
0
100
AcDbLine
 62
7
  6
CONTINUOUS
 10
194.1465725352
 20
332.6304933751
 11
193.5482414843
 21
332.0194294042
  0
LINE
  5
39D
100
AcDbEntity
  8
0
100
AcDbLine
 62
7
  6
CONTINUOUS
 10
193.5482414843
 20
337.2134719801
 11
194.744903586
 21
338.1300676155
  0
LINE
  5
39E
100
AcDbEntity
  8
0
100
AcDbLine
 62
7
  6
CONTINUOUS
 10
212.0965725352
 20
336.2968763447
 11
213.2932414843
 21
337.2134719801
  0
LINE
  5
39F
100
AcDbEntity
  8
0
100
AcDbLine
 62
7
  6
CONTINUOUS
 10
187.564903586
 20
341.7964510131
 11
188.462403586
 21
342.4075147701
  0
LINE
  5
3A0
100
AcDbEntity
  8
0
100
AcDbLine
 62
7
  6
CONTINUOUS
 10
194.1465725352
 20
330.7973017833
 11
195.0440725352
 21
331.4083656472
  0
LINE
  5
3A1
100
AcDbEntity
  8
0
100
AcDbLine
 62
7
  6
CONTINUOUS
 10
188.1632414843
 20
343.9351741624
 11
186.9665725352
 21
343.3241104055
  0
LINE
  5
3A2
100
AcDbEntity
  8
0
100
AcDbLine
 62
7
  6
CONTINUOUS
 10
165.7257380606
 20
330.1862379461
 11
166.9224070097
 21
330.7973017833
  0
LINE
  5
3A3
100
AcDbEntity
  8
0
100
AcDbLine
 62
7
  6
CONTINUOUS
 10
137.9032397724
 20
338.435599494
 11
137.0057397724
 21
338.1300676155
  0
LINE
  5
3A4
100
AcDbEntity
  8
0
100
AcDbLine
 62
7
  6
CONTINUOUS
 10
151.6649070097
 20
338.435599494
 11
150.7674070097
 21
338.1300676155
  0
LINE
  5
3A5
100
AcDbEntity
  8
0
100
AcDbLine
 62
7
  6
CONTINUOUS
 10
151.6649070097
 20
332.0194294042
 11
150.7674070097
 21
331.7138975257
  0
LINE
  5
3A6
100
AcDbEntity
  8
RUNDUNGEN
100
AcDbLine
 62
7
  6
CONTINUOUS
 10
41.4091989842
 20
428.6905572262
 11
91.091428758
 21
436.559449383
  0
LINE
  5
3A7
100
AcDbEntity
  8
RUNDUNGEN
100
AcDbLine
 62
7
  6
CONTINUOUS
 10
329.5943801986
 20
436.559449383
 11
379.2766099724
 21
428.6905572262
  0
LINE
  5
3A8
100
AcDbEntity
  8
KONSTRUKTIONSELEMENTE
100
AcDbLine
 62
7
  6
CONTINUOUS
 10
270.3429044783
 20
232.0247391872
 11
270.3429044783
 21
275.0247391872
  0
LINE
  5
3A9
100
AcDbEntity
  8
0
100
AcDbLine
 62
7
  6
CONTINUOUS
 10
218.3790725352
 20
332.3249612826
 11
217.4815725352
 21
331.7138975257
  0
LINE
  5
3AA
100
AcDbEntity
  8
0
100
AcDbLine
 62
7
  6
CONTINUOUS
 10
212.9940725352
 20
338.7411313725
 11
211.4982414843
 21
337.8245357371
  0
LINE
  5
3AB
100
AcDbEntity
  8
0
100
AcDbLine
 62
7
  6
CONTINUOUS
 10
217.7807414843
 20
330.1862379461
 11
219.2765725352
 21
331.1028336618
  0
LINE
  5
3AC
100
AcDbEntity
  8
0
100
AcDbLine
 62
7
  6
CONTINUOUS
 10
193.5482414843
 20
332.0194294042
 11
192.949903586
 21
331.7138975257
  0
LINE
  5
3AD
100
AcDbEntity
  8
0
100
AcDbLine
 62
7
  6
CONTINUOUS
 10
192.949903586
 20
330.1862379461
 11
194.1465725352
 21
330.7973017833
  0
LINE
  5
3AE
100
AcDbEntity
  8
0
100
AcDbLine
 62
7
  6
CONTINUOUS
 10
192.949903586
 20
338.435599494
 11
191.154903586
 21
337.8245357371
  0
LINE
  5
3AF
100
AcDbEntity
  8
TEIL_STARTBEZUEGE
100
AcDbLine
 62
7
  6
CENTER
 10
285.3429044783
 20
226.0247391872
 11
285.3429044783
 21
362.0247391872
  0
LINE
  5
3B0
100
AcDbEntity
  8
KONSTRUKTIONSELEMENTE
100
AcDbLine
 62
7
  6
CONTINUOUS
 10
300.3429044783
 20
232.0247391872
 11
300.3429044783
 21
275.0247391872
  0
LINE
  5
3B1
100
AcDbEntity
  8
KONSTRUKTIONSELEMENTE
100
AcDbLine
 62
7
  6
CONTINUOUS
 10
147.3429044783
 20
229.0247391872
 11
150.3429044783
 21
232.0247391872
  0
LINE
  5
3B2
100
AcDbEntity
  8
RUNDUNGEN
100
AcDbLine
 62
7
  6
CONTINUOUS
 10
311.1649961629
 20
414.2458679098
 11
317.1305296958
 21
471.0041281061
  0
LINE
  5
3B3
100
AcDbEntity
  8
0
100
AcDbLine
 62
7
  6
CONTINUOUS
 10
320.3798394565
 20
364.0247391872
 11
316.4290860941
 21
360.0247391872
  0
LINE
  5
3B4
100
AcDbEntity
  8
0
100
AcDbLine
 62
7
  6
CONTINUOUS
 10
400.3429044783
 20
364.0247391872
 11
404.3429044783
 21
360.0247391872
  0
LINE
  5
3B5
100
AcDbEntity
  8
RUNDUNGEN
100
AcDbLine
 62
7
  6
CONTINUOUS
 10
311.6518493999
 20
408.6473705818
 11
311.2075053462
 21
411.8090428079
  0
LINE
  5
3B6
100
AcDbEntity
  8
BEZUGSACHSEN
100
AcDbLine
 62
7
  6
CONTINUOUS
 10
311.6175580718
 20
408.8913660601
 11
311.2075342365
 21
411.8088372433
  0
LINE
  5
3B7
100
AcDbEntity
  8
RUNDUNGEN
100
AcDbLine
 62
7
  6
CONTINUOUS
 10
320.3429044783
 20
363.9873438098
 11
320.3429044783
 21
428.6579426583
  0
LINE
  5
3B8
100
AcDbEntity
  8
RUNDUNGEN
100
AcDbLine
 62
7
  6
CONTINUOUS
 10
316.565390793
 20
474.9018232712
 11
287.2714314075
 21
545.6236973152
  0
LINE
  5
3B9
100
AcDbEntity
  8
KONSTRUKTIONSELEMENTE
100
AcDbLine
 62
7
  6
CONTINUOUS
 10
222.3429044783
 20
229.0247391872
 11
225.3429044783
 21
232.0247391872
  0
LINE
  5
3BA
100
AcDbEntity
  8
RUNDUNGEN
100
AcDbLine
 62
7
  6
CONTINUOUS
 10
282.9418626063
 20
549.9532661164
 11
213.4043719372
 21
578.7566378449
  0
LINE
  5
3BB
100
AcDbEntity
  8
RUNDUNGEN
100
AcDbLine
 62
7
  6
CONTINUOUS
 10
400.3429044783
 20
384.0247391872
 11
400.3429044783
 21
378.2408690549
  0
LINE
  5
3BC
100
AcDbEntity
  8
0
100
AcDbLine
 62
7
  6
CONTINUOUS
 10
400.3429044783
 20
378.2408690549
 11
400.3429044783
 21
364.0247391872
  0
LINE
  5
3BD
100
AcDbEntity
  8
KONSTRUKTIONSELEMENTE
100
AcDbLine
 62
7
  6
CONTINUOUS
 10
297.3429044783
 20
229.0247391872
 11
300.3429044783
 21
232.0247391872
  0
LINE
  5
3BE
100
AcDbEntity
  8
RUNDUNGEN
100
AcDbLine
 62
7
  6
CONTINUOUS
 10
395.9016874835
 20
412.0654797151
 11
400.3429044783
 21
384.0247391872
  0
LINE
  5
3BF
100
AcDbEntity
  8
KONSTRUKTIONSELEMENTE
100
AcDbLine
 62
7
  6
CONTINUOUS
 10
410.3429044783
 20
275.0247391872
 11
410.3429044783
 21
360.0247391872
  0
LINE
  5
3C0
100
AcDbEntity
  8
KONSTRUKTIONSELEMENTE
100
AcDbLine
 62
7
  6
CONTINUOUS
 10
514.4499656024
 20
229.0247391872
 11
538.4499656024
 21
229.0247391872
  0
LINE
  5
3C1
100
AcDbEntity
  8
KONSTRUKTIONSELEMENTE
100
AcDbLine
 62
7
  6
CONTINUOUS
 10
634.4499656024
 20
229.0247391872
 11
658.4499656024
 21
229.0247391872
  0
LINE
  5
3C2
100
AcDbEntity
  8
KONSTRUKTIONSELEMENTE
100
AcDbLine
 62
7
  6
CONTINUOUS
 10
511.4499656024
 20
232.0247391872
 11
541.4499656024
 21
232.0247391872
  0
LINE
  5
3C3
100
AcDbEntity
  8
KONSTRUKTIONSELEMENTE
100
AcDbLine
 62
7
  6
CONTINUOUS
 10
631.4499656024
 20
232.0247391872
 11
661.4499656024
 21
232.0247391872
  0
LINE
  5
3C4
100
AcDbEntity
  8
KONSTRUKTIONSELEMENTE
100
AcDbLine
 62
7
  6
CONTINUOUS
 10
514.4499656024
 20
229.0247391872
 11
511.4499656024
 21
232.0247391872
  0
LINE
  5
3C5
100
AcDbEntity
  8
KONSTRUKTIONSELEMENTE
100
AcDbLine
 62
7
  6
CONTINUOUS
 10
496.4499656024
 20
275.0247391872
 11
676.4499656024
 21
275.0247391872
  0
LINE
  5
3C6
100
AcDbEntity
  8
KONSTRUKTIONSELEMENTE
100
AcDbLine
 62
7
  6
CONTINUOUS
 10
496.4499656024
 20
275.0247391872
 11
496.4499656024
 21
360.0247391872
  0
LINE
  5
3C7
100
AcDbEntity
  8
0
100
AcDbLine
 62
7
  6
CONTINUOUS
 10
506.4499656024
 20
379.4059370337
 11
506.4499656024
 21
364.0247391872
  0
LINE
  5
3C8
100
AcDbEntity
  8
KONSTRUKTIONSELEMENTE
100
AcDbLine
 62
7
  6
CONTINUOUS
 10
634.4499656024
 20
229.0247391872
 11
631.4499656024
 21
232.0247391872
  0
LINE
  5
3C9
100
AcDbEntity
  8
KONSTRUKTIONSELEMENTE
100
AcDbLine
 62
7
  6
CONTINUOUS
 10
511.4499656024
 20
275.0247391872
 11
511.4499656024
 21
232.0247391872
  0
LINE
  5
3CA
100
AcDbEntity
  8
TEIL_STARTBEZUEGE
100
AcDbLine
 62
7
  6
CENTER
 10
526.4499656024
 20
226.0247391872
 11
526.4499656024
 21
362.0247391872
  0
LINE
  5
3CB
100
AcDbEntity
  8
KONSTRUKTIONSELEMENTE
100
AcDbLine
 62
7
  6
CONTINUOUS
 10
541.4499656024
 20
275.0247391872
 11
541.4499656024
 21
232.0247391872
  0
LINE
  5
3CC
100
AcDbEntity
  8
KONSTRUKTIONSELEMENTE
100
AcDbLine
 62
7
  6
CONTINUOUS
 10
496.4499656024
 20
360.0247391872
 11
676.4499656024
 21
360.0247391872
  0
LINE
  5
3CD
100
AcDbEntity
  8
0
100
AcDbLine
 62
7
  6
CONTINUOUS
 10
506.4499656024
 20
364.0247391872
 11
556.4499656024
 21
364.0247391872
  0
LINE
  5
3CE
100
AcDbEntity
  8
0
100
AcDbLine
 62
7
  6
CONTINUOUS
 10
616.4499656024
 20
364.0247391872
 11
666.4499656024
 21
364.0247391872
  0
LINE
  5
3CF
100
AcDbEntity
  8
B-ACHSEN
100
AcDbLine
 62
7
  6
CONTINUOUS
 10
559.4499656024
 20
366.0247391872
 11
563.4499656024
 21
366.0247391872
  0
LINE
  5
3D0
100
AcDbEntity
  8
B-ACHSEN
100
AcDbLine
 62
7
  6
CONTINUOUS
 10
609.4499656024
 20
366.0247391872
 11
613.4499656024
 21
366.0247391872
  0
LINE
  5
3D1
100
AcDbEntity
  8
0
100
AcDbLine
 62
7
  6
CONTINUOUS
 10
556.4499656024
 20
364.0247391872
 11
556.4499656024
 21
360.0247391872
  0
LINE
  5
3D2
100
AcDbEntity
  8
0
100
AcDbLine
 62
7
  6
CONTINUOUS
 10
506.4499656024
 20
364.0247391872
 11
502.4499656024
 21
360.0247391872
  0
LINE
  5
3D3
100
AcDbEntity
  8
B-ACHSEN
100
AcDbLine
 62
7
  6
CONTINUOUS
 10
569.4499656024
 20
375.0247391872
 11
603.4499656024
 21
375.0247391872
  0
LINE
  5
3D4
100
AcDbEntity
  8
BEZUGSACHSEN
100
AcDbLine
 62
7
  6
CONTINUOUS
 10
565.4499656024
 20
571.3656015848
 11
565.4499656024
 21
433.7676707187
  0
LINE
  5
3D5
100
AcDbEntity
  8
BEZUGSACHSEN
100
AcDbLine
 62
8
  6
HIDDEN
 10
565.4499656024
 20
433.7676707187
 11
565.4499656024
 21
425.4428074362
  0
LINE
  5
3D6
100
AcDbEntity
  8
B-ACHSEN
100
AcDbLine
 62
7
  6
CONTINUOUS
 10
566.4499656024
 20
369.0247391872
 11
566.4499656024
 21
372.0247391872
  0
LINE
  5
3D7
100
AcDbEntity
  8
RUNDUNGEN
100
AcDbLine
 62
7
  6
CONTINUOUS
 10
510.4499656024
 20
386.3341402639
 11
531.8522778184
 21
398.6907709831
  0
LINE
  5
3D8
100
AcDbEntity
  8
B-ACHSEN
100
AcDbLine
 62
7
  6
CENTER
 10
586.4499656024
 20
384.0247391872
 11
557.166592226
 21
384.0247391872
  0
LINE
  5
3D9
100
AcDbEntity
  8
B-ACHSEN
100
AcDbLine
 62
7
  6
CENTER
 10
586.4499656024
 20
384.0247391872
 11
615.7333389787
 21
384.0247391872
  0
LINE
  5
3DA
100
AcDbEntity
  8
B-ACHSEN
100
AcDbLine
 62
7
  6
CENTER
 10
586.4499656024
 20
384.0247391872
 11
586.4499656024
 21
354.7413658108
  0
LINE
  5
3DB
100
AcDbEntity
  8
B-ACHSEN
100
AcDbLine
 62
7
  6
CENTER
 10
586.4499656024
 20
384.0247391872
 11
586.4499656024
 21
413.3081125635
  0
LINE
  5
3DC
100
AcDbEntity
  8
T_STARTBEZUEGE
100
AcDbLine
 62
7
  6
CENTER
 10
586.4499656024
 20
359.829371719
 11
586.4499656024
 21
582.3656015848
  0
LINE
  5
3DD
100
AcDbEntity
  8
BEZUGSACHSEN
100
AcDbLine
 62
8
  6
HIDDEN
 10
601.9499656024
 20
408.0247391872
 11
570.9499656024
 21
408.0247391872
  0
LINE
  5
3DE
100
AcDbEntity
  8
DEFAULT_2
100
AcDbLine
 62
8
  6
HIDDEN
 10
570.9499656024
 20
408.0247391872
 11
601.9499656024
 21
408.0247391872
  0
LINE
  5
3DF
100
AcDbEntity
  8
B-ACHSEN
100
AcDbLine
 62
7
  6
CONTINUOUS
 10
606.4499656024
 20
372.0247391872
 11
606.4499656024
 21
369.0247391872
  0
LINE
  5
3E0
100
AcDbEntity
  8
RUNDUNGEN
100
AcDbLine
 62
7
  6
CONTINUOUS
 10
607.4499656024
 20
571.3656015848
 11
607.4499656024
 21
433.7676707192
  0
LINE
  5
3E1
100
AcDbEntity
  8
RUNDUNGEN
100
AcDbLine
 62
8
  6
HIDDEN
 10
607.4499656024
 20
433.7676707192
 11
607.4499656024
 21
425.4428074362
  0
LINE
  5
3E2
100
AcDbEntity
  8
RUNDUNGEN
100
AcDbLine
 62
7
  6
CONTINUOUS
 10
641.0476533864
 20
398.6907709831
 11
662.4499656024
 21
386.3341402639
  0
LINE
  5
3E3
100
AcDbEntity
  8
0
100
AcDbLine
 62
7
  6
CONTINUOUS
 10
616.4499656024
 20
364.0247391872
 11
616.4499656024
 21
360.0247391872
  0
LWPOLYLINE
  5
3E4
100
AcDbEntity
  8
RUNDUNGEN
100
AcDbPolyline
 62
7
  6
CONTINUOUS
 90
3
 70
0
 10
574.7212202623
 20
436.6578331961
 10
574.4830787644
 20
436.6483603319
 10
574.0324506589
 20
436.5776230388
  0
LINE
  5
3E5
100
AcDbEntity
  8
RUNDUNGEN
100
AcDbLine
 62
7
  6
CONTINUOUS
 10
574.7057239827
 20
436.6579426583
 11
598.1949600742
 21
436.6579426583
  0
LWPOLYLINE
  5
3E6
100
AcDbEntity
  8
RUNDUNGEN
100
AcDbPolyline
 62
7
  6
CONTINUOUS
 90
3
 70
0
 10
598.8671668085
 20
436.5776966401
 10
598.4165022179
 20
436.648397842
 10
598.1785614557
 20
436.6578532346
  0
LINE
  5
3E7
100
AcDbEntity
  8
0
100
AcDbLine
 62
7
  6
CONTINUOUS
 10
666.4499656024
 20
364.0247391872
 11
670.4499656024
 21
360.0247391872
  0
LINE
  5
3E8
100
AcDbEntity
  8
KONSTRUKTIONSELEMENTE
100
AcDbLine
 62
7
  6
CONTINUOUS
 10
631.4499656024
 20
275.0247391872
 11
631.4499656024
 21
232.0247391872
  0
LINE
  5
3E9
100
AcDbEntity
  8
TEIL_STARTBEZUEGE
100
AcDbLine
 62
7
  6
CENTER
 10
646.4499656024
 20
226.0247391872
 11
646.4499656024
 21
362.0247391872
  0
LINE
  5
3EA
100
AcDbEntity
  8
KONSTRUKTIONSELEMENTE
100
AcDbLine
 62
7
  6
CONTINUOUS
 10
661.4499656024
 20
275.0247391872
 11
661.4499656024
 21
232.0247391872
  0
LINE
  5
3EB
100
AcDbEntity
  8
0
100
AcDbLine
 62
7
  6
CONTINUOUS
 10
666.4499656024
 20
379.4059370337
 11
666.4499656024
 21
364.0247391872
  0
LINE
  5
3EC
100
AcDbEntity
  8
B-ACHSEN
100
AcDbLine
 62
7
  6
CONTINUOUS
 10
666.4499656024
 20
379.4059370337
 11
666.4499656024
 21
364.0247391872
  0
LINE
  5
3ED
100
AcDbEntity
  8
KONSTRUKTIONSELEMENTE
100
AcDbLine
 62
7
  6
CONTINUOUS
 10
676.4499656024
 20
275.0247391872
 11
676.4499656024
 21
360.0247391872
  0
LINE
  5
3EE
100
AcDbEntity
  8
KONSTRUKTIONSELEMENTE
100
AcDbLine
 62
7
  6
CONTINUOUS
 10
541.4499656024
 20
232.0247391872
 11
538.4499656024
 21
229.0247391872
  0
LINE
  5
3EF
100
AcDbEntity
  8
BEZUGSACHSEN
100
AcDbLine
 62
8
  6
HIDDEN
 10
599.4499656024
 20
538.0247391872
 11
573.4499656024
 21
538.0247391872
  0
LINE
  5
3F0
100
AcDbEntity
  8
KONSTRUKTIONSELEMENTE
100
AcDbLine
 62
7
  6
CONTINUOUS
 10
661.4499656024
 20
232.0247391872
 11
658.4499656024
 21
229.0247391872
  0
LINE
  5
3F1
100
AcDbEntity
  8
BEZUGSACHSEN
100
AcDbLine
 62
7
  6
CONTINUOUS
 10
573.4499656024
 20
579.3656015848
 11
599.4499656024
 21
579.3656015848
  0
LINE
  5
3F2
100
AcDbEntity
  8
KONSTRUKTIONSELEMENTE
100
AcDbLine
 62
7
  6
CONTINUOUS
 10
10.3429044783
 20
195.03
 11
10.3429044783
 21
15.03
  0
LINE
  5
3F3
100
AcDbEntity
  8
0
100
AcDbLine
 62
7
  6
CONTINUOUS
 10
16.3429044783
 20
75.03
 11
16.3429044783
 21
55.3731457505
  0
LINE
  5
3F4
100
AcDbEntity
  8
0
100
AcDbLine
 62
7
  6
CONTINUOUS
 10
16.3429044783
 20
135.03
 11
16.3429044783
 21
154.6868542495
  0
LINE
  5
3F5
100
AcDbEntity
  8
RUNDUNGEN
100
AcDbLine
 62
7
  6
CONTINUOUS
 10
20.3429044783
 20
57.03
 11
20.3429044783
 21
153.03
  0
LINE
  5
3F6
100
AcDbEntity
  8
0
100
AcDbLine
 62
7
  6
CONTINUOUS
 10
16.3429044783
 20
154.6868542495
 11
45.1210790713
 21
183.4650288425
  0
LINE
  5
3F7
100
AcDbEntity
  8
RUNDUNGEN
100
AcDbLine
 62
7
  6
CONTINUOUS
 10
47.9495061961
 20
180.6366017178
 11
20.3429044783
 21
153.03
  0
LINE
  5
3F8
100
AcDbEntity
  8
0
100
AcDbLine
 62
7
  6
CONTINUOUS
 10
16.3429044783
 20
55.3731457505
 11
45.1210790713
 21
26.5949711575
  0
LINE
  5
3F9
100
AcDbEntity
  8
RUNDUNGEN
100
AcDbLine
 62
7
  6
CONTINUOUS
 10
20.3429044783
 20
57.03
 11
47.9495061961
 21
29.4233982822
  0
LINE
  5
3FA
100
AcDbEntity
  8
RUNDUNGEN
100
AcDbLine
 62
7
  6
CONTINUOUS
 10
100.3429044783
 20
150.7938948795
 11
100.3429044783
 21
59.2662189455
  0
LINE
  5
3FB
100
AcDbEntity
  8
BEZUGSACHSEN
100
AcDbLine
 62
7
  6
CONTINUOUS
 10
103.5114544237
 20
118.03
 11
103.5114544237
 21
92.03
  0
LINE
  5
3FC
100
AcDbEntity
  8
RUNDUNGEN
100
AcDbLine
 62
7
  6
CONTINUOUS
 10
96.9619483342
 20
37.6834830244
 11
100.3059869354
 21
58.7969118075
  0
LINE
  5
3FD
100
AcDbEntity
  8
KONSTRUKTIONSELEMENTE
100
AcDbLine
 62
7
  6
CONTINUOUS
 10
128.9920515172
 20
176.03
 11
122.6411985561
 21
165.03
  0
LINE
  5
3FE
100
AcDbEntity
  8
KONSTRUKTIONSELEMENTE
100
AcDbLine
 62
7
  6
CONTINUOUS
 10
122.6411985561
 20
45.03
 11
128.9920515172
 21
34.03
  0
LINE
  5
3FF
100
AcDbEntity
  8
0
100
AcDbLine
 62
7
  6
CONTINUOUS
 10
100.3059704463
 20
151.2631923007
 11
100.3059869195
 21
151.2630882925
  0
LINE
  5
400
100
AcDbEntity
  8
RUNDUNGEN
100
AcDbLine
 62
7
  6
CONTINUOUS
 10
100.3059869195
 20
151.2630882925
 11
96.9619483342
 21
172.3765169756
  0
LINE
  5
401
100
AcDbEntity
  8
0
100
AcDbLine
 62
7
  6
CONTINUOUS
 10
100.9127016966
 20
37.0577451642
 11
104.2567228625
 21
58.1710638652
  0
LINE
  5
402
100
AcDbEntity
  8
KONSTRUKTIONSELEMENTE
100
AcDbLine
 62
7
  6
CONTINUOUS
 10
10.3429044783
 20
15.03
 11
410.3429044783
 21
15.03
  0
LINE
  5
403
100
AcDbEntity
  8
0
100
AcDbLine
 62
7
  6
CONTINUOUS
 10
100.9127016966
 20
173.0022548358
 11
104.2567228625
 21
151.8889361348
  0
LINE
  5
404
100
AcDbEntity
  8
0
100
AcDbLine
 62
7
  6
CONTINUOUS
 10
125.8329044783
 20
81.53
 11
125.8329044783
 21
81.03
  0
LINE
  5
405
100
AcDbEntity
  8
0
100
AcDbLine
 62
7
  6
CONTINUOUS
 10
131.8329044783
 20
81.53
 11
131.8329044783
 21
81.03
  0
LINE
  5
406
100
AcDbEntity
  8
0
100
AcDbLine
 62
7
  6
CONTINUOUS
 10
133.0829047167
 20
81.53
 11
133.0829047167
 21
81.03
  0
LINE
  5
407
100
AcDbEntity
  8
0
100
AcDbLine
 62
7
  6
CONTINUOUS
 10
133.6929044783
 20
128.53
 11
133.6929044783
 21
129.03
  0
LINE
  5
408
100
AcDbEntity
  8
0
100
AcDbLine
 62
7
  6
CONTINUOUS
 10
134.0829044783
 20
81.53
 11
134.0829044783
 21
81.03
  0
LINE
  5
409
100
AcDbEntity
  8
0
100
AcDbLine
 62
7
  6
CONTINUOUS
 10
134.8329044783
 20
81.53
 11
134.8329044783
 21
81.03
  0
LINE
  5
40A
100
AcDbEntity
  8
0
100
AcDbLine
 62
7
  6
CONTINUOUS
 10
135.0829042399
 20
81.53
 11
135.0829042399
 21
81.03
  0
LINE
  5
40B
100
AcDbEntity
  8
0
100
AcDbLine
 62
7
  6
CONTINUOUS
 10
135.3329047167
 20
81.53
 11
135.3329047167
 21
81.03
  0
LINE
  5
40C
100
AcDbEntity
  8
BEZUGSACHSEN
100
AcDbLine
 62
7
  6
CENTER
 10
135.3429044783
 20
165.03
 11
135.3429044783
 21
156.03
  0
LINE
  5
40D
100
AcDbEntity
  8
BEZUGSACHSEN
100
AcDbLine
 62
7
  6
CENTER
 10
135.3429044783
 20
45.03
 11
135.3429044783
 21
36.03
  0
LINE
  5
40E
100
AcDbEntity
  8
BEZUGSACHSEN
100
AcDbLine
 62
7
  6
CENTER
 10
135.3429044783
 20
45.03
 11
135.3429044783
 21
54.03
  0
LINE
  5
40F
100
AcDbEntity
  8
BEZUGSACHSEN
100
AcDbLine
 62
7
  6
CENTER
 10
135.3429044783
 20
165.03
 11
135.3429044783
 21
174.03
  0
LINE
  5
410
100
AcDbEntity
  8
0
100
AcDbLine
 62
7
  6
CONTINUOUS
 10
137.3329042399
 20
81.53
 11
137.3329042399
 21
81.03
  0
LINE
  5
411
100
AcDbEntity
  8
0
100
AcDbLine
 62
7
  6
CONTINUOUS
 10
138.8329049551
 20
81.53
 11
138.8329049551
 21
81.03
  0
LINE
  5
412
100
AcDbEntity
  8
0
100
AcDbLine
 62
7
  6
CONTINUOUS
 10
139.0829040014
 20
81.53
 11
139.0829040014
 21
81.03
  0
LINE
  5
413
100
AcDbEntity
  8
KONSTRUKTIONSELEMENTE
100
AcDbLine
 62
7
  6
CONTINUOUS
 10
141.6937574394
 20
154.03
 11
148.0446104005
 21
165.03
  0
LINE
  5
414
100
AcDbEntity
  8
0
100
AcDbLine
 62
7
  6
CONTINUOUS
 10
362.1297010427
 20
21.03
 11
338.5391857313
 21
21.03
  0
LINE
  5
415
100
AcDbEntity
  8
0
100
AcDbLine
 62
7
  6
CONTINUOUS
 10
58.5561079139
 20
21.03
 11
82.1466232253
 21
21.03
  0
LINE
  5
416
100
AcDbEntity
  8
RUNDUNGEN
100
AcDbLine
 62
7
  6
CONTINUOUS
 10
58.5561079139
 20
25.03
 11
82.1466232253
 21
25.03
  0
LINE
  5
417
100
AcDbEntity
  8
RUNDUNGEN
100
AcDbLine
 62
7
  6
CONTINUOUS
 10
338.5391857313
 20
25.03
 11
362.1297010427
 21
25.03
  0
LINE
  5
418
100
AcDbEntity
  8
KONSTRUKTIONSELEMENTE
100
AcDbLine
 62
7
  6
CONTINUOUS
 10
148.0446104005
 20
45.03
 11
141.6937574394
 21
56.03
  0
LINE
  5
419
100
AcDbEntity
  8
0
100
AcDbLine
 62
7
  6
CONTINUOUS
 10
139.5829049551
 20
81.53
 11
139.5829049551
 21
81.03
  0
LINE
  5
41A
100
AcDbEntity
  8
0
100
AcDbLine
 62
7
  6
CONTINUOUS
 10
139.9329044783
 20
128.53
 11
139.9329044783
 21
129.03
  0
LINE
  5
41B
100
AcDbEntity
  8
0
100
AcDbLine
 62
7
  6
CONTINUOUS
 10
140.3329049551
 20
81.53
 11
140.3329049551
 21
81.03
  0
LINE
  5
41C
100
AcDbEntity
  8
0
100
AcDbLine
 62
7
  6
CONTINUOUS
 10
141.3329040014
 20
81.53
 11
141.3329040014
 21
81.03
  0
LINE
  5
41D
100
AcDbEntity
  8
0
100
AcDbLine
 62
7
  6
CONTINUOUS
 10
142.3329044783
 20
81.53
 11
142.3329044783
 21
81.03
  0
LINE
  5
41E
100
AcDbEntity
  8
0
100
AcDbLine
 62
7
  6
CONTINUOUS
 10
143.3329049551
 20
81.53
 11
143.3329049551
 21
81.03
  0
LINE
  5
41F
100
AcDbEntity
  8
0
100
AcDbLine
 62
7
  6
CONTINUOUS
 10
143.3429044783
 20
128.53
 11
143.3429044783
 21
129.03
  0
LINE
  5
420
100
AcDbEntity
  8
0
100
AcDbLine
 62
7
  6
CONTINUOUS
 10
144.0829049551
 20
81.53
 11
144.0829049551
 21
81.03
  0
LINE
  5
421
100
AcDbEntity
  8
0
100
AcDbLine
 62
7
  6
CONTINUOUS
 10
144.5829044783
 20
81.53
 11
144.5829044783
 21
81.03
  0
LINE
  5
422
100
AcDbEntity
  8
0
100
AcDbLine
 62
7
  6
CONTINUOUS
 10
144.8329049551
 20
81.53
 11
144.8329049551
 21
81.03
  0
LINE
  5
423
100
AcDbEntity
  8
0
100
AcDbLine
 62
7
  6
CONTINUOUS
 10
146.3329049551
 20
81.53
 11
146.3329049551
 21
81.03
  0
LINE
  5
424
100
AcDbEntity
  8
0
100
AcDbLine
 62
7
  6
CONTINUOUS
 10
148.3329044783
 20
81.53
 11
148.3329044783
 21
81.03
  0
LINE
  5
425
100
AcDbEntity
  8
0
100
AcDbLine
 62
7
  6
CONTINUOUS
 10
149.5829044783
 20
128.53
 11
149.5829044783
 21
129.03
  0
LINE
  5
426
100
AcDbEntity
  8
0
100
AcDbLine
 62
7
  6
CONTINUOUS
 10
320.3798394565
 20
58.7968017254
 11
316.4290860941
 21
58.1710638652
  0
LINE
  5
427
100
AcDbEntity
  8
KONSTRUKTIONSELEMENTE
100
AcDbLine
 62
7
  6
CONTINUOUS
 10
128.9920515172
 20
34.03
 11
141.6937574394
 21
34.03
  0
LINE
  5
428
100
AcDbEntity
  8
KONSTRUKTIONSELEMENTE
100
AcDbLine
 62
7
  6
CONTINUOUS
 10
203.9920515172
 20
34.03
 11
216.6937574394
 21
34.03
  0
LINE
  5
429
100
AcDbEntity
  8
KONSTRUKTIONSELEMENTE
100
AcDbLine
 62
7
  6
CONTINUOUS
 10
278.9920515172
 20
34.03
 11
291.6937574394
 21
34.03
  0
LINE
  5
42A
100
AcDbEntity
  8
BEZUGSACHSEN
100
AcDbLine
 62
7
  6
CENTER
 10
285.3429044783
 20
45.03
 11
276.3429044783
 21
45.03
  0
LINE
  5
42B
100
AcDbEntity
  8
BEZUGSACHSEN
100
AcDbLine
 62
7
  6
CENTER
 10
210.3429044783
 20
45.03
 11
201.3429044783
 21
45.03
  0
LINE
  5
42C
100
AcDbEntity
  8
BEZUGSACHSEN
100
AcDbLine
 62
7
  6
CENTER
 10
135.3429044783
 20
45.03
 11
126.3429044783
 21
45.03
  0
LINE
  5
42D
100
AcDbEntity
  8
BEZUGSACHSEN
100
AcDbLine
 62
7
  6
CENTER
 10
135.3429044783
 20
45.03
 11
144.3429044783
 21
45.03
  0
LINE
  5
42E
100
AcDbEntity
  8
BEZUGSACHSEN
100
AcDbLine
 62
7
  6
CENTER
 10
210.3429044783
 20
45.03
 11
219.3429044783
 21
45.03
  0
LINE
  5
42F
100
AcDbEntity
  8
BEZUGSACHSEN
100
AcDbLine
 62
7
  6
CENTER
 10
285.3429044783
 20
45.03
 11
294.3429044783
 21
45.03
  0
LINE
  5
430
100
AcDbEntity
  8
0
100
AcDbLine
 62
7
  6
CONTINUOUS
 10
100.3059695001
 20
58.7968017254
 11
104.2567228625
 21
58.1710638652
  0
LINE
  5
431
100
AcDbEntity
  8
0
100
AcDbLine
 62
7
  6
CONTINUOUS
 10
154.3329044783
 20
81.53
 11
154.3329044783
 21
81.03
  0
LINE
  5
432
100
AcDbEntity
  8
0
100
AcDbLine
 62
7
  6
CONTINUOUS
 10
155.582905432
 20
81.53
 11
155.582905432
 21
81.03
  0
LINE
  5
433
100
AcDbEntity
  8
0
100
AcDbLine
 62
7
  6
CONTINUOUS
 10
156.5829044783
 20
81.53
 11
156.5829044783
 21
81.03
  0
LINE
  5
434
100
AcDbEntity
  8
0
100
AcDbLine
 62
7
  6
CONTINUOUS
 10
157.5829035246
 20
81.53
 11
157.5829035246
 21
81.03
  0
LINE
  5
435
100
AcDbEntity
  8
0
100
AcDbLine
 62
7
  6
CONTINUOUS
 10
158.0829044783
 20
81.53
 11
158.0829044783
 21
81.03
  0
LINE
  5
436
100
AcDbEntity
  8
0
100
AcDbLine
 62
7
  6
CONTINUOUS
 10
158.3329035246
 20
81.53
 11
158.3329035246
 21
81.03
  0
LINE
  5
437
100
AcDbEntity
  8
KONSTRUKTIONSELEMENTE
100
AcDbLine
 62
7
  6
CONTINUOUS
 10
128.9920515172
 20
56.03
 11
122.6411985561
 21
45.03
  0
LINE
  5
438
100
AcDbEntity
  8
RUNDUNGEN
100
AcDbLine
 62
7
  6
CONTINUOUS
 10
308.7140516247
 20
81.7821758045
 11
309.045722381
 21
81.8710657643
  0
LWPOLYLINE
  5
439
100
AcDbEntity
  8
RUNDUNGEN
100
AcDbPolyline
 62
7
  6
CONTINUOUS
 90
6
 70
0
 10
309.045722381
 20
81.8710657643
 10
309.3233395648
 20
81.9344487509
 10
309.6041689717
 20
81.981911746
 10
309.8872789167
 20
82.0132905612
 10
310.1717294025
 20
82.0284775122
 10
310.295645853
 20
82.0300152466
  0
LINE
  5
43A
100
AcDbEntity
  8
KONSTRUKTIONSELEMENTE
100
AcDbLine
 62
7
  6
CONTINUOUS
 10
291.6937574394
 20
56.03
 11
278.9920515172
 21
56.03
  0
LINE
  5
43B
100
AcDbEntity
  8
KONSTRUKTIONSELEMENTE
100
AcDbLine
 62
7
  6
CONTINUOUS
 10
216.6937574394
 20
56.03
 11
203.9920515172
 21
56.03
  0
LINE
  5
43C
100
AcDbEntity
  8
KONSTRUKTIONSELEMENTE
100
AcDbLine
 62
7
  6
CONTINUOUS
 10
141.6937574394
 20
56.03
 11
128.9920515172
 21
56.03
  0
LWPOLYLINE
  5
43D
100
AcDbEntity
  8
RUNDUNGEN
100
AcDbPolyline
 62
7
  6
CONTINUOUS
 90
6
 70
0
 10
111.9771303449
 20
81.7808238946
 10
112.4551450394
 20
81.6755451396
 10
112.93897237
 20
81.5984897472
 10
113.4266012099
 20
81.550059151
 10
113.9159810555
 20
81.5304628192
 10
114.0035818543
 20
81.5300018154
  0
LINE
  5
43E
100
AcDbEntity
  8
RUNDUNGEN
100
AcDbLine
 62
7
  6
CONTINUOUS
 10
111.7456580651
 20
81.8425314795
 11
111.9771303449
 21
81.7808238946
  0
LINE
  5
43F
100
AcDbEntity
  8
KONSTRUKTIONSELEMENTE
100
AcDbLine
 62
7
  6
CONTINUOUS
 10
122.6411985561
 20
165.03
 11
128.9920515172
 21
154.03
  0
LINE
  5
440
100
AcDbEntity
  8
KONSTRUKTIONSELEMENTE
100
AcDbLine
 62
7
  6
CONTINUOUS
 10
203.9920515172
 20
176.03
 11
197.6411985561
 21
165.03
  0
LINE
  5
441
100
AcDbEntity
  8
0
100
AcDbLine
 62
7
  6
CONTINUOUS
 10
20.3429044783
 20
57.03
 11
16.3429044783
 21
55.3731457505
  0
LINE
  5
442
100
AcDbEntity
  8
0
100
AcDbLine
 62
7
  6
CONTINUOUS
 10
20.3429044783
 20
75.03
 11
16.3429044783
 21
75.03
  0
LINE
  5
443
100
AcDbEntity
  8
0
100
AcDbLine
 62
7
  6
CONTINUOUS
 10
400.3429044783
 20
75.03
 11
404.3429044783
 21
75.03
  0
LINE
  5
444
100
AcDbEntity
  8
0
100
AcDbLine
 62
7
  6
CONTINUOUS
 10
20.3429044783
 20
153.03
 11
16.3429044783
 21
154.6868542495
  0
LINE
  5
445
100
AcDbEntity
  8
KONSTRUKTIONSELEMENTE
100
AcDbLine
 62
7
  6
CONTINUOUS
 10
197.6411985561
 20
45.03
 11
203.9920515172
 21
34.03
  0
LINE
  5
446
100
AcDbEntity
  8
0
100
AcDbLine
 62
7
  6
CONTINUOUS
 10
187.7224012241
 20
83.53
 11
187.7224012241
 21
83.03
  0
LINE
  5
447
100
AcDbEntity
  8
0
100
AcDbLine
 62
7
  6
CONTINUOUS
 10
187.7224017381
 20
126.53
 11
187.7224017381
 21
127.03
  0
LINE
  5
448
100
AcDbEntity
  8
0
100
AcDbLine
 62
7
  6
CONTINUOUS
 10
187.9124894887
 20
83.53
 11
187.9124894887
 21
83.03
  0
LINE
  5
449
100
AcDbEntity
  8
0
100
AcDbLine
 62
7
  6
CONTINUOUS
 10
189.4141894579
 20
126.53
 11
189.4141894579
 21
127.03
  0
LINE
  5
44A
100
AcDbEntity
  8
0
100
AcDbLine
 62
7
  6
CONTINUOUS
 10
192.1324492693
 20
126.53
 11
192.1324492693
 21
127.03
  0
LINE
  5
44B
100
AcDbEntity
  8
0
100
AcDbLine
 62
7
  6
CONTINUOUS
 10
193.5486065149
 20
126.53
 11
193.5486065149
 21
127.03
  0
LINE
  5
44C
100
AcDbEntity
  8
0
100
AcDbLine
 62
7
  6
CONTINUOUS
 10
194.8317033052
 20
126.53
 11
194.8317033052
 21
127.03
  0
LINE
  5
44D
100
AcDbEntity
  8
0
100
AcDbLine
 62
7
  6
CONTINUOUS
 10
195.3639518022
 20
126.53
 11
195.3639518022
 21
127.03
  0
LINE
  5
44E
100
AcDbEntity
  8
0
100
AcDbLine
 62
7
  6
CONTINUOUS
 10
196.6090270877
 20
83.53
 11
196.6090270877
 21
83.03
  0
LINE
  5
44F
100
AcDbEntity
  8
0
100
AcDbLine
 62
7
  6
CONTINUOUS
 10
197.008212626
 20
83.53
 11
197.008212626
 21
83.03
  0
LINE
  5
450
100
AcDbEntity
  8
KONSTRUKTIONSELEMENTE
100
AcDbLine
 62
7
  6
CONTINUOUS
 10
141.6937574394
 20
34.03
 11
148.0446104005
 21
45.03
  0
LINE
  5
451
100
AcDbEntity
  8
KONSTRUKTIONSELEMENTE
100
AcDbLine
 62
7
  6
CONTINUOUS
 10
216.6937574394
 20
154.03
 11
223.0446104005
 21
165.03
  0
LWPOLYLINE
  5
452
100
AcDbEntity
  8
RUNDUNGEN
100
AcDbPolyline
 62
7
  6
CONTINUOUS
 90
6
 70
0
 10
306.6822296347
 20
81.5300018145
 10
306.7975799873
 20
81.5308015992
 10
307.2813570596
 20
81.5516308635
 10
307.7633429654
 20
81.6006389762
 10
308.2415557307
 20
81.6776178424
 10
308.7140516247
 20
81.7821758045
  0
LINE
  5
453
100
AcDbEntity
  8
0
100
AcDbLine
 62
7
  6
CONTINUOUS
 10
158.3329035246
 20
81.03
 11
148.3329044783
 21
81.03
  0
LINE
  5
454
100
AcDbEntity
  8
0
100
AcDbLine
 62
7
  6
CONTINUOUS
 10
146.3329049551
 20
81.03
 11
137.3329042399
 21
81.03
  0
LINE
  5
455
100
AcDbEntity
  8
0
100
AcDbLine
 62
7
  6
CONTINUOUS
 10
135.3329047167
 20
81.03
 11
125.8329044783
 21
81.03
  0
LINE
  5
456
100
AcDbEntity
  8
RUNDUNGEN
100
AcDbLine
 62
7
  6
CONTINUOUS
 10
306.6823403606
 20
81.53
 11
251.3070060934
 21
81.53
  0
LINE
  5
457
100
AcDbEntity
  8
0
100
AcDbLine
 62
7
  6
CONTINUOUS
 10
303.69541658
 20
81.53
 11
251.3070060934
 21
81.53
  0
LINE
  5
458
100
AcDbEntity
  8
0
100
AcDbLine
 62
7
  6
CONTINUOUS
 10
169.3788028631
 20
81.53
 11
116.9903923772
 21
81.53
  0
LINE
  5
459
100
AcDbEntity
  8
RUNDUNGEN
100
AcDbLine
 62
7
  6
CONTINUOUS
 10
169.3788028631
 20
81.53
 11
114.0034685963
 21
81.53
  0
LINE
  5
45A
100
AcDbEntity
  8
BEZUGSACHSEN
100
AcDbLine
 62
7
  6
CONTINUOUS
 10
100.3429044783
 20
82.03
 11
110.3914808958
 21
82.03
  0
LINE
  5
45B
100
AcDbEntity
  8
BEZUGSACHSEN
100
AcDbLine
 62
7
  6
CONTINUOUS
 10
310.2943278988
 20
82.03
 11
320.3429044783
 21
82.03
  0
LINE
  5
45C
100
AcDbEntity
  8
0
100
AcDbLine
 62
7
  6
CONTINUOUS
 10
232.9634072184
 20
83.03
 11
227.1372024417
 21
83.03
  0
LINE
  5
45D
100
AcDbEntity
  8
0
100
AcDbLine
 62
7
  6
CONTINUOUS
 10
225.8541056514
 20
83.03
 11
216.4067198634
 21
83.03
  0
LINE
  5
45E
100
AcDbEntity
  8
0
100
AcDbLine
 62
7
  6
CONTINUOUS
 10
213.888049066
 20
83.03
 11
211.0367254615
 21
83.03
  0
LINE
  5
45F
100
AcDbEntity
  8
0
100
AcDbLine
 62
7
  6
CONTINUOUS
 10
205.6762372851
 20
83.03
 11
199.8500316739
 21
83.03
  0
LINE
  5
460
100
AcDbEntity
  8
0
100
AcDbLine
 62
7
  6
CONTINUOUS
 10
197.008212626
 20
83.03
 11
187.7224012241
 21
83.03
  0
LINE
  5
461
100
AcDbEntity
  8
RUNDUNGEN
100
AcDbLine
 62
7
  6
CONTINUOUS
 10
174.1826504404
 20
83.53
 11
179.9768002851
 21
83.53
  0
LINE
  5
462
100
AcDbEntity
  8
0
100
AcDbLine
 62
7
  6
CONTINUOUS
 10
179.9768002851
 20
83.53
 11
240.709008501
 21
83.53
  0
LINE
  5
463
100
AcDbEntity
  8
RUNDUNGEN
100
AcDbLine
 62
7
  6
CONTINUOUS
 10
240.709008501
 20
83.53
 11
246.5031585161
 21
83.53
  0
LINE
  5
464
100
AcDbEntity
  8
RUNDUNGEN
100
AcDbLine
 62
7
  6
CONTINUOUS
 10
309.1743545329
 20
84.03
 11
111.5114544237
 21
84.03
  0
LWPOLYLINE
  5
465
100
AcDbEntity
  8
RUNDUNGEN
100
AcDbPolyline
 62
7
  6
CONTINUOUS
 90
7
 70
0
 10
110.390165355
 20
82.03001498
 10
110.527393381
 20
82.0281290651
 10
110.8118034497
 20
82.0121836023
 10
111.0948289211
 20
81.9800499006
 10
111.3755300274
 20
81.9318383059
 10
111.652975479
 20
81.8677156608
 10
111.7456900969
 20
81.8425280709
  0
LINE
  5
466
100
AcDbEntity
  8
KONSTRUKTIONSELEMENTE
100
AcDbLine
 62
7
  6
CONTINUOUS
 10
148.0446104005
 20
165.03
 11
141.6937574394
 21
176.03
  0
LINE
  5
467
100
AcDbEntity
  8
KONSTRUKTIONSELEMENTE
100
AcDbLine
 62
7
  6
CONTINUOUS
 10
223.0446104005
 20
45.03
 11
216.6937574394
 21
56.03
  0
LINE
  5
468
100
AcDbEntity
  8
0
100
AcDbLine
 62
7
  6
CONTINUOUS
 10
199.8500316739
 20
83.53
 11
199.8500316739
 21
83.03
  0
LINE
  5
469
100
AcDbEntity
  8
0
100
AcDbLine
 62
7
  6
CONTINUOUS
 10
202.8534289598
 20
126.53
 11
202.8534289598
 21
127.03
  0
LINE
  5
46A
100
AcDbEntity
  8
0
100
AcDbLine
 62
7
  6
CONTINUOUS
 10
203.5757619738
 20
83.53
 11
203.5757619738
 21
83.03
  0
LINE
  5
46B
100
AcDbEntity
  8
0
100
AcDbLine
 62
7
  6
CONTINUOUS
 10
203.8513923883
 20
126.53
 11
203.8513923883
 21
127.03
  0
LINE
  5
46C
100
AcDbEntity
  8
0
100
AcDbLine
 62
7
  6
CONTINUOUS
 10
204.2790890932
 20
126.53
 11
204.2790890932
 21
127.03
  0
LINE
  5
46D
100
AcDbEntity
  8
0
100
AcDbLine
 62
7
  6
CONTINUOUS
 10
205.6762372851
 20
83.53
 11
205.6762372851
 21
83.03
  0
LINE
  5
46E
100
AcDbEntity
  8
0
100
AcDbLine
 62
7
  6
CONTINUOUS
 10
206.7977598905
 20
126.53
 11
206.7977598905
 21
127.03
  0
LINE
  5
46F
100
AcDbEntity
  8
0
100
AcDbLine
 62
7
  6
CONTINUOUS
 10
209.6490834951
 20
126.53
 11
209.6490834951
 21
127.03
  0
LINE
  5
470
100
AcDbEntity
  8
BEZUGSACHSEN
100
AcDbLine
 62
7
  6
CENTER
 10
210.3429044783
 20
165.03
 11
210.3429044783
 21
156.03
  0
LINE
  5
471
100
AcDbEntity
  8
T_STARTBEZUEGE
100
AcDbLine
 62
7
  6
CENTER
 10
210.3429044783
 20
135.4356283325
 11
210.3429044783
 21
74.6243716675
  0
LINE
  5
472
100
AcDbEntity
  8
BEZUGSACHSEN
100
AcDbLine
 62
7
  6
CENTER
 10
210.3429044783
 20
45.03
 11
210.3429044783
 21
36.03
  0
LINE
  5
473
100
AcDbEntity
  8
BEZUGSACHSEN
100
AcDbLine
 62
7
  6
CENTER
 10
210.3429044783
 20
45.03
 11
210.3429044783
 21
54.03
  0
LINE
  5
474
100
AcDbEntity
  8
BEZUGSACHSEN
100
AcDbLine
 62
7
  6
CENTER
 10
210.3429044783
 20
165.03
 11
210.3429044783
 21
174.03
  0
LINE
  5
475
100
AcDbEntity
  8
0
100
AcDbLine
 62
7
  6
CONTINUOUS
 10
211.0367254615
 20
83.53
 11
211.0367254615
 21
83.03
  0
LINE
  5
476
100
AcDbEntity
  8
0
100
AcDbLine
 62
7
  6
CONTINUOUS
 10
169.3788028631
 20
81.53
 11
170.3298249473
 21
82.0790728563
  0
LINE
  5
477
100
AcDbEntity
  8
RUNDUNGEN
100
AcDbLine
 62
7
  6
CONTINUOUS
 10
170.3298249473
 20
82.0790728563
 11
171.6826504404
 21
82.8601270189
  0
LINE
  5
478
100
AcDbEntity
  8
BEZUGSACHSEN
100
AcDbLine
 62
7
  6
CONTINUOUS
 10
249.0031585161
 20
127.1998729811
 11
251.3070060934
 21
128.53
  0
LINE
  5
479
100
AcDbEntity
  8
BG_STARTBEZUEGE
100
AcDbLine
 62
7
  6
CENTER
 10
7.3429044783
 20
105.03
 11
413.3429044783
 21
105.03
  0
LINE
  5
47A
100
AcDbEntity
  8
BEZUGSACHSEN
100
AcDbLine
 62
7
  6
CONTINUOUS
 10
169.3788028631
 20
128.53
 11
171.6826504404
 21
127.1998729811
  0
LINE
  5
47B
100
AcDbEntity
  8
0
100
AcDbLine
 62
7
  6
CONTINUOUS
 10
251.3070060934
 20
81.53
 11
250.3559839905
 21
82.0790728671
  0
LINE
  5
47C
100
AcDbEntity
  8
RUNDUNGEN
100
AcDbLine
 62
7
  6
CONTINUOUS
 10
249.0031585161
 20
82.8601270189
 11
250.3559839905
 21
82.0790728671
  0
LINE
  5
47D
100
AcDbEntity
  8
0
100
AcDbLine
 62
7
  6
CONTINUOUS
 10
213.888049066
 20
83.53
 11
213.888049066
 21
83.03
  0
LINE
  5
47E
100
AcDbEntity
  8
0
100
AcDbLine
 62
7
  6
CONTINUOUS
 10
215.0095716715
 20
126.53
 11
215.0095716715
 21
127.03
  0
LINE
  5
47F
100
AcDbEntity
  8
0
100
AcDbLine
 62
7
  6
CONTINUOUS
 10
216.4067198634
 20
83.53
 11
216.4067198634
 21
83.03
  0
LINE
  5
480
100
AcDbEntity
  8
0
100
AcDbLine
 62
7
  6
CONTINUOUS
 10
216.8344165683
 20
83.53
 11
216.8344165683
 21
83.03
  0
LINE
  5
481
100
AcDbEntity
  8
0
100
AcDbLine
 62
7
  6
CONTINUOUS
 10
217.1100469827
 20
126.53
 11
217.1100469827
 21
127.03
  0
LINE
  5
482
100
AcDbEntity
  8
0
100
AcDbLine
 62
7
  6
CONTINUOUS
 10
217.8323799968
 20
83.53
 11
217.8323799968
 21
83.03
  0
LINE
  5
483
100
AcDbEntity
  8
0
100
AcDbLine
 62
7
  6
CONTINUOUS
 10
220.8357772827
 20
126.53
 11
220.8357772827
 21
127.03
  0
LINE
  5
484
100
AcDbEntity
  8
0
100
AcDbLine
 62
7
  6
CONTINUOUS
 10
223.6775963306
 20
126.53
 11
223.6775963306
 21
127.03
  0
LINE
  5
485
100
AcDbEntity
  8
0
100
AcDbLine
 62
7
  6
CONTINUOUS
 10
224.0767818689
 20
126.53
 11
224.0767818689
 21
127.03
  0
LINE
  5
486
100
AcDbEntity
  8
0
100
AcDbLine
 62
7
  6
CONTINUOUS
 10
225.3218571543
 20
83.53
 11
225.3218571543
 21
83.03
  0
LINE
  5
487
100
AcDbEntity
  8
0
100
AcDbLine
 62
7
  6
CONTINUOUS
 10
225.8541056514
 20
83.53
 11
225.8541056514
 21
83.03
  0
LINE
  5
488
100
AcDbEntity
  8
0
100
AcDbLine
 62
7
  6
CONTINUOUS
 10
227.1372024417
 20
83.53
 11
227.1372024417
 21
83.03
  0
LINE
  5
489
100
AcDbEntity
  8
0
100
AcDbLine
 62
7
  6
CONTINUOUS
 10
228.5533596873
 20
83.53
 11
228.5533596873
 21
83.03
  0
LINE
  5
48A
100
AcDbEntity
  8
0
100
AcDbLine
 62
7
  6
CONTINUOUS
 10
231.2716194987
 20
83.53
 11
231.2716194987
 21
83.03
  0
LINE
  5
48B
100
AcDbEntity
  8
0
100
AcDbLine
 62
7
  6
CONTINUOUS
 10
232.7733194679
 20
126.53
 11
232.7733194679
 21
127.03
  0
LINE
  5
48C
100
AcDbEntity
  8
0
100
AcDbLine
 62
7
  6
CONTINUOUS
 10
232.9634072184
 20
83.53
 11
232.9634072184
 21
83.03
  0
LINE
  5
48D
100
AcDbEntity
  8
0
100
AcDbLine
 62
7
  6
CONTINUOUS
 10
232.9634077325
 20
126.53
 11
232.9634077325
 21
127.03
  0
LINE
  5
48E
100
AcDbEntity
  8
KONSTRUKTIONSELEMENTE
100
AcDbLine
 62
7
  6
CONTINUOUS
 10
203.9920515172
 20
56.03
 11
197.6411985561
 21
45.03
  0
LINE
  5
48F
100
AcDbEntity
  8
KONSTRUKTIONSELEMENTE
100
AcDbLine
 62
7
  6
CONTINUOUS
 10
278.9920515172
 20
176.03
 11
272.6411985561
 21
165.03
  0
LINE
  5
490
100
AcDbEntity
  8
0
100
AcDbLine
 62
7
  6
CONTINUOUS
 10
400.3429044783
 20
153.03
 11
404.3429044783
 21
154.6868542495
  0
LWPOLYLINE
  5
491
100
AcDbEntity
  8
BEZUGSACHSEN
100
AcDbPolyline
 62
7
  6
CONTINUOUS
 90
6
 70
0
 10
114.0035827567
 20
128.5299981843
 10
113.913634956
 20
128.5295121296
 10
113.4219191989
 20
128.5096135727
 10
112.9319866406
 20
128.460604771
 10
112.4459177412
 20
128.3826998869
 10
111.9657525284
 20
128.276308824
  0
LINE
  5
492
100
AcDbEntity
  8
BEZUGSACHSEN
100
AcDbLine
 62
7
  6
CONTINUOUS
 10
309.1743545329
 20
126.03
 11
111.5114544237
 21
126.03
  0
LINE
  5
493
100
AcDbEntity
  8
BEZUGSACHSEN
100
AcDbLine
 62
7
  6
CONTINUOUS
 10
174.1826504404
 20
126.53
 11
246.5031585161
 21
126.53
  0
LINE
  5
494
100
AcDbEntity
  8
0
100
AcDbLine
 62
7
  6
CONTINUOUS
 10
187.7224017381
 20
127.03
 11
193.5486065149
 21
127.03
  0
LINE
  5
495
100
AcDbEntity
  8
0
100
AcDbLine
 62
7
  6
CONTINUOUS
 10
194.8317033052
 20
127.03
 11
204.2790890932
 21
127.03
  0
LINE
  5
496
100
AcDbEntity
  8
0
100
AcDbLine
 62
7
  6
CONTINUOUS
 10
206.7977598905
 20
127.03
 11
209.6490834951
 21
127.03
  0
LINE
  5
497
100
AcDbEntity
  8
0
100
AcDbLine
 62
7
  6
CONTINUOUS
 10
215.0095716715
 20
127.03
 11
220.8357772827
 21
127.03
  0
LINE
  5
498
100
AcDbEntity
  8
0
100
AcDbLine
 62
7
  6
CONTINUOUS
 10
223.6775963306
 20
127.03
 11
232.9634077325
 21
127.03
  0
LINE
  5
499
100
AcDbEntity
  8
BEZUGSACHSEN
100
AcDbLine
 62
7
  6
CONTINUOUS
 10
320.3429044783
 20
128.03
 11
310.2943278988
 21
128.03
  0
LINE
  5
49A
100
AcDbEntity
  8
BEZUGSACHSEN
100
AcDbLine
 62
7
  6
CONTINUOUS
 10
110.3914808958
 20
128.03
 11
100.3429044783
 21
128.03
  0
LINE
  5
49B
100
AcDbEntity
  8
BEZUGSACHSEN
100
AcDbLine
 62
7
  6
CONTINUOUS
 10
306.6823403606
 20
128.53
 11
251.3070060934
 21
128.53
  0
LINE
  5
49C
100
AcDbEntity
  8
BEZUGSACHSEN
100
AcDbLine
 62
7
  6
CONTINUOUS
 10
169.3788028631
 20
128.53
 11
114.0034685963
 21
128.53
  0
LINE
  5
49D
100
AcDbEntity
  8
0
100
AcDbLine
 62
7
  6
CONTINUOUS
 10
133.6929044783
 20
129.03
 11
139.9329044783
 21
129.03
  0
LINE
  5
49E
100
AcDbEntity
  8
0
100
AcDbLine
 62
7
  6
CONTINUOUS
 10
143.3429044783
 20
129.03
 11
149.5829044783
 21
129.03
  0
LINE
  5
49F
100
AcDbEntity
  8
0
100
AcDbLine
 62
7
  6
CONTINUOUS
 10
262.352905432
 20
129.03
 11
272.3529044783
 21
129.03
  0
LINE
  5
4A0
100
AcDbEntity
  8
0
100
AcDbLine
 62
7
  6
CONTINUOUS
 10
274.3529040014
 20
129.03
 11
283.3529047167
 21
129.03
  0
LINE
  5
4A1
100
AcDbEntity
  8
0
100
AcDbLine
 62
7
  6
CONTINUOUS
 10
285.3529042399
 20
129.03
 11
294.8529044783
 21
129.03
  0
LINE
  5
4A2
100
AcDbEntity
  8
0
100
AcDbLine
 62
7
  6
CONTINUOUS
 10
20.3429044783
 20
135.03
 11
16.3429044783
 21
135.03
  0
LINE
  5
4A3
100
AcDbEntity
  8
0
100
AcDbLine
 62
7
  6
CONTINUOUS
 10
400.3429044783
 20
135.03
 11
404.3429044783
 21
135.03
  0
LWPOLYLINE
  5
4A4
100
AcDbEntity
  8
BEZUGSACHSEN
100
AcDbPolyline
 62
7
  6
CONTINUOUS
 90
7
 70
0
 10
310.2956458953
 20
128.0299847534
 10
310.1584173804
 20
128.031870673
 10
309.8740073326
 20
128.0478161439
 10
309.5909818569
 20
128.0799498554
 10
309.31028072
 20
128.1281614656
 10
309.0328352113
 20
128.1922841367
 10
308.7254274321
 20
128.2749493777
  0
LINE
  5
4A5
100
AcDbEntity
  8
0
100
AcDbLine
 62
7
  6
CONTINUOUS
 10
400.3429044783
 20
57.03
 11
404.3429044783
 21
55.3731457505
  0
LINE
  5
4A6
100
AcDbEntity
  8
KONSTRUKTIONSELEMENTE
100
AcDbLine
 62
7
  6
CONTINUOUS
 10
197.6411985561
 20
165.03
 11
203.9920515172
 21
154.03
  0
LINE
  5
4A7
100
AcDbEntity
  8
KONSTRUKTIONSELEMENTE
100
AcDbLine
 62
7
  6
CONTINUOUS
 10
272.6411985561
 20
45.03
 11
278.9920515172
 21
34.03
  0
LINE
  5
4A8
100
AcDbEntity
  8
KONSTRUKTIONSELEMENTE
100
AcDbLine
 62
7
  6
CONTINUOUS
 10
216.6937574394
 20
34.03
 11
223.0446104005
 21
45.03
  0
LWPOLYLINE
  5
4A9
100
AcDbEntity
  8
BEZUGSACHSEN
100
AcDbPolyline
 62
7
  6
CONTINUOUS
 90
6
 70
0
 10
111.6400883095
 20
128.188934439
 10
111.3624711823
 20
128.125551478
 10
111.0816418056
 20
128.0780884984
 10
110.7985318649
 20
128.0467096928
 10
110.5140813582
 20
128.0315227502
 10
110.3901653974
 20
128.02998502
  0
LWPOLYLINE
  5
4AA
100
AcDbEntity
  8
BEZUGSACHSEN
100
AcDbPolyline
 62
7
  6
CONTINUOUS
 90
6
 70
0
 10
308.7254274321
 20
128.2749493777
 10
308.2507805431
 20
128.3806149206
 10
307.7703268113
 20
128.4584415651
 10
307.2860382224
 20
128.508029345
 10
306.7999260358
 20
128.5291655097
 10
306.6822287893
 20
128.5299981852
  0
LINE
  5
4AB
100
AcDbEntity
  8
KONSTRUKTIONSELEMENTE
100
AcDbLine
 62
7
  6
CONTINUOUS
 10
223.0446104005
 20
165.03
 11
216.6937574394
 21
176.03
  0
LINE
  5
4AC
100
AcDbEntity
  8
0
100
AcDbLine
 62
7
  6
CONTINUOUS
 10
262.352905432
 20
128.53
 11
262.352905432
 21
129.03
  0
LINE
  5
4AD
100
AcDbEntity
  8
0
100
AcDbLine
 62
7
  6
CONTINUOUS
 10
262.6029044783
 20
128.53
 11
262.6029044783
 21
129.03
  0
LINE
  5
4AE
100
AcDbEntity
  8
0
100
AcDbLine
 62
7
  6
CONTINUOUS
 10
263.102905432
 20
128.53
 11
263.102905432
 21
129.03
  0
LINE
  5
4AF
100
AcDbEntity
  8
0
100
AcDbLine
 62
7
  6
CONTINUOUS
 10
264.1029044783
 20
128.53
 11
264.1029044783
 21
129.03
  0
LINE
  5
4B0
100
AcDbEntity
  8
0
100
AcDbLine
 62
7
  6
CONTINUOUS
 10
265.1029035246
 20
128.53
 11
265.1029035246
 21
129.03
  0
LINE
  5
4B1
100
AcDbEntity
  8
0
100
AcDbLine
 62
7
  6
CONTINUOUS
 10
266.3529044783
 20
128.53
 11
266.3529044783
 21
129.03
  0
LINE
  5
4B2
100
AcDbEntity
  8
KONSTRUKTIONSELEMENTE
100
AcDbLine
 62
7
  6
CONTINUOUS
 10
291.6937574394
 20
154.03
 11
298.0446104005
 21
165.03
  0
LINE
  5
4B3
100
AcDbEntity
  8
BEZUGSACHSEN
100
AcDbLine
 62
7
  6
CONTINUOUS
 10
111.9657525284
 20
128.276308824
 11
111.6400883095
 21
128.188934439
  0
LINE
  5
4B4
100
AcDbEntity
  8
KONSTRUKTIONSELEMENTE
100
AcDbLine
 62
7
  6
CONTINUOUS
 10
128.9920515172
 20
154.03
 11
141.6937574394
 21
154.03
  0
LINE
  5
4B5
100
AcDbEntity
  8
KONSTRUKTIONSELEMENTE
100
AcDbLine
 62
7
  6
CONTINUOUS
 10
203.9920515172
 20
154.03
 11
216.6937574394
 21
154.03
  0
LINE
  5
4B6
100
AcDbEntity
  8
KONSTRUKTIONSELEMENTE
100
AcDbLine
 62
7
  6
CONTINUOUS
 10
278.9920515172
 20
154.03
 11
291.6937574394
 21
154.03
  0
LINE
  5
4B7
100
AcDbEntity
  8
BEZUGSACHSEN
100
AcDbLine
 62
7
  6
CENTER
 10
285.3429044783
 20
165.03
 11
276.3429044783
 21
165.03
  0
LINE
  5
4B8
100
AcDbEntity
  8
BEZUGSACHSEN
100
AcDbLine
 62
7
  6
CENTER
 10
210.3429044783
 20
165.03
 11
201.3429044783
 21
165.03
  0
LINE
  5
4B9
100
AcDbEntity
  8
BEZUGSACHSEN
100
AcDbLine
 62
7
  6
CENTER
 10
135.3429044783
 20
165.03
 11
126.3429044783
 21
165.03
  0
LINE
  5
4BA
100
AcDbEntity
  8
BEZUGSACHSEN
100
AcDbLine
 62
7
  6
CENTER
 10
135.3429044783
 20
165.03
 11
144.3429044783
 21
165.03
  0
LINE
  5
4BB
100
AcDbEntity
  8
BEZUGSACHSEN
100
AcDbLine
 62
7
  6
CENTER
 10
210.3429044783
 20
165.03
 11
219.3429044783
 21
165.03
  0
LINE
  5
4BC
100
AcDbEntity
  8
BEZUGSACHSEN
100
AcDbLine
 62
7
  6
CENTER
 10
285.3429044783
 20
165.03
 11
294.3429044783
 21
165.03
  0
LINE
  5
4BD
100
AcDbEntity
  8
KONSTRUKTIONSELEMENTE
100
AcDbLine
 62
7
  6
CONTINUOUS
 10
298.0446104005
 20
45.03
 11
291.6937574394
 21
56.03
  0
LINE
  5
4BE
100
AcDbEntity
  8
0
100
AcDbLine
 62
7
  6
CONTINUOUS
 10
272.3529044783
 20
128.53
 11
272.3529044783
 21
129.03
  0
LINE
  5
4BF
100
AcDbEntity
  8
0
100
AcDbLine
 62
7
  6
CONTINUOUS
 10
274.3529040014
 20
128.53
 11
274.3529040014
 21
129.03
  0
LINE
  5
4C0
100
AcDbEntity
  8
0
100
AcDbLine
 62
7
  6
CONTINUOUS
 10
275.8529040014
 20
128.53
 11
275.8529040014
 21
129.03
  0
LINE
  5
4C1
100
AcDbEntity
  8
0
100
AcDbLine
 62
7
  6
CONTINUOUS
 10
276.1029044783
 20
128.53
 11
276.1029044783
 21
129.03
  0
LINE
  5
4C2
100
AcDbEntity
  8
0
100
AcDbLine
 62
7
  6
CONTINUOUS
 10
276.6029040014
 20
128.53
 11
276.6029040014
 21
129.03
  0
LINE
  5
4C3
100
AcDbEntity
  8
0
100
AcDbLine
 62
7
  6
CONTINUOUS
 10
277.3529040014
 20
128.53
 11
277.3529040014
 21
129.03
  0
LINE
  5
4C4
100
AcDbEntity
  8
0
100
AcDbLine
 62
7
  6
CONTINUOUS
 10
278.3529044783
 20
128.53
 11
278.3529044783
 21
129.03
  0
LINE
  5
4C5
100
AcDbEntity
  8
0
100
AcDbLine
 62
7
  6
CONTINUOUS
 10
279.3529049551
 20
128.53
 11
279.3529049551
 21
129.03
  0
LINE
  5
4C6
100
AcDbEntity
  8
0
100
AcDbLine
 62
7
  6
CONTINUOUS
 10
280.3529040014
 20
128.53
 11
280.3529040014
 21
129.03
  0
LINE
  5
4C7
100
AcDbEntity
  8
0
100
AcDbLine
 62
7
  6
CONTINUOUS
 10
281.1029040014
 20
128.53
 11
281.1029040014
 21
129.03
  0
LINE
  5
4C8
100
AcDbEntity
  8
0
100
AcDbLine
 62
7
  6
CONTINUOUS
 10
281.6029049551
 20
128.53
 11
281.6029049551
 21
129.03
  0
LINE
  5
4C9
100
AcDbEntity
  8
0
100
AcDbLine
 62
7
  6
CONTINUOUS
 10
281.8529040014
 20
128.53
 11
281.8529040014
 21
129.03
  0
LINE
  5
4CA
100
AcDbEntity
  8
0
100
AcDbLine
 62
7
  6
CONTINUOUS
 10
283.3529047167
 20
128.53
 11
283.3529047167
 21
129.03
  0
LINE
  5
4CB
100
AcDbEntity
  8
BEZUGSACHSEN
100
AcDbLine
 62
7
  6
CENTER
 10
285.3429044783
 20
165.03
 11
285.3429044783
 21
156.03
  0
LINE
  5
4CC
100
AcDbEntity
  8
BEZUGSACHSEN
100
AcDbLine
 62
7
  6
CENTER
 10
285.3429044783
 20
45.03
 11
285.3429044783
 21
36.03
  0
LINE
  5
4CD
100
AcDbEntity
  8
BEZUGSACHSEN
100
AcDbLine
 62
7
  6
CENTER
 10
285.3429044783
 20
45.03
 11
285.3429044783
 21
54.03
  0
LINE
  5
4CE
100
AcDbEntity
  8
BEZUGSACHSEN
100
AcDbLine
 62
7
  6
CENTER
 10
285.3429044783
 20
165.03
 11
285.3429044783
 21
174.03
  0
LINE
  5
4CF
100
AcDbEntity
  8
0
100
AcDbLine
 62
7
  6
CONTINUOUS
 10
285.3529042399
 20
128.53
 11
285.3529042399
 21
129.03
  0
LINE
  5
4D0
100
AcDbEntity
  8
0
100
AcDbLine
 62
7
  6
CONTINUOUS
 10
100.3059695001
 20
151.2631982746
 11
104.2567228625
 21
151.8889361348
  0
LINE
  5
4D1
100
AcDbEntity
  8
KONSTRUKTIONSELEMENTE
100
AcDbLine
 62
7
  6
CONTINUOUS
 10
291.6937574394
 20
176.03
 11
278.9920515172
 21
176.03
  0
LINE
  5
4D2
100
AcDbEntity
  8
KONSTRUKTIONSELEMENTE
100
AcDbLine
 62
7
  6
CONTINUOUS
 10
216.6937574394
 20
176.03
 11
203.9920515172
 21
176.03
  0
LINE
  5
4D3
100
AcDbEntity
  8
KONSTRUKTIONSELEMENTE
100
AcDbLine
 62
7
  6
CONTINUOUS
 10
141.6937574394
 20
176.03
 11
128.9920515172
 21
176.03
  0
LINE
  5
4D4
100
AcDbEntity
  8
0
100
AcDbLine
 62
7
  6
CONTINUOUS
 10
320.3798394565
 20
151.2631982746
 11
316.4290860941
 21
151.8889361348
  0
LINE
  5
4D5
100
AcDbEntity
  8
0
100
AcDbLine
 62
7
  6
CONTINUOUS
 10
285.6029047167
 20
128.53
 11
285.6029047167
 21
129.03
  0
LINE
  5
4D6
100
AcDbEntity
  8
0
100
AcDbLine
 62
7
  6
CONTINUOUS
 10
285.8529044783
 20
128.53
 11
285.8529044783
 21
129.03
  0
LINE
  5
4D7
100
AcDbEntity
  8
0
100
AcDbLine
 62
7
  6
CONTINUOUS
 10
286.6029044783
 20
128.53
 11
286.6029044783
 21
129.03
  0
LINE
  5
4D8
100
AcDbEntity
  8
0
100
AcDbLine
 62
7
  6
CONTINUOUS
 10
287.6029042399
 20
128.53
 11
287.6029042399
 21
129.03
  0
LINE
  5
4D9
100
AcDbEntity
  8
0
100
AcDbLine
 62
7
  6
CONTINUOUS
 10
288.8529044783
 20
128.53
 11
288.8529044783
 21
129.03
  0
LINE
  5
4DA
100
AcDbEntity
  8
0
100
AcDbLine
 62
7
  6
CONTINUOUS
 10
294.8529044783
 20
128.53
 11
294.8529044783
 21
129.03
  0
LINE
  5
4DB
100
AcDbEntity
  8
KONSTRUKTIONSELEMENTE
100
AcDbLine
 62
7
  6
CONTINUOUS
 10
278.9920515172
 20
56.03
 11
272.6411985561
 21
45.03
  0
LINE
  5
4DC
100
AcDbEntity
  8
RUNDUNGEN
100
AcDbLine
 62
7
  6
CONTINUOUS
 10
362.1297010427
 20
185.03
 11
338.5391857313
 21
185.03
  0
LINE
  5
4DD
100
AcDbEntity
  8
RUNDUNGEN
100
AcDbLine
 62
7
  6
CONTINUOUS
 10
82.1466232253
 20
185.03
 11
58.5561079139
 21
185.03
  0
LINE
  5
4DE
100
AcDbEntity
  8
0
100
AcDbLine
 62
7
  6
CONTINUOUS
 10
362.1297010427
 20
189.03
 11
338.5391857313
 21
189.03
  0
LINE
  5
4DF
100
AcDbEntity
  8
0
100
AcDbLine
 62
7
  6
CONTINUOUS
 10
58.5561079139
 20
189.03
 11
82.1466232253
 21
189.03
  0
LINE
  5
4E0
100
AcDbEntity
  8
KONSTRUKTIONSELEMENTE
100
AcDbLine
 62
7
  6
CONTINUOUS
 10
272.6411985561
 20
165.03
 11
278.9920515172
 21
154.03
  0
LINE
  5
4E1
100
AcDbEntity
  8
0
100
AcDbLine
 62
7
  6
CONTINUOUS
 10
319.77310726
 20
173.0022548358
 11
316.4290860941
 21
151.8889361348
  0
LINE
  5
4E2
100
AcDbEntity
  8
RUNDUNGEN
100
AcDbLine
 62
7
  6
CONTINUOUS
 10
323.7238606223
 20
172.3765169756
 11
320.3798220212
 21
151.2630881925
  0
LINE
  5
4E3
100
AcDbEntity
  8
KONSTRUKTIONSELEMENTE
100
AcDbLine
 62
7
  6
CONTINUOUS
 10
410.3429044783
 20
195.03
 11
10.3429044783
 21
195.03
  0
LINE
  5
4E4
100
AcDbEntity
  8
0
100
AcDbLine
 62
7
  6
CONTINUOUS
 10
319.77310726
 20
37.0577451642
 11
316.4290860941
 21
58.1710638652
  0
LINE
  5
4E5
100
AcDbEntity
  8
RUNDUNGEN
100
AcDbLine
 62
7
  6
CONTINUOUS
 10
320.379822037
 20
58.7969117075
 11
323.7238606223
 21
37.6834830244
  0
LINE
  5
4E6
100
AcDbEntity
  8
0
100
AcDbLine
 62
7
  6
CONTINUOUS
 10
320.3798385103
 20
58.7968076993
 11
320.379822037
 21
58.7969117075
  0
LINE
  5
4E7
100
AcDbEntity
  8
RUNDUNGEN
100
AcDbLine
 62
7
  6
CONTINUOUS
 10
317.1743545329
 20
92.03
 11
317.1743545329
 21
118.03
  0
LINE
  5
4E8
100
AcDbEntity
  8
RUNDUNGEN
100
AcDbLine
 62
7
  6
CONTINUOUS
 10
320.3429044783
 20
59.2661051205
 11
320.3429044783
 21
150.7937810545
  0
LINE
  5
4E9
100
AcDbEntity
  8
KONSTRUKTIONSELEMENTE
100
AcDbLine
 62
7
  6
CONTINUOUS
 10
291.6937574394
 20
34.03
 11
298.0446104005
 21
45.03
  0
LINE
  5
4EA
100
AcDbEntity
  8
KONSTRUKTIONSELEMENTE
100
AcDbLine
 62
7
  6
CONTINUOUS
 10
410.3429044783
 20
145.03
 11
405.3429044783
 21
140.03
  0
LINE
  5
4EB
100
AcDbEntity
  8
KONSTRUKTIONSELEMENTE
100
AcDbLine
 62
7
  6
CONTINUOUS
 10
405.3429044783
 20
70.03
 11
410.3429044783
 21
65.03
  0
LINE
  5
4EC
100
AcDbEntity
  8
KONSTRUKTIONSELEMENTE
100
AcDbLine
 62
7
  6
CONTINUOUS
 10
298.0446104005
 20
165.03
 11
291.6937574394
 21
176.03
  0
LINE
  5
4ED
100
AcDbEntity
  8
RUNDUNGEN
100
AcDbLine
 62
7
  6
CONTINUOUS
 10
372.7363027605
 20
29.4233982822
 11
400.3429044783
 21
57.03
  0
LINE
  5
4EE
100
AcDbEntity
  8
0
100
AcDbLine
 62
7
  6
CONTINUOUS
 10
404.3429044783
 20
55.3731457505
 11
375.5647298852
 21
26.5949711575
  0
LINE
  5
4EF
100
AcDbEntity
  8
RUNDUNGEN
100
AcDbLine
 62
7
  6
CONTINUOUS
 10
400.3429044783
 20
153.03
 11
372.7363027605
 21
180.6366017178
  0
LINE
  5
4F0
100
AcDbEntity
  8
0
100
AcDbLine
 62
7
  6
CONTINUOUS
 10
404.3429044783
 20
154.6868542495
 11
375.5647298852
 21
183.4650288425
  0
LINE
  5
4F1
100
AcDbEntity
  8
RUNDUNGEN
100
AcDbLine
 62
7
  6
CONTINUOUS
 10
400.3429044783
 20
57.03
 11
400.3429044783
 21
153.03
  0
LINE
  5
4F2
100
AcDbEntity
  8
0
100
AcDbLine
 62
7
  6
CONTINUOUS
 10
404.3429044783
 20
75.03
 11
404.3429044783
 21
55.3731457505
  0
LINE
  5
4F3
100
AcDbEntity
  8
0
100
AcDbLine
 62
7
  6
CONTINUOUS
 10
404.3429044783
 20
135.03
 11
404.3429044783
 21
154.6868542495
  0
LINE
  5
4F4
100
AcDbEntity
  8
KONSTRUKTIONSELEMENTE
100
AcDbLine
 62
7
  6
CONTINUOUS
 10
405.3429044783
 20
140.03
 11
405.3429044783
 21
70.03
  0
LINE
  5
4F5
100
AcDbEntity
  8
KONSTRUKTIONSELEMENTE
100
AcDbLine
 62
7
  6
CONTINUOUS
 10
410.3429044783
 20
15.03
 11
410.3429044783
 21
65.03
  0
LINE
  5
4F6
100
AcDbEntity
  8
KONSTRUKTIONSELEMENTE
100
AcDbLine
 62
7
  6
CONTINUOUS
 10
410.3429044783
 20
145.03
 11
410.3429044783
 21
195.03
  0
ARC
  5
4F7
100
AcDbEntity
  8
RUNDUNGEN
100
AcDbCircle
 62
7
  6
CONTINUOUS
 10
44.537888285
 20
408.9367904143
 40
20.0
100
AcDbArc
 50
99.0
 51
171.0
  0
ARC
  5
4F8
100
AcDbEntity
  8
RUNDUNGEN
100
AcDbCircle
 62
7
  6
CONTINUOUS
 10
99.5755948259
 20
413.2005738968
 40
10.0
100
AcDbArc
 50
351.9999674317
 51
6.0000540173
  0
ARC
  5
4F9
100
AcDbEntity
  8
RUNDUNGEN
100
AcDbCircle
 62
7
  6
CONTINUOUS
 10
92.3429044783
 20
428.6579426583
 40
8.0
100
AcDbArc
 50
0.0
 51
99.0
  0
ARC
  5
4FA
100
AcDbEntity
  8
BEZUGSACHSEN
100
AcDbCircle
 62
7
  6
CONTINUOUS
 10
111.5114544237
 20
471.8403558122
 40
8.0
100
AcDbArc
 50
182.4375000009
 51
186.0000000011
  0
ARC
  5
4FB
100
AcDbEntity
  8
RUNDUNGEN
100
AcDbCircle
 62
7
  6
CONTINUOUS
 10
111.5114544237
 20
471.8403558122
 40
8.0
100
AcDbArc
 50
157.5
 51
186.0
  0
ARC
  5
4FC
100
AcDbEntity
  8
BEZUGSACHSEN
100
AcDbCircle
 62
7
  6
CONTINUOUS
 10
104.5165129823
 20
414.0247389863
 40
4.9999999641
100
AcDbArc
 50
269.9999997581
 51
2.5300102583
  0
ARC
  5
4FD
100
AcDbEntity
  8
RUNDUNGEN
100
AcDbCircle
 62
7
  6
CONTINUOUS
 10
140.8054138092
 20
542.5622298563
 40
8.0
100
AcDbArc
 50
112.5
 51
157.5
  0
ARC
  5
4FE
100
AcDbEntity
  8
0
100
AcDbCircle
 62
7
  6
CONTINUOUS
 10
210.3429044783
 20
473.0247391872
 40
67.7084973779
100
AcDbArc
 50
243.3536086044
 51
296.646391237
  0
ARC
  5
4FF
100
AcDbEntity
  8
BEZUGSACHSEN
100
AcDbCircle
 62
7
  6
CONTINUOUS
 10
210.3429044783
 20
473.0247391872
 40
65.0
100
AcDbArc
 50
235.6897771979
 51
243.3535835065
  0
CIRCLE
  5
500
100
AcDbEntity
  8
RUNDUNGEN
100
AcDbCircle
 62
7
  6
CONTINUOUS
 10
210.3429044783
 20
473.0247391872
 40
65.0
  0
ARC
  5
501
100
AcDbEntity
  8
RUNDUNGEN
100
AcDbCircle
 62
7
  6
CONTINUOUS
 10
376.1479206716
 20
408.9367904143
 40
20.0
100
AcDbArc
 50
9.0
 51
81.0
  0
ARC
  5
502
100
AcDbEntity
  8
RUNDUNGEN
100
AcDbCircle
 62
7
  6
CONTINUOUS
 10
321.1102141307
 20
413.2005738968
 40
10.0
100
AcDbArc
 50
173.9999459587
 51
188.000032655
  0
ARC
  5
503
100
AcDbEntity
  8
RUNDUNGEN
100
AcDbCircle
 62
7
  6
CONTINUOUS
 10
328.3429044783
 20
428.6579426583
 40
8.0
100
AcDbArc
 50
81.0
 51
180.0
  0
ARC
  5
504
100
AcDbEntity
  8
BEZUGSACHSEN
100
AcDbCircle
 62
7
  6
CONTINUOUS
 10
316.1692959763
 20
414.0247390056
 40
4.9999999676
100
AcDbArc
 50
177.4699802143
 51
270.0000002187
  0
ARC
  5
505
100
AcDbEntity
  8
BEZUGSACHSEN
100
AcDbCircle
 62
7
  6
CONTINUOUS
 10
309.1743545329
 20
471.8403558122
 40
8.0
100
AcDbArc
 50
353.9999999989
 51
357.5624999991
  0
ARC
  5
506
100
AcDbEntity
  8
RUNDUNGEN
100
AcDbCircle
 62
7
  6
CONTINUOUS
 10
309.1743545329
 20
471.8403558122
 40
8.0
100
AcDbArc
 50
354.0
 51
22.5
  0
ARC
  5
507
100
AcDbEntity
  8
RUNDUNGEN
100
AcDbCircle
 62
7
  6
CONTINUOUS
 10
279.8803951474
 20
542.5622298563
 40
8.0
100
AcDbArc
 50
22.5
 51
67.5
  0
ARC
  5
508
100
AcDbEntity
  8
RUNDUNGEN
100
AcDbCircle
 62
7
  6
CONTINUOUS
 10
210.3429044783
 20
571.3656015848
 40
8.0
100
AcDbArc
 50
67.5
 51
112.5
  0
ARC
  5
509
100
AcDbEntity
  8
RUNDUNGEN
100
AcDbCircle
 62
7
  6
CONTINUOUS
 10
549.9441523425
 20
398.6054095813
 40
14.6900936817
100
AcDbArc
 50
159.6867809738
 51
160.0919595497
  0
ARC
  5
50A
100
AcDbEntity
  8
RUNDUNGEN
100
AcDbCircle
 62
7
  6
CONTINUOUS
 10
549.8840544891
 20
398.6278457253
 40
14.6259446301
100
AcDbArc
 50
158.2320985298
 51
159.6874771874
  0
ARC
  5
50B
100
AcDbEntity
  8
RUNDUNGEN
100
AcDbCircle
 62
7
  6
CONTINUOUS
 10
526.8522778184
 20
407.351025021
 40
10.0
100
AcDbArc
 50
300.0
 51
338.6248328731
  0
ARC
  5
50C
100
AcDbEntity
  8
RUNDUNGEN
100
AcDbCircle
 62
7
  6
CONTINUOUS
 10
514.4499656024
 20
379.4059370337
 40
8.0
100
AcDbArc
 50
120.0
 51
180.0
  0
ARC
  5
50D
100
AcDbEntity
  8
B-ACHSEN
100
AcDbCircle
 62
7
  6
CONTINUOUS
 10
569.4499656024
 20
372.0247391872
 40
3.0
100
AcDbArc
 50
90.0
 51
180.0
  0
ARC
  5
50E
100
AcDbEntity
  8
B-ACHSEN
100
AcDbCircle
 62
7
  6
CONTINUOUS
 10
563.4499656024
 20
369.0247391872
 40
3.0
100
AcDbArc
 50
270.0
 51
360.0
  0
ARC
  5
50F
100
AcDbEntity
  8
0
100
AcDbCircle
 62
7
  6
CONTINUOUS
 10
559.4499656024
 20
363.0247391872
 40
3.0
100
AcDbArc
 50
90.0
 51
180.0
  0
ARC
  5
510
100
AcDbEntity
  8
BEZUGSACHSEN
100
AcDbCircle
 62
8
  6
HIDDEN
 10
573.4499656024
 20
546.0247391872
 40
8.0
100
AcDbArc
 50
180.0
 51
270.0
  0
ARC
  5
511
100
AcDbEntity
  8
BEZUGSACHSEN
100
AcDbCircle
 62
7
  6
CONTINUOUS
 10
573.4499656024
 20
571.3656015848
 40
8.0
100
AcDbArc
 50
90.0
 51
180.0
  0
ARC
  5
512
100
AcDbEntity
  8
RUNDUNGEN
100
AcDbCircle
 62
7
  6
CONTINUOUS
 10
586.4499656024
 20
384.0247391872
 40
54.0
100
AcDbArc
 50
21.3751671269
 51
76.7056903397
  0
ARC
  5
513
100
AcDbEntity
  8
RUNDUNGEN
100
AcDbCircle
 62
7
  6
CONTINUOUS
 10
586.4499656024
 20
384.0247391872
 40
54.0
100
AcDbArc
 50
103.2943422935
 51
158.6248328731
  0
ARC
  5
514
100
AcDbEntity
  8
0
100
AcDbCircle
 62
7
  6
CONTINUOUS
 10
613.4499656024
 20
363.0247391872
 40
3.0
100
AcDbArc
 50
0.0
 51
90.0
  0
ARC
  5
515
100
AcDbEntity
  8
B-ACHSEN
100
AcDbCircle
 62
7
  6
CONTINUOUS
 10
609.4499656024
 20
369.0247391872
 40
3.0
100
AcDbArc
 50
180.0
 51
270.0
  0
ARC
  5
516
100
AcDbEntity
  8
B-ACHSEN
100
AcDbCircle
 62
7
  6
CONTINUOUS
 10
603.4499656024
 20
372.0247391872
 40
3.0
100
AcDbArc
 50
0.0
 51
90.0
  0
ARC
  5
517
100
AcDbEntity
  8
BEZUGSACHSEN
100
AcDbCircle
 62
7
  6
CONTINUOUS
 10
586.4499656024
 20
386.5247391872
 40
23.5
100
AcDbArc
 50
213.5353316096
 51
326.4646683904
  0
ARC
  5
518
100
AcDbEntity
  8
BEZUGSACHSEN
100
AcDbCircle
 62
7
  6
CONTINUOUS
 10
586.4499656024
 20
386.0247391872
 40
23.0
100
AcDbArc
 50
212.2519134305
 51
327.7480865695
  0
ARC
  5
519
100
AcDbEntity
  8
RUNDUNGEN
100
AcDbCircle
 62
7
  6
CONTINUOUS
 10
658.4499656024
 20
379.4059370337
 40
8.0
100
AcDbArc
 50
0.0
 51
60.0
  0
ARC
  5
51A
100
AcDbEntity
  8
RUNDUNGEN
100
AcDbCircle
 62
7
  6
CONTINUOUS
 10
622.9765094411
 20
398.6130323417
 40
14.6680062682
100
AcDbArc
 50
19.9079928834
 51
20.8381368721
  0
ARC
  5
51B
100
AcDbEntity
  8
RUNDUNGEN
100
AcDbCircle
 62
7
  6
CONTINUOUS
 10
623.0320457562
 20
398.6341639106
 40
14.6085855189
100
AcDbArc
 50
20.8381625626
 51
21.7684518577
  0
ARC
  5
51C
100
AcDbEntity
  8
RUNDUNGEN
100
AcDbCircle
 62
7
  6
CONTINUOUS
 10
646.0476533864
 20
407.351025021
 40
10.0
100
AcDbArc
 50
201.3751671269
 51
240.0
  0
ARC
  5
51D
100
AcDbEntity
  8
RUNDUNGEN
100
AcDbCircle
 62
8
  6
HIDDEN
 10
599.4499656024
 20
546.0247391872
 40
8.0
100
AcDbArc
 50
270.0
 51
360.0
  0
ARC
  5
51E
100
AcDbEntity
  8
RUNDUNGEN
100
AcDbCircle
 62
7
  6
CONTINUOUS
 10
599.4499656024
 20
571.3656015848
 40
8.0
100
AcDbArc
 50
0.0
 51
90.0
  0
CIRCLE
  5
51F
100
AcDbEntity
  8
BEZUGSACHSEN
100
AcDbCircle
 62
7
  6
CONTINUOUS
 10
135.3429044783
 20
45.03
 40
24.0
  0
CIRCLE
  5
520
100
AcDbEntity
  8
KONSTRUKTIONSELEMENTE
100
AcDbCircle
 62
7
  6
CONTINUOUS
 10
135.3429044783
 20
45.03
 40
22.5
  0
ARC
  5
521
100
AcDbEntity
  8
0
100
AcDbCircle
 62
7
  6
CONTINUOUS
 10
58.5561079139
 20
40.03
 40
19.0
100
AcDbArc
 50
225.0
 51
270.0
  0
ARC
  5
522
100
AcDbEntity
  8
0
100
AcDbCircle
 62
7
  6
CONTINUOUS
 10
82.1466232253
 20
40.03
 40
19.0
100
AcDbArc
 50
270.0
 51
351.0
  0
ARC
  5
523
100
AcDbEntity
  8
RUNDUNGEN
100
AcDbCircle
 62
7
  6
CONTINUOUS
 10
82.1466232253
 20
40.03
 40
15.0
100
AcDbArc
 50
270.0
 51
351.0
  0
ARC
  5
524
100
AcDbEntity
  8
RUNDUNGEN
100
AcDbCircle
 62
7
  6
CONTINUOUS
 10
58.5561079139
 20
40.03
 40
15.0
100
AcDbArc
 50
225.0
 51
270.0
  0
ARC
  5
525
100
AcDbEntity
  8
RUNDUNGEN
100
AcDbCircle
 62
7
  6
CONTINUOUS
 10
111.5114746616
 20
92.0300202379
 40
8.0000202379
100
AcDbArc
 50
180.0001449427
 51
269.9998550573
  0
ARC
  5
526
100
AcDbEntity
  8
RUNDUNGEN
100
AcDbCircle
 62
7
  6
CONTINUOUS
 10
174.1826504404
 20
78.53
 40
5.0
100
AcDbArc
 50
90.0
 51
120.0
  0
ARC
  5
527
100
AcDbEntity
  8
RUNDUNGEN
100
AcDbCircle
 62
7
  6
CONTINUOUS
 10
97.3429044783
 20
59.2661051205
 40
3.0
100
AcDbArc
 50
351.0021286291
 51
0.0021738977
  0
CIRCLE
  5
528
100
AcDbEntity
  8
BEZUGSACHSEN
100
AcDbCircle
 62
7
  6
CONTINUOUS
 10
135.3429044783
 20
165.03
 40
24.0
  0
CIRCLE
  5
529
100
AcDbEntity
  8
KONSTRUKTIONSELEMENTE
100
AcDbCircle
 62
7
  6
CONTINUOUS
 10
135.3429044783
 20
165.03
 40
22.5
  0
ARC
  5
52A
100
AcDbEntity
  8
0
100
AcDbCircle
 62
7
  6
CONTINUOUS
 10
82.1466232253
 20
170.03
 40
19.0
100
AcDbArc
 50
9.0
 51
90.0
  0
ARC
  5
52B
100
AcDbEntity
  8
0
100
AcDbCircle
 62
7
  6
CONTINUOUS
 10
58.5561079139
 20
170.03
 40
19.0
100
AcDbArc
 50
90.0
 51
135.0
  0
ARC
  5
52C
100
AcDbEntity
  8
RUNDUNGEN
100
AcDbCircle
 62
7
  6
CONTINUOUS
 10
58.5561079139
 20
170.03
 40
15.0
100
AcDbArc
 50
90.0
 51
135.0
  0
ARC
  5
52D
100
AcDbEntity
  8
RUNDUNGEN
100
AcDbCircle
 62
7
  6
CONTINUOUS
 10
82.1466232253
 20
170.03
 40
15.0
100
AcDbArc
 50
9.0
 51
90.0
  0
ARC
  5
52E
100
AcDbEntity
  8
BEZUGSACHSEN
100
AcDbCircle
 62
7
  6
CONTINUOUS
 10
111.5114746616
 20
118.0299797621
 40
8.0000202379
100
AcDbArc
 50
90.0001449427
 51
179.9998550573
  0
ARC
  5
52F
100
AcDbEntity
  8
BEZUGSACHSEN
100
AcDbCircle
 62
7
  6
CONTINUOUS
 10
174.1826504404
 20
131.53
 40
5.0
100
AcDbArc
 50
240.0
 51
270.0
  0
ARC
  5
530
100
AcDbEntity
  8
RUNDUNGEN
100
AcDbCircle
 62
7
  6
CONTINUOUS
 10
97.3429044783
 20
150.7938948795
 40
3.0
100
AcDbArc
 50
359.9978278773
 51
8.9978733049
  0
CIRCLE
  5
531
100
AcDbEntity
  8
BEZUGSACHSEN
100
AcDbCircle
 62
7
  6
CONTINUOUS
 10
285.3429044783
 20
45.03
 40
24.0
  0
CIRCLE
  5
532
100
AcDbEntity
  8
BEZUGSACHSEN
100
AcDbCircle
 62
7
  6
CONTINUOUS
 10
210.3429044783
 20
45.03
 40
24.0
  0
CIRCLE
  5
533
100
AcDbEntity
  8
KONSTRUKTIONSELEMENTE
100
AcDbCircle
 62
7
  6
CONTINUOUS
 10
210.3429044783
 20
45.03
 40
22.5
  0
CIRCLE
  5
534
100
AcDbEntity
  8
KONSTRUKTIONSELEMENTE
100
AcDbCircle
 62
7
  6
CONTINUOUS
 10
285.3429044783
 20
45.03
 40
22.5
  0
ARC
  5
535
100
AcDbEntity
  8
0
100
AcDbCircle
 62
7
  6
CONTINUOUS
 10
338.5391857313
 20
40.03
 40
19.0
100
AcDbArc
 50
189.0
 51
270.0
  0
ARC
  5
536
100
AcDbEntity
  8
0
100
AcDbCircle
 62
7
  6
CONTINUOUS
 10
362.1297010427
 20
40.03
 40
19.0
100
AcDbArc
 50
270.0
 51
315.0
  0
ARC
  5
537
100
AcDbEntity
  8
RUNDUNGEN
100
AcDbCircle
 62
7
  6
CONTINUOUS
 10
362.1297010427
 20
40.03
 40
15.0
100
AcDbArc
 50
270.0
 51
315.0
  0
ARC
  5
538
100
AcDbEntity
  8
RUNDUNGEN
100
AcDbCircle
 62
7
  6
CONTINUOUS
 10
338.5391857313
 20
40.03
 40
15.0
100
AcDbArc
 50
189.0
 51
270.0
  0
ARC
  5
539
100
AcDbEntity
  8
RUNDUNGEN
100
AcDbCircle
 62
7
  6
CONTINUOUS
 10
309.174334295
 20
92.0300202379
 40
8.0000202379
100
AcDbArc
 50
270.0001449427
 51
359.9998550573
  0
ARC
  5
53A
100
AcDbEntity
  8
RUNDUNGEN
100
AcDbCircle
 62
7
  6
CONTINUOUS
 10
246.5031585161
 20
78.53
 40
5.0
100
AcDbArc
 50
60.0
 51
90.0
  0
ARC
  5
53B
100
AcDbEntity
  8
RUNDUNGEN
100
AcDbCircle
 62
7
  6
CONTINUOUS
 10
323.3429044783
 20
59.2661051205
 40
3.0
100
AcDbArc
 50
179.9978278773
 51
188.9978733049
  0
CIRCLE
  5
53C
100
AcDbEntity
  8
BEZUGSACHSEN
100
AcDbCircle
 62
7
  6
CONTINUOUS
 10
285.3429044783
 20
165.03
 40
24.0
  0
CIRCLE
  5
53D
100
AcDbEntity
  8
BEZUGSACHSEN
100
AcDbCircle
 62
7
  6
CONTINUOUS
 10
210.3429044783
 20
165.03
 40
24.0
  0
CIRCLE
  5
53E
100
AcDbEntity
  8
KONSTRUKTIONSELEMENTE
100
AcDbCircle
 62
7
  6
CONTINUOUS
 10
210.3429044783
 20
165.03
 40
22.5
  0
CIRCLE
  5
53F
100
AcDbEntity
  8
KONSTRUKTIONSELEMENTE
100
AcDbCircle
 62
7
  6
CONTINUOUS
 10
285.3429044783
 20
165.03
 40
22.5
  0
ARC
  5
540
100
AcDbEntity
  8
0
100
AcDbCircle
 62
7
  6
CONTINUOUS
 10
362.1297010427
 20
170.03
 40
19.0
100
AcDbArc
 50
45.0
 51
90.0
  0
ARC
  5
541
100
AcDbEntity
  8
0
100
AcDbCircle
 62
7
  6
CONTINUOUS
 10
338.5391857313
 20
170.03
 40
19.0
100
AcDbArc
 50
90.0
 51
171.0
  0
ARC
  5
542
100
AcDbEntity
  8
RUNDUNGEN
100
AcDbCircle
 62
7
  6
CONTINUOUS
 10
338.5391857313
 20
170.03
 40
15.0
100
AcDbArc
 50
90.0
 51
171.0
  0
ARC
  5
543
100
AcDbEntity
  8
RUNDUNGEN
100
AcDbCircle
 62
7
  6
CONTINUOUS
 10
362.1297010427
 20
170.03
 40
15.0
100
AcDbArc
 50
45.0
 51
90.0
  0
ARC
  5
544
100
AcDbEntity
  8
BEZUGSACHSEN
100
AcDbCircle
 62
7
  6
CONTINUOUS
 10
309.174334295
 20
118.0299797621
 40
8.0000202379
100
AcDbArc
 50
0.0001449427
 51
89.9998550573
  0
ARC
  5
545
100
AcDbEntity
  8
BEZUGSACHSEN
100
AcDbCircle
 62
7
  6
CONTINUOUS
 10
246.5031585161
 20
131.53
 40
5.0
100
AcDbArc
 50
270.0
 51
300.0
  0
CIRCLE
  5
546
100
AcDbEntity
  8
BEZUGSACHSEN
100
AcDbCircle
 62
7
  6
CONTINUOUS
 10
247.8429044783
 20
165.03
 40
4.0
  0
ARC
  5
547
100
AcDbEntity
  8
RUNDUNGEN
100
AcDbCircle
 62
7
  6
CONTINUOUS
 10
323.3429044783
 20
150.7938948795
 40
3.0
100
AcDbArc
 50
171.0021286291
 51
180.0021738977
  0
SPLINE
  5
548
100
AcDbEntity
  8
0
100
AcDbSpline
 62
7
  6
CONTINUOUS
 70
0
 71
3
 72
8
 73
4
 74
0
 42
0.0000001
 43
0.0000001
 44
0.0000000001
 40
0.0
 40
0.0
 40
0.0
 40
0.0
 40
1.0
 40
1.0
 40
1.0
 40
1.0
 10
228.5533596873
 20
384.9901160113
 30
0.0
 10
228.5533596873
 20
383.944630634
 30
0.0
 10
228.6293928027
 20
383.2413039766
 30
0.0
 10
228.7964747175
 20
382.8594025243
 30
0.0
  0
SPLINE
  5
549
100
AcDbEntity
  8
0
100
AcDbSpline
 62
7
  6
CONTINUOUS
 70
0
 71
3
 72
8
 73
4
 74
0
 42
0.0000001
 43
0.0000001
 44
0.0000000001
 40
0.0
 40
0.0
 40
0.0
 40
0.0
 40
1.0
 40
1.0
 40
1.0
 40
1.0
 10
228.7964747175
 20
382.8594025243
 30
0.0
 10
228.9620472789
 20
382.4809510223
 30
0.0
 10
229.2851988673
 20
382.1958186123
 30
0.0
 10
229.7683199715
 20
382.0110954577
 30
0.0
  0
SPLINE
  5
54A
100
AcDbEntity
  8
0
100
AcDbSpline
 62
7
  6
CONTINUOUS
 70
0
 71
3
 72
8
 73
4
 74
0
 42
0.0000001
 43
0.0000001
 44
0.0000000001
 40
0.0
 40
0.0
 40
0.0
 40
0.0
 40
1.0
 40
1.0
 40
1.0
 40
1.0
 10
229.7683199715
 20
382.0110954577
 30
0.0
 10
230.2546469569
 20
381.8251465223
 30
0.0
 10
230.8059045672
 20
381.73010239
 30
0.0
 10
231.4141861796
 20
381.73010239
 30
0.0
  0
SPLINE
  5
54B
100
AcDbEntity
  8
0
100
AcDbSpline
 62
7
  6
CONTINUOUS
 70
0
 71
3
 72
8
 73
4
 74
0
 42
0.0000001
 43
0.0000001
 44
0.0000000001
 40
0.0
 40
0.0
 40
0.0
 40
0.0
 40
1.0
 40
1.0
 40
1.0
 40
1.0
 10
231.4141861796
 20
381.73010239
 30
0.0
 10
231.7943617701
 20
381.73010239
 30
0.0
 10
232.3076011538
 20
381.7586156428
 30
0.0
 10
232.9634072184
 20
381.8156421091
 30
0.0
  0
SPLINE
  5
54C
100
AcDbEntity
  8
0
100
AcDbSpline
 62
7
  6
CONTINUOUS
 70
0
 71
3
 72
8
 73
4
 74
0
 42
0.0000001
 43
0.0000001
 44
0.0000000001
 40
0.0
 40
0.0
 40
0.0
 40
0.0
 40
1.0
 40
1.0
 40
1.0
 40
1.0
 10
232.9634072184
 20
383.8590908758
 30
0.0
 10
232.64025563
 20
383.9731438867
 30
0.0
 10
232.4026467204
 20
384.0396747403
 30
0.0
 10
232.2409024857
 20
384.0570933123
 30
0.0
  0
SPLINE
  5
54D
100
AcDbEntity
  8
0
100
AcDbSpline
 62
7
  6
CONTINUOUS
 70
0
 71
3
 72
8
 73
4
 74
0
 42
0.0000001
 43
0.0000001
 44
0.0000000001
 40
0.0
 40
0.0
 40
0.0
 40
0.0
 40
1.0
 40
1.0
 40
1.0
 40
1.0
 10
232.2409024857
 20
384.0570933123
 30
0.0
 10
231.7848588824
 20
384.1062055938
 30
0.0
 10
231.5092317462
 20
384.191745352
 30
0.0
 10
231.4141872159
 20
384.3057990178
 30
0.0
  0
SPLINE
  5
54E
100
AcDbEntity
  8
0
100
AcDbSpline
 62
7
  6
CONTINUOUS
 70
0
 71
3
 72
8
 73
4
 74
0
 42
0.0000001
 43
0.0000001
 44
0.0000000001
 40
0.0
 40
0.0
 40
0.0
 40
0.0
 40
1.0
 40
1.0
 40
1.0
 40
1.0
 10
231.4141872159
 20
384.3057990178
 30
0.0
 10
231.3191439509
 20
384.4198511652
 30
0.0
 10
231.2716194987
 20
384.6479571871
 30
0.0
 10
231.2716194987
 20
385.0091247074
 30
0.0
  0
SPLINE
  5
54F
100
AcDbEntity
  8
0
100
AcDbSpline
 62
7
  6
CONTINUOUS
 70
0
 71
3
 72
8
 73
4
 74
0
 42
0.0000001
 43
0.0000001
 44
0.0000000001
 40
0.0
 40
0.0
 40
0.0
 40
0.0
 40
1.0
 40
1.0
 40
1.0
 40
1.0
 10
217.9559381961
 20
382.6330223914
 30
0.0
 10
218.7353011966
 20
382.0247391872
 30
0.0
 10
219.7427675128
 20
381.73010239
 30
0.0
 10
220.9878460765
 20
381.73010239
 30
0.0
  0
SPLINE
  5
550
100
AcDbEntity
  8
0
100
AcDbSpline
 62
7
  6
CONTINUOUS
 70
0
 71
3
 72
8
 73
4
 74
0
 42
0.0000001
 43
0.0000001
 44
0.0000000001
 40
0.0
 40
0.0
 40
0.0
 40
0.0
 40
1.0
 40
1.0
 40
1.0
 40
1.0
 10
220.9878460765
 20
381.73010239
 30
0.0
 10
222.4705335498
 20
381.73010239
 30
0.0
 10
223.6585847735
 20
382.1863141991
 30
0.0
 10
224.5329906214
 20
383.1177466298
 30
0.0
  0
SPLINE
  5
551
100
AcDbEntity
  8
0
100
AcDbSpline
 62
7
  6
CONTINUOUS
 70
0
 71
3
 72
8
 73
4
 74
0
 42
0.0000001
 43
0.0000001
 44
0.0000000001
 40
0.0
 40
0.0
 40
0.0
 40
0.0
 40
1.0
 40
1.0
 40
1.0
 40
1.0
 10
224.5329906214
 20
383.1177466298
 30
0.0
 10
225.4073964953
 20
384.0491790883
 30
0.0
 10
225.8541056514
 20
385.2372307293
 30
0.0
 10
225.8541056514
 20
386.7009101323
 30
0.0
  0
SPLINE
  5
552
100
AcDbEntity
  8
0
100
AcDbSpline
 62
7
  6
CONTINUOUS
 70
0
 71
3
 72
8
 73
4
 74
0
 42
0.0000001
 43
0.0000001
 44
0.0000000001
 40
0.0
 40
0.0
 40
0.0
 40
0.0
 40
1.0
 40
1.0
 40
1.0
 40
1.0
 10
225.8541056514
 20
386.7009101323
 30
0.0
 10
225.8541056514
 20
388.0220234804
 30
0.0
 10
225.4549209475
 20
389.0770134143
 30
0.0
 10
224.6755579613
 20
389.8753851215
 30
0.0
  0
SPLINE
  5
553
100
AcDbEntity
  8
0
100
AcDbSpline
 62
7
  6
CONTINUOUS
 70
0
 71
3
 72
8
 73
4
 74
0
 42
0.0000001
 43
0.0000001
 44
0.0000000001
 40
0.0
 40
0.0
 40
0.0
 40
0.0
 40
1.0
 40
1.0
 40
1.0
 40
1.0
 10
224.6755579613
 20
389.8753851215
 30
0.0
 10
223.896197021
 20
390.673754733
 30
0.0
 10
222.8982335925
 20
391.0729402713
 30
0.0
 10
221.6911732554
 20
391.0729402713
 30
0.0
  0
SPLINE
  5
554
100
AcDbEntity
  8
0
100
AcDbSpline
 62
7
  6
CONTINUOUS
 70
0
 71
3
 72
8
 73
4
 74
0
 42
0.0000001
 43
0.0000001
 44
0.0000000001
 40
0.0
 40
0.0
 40
0.0
 40
0.0
 40
1.0
 40
1.0
 40
1.0
 40
1.0
 10
221.6911732554
 20
391.0729402713
 30
0.0
 10
220.8357765078
 20
391.0729402713
 30
0.0
 10
220.0279008746
 20
390.8163205795
 30
0.0
 10
219.2675463557
 20
390.3030828647
 30
0.0
  0
SPLINE
  5
555
100
AcDbEntity
  8
0
100
AcDbSpline
 62
7
  6
CONTINUOUS
 70
0
 71
3
 72
8
 73
4
 74
0
 42
0.0000001
 43
0.0000001
 44
0.0000000001
 40
0.0
 40
0.0
 40
0.0
 40
0.0
 40
1.0
 40
1.0
 40
1.0
 40
1.0
 10
219.2200252414
 20
387.9174750261
 30
0.0
 10
219.733264625
 20
388.5067487768
 30
0.0
 10
220.3605553508
 20
388.8108900003
 30
0.0
 10
221.1114036441
 20
388.8108900003
 30
0.0
  0
SPLINE
  5
556
100
AcDbEntity
  8
0
100
AcDbSpline
 62
7
  6
CONTINUOUS
 70
0
 71
3
 72
8
 73
4
 74
0
 42
0.0000001
 43
0.0000001
 44
0.0000000001
 40
0.0
 40
0.0
 40
0.0
 40
0.0
 40
1.0
 40
1.0
 40
1.0
 40
1.0
 10
221.1114036441
 20
388.8108900003
 30
0.0
 10
222.4325153231
 20
388.8108900003
 30
0.0
 10
223.0978242755
 20
388.0030147843
 30
0.0
 10
223.0978242755
 20
386.3967689089
 30
0.0
  0
SPLINE
  5
557
100
AcDbEntity
  8
0
100
AcDbSpline
 62
7
  6
CONTINUOUS
 70
0
 71
3
 72
8
 73
4
 74
0
 42
0.0000001
 43
0.0000001
 44
0.0000000001
 40
0.0
 40
0.0
 40
0.0
 40
0.0
 40
1.0
 40
1.0
 40
1.0
 40
1.0
 10
223.0978242755
 20
386.3967689089
 30
0.0
 10
223.0978242755
 20
385.6174073629
 30
0.0
 10
222.8982335925
 20
385.0186292641
 30
0.0
 10
222.5109300294
 20
384.6077105707
 30
0.0
  0
SPLINE
  5
558
100
AcDbEntity
  8
0
100
AcDbSpline
 62
7
  6
CONTINUOUS
 70
0
 71
3
 72
8
 73
4
 74
0
 42
0.0000001
 43
0.0000001
 44
0.0000000001
 40
0.0
 40
0.0
 40
0.0
 40
0.0
 40
1.0
 40
1.0
 40
1.0
 40
1.0
 10
222.5109300294
 20
384.6077105707
 30
0.0
 10
222.1188699603
 20
384.191745352
 30
0.0
 10
221.6341459155
 20
383.9921525828
 30
0.0
 10
221.0543763041
 20
383.9921525828
 30
0.0
  0
SPLINE
  5
559
100
AcDbEntity
  8
0
100
AcDbSpline
 62
7
  6
CONTINUOUS
 70
0
 71
3
 72
8
 73
4
 74
0
 42
0.0000001
 43
0.0000001
 44
0.0000000001
 40
0.0
 40
0.0
 40
0.0
 40
0.0
 40
1.0
 40
1.0
 40
1.0
 40
1.0
 10
221.0543763041
 20
383.9921525828
 30
0.0
 10
220.5601460337
 20
383.9921525828
 30
0.0
 10
220.1799704432
 20
384.1062055938
 30
0.0
 10
219.901999879
 20
384.3506287446
 30
0.0
  0
SPLINE
  5
55A
100
AcDbEntity
  8
0
100
AcDbSpline
 62
7
  6
CONTINUOUS
 70
0
 71
3
 72
8
 73
4
 74
0
 42
0.0000001
 43
0.0000001
 44
0.0000000001
 40
0.0
 40
0.0
 40
0.0
 40
0.0
 40
1.0
 40
1.0
 40
1.0
 40
1.0
 10
219.901999879
 20
384.3506287446
 30
0.0
 10
219.6287161708
 20
384.5909306816
 30
0.0
 10
219.3816010356
 20
385.0471425168
 30
0.0
 10
219.1629979014
 20
385.7124512605
 30
0.0
  0
SPLINE
  5
55B
100
AcDbEntity
  8
0
100
AcDbSpline
 62
7
  6
CONTINUOUS
 70
0
 71
3
 72
8
 73
4
 74
0
 42
0.0000001
 43
0.0000001
 44
0.0000000001
 40
0.0
 40
0.0
 40
0.0
 40
0.0
 40
1.0
 40
1.0
 40
1.0
 40
1.0
 10
216.4067198634
 20
385.7124512605
 30
0.0
 10
216.6633378863
 20
384.2677805535
 30
0.0
 10
217.17657727
 20
383.2413039766
 30
0.0
 10
217.9559381961
 20
382.6330223914
 30
0.0
  0
SPLINE
  5
55C
100
AcDbEntity
  8
0
100
AcDbSpline
 62
7
  6
CONTINUOUS
 70
0
 71
3
 72
8
 73
4
 74
0
 42
0.0000001
 43
0.0000001
 44
0.0000000001
 40
0.0
 40
0.0
 40
0.0
 40
0.0
 40
1.0
 40
1.0
 40
1.0
 40
1.0
 10
212.5859448313
 20
381.8156421091
 30
0.0
 10
212.5479266047
 20
380.8652007989
 30
0.0
 10
212.03468889
 20
380.1998918466
 30
0.0
 10
211.0367254615
 20
379.8197154216
 30
0.0
  0
SPLINE
  5
55D
100
AcDbEntity
  8
0
100
AcDbSpline
 62
7
  6
CONTINUOUS
 70
0
 71
3
 72
8
 73
4
 74
0
 42
0.0000001
 43
0.0000001
 44
0.0000000001
 40
0.0
 40
0.0
 40
0.0
 40
0.0
 40
1.0
 40
1.0
 40
1.0
 40
1.0
 10
211.0367254615
 20
378.7362124435
 30
0.0
 10
212.9376084208
 20
379.1353977732
 30
0.0
 10
213.888049066
 20
380.3139448575
 30
0.0
 10
213.888049066
 20
382.2718539312
 30
0.0
  0
SPLINE
  5
55E
100
AcDbEntity
  8
0
100
AcDbSpline
 62
7
  6
CONTINUOUS
 70
0
 71
3
 72
8
 73
4
 74
0
 42
0.0000001
 43
0.0000001
 44
0.0000000001
 40
0.0
 40
0.0
 40
0.0
 40
0.0
 40
1.0
 40
1.0
 40
1.0
 40
1.0
 10
203.5757619738
 20
395.5495188646
 30
0.0
 10
203.4236907363
 20
394.8937144689
 30
0.0
 10
203.2240983844
 20
394.4279978685
 30
0.0
 10
202.9579745818
 20
394.1428649249
 30
0.0
  0
SPLINE
  5
55F
100
AcDbEntity
  8
0
100
AcDbSpline
 62
7
  6
CONTINUOUS
 70
0
 71
3
 72
8
 73
4
 74
0
 42
0.0000001
 43
0.0000001
 44
0.0000000001
 40
0.0
 40
0.0
 40
0.0
 40
0.0
 40
1.0
 40
1.0
 40
1.0
 40
1.0
 10
202.9579745818
 20
394.1428649249
 30
0.0
 10
202.6918515563
 20
393.8577328138
 30
0.0
 10
202.3496925235
 20
393.6296267919
 30
0.0
 10
201.9331507149
 20
393.4639566033
 30
0.0
  0
SPLINE
  5
560
100
AcDbEntity
  8
0
100
AcDbSpline
 62
7
  6
CONTINUOUS
 70
0
 71
3
 72
8
 73
4
 74
0
 42
0.0000001
 43
0.0000001
 44
0.0000000001
 40
0.0
 40
0.0
 40
0.0
 40
0.0
 40
1.0
 40
1.0
 40
1.0
 40
1.0
 10
201.9331507149
 20
393.4639566033
 30
0.0
 10
201.5133048892
 20
393.2969723157
 30
0.0
 10
200.8194822669
 20
393.2209375314
 30
0.0
 10
199.8500316739
 20
393.2209375314
 30
0.0
  0
SPLINE
  5
561
100
AcDbEntity
  8
0
100
AcDbSpline
 62
7
  6
CONTINUOUS
 70
0
 71
3
 72
8
 73
4
 74
0
 42
0.0000001
 43
0.0000001
 44
0.0000000001
 40
0.0
 40
0.0
 40
0.0
 40
0.0
 40
1.0
 40
1.0
 40
1.0
 40
1.0
 10
188.3306836188
 20
383.6024717055
 30
0.0
 10
188.7298689484
 20
382.9751804582
 30
0.0
 10
189.2811248898
 20
382.4999598227
 30
0.0
 10
189.9749470973
 20
382.1958186178
 30
0.0
  0
SPLINE
  5
562
100
AcDbEntity
  8
0
100
AcDbSpline
 62
7
  6
CONTINUOUS
 70
0
 71
3
 72
8
 73
4
 74
0
 42
0.0000001
 43
0.0000001
 44
0.0000000001
 40
0.0
 40
0.0
 40
0.0
 40
0.0
 40
1.0
 40
1.0
 40
1.0
 40
1.0
 10
189.9749470973
 20
382.1958186178
 30
0.0
 10
190.6687693
 20
381.891677415
 30
0.0
 10
191.448130846
 20
381.73010239
 30
0.0
 10
192.3035280108
 20
381.73010239
 30
0.0
  0
SPLINE
  5
563
100
AcDbEntity
  8
0
100
AcDbSpline
 62
7
  6
CONTINUOUS
 70
0
 71
3
 72
8
 73
4
 74
0
 42
0.0000001
 43
0.0000001
 44
0.0000000001
 40
0.0
 40
0.0
 40
0.0
 40
0.0
 40
1.0
 40
1.0
 40
1.0
 40
1.0
 10
192.3035280108
 20
381.73010239
 30
0.0
 10
193.7291902303
 20
381.73010239
 30
0.0
 10
194.8697199225
 20
382.138792146
 30
0.0
 10
195.7274885314
 20
382.9727338287
 30
0.0
  0
SPLINE
  5
564
100
AcDbEntity
  8
0
100
AcDbSpline
 62
7
  6
CONTINUOUS
 70
0
 71
3
 72
8
 73
4
 74
0
 42
0.0000001
 43
0.0000001
 44
0.0000000001
 40
0.0
 40
0.0
 40
0.0
 40
0.0
 40
1.0
 40
1.0
 40
1.0
 40
1.0
 10
195.7274885314
 20
382.9727338287
 30
0.0
 10
196.5805142522
 20
383.8020643703
 30
0.0
 10
197.008212626
 20
384.8570540957
 30
0.0
 10
197.008212626
 20
386.1401500515
 30
0.0
  0
SPLINE
  5
565
100
AcDbEntity
  8
0
100
AcDbSpline
 62
7
  6
CONTINUOUS
 70
0
 71
3
 72
8
 73
4
 74
0
 42
0.0000001
 43
0.0000001
 44
0.0000000001
 40
0.0
 40
0.0
 40
0.0
 40
0.0
 40
1.0
 40
1.0
 40
1.0
 40
1.0
 10
197.008212626
 20
386.1401500515
 30
0.0
 10
197.008212626
 20
386.8244676999
 30
0.0
 10
196.865645945
 20
387.4327501468
 30
0.0
 10
196.5863346993
 20
387.9535005539
 30
0.0
  0
SPLINE
  5
566
100
AcDbEntity
  8
0
100
AcDbSpline
 62
7
  6
CONTINUOUS
 70
0
 71
3
 72
8
 73
4
 74
0
 42
0.0000001
 43
0.0000001
 44
0.0000000001
 40
0.0
 40
0.0
 40
0.0
 40
0.0
 40
1.0
 40
1.0
 40
1.0
 40
1.0
 10
196.5863346993
 20
387.9535005539
 30
0.0
 10
196.3048862815
 20
388.4782355241
 30
0.0
 10
195.8011522889
 20
388.9344471506
 30
0.0
 10
195.0598077178
 20
389.3241285495
 30
0.0
  0
SPLINE
  5
567
100
AcDbEntity
  8
0
100
AcDbSpline
 62
7
  6
CONTINUOUS
 70
0
 71
3
 72
8
 73
4
 74
0
 42
0.0000001
 43
0.0000001
 44
0.0000000001
 40
0.0
 40
0.0
 40
0.0
 40
0.0
 40
1.0
 40
1.0
 40
1.0
 40
1.0
 10
195.0598077178
 20
389.3241285495
 30
0.0
 10
196.0862848162
 20
390.0084457807
 30
0.0
 10
196.6090270877
 20
390.9493827037
 30
0.0
 10
196.6090270877
 20
392.1469384841
 30
0.0
  0
SPLINE
  5
568
100
AcDbEntity
  8
0
100
AcDbSpline
 62
7
  6
CONTINUOUS
 70
0
 71
3
 72
8
 73
4
 74
0
 42
0.0000001
 43
0.0000001
 44
0.0000000001
 40
0.0
 40
0.0
 40
0.0
 40
0.0
 40
1.0
 40
1.0
 40
1.0
 40
1.0
 10
196.6090270877
 20
392.1469384841
 30
0.0
 10
196.6090270877
 20
393.2399466447
 30
0.0
 10
196.219346106
 20
394.1333607845
 30
0.0
 10
195.4568846026
 20
394.8153139485
 30
0.0
  0
SPLINE
  5
569
100
AcDbEntity
  8
0
100
AcDbSpline
 62
7
  6
CONTINUOUS
 70
0
 71
3
 72
8
 73
4
 74
0
 42
0.0000001
 43
0.0000001
 44
0.0000000001
 40
0.0
 40
0.0
 40
0.0
 40
0.0
 40
1.0
 40
1.0
 40
1.0
 40
1.0
 10
195.4568846026
 20
394.8153139485
 30
0.0
 10
194.6891358495
 20
395.5019960813
 30
0.0
 10
193.6436504721
 20
395.8536596708
 30
0.0
 10
192.3130325675
 20
395.8536596708
 30
0.0
  0
SPLINE
  5
56A
100
AcDbEntity
  8
0
100
AcDbSpline
 62
7
  6
CONTINUOUS
 70
0
 71
3
 72
8
 73
4
 74
0
 42
0.0000001
 43
0.0000001
 44
0.0000000001
 40
0.0
 40
0.0
 40
0.0
 40
0.0
 40
1.0
 40
1.0
 40
1.0
 40
1.0
 10
192.3130325675
 20
395.8536596708
 30
0.0
 10
190.9443972707
 20
395.8536596708
 30
0.0
 10
189.860894084
 20
395.4544741325
 30
0.0
 10
189.0839117564
 20
394.6727542958
 30
0.0
  0
SPLINE
  5
56B
100
AcDbEntity
  8
0
100
AcDbSpline
 62
7
  6
CONTINUOUS
 70
0
 71
3
 72
8
 73
4
 74
0
 42
0.0000001
 43
0.0000001
 44
0.0000000001
 40
0.0
 40
0.0
 40
0.0
 40
0.0
 40
1.0
 40
1.0
 40
1.0
 40
1.0
 10
189.0839117564
 20
394.6727542958
 30
0.0
 10
188.3021704703
 20
393.8862464837
 30
0.0
 10
187.9124894887
 20
392.8027428798
 30
0.0
 10
187.9124894887
 20
391.4246030263
 30
0.0
  0
SPLINE
  5
56C
100
AcDbEntity
  8
0
100
AcDbSpline
 62
7
  6
CONTINUOUS
 70
0
 71
3
 72
8
 73
4
 74
0
 42
0.0000001
 43
0.0000001
 44
0.0000000001
 40
0.0
 40
0.0
 40
0.0
 40
0.0
 40
1.0
 40
1.0
 40
1.0
 40
1.0
 10
190.4121500253
 20
391.4246030263
 30
0.0
 10
190.4311587214
 20
392.8692739419
 30
0.0
 10
191.0394411683
 20
393.5916093997
 30
0.0
 10
192.2274928093
 20
393.5916093997
 30
0.0
  0
SPLINE
  5
56D
100
AcDbEntity
  8
0
100
AcDbSpline
 62
7
  6
CONTINUOUS
 70
0
 71
3
 72
8
 73
4
 74
0
 42
0.0000001
 43
0.0000001
 44
0.0000000001
 40
0.0
 40
0.0
 40
0.0
 40
0.0
 40
1.0
 40
1.0
 40
1.0
 40
1.0
 10
192.2274928093
 20
393.5916093997
 30
0.0
 10
192.6932089925
 20
393.5916093997
 30
0.0
 10
193.0828899741
 20
393.4395389966
 30
0.0
 10
193.3846476793
 20
393.1519259834
 30
0.0
  0
SPLINE
  5
56E
100
AcDbEntity
  8
0
100
AcDbSpline
 62
7
  6
CONTINUOUS
 70
0
 71
3
 72
8
 73
4
 74
0
 42
0.0000001
 43
0.0000001
 44
0.0000000001
 40
0.0
 40
0.0
 40
0.0
 40
0.0
 40
1.0
 40
1.0
 40
1.0
 40
1.0
 10
193.3846476793
 20
393.1519259834
 30
0.0
 10
193.691172421
 20
392.8597693853
 30
0.0
 10
193.8527473807
 20
392.4415755681
 30
0.0
 10
193.8527473807
 20
391.9093287401
 30
0.0
  0
SPLINE
  5
56F
100
AcDbEntity
  8
0
100
AcDbSpline
 62
7
  6
CONTINUOUS
 70
0
 71
3
 72
8
 73
4
 74
0
 42
0.0000001
 43
0.0000001
 44
0.0000000001
 40
0.0
 40
0.0
 40
0.0
 40
0.0
 40
1.0
 40
1.0
 40
1.0
 40
1.0
 10
193.8527473807
 20
391.9093287401
 30
0.0
 10
193.8527473807
 20
391.4816295318
 30
0.0
 10
193.7386943698
 20
391.1014531068
 30
0.0
 10
193.5200929045
 20
390.7687986307
 30
0.0
  0
SPLINE
  5
570
100
AcDbEntity
  8
0
100
AcDbSpline
 62
7
  6
CONTINUOUS
 70
0
 71
3
 72
8
 73
4
 74
0
 42
0.0000001
 43
0.0000001
 44
0.0000000001
 40
0.0
 40
0.0
 40
0.0
 40
0.0
 40
1.0
 40
1.0
 40
1.0
 40
1.0
 10
193.5200929045
 20
390.7687986307
 30
0.0
 10
193.3014914393
 20
390.4361441545
 30
0.0
 10
193.0163593292
 20
390.2175426893
 30
0.0
 10
192.6747824953
 20
390.1111502636
 30
0.0
  0
SPLINE
  5
571
100
AcDbEntity
  8
0
100
AcDbSpline
 62
7
  6
CONTINUOUS
 70
0
 71
3
 72
8
 73
4
 74
0
 42
0.0000001
 43
0.0000001
 44
0.0000000001
 40
0.0
 40
0.0
 40
0.0
 40
0.0
 40
1.0
 40
1.0
 40
1.0
 40
1.0
 10
192.6747824953
 20
390.1111502636
 30
0.0
 10
192.4365901351
 20
390.0369594507
 30
0.0
 10
192.1324489116
 20
390.0084457807
 30
0.0
 10
191.7617766261
 20
390.0084457807
 30
0.0
  0
SPLINE
  5
572
100
AcDbEntity
  8
0
100
AcDbSpline
 62
7
  6
CONTINUOUS
 70
0
 71
3
 72
8
 73
4
 74
0
 42
0.0000001
 43
0.0000001
 44
0.0000000001
 40
0.0
 40
0.0
 40
0.0
 40
0.0
 40
1.0
 40
1.0
 40
1.0
 40
1.0
 10
191.5811929703
 20
388.0410325937
 30
0.0
 10
192.1704663038
 20
388.0410325937
 30
0.0
 10
192.6646957397
 20
387.9745015315
 30
0.0
 10
193.054072163
 20
387.8405560704
 30
0.0
  0
SPLINE
  5
573
100
AcDbEntity
  8
0
100
AcDbSpline
 62
7
  6
CONTINUOUS
 70
0
 71
3
 72
8
 73
4
 74
0
 42
0.0000001
 43
0.0000001
 44
0.0000000001
 40
0.0
 40
0.0
 40
0.0
 40
0.0
 40
1.0
 40
1.0
 40
1.0
 40
1.0
 10
193.054072163
 20
387.8405560704
 30
0.0
 10
193.8527473807
 20
387.5658118538
 30
0.0
 10
194.251932919
 20
386.9385207109
 30
0.0
 10
194.251932919
 20
385.9595659785
 30
0.0
  0
SPLINE
  5
574
100
AcDbEntity
  8
0
100
AcDbSpline
 62
7
  6
CONTINUOUS
 70
0
 71
3
 72
8
 73
4
 74
0
 42
0.0000001
 43
0.0000001
 44
0.0000000001
 40
0.0
 40
0.0
 40
0.0
 40
0.0
 40
1.0
 40
1.0
 40
1.0
 40
1.0
 10
194.251932919
 20
385.9595659785
 30
0.0
 10
194.251932919
 20
385.3702924363
 30
0.0
 10
194.0713488459
 20
384.8950719051
 30
0.0
 10
193.7196856737
 20
384.5339041762
 30
0.0
  0
SPLINE
  5
575
100
AcDbEntity
  8
0
100
AcDbSpline
 62
7
  6
CONTINUOUS
 70
0
 71
3
 72
8
 73
4
 74
0
 42
0.0000001
 43
0.0000001
 44
0.0000000001
 40
0.0
 40
0.0
 40
0.0
 40
0.0
 40
1.0
 40
1.0
 40
1.0
 40
1.0
 10
193.7196856737
 20
384.5339041762
 30
0.0
 10
193.3680225014
 20
384.1727364473
 30
0.0
 10
192.9213150143
 20
383.9921525828
 30
0.0
 10
192.3795636296
 20
383.9921525828
 30
0.0
  0
SPLINE
  5
576
100
AcDbEntity
  8
0
100
AcDbSpline
 62
7
  6
CONTINUOUS
 70
0
 71
3
 72
8
 73
4
 74
0
 42
0.0000001
 43
0.0000001
 44
0.0000000001
 40
0.0
 40
0.0
 40
0.0
 40
0.0
 40
1.0
 40
1.0
 40
1.0
 40
1.0
 10
192.3795636296
 20
383.9921525828
 30
0.0
 10
191.2200252414
 20
383.9921525828
 30
0.0
 10
190.5927340984
 20
384.7525056414
 30
0.0
 10
190.4786810875
 20
386.2732117585
 30
0.0
  0
SPLINE
  5
577
100
AcDbEntity
  8
0
100
AcDbSpline
 62
7
  6
CONTINUOUS
 70
0
 71
3
 72
8
 73
4
 74
0
 42
0.0000001
 43
0.0000001
 44
0.0000000001
 40
0.0
 40
0.0
 40
0.0
 40
0.0
 40
1.0
 40
1.0
 40
1.0
 40
1.0
 10
187.7224012241
 20
386.2732117585
 30
0.0
 10
187.7224012241
 20
385.1136733703
 30
0.0
 10
187.9314982891
 20
384.2297629527
 30
0.0
 10
188.3306836188
 20
383.6024717055
 30
0.0
  0
SPLINE
  5
578
100
AcDbEntity
  8
0
100
AcDbSpline
 62
7
  6
CONTINUOUS
 70
0
 71
3
 72
9
 73
5
 74
0
 42
0.0000001
 43
0.0000001
 44
0.0000000001
 40
0.0
 40
0.0
 40
0.0
 40
0.0
 40
0.502112688
 40
1.0
 40
1.0
 40
1.0
 40
1.0
 10
251.3070060934
 20
407.7779812524
 30
0.0
 10
251.3070060934
 20
408.750613944
 30
0.0
 10
251.1423856439
 20
410.6911498322
 30
0.0
 10
250.6631722197
 20
412.5771764482
 30
0.0
 10
250.3559839905
 20
413.4913946646
 30
0.0
  0
SPLINE
  5
579
100
AcDbEntity
  8
0
100
AcDbSpline
 62
7
  6
CONTINUOUS
 70
0
 71
3
 72
9
 73
5
 74
0
 42
0.0000001
 43
0.0000001
 44
0.0000000001
 40
0.0
 40
0.0
 40
0.0
 40
0.0
 40
0.5021126884
 40
1.0
 40
1.0
 40
1.0
 40
1.0
 10
169.3788028631
 20
407.7779812524
 30
0.0
 10
169.3788028631
 20
408.7506139132
 30
0.0
 10
169.5434232866
 20
410.6911497413
 30
0.0
 10
170.0226367246
 20
412.57717629
 30
0.0
 10
170.3298249473
 20
413.4913944747
 30
0.0
  0
SPLINE
  5
57A
100
AcDbEntity
  8
RUNDUNGEN
100
AcDbSpline
 62
7
  6
CONTINUOUS
 70
0
 71
3
 72
9
 73
5
 74
0
 42
0.0000001
 43
0.0000001
 44
0.0000000001
 40
0.0
 40
0.0
 40
0.0
 40
0.0
 40
0.4999994904
 40
1.0
 40
1.0
 40
1.0
 40
1.0
 10
174.1826504404
 20
415.43388079
 30
0.0
 10
175.1525003507
 20
414.9544681626
 30
0.0
 10
177.0814853484
 20
413.974121037
 30
0.0
 10
179.0098360086
 20
412.9926790501
 30
0.0
 10
179.9768002851
 20
412.5074675749
 30
0.0
  0
SPLINE
  5
57B
100
AcDbEntity
  8
RUNDUNGEN
100
AcDbSpline
 62
7
  6
CONTINUOUS
 70
0
 71
3
 72
10
 73
6
 74
0
 42
0.0000001
 43
0.0000001
 44
0.0000000001
 40
0.0
 40
0.0
 40
0.0
 40
0.0
 40
0.5094976093
 40
0.7574156314
 40
1.0
 40
1.0
 40
1.0
 40
1.0
 10
170.3298249473
 20
413.4913944747
 30
0.0
 10
170.4603504987
 20
413.8798495774
 30
0.0
 10
170.7299129556
 20
414.4380377595
 30
0.0
 10
171.2358712812
 20
415.0663551601
 30
0.0
 10
171.5288651589
 20
415.3333933433
 30
0.0
 10
171.6826504404
 20
415.4534762153
 30
0.0
  0
SPLINE
  5
57C
100
AcDbEntity
  8
RUNDUNGEN
100
AcDbSpline
 62
7
  6
CONTINUOUS
 70
0
 71
3
 72
10
 73
6
 74
0
 42
0.0000001
 43
0.0000001
 44
0.0000000001
 40
0.0
 40
0.0
 40
0.0
 40
0.0
 40
0.2425846225
 40
0.4905026144
 40
1.0
 40
1.0
 40
1.0
 40
1.0
 10
249.0031585161
 20
415.4534762944
 30
0.0
 10
249.1569439558
 20
415.3333933048
 30
0.0
 10
249.4499379708
 20
415.0663550192
 30
0.0
 10
249.9558961815
 20
414.4380375611
 30
0.0
 10
250.2254585029
 20
413.879849583
 30
0.0
 10
250.3559839905
 20
413.4913946646
 30
0.0
  0
SPLINE
  5
57D
100
AcDbEntity
  8
RUNDUNGEN
100
AcDbSpline
 62
7
  6
CONTINUOUS
 70
0
 71
3
 72
9
 73
5
 74
0
 42
0.0000001
 43
0.0000001
 44
0.0000000001
 40
0.0
 40
0.0
 40
0.0
 40
0.0
 40
0.5000005097
 40
1.0
 40
1.0
 40
1.0
 40
1.0
 10
240.709008501
 20
412.5074674969
 30
0.0
 10
241.6759727912
 20
412.9926790118
 30
0.0
 10
243.6043235153
 20
413.9741210051
 30
0.0
 10
245.5333085956
 20
414.954468099
 30
0.0
 10
246.5031585161
 20
415.4338807729
 30
0.0
  0
SPLINE
  5
57E
100
AcDbEntity
  8
RUNDUNGEN
100
AcDbSpline
 62
7
  6
CONTINUOUS
 70
0
 71
3
 72
12
 73
8
 74
0
 42
0.0000001
 43
0.0000001
 44
0.0000000001
 40
0.0
 40
0.0
 40
0.0
 40
0.0
 40
0.1282544462
 40
0.2557812935
 40
0.5066839756
 40
0.7540439213
 40
1.0
 40
1.0
 40
1.0
 40
1.0
 10
174.1826504404
 20
377.0379062067
 30
0.0
 10
174.0478995541
 20
377.0379062067
 30
0.0
 10
173.7785081753
 20
377.0628177144
 30
0.0
 10
173.2633083351
 20
377.2058474751
 30
0.0
 10
172.6824884189
 20
377.5360762337
 30
0.0
 10
172.1177009064
 20
378.084737135
 30
0.0
 10
171.8170480566
 20
378.510004774
 30
0.0
 10
171.6826504404
 20
378.730720198
 30
0.0
  0
SPLINE
  5
57F
100
AcDbEntity
  8
RUNDUNGEN
100
AcDbSpline
 62
7
  6
CONTINUOUS
 70
0
 71
3
 72
12
 73
8
 74
0
 42
0.0000001
 43
0.0000001
 44
0.0000000001
 40
0.0
 40
0.0
 40
0.0
 40
0.0
 40
0.1187840813
 40
0.2386908029
 40
0.4845612452
 40
0.7399600569
 40
1.0
 40
1.0
 40
1.0
 40
1.0
 10
171.6826504404
 20
415.4534762153
 30
0.0
 10
171.764917361
 20
415.5177141448
 30
0.0
 10
171.942314637
 20
415.6322954148
 30
0.0
 10
172.3399861312
 20
415.7913427187
 30
0.0
 10
172.8955777877
 20
415.8412490418
 30
0.0
 10
173.5567279826
 20
415.7078899996
 30
0.0
 10
173.9778119329
 20
415.5351358049
 30
0.0
 10
174.1826504404
 20
415.43388079
 30
0.0
  0
SPLINE
  5
580
100
AcDbEntity
  8
RUNDUNGEN
100
AcDbSpline
 62
7
  6
CONTINUOUS
 70
0
 71
3
 72
12
 73
8
 74
0
 42
0.0000001
 43
0.0000001
 44
0.0000000001
 40
0.0
 40
0.0
 40
0.0
 40
0.0
 40
0.2459561124
 40
0.4933162186
 40
0.7442194509
 40
0.8717461778
 40
1.0
 40
1.0
 40
1.0
 40
1.0
 10
249.0031585161
 20
378.730720198
 30
0.0
 10
248.8687608833
 20
378.5100047467
 30
0.0
 10
248.5681079107
 20
378.0847369546
 30
0.0
 10
248.0033198215
 20
377.5360755177
 30
0.0
 10
247.4224990853
 20
377.2058468072
 30
0.0
 10
246.9072993222
 20
377.0628176115
 30
0.0
 10
246.6379087451
 20
377.0379062067
 30
0.0
 10
246.5031585161
 20
377.0379062067
 30
0.0
  0
SPLINE
  5
581
100
AcDbEntity
  8
RUNDUNGEN
100
AcDbSpline
 62
7
  6
CONTINUOUS
 70
0
 71
3
 72
12
 73
8
 74
0
 42
0.0000001
 43
0.0000001
 44
0.0000000001
 40
0.0
 40
0.0
 40
0.0
 40
0.0
 40
0.2600426515
 40
0.5154404524
 40
0.7613062258
 40
0.8812137433
 40
1.0
 40
1.0
 40
1.0
 40
1.0
 10
246.5031585161
 20
415.4338807729
 30
0.0
 10
246.7079991534
 20
415.5351368494
 30
0.0
 10
247.1290846542
 20
415.7078911924
 30
0.0
 10
247.7902326007
 20
415.8412491098
 30
0.0
 10
248.3458192626
 20
415.7913421599
 30
0.0
 10
248.7434901786
 20
415.6322975975
 30
0.0
 10
248.9208900875
 20
415.5177153985
 30
0.0
 10
249.0031585161
 20
415.4534762944
 30
0.0
  0
ELLIPSE
  5
582
100
AcDbEntity
  8
RUNDUNGEN
100
AcDbEllipse
 62
7
  6
CONTINUOUS
 10
210.081996841
 20
386.5247391872
 30
0.0
 11
40.7031939779
 21
0.0
 31
0.0
 40
0.5773502692
 41
3.1415926536
 42
3.4796556861
  0
ELLIPSE
  5
583
100
AcDbEntity
  8
RUNDUNGEN
100
AcDbEllipse
 62
7
  6
CONTINUOUS
 10
210.6038121156
 20
386.5247391872
 30
0.0
 11
40.7031939779
 21
-0.0
 31
0.0
 40
0.5773502692
 41
-0.3380630325
 42
0.0
  0
ENDSEC
  0
SECTION
  2
OBJECTS
  0
DICTIONARY
  5
C
100
AcDbDictionary
280
0
281
1
  3
ACAD_GROUP
350
D
  3
ACAD_MLINESTYLE
350
17
  3
ACAD_LAYOUT
350
1A
  3
ACAD_PLOTSETTINGS
350
19
  3
ACAD_PLOTSTYLENAME
350
E
  0
DICTIONARY
  5
D
102
{ACAD_REACTORS
330
C
102
}
100
AcDbDictionary
280
0
281
1
  0
ACDBDICTIONARYWDFLT
  5
E
102
{ACAD_REACTORS
330
C
102
}
100
AcDbDictionary
281
1
  3
Normal
350
F
100
AcDbDictionaryWithDefault
340
F
  0
DICTIONARY
  5
17
102
{ACAD_REACTORS
330
C
102
}
100
AcDbDictionary
280
0
281
1
  3
Standard
350
18
  0
DICTIONARY
  5
19
102
{ACAD_REACTORS
330
C
102
}
100
AcDbDictionary
281
1
  0
DICTIONARY
  5
1A
102
{ACAD_REACTORS
330
C
102
}
100
AcDbDictionary
281
1
  3
Model
350
584
  3
Layout1
350
585
  0
ACDBPLACEHOLDER
  5
F
102
{ACAD_REACTORS
330
E
102
}
  0
MLINESTYLE
  5
18
102
{ACAD_REACTORS
330
17
102
}
100
AcDbMlineStyle
  2
STANDARD
 70
0
  3

 62
256
 51
90.0
 52
90.0
 71
2
 49
0.5
 62
256
  6
BYLAYER
 49
-0.5
 62
256
  6
BYLAYER
  0
LAYOUT
  5
584
102
{ACAD_REACTORS
330
1A
102
}
100
AcDbPlotSettings
  1

  2
none_device
  4
ISO_A3_(420.00_x_297.00_MM)
  6

 40
0.0
 41
0.0
 42
0.0
 43
0.0
 44
420.0
 45
297.0
 46
0.0
 47
0.0
 48
0.0
 49
0.0
140
0.0
141
0.0
142
1.0
143
1.0
 70
1024
 72
1
 73
0
 74
0
  7

 75
0
147
1.0
148
0.0
149
0.0
100
AcDbLayout
  1
Model
 70
0
 71
0
 10
0.0
 20
0.0
 11
420.0
 21
297.0
 12
0.0
 22
0.0
 32
0.0
 14
0.0
 24
0.0
 34
0.0
 15
0.0
 25
0.0
 35
0.0
146
0.0
 13
0.0
 23
0.0
 33
0.0
 16
1.0
 26
0.0
 36
0.0
 17
0.0
 27
1.0
 37
0.0
 76
0
330
217
345
0
346
0
  0
LAYOUT
  5
585
102
{ACAD_REACTORS
330
1A
102
}
100
AcDbPlotSettings
  1

  2
none_device
  4
ISO_A3_(420.00_x_297.00_MM)
  6

 40
0.0
 41
0.0
 42
0.0
 43
0.0
 44
420.0
 45
297.0
 46
0.0
 47
0.0
 48
0.0
 49
0.0
140
0.0
141
0.0
142
1.0
143
1.0
 70
0
 72
1
 73
0
 74
0
  7

 75
0
147
1.0
148
0.0
149
0.0
100
AcDbLayout
  1
Layout1
 70
0
 71
1
 10
0.0
 20
0.0
 11
420.0
 21
297.0
 12
0.0
 22
0.0
 32
0.0
 14
0.0
 24
0.0
 34
0.0
 15
0.0
 25
0.0
 35
0.0
146
0.0
 13
0.0
 23
0.0
 33
0.0
 16
1.0
 26
0.0
 36
0.0
 17
0.0
 27
1.0
 37
0.0
 76
0
330
218
345
0
346
0
  0
ENDSEC
  0
EOF
