999
DXF file: VRM_0_3t_M8_7992989_M32420-P-1.dxf
999
Pro/ENGINEER 2011490 by Parametric Technology Corporation
  0
SECTION
  2
HEADER
  9
$ACADVER
  1
AC1015
  9
$DWGCODEPAGE
  3
ANSI_1252
  9
$EXTMAX
 10
297.0
 20
210.0
 30
0.0
  9
$EXTMIN
 10
0.0
 20
0.0
 30
0.0
  9
$LIMMIN
 10
0.0
 20
0.0
  9
$LIMMAX
 10
297.0
 20
210.0
  9
$VIEWCTR
 10
148.5
 20
105.0
  9
$VIEWSIZE
 40
210.0
  9
$CLAYER
  8
0
  9
$LTSCALE
 40
16.335
  9
$CELTYPE
  6
BYLAYER
  9
$DIMSCALE
 40
1.0
  9
$DIMASZ
 40
3.5
  9
$DIMEXO
 40
1.85625
  9
$DIMDLI
 40
11.286
  9
$DIMEXE
 40
5.346
  9
$DIMCEN
 40
2.673
  9
$DIMLFAC
 40
1.0
  9
$DIMBLK
  1
_FILLED
  9
$DIMTXT
 40
3.5
  9
$DIMTOL
 70
1
  9
$DIMLIM
 70
0
  9
$DIMTFAC
 40
1.0
  9
$DIMTP
 40
0.005
  9
$DIMTM
 40
0.005
  9
$PDMODE
 70
3
  9
$PDSIZE
 40
0.3125
  9
$HANDSEED
  5
4F6
  9
$TILEMODE
 70
1
  9
$MEASUREMENT
 70
1
  9
$INSUNITS
 70
4
  0
ENDSEC
  0
SECTION
  2
CLASSES
  0
CLASS
  1
ACDBDICTIONARYWDFLT
  2
AcDbDictionaryWithDefault
  3
AutoCAD 2000
 90
0
280
0
281
0
  0
CLASS
  1
ACDBPLACEHOLDER
  2
AcDbPlaceHolder
  3
AutoCAD 2000
 90
0
280
0
281
0
  0
CLASS
  1
LAYOUT
  2
AcDbLayout
  3
AutoCAD 2000
 90
0
280
0
281
0
  0
ENDSEC
  0
SECTION
  2
TABLES
  0
TABLE
  2
VPORT
  5
8
100
AcDbSymbolTable
 70
2
  0
VPORT
  5
1F4
100
AcDbSymbolTableRecord
100
AcDbViewportTableRecord
  2
*ACTIVE
 70
0
 10
0.0
 20
0.0
 11
1.0
 21
1.0
 12
148.5
 22
105.0
 13
0.0
 23
0.0
 14
1.0
 24
1.0
 15
0.0
 25
0.0
 16
0.0
 26
0.0
 36
1.0
 17
0.0
 27
0.0
 37
0.0
 40
210.0
 41
1.4142857143
 42
50.0
 43
0.0
 44
0.0
 50
0.0
 51
0.0
 71
0
 72
100
 73
1
 74
1
 75
0
 76
0
 77
0
 78
0
  0
ENDTAB
  0
TABLE
  2
LTYPE
  5
5
100
AcDbSymbolTable
 70
6
  0
LTYPE
  5
14
100
AcDbSymbolTableRecord
100
AcDbLinetypeTableRecord
  2
BYBLOCK
 70
0
  3

 72
65
 73
0
 40
0.0
  0
LTYPE
  5
15
100
AcDbSymbolTableRecord
100
AcDbLinetypeTableRecord
  2
BYLAYER
 70
0
  3

 72
65
 73
0
 40
0.0
  0
LTYPE
  5
16
100
AcDbSymbolTableRecord
100
AcDbLinetypeTableRecord
  2
CONTINUOUS
 70
64
  3
Solid line
 72
65
 73
0
 40
0.0
  0
LTYPE
  5
1F5
100
AcDbSymbolTableRecord
100
AcDbLinetypeTableRecord
  2
CENTER
 70
64
  3
____ _ ____ _ ____ _ ____ _ ____ _ ____ _ ____
 72
65
 73
4
 40
0.6
 49
0.375
 74
0
 49
-0.075
 74
0
 49
0.075
 74
0
 49
-0.075
 74
0
  0
LTYPE
  5
1F6
100
AcDbSymbolTableRecord
100
AcDbLinetypeTableRecord
  2
HIDDEN
 70
64
  3
- - - - - - - - - - - - - - - - - - - -
 72
65
 73
2
 40
0.2
 49
0.1
 74
0
 49
-0.1
 74
0
  0
LTYPE
  5
1F7
100
AcDbSymbolTableRecord
100
AcDbLinetypeTableRecord
  2
PHANTOM
 70
64
  3
_____ _ _ _____ _ _ _____ _ _ _____
 72
65
 73
6
 40
0.8
 49
0.45
 74
0
 49
-0.05
 74
0
 49
0.1
 74
0
 49
-0.05
 74
0
 49
0.1
 74
0
 49
-0.05
 74
0
  0
LTYPE
  5
1F8
100
AcDbSymbolTableRecord
100
AcDbLinetypeTableRecord
  2
DOT
 70
64
  3
. . . . . . . . . . . . . . . . . . . .
 72
65
 73
2
 40
0.2
 49
0.1
 74
0
 49
-0.1
 74
0
  0
LTYPE
  5
1F9
100
AcDbSymbolTableRecord
100
AcDbLinetypeTableRecord
  2
DASHED
 70
64
  3
- - - - - - - - - - - - - - - - - - - -
 72
65
 73
2
 40
0.2
 49
0.1
 74
0
 49
-0.1
 74
0
  0
ENDTAB
  0
TABLE
  2
LAYER
  5
2
100
AcDbSymbolTable
 70
36
  0
LAYER
  5
10
100
AcDbSymbolTableRecord
100
AcDbLayerTableRecord
  2
0
 70
0
 62
7
  6
CONTINUOUS
370
-3
390
F
  0
LAYER
  5
1FA
100
AcDbSymbolTableRecord
100
AcDbLayerTableRecord
  2
DEFAULT_1
 70
0
 62
7
  6
CENTER
370
-3
390
F
  0
LAYER
  5
1FB
100
AcDbSymbolTableRecord
100
AcDbLayerTableRecord
  2
DEFAULT_2
 70
0
 62
8
  6
HIDDEN
370
-3
390
F
  0
LAYER
  5
1FC
100
AcDbSymbolTableRecord
100
AcDbLayerTableRecord
  2
DEFAULT_3
 70
0
 62
7
  6
PHANTOM
370
-3
390
F
  0
LAYER
  5
1FD
100
AcDbSymbolTableRecord
100
AcDbLayerTableRecord
  2
BEZUGSACHSEN
 70
0
 62
7
  6
CONTINUOUS
370
-3
390
F
  0
LAYER
  5
1FE
100
AcDbSymbolTableRecord
100
AcDbLayerTableRecord
  2
BG_STARTBEZUEGE
 70
0
 62
7
  6
CONTINUOUS
370
-3
390
F
  0
LAYER
  5
1FF
100
AcDbSymbolTableRecord
100
AcDbLayerTableRecord
  2
BOHRUNGEN
 70
0
 62
7
  6
CONTINUOUS
370
-3
390
F
  0
LAYER
  5
200
100
AcDbSymbolTableRecord
100
AcDbLayerTableRecord
  2
FASEN
 70
0
 62
7
  6
CONTINUOUS
370
-3
390
F
  0
LAYER
  5
201
100
AcDbSymbolTableRecord
100
AcDbLayerTableRecord
  2
FLAECHEN
 70
0
 62
7
  6
CONTINUOUS
370
-3
390
F
  0
LAYER
  5
202
100
AcDbSymbolTableRecord
100
AcDbLayerTableRecord
  2
GEWINDE
 70
0
 62
7
  6
CONTINUOUS
370
-3
390
F
  0
LAYER
  5
203
100
AcDbSymbolTableRecord
100
AcDbLayerTableRecord
  2
HILFEN
 70
0
 62
7
  6
CONTINUOUS
370
-3
390
F
  0
LAYER
  5
204
100
AcDbSymbolTableRecord
100
AcDbLayerTableRecord
  2
KONSTRUKTIONSELEMENTE
 70
0
 62
7
  6
CONTINUOUS
370
-3
390
F
  0
LAYER
  5
205
100
AcDbSymbolTableRecord
100
AcDbLayerTableRecord
  2
KURVEN
 70
0
 62
7
  6
CONTINUOUS
370
-3
390
F
  0
LAYER
  5
206
100
AcDbSymbolTableRecord
100
AcDbLayerTableRecord
  2
NORM
 70
0
 62
7
  6
CONTINUOUS
370
-3
390
F
  0
LAYER
  5
207
100
AcDbSymbolTableRecord
100
AcDbLayerTableRecord
  2
PLATZIERUNG
 70
0
 62
7
  6
CONTINUOUS
370
-3
390
F
  0
LAYER
  5
208
100
AcDbSymbolTableRecord
100
AcDbLayerTableRecord
  2
RUNDUNGEN
 70
0
 62
7
  6
CONTINUOUS
370
-3
390
F
  0
LAYER
  5
209
100
AcDbSymbolTableRecord
100
AcDbLayerTableRecord
  2
TEIL_STARTBEZUEGE
 70
0
 62
7
  6
CONTINUOUS
370
-3
390
F
  0
LAYER
  5
20A
100
AcDbSymbolTableRecord
100
AcDbLayerTableRecord
  2
T_STARTBEZUEGE
 70
0
 62
7
  6
CONTINUOUS
370
-3
390
F
  0
ENDTAB
  0
TABLE
  2
STYLE
  5
3
100
AcDbSymbolTable
 70
1
  0
STYLE
  5
11
100
AcDbSymbolTableRecord
100
AcDbTextStyleTableRecord
  2
STANDARD
 70
0
 40
0.0
 41
0.7
 50
0.0
 71
0
 42
0.2
  3
txt
  4

  0
STYLE
  5
20B
100
AcDbSymbolTableRecord
100
AcDbTextStyleTableRecord
  2
TEXTSTYLE_1
 70
0
 40
0.0
 41
0.8
 50
0.0
 71
0
 42
0.2
  3
gdt
  4

  0
ENDTAB
  0
TABLE
  2
VIEW
  5
6
100
AcDbSymbolTable
 70
0
  0
ENDTAB
  0
TABLE
  2
UCS
  5
7
100
AcDbSymbolTable
 70
0
  0
ENDTAB
  0
TABLE
  2
APPID
  5
9
100
AcDbSymbolTable
 70
1
  0
APPID
  5
20C
100
AcDbSymbolTableRecord
100
AcDbRegAppTableRecord
  2
ACAD
 70
0
  0
ENDTAB
  0
TABLE
  2
BLOCK_RECORD
  5
1
100
AcDbSymbolTable
 70
0
  0
BLOCK_RECORD
  5
20D
100
AcDbSymbolTableRecord
100
AcDbBlockTableRecord
  2
*Model_Space
  0
BLOCK_RECORD
  5
20E
100
AcDbSymbolTableRecord
100
AcDbBlockTableRecord
  2
*Paper_Space
  0
ENDTAB
  0
TABLE
  2
DIMSTYLE
  5
A
100
AcDbSymbolTable
 70
1
100
AcDbDimStyleTable
 71
0
  0
DIMSTYLE
105
20F
100
AcDbSymbolTableRecord
100
AcDbDimStyleTableRecord
  2
STANDARD
 70
0
  3

  4

 40
1.0
 41
3.5
 42
0.0625
 43
0.38
 44
0.18
 45
0.0
 46
0.0
 47
0.005
 48
0.005
140
3.5
141
0.09
142
0.0
143
25.4
144
1.0
145
0.0
146
1.0
147
0.09
 71
1.0
 72
0.0
 73
0
 74
0
 75
0
 76
0
 77
1
 78
8
170
0
171
2
172
0
173
0
174
0
175
0
176
0
177
0
178
5
270
2
271
3
272
3
273
2
274
2
275
0
280
0
281
0
282
0
283
1
284
8
285
0
286
0
287
3
288
0
340
11
  0
ENDTAB
  0
ENDSEC
  0
SECTION
  2
BLOCKS
  0
BLOCK
  5
20
100
AcDbEntity
  8
0
100
AcDbBlockBegin
  2
*Model_Space
 70
0
 10
0.0
 20
0.0
 30
0.0
  3
*Model_Space
  1

  0
ENDBLK
  5
21
100
AcDbEntity
  8
0
100
AcDbBlockEnd
  0
BLOCK
  5
1C
100
AcDbEntity
  8
0
100
AcDbBlockBegin
  2
*Paper_Space
 70
0
 10
0.0
 20
0.0
 30
0.0
  3
*Paper_Space
  1

  0
ENDBLK
  5
1D
100
AcDbEntity
  8
0
100
AcDbBlockEnd
  0
ENDSEC
  0
SECTION
  2
ENTITIES
  0
MTEXT
  5
210
100
AcDbEntity
  8
0
100
AcDbMText
 62
5
  6
CONTINUOUS
  7
STANDARD
 71
1
 72
1
 10
166.7881036861
 20
139.6264938973
 30
0.0
 11
0.0
 21
1.0
 31
0.0
 44
0.9
  1
VRM 0,3t RUD
 40
3.0
 41
28.0714285714
  0
MTEXT
  5
211
100
AcDbEntity
  8
0
100
AcDbMText
 62
5
  6
CONTINUOUS
  7
STANDARD
 71
1
 72
1
 10
80.8324212655
 20
90.5213997738
 30
0.0
 11
1.0
 21
0.0
 31
0.0
 44
0.9
  1
VRM 0,3t RUD
 40
3.0
 41
28.0714285714
  0
LINE
  5
212
100
AcDbEntity
  8
0
100
AcDbLine
 62
7
  6
CONTINUOUS
 10
0.0
 20
0.0
 11
0.0
 21
210.0
  0
LINE
  5
213
100
AcDbEntity
  8
0
100
AcDbLine
 62
7
  6
CONTINUOUS
 10
0.0
 20
0.0
 11
297.0
 21
0.0
  0
LINE
  5
214
100
AcDbEntity
  8
0
100
AcDbLine
 62
7
  6
CONTINUOUS
 10
0.0
 20
210.0
 11
297.0
 21
210.0
  0
LINE
  5
215
100
AcDbEntity
  8
0
100
AcDbLine
 62
7
  6
CONTINUOUS
 10
297.0
 20
0.0
 11
297.0
 21
210.0
  0
LINE
  5
216
100
AcDbEntity
  8
0
100
AcDbLine
 62
7
  6
CONTINUOUS
 10
103.2126466371
 20
124.6238839286
 11
86.9126466371
 21
124.6238839286
  0
LINE
  5
217
100
AcDbEntity
  8
BEZUGSACHSEN
100
AcDbLine
 62
7
  6
CONTINUOUS
 10
107.5626466371
 20
124.8738839286
 11
82.5626466371
 21
124.8738839286
  0
LINE
  5
218
100
AcDbEntity
  8
BEZUGSACHSEN
100
AcDbLine
 62
7
  6
CONTINUOUS
 10
78.6678031367
 20
129.7502175012
 11
78.4581447385
 21
130.2563776495
  0
LINE
  5
219
100
AcDbEntity
  8
BEZUGSACHSEN
100
AcDbLine
 62
7
  6
CONTINUOUS
 10
75.4830700615
 20
137.4388432838
 11
71.8106844326
 21
146.3047664754
  0
LINE
  5
21A
100
AcDbEntity
  8
BEZUGSACHSEN
100
AcDbLine
 62
7
  6
CONTINUOUS
 10
71.8128642351
 20
147.4779626472
 11
72.1092713967
 21
148.1935528366
  0
LINE
  5
21B
100
AcDbEntity
  8
RUNDUNGEN
100
AcDbLine
 62
7
  6
CONTINUOUS
 10
72.1092713967
 20
148.1935528366
 11
78.2078682776
 21
162.9168681379
  0
LINE
  5
21C
100
AcDbEntity
  8
0
100
AcDbLine
 62
7
  6
CONTINUOUS
 10
96.6876466371
 20
127.8738839286
 11
97.0209796526
 21
127.9589903089
  0
LINE
  5
21D
100
AcDbEntity
  8
0
100
AcDbLine
 62
7
  6
CONTINUOUS
 10
97.0209796526
 20
128.3845222252
 11
96.6043131448
 21
128.2994158523
  0
LINE
  5
21E
100
AcDbEntity
  8
0
100
AcDbLine
 62
7
  6
CONTINUOUS
 10
91.5209797718
 20
128.3845222252
 11
91.1043131448
 21
128.2994158523
  0
LINE
  5
21F
100
AcDbEntity
  8
0
100
AcDbLine
 62
7
  6
CONTINUOUS
 10
91.1043131448
 20
127.8738839286
 11
91.6043131448
 21
127.9589903089
  0
LINE
  5
220
100
AcDbEntity
  8
0
100
AcDbLine
 62
7
  6
CONTINUOUS
 10
93.270979891
 20
127.363245632
 11
93.6876466371
 21
127.363245632
  0
LINE
  5
221
100
AcDbEntity
  8
0
100
AcDbLine
 62
7
  6
CONTINUOUS
 10
96.0209796526
 20
127.8738839286
 11
96.6876466371
 21
127.8738839286
  0
LINE
  5
222
100
AcDbEntity
  8
0
100
AcDbLine
 62
7
  6
CONTINUOUS
 10
96.6043131448
 20
128.2994158523
 11
96.1043131448
 21
128.2994158523
  0
LINE
  5
223
100
AcDbEntity
  8
0
100
AcDbLine
 62
7
  6
CONTINUOUS
 10
94.1876466371
 20
128.2994158523
 11
93.7709796526
 21
128.2994158523
  0
LINE
  5
224
100
AcDbEntity
  8
0
100
AcDbLine
 62
7
  6
CONTINUOUS
 10
95.2709796526
 20
128.8100541489
 11
94.8543131448
 21
128.8100541489
  0
LINE
  5
225
100
AcDbEntity
  8
0
100
AcDbLine
 62
7
  6
CONTINUOUS
 10
96.1876466371
 20
129.7462243693
 11
96.5209796526
 21
129.7462243693
  0
LINE
  5
226
100
AcDbEntity
  8
0
100
AcDbLine
 62
7
  6
CONTINUOUS
 10
90.6043131448
 20
127.9589903089
 11
91.1043131448
 21
127.8738839286
  0
LINE
  5
227
100
AcDbEntity
  8
0
100
AcDbLine
 62
7
  6
CONTINUOUS
 10
99.8543131448
 20
127.9589903089
 11
100.3543131448
 21
127.8738839286
  0
LINE
  5
228
100
AcDbEntity
  8
0
100
AcDbLine
 62
7
  6
CONTINUOUS
 10
91.1043131448
 20
128.2994158523
 11
90.6876465179
 21
128.3845222252
  0
LINE
  5
229
100
AcDbEntity
  8
0
100
AcDbLine
 62
7
  6
CONTINUOUS
 10
96.1043131448
 20
128.2994158523
 11
95.6876466371
 21
128.3845222252
  0
LINE
  5
22A
100
AcDbEntity
  8
0
100
AcDbLine
 62
7
  6
CONTINUOUS
 10
100.3543131448
 20
128.2143094497
 11
99.9376461603
 21
128.2994158523
  0
LINE
  5
22B
100
AcDbEntity
  8
0
100
AcDbLine
 62
7
  6
CONTINUOUS
 10
95.6876466371
 20
127.9589903089
 11
96.0209796526
 21
127.8738839286
  0
LINE
  5
22C
100
AcDbEntity
  8
0
100
AcDbLine
 62
7
  6
CONTINUOUS
 10
90.1876464583
 20
128.2143094497
 11
90.6043131448
 21
127.9589903089
  0
LINE
  5
22D
100
AcDbEntity
  8
0
100
AcDbLine
 62
7
  6
CONTINUOUS
 10
90.6876465179
 20
128.3845222252
 11
90.4376464583
 21
128.5547349708
  0
LINE
  5
22E
100
AcDbEntity
  8
RUNDUNGEN
100
AcDbLine
 62
7
  6
CONTINUOUS
 10
75.5626466371
 20
137.5009591314
 11
75.5626466371
 21
131.8738839286
  0
LINE
  5
22F
100
AcDbEntity
  8
BEZUGSACHSEN
100
AcDbLine
 62
7
  6
CONTINUOUS
 10
75.5626466371
 20
131.8741645528
 11
75.5626466371
 21
137.5009545844
  0
LINE
  5
230
100
AcDbEntity
  8
0
100
AcDbLine
 62
7
  6
CONTINUOUS
 10
84.2745234462
 20
163.1212946436
 11
83.9430671425
 21
162.7898383399
  0
LINE
  5
231
100
AcDbEntity
  8
0
100
AcDbLine
 62
7
  6
CONTINUOUS
 10
82.8382127969
 20
161.6849839943
 11
82.506756704
 21
161.3535279013
  0
LINE
  5
232
100
AcDbEntity
  8
0
100
AcDbLine
 62
7
  6
CONTINUOUS
 10
81.6965301136
 20
160.543301311
 11
80.8126466371
 21
159.6594178345
  0
LINE
  5
233
100
AcDbEntity
  8
0
100
AcDbLine
 62
7
  6
CONTINUOUS
 10
80.5180187765
 20
159.3647899739
 11
80.2970479074
 21
159.1438191048
  0
LINE
  5
234
100
AcDbEntity
  8
0
100
AcDbLine
 62
7
  6
CONTINUOUS
 10
79.2658505533
 20
158.1126217507
 11
79.0448796842
 21
157.8916508815
  0
LINE
  5
235
100
AcDbEntity
  8
RUNDUNGEN
100
AcDbLine
 62
7
  6
CONTINUOUS
 10
79.0196624278
 20
163.7286622881
 11
94.4886214886
 21
170.1361149269
  0
LINE
  5
236
100
AcDbEntity
  8
0
100
AcDbLine
 62
7
  6
CONTINUOUS
 10
95.7709796526
 20
131.3632456916
 11
96.1876466371
 21
131.4483520644
  0
LINE
  5
237
100
AcDbEntity
  8
0
100
AcDbLine
 62
7
  6
CONTINUOUS
 10
90.6876465179
 20
131.3632456916
 11
91.1043131448
 21
131.4483520644
  0
LINE
  5
238
100
AcDbEntity
  8
0
100
AcDbLine
 62
7
  6
CONTINUOUS
 10
91.1043131448
 20
131.8738839286
 11
90.6043131448
 21
131.7887775557
  0
LINE
  5
239
100
AcDbEntity
  8
0
100
AcDbLine
 62
7
  6
CONTINUOUS
 10
96.2709796526
 20
131.8738839286
 11
95.6876466371
 21
131.7887775557
  0
LINE
  5
23A
100
AcDbEntity
  8
0
100
AcDbLine
 62
7
  6
CONTINUOUS
 10
96.5209796526
 20
130.0866498607
 11
96.1876466371
 21
130.0866498607
  0
LINE
  5
23B
100
AcDbEntity
  8
0
100
AcDbLine
 62
7
  6
CONTINUOUS
 10
98.5209801294
 20
130.2568626063
 11
99.1876461603
 21
130.2568626063
  0
LINE
  5
23C
100
AcDbEntity
  8
0
100
AcDbLine
 62
7
  6
CONTINUOUS
 10
99.6043131448
 20
130.2568626063
 11
100.5209801294
 21
130.2568626063
  0
LINE
  5
23D
100
AcDbEntity
  8
0
100
AcDbLine
 62
7
  6
CONTINUOUS
 10
100.5209801294
 20
130.5972880977
 11
99.6043131448
 21
130.5972880977
  0
LINE
  5
23E
100
AcDbEntity
  8
0
100
AcDbLine
 62
7
  6
CONTINUOUS
 10
99.1876461603
 20
130.5972880977
 11
98.5209801294
 21
130.5972880977
  0
LINE
  5
23F
100
AcDbEntity
  8
0
100
AcDbLine
 62
7
  6
CONTINUOUS
 10
76.5626466371
 20
130.8738839286
 11
77.5331347579
 21
130.8738839286
  0
LINE
  5
240
100
AcDbEntity
  8
0
100
AcDbLine
 62
7
  6
CONTINUOUS
 10
112.5921585164
 20
130.8738839286
 11
113.5626466371
 21
130.8738839286
  0
LINE
  5
241
100
AcDbEntity
  8
0
100
AcDbLine
 62
7
  6
CONTINUOUS
 10
94.9376466371
 20
130.9377138274
 11
95.3543131448
 21
130.9377138274
  0
LINE
  5
242
100
AcDbEntity
  8
0
100
AcDbLine
 62
7
  6
CONTINUOUS
 10
99.6043131448
 20
131.2781393187
 11
99.1876461603
 21
131.2781393187
  0
LINE
  5
243
100
AcDbEntity
  8
0
100
AcDbLine
 62
7
  6
CONTINUOUS
 10
96.1876466371
 20
131.4483520644
 11
96.5209796526
 21
131.4483520644
  0
LINE
  5
244
100
AcDbEntity
  8
0
100
AcDbLine
 62
7
  6
CONTINUOUS
 10
96.4376466371
 20
131.8738839286
 11
96.2709796526
 21
131.8738839286
  0
LINE
  5
245
100
AcDbEntity
  8
0
100
AcDbLine
 62
7
  6
CONTINUOUS
 10
97.0209796526
 20
131.7887775557
 11
96.4376466371
 21
131.8738839286
  0
LINE
  5
246
100
AcDbEntity
  8
0
100
AcDbLine
 62
7
  6
CONTINUOUS
 10
96.5209796526
 20
129.7462243693
 11
97.0209796526
 21
129.6611179965
  0
LINE
  5
247
100
AcDbEntity
  8
0
100
AcDbLine
 62
7
  6
CONTINUOUS
 10
91.6043131448
 20
131.7887775557
 11
91.1043131448
 21
131.8738839286
  0
LINE
  5
248
100
AcDbEntity
  8
0
100
AcDbLine
 62
7
  6
CONTINUOUS
 10
91.1043131448
 20
131.4483520644
 11
91.5209797718
 21
131.3632456916
  0
LINE
  5
249
100
AcDbEntity
  8
0
100
AcDbLine
 62
7
  6
CONTINUOUS
 10
96.5209796526
 20
131.4483520644
 11
96.9376466371
 21
131.3632456916
  0
LINE
  5
24A
100
AcDbEntity
  8
0
100
AcDbLine
 62
7
  6
CONTINUOUS
 10
99.6043131448
 20
128.0440966891
 11
99.8543131448
 21
127.9589903089
  0
LINE
  5
24B
100
AcDbEntity
  8
0
100
AcDbLine
 62
7
  6
CONTINUOUS
 10
97.6043131448
 20
129.7462243693
 11
97.1876466371
 21
129.916437115
  0
LINE
  5
24C
100
AcDbEntity
  8
0
100
AcDbLine
 62
7
  6
CONTINUOUS
 10
95.3543131448
 20
128.1292030769
 11
95.6876466371
 21
127.9589903089
  0
LINE
  5
24D
100
AcDbEntity
  8
0
100
AcDbLine
 62
7
  6
CONTINUOUS
 10
95.6876466371
 20
128.3845222252
 11
95.5209796526
 21
128.469628598
  0
LINE
  5
24E
100
AcDbEntity
  8
0
100
AcDbLine
 62
7
  6
CONTINUOUS
 10
92.020979891
 20
131.5334584372
 11
91.6043131448
 21
131.7887775557
  0
LINE
  5
24F
100
AcDbEntity
  8
0
100
AcDbLine
 62
7
  6
CONTINUOUS
 10
95.1043131448
 20
128.2994158523
 11
95.3543131448
 21
128.1292030769
  0
LINE
  5
250
100
AcDbEntity
  8
0
100
AcDbLine
 62
7
  6
CONTINUOUS
 10
91.5209797718
 20
131.3632456916
 11
91.770979891
 21
131.1930329459
  0
LINE
  5
251
100
AcDbEntity
  8
0
100
AcDbLine
 62
7
  6
CONTINUOUS
 10
89.9376464881
 20
128.469628598
 11
90.1876464583
 21
128.2143094497
  0
LINE
  5
252
100
AcDbEntity
  8
0
100
AcDbLine
 62
7
  6
CONTINUOUS
 10
82.7833619399
 20
159.824754126
 11
82.8554518063
 21
160.0472922257
  0
LINE
  5
253
100
AcDbEntity
  8
0
100
AcDbLine
 62
7
  6
CONTINUOUS
 10
82.5584733105
 20
159.9759860801
 11
82.4855999343
 21
159.8278885871
  0
LINE
  5
254
100
AcDbEntity
  8
0
100
AcDbLine
 62
7
  6
CONTINUOUS
 10
81.221677798
 20
159.6923284119
 11
81.9214189538
 21
160.3920695677
  0
LINE
  5
255
100
AcDbEntity
  8
0
100
AcDbLine
 62
7
  6
CONTINUOUS
 10
82.4855999343
 20
159.8278885871
 11
81.7858587785
 21
159.1281474314
  0
LINE
  5
256
100
AcDbEntity
  8
0
100
AcDbLine
 62
7
  6
CONTINUOUS
 10
82.0115311286
 20
158.9024750813
 11
82.6376151875
 21
159.5285591402
  0
LINE
  5
257
100
AcDbEntity
  8
0
100
AcDbLine
 62
7
  6
CONTINUOUS
 10
81.4019023057
 20
156.7131395971
 11
81.6965301136
 21
157.0077674051
  0
LINE
  5
258
100
AcDbEntity
  8
0
100
AcDbLine
 62
7
  6
CONTINUOUS
 10
82.5804135901
 20
157.8916508815
 11
82.8013844592
 21
158.1126217507
  0
LINE
  5
259
100
AcDbEntity
  8
0
100
AcDbLine
 62
7
  6
CONTINUOUS
 10
83.7220964841
 20
159.0333337756
 11
83.9798956909
 21
159.2911329824
  0
LINE
  5
25A
100
AcDbEntity
  8
0
100
AcDbLine
 62
7
  6
CONTINUOUS
 10
84.2745236569
 20
159.5857609484
 11
84.4954943153
 21
159.8067316068
  0
LINE
  5
25B
100
AcDbEntity
  8
0
100
AcDbLine
 62
7
  6
CONTINUOUS
 10
85.0110931504
 20
160.3223304419
 11
85.3057211164
 21
160.6169584079
  0
LINE
  5
25C
100
AcDbEntity
  8
0
100
AcDbLine
 62
7
  6
CONTINUOUS
 10
85.82131953
 20
161.1325568215
 11
86.0422903992
 21
161.3535276906
  0
LINE
  5
25D
100
AcDbEntity
  8
0
100
AcDbLine
 62
7
  6
CONTINUOUS
 10
81.9182844926
 20
160.6898315733
 11
81.6965301136
 21
160.543301311
  0
LINE
  5
25E
100
AcDbEntity
  8
0
100
AcDbLine
 62
7
  6
CONTINUOUS
 10
93.1876473226
 20
164.5972881871
 11
93.3959806062
 21
164.7036711531
  0
LINE
  5
25F
100
AcDbEntity
  8
0
100
AcDbLine
 62
7
  6
CONTINUOUS
 10
81.9214189538
 20
160.3920695677
 11
82.0695164467
 21
160.4649429439
  0
LINE
  5
260
100
AcDbEntity
  8
0
100
AcDbLine
 62
7
  6
CONTINUOUS
 10
93.1355638899
 20
164.8632456022
 11
92.9793138899
 21
164.8100541191
  0
LINE
  5
261
100
AcDbEntity
  8
0
100
AcDbLine
 62
7
  6
CONTINUOUS
 10
97.3543131448
 20
131.6185648101
 11
97.0209796526
 21
131.7887775557
  0
LINE
  5
262
100
AcDbEntity
  8
0
100
AcDbLine
 62
7
  6
CONTINUOUS
 10
97.0209796526
 20
129.6611179965
 11
97.2709796526
 21
129.4909052508
  0
LINE
  5
263
100
AcDbEntity
  8
0
100
AcDbLine
 62
7
  6
CONTINUOUS
 10
99.3543131448
 20
128.2143094497
 11
99.6043131448
 21
128.0440966891
  0
LINE
  5
264
100
AcDbEntity
  8
0
100
AcDbLine
 62
7
  6
CONTINUOUS
 10
99.9376461603
 20
128.2994158523
 11
99.6876461603
 21
128.469628598
  0
LINE
  5
265
100
AcDbEntity
  8
0
100
AcDbLine
 62
7
  6
CONTINUOUS
 10
96.9376466371
 20
131.3632456916
 11
97.1876466371
 21
131.1930329459
  0
LINE
  5
266
100
AcDbEntity
  8
0
100
AcDbLine
 62
7
  6
CONTINUOUS
 10
92.270979891
 20
131.2781393187
 11
92.020979891
 21
131.5334584372
  0
LINE
  5
267
100
AcDbEntity
  8
0
100
AcDbLine
 62
7
  6
CONTINUOUS
 10
95.5209796526
 20
128.469628598
 11
95.3543131448
 21
128.6398414033
  0
LINE
  5
268
100
AcDbEntity
  8
0
100
AcDbLine
 62
7
  6
CONTINUOUS
 10
90.4376464583
 20
128.5547349708
 11
90.1043131448
 21
129.0653732674
  0
LINE
  5
269
100
AcDbEntity
  8
0
100
AcDbLine
 62
7
  6
CONTINUOUS
 10
82.55690608
 20
160.1248670829
 11
82.5584733105
 21
159.9759860801
  0
LINE
  5
26A
100
AcDbEntity
  8
0
100
AcDbLine
 62
7
  6
CONTINUOUS
 10
93.2397306062
 20
164.9696285682
 11
93.1355638899
 21
164.8632456022
  0
LINE
  5
26B
100
AcDbEntity
  8
0
100
AcDbLine
 62
7
  6
CONTINUOUS
 10
95.4793140389
 20
163.8526073503
 11
95.3230640389
 21
163.746224347
  0
LINE
  5
26C
100
AcDbEntity
  8
0
100
AcDbLine
 62
7
  6
CONTINUOUS
 10
95.3751471736
 20
163.4270754162
 11
95.5834806062
 21
163.5334583963
  0
LINE
  5
26D
100
AcDbEntity
  8
0
100
AcDbLine
 62
7
  6
CONTINUOUS
 10
89.0626466371
 20
138.6238839286
 11
101.0626466371
 21
138.6238839286
  0
LINE
  5
26E
100
AcDbEntity
  8
0
100
AcDbLine
 62
7
  6
CONTINUOUS
 10
91.770979891
 20
131.1930329459
 11
92.1043131448
 21
130.6823944705
  0
LINE
  5
26F
100
AcDbEntity
  8
0
100
AcDbLine
 62
7
  6
CONTINUOUS
 10
94.9376466371
 20
128.5547349708
 11
95.1043131448
 21
128.2994158523
  0
LINE
  5
270
100
AcDbEntity
  8
0
100
AcDbLine
 62
7
  6
CONTINUOUS
 10
89.7709798165
 20
128.8100541489
 11
89.9376464881
 21
128.469628598
  0
LINE
  5
271
100
AcDbEntity
  8
0
100
AcDbLine
 62
7
  6
CONTINUOUS
 10
89.6876464807
 20
129.0653732674
 11
89.7709798165
 21
128.8100541489
  0
LINE
  5
272
100
AcDbEntity
  8
0
100
AcDbLine
 62
7
  6
CONTINUOUS
 10
93.3959806062
 20
164.7036711531
 11
93.5522306062
 21
164.9164370852
  0
LINE
  5
273
100
AcDbEntity
  8
0
100
AcDbLine
 62
7
  6
CONTINUOUS
 10
95.5834806062
 20
163.5334583963
 11
95.7918140389
 21
163.746224347
  0
LINE
  5
274
100
AcDbEntity
  8
0
100
AcDbLine
 62
7
  6
CONTINUOUS
 10
97.9793137409
 20
163.8526073503
 11
97.8230637409
 21
163.746224347
  0
LINE
  5
275
100
AcDbEntity
  8
0
100
AcDbLine
 62
7
  6
CONTINUOUS
 10
97.8751474716
 20
163.4270754162
 11
98.0834806062
 21
163.5334583963
  0
LINE
  5
276
100
AcDbEntity
  8
0
100
AcDbLine
 62
7
  6
CONTINUOUS
 10
97.6876461603
 20
131.2781393187
 11
97.3543131448
 21
131.6185648101
  0
LINE
  5
277
100
AcDbEntity
  8
0
100
AcDbLine
 62
7
  6
CONTINUOUS
 10
97.7709801294
 20
129.4909052508
 11
97.6043131448
 21
129.7462243693
  0
LINE
  5
278
100
AcDbEntity
  8
0
100
AcDbLine
 62
7
  6
CONTINUOUS
 10
97.1876466371
 20
131.1930329459
 11
97.3543131448
 21
130.9377138274
  0
LINE
  5
279
100
AcDbEntity
  8
0
100
AcDbLine
 62
7
  6
CONTINUOUS
 10
81.6965301136
 20
157.0077674051
 11
80.5180187765
 21
159.3647899739
  0
LINE
  5
27A
100
AcDbEntity
  8
0
100
AcDbLine
 62
7
  6
CONTINUOUS
 10
80.2970479074
 20
159.1438191048
 11
81.3235438069
 21
157.0861258512
  0
LINE
  5
27B
100
AcDbEntity
  8
0
100
AcDbLine
 62
7
  6
CONTINUOUS
 10
92.4376463987
 20
130.9377138274
 11
92.270979891
 21
131.2781393187
  0
LINE
  5
27C
100
AcDbEntity
  8
0
100
AcDbLine
 62
7
  6
CONTINUOUS
 10
95.3543131448
 20
128.6398414033
 11
95.2709796526
 21
128.8100541489
  0
LINE
  5
27D
100
AcDbEntity
  8
0
100
AcDbLine
 62
7
  6
CONTINUOUS
 10
92.520979891
 20
130.6823944705
 11
92.4376463987
 21
130.9377138274
  0
LINE
  5
27E
100
AcDbEntity
  8
0
100
AcDbLine
 62
7
  6
CONTINUOUS
 10
89.6043131448
 20
129.4909052508
 11
89.6876464807
 21
129.0653732674
  0
LINE
  5
27F
100
AcDbEntity
  8
0
100
AcDbLine
 62
7
  6
CONTINUOUS
 10
82.8554518063
 20
160.0472922257
 11
82.8154890074
 21
160.3082258936
  0
LINE
  5
280
100
AcDbEntity
  8
0
100
AcDbLine
 62
7
  6
CONTINUOUS
 10
86.9126466371
 20
124.8738839286
 11
86.9126466371
 21
124.6238839286
  0
LINE
  5
281
100
AcDbEntity
  8
0
100
AcDbLine
 62
7
  6
CONTINUOUS
 10
89.0626466371
 20
136.4617661136
 11
89.0626466371
 21
138.6238839286
  0
LINE
  5
282
100
AcDbEntity
  8
0
100
AcDbLine
 62
7
  6
CONTINUOUS
 10
89.6043131448
 20
130.2568626063
 11
89.6043131448
 21
129.4909052508
  0
LINE
  5
283
100
AcDbEntity
  8
0
100
AcDbLine
 62
7
  6
CONTINUOUS
 10
93.2918138899
 20
165.1292030173
 11
93.2397306062
 21
164.9696285682
  0
LINE
  5
284
100
AcDbEntity
  8
0
100
AcDbLine
 62
7
  6
CONTINUOUS
 10
93.5522306062
 20
164.9164370852
 11
93.6043138899
 21
165.0760115342
  0
LINE
  5
285
100
AcDbEntity
  8
0
100
AcDbLine
 62
7
  6
CONTINUOUS
 10
95.7918140389
 20
163.746224347
 11
95.8959806062
 21
163.9589903163
  0
LINE
  5
286
100
AcDbEntity
  8
0
100
AcDbLine
 62
7
  6
CONTINUOUS
 10
95.5834806062
 20
164.0121817993
 11
95.4793140389
 21
163.8526073503
  0
LINE
  5
287
100
AcDbEntity
  8
0
100
AcDbLine
 62
7
  6
CONTINUOUS
 10
98.0834806062
 20
163.5334583963
 11
98.2918137409
 21
163.746224347
  0
LINE
  5
288
100
AcDbEntity
  8
0
100
AcDbLine
 62
7
  6
CONTINUOUS
 10
82.4808984534
 20
160.2745318063
 11
82.55690608
 21
160.1248670829
  0
LINE
  5
289
100
AcDbEntity
  8
0
100
AcDbLine
 62
7
  6
CONTINUOUS
 10
82.8154890074
 20
160.3082258936
 11
82.7394813808
 21
160.4578906171
  0
LINE
  5
28A
100
AcDbEntity
  8
0
100
AcDbLine
 62
7
  6
CONTINUOUS
 10
97.2709796526
 20
129.4909052508
 11
97.4376466371
 21
129.1504796403
  0
LINE
  5
28B
100
AcDbEntity
  8
0
100
AcDbLine
 62
7
  6
CONTINUOUS
 10
99.1876461603
 20
128.5547349708
 11
99.3543131448
 21
128.2143094497
  0
LINE
  5
28C
100
AcDbEntity
  8
0
100
AcDbLine
 62
7
  6
CONTINUOUS
 10
94.8543131448
 20
128.8100541489
 11
94.9376466371
 21
128.5547349708
  0
LINE
  5
28D
100
AcDbEntity
  8
0
100
AcDbLine
 62
7
  6
CONTINUOUS
 10
92.6043131448
 20
130.2568626063
 11
92.520979891
 21
130.6823944705
  0
LINE
  5
28E
100
AcDbEntity
  8
0
100
AcDbLine
 62
7
  6
CONTINUOUS
 10
90.1043131448
 20
129.0653732674
 11
90.0209798016
 21
129.5760116237
  0
LINE
  5
28F
100
AcDbEntity
  8
0
100
AcDbLine
 62
7
  6
CONTINUOUS
 10
92.1043131448
 20
130.6823944705
 11
92.1876463987
 21
130.1717562335
  0
LINE
  5
290
100
AcDbEntity
  8
0
100
AcDbLine
 62
7
  6
CONTINUOUS
 10
90.0209798016
 20
129.5760116237
 11
90.0209798016
 21
130.1717562335
  0
LINE
  5
291
100
AcDbEntity
  8
0
100
AcDbLine
 62
7
  6
CONTINUOUS
 10
91.6772306062
 20
165.8738839286
 11
91.6772306062
 21
163.3738839286
  0
LINE
  5
292
100
AcDbEntity
  8
0
100
AcDbLine
 62
7
  6
CONTINUOUS
 10
91.9897306062
 20
163.3738839286
 11
91.9897306062
 21
164.490905221
  0
LINE
  5
293
100
AcDbEntity
  8
0
100
AcDbLine
 62
7
  6
CONTINUOUS
 10
91.9897306062
 20
164.8100541191
 11
91.9897306062
 21
165.6079265135
  0
LINE
  5
294
100
AcDbEntity
  8
0
100
AcDbLine
 62
7
  6
CONTINUOUS
 10
92.1876463987
 20
130.1717562335
 11
92.1876463987
 21
129.5760116237
  0
LINE
  5
295
100
AcDbEntity
  8
0
100
AcDbLine
 62
7
  6
CONTINUOUS
 10
95.6355640389
 20
164.2249477314
 11
95.5834806062
 21
164.0121817993
  0
LINE
  5
296
100
AcDbEntity
  8
0
100
AcDbLine
 62
7
  6
CONTINUOUS
 10
98.2918137409
 20
163.746224347
 11
98.3959806062
 21
163.9589903163
  0
LINE
  5
297
100
AcDbEntity
  8
0
100
AcDbLine
 62
7
  6
CONTINUOUS
 10
98.0834806062
 20
164.0121817993
 11
97.9793137409
 21
163.8526073503
  0
LINE
  5
298
100
AcDbEntity
  8
0
100
AcDbLine
 62
7
  6
CONTINUOUS
 10
80.8126466371
 20
159.6594178345
 11
82.5804135901
 21
157.8916508815
  0
LINE
  5
299
100
AcDbEntity
  8
0
100
AcDbLine
 62
7
  6
CONTINUOUS
 10
82.8013844592
 20
158.1126217507
 11
82.0115311286
 21
158.9024750813
  0
LINE
  5
29A
100
AcDbEntity
  8
0
100
AcDbLine
 62
7
  6
CONTINUOUS
 10
81.7858587785
 20
159.1281474314
 11
81.221677798
 21
159.6923284119
  0
LINE
  5
29B
100
AcDbEntity
  8
0
100
AcDbLine
 62
7
  6
CONTINUOUS
 10
83.9430671425
 20
162.7898383399
 11
84.9703466046
 21
160.6577045322
  0
LINE
  5
29C
100
AcDbEntity
  8
0
100
AcDbLine
 62
7
  6
CONTINUOUS
 10
85.3057211164
 20
160.6169584079
 11
84.4296731605
 21
162.524203191
  0
LINE
  5
29D
100
AcDbEntity
  8
0
100
AcDbLine
 62
7
  6
CONTINUOUS
 10
92.6043131448
 20
129.4909052508
 11
92.6043131448
 21
130.2568626063
  0
LINE
  5
29E
100
AcDbEntity
  8
0
100
AcDbLine
 62
7
  6
CONTINUOUS
 10
93.2918138899
 20
165.2887776153
 11
93.2918138899
 21
165.1292030173
  0
LINE
  5
29F
100
AcDbEntity
  8
0
100
AcDbLine
 62
7
  6
CONTINUOUS
 10
93.6043138899
 20
165.0760115342
 11
93.6043138899
 21
165.2887776153
  0
LINE
  5
2A0
100
AcDbEntity
  8
0
100
AcDbLine
 62
7
  6
CONTINUOUS
 10
94.0730638899
 20
165.8738839286
 11
94.0730638899
 21
164.2249477314
  0
LINE
  5
2A1
100
AcDbEntity
  8
0
100
AcDbLine
 62
7
  6
CONTINUOUS
 10
94.3855640389
 20
164.2249477314
 11
94.3855640389
 21
165.8738839286
  0
LINE
  5
2A2
100
AcDbEntity
  8
0
100
AcDbLine
 62
7
  6
CONTINUOUS
 10
95.0626466371
 20
135.8662773957
 11
95.0626466371
 21
138.6238839286
  0
LINE
  5
2A3
100
AcDbEntity
  8
0
100
AcDbLine
 62
7
  6
CONTINUOUS
 10
90.0209798016
 20
130.1717562335
 11
90.1043131448
 21
130.6823944705
  0
LINE
  5
2A4
100
AcDbEntity
  8
0
100
AcDbLine
 62
7
  6
CONTINUOUS
 10
95.8959806062
 20
163.9589903163
 11
95.9480640389
 21
164.2249477314
  0
LINE
  5
2A5
100
AcDbEntity
  8
0
100
AcDbLine
 62
7
  6
CONTINUOUS
 10
89.6876464807
 20
130.6823944705
 11
89.6043131448
 21
130.2568626063
  0
LINE
  5
2A6
100
AcDbEntity
  8
0
100
AcDbLine
 62
7
  6
CONTINUOUS
 10
98.1355637409
 20
164.2249477314
 11
98.0834806062
 21
164.0121817993
  0
LINE
  5
2A7
100
AcDbEntity
  8
0
100
AcDbLine
 62
7
  6
CONTINUOUS
 10
79.0448796842
 20
157.8916508815
 11
81.4019023057
 21
156.7131395971
  0
LINE
  5
2A8
100
AcDbEntity
  8
0
100
AcDbLine
 62
7
  6
CONTINUOUS
 10
82.368062173
 20
160.3873680867
 11
82.4808984534
 21
160.2745318063
  0
LINE
  5
2A9
100
AcDbEntity
  8
0
100
AcDbLine
 62
7
  6
CONTINUOUS
 10
82.7394813808
 20
160.4578906171
 11
82.5890330421
 21
160.6083389559
  0
LINE
  5
2AA
100
AcDbEntity
  8
0
100
AcDbLine
 62
7
  6
CONTINUOUS
 10
82.506756704
 20
161.3535279013
 11
84.2745236569
 21
159.5857609484
  0
LINE
  5
2AB
100
AcDbEntity
  8
0
100
AcDbLine
 62
7
  6
CONTINUOUS
 10
84.4954943153
 20
159.8067316068
 11
83.1038479458
 21
161.1983779763
  0
LINE
  5
2AC
100
AcDbEntity
  8
0
100
AcDbLine
 62
7
  6
CONTINUOUS
 10
99.6876461603
 20
128.469628598
 11
99.6043131448
 21
128.7249477761
  0
LINE
  5
2AD
100
AcDbEntity
  8
0
100
AcDbLine
 62
7
  6
CONTINUOUS
 10
97.8543131448
 20
129.1504796403
 11
97.7709801294
 21
129.4909052508
  0
LINE
  5
2AE
100
AcDbEntity
  8
0
100
AcDbLine
 62
7
  6
CONTINUOUS
 10
97.7709801294
 20
130.9377138274
 11
97.6876461603
 21
131.2781393187
  0
LINE
  5
2AF
100
AcDbEntity
  8
0
100
AcDbLine
 62
7
  6
CONTINUOUS
 10
95.6355640389
 20
165.8738839286
 11
95.6355640389
 21
164.2249477314
  0
LINE
  5
2B0
100
AcDbEntity
  8
0
100
AcDbLine
 62
7
  6
CONTINUOUS
 10
95.9480640389
 20
164.2249477314
 11
95.9480640389
 21
165.8738839286
  0
LINE
  5
2B1
100
AcDbEntity
  8
0
100
AcDbLine
 62
7
  6
CONTINUOUS
 10
96.1876466371
 20
130.0866498607
 11
96.1876466371
 21
129.7462243693
  0
LINE
  5
2B2
100
AcDbEntity
  8
0
100
AcDbLine
 62
7
  6
CONTINUOUS
 10
96.3647306062
 20
165.8738839286
 11
96.3647306062
 21
163.3738839286
  0
LINE
  5
2B3
100
AcDbEntity
  8
0
100
AcDbLine
 62
7
  6
CONTINUOUS
 10
96.6772306062
 20
163.6930328639
 11
96.6772306062
 21
165.5547350304
  0
LINE
  5
2B4
100
AcDbEntity
  8
0
100
AcDbLine
 62
7
  6
CONTINUOUS
 10
97.3543131448
 20
130.9377138274
 11
97.3543131448
 21
130.7675008433
  0
LINE
  5
2B5
100
AcDbEntity
  8
0
100
AcDbLine
 62
7
  6
CONTINUOUS
 10
97.4376466371
 20
129.1504796403
 11
97.4376466371
 21
128.8100541489
  0
LINE
  5
2B6
100
AcDbEntity
  8
0
100
AcDbLine
 62
7
  6
CONTINUOUS
 10
97.7709801294
 20
130.7675008433
 11
97.7709801294
 21
130.9377138274
  0
LINE
  5
2B7
100
AcDbEntity
  8
0
100
AcDbLine
 62
7
  6
CONTINUOUS
 10
97.8543131448
 20
128.8100541489
 11
97.8543131448
 21
129.1504796403
  0
LINE
  5
2B8
100
AcDbEntity
  8
0
100
AcDbLine
 62
7
  6
CONTINUOUS
 10
98.1355637409
 20
165.0228200512
 11
98.1355637409
 21
164.2249477314
  0
LINE
  5
2B9
100
AcDbEntity
  8
0
100
AcDbLine
 62
7
  6
CONTINUOUS
 10
92.1876463987
 20
129.5760116237
 11
92.1043131448
 21
129.0653732674
  0
LINE
  5
2BA
100
AcDbEntity
  8
0
100
AcDbLine
 62
7
  6
CONTINUOUS
 10
98.3959806062
 20
163.9589903163
 11
98.4480637409
 21
164.2249477314
  0
LINE
  5
2BB
100
AcDbEntity
  8
0
100
AcDbLine
 62
7
  6
CONTINUOUS
 10
92.520979891
 20
129.0653732674
 11
92.6043131448
 21
129.4909052508
  0
LINE
  5
2BC
100
AcDbEntity
  8
0
100
AcDbLine
 62
7
  6
CONTINUOUS
 10
89.7709798165
 20
130.9377138274
 11
89.6876464807
 21
130.6823944705
  0
LINE
  5
2BD
100
AcDbEntity
  8
0
100
AcDbLine
 62
7
  6
CONTINUOUS
 10
81.3235438069
 20
157.0861258512
 11
79.2658505533
 21
158.1126217507
  0
LINE
  5
2BE
100
AcDbEntity
  8
0
100
AcDbLine
 62
7
  6
CONTINUOUS
 10
84.4296731605
 20
162.524203191
 11
85.82131953
 21
161.1325568215
  0
LINE
  5
2BF
100
AcDbEntity
  8
0
100
AcDbLine
 62
7
  6
CONTINUOUS
 10
86.0422903992
 20
161.3535276906
 11
84.2745234462
 21
163.1212946436
  0
LINE
  5
2C0
100
AcDbEntity
  8
0
100
AcDbLine
 62
7
  6
CONTINUOUS
 10
92.8751472481
 20
164.490905221
 11
93.2918138899
 21
163.3738839286
  0
LINE
  5
2C1
100
AcDbEntity
  8
0
100
AcDbLine
 62
7
  6
CONTINUOUS
 10
93.2397306062
 20
165.4483520644
 11
93.2918138899
 21
165.2887776153
  0
LINE
  5
2C2
100
AcDbEntity
  8
0
100
AcDbLine
 62
7
  6
CONTINUOUS
 10
94.4376471736
 20
164.0121817993
 11
94.3855640389
 21
164.2249477314
  0
LINE
  5
2C3
100
AcDbEntity
  8
0
100
AcDbLine
 62
7
  6
CONTINUOUS
 10
94.0730638899
 20
164.2249477314
 11
94.1251473226
 21
163.9589903163
  0
LINE
  5
2C4
100
AcDbEntity
  8
0
100
AcDbLine
 62
7
  6
CONTINUOUS
 10
98.4480637409
 20
164.2249477314
 11
98.4480637409
 21
165.0228200512
  0
LINE
  5
2C5
100
AcDbEntity
  8
0
100
AcDbLine
 62
7
  6
CONTINUOUS
 10
98.5209801294
 20
130.5972880977
 11
98.5209801294
 21
130.2568626063
  0
LINE
  5
2C6
100
AcDbEntity
  8
0
100
AcDbLine
 62
7
  6
CONTINUOUS
 10
99.1876461603
 20
131.2781393187
 11
99.1876461603
 21
130.5972880977
  0
LINE
  5
2C7
100
AcDbEntity
  8
0
100
AcDbLine
 62
7
  6
CONTINUOUS
 10
99.1876461603
 20
130.2568626063
 11
99.1876461603
 21
128.5547349708
  0
LINE
  5
2C8
100
AcDbEntity
  8
0
100
AcDbLine
 62
7
  6
CONTINUOUS
 10
99.6043131448
 20
128.7249477761
 11
99.6043131448
 21
130.2568626063
  0
LINE
  5
2C9
100
AcDbEntity
  8
0
100
AcDbLine
 62
7
  6
CONTINUOUS
 10
99.6043131448
 20
130.5972880977
 11
99.6043131448
 21
131.2781393187
  0
LINE
  5
2CA
100
AcDbEntity
  8
0
100
AcDbLine
 62
7
  6
CONTINUOUS
 10
100.3543131448
 20
127.8738839286
 11
100.3543131448
 21
128.2143094497
  0
LINE
  5
2CB
100
AcDbEntity
  8
0
100
AcDbLine
 62
7
  6
CONTINUOUS
 10
100.5209801294
 20
130.2568626063
 11
100.5209801294
 21
130.5972880977
  0
LINE
  5
2CC
100
AcDbEntity
  8
0
100
AcDbLine
 62
7
  6
CONTINUOUS
 10
101.0626466371
 20
136.4617255264
 11
101.0626466371
 21
138.6238839286
  0
LINE
  5
2CD
100
AcDbEntity
  8
0
100
AcDbLine
 62
7
  6
CONTINUOUS
 10
95.0209796526
 20
131.2781393187
 11
94.9376466371
 21
130.9377138274
  0
LINE
  5
2CE
100
AcDbEntity
  8
0
100
AcDbLine
 62
7
  6
CONTINUOUS
 10
92.4376463987
 20
128.8100541489
 11
92.520979891
 21
129.0653732674
  0
LINE
  5
2CF
100
AcDbEntity
  8
0
100
AcDbLine
 62
7
  6
CONTINUOUS
 10
89.9376464881
 20
131.2781393187
 11
89.7709798165
 21
130.9377138274
  0
LINE
  5
2D0
100
AcDbEntity
  8
0
100
AcDbLine
 62
7
  6
CONTINUOUS
 10
83.9798956909
 20
159.2911329824
 11
82.7833619399
 21
159.824754126
  0
LINE
  5
2D1
100
AcDbEntity
  8
0
100
AcDbLine
 62
7
  6
CONTINUOUS
 10
82.6376151875
 20
159.5285591402
 11
83.7220964841
 21
159.0333337756
  0
LINE
  5
2D2
100
AcDbEntity
  8
0
100
AcDbLine
 62
7
  6
CONTINUOUS
 10
83.1038479458
 20
161.1983779763
 11
85.0110931504
 21
160.3223304419
  0
LINE
  5
2D3
100
AcDbEntity
  8
0
100
AcDbLine
 62
7
  6
CONTINUOUS
 10
84.9703466046
 20
160.6577045322
 11
82.8382127969
 21
161.6849839943
  0
LINE
  5
2D4
100
AcDbEntity
  8
0
100
AcDbLine
 62
7
  6
CONTINUOUS
 10
82.2183974495
 20
160.4633757133
 11
82.368062173
 21
160.3873680867
  0
LINE
  5
2D5
100
AcDbEntity
  8
0
100
AcDbLine
 62
7
  6
CONTINUOUS
 10
82.5890330421
 20
160.6083389559
 11
82.4393683186
 21
160.6843465825
  0
LINE
  5
2D6
100
AcDbEntity
  8
0
100
AcDbLine
 62
7
  6
CONTINUOUS
 10
94.1251473226
 20
163.9589903163
 11
94.2293140389
 21
163.746224347
  0
LINE
  5
2D7
100
AcDbEntity
  8
0
100
AcDbLine
 62
7
  6
CONTINUOUS
 10
93.6563973226
 20
163.3738839286
 11
93.1876473226
 21
164.5972881871
  0
LINE
  5
2D8
100
AcDbEntity
  8
0
100
AcDbLine
 62
7
  6
CONTINUOUS
 10
93.6043138899
 20
165.2887776153
 11
93.5522306062
 21
165.4483520644
  0
LINE
  5
2D9
100
AcDbEntity
  8
0
100
AcDbLine
 62
7
  6
CONTINUOUS
 10
103.2126466371
 20
124.8738839286
 11
103.2126466371
 21
124.6238839286
  0
LINE
  5
2DA
100
AcDbEntity
  8
0
100
AcDbLine
 62
7
  6
CONTINUOUS
 10
97.6876461603
 20
130.427075352
 11
97.7709801294
 21
130.7675008433
  0
LINE
  5
2DB
100
AcDbEntity
  8
0
100
AcDbLine
 62
7
  6
CONTINUOUS
 10
92.270979891
 20
128.469628598
 11
92.4376463987
 21
128.8100541489
  0
LINE
  5
2DC
100
AcDbEntity
  8
0
100
AcDbLine
 62
7
  6
CONTINUOUS
 10
93.7709796526
 20
128.2994158523
 11
93.270979891
 21
127.363245632
  0
LINE
  5
2DD
100
AcDbEntity
  8
0
100
AcDbLine
 62
7
  6
CONTINUOUS
 10
90.1043131448
 20
130.6823944705
 11
90.4376464583
 21
131.1930329459
  0
LINE
  5
2DE
100
AcDbEntity
  8
0
100
AcDbLine
 62
7
  6
CONTINUOUS
 10
92.1043131448
 20
129.0653732674
 11
91.770979891
 21
128.5547349708
  0
LINE
  5
2DF
100
AcDbEntity
  8
0
100
AcDbLine
 62
7
  6
CONTINUOUS
 10
82.4393683186
 20
160.6843465825
 11
82.1784346507
 21
160.7243093813
  0
LINE
  5
2E0
100
AcDbEntity
  8
0
100
AcDbLine
 62
7
  6
CONTINUOUS
 10
93.5522306062
 20
165.4483520644
 11
93.3959806062
 21
165.6611179965
  0
LINE
  5
2E1
100
AcDbEntity
  8
0
100
AcDbLine
 62
7
  6
CONTINUOUS
 10
94.5418140389
 20
163.8526073503
 11
94.4376471736
 21
164.0121817993
  0
LINE
  5
2E2
100
AcDbEntity
  8
0
100
AcDbLine
 62
7
  6
CONTINUOUS
 10
98.0834806062
 20
165.2355859833
 11
98.1355637409
 21
165.0228200512
  0
LINE
  5
2E3
100
AcDbEntity
  8
0
100
AcDbLine
 62
7
  6
CONTINUOUS
 10
98.4480637409
 20
165.0228200512
 11
98.3959806062
 21
165.2887776153
  0
LINE
  5
2E4
100
AcDbEntity
  8
0
100
AcDbLine
 62
7
  6
CONTINUOUS
 10
97.7709801294
 20
128.5547349708
 11
97.8543131448
 21
128.8100541489
  0
LINE
  5
2E5
100
AcDbEntity
  8
0
100
AcDbLine
 62
7
  6
CONTINUOUS
 10
97.3543131448
 20
130.7675008433
 11
97.1876466371
 21
130.427075352
  0
LINE
  5
2E6
100
AcDbEntity
  8
0
100
AcDbLine
 62
7
  6
CONTINUOUS
 10
97.4376466371
 20
128.8100541489
 11
97.3543131448
 21
128.6398414033
  0
LINE
  5
2E7
100
AcDbEntity
  8
0
100
AcDbLine
 62
7
  6
CONTINUOUS
 10
93.6876466371
 20
127.363245632
 11
94.1876466371
 21
128.2994158523
  0
LINE
  5
2E8
100
AcDbEntity
  8
0
100
AcDbLine
 62
7
  6
CONTINUOUS
 10
95.3543131448
 20
130.9377138274
 11
95.5209796526
 21
131.1930329459
  0
LINE
  5
2E9
100
AcDbEntity
  8
0
100
AcDbLine
 62
7
  6
CONTINUOUS
 10
90.1876464583
 20
131.5334584372
 11
89.9376464881
 21
131.2781393187
  0
LINE
  5
2EA
100
AcDbEntity
  8
0
100
AcDbLine
 62
7
  6
CONTINUOUS
 10
82.0695164467
 20
160.4649429439
 11
82.2183974495
 21
160.4633757133
  0
LINE
  5
2EB
100
AcDbEntity
  8
0
100
AcDbLine
 62
7
  6
CONTINUOUS
 10
94.6980640389
 20
163.746224347
 11
94.5418140389
 21
163.8526073503
  0
LINE
  5
2EC
100
AcDbEntity
  8
0
100
AcDbLine
 62
7
  6
CONTINUOUS
 10
93.3959806062
 20
165.6611179965
 11
93.1876473226
 21
165.8206924456
  0
LINE
  5
2ED
100
AcDbEntity
  8
0
100
AcDbLine
 62
7
  6
CONTINUOUS
 10
94.2293140389
 20
163.746224347
 11
94.4376471736
 21
163.5334583963
  0
LINE
  5
2EE
100
AcDbEntity
  8
0
100
AcDbLine
 62
7
  6
CONTINUOUS
 10
93.1355638899
 20
165.5547350304
 11
93.2397306062
 21
165.4483520644
  0
LINE
  5
2EF
100
AcDbEntity
  8
0
100
AcDbLine
 62
7
  6
CONTINUOUS
 10
97.9793137409
 20
165.3951605814
 11
98.0834806062
 21
165.2355859833
  0
LINE
  5
2F0
100
AcDbEntity
  8
0
100
AcDbLine
 62
7
  6
CONTINUOUS
 10
98.3959806062
 20
165.2887776153
 11
98.2918137409
 21
165.5015435474
  0
LINE
  5
2F1
100
AcDbEntity
  8
0
100
AcDbLine
 62
7
  6
CONTINUOUS
 10
97.5209796526
 20
130.1717562335
 11
97.6876461603
 21
130.427075352
  0
LINE
  5
2F2
100
AcDbEntity
  8
0
100
AcDbLine
 62
7
  6
CONTINUOUS
 10
97.6043131448
 20
128.2994158523
 11
97.7709801294
 21
128.5547349708
  0
LINE
  5
2F3
100
AcDbEntity
  8
0
100
AcDbLine
 62
7
  6
CONTINUOUS
 10
92.020979891
 20
128.2143094497
 11
92.270979891
 21
128.469628598
  0
LINE
  5
2F4
100
AcDbEntity
  8
0
100
AcDbLine
 62
7
  6
CONTINUOUS
 10
95.3543131448
 20
131.6185648101
 11
95.0209796526
 21
131.2781393187
  0
LINE
  5
2F5
100
AcDbEntity
  8
0
100
AcDbLine
 62
7
  6
CONTINUOUS
 10
90.4376464583
 20
131.1930329459
 11
90.6876465179
 21
131.3632456916
  0
LINE
  5
2F6
100
AcDbEntity
  8
0
100
AcDbLine
 62
7
  6
CONTINUOUS
 10
90.6043131448
 20
131.7887775557
 11
90.1876464583
 21
131.5334584372
  0
LINE
  5
2F7
100
AcDbEntity
  8
0
100
AcDbLine
 62
7
  6
CONTINUOUS
 10
97.8230637409
 20
163.746224347
 11
97.6147306062
 21
163.6930328639
  0
LINE
  5
2F8
100
AcDbEntity
  8
0
100
AcDbLine
 62
7
  6
CONTINUOUS
 10
95.3230640389
 20
163.746224347
 11
95.1147306062
 21
163.6930328639
  0
LINE
  5
2F9
100
AcDbEntity
  8
0
100
AcDbLine
 62
7
  6
CONTINUOUS
 10
97.6147306062
 20
163.3738839286
 11
97.8751474716
 21
163.4270754162
  0
LINE
  5
2FA
100
AcDbEntity
  8
0
100
AcDbLine
 62
7
  6
CONTINUOUS
 10
95.1147306062
 20
163.3738839286
 11
95.3751471736
 21
163.4270754162
  0
LINE
  5
2FB
100
AcDbEntity
  8
0
100
AcDbLine
 62
7
  6
CONTINUOUS
 10
82.1784346507
 20
160.7243093813
 11
81.9182844926
 21
160.6898315733
  0
LINE
  5
2FC
100
AcDbEntity
  8
0
100
AcDbLine
 62
7
  6
CONTINUOUS
 10
91.6772306062
 20
163.3738839286
 11
91.9897306062
 21
163.3738839286
  0
LINE
  5
2FD
100
AcDbEntity
  8
0
100
AcDbLine
 62
7
  6
CONTINUOUS
 10
93.2918138899
 20
163.3738839286
 11
93.6563973226
 21
163.3738839286
  0
LINE
  5
2FE
100
AcDbEntity
  8
0
100
AcDbLine
 62
7
  6
CONTINUOUS
 10
94.9063971736
 20
163.3738839286
 11
95.1147306062
 21
163.3738839286
  0
LINE
  5
2FF
100
AcDbEntity
  8
0
100
AcDbLine
 62
7
  6
CONTINUOUS
 10
96.3647306062
 20
163.3738839286
 11
97.6147306062
 21
163.3738839286
  0
LINE
  5
300
100
AcDbEntity
  8
0
100
AcDbLine
 62
7
  6
CONTINUOUS
 10
97.6147306062
 20
163.6930328639
 11
96.6772306062
 21
163.6930328639
  0
LINE
  5
301
100
AcDbEntity
  8
0
100
AcDbLine
 62
7
  6
CONTINUOUS
 10
95.1147306062
 20
163.6930328639
 11
94.9063971736
 21
163.6930328639
  0
LINE
  5
302
100
AcDbEntity
  8
0
100
AcDbLine
 62
7
  6
CONTINUOUS
 10
91.9897306062
 20
164.490905221
 11
92.8751472481
 21
164.490905221
  0
LINE
  5
303
100
AcDbEntity
  8
0
100
AcDbLine
 62
7
  6
CONTINUOUS
 10
94.6459806062
 20
163.4270754162
 11
94.9063971736
 21
163.3738839286
  0
LINE
  5
304
100
AcDbEntity
  8
0
100
AcDbLine
 62
7
  6
CONTINUOUS
 10
94.9063971736
 20
163.6930328639
 11
94.6980640389
 21
163.746224347
  0
LINE
  5
305
100
AcDbEntity
  8
0
100
AcDbLine
 62
7
  6
CONTINUOUS
 10
92.9793138899
 20
165.6079265135
 11
93.1355638899
 21
165.5547350304
  0
LINE
  5
306
100
AcDbEntity
  8
0
100
AcDbLine
 62
7
  6
CONTINUOUS
 10
94.4376471736
 20
163.5334583963
 11
94.6459806062
 21
163.4270754162
  0
LINE
  5
307
100
AcDbEntity
  8
0
100
AcDbLine
 62
7
  6
CONTINUOUS
 10
97.8230637409
 20
165.5015435474
 11
97.9793137409
 21
165.3951605814
  0
LINE
  5
308
100
AcDbEntity
  8
0
100
AcDbLine
 62
7
  6
CONTINUOUS
 10
98.2918137409
 20
165.5015435474
 11
98.0834806062
 21
165.7143094795
  0
LINE
  5
309
100
AcDbEntity
  8
0
100
AcDbLine
 62
7
  6
CONTINUOUS
 10
97.1876466371
 20
130.427075352
 11
97.0209796526
 21
130.2568626063
  0
LINE
  5
30A
100
AcDbEntity
  8
0
100
AcDbLine
 62
7
  6
CONTINUOUS
 10
97.3543131448
 20
128.6398414033
 11
97.1876466371
 21
128.469628598
  0
LINE
  5
30B
100
AcDbEntity
  8
0
100
AcDbLine
 62
7
  6
CONTINUOUS
 10
97.1876466371
 20
129.916437115
 11
97.5209796526
 21
130.1717562335
  0
LINE
  5
30C
100
AcDbEntity
  8
0
100
AcDbLine
 62
7
  6
CONTINUOUS
 10
95.5209796526
 20
131.1930329459
 11
95.7709796526
 21
131.3632456916
  0
LINE
  5
30D
100
AcDbEntity
  8
0
100
AcDbLine
 62
7
  6
CONTINUOUS
 10
91.770979891
 20
128.5547349708
 11
91.5209797718
 21
128.3845222252
  0
LINE
  5
30E
100
AcDbEntity
  8
0
100
AcDbLine
 62
7
  6
CONTINUOUS
 10
91.6043131448
 20
127.9589903089
 11
92.020979891
 21
128.2143094497
  0
LINE
  5
30F
100
AcDbEntity
  8
0
100
AcDbLine
 62
7
  6
CONTINUOUS
 10
95.6876466371
 20
131.7887775557
 11
95.3543131448
 21
131.6185648101
  0
LINE
  5
310
100
AcDbEntity
  8
0
100
AcDbLine
 62
7
  6
CONTINUOUS
 10
92.9793138899
 20
164.8100541191
 11
91.9897306062
 21
164.8100541191
  0
LINE
  5
311
100
AcDbEntity
  8
0
100
AcDbLine
 62
7
  6
CONTINUOUS
 10
96.6772306062
 20
165.5547350304
 11
97.6147306062
 21
165.5547350304
  0
LINE
  5
312
100
AcDbEntity
  8
0
100
AcDbLine
 62
7
  6
CONTINUOUS
 10
91.9897306062
 20
165.6079265135
 11
92.9793138899
 21
165.6079265135
  0
LINE
  5
313
100
AcDbEntity
  8
0
100
AcDbLine
 62
7
  6
CONTINUOUS
 10
97.6147306062
 20
165.8738839286
 11
96.3647306062
 21
165.8738839286
  0
LINE
  5
314
100
AcDbEntity
  8
0
100
AcDbLine
 62
7
  6
CONTINUOUS
 10
95.9480640389
 20
165.8738839286
 11
95.6355640389
 21
165.8738839286
  0
LINE
  5
315
100
AcDbEntity
  8
0
100
AcDbLine
 62
7
  6
CONTINUOUS
 10
94.3855640389
 20
165.8738839286
 11
94.0730638899
 21
165.8738839286
  0
LINE
  5
316
100
AcDbEntity
  8
0
100
AcDbLine
 62
7
  6
CONTINUOUS
 10
92.9272306062
 20
165.8738839286
 11
91.6772306062
 21
165.8738839286
  0
LINE
  5
317
100
AcDbEntity
  8
0
100
AcDbLine
 62
7
  6
CONTINUOUS
 10
93.1876473226
 20
165.8206924456
 11
92.9272306062
 21
165.8738839286
  0
LINE
  5
318
100
AcDbEntity
  8
0
100
AcDbLine
 62
7
  6
CONTINUOUS
 10
97.8751474716
 20
165.8206924456
 11
97.6147306062
 21
165.8738839286
  0
LINE
  5
319
100
AcDbEntity
  8
0
100
AcDbLine
 62
7
  6
CONTINUOUS
 10
97.6147306062
 20
165.5547350304
 11
97.8230637409
 21
165.5015435474
  0
LINE
  5
31A
100
AcDbEntity
  8
0
100
AcDbLine
 62
7
  6
CONTINUOUS
 10
98.0834806062
 20
165.7143094795
 11
97.8751474716
 21
165.8206924456
  0
LINE
  5
31B
100
AcDbEntity
  8
BEZUGSACHSEN
100
AcDbLine
 62
7
  6
CONTINUOUS
 10
114.5626466371
 20
137.5009571827
 11
114.5626466371
 21
131.8741645146
  0
LINE
  5
31C
100
AcDbEntity
  8
RUNDUNGEN
100
AcDbLine
 62
7
  6
CONTINUOUS
 10
114.5626466371
 20
137.5009592283
 11
114.5626466371
 21
131.8738839286
  0
LINE
  5
31D
100
AcDbEntity
  8
0
100
AcDbLine
 62
7
  6
CONTINUOUS
 10
97.3543131448
 20
128.1292030769
 11
97.6043131448
 21
128.2994158523
  0
LINE
  5
31E
100
AcDbEntity
  8
0
100
AcDbLine
 62
7
  6
CONTINUOUS
 10
97.1876466371
 20
128.469628598
 11
97.0209796526
 21
128.3845222252
  0
LINE
  5
31F
100
AcDbEntity
  8
0
100
AcDbLine
 62
7
  6
CONTINUOUS
 10
97.0209796526
 20
127.9589903089
 11
97.3543131448
 21
128.1292030769
  0
LINE
  5
320
100
AcDbEntity
  8
0
100
AcDbLine
 62
7
  6
CONTINUOUS
 10
97.0209796526
 20
130.2568626063
 11
96.5209796526
 21
130.0866498607
  0
LINE
  5
321
100
AcDbEntity
  8
RUNDUNGEN
100
AcDbLine
 62
7
  6
CONTINUOUS
 10
95.6366717857
 20
170.1361149269
 11
111.1056308465
 21
163.7286622881
  0
LINE
  5
322
100
AcDbEntity
  8
BEZUGSACHSEN
100
AcDbLine
 62
7
  6
CONTINUOUS
 10
118.3146088428
 20
146.3047664782
 11
114.6422232127
 21
137.4388432838
  0
LINE
  5
323
100
AcDbEntity
  8
BEZUGSACHSEN
100
AcDbLine
 62
7
  6
CONTINUOUS
 10
111.6671485357
 20
130.2563776495
 11
111.4574901376
 21
129.7502175012
  0
LINE
  5
324
100
AcDbEntity
  8
RUNDUNGEN
100
AcDbLine
 62
7
  6
CONTINUOUS
 10
111.9174249967
 20
162.9168681379
 11
118.0160219952
 21
148.1935525527
  0
LINE
  5
325
100
AcDbEntity
  8
BEZUGSACHSEN
100
AcDbLine
 62
7
  6
CONTINUOUS
 10
118.0160219952
 20
148.1935525527
 11
118.3124290391
 21
147.4779626472
  0
LINE
  5
326
100
AcDbEntity
  8
0
100
AcDbLine
 62
7
  6
CONTINUOUS
 10
160.0224939658
 20
124.6238839286
 11
176.3199694658
 21
124.6238839286
  0
LINE
  5
327
100
AcDbEntity
  8
BEZUGSACHSEN
100
AcDbLine
 62
7
  6
CONTINUOUS
 10
155.671231708
 20
124.8738839286
 11
180.6712317236
 21
124.8738839286
  0
LINE
  5
328
100
AcDbEntity
  8
0
100
AcDbLine
 62
7
  6
CONTINUOUS
 10
153.5349568468
 20
130.7675008433
 11
153.482205157
 21
130.9377138274
  0
LINE
  5
329
100
AcDbEntity
  8
0
100
AcDbLine
 62
7
  6
CONTINUOUS
 10
153.4286657936
 20
130.9377138274
 11
153.4812125498
 21
130.7675008433
  0
LINE
  5
32A
100
AcDbEntity
  8
0
100
AcDbLine
 62
7
  6
CONTINUOUS
 10
153.587547129
 20
130.0866498607
 11
153.691878066
 21
129.7462243693
  0
LINE
  5
32B
100
AcDbEntity
  8
BEZUGSACHSEN
100
AcDbLine
 62
7
  6
CONTINUOUS
 10
153.1471262579
 20
133.1298608749
 11
153.5311169456
 21
131.8738839286
  0
LINE
  5
32C
100
AcDbEntity
  8
BEZUGSACHSEN
100
AcDbLine
 62
7
  6
CONTINUOUS
 10
154.7540396714
 20
127.8738839286
 11
155.6712317158
 21
124.8738839286
  0
LINE
  5
32D
100
AcDbEntity
  8
0
100
AcDbLine
 62
7
  6
CONTINUOUS
 10
154.9101574658
 20
127.363245632
 11
154.4395983203
 21
127.363245632
  0
LINE
  5
32E
100
AcDbEntity
  8
0
100
AcDbLine
 62
7
  6
CONTINUOUS
 10
181.3406905572
 20
127.363245632
 11
181.9028651113
 21
127.363245632
  0
LINE
  5
32F
100
AcDbEntity
  8
0
100
AcDbLine
 62
7
  6
CONTINUOUS
 10
155.5645894174
 20
127.8738839286
 11
155.0162625455
 21
127.8738839286
  0
LINE
  5
330
100
AcDbEntity
  8
0
100
AcDbLine
 62
7
  6
CONTINUOUS
 10
154.2562763116
 20
127.8738839286
 11
154.8284399442
 21
127.8738839286
  0
LINE
  5
331
100
AcDbEntity
  8
0
100
AcDbLine
 62
7
  6
CONTINUOUS
 10
181.1410126295
 20
127.8738839286
 11
181.6775223528
 21
127.8738839286
  0
LINE
  5
332
100
AcDbEntity
  8
0
100
AcDbLine
 62
7
  6
CONTINUOUS
 10
154.8359612953
 20
127.9589903089
 11
154.3099150015
 21
127.9589903089
  0
LINE
  5
333
100
AcDbEntity
  8
0
100
AcDbLine
 62
7
  6
CONTINUOUS
 10
181.0454613213
 20
127.9589903089
 11
181.5858144395
 21
127.9589903089
  0
LINE
  5
334
100
AcDbEntity
  8
0
100
AcDbLine
 62
7
  6
CONTINUOUS
 10
182.1068156464
 20
127.9589903089
 11
182.1266433842
 21
127.9589903089
  0
LINE
  5
335
100
AcDbEntity
  8
0
100
AcDbLine
 62
7
  6
CONTINUOUS
 10
154.6919257209
 20
128.1292030769
 11
154.2961699522
 21
128.1292030769
  0
LINE
  5
336
100
AcDbEntity
  8
0
100
AcDbLine
 62
7
  6
CONTINUOUS
 10
182.1639835633
 20
128.1292030769
 11
182.1870189516
 21
128.1292030769
  0
LINE
  5
337
100
AcDbEntity
  8
0
100
AcDbLine
 62
7
  6
CONTINUOUS
 10
155.4535141576
 20
128.2143094497
 11
154.9056315717
 21
128.2143094497
  0
LINE
  5
338
100
AcDbEntity
  8
0
100
AcDbLine
 62
7
  6
CONTINUOUS
 10
181.0136693435
 20
128.2143094497
 11
181.5574552309
 21
128.2143094497
  0
LINE
  5
339
100
AcDbEntity
  8
0
100
AcDbLine
 62
7
  6
CONTINUOUS
 10
155.3013266277
 20
128.2994158523
 11
154.7576306268
 21
128.2994158523
  0
LINE
  5
33A
100
AcDbEntity
  8
0
100
AcDbLine
 62
7
  6
CONTINUOUS
 10
154.5972404912
 20
128.2994158523
 11
154.276531751
 21
128.2994158523
  0
LINE
  5
33B
100
AcDbEntity
  8
0
100
AcDbLine
 62
7
  6
CONTINUOUS
 10
154.1654218423
 20
128.2994158523
 11
154.1304398895
 21
128.2994158523
  0
LINE
  5
33C
100
AcDbEntity
  8
0
100
AcDbLine
 62
7
  6
CONTINUOUS
 10
182.0031851123
 20
128.2994158523
 11
182.2413208426
 21
128.2994158523
  0
LINE
  5
33D
100
AcDbEntity
  8
0
100
AcDbLine
 62
7
  6
CONTINUOUS
 10
154.1709937661
 20
128.3845222252
 11
154.0856170323
 21
128.3845222252
  0
LINE
  5
33E
100
AcDbEntity
  8
0
100
AcDbLine
 62
7
  6
CONTINUOUS
 10
181.7421438399
 20
128.3845222252
 11
181.9254276156
 21
128.3845222252
  0
LINE
  5
33F
100
AcDbEntity
  8
0
100
AcDbLine
 62
7
  6
CONTINUOUS
 10
155.1774633106
 20
128.469628598
 11
154.6361583151
 21
128.469628598
  0
LINE
  5
340
100
AcDbEntity
  8
0
100
AcDbLine
 62
7
  6
CONTINUOUS
 10
154.1709937661
 20
128.469628598
 11
154.0547141385
 21
128.469628598
  0
LINE
  5
341
100
AcDbEntity
  8
0
100
AcDbLine
 62
7
  6
CONTINUOUS
 10
181.0230885878
 20
128.469628598
 11
181.5689755892
 21
128.469628598
  0
LINE
  5
342
100
AcDbEntity
  8
0
100
AcDbLine
 62
7
  6
CONTINUOUS
 10
154.4870961565
 20
128.5547349708
 11
154.2212108449
 21
128.5547349708
  0
LINE
  5
343
100
AcDbEntity
  8
0
100
AcDbLine
 62
7
  6
CONTINUOUS
 10
181.7335233593
 20
128.5547349708
 11
182.0257152915
 21
128.5547349708
  0
LINE
  5
344
100
AcDbEntity
  8
0
100
AcDbLine
 62
7
  6
CONTINUOUS
 10
182.1150582948
 20
128.5547349708
 11
182.3190065817
 21
128.5547349708
  0
LINE
  5
345
100
AcDbEntity
  8
0
100
AcDbLine
 62
7
  6
CONTINUOUS
 10
154.1383619145
 20
128.6398414033
 11
153.9992994892
 21
128.6398414033
  0
LINE
  5
346
100
AcDbEntity
  8
0
100
AcDbLine
 62
7
  6
CONTINUOUS
 10
155.0736345007
 20
128.7249477761
 11
154.5332569637
 21
128.7249477761
  0
LINE
  5
347
100
AcDbEntity
  8
0
100
AcDbLine
 62
7
  6
CONTINUOUS
 10
154.4062380898
 20
128.8100541489
 11
154.154377092
 21
128.8100541489
  0
LINE
  5
348
100
AcDbEntity
  8
0
100
AcDbLine
 62
7
  6
CONTINUOUS
 10
154.0962434731
 20
128.8100541489
 11
153.9461378458
 21
128.8100541489
  0
LINE
  5
349
100
AcDbEntity
  8
0
100
AcDbLine
 62
7
  6
CONTINUOUS
 10
181.0830522676
 20
128.8100541489
 11
181.6301848829
 21
128.8100541489
  0
LINE
  5
34A
100
AcDbEntity
  8
0
100
AcDbLine
 62
7
  6
CONTINUOUS
 10
182.2124945197
 20
128.8100541489
 11
182.3963255805
 21
128.8100541489
  0
LINE
  5
34B
100
AcDbEntity
  8
0
100
AcDbLine
 62
7
  6
CONTINUOUS
 10
181.1404031758
 20
129.0653732674
 11
181.688059485
 21
129.0653732674
  0
LINE
  5
34C
100
AcDbEntity
  8
0
100
AcDbLine
 62
7
  6
CONTINUOUS
 10
181.8082356347
 20
129.0653732674
 11
182.2415759675
 21
129.0653732674
  0
LINE
  5
34D
100
AcDbEntity
  8
0
100
AcDbLine
 62
7
  6
CONTINUOUS
 10
154.2984744916
 20
129.1504796403
 11
154.048657266
 21
129.1504796403
  0
LINE
  5
34E
100
AcDbEntity
  8
0
100
AcDbLine
 62
7
  6
CONTINUOUS
 10
182.3318135951
 20
129.1504796403
 11
182.3514792156
 21
129.1504796403
  0
LINE
  5
34F
100
AcDbEntity
  8
0
100
AcDbLine
 62
7
  6
CONTINUOUS
 10
154.1907686014
 20
129.4909052508
 11
153.9307598345
 21
129.4909052508
  0
LINE
  5
350
100
AcDbEntity
  8
0
100
AcDbLine
 62
7
  6
CONTINUOUS
 10
181.2531314468
 20
129.4909052508
 11
181.8010962902
 21
129.4909052508
  0
LINE
  5
351
100
AcDbEntity
  8
0
100
AcDbLine
 62
7
  6
CONTINUOUS
 10
182.4460332715
 20
129.4909052508
 11
182.4769705111
 21
129.4909052508
  0
LINE
  5
352
100
AcDbEntity
  8
0
100
AcDbLine
 62
7
  6
CONTINUOUS
 10
181.9495122069
 20
129.5760116237
 11
182.4133646418
 21
129.5760116237
  0
LINE
  5
353
100
AcDbEntity
  8
0
100
AcDbLine
 62
7
  6
CONTINUOUS
 10
182.4986895174
 20
129.6611179965
 11
182.5569672991
 21
129.6611179965
  0
LINE
  5
354
100
AcDbEntity
  8
0
100
AcDbLine
 62
7
  6
CONTINUOUS
 10
154.1100223168
 20
129.7462243693
 11
153.8284472234
 21
129.7462243693
  0
LINE
  5
355
100
AcDbEntity
  8
0
100
AcDbLine
 62
7
  6
CONTINUOUS
 10
153.691878066
 20
129.7462243693
 11
153.7144378573
 21
129.7462243693
  0
LINE
  5
356
100
AcDbEntity
  8
0
100
AcDbLine
 62
7
  6
CONTINUOUS
 10
182.5250163896
 20
129.7462243693
 11
182.6505853656
 21
129.7462243693
  0
LINE
  5
357
100
AcDbEntity
  8
0
100
AcDbLine
 62
7
  6
CONTINUOUS
 10
154.0562085548
 20
129.916437115
 11
153.7246897197
 21
129.916437115
  0
LINE
  5
358
100
AcDbEntity
  8
0
100
AcDbLine
 62
7
  6
CONTINUOUS
 10
153.6099347465
 20
130.0866498607
 11
153.587547129
 21
130.0866498607
  0
LINE
  5
359
100
AcDbEntity
  8
0
100
AcDbLine
 62
7
  6
CONTINUOUS
 10
182.6303114986
 20
130.0866498607
 11
182.7549163026
 21
130.0866498607
  0
LINE
  5
35A
100
AcDbEntity
  8
0
100
AcDbLine
 62
7
  6
CONTINUOUS
 10
153.9755141605
 20
130.1717562335
 11
153.6858304848
 21
130.1717562335
  0
LINE
  5
35B
100
AcDbEntity
  8
0
100
AcDbLine
 62
7
  6
CONTINUOUS
 10
182.1411355282
 20
130.1717562335
 11
182.5984375682
 21
130.1717562335
  0
LINE
  5
35C
100
AcDbEntity
  8
0
100
AcDbLine
 62
7
  6
CONTINUOUS
 10
153.8146845143
 20
130.2568626063
 11
153.9486184329
 21
130.2568626063
  0
LINE
  5
35D
100
AcDbEntity
  8
0
100
AcDbLine
 62
7
  6
CONTINUOUS
 10
154.045040115
 20
130.2568626063
 11
154.83973617
 21
130.2568626063
  0
LINE
  5
35E
100
AcDbEntity
  8
0
100
AcDbLine
 62
7
  6
CONTINUOUS
 10
181.5027272616
 20
130.2568626063
 11
182.0497545326
 21
130.2568626063
  0
LINE
  5
35F
100
AcDbEntity
  8
0
100
AcDbLine
 62
7
  6
CONTINUOUS
 10
182.6829529287
 20
130.2568626063
 11
182.7404465628
 21
130.2568626063
  0
LINE
  5
360
100
AcDbEntity
  8
0
100
AcDbLine
 62
7
  6
CONTINUOUS
 10
153.761443013
 20
130.427075352
 11
153.6289046786
 21
130.427075352
  0
LINE
  5
361
100
AcDbEntity
  8
0
100
AcDbLine
 62
7
  6
CONTINUOUS
 10
182.7313011143
 20
130.427075352
 11
182.7752357685
 21
130.427075352
  0
LINE
  5
362
100
AcDbEntity
  8
0
100
AcDbLine
 62
7
  6
CONTINUOUS
 10
154.7289822728
 20
130.5972880977
 11
153.9367283928
 21
130.5972880977
  0
LINE
  5
363
100
AcDbEntity
  8
0
100
AcDbLine
 62
7
  6
CONTINUOUS
 10
153.8410827599
 20
130.5972880977
 11
153.7082102368
 21
130.5972880977
  0
LINE
  5
364
100
AcDbEntity
  8
0
100
AcDbLine
 62
7
  6
CONTINUOUS
 10
181.6662590077
 20
130.6823944705
 11
182.2120066174
 21
130.6823944705
  0
LINE
  5
365
100
AcDbEntity
  8
0
100
AcDbLine
 62
7
  6
CONTINUOUS
 10
182.3274587028
 20
130.6823944705
 11
182.7443992326
 21
130.6823944705
  0
LINE
  5
366
100
AcDbEntity
  8
0
100
AcDbLine
 62
7
  6
CONTINUOUS
 10
153.7873346704
 20
130.7675008433
 11
153.5349568468
 21
130.7675008433
  0
LINE
  5
367
100
AcDbEntity
  8
0
100
AcDbLine
 62
7
  6
CONTINUOUS
 10
182.8264387993
 20
130.7675008433
 11
182.8612508818
 21
130.7675008433
  0
LINE
  5
368
100
AcDbEntity
  8
0
100
AcDbLine
 62
7
  6
CONTINUOUS
 10
153.4286657936
 20
130.9377138274
 11
153.2966540347
 21
130.9377138274
  0
LINE
  5
369
100
AcDbEntity
  8
0
100
AcDbLine
 62
7
  6
CONTINUOUS
 10
153.7335976344
 20
130.9377138274
 11
153.482205157
 21
130.9377138274
  0
LINE
  5
36A
100
AcDbEntity
  8
0
100
AcDbLine
 62
7
  6
CONTINUOUS
 10
181.7735901782
 20
130.9377138274
 11
182.3183018846
 21
130.9377138274
  0
LINE
  5
36B
100
AcDbEntity
  8
0
100
AcDbLine
 62
7
  6
CONTINUOUS
 10
182.8716961524
 20
130.9377138274
 11
183.0475783641
 21
130.9377138274
  0
LINE
  5
36C
100
AcDbEntity
  8
0
100
AcDbLine
 62
7
  6
CONTINUOUS
 10
153.3310872691
 20
131.1930329459
 11
153.2217490374
 21
131.1930329459
  0
LINE
  5
36D
100
AcDbEntity
  8
0
100
AcDbLine
 62
7
  6
CONTINUOUS
 10
182.5751028694
 20
131.1930329459
 11
182.8495064501
 21
131.1930329459
  0
LINE
  5
36E
100
AcDbEntity
  8
0
100
AcDbLine
 62
7
  6
CONTINUOUS
 10
154.2586473787
 20
131.2781393187
 11
153.3653658979
 21
131.2781393187
  0
LINE
  5
36F
100
AcDbEntity
  8
0
100
AcDbLine
 62
7
  6
CONTINUOUS
 10
181.9310714692
 20
131.2781393187
 11
182.4739928428
 21
131.2781393187
  0
LINE
  5
370
100
AcDbEntity
  8
0
100
AcDbLine
 62
7
  6
CONTINUOUS
 10
182.9540316501
 20
131.2781393187
 11
183.1520110542
 21
131.2781393187
  0
LINE
  5
371
100
AcDbEntity
  8
0
100
AcDbLine
 62
7
  6
CONTINUOUS
 10
153.2532589872
 20
131.3632456916
 11
153.1770503718
 21
131.3632456916
  0
LINE
  5
372
100
AcDbEntity
  8
0
100
AcDbLine
 62
7
  6
CONTINUOUS
 10
182.6879414829
 20
131.3632456916
 11
182.8586907186
 21
131.3632456916
  0
LINE
  5
373
100
AcDbEntity
  8
0
100
AcDbLine
 62
7
  6
CONTINUOUS
 10
153.1702580282
 20
131.4483520644
 11
153.1919807428
 21
131.4483520644
  0
LINE
  5
374
100
AcDbEntity
  8
0
100
AcDbLine
 62
7
  6
CONTINUOUS
 10
182.0807996736
 20
131.5334584372
 11
182.621463481
 21
131.5334584372
  0
LINE
  5
375
100
AcDbEntity
  8
0
100
AcDbLine
 62
7
  6
CONTINUOUS
 10
153.7450823726
 20
131.6185648101
 11
153.2185142985
 21
131.6185648101
  0
LINE
  5
376
100
AcDbEntity
  8
0
100
AcDbLine
 62
7
  6
CONTINUOUS
 10
182.9960774979
 20
131.6185648101
 11
183.2539985605
 21
131.6185648101
  0
LINE
  5
377
100
AcDbEntity
  8
0
100
AcDbLine
 62
7
  6
CONTINUOUS
 10
153.6558958688
 20
131.7887775557
 11
153.1303613319
 21
131.7887775557
  0
LINE
  5
378
100
AcDbEntity
  8
0
100
AcDbLine
 62
7
  6
CONTINUOUS
 10
182.2662967098
 20
131.7887775557
 11
182.8037083229
 21
131.7887775557
  0
LINE
  5
379
100
AcDbEntity
  8
0
100
AcDbLine
 62
7
  6
CONTINUOUS
 10
183.0066459311
 20
131.7887775557
 11
183.2984063098
 21
131.7887775557
  0
LINE
  5
37A
100
AcDbEntity
  8
0
100
AcDbLine
 62
7
  6
CONTINUOUS
 10
153.5796460855
 20
131.8738839286
 11
153.0554847932
 21
131.8738839286
  0
LINE
  5
37B
100
AcDbEntity
  8
0
100
AcDbLine
 62
7
  6
CONTINUOUS
 10
182.4045400037
 20
131.8738839286
 11
183.2977395347
 21
131.8738839286
  0
LINE
  5
37C
100
AcDbEntity
  8
0
100
AcDbLine
 62
7
  6
CONTINUOUS
 10
160.0212317158
 20
124.8738839286
 11
160.0212317158
 21
124.6238839286
  0
LINE
  5
37D
100
AcDbEntity
  8
0
100
AcDbLine
 62
7
  6
CONTINUOUS
 10
161.2430284855
 20
137.4900531925
 11
161.2430284855
 21
138.6238839286
  0
LINE
  5
37E
100
AcDbEntity
  8
0
100
AcDbLine
 62
7
  6
CONTINUOUS
 10
161.2430284855
 20
138.6238839286
 11
162.3873734068
 21
138.6238839286
  0
LINE
  5
37F
100
AcDbEntity
  8
0
100
AcDbLine
 62
7
  6
CONTINUOUS
 10
173.9553373845
 20
138.6238839286
 11
175.0994349461
 21
138.6238839286
  0
LINE
  5
380
100
AcDbEntity
  8
RUNDUNGEN
100
AcDbLine
 62
7
  6
CONTINUOUS
 10
182.1491086074
 20
135.0173071714
 11
177.6095153387
 21
136.2336875217
  0
LINE
  5
381
100
AcDbEntity
  8
BEZUGSACHSEN
100
AcDbLine
 62
7
  6
CONTINUOUS
 10
163.9212317158
 20
142.9951790984
 11
163.9212317158
 21
168.7502956281
  0
LINE
  5
382
100
AcDbEntity
  8
BEZUGSACHSEN
100
AcDbLine
 62
7
  6
CONTINUOUS
 10
164.1739751252
 20
135.022004539
 11
164.173987307
 21
135.0223330331
  0
LINE
  5
383
100
AcDbEntity
  8
0
100
AcDbLine
 62
7
  6
CONTINUOUS
 10
157.5228628311
 20
135.909446153
 11
157.0081878785
 21
135.7715394151
  0
LINE
  5
384
100
AcDbEntity
  8
BEZUGSACHSEN
100
AcDbLine
 62
7
  6
CONTINUOUS
 10
154.1933548242
 20
135.0173071714
 11
158.7329480929
 21
136.2336875217
  0
LINE
  5
385
100
AcDbEntity
  8
RUNDUNGEN
100
AcDbLine
 62
7
  6
CONTINUOUS
 10
172.1684883064
 20
135.022004539
 11
172.1684761246
 21
135.0223330331
  0
LINE
  5
386
100
AcDbEntity
  8
RUNDUNGEN
100
AcDbLine
 62
7
  6
CONTINUOUS
 10
172.4212317158
 20
142.9951790984
 11
172.4212317158
 21
168.7502956281
  0
LINE
  5
387
100
AcDbEntity
  8
0
100
AcDbLine
 62
7
  6
CONTINUOUS
 10
172.9212317158
 20
165.8738839286
 11
172.9212317158
 21
163.3738839286
  0
LINE
  5
388
100
AcDbEntity
  8
0
100
AcDbLine
 62
7
  6
CONTINUOUS
 10
175.0994349461
 20
137.4887300001
 11
175.0994349461
 21
138.6238839286
  0
LINE
  5
389
100
AcDbEntity
  8
0
100
AcDbLine
 62
7
  6
CONTINUOUS
 10
176.3212317158
 20
124.8738839286
 11
176.3212317158
 21
124.6238839286
  0
LINE
  5
38A
100
AcDbEntity
  8
0
100
AcDbLine
 62
7
  6
CONTINUOUS
 10
180.6712317158
 20
124.8738839286
 11
181.4323059658
 21
127.363245632
  0
LINE
  5
38B
100
AcDbEntity
  8
0
100
AcDbLine
 62
7
  6
CONTINUOUS
 10
182.811346486
 20
131.8738839286
 11
183.1953371737
 21
133.1298608749
  0
LINE
  5
38C
100
AcDbEntity
  8
0
100
AcDbLine
 62
7
  6
CONTINUOUS
 10
183.1520512057
 20
131.2781270432
 11
183.1650648665
 21
131.3206928095
  0
LINE
  5
38D
100
AcDbEntity
  8
0
100
AcDbLine
 62
7
  6
CONTINUOUS
 10
182.7549163026
 20
130.0866498607
 11
182.6505853656
 21
129.7462243693
  0
LINE
  5
38E
100
AcDbEntity
  8
0
100
AcDbLine
 62
7
  6
CONTINUOUS
 10
172.4212317158
 20
163.3738839286
 11
172.9212317158
 21
163.3738839286
  0
LINE
  5
38F
100
AcDbEntity
  8
0
100
AcDbLine
 62
7
  6
CONTINUOUS
 10
172.4212317158
 20
165.8738839286
 11
172.9212317158
 21
165.8738839286
  0
LINE
  5
390
100
AcDbEntity
  8
RUNDUNGEN
100
AcDbLine
 62
7
  6
CONTINUOUS
 10
170.9212317158
 20
170.2502956281
 11
165.4212317158
 21
170.2502956281
  0
LWPOLYLINE
  5
391
100
AcDbEntity
  8
RUNDUNGEN
100
AcDbPolyline
 62
7
  6
CONTINUOUS
 90
6
 70
0
 10
71.6951553443
 20
88.9217430542
 10
71.717401378
 20
88.6098536033
 10
71.7633280413
 20
88.053993621
 10
71.8176124127
 20
87.495904817
 10
71.880356042
 20
86.9363668773
 10
71.951624021
 20
86.376149207
  0
LWPOLYLINE
  5
392
100
AcDbEntity
  8
BEZUGSACHSEN
100
AcDbPolyline
 62
7
  6
CONTINUOUS
 90
7
 70
0
 10
72.0109092391
 20
91.8890121313
 10
71.951624021
 20
91.4673395251
 10
71.880356042
 20
90.9071218548
 10
71.8176124127
 20
90.3475839151
 10
71.7633280413
 20
89.7894951112
 10
71.717401378
 20
89.2336351288
 10
71.6951553443
 20
88.9217456779
  0
LINE
  5
393
100
AcDbEntity
  8
RUNDUNGEN
100
AcDbLine
 62
7
  6
CONTINUOUS
 10
71.951624021
 20
86.376149207
 11
72.0109092391
 21
85.9544766008
  0
LWPOLYLINE
  5
394
100
AcDbEntity
  8
BEZUGSACHSEN
100
AcDbPolyline
 62
7
  6
CONTINUOUS
 90
13
 70
0
 10
78.5566020995
 20
96.1151229237
 10
77.6837687169
 20
95.1544596635
 10
77.305861176
 20
94.7453296902
 10
76.9620591991
 20
94.3851453429
 10
76.6499400216
 20
94.0742310446
 10
76.3680376231
 20
93.8122994666
 10
76.1156641141
 20
93.5983186416
 10
75.8932399591
 20
93.4307833396
 10
75.7037247303
 20
93.3083973943
 10
75.5509756626
 20
93.228155998
 10
75.4429338268
 20
93.1859019579
 10
75.3891322599
 20
93.1725983564
 10
75.3847631907
 20
93.1717447812
  0
LWPOLYLINE
  5
395
100
AcDbEntity
  8
BEZUGSACHSEN
100
AcDbPolyline
 62
7
  6
CONTINUOUS
 90
6
 70
0
 10
81.5609178534
 20
99.1036305613
 10
80.9277754705
 20
98.5353869569
 10
80.2381112235
 20
97.8763726952
 10
79.619210333
 20
97.2509305448
 10
79.061309971
 20
96.6627242987
 10
78.5566020995
 20
96.1151229237
  0
LINE
  5
396
100
AcDbEntity
  8
0
100
AcDbLine
 62
7
  6
CONTINUOUS
 10
95.0626466371
 20
95.8499475963
 11
90.4238625693
 21
93.1717443661
  0
LWPOLYLINE
  5
397
100
AcDbEntity
  8
RUNDUNGEN
100
AcDbPolyline
 62
7
  6
CONTINUOUS
 90
21
 70
0
 10
81.5609412291
 20
78.7398445931
 10
82.5361660686
 20
77.947269313
 10
83.704660339
 20
77.126638321
 10
84.9498196189
 20
76.383095436
 10
86.2632581485
 20
75.7243350056
 10
87.6369120892
 20
75.156474132
 10
89.0614637262
 20
74.6848309173
 10
90.5272222698
 20
74.3137883888
 10
92.0241280037
 20
74.0465896109
 10
93.5418843322
 20
73.8855795128
 10
95.0700841667
 20
73.8320973199
 10
96.5982296496
 20
73.8866285824
 10
98.1158257839
 20
74.0486777578
 10
99.6124674752
 20
74.316895926
 10
101.0778615481
 20
74.6889287921
 10
102.5019519856
 20
75.1615231469
 10
103.875052344
 20
75.7302855647
 10
105.1878510223
 20
76.3898883725
 10
106.432300103
 20
77.1342105571
 10
107.6000265855
 20
77.9555508022
 10
108.5643507625
 20
78.7398434288
  0
LWPOLYLINE
  5
398
100
AcDbEntity
  8
RUNDUNGEN
100
AcDbPolyline
 62
7
  6
CONTINUOUS
 90
7
 70
0
 10
77.692551474
 20
82.6794167235
 10
78.5660768282
 20
81.7179864892
 10
79.0697229528
 20
81.171745975
 10
79.6255120676
 20
80.5860383716
 10
80.2418955755
 20
79.9633881453
 10
80.9295317185
 20
79.3064765975
 10
81.5609179885
 20
78.7398580532
  0
LINE
  5
399
100
AcDbEntity
  8
0
100
AcDbLine
 62
7
  6
CONTINUOUS
 10
90.6043131448
 20
74.3000276107
 11
90.6043131448
 21
74.289267759
  0
LINE
  5
39A
100
AcDbEntity
  8
0
100
AcDbLine
 62
7
  6
CONTINUOUS
 10
91.1043131448
 20
74.2107772418
 11
91.1043131448
 21
74.1542862653
  0
LINE
  5
39B
100
AcDbEntity
  8
0
100
AcDbLine
 62
7
  6
CONTINUOUS
 10
91.6043131448
 20
74.1215268729
 11
91.6043131448
 21
74.0863301508
  0
LINE
  5
39C
100
AcDbEntity
  8
0
100
AcDbLine
 62
7
  6
CONTINUOUS
 10
91.6772306062
 20
84.6717443661
 11
91.6772306062
 21
84.1717443661
  0
LINE
  5
39D
100
AcDbEntity
  8
0
100
AcDbLine
 62
7
  6
CONTINUOUS
 10
92.9272306062
 20
84.6717443661
 11
92.9272306062
 21
84.1717443661
  0
LINE
  5
39E
100
AcDbEntity
  8
0
100
AcDbLine
 62
7
  6
CONTINUOUS
 10
93.1043136217
 20
103.9114898424
 11
93.1043136217
 21
103.96261475
  0
LINE
  5
39F
100
AcDbEntity
  8
0
100
AcDbLine
 62
7
  6
CONTINUOUS
 10
93.1876473226
 20
84.6717443661
 11
93.1876473226
 21
84.1717443661
  0
LINE
  5
3A0
100
AcDbEntity
  8
0
100
AcDbLine
 62
7
  6
CONTINUOUS
 10
93.3959806062
 20
84.6717443661
 11
93.3959806062
 21
84.1717443661
  0
LINE
  5
3A1
100
AcDbEntity
  8
0
100
AcDbLine
 62
7
  6
CONTINUOUS
 10
93.5522306062
 20
84.6717443661
 11
93.5522306062
 21
84.1717443661
  0
LINE
  5
3A2
100
AcDbEntity
  8
0
100
AcDbLine
 62
7
  6
CONTINUOUS
 10
93.6043138899
 20
84.6717443661
 11
93.6043138899
 21
84.1717443661
  0
LINE
  5
3A3
100
AcDbEntity
  8
0
100
AcDbLine
 62
7
  6
CONTINUOUS
 10
93.6563973226
 20
84.6717443661
 11
93.6563973226
 21
84.1717443661
  0
LINE
  5
3A4
100
AcDbEntity
  8
0
100
AcDbLine
 62
7
  6
CONTINUOUS
 10
93.6876466371
 20
103.963010442
 11
93.6876466371
 21
104.0374912887
  0
LINE
  5
3A5
100
AcDbEntity
  8
0
100
AcDbLine
 62
7
  6
CONTINUOUS
 10
93.8543136217
 20
103.9688432628
 11
93.8543136217
 21
104.0482521849
  0
LINE
  5
3A6
100
AcDbEntity
  8
0
100
AcDbLine
 62
7
  6
CONTINUOUS
 10
94.0730638899
 20
84.6717443661
 11
94.0730638899
 21
84.1717443661
  0
LINE
  5
3A7
100
AcDbEntity
  8
0
100
AcDbLine
 62
7
  6
CONTINUOUS
 10
94.3855640389
 20
84.6717443661
 11
94.3855640389
 21
84.1717443661
  0
LINE
  5
3A8
100
AcDbEntity
  8
0
100
AcDbLine
 62
7
  6
CONTINUOUS
 10
94.4376466371
 20
103.9892580856
 11
94.4376466371
 21
104.04891896
  0
LINE
  5
3A9
100
AcDbEntity
  8
0
100
AcDbLine
 62
7
  6
CONTINUOUS
 10
94.4376471736
 20
84.6717443661
 11
94.4376471736
 21
84.1717443661
  0
LINE
  5
3AA
100
AcDbEntity
  8
0
100
AcDbLine
 62
7
  6
CONTINUOUS
 10
94.5418140389
 20
84.6717443661
 11
94.5418140389
 21
84.1717443661
  0
LINE
  5
3AB
100
AcDbEntity
  8
0
100
AcDbLine
 62
7
  6
CONTINUOUS
 10
94.6980640389
 20
84.6717443661
 11
94.6980640389
 21
84.1717443661
  0
LINE
  5
3AC
100
AcDbEntity
  8
0
100
AcDbLine
 62
7
  6
CONTINUOUS
 10
94.9063971736
 20
84.6717443661
 11
94.9063971736
 21
84.1717443661
  0
LINE
  5
3AD
100
AcDbEntity
  8
0
100
AcDbLine
 62
7
  6
CONTINUOUS
 10
95.1147306062
 20
84.6717443661
 11
95.1147306062
 21
84.1717443661
  0
LINE
  5
3AE
100
AcDbEntity
  8
0
100
AcDbLine
 62
7
  6
CONTINUOUS
 10
95.3230640389
 20
84.6717443661
 11
95.3230640389
 21
84.1717443661
  0
LWPOLYLINE
  5
3AF
100
AcDbEntity
  8
RUNDUNGEN
100
AcDbPolyline
 62
7
  6
CONTINUOUS
 90
12
 70
0
 10
75.3847713583
 20
84.6717439494
 10
75.3891935814
 20
84.6708810725
 10
75.443168594
 20
84.6575135876
 10
75.5514545182
 20
84.6151139106
 10
75.7045220057
 20
84.5346241516
 10
75.8944387047
 20
84.4118656474
 10
76.1174703092
 20
84.2437213004
 10
76.370863785
 20
84.028672632
 10
76.6540768531
 20
83.7652656034
 10
76.9678097915
 20
83.4524512788
 10
77.3132490372
 20
83.0902684445
 10
77.692551474
 20
82.6794167235
  0
LINE
  5
3B0
100
AcDbEntity
  8
0
100
AcDbLine
 62
7
  6
CONTINUOUS
 10
90.4238625693
 20
84.6717443661
 11
95.0626466371
 21
81.9935411358
  0
LINE
  5
3B1
100
AcDbEntity
  8
0
100
AcDbLine
 62
7
  6
CONTINUOUS
 10
95.4793140389
 20
84.6717443661
 11
95.4793140389
 21
84.1717443661
  0
LINE
  5
3B2
100
AcDbEntity
  8
0
100
AcDbLine
 62
7
  6
CONTINUOUS
 10
95.5834806062
 20
84.6717443661
 11
95.5834806062
 21
84.1717443661
  0
LINE
  5
3B3
100
AcDbEntity
  8
0
100
AcDbLine
 62
7
  6
CONTINUOUS
 10
95.6355640389
 20
84.6717443661
 11
95.6355640389
 21
84.1717443661
  0
LINE
  5
3B4
100
AcDbEntity
  8
0
100
AcDbLine
 62
7
  6
CONTINUOUS
 10
95.6876466371
 20
73.8541347905
 11
95.6876466371
 21
73.7945697721
  0
LINE
  5
3B5
100
AcDbEntity
  8
0
100
AcDbLine
 62
7
  6
CONTINUOUS
 10
95.9480640389
 20
84.6717443661
 11
95.9480640389
 21
84.1717443661
  0
LINE
  5
3B6
100
AcDbEntity
  8
0
100
AcDbLine
 62
7
  6
CONTINUOUS
 10
96.2709796526
 20
73.8749507967
 11
96.2709796526
 21
73.7952365472
  0
LINE
  5
3B7
100
AcDbEntity
  8
0
100
AcDbLine
 62
7
  6
CONTINUOUS
 10
96.3647306062
 20
84.6717443661
 11
96.3647306062
 21
84.1717443661
  0
LINE
  5
3B8
100
AcDbEntity
  8
0
100
AcDbLine
 62
7
  6
CONTINUOUS
 10
96.4376466371
 20
73.8808982416
 11
96.4376466371
 21
73.8059974434
  0
LINE
  5
3B9
100
AcDbEntity
  8
0
100
AcDbLine
 62
7
  6
CONTINUOUS
 10
97.0209796526
 20
73.9317699002
 11
97.0209796526
 21
73.8808739821
  0
LINE
  5
3BA
100
AcDbEntity
  8
0
100
AcDbLine
 62
7
  6
CONTINUOUS
 10
97.6147306062
 20
84.6717443661
 11
97.6147306062
 21
84.1717443661
  0
LINE
  5
3BB
100
AcDbEntity
  8
0
100
AcDbLine
 62
7
  6
CONTINUOUS
 10
97.8751474716
 20
84.6717443661
 11
97.8751474716
 21
84.1717443661
  0
LINE
  5
3BC
100
AcDbEntity
  8
0
100
AcDbLine
 62
7
  6
CONTINUOUS
 10
98.0834806062
 20
84.6717443661
 11
98.0834806062
 21
84.1717443661
  0
LINE
  5
3BD
100
AcDbEntity
  8
0
100
AcDbLine
 62
7
  6
CONTINUOUS
 10
95.0626466371
 20
81.9935411358
 11
99.701430705
 21
84.6717443661
  0
LINE
  5
3BE
100
AcDbEntity
  8
0
100
AcDbLine
 62
7
  6
CONTINUOUS
 10
98.4480637409
 20
84.1717443661
 11
96.3647306062
 21
84.1717443661
  0
LINE
  5
3BF
100
AcDbEntity
  8
0
100
AcDbLine
 62
7
  6
CONTINUOUS
 10
95.9480640389
 20
84.1717443661
 11
94.0730638899
 21
84.1717443661
  0
LINE
  5
3C0
100
AcDbEntity
  8
0
100
AcDbLine
 62
7
  6
CONTINUOUS
 10
93.6563973226
 20
84.1717443661
 11
91.6772306062
 21
84.1717443661
  0
LINE
  5
3C1
100
AcDbEntity
  8
RUNDUNGEN
100
AcDbLine
 62
7
  6
CONTINUOUS
 10
73.4950909871
 20
84.6717443661
 11
116.630202637
 21
84.6717443661
  0
LINE
  5
3C2
100
AcDbEntity
  8
0
100
AcDbLine
 62
7
  6
CONTINUOUS
 10
98.2918137409
 20
84.6717443661
 11
98.2918137409
 21
84.1717443661
  0
LINE
  5
3C3
100
AcDbEntity
  8
0
100
AcDbLine
 62
7
  6
CONTINUOUS
 10
98.3959806062
 20
84.6717443661
 11
98.3959806062
 21
84.1717443661
  0
LINE
  5
3C4
100
AcDbEntity
  8
0
100
AcDbLine
 62
7
  6
CONTINUOUS
 10
98.4480637409
 20
84.6717443661
 11
98.4480637409
 21
84.1717443661
  0
LINE
  5
3C5
100
AcDbEntity
  8
0
100
AcDbLine
 62
7
  6
CONTINUOUS
 10
98.5209801294
 20
103.7222019076
 11
98.5209801294
 21
103.7571585813
  0
LINE
  5
3C6
100
AcDbEntity
  8
0
100
AcDbLine
 62
7
  6
CONTINUOUS
 10
99.0209801294
 20
103.6325952337
 11
99.0209801294
 21
103.6892024668
  0
LINE
  5
3C7
100
AcDbEntity
  8
0
100
AcDbLine
 62
7
  6
CONTINUOUS
 10
99.5209801294
 20
103.5429885597
 11
99.5209801294
 21
103.5542209731
  0
LINE
  5
3C8
100
AcDbEntity
  8
BEZUGSACHSEN
100
AcDbLine
 62
7
  6
CONTINUOUS
 10
73.4950909871
 20
93.1717443661
 11
116.6302027722
 21
93.1717443661
  0
LWPOLYLINE
  5
3C9
100
AcDbEntity
  8
RUNDUNGEN
100
AcDbPolyline
 62
7
  6
CONTINUOUS
 90
12
 70
0
 10
112.438310311
 20
82.6855116352
 10
112.8172839227
 20
83.0958652641
 10
113.1624161815
 20
83.4575056417
 10
113.4758210421
 20
83.7697088352
 10
113.7586278283
 20
84.0324103268
 10
114.011555191
 20
84.246713328
 10
114.2340404736
 20
84.4140955173
 10
114.4233682955
 20
84.536144317
 10
114.5758237029
 20
84.6160195213
 10
114.6834106127
 20
84.6579132576
 10
114.7365339837
 20
84.6709480305
 10
114.7404938221
 20
84.6717439298
  0
LWPOLYLINE
  5
3CA
100
AcDbEntity
  8
RUNDUNGEN
100
AcDbPolyline
 62
7
  6
CONTINUOUS
 90
7
 70
0
 10
108.5643731281
 20
78.7398559291
 10
109.2055291655
 20
79.3155187856
 10
109.892236488
 20
79.9720970162
 10
110.5077196154
 20
80.5942520706
 10
111.0627081512
 20
81.1793974949
 10
111.5657049781
 20
81.7250942929
 10
112.438310311
 20
82.6855116352
  0
LINE
  5
3CB
100
AcDbEntity
  8
0
100
AcDbLine
 62
7
  6
CONTINUOUS
 10
99.701430705
 20
93.1717443661
 11
95.0626466371
 21
95.8499475963
  0
LWPOLYLINE
  5
3CC
100
AcDbEntity
  8
BEZUGSACHSEN
100
AcDbPolyline
 62
7
  6
CONTINUOUS
 90
12
 70
0
 10
114.7404976827
 20
93.1717448015
 10
114.7365689092
 20
93.1725354769
 10
114.6835656163
 20
93.1855275153
 10
114.5761529679
 20
93.2273194003
 10
114.4239580242
 20
93.3069998882
 10
114.235006364
 20
93.4287181422
 10
114.0131232504
 20
93.5955198915
 10
113.7612172133
 20
93.8087758451
 10
113.4797259591
 20
94.0700155863
 10
113.1679332927
 20
94.3803343985
 10
112.8244359096
 20
94.7399883625
 10
112.446857041
 20
95.1486251751
  0
LWPOLYLINE
  5
3CD
100
AcDbEntity
  8
BEZUGSACHSEN
100
AcDbPolyline
 62
7
  6
CONTINUOUS
 90
21
 70
0
 10
108.5643507625
 20
99.1036453033
 10
107.6000265855
 20
99.8879379299
 10
106.432300103
 20
100.709278175
 10
105.1878510223
 20
101.4536003596
 10
103.875052344
 20
102.1132031674
 10
102.5019519856
 20
102.6819655852
 10
101.0778615481
 20
103.15455994
 10
99.6124674752
 20
103.5265928061
 10
98.1158257839
 20
103.7948109743
 10
96.5982296496
 20
103.9568601497
 10
95.0700841667
 20
104.0113914122
 10
93.5418843322
 20
103.9579092193
 10
92.0241280037
 20
103.7968991212
 10
90.5272222698
 20
103.5297003433
 10
89.0614637262
 20
103.1586578148
 10
87.6369120892
 20
102.6870146001
 10
86.2632581485
 20
102.1191537265
 10
84.9498196189
 20
101.4603932962
 10
83.704660339
 20
100.7168504111
 10
82.5361660686
 20
99.8962194191
 10
81.5609412291
 20
99.103644139
  0
LWPOLYLINE
  5
3CE
100
AcDbEntity
  8
BEZUGSACHSEN
100
AcDbPolyline
 62
7
  6
CONTINUOUS
 90
7
 70
0
 10
112.446857041
 20
95.1486251751
 10
111.5749741379
 20
96.1082383522
 10
111.0709524042
 20
96.6552502883
 10
110.513907519
 20
97.2428309796
 10
109.8959636214
 20
97.867717409
 10
109.2072649657
 20
98.5263621886
 10
108.564373253
 20
99.1036326942
  0
LWPOLYLINE
  5
3CF
100
AcDbEntity
  8
BEZUGSACHSEN
100
AcDbPolyline
 62
7
  6
CONTINUOUS
 90
6
 70
0
 10
118.4301359681
 20
88.9217453822
 10
118.4068757786
 20
89.2470899001
 10
118.3607395019
 20
89.8030554723
 10
118.3062612306
 20
90.3611000199
 10
118.2433425747
 20
90.9204364925
 10
118.1719198983
 20
91.4802955367
  0
LWPOLYLINE
  5
3D0
100
AcDbEntity
  8
RUNDUNGEN
100
AcDbPolyline
 62
7
  6
CONTINUOUS
 90
6
 70
0
 10
118.1719198983
 20
86.3631931954
 10
118.2433425747
 20
86.9230522396
 10
118.3062612306
 20
87.4823887122
 10
118.3607395019
 20
88.0404332598
 10
118.4068757786
 20
88.596398832
 10
118.4301359681
 20
88.9217433499
  0
LINE
  5
3D1
100
AcDbEntity
  8
RUNDUNGEN
100
AcDbLine
 62
7
  6
CONTINUOUS
 10
118.1143848635
 20
85.9544786474
 11
118.1719198983
 21
86.3631931954
  0
LINE
  5
3D2
100
AcDbEntity
  8
BEZUGSACHSEN
100
AcDbLine
 62
7
  6
CONTINUOUS
 10
118.1719198983
 20
91.4802955367
 11
118.1143848635
 21
91.8890100847
  0
ARC
  5
3D3
100
AcDbEntity
  8
0
100
AcDbCircle
 62
7
  6
CONTINUOUS
 10
94.591363048
 20
168.3276757598
 40
32.3879187366
100
AcDbArc
 50
262.2749590927
 51
265.2310846255
  0
ARC
  5
3D4
100
AcDbEntity
  8
0
100
AcDbCircle
 62
7
  6
CONTINUOUS
 10
95.6443205534
 20
167.3192029975
 40
31.3737706479
100
AcDbArc
 50
274.7210080821
 51
277.7728328451
  0
ARC
  5
3D5
100
AcDbEntity
  8
BEZUGSACHSEN
100
AcDbCircle
 62
7
  6
CONTINUOUS
 10
95.0626466371
 20
146.8738839286
 40
12.5
100
AcDbArc
 50
332.4520874094
 51
345.5083194415
  0
ARC
  5
3D6
100
AcDbEntity
  8
BEZUGSACHSEN
100
AcDbCircle
 62
7
  6
CONTINUOUS
 10
95.0626466371
 20
146.8738839286
 40
12.5
100
AcDbArc
 50
194.4916805585
 51
207.5478133458
  0
ARC
  5
3D7
100
AcDbEntity
  8
RUNDUNGEN
100
AcDbCircle
 62
7
  6
CONTINUOUS
 10
95.0626466371
 20
146.8738839286
 40
12.5
100
AcDbArc
 50
332.4520874094
 51
207.5478133458
  0
ARC
  5
3D8
100
AcDbEntity
  8
BEZUGSACHSEN
100
AcDbCircle
 62
7
  6
CONTINUOUS
 10
112.5626466371
 20
124.8738839286
 40
5.0
100
AcDbArc
 50
102.7696134117
 51
180.0
  0
ARC
  5
3D9
100
AcDbEntity
  8
BEZUGSACHSEN
100
AcDbCircle
 62
7
  6
CONTINUOUS
 10
77.5626466371
 20
124.8738839286
 40
5.0
100
AcDbArc
 50
0.0
 51
77.2303865883
  0
ARC
  5
3DA
100
AcDbEntity
  8
0
100
AcDbCircle
 62
7
  6
CONTINUOUS
 10
101.712291247
 20
143.4051339286
 40
5.0
100
AcDbArc
 50
316.228047059
 51
332.4530374354
  0
ARC
  5
3DB
100
AcDbEntity
  8
0
100
AcDbCircle
 62
7
  6
CONTINUOUS
 10
88.4130020273
 20
143.4051339286
 40
5.0
100
AcDbArc
 50
207.5467144619
 51
223.772025762
  0
ARC
  5
3DC
100
AcDbEntity
  8
RUNDUNGEN
100
AcDbCircle
 62
7
  6
CONTINUOUS
 10
110.5316056979
 20
162.3428429894
 40
1.5
100
AcDbArc
 50
22.5
 51
67.5
  0
ARC
  5
3DD
100
AcDbEntity
  8
RUNDUNGEN
100
AcDbCircle
 62
7
  6
CONTINUOUS
 10
95.0626466371
 20
168.7502956281
 40
1.5
100
AcDbArc
 50
67.5
 51
112.5
  0
ARC
  5
3DE
100
AcDbEntity
  8
RUNDUNGEN
100
AcDbCircle
 62
7
  6
CONTINUOUS
 10
79.5936875763
 20
162.3428429894
 40
1.5
100
AcDbArc
 50
112.5
 51
157.5
  0
ARC
  5
3DF
100
AcDbEntity
  8
BEZUGSACHSEN
100
AcDbCircle
 62
7
  6
CONTINUOUS
 10
115.6148491009
 20
137.0376966751
 40
1.0522027728
100
AcDbArc
 50
163.177116032
 51
179.9541538303
  0
ARC
  5
3E0
100
AcDbEntity
  8
BEZUGSACHSEN
100
AcDbCircle
 62
7
  6
CONTINUOUS
 10
74.5104687688
 20
137.0376983848
 40
1.0521780677
100
AcDbArc
 50
0.0457541479
 51
16.8231488082
  0
ARC
  5
3E1
100
AcDbEntity
  8
BEZUGSACHSEN
100
AcDbCircle
 62
7
  6
CONTINUOUS
 10
115.610362214
 20
137.0382209312
 40
1.0477564826
100
AcDbArc
 50
157.5199020148
 51
163.1335464359
  0
ARC
  5
3E2
100
AcDbEntity
  8
BEZUGSACHSEN
100
AcDbCircle
 62
7
  6
CONTINUOUS
 10
74.5149380854
 20
137.0382178663
 40
1.0477499811
100
AcDbArc
 50
16.8666916402
 51
22.4803985163
  0
ARC
  5
3E3
100
AcDbEntity
  8
BEZUGSACHSEN
100
AcDbCircle
 62
7
  6
CONTINUOUS
 10
112.5917132499
 20
129.8729128048
 40
1.0009561567
100
AcDbArc
 50
89.9745130107
 51
157.4736844916
  0
ARC
  5
3E4
100
AcDbEntity
  8
BEZUGSACHSEN
100
AcDbCircle
 62
7
  6
CONTINUOUS
 10
77.5335931735
 20
129.8729191637
 40
1.0009492955
100
AcDbArc
 50
22.5262672431
 51
90.0262398197
  0
ARC
  5
3E5
100
AcDbEntity
  8
RUNDUNGEN
100
AcDbCircle
 62
7
  6
CONTINUOUS
 10
76.5626466371
 20
131.8738839286
 40
1.0
100
AcDbArc
 50
180.0
 51
270.0
  0
ARC
  5
3E6
100
AcDbEntity
  8
RUNDUNGEN
100
AcDbCircle
 62
7
  6
CONTINUOUS
 10
113.5626466371
 20
131.8738839286
 40
1.0
100
AcDbArc
 50
270.0
 51
360.0
  0
ARC
  5
3E7
100
AcDbEntity
  8
0
100
AcDbCircle
 62
7
  6
CONTINUOUS
 10
60.3836559054
 20
150.4347421647
 40
123.1598470316
100
AcDbArc
 50
349.7265437619
 51
349.8874544227
  0
ARC
  5
3E8
100
AcDbEntity
  8
0
100
AcDbCircle
 62
7
  6
CONTINUOUS
 10
62.5356801122
 20
149.515885569
 40
120.3420579006
100
AcDbArc
 50
349.9279199051
 51
350.0924943514
  0
ARC
  5
3E9
100
AcDbEntity
  8
0
100
AcDbCircle
 62
7
  6
CONTINUOUS
 10
73.9834304647
 20
157.4535653055
 40
112.0702674589
100
AcDbArc
 50
346.3437975977
 51
346.4930903511
  0
ARC
  5
3EA
100
AcDbEntity
  8
0
100
AcDbCircle
 62
7
  6
CONTINUOUS
 10
114.8220206558
 20
154.3797444826
 40
72.0783249565
100
AcDbArc
 50
338.9322469431
 51
339.1735217989
  0
ARC
  5
3EB
100
AcDbEntity
  8
0
100
AcDbCircle
 62
7
  6
CONTINUOUS
 10
117.3922774651
 20
149.7832050318
 40
68.2954739936
100
AcDbArc
 50
340.9727472493
 51
341.5256885206
  0
ARC
  5
3EC
100
AcDbEntity
  8
0
100
AcDbCircle
 62
7
  6
CONTINUOUS
 10
119.4219628617
 20
149.8960916659
 40
66.3854211734
100
AcDbArc
 50
340.2997591656
 51
340.870894875
  0
ARC
  5
3ED
100
AcDbEntity
  8
0
100
AcDbCircle
 62
7
  6
CONTINUOUS
 10
121.8823122878
 20
148.9297789629
 40
63.2488269167
100
AcDbArc
 50
340.0634575842
 51
340.5109496991
  0
ARC
  5
3EE
100
AcDbEntity
  8
0
100
AcDbCircle
 62
7
  6
CONTINUOUS
 10
-9.9087139931
 20
203.6928750562
 40
205.5259145784
100
AcDbArc
 50
339.0650494093
 51
339.1920084874
  0
ARC
  5
3EF
100
AcDbEntity
  8
0
100
AcDbCircle
 62
7
  6
CONTINUOUS
 10
0.5486458518
 20
200.0416411403
 40
193.9440509372
100
AcDbArc
 50
338.9109117653
 51
339.0455876818
  0
ARC
  5
3F0
100
AcDbEntity
  8
0
100
AcDbCircle
 62
7
  6
CONTINUOUS
 10
81.4679281027
 20
172.7742366223
 40
109.1837558042
100
AcDbArc
 50
337.3243600954
 51
337.4694902177
  0
ARC
  5
3F1
100
AcDbEntity
  8
0
100
AcDbCircle
 62
7
  6
CONTINUOUS
 10
85.8845107359
 20
171.097352644
 40
103.9591850015
100
AcDbArc
 50
337.1227634036
 51
337.275407529
  0
ARC
  5
3F2
100
AcDbEntity
  8
0
100
AcDbCircle
 62
7
  6
CONTINUOUS
 10
153.7455814709
 20
132.410857302
 40
0.8743991242
100
AcDbArc
 50
217.8869581945
 51
219.0775345103
  0
ARC
  5
3F3
100
AcDbEntity
  8
0
100
AcDbCircle
 62
7
  6
CONTINUOUS
 10
153.4724134194
 20
131.8279552666
 40
0.4301485437
100
AcDbArc
 50
173.8706185632
 51
185.2416357678
  0
ARC
  5
3F4
100
AcDbEntity
  8
0
100
AcDbCircle
 62
7
  6
CONTINUOUS
 10
124.6538209337
 20
137.1669389009
 40
57.7257523601
100
AcDbArc
 50
351.419911888
 51
351.932144575
  0
ARC
  5
3F5
100
AcDbEntity
  8
0
100
AcDbCircle
 62
7
  6
CONTINUOUS
 10
160.0296698355
 20
129.3135928228
 40
21.5558337339
100
AcDbArc
 50
357.076817763
 51
357.7561549488
  0
ARC
  5
3F6
100
AcDbEntity
  8
0
100
AcDbCircle
 62
7
  6
CONTINUOUS
 10
160.1838862647
 20
129.1105959683
 40
20.849057356
100
AcDbArc
 50
357.5361348675
 51
358.238265069
  0
ARC
  5
3F7
100
AcDbEntity
  8
0
100
AcDbCircle
 62
7
  6
CONTINUOUS
 10
163.3626351018
 20
129.2614805478
 40
9.1368945808
100
AcDbArc
 50
186.0441339034
 51
187.1186030996
  0
ARC
  5
3F8
100
AcDbEntity
  8
0
100
AcDbCircle
 62
7
  6
CONTINUOUS
 10
159.4641209326
 20
130.3857219617
 40
5.7387364857
100
AcDbArc
 50
199.6554200749
 51
199.9566244931
  0
ARC
  5
3F9
100
AcDbEntity
  8
0
100
AcDbCircle
 62
7
  6
CONTINUOUS
 10
159.5241289525
 20
129.9376959235
 40
5.6651054131
100
AcDbArc
 50
198.6165916848
 51
200.4432570798
  0
ARC
  5
3FA
100
AcDbEntity
  8
0
100
AcDbCircle
 62
7
  6
CONTINUOUS
 10
159.1878794481
 20
128.8858546067
 40
5.0341221714
100
AcDbArc
 50
184.742683651
 51
185.7153801047
  0
ARC
  5
3FB
100
AcDbEntity
  8
0
100
AcDbCircle
 62
7
  6
CONTINUOUS
 10
159.261719758
 20
128.4445206126
 40
4.975551228
100
AcDbArc
 50
183.6334625182
 51
185.6000183634
  0
ARC
  5
3FC
100
AcDbEntity
  8
0
100
AcDbCircle
 62
7
  6
CONTINUOUS
 10
155.8864521633
 20
130.2780710298
 40
2.2845510747
100
AcDbArc
 50
184.0932109064
 51
184.8064143863
  0
ARC
  5
3FD
100
AcDbEntity
  8
0
100
AcDbCircle
 62
7
  6
CONTINUOUS
 10
155.8760735049
 20
130.2773740186
 40
2.2741491381
100
AcDbArc
 50
180.5167793388
 51
184.0943594567
  0
ARC
  5
3FE
100
AcDbEntity
  8
0
100
AcDbCircle
 62
7
  6
CONTINUOUS
 10
155.6850828464
 20
128.6052518605
 40
1.6051128203
100
AcDbArc
 50
203.7424998815
 51
207.1066950158
  0
ARC
  5
3FF
100
AcDbEntity
  8
0
100
AcDbCircle
 62
7
  6
CONTINUOUS
 10
154.7493352131
 20
130.5422183263
 40
1.305880379
100
AcDbArc
 50
221.596978462
 51
222.4322154164
  0
ARC
  5
400
100
AcDbEntity
  8
0
100
AcDbCircle
 62
7
  6
CONTINUOUS
 10
155.515642697
 20
127.8237252202
 40
1.2132913582
100
AcDbArc
 50
173.5990117586
 51
177.6306585209
  0
ARC
  5
401
100
AcDbEntity
  8
0
100
AcDbCircle
 62
7
  6
CONTINUOUS
 10
156.0071407677
 20
127.8126007513
 40
1.1802928701
100
AcDbArc
 50
172.8753630544
 51
177.0237497108
  0
ARC
  5
402
100
AcDbEntity
  8
0
100
AcDbCircle
 62
7
  6
CONTINUOUS
 10
155.0952899095
 20
128.8621559406
 40
1.1169655178
100
AcDbArc
 50
206.1253223918
 51
210.2524897285
  0
ARC
  5
403
100
AcDbEntity
  8
0
100
AcDbCircle
 62
7
  6
CONTINUOUS
 10
155.0338048627
 20
128.8312590297
 40
1.0481573995
100
AcDbArc
 50
205.2273755842
 51
206.0889063804
  0
ARC
  5
404
100
AcDbEntity
  8
0
100
AcDbCircle
 62
7
  6
CONTINUOUS
 10
154.9819944444
 20
128.2142241844
 40
0.8210668628
100
AcDbArc
 50
168.0293452014
 51
169.0388144714
  0
ARC
  5
405
100
AcDbEntity
  8
0
100
AcDbCircle
 62
7
  6
CONTINUOUS
 10
154.9619197981
 20
128.217913269
 40
0.8006570207
100
AcDbArc
 50
169.0248392649
 51
174.1574774961
  0
ARC
  5
406
100
AcDbEntity
  8
0
100
AcDbCircle
 62
7
  6
CONTINUOUS
 10
165.9028949722
 20
131.9005683257
 40
12.3387787011
100
AcDbArc
 50
188.4543435168
 51
189.2535956844
  0
ARC
  5
407
100
AcDbEntity
  8
0
100
AcDbCircle
 62
7
  6
CONTINUOUS
 10
163.1705421149
 20
133.8966177185
 40
10.3096001048
100
AcDbArc
 50
194.3880437805
 51
195.2029900235
  0
ARC
  5
408
100
AcDbEntity
  8
0
100
AcDbCircle
 62
7
  6
CONTINUOUS
 10
163.5193299103
 20
131.2103430165
 40
9.8577773194
100
AcDbArc
 50
197.694338146
 51
198.2135334357
  0
ARC
  5
409
100
AcDbEntity
  8
0
100
AcDbCircle
 62
7
  6
CONTINUOUS
 10
163.4956321992
 20
131.202769083
 40
9.8328986979
100
AcDbArc
 50
197.3472198341
 51
197.6942625964
  0
ARC
  5
40A
100
AcDbEntity
  8
0
100
AcDbCircle
 62
7
  6
CONTINUOUS
 10
158.6821844813
 20
133.1688406751
 40
5.8045718477
100
AcDbArc
 50
193.7540473678
 51
195.490489379
  0
ARC
  5
40B
100
AcDbEntity
  8
0
100
AcDbCircle
 62
7
  6
CONTINUOUS
 10
158.6408611306
 20
132.2244829098
 40
5.7104310634
100
AcDbArc
 50
227.0594889176
 51
228.3281632924
  0
ARC
  5
40C
100
AcDbEntity
  8
0
100
AcDbCircle
 62
7
  6
CONTINUOUS
 10
157.9466070793
 20
132.8510901554
 40
5.2645272939
100
AcDbArc
 50
239.8362821705
 51
241.7340780294
  0
ARC
  5
40D
100
AcDbEntity
  8
0
100
AcDbCircle
 62
7
  6
CONTINUOUS
 10
157.4010636667
 20
132.7251333809
 40
5.1550668161
100
AcDbArc
 50
239.1505863417
 51
241.048200625
  0
ARC
  5
40E
100
AcDbEntity
  8
0
100
AcDbCircle
 62
7
  6
CONTINUOUS
 10
157.1237863784
 20
132.3510833052
 40
4.9484311619
100
AcDbArc
 50
242.5698153838
 51
244.7925225684
  0
ARC
  5
40F
100
AcDbEntity
  8
0
100
AcDbCircle
 62
7
  6
CONTINUOUS
 10
157.9208444623
 20
132.358361901
 40
4.8549951232
100
AcDbArc
 50
211.3691943683
 51
212.5496959232
  0
ARC
  5
410
100
AcDbEntity
  8
0
100
AcDbCircle
 62
7
  6
CONTINUOUS
 10
157.8120342988
 20
132.2920217754
 40
4.7275562596
100
AcDbArc
 50
210.1653637004
 51
211.3691696127
  0
ARC
  5
411
100
AcDbEntity
  8
BEZUGSACHSEN
100
AcDbCircle
 62
7
  6
CONTINUOUS
 10
154.5815833918
 20
133.568418432
 40
1.5
100
AcDbArc
 50
105.0
 51
197.0
  0
ARC
  5
412
100
AcDbEntity
  8
0
100
AcDbCircle
 62
7
  6
CONTINUOUS
 10
154.4321052922
 20
132.2766519185
 40
1.4913046457
100
AcDbArc
 50
213.7396217717
 51
217.7696211118
  0
ARC
  5
413
100
AcDbEntity
  8
0
100
AcDbCircle
 62
7
  6
CONTINUOUS
 10
154.0128635728
 20
131.4728102532
 40
0.8429638782
100
AcDbArc
 50
182.6279628903
 51
187.468170396
  0
ARC
  5
414
100
AcDbEntity
  8
0
100
AcDbCircle
 62
7
  6
CONTINUOUS
 10
154.0046812135
 20
131.4723016191
 40
0.8347668137
100
AcDbArc
 50
181.6440480141
 51
182.618838732
  0
ARC
  5
415
100
AcDbEntity
  8
0
100
AcDbCircle
 62
7
  6
CONTINUOUS
 10
172.8322948439
 20
128.0186046527
 40
8.9173597439
100
AcDbArc
 50
2.3517522327
 51
3.4468207444
  0
ARC
  5
416
100
AcDbEntity
  8
0
100
AcDbCircle
 62
7
  6
CONTINUOUS
 10
174.5011321913
 20
127.3013039044
 40
7.1151439876
100
AcDbArc
 50
5.3036908157
 51
7.3724432985
  0
ARC
  5
417
100
AcDbEntity
  8
0
100
AcDbCircle
 62
7
  6
CONTINUOUS
 10
174.1796232296
 20
127.2337047897
 40
6.9040402509
100
AcDbArc
 50
6.030181559
 51
8.1655303994
  0
ARC
  5
418
100
AcDbEntity
  8
0
100
AcDbCircle
 62
7
  6
CONTINUOUS
 10
176.8183344791
 20
129.9376959235
 40
5.6651054131
100
AcDbArc
 50
339.5567429202
 51
341.3834083152
  0
ARC
  5
419
100
AcDbEntity
  8
0
100
AcDbCircle
 62
7
  6
CONTINUOUS
 10
180.4560112674
 20
130.2780710299
 40
2.2845510756
100
AcDbArc
 50
355.1935856139
 51
355.9067890936
  0
ARC
  5
41A
100
AcDbEntity
  8
0
100
AcDbCircle
 62
7
  6
CONTINUOUS
 10
180.4626960454
 20
130.2776024135
 40
2.2778498994
100
AcDbArc
 50
355.9065442645
 51
357.3359334338
  0
ARC
  5
41B
100
AcDbEntity
  8
0
100
AcDbCircle
 62
7
  6
CONTINUOUS
 10
180.4695147642
 20
130.2772804339
 40
2.2710235846
100
AcDbArc
 50
357.336051953
 51
359.4848705606
  0
ARC
  5
41C
100
AcDbEntity
  8
0
100
AcDbCircle
 62
7
  6
CONTINUOUS
 10
180.6573805852
 20
128.6052518605
 40
1.6051128203
100
AcDbArc
 50
332.8933049842
 51
336.2575001185
  0
ARC
  5
41D
100
AcDbEntity
  8
0
100
AcDbCircle
 62
7
  6
CONTINUOUS
 10
180.5750640823
 20
127.3550792088
 40
1.5562223763
100
AcDbArc
 50
37.3594483965
 51
41.4144658777
  0
ARC
  5
41E
100
AcDbEntity
  8
0
100
AcDbCircle
 62
7
  6
CONTINUOUS
 10
181.5931282185
 20
130.5422183263
 40
1.305880379
100
AcDbArc
 50
317.5677845836
 51
318.403021538
  0
ARC
  5
41F
100
AcDbEntity
  8
0
100
AcDbCircle
 62
7
  6
CONTINUOUS
 10
175.9734148385
 20
132.7376505393
 40
22.2162457655
100
AcDbArc
 50
190.6291272115
 51
191.076102025
  0
ARC
  5
420
100
AcDbEntity
  8
0
100
AcDbCircle
 62
7
  6
CONTINUOUS
 10
172.8279229239
 20
131.208801646
 40
9.8527460138
100
AcDbArc
 50
341.9594218119
 51
342.3057360836
  0
ARC
  5
421
100
AcDbEntity
  8
0
100
AcDbCircle
 62
7
  6
CONTINUOUS
 10
172.8468312362
 20
131.2027690818
 40
9.8328986938
100
AcDbArc
 50
342.3057374035
 51
342.652780166
  0
ARC
  5
422
100
AcDbEntity
  8
0
100
AcDbCircle
 62
7
  6
CONTINUOUS
 10
173.2249147244
 20
131.7976971198
 40
9.6435671797
100
AcDbArc
 50
356.9113247911
 51
357.4178993494
  0
ARC
  5
423
100
AcDbEntity
  8
0
100
AcDbCircle
 62
7
  6
CONTINUOUS
 10
173.2291153961
 20
131.7974712305
 40
9.639360439
100
AcDbArc
 50
356.4048965502
 51
356.9113201722
  0
ARC
  5
424
100
AcDbEntity
  8
0
100
AcDbCircle
 62
7
  6
CONTINUOUS
 10
173.7518471438
 20
133.0186318651
 40
9.5133287287
100
AcDbArc
 50
327.8696214993
 51
329.6680098111
  0
ARC
  5
425
100
AcDbEntity
  8
0
100
AcDbCircle
 62
7
  6
CONTINUOUS
 10
175.2233355643
 20
131.9830741021
 40
7.7857351235
100
AcDbArc
 50
356.6894044577
 51
358.5700094185
  0
ARC
  5
426
100
AcDbEntity
  8
0
100
AcDbCircle
 62
7
  6
CONTINUOUS
 10
177.6602789503
 20
133.1688406751
 40
5.8045718477
100
AcDbArc
 50
344.509510621
 51
346.2459526322
  0
ARC
  5
427
100
AcDbEntity
  8
0
100
AcDbCircle
 62
7
  6
CONTINUOUS
 10
179.8349379444
 20
131.0568041757
 40
3.3929394542
100
AcDbArc
 50
305.640978704
 51
306.0482626639
  0
ARC
  5
428
100
AcDbEntity
  8
0
100
AcDbCircle
 62
7
  6
CONTINUOUS
 10
180.0037316551
 20
130.8279765683
 40
3.1085984771
100
AcDbArc
 50
306.01479172
 51
308.1838787611
  0
ARC
  5
429
100
AcDbEntity
  8
RUNDUNGEN
100
AcDbCircle
 62
7
  6
CONTINUOUS
 10
181.7608800398
 20
133.568418432
 40
1.5
100
AcDbArc
 50
343.0
 51
75.0
  0
ARC
  5
42A
100
AcDbEntity
  8
0
100
AcDbCircle
 62
7
  6
CONTINUOUS
 10
181.7015859941
 20
130.6905663058
 40
1.3384277715
100
AcDbArc
 50
30.1714505709
 51
34.4839987413
  0
ARC
  5
42B
100
AcDbEntity
  8
0
100
AcDbCircle
 62
7
  6
CONTINUOUS
 10
182.8694775506
 20
131.8279728653
 40
0.4307158608
100
AcDbArc
 50
354.7788388323
 51
6.1189227665
  0
ARC
  5
42C
100
AcDbEntity
  8
0
100
AcDbCircle
 62
7
  6
CONTINUOUS
 10
175.8633233906
 20
138.256027941
 40
23.7223543814
100
AcDbArc
 50
196.2481385747
 51
196.8212684332
  0
ARC
  5
42D
100
AcDbEntity
  8
0
100
AcDbCircle
 62
7
  6
CONTINUOUS
 10
160.5011534375
 20
138.2495208894
 40
23.6993995645
100
AcDbArc
 50
343.0005202052
 51
343.7520738183
  0
ARC
  5
42E
100
AcDbEntity
  8
0
100
AcDbCircle
 62
7
  6
CONTINUOUS
 10
159.6679282608
 20
135.2440068917
 40
23.6214037827
100
AcDbArc
 50
350.3346657405
 51
350.9623090387
  0
ARC
  5
42F
100
AcDbEntity
  8
0
100
AcDbCircle
 62
7
  6
CONTINUOUS
 10
174.8199790451
 20
140.734774488
 40
23.4462909239
100
AcDbArc
 50
202.8806263646
 51
203.3348497771
  0
ARC
  5
430
100
AcDbEntity
  8
0
100
AcDbCircle
 62
7
  6
CONTINUOUS
 10
174.6850907677
 20
140.676452281
 40
23.2993337901
100
AcDbArc
 50
203.486366505
 51
203.7891863187
  0
ARC
  5
431
100
AcDbEntity
  8
0
100
AcDbCircle
 62
7
  6
CONTINUOUS
 10
176.2862087995
 20
134.9818692499
 40
23.1710649589
100
AcDbArc
 50
191.3365986471
 51
191.7661909244
  0
ARC
  5
432
100
AcDbEntity
  8
0
100
AcDbCircle
 62
7
  6
CONTINUOUS
 10
160.0562546321
 20
134.9818692499
 40
23.1710649589
100
AcDbArc
 50
348.2338090756
 51
348.6634013529
  0
ARC
  5
433
100
AcDbEntity
  8
0
100
AcDbCircle
 62
7
  6
CONTINUOUS
 10
174.6887981165
 20
140.5280113343
 40
22.7599970678
100
AcDbArc
 50
203.0448777094
 51
203.7467760545
  0
ARC
  5
434
100
AcDbEntity
  8
0
100
AcDbCircle
 62
7
  6
CONTINUOUS
 10
174.5709001015
 20
140.4763330843
 40
22.6312704079
100
AcDbArc
 50
203.7472168162
 51
203.9812308308
  0
ARC
  5
435
100
AcDbEntity
  8
0
100
AcDbCircle
 62
7
  6
CONTINUOUS
 10
175.1219338911
 20
135.4223941299
 40
22.1848755594
100
AcDbArc
 50
197.879205617
 51
198.1104490931
  0
ARC
  5
436
100
AcDbEntity
  8
0
100
AcDbCircle
 62
7
  6
CONTINUOUS
 10
162.3987448615
 20
137.519871346
 40
21.6645075862
100
AcDbArc
 50
334.5622461043
 51
335.3076896327
  0
ARC
  5
437
100
AcDbEntity
  8
0
100
AcDbCircle
 62
7
  6
CONTINUOUS
 10
172.1525184571
 20
138.2249531184
 40
12.5729140276
100
AcDbArc
 50
325.9932063455
 51
326.9238537419
  0
ARC
  5
438
100
AcDbEntity
  8
0
100
AcDbCircle
 62
7
  6
CONTINUOUS
 10
164.5493205759
 20
135.4157052947
 40
12.1044936897
100
AcDbArc
 50
215.0186338278
 51
216.0084640774
  0
ARC
  5
439
100
AcDbEntity
  8
0
100
AcDbCircle
 62
7
  6
CONTINUOUS
 10
164.4744419569
 20
134.8216156631
 40
11.8526799481
100
AcDbArc
 50
213.8798044243
 51
214.876763464
  0
ARC
  5
43A
100
AcDbEntity
  8
0
100
AcDbCircle
 62
7
  6
CONTINUOUS
 10
164.8010937867
 20
135.3425424835
 40
11.8258703196
100
AcDbArc
 50
215.5333099626
 51
216.5532348319
  0
ARC
  5
43B
100
AcDbEntity
  8
0
100
AcDbCircle
 62
7
  6
CONTINUOUS
 10
172.2013644292
 20
134.2284952576
 40
11.3450176578
100
AcDbArc
 50
328.9949506779
 51
329.9927017454
  0
ARC
  5
43C
100
AcDbEntity
  8
0
100
AcDbCircle
 62
7
  6
CONTINUOUS
 10
163.5590614439
 20
135.9726045957
 40
11.2896303653
100
AcDbArc
 50
204.0969919037
 51
204.8886409326
  0
ARC
  5
43D
100
AcDbEntity
  8
0
100
AcDbCircle
 62
7
  6
CONTINUOUS
 10
173.7227557736
 20
138.0780934436
 40
11.0462298337
100
AcDbArc
 50
323.8725067249
 51
325.2941738581
  0
ARC
  5
43E
100
AcDbEntity
  8
0
100
AcDbCircle
 62
7
  6
CONTINUOUS
 10
163.7360637027
 20
134.2337926758
 40
10.950942822
100
AcDbArc
 50
204.6806298657
 51
205.6646532911
  0
ARC
  5
43F
100
AcDbEntity
  8
0
100
AcDbCircle
 62
7
  6
CONTINUOUS
 10
172.6063997289
 20
134.2337926758
 40
10.950942822
100
AcDbArc
 50
334.3353467089
 51
335.3193701343
  0
ARC
  5
440
100
AcDbEntity
  8
0
100
AcDbCircle
 62
7
  6
CONTINUOUS
 10
173.4167091033
 20
138.0232255716
 40
10.8251347736
100
AcDbArc
 50
323.1652502179
 51
324.8356785057
  0
ARC
  5
441
100
AcDbEntity
  8
0
100
AcDbCircle
 62
7
  6
CONTINUOUS
 10
159.3518300927
 20
134.9029348636
 40
6.9573449878
100
AcDbArc
 50
206.590264019
 51
208.1689002051
  0
ARC
  5
442
100
AcDbEntity
  8
0
100
AcDbCircle
 62
7
  6
CONTINUOUS
 10
159.7245427984
 20
134.8600992417
 40
6.801580144
100
AcDbArc
 50
206.8438175372
 51
208.4626316617
  0
ARC
  5
443
100
AcDbEntity
  8
RUNDUNGEN
100
AcDbCircle
 62
7
  6
CONTINUOUS
 10
168.1712317158
 20
134.8738839286
 40
4.0
100
AcDbArc
 50
177.8733436179
 51
2.1266563821
  0
ARC
  5
444
100
AcDbEntity
  8
BEZUGSACHSEN
100
AcDbCircle
 62
7
  6
CONTINUOUS
 10
168.1712317158
 20
134.8738839286
 40
4.0
100
AcDbArc
 50
177.8761464302
 51
2.1238535698
  0
ARC
  5
445
100
AcDbEntity
  8
0
100
AcDbCircle
 62
7
  6
CONTINUOUS
 10
180.588139023
 20
134.3708195364
 40
3.668060905
100
AcDbArc
 50
304.92164898
 51
306.8109596848
  0
ARC
  5
446
100
AcDbEntity
  8
0
100
AcDbCircle
 62
7
  6
CONTINUOUS
 10
180.5509231668
 20
134.7299913791
 40
3.4048854822
100
AcDbArc
 50
300.25157482
 51
302.9836146989
  0
ARC
  5
447
100
AcDbEntity
  8
0
100
AcDbCircle
 62
7
  6
CONTINUOUS
 10
180.7587408447
 20
134.1401392919
 40
3.3811541799
100
AcDbArc
 50
306.8386074936
 51
307.2393119077
  0
ARC
  5
448
100
AcDbEntity
  8
0
100
AcDbCircle
 62
7
  6
CONTINUOUS
 10
181.0873471872
 20
134.6605782318
 40
3.3456142442
100
AcDbArc
 50
300.86508324
 51
303.5981079961
  0
ARC
  5
449
100
AcDbEntity
  8
0
100
AcDbCircle
 62
7
  6
CONTINUOUS
 10
125.4268119763
 20
157.1624102748
 40
62.6448427865
100
AcDbArc
 50
335.2521924814
 51
335.5945676508
  0
ARC
  5
44A
100
AcDbEntity
  8
0
100
AcDbCircle
 62
7
  6
CONTINUOUS
 10
127.3362845345
 20
156.3271230458
 40
60.0669821633
100
AcDbArc
 50
334.9957841104
 51
335.3535664853
  0
ARC
  5
44B
100
AcDbEntity
  8
0
100
AcDbCircle
 62
7
  6
CONTINUOUS
 10
125.7882273266
 20
142.6719383868
 40
58.2044214944
100
AcDbArc
 50
348.1125259356
 51
348.5398530803
  0
ARC
  5
44C
100
AcDbEntity
  8
0
100
AcDbCircle
 62
7
  6
CONTINUOUS
 10
134.5184664383
 20
142.9593907733
 40
49.9237994026
100
AcDbArc
 50
343.000193233
 51
343.229860121
  0
ARC
  5
44D
100
AcDbEntity
  8
0
100
AcDbCircle
 62
7
  6
CONTINUOUS
 10
142.2207447344
 20
145.6820129075
 40
43.3333548842
100
AcDbArc
 50
336.8402810095
 51
337.4517866773
  0
ARC
  5
44E
100
AcDbEntity
  8
0
100
AcDbCircle
 62
7
  6
CONTINUOUS
 10
145.1161061315
 20
149.0433540689
 40
41.4946936073
100
AcDbArc
 50
333.7371809744
 51
334.2584521606
  0
ARC
  5
44F
100
AcDbEntity
  8
0
100
AcDbCircle
 62
7
  6
CONTINUOUS
 10
162.8396522794
 20
142.7890534707
 40
22.7597995152
100
AcDbArc
 50
329.6184235758
 51
330.3606829122
  0
ARC
  5
450
100
AcDbEntity
  8
0
100
AcDbCircle
 62
7
  6
CONTINUOUS
 10
162.9569015557
 20
142.5768293696
 40
22.0834671366
100
AcDbArc
 50
329.2271559071
 51
329.9950945287
  0
ARC
  5
451
100
AcDbEntity
  8
RUNDUNGEN
100
AcDbCircle
 62
7
  6
CONTINUOUS
 10
179.4212317158
 20
142.9951728444
 40
7.0
100
AcDbArc
 50
179.9999488102
 51
255.0001435354
  0
ARC
  5
452
100
AcDbEntity
  8
BEZUGSACHSEN
100
AcDbCircle
 62
7
  6
CONTINUOUS
 10
156.9212317158
 20
142.9951728444
 40
7.0
100
AcDbArc
 50
284.9998564646
 51
0.0000511898
  0
ARC
  5
453
100
AcDbEntity
  8
0
100
AcDbCircle
 62
7
  6
CONTINUOUS
 10
207.5615956924
 20
139.9785339784
 40
54.5499756136
100
AcDbArc
 50
192.088303834
 51
192.3626976138
  0
ARC
  5
454
100
AcDbEntity
  8
0
100
AcDbCircle
 62
7
  6
CONTINUOUS
 10
257.8408587687
 20
156.9549132442
 40
107.59515011
100
AcDbArc
 50
194.0866136949
 51
194.2735917919
  0
ARC
  5
455
100
AcDbEntity
  8
0
100
AcDbCircle
 62
7
  6
CONTINUOUS
 10
225.2725467513
 20
155.6202457148
 40
76.037554363
100
AcDbArc
 50
200.1443380041
 51
200.3720254509
  0
ARC
  5
456
100
AcDbEntity
  8
0
100
AcDbCircle
 62
7
  6
CONTINUOUS
 10
218.0433749082
 20
149.4730500234
 40
67.3370911643
100
AcDbArc
 50
198.7498428431
 51
199.1683609569
  0
ARC
  5
457
100
AcDbEntity
  8
0
100
AcDbCircle
 62
7
  6
CONTINUOUS
 10
212.3726912283
 20
153.3733187915
 40
62.9817768857
100
AcDbArc
 50
203.2073465341
 51
203.5447311919
  0
ARC
  5
458
100
AcDbEntity
  8
0
100
AcDbCircle
 62
7
  6
CONTINUOUS
 10
209.0058959781
 20
142.6398923581
 40
56.7077072769
100
AcDbArc
 50
192.4369022255
 51
192.7012034166
  0
ARC
  5
459
100
AcDbEntity
  8
0
100
AcDbCircle
 62
7
  6
CONTINUOUS
 10
204.7981224104
 20
146.1856368111
 40
53.7112693231
100
AcDbArc
 50
196.2410871715
 51
196.3978893923
  0
ARC
  5
45A
100
AcDbEntity
  8
0
100
AcDbCircle
 62
7
  6
CONTINUOUS
 10
198.2722611401
 20
148.2224616474
 40
48.0594480908
100
AcDbArc
 50
200.7530558577
 51
201.0789166605
  0
ARC
  5
45B
100
AcDbEntity
  8
0
100
AcDbCircle
 62
7
  6
CONTINUOUS
 10
196.1258554234
 20
146.5475005292
 40
45.5121260879
100
AcDbArc
 50
201.6638483146
 51
201.8949369439
  0
ARC
  5
45C
100
AcDbEntity
  8
0
100
AcDbCircle
 62
7
  6
CONTINUOUS
 10
257.9069525903
 20
170.239278062
 40
111.3982071964
100
AcDbArc
 50
201.8801339819
 51
202.0217172769
  0
ARC
  5
45D
100
AcDbEntity
  8
0
100
AcDbCircle
 62
7
  6
CONTINUOUS
 10
253.4138222531
 20
168.5674718822
 40
106.10475604
100
AcDbArc
 50
202.0553289141
 51
202.2041635879
  0
ARC
  5
45E
100
AcDbEntity
  8
BEZUGSACHSEN
100
AcDbCircle
 62
7
  6
CONTINUOUS
 10
165.4212317158
 20
168.7502956281
 40
1.5
100
AcDbArc
 50
90.0
 51
180.0
  0
ARC
  5
45F
100
AcDbEntity
  8
RUNDUNGEN
100
AcDbCircle
 62
7
  6
CONTINUOUS
 10
170.9212317158
 20
168.7502956281
 40
1.5
100
AcDbArc
 50
0.0
 51
90.0
  0
ARC
  5
460
100
AcDbEntity
  8
0
100
AcDbCircle
 62
7
  6
CONTINUOUS
 10
91.8702971771
 20
83.5046398939
 40
20.7040741304
100
AcDbArc
 50
81.9462492914
 51
82.8768658214
  0
ARC
  5
461
100
AcDbEntity
  8
0
100
AcDbCircle
 62
7
  6
CONTINUOUS
 10
94.1689385598
 20
83.9632364147
 40
20.0874798654
100
AcDbArc
 50
89.2335376039
 51
90.8974454903
  0
ARC
  5
462
100
AcDbEntity
  8
0
100
AcDbCircle
 62
7
  6
CONTINUOUS
 10
95.0623262268
 20
84.0422365336
 40
20.0424538591
100
AcDbArc
 50
93.4554650727
 51
93.932912886
  0
ARC
  5
463
100
AcDbEntity
  8
0
100
AcDbCircle
 62
7
  6
CONTINUOUS
 10
94.1121316801
 20
84.5122460189
 40
19.7952633654
100
AcDbArc
 50
74.1428709466
 51
75.6419319872
  0
ARC
  5
464
100
AcDbEntity
  8
RUNDUNGEN
100
AcDbCircle
 62
7
  6
CONTINUOUS
 10
73.4952055764
 20
86.1718771996
 40
1.5001492998
100
AcDbArc
 50
188.3327264083
 51
269.9956417433
  0
ARC
  5
465
100
AcDbEntity
  8
0
100
AcDbCircle
 62
7
  6
CONTINUOUS
 10
91.2875437171
 20
94.7975794067
 40
20.7136715386
100
AcDbArc
 50
270.8762453709
 51
271.3674368018
  0
ARC
  5
466
100
AcDbEntity
  8
0
100
AcDbCircle
 62
7
  6
CONTINUOUS
 10
91.9016226198
 20
93.9130515337
 40
20.6759752826
100
AcDbArc
 50
284.3354965524
 51
285.2620404892
  0
ARC
  5
467
100
AcDbEntity
  8
0
100
AcDbCircle
 62
7
  6
CONTINUOUS
 10
94.1737928554
 20
93.7524670546
 40
20.0745282359
100
AcDbArc
 50
276.4751601311
 51
278.1538017741
  0
ARC
  5
468
100
AcDbEntity
  8
0
100
AcDbCircle
 62
7
  6
CONTINUOUS
 10
94.0182905769
 20
93.7210273863
 40
19.7825332698
100
AcDbArc
 50
261.5294800228
 51
262.9909741731
  0
ARC
  5
469
100
AcDbEntity
  8
0
100
AcDbCircle
 62
7
  6
CONTINUOUS
 10
95.0626466371
 20
88.9217443661
 40
10.6
100
AcDbArc
 50
203.640511602
 51
336.3594978153
  0
ARC
  5
46A
100
AcDbEntity
  8
0
100
AcDbCircle
 62
7
  6
CONTINUOUS
 10
95.0626466371
 20
88.9217443661
 40
10.6
100
AcDbArc
 50
23.6405004987
 51
156.3596121579
  0
ARC
  5
46B
100
AcDbEntity
  8
KONSTRUKTIONSELEMENTE
100
AcDbCircle
 62
7
  6
CONTINUOUS
 10
95.0626466371
 20
88.9217443661
 40
10.5
100
AcDbArc
 50
23.9225753014
 51
156.0774246986
  0
ARC
  5
46C
100
AcDbEntity
  8
KONSTRUKTIONSELEMENTE
100
AcDbCircle
 62
7
  6
CONTINUOUS
 10
95.0626466371
 20
88.9217443661
 40
10.5
100
AcDbArc
 50
203.9225753014
 51
336.0774246986
  0
ARC
  5
46D
100
AcDbEntity
  8
0
100
AcDbCircle
 62
7
  6
CONTINUOUS
 10
95.0626466371
 20
88.9217443661
 40
9.4
100
AcDbArc
 50
26.9621255106
 51
153.0378744894
  0
ARC
  5
46E
100
AcDbEntity
  8
0
100
AcDbCircle
 62
7
  6
CONTINUOUS
 10
95.0626466371
 20
88.9217443661
 40
9.4
100
AcDbArc
 50
206.9621255106
 51
333.0378744894
  0
ARC
  5
46F
100
AcDbEntity
  8
BEZUGSACHSEN
100
AcDbCircle
 62
7
  6
CONTINUOUS
 10
73.4952059077
 20
91.6716111491
 40
1.5001492998
100
AcDbArc
 50
90.00437091
 51
171.6672609384
  0
ARC
  5
470
100
AcDbEntity
  8
0
100
AcDbCircle
 62
7
  6
CONTINUOUS
 10
98.8377521129
 20
83.045766914
 40
20.7138139725
100
AcDbArc
 50
90.8762464154
 51
91.362435812
  0
ARC
  5
471
100
AcDbEntity
  8
0
100
AcDbCircle
 62
7
  6
CONTINUOUS
 10
98.2236696572
 20
83.9304410157
 40
20.6759713372
100
AcDbArc
 50
104.335496494
 51
105.2621105454
  0
ARC
  5
472
100
AcDbEntity
  8
0
100
AcDbCircle
 62
7
  6
CONTINUOUS
 10
95.9515004188
 20
84.0910216775
 40
20.0745282359
100
AcDbArc
 50
96.4751601311
 51
98.1538017741
  0
ARC
  5
473
100
AcDbEntity
  8
0
100
AcDbCircle
 62
7
  6
CONTINUOUS
 10
96.1070026973
 20
84.1224613458
 40
19.7825332698
100
AcDbArc
 50
81.5294800228
 51
82.9909741731
  0
ARC
  5
474
100
AcDbEntity
  8
RUNDUNGEN
100
AcDbCircle
 62
7
  6
CONTINUOUS
 10
116.6300877941
 20
86.1718772002
 40
1.5001493006
100
AcDbArc
 50
270.0043807128
 51
351.6674237781
  0
ARC
  5
475
100
AcDbEntity
  8
0
100
AcDbCircle
 62
7
  6
CONTINUOUS
 10
98.2549960972
 20
94.3388488383
 40
20.7040741305
100
AcDbArc
 50
261.9462492914
 51
262.8768658214
  0
ARC
  5
476
100
AcDbEntity
  8
0
100
AcDbCircle
 62
7
  6
CONTINUOUS
 10
95.9563547145
 20
93.8802523175
 40
20.0874798654
100
AcDbArc
 50
269.2335376039
 51
270.8974454903
  0
ARC
  5
477
100
AcDbEntity
  8
0
100
AcDbCircle
 62
7
  6
CONTINUOUS
 10
95.0629670474
 20
93.8012521985
 40
20.0424538591
100
AcDbArc
 50
273.4554650727
 51
273.932912886
  0
ARC
  5
478
100
AcDbEntity
  8
0
100
AcDbCircle
 62
7
  6
CONTINUOUS
 10
96.0131615941
 20
93.3312427132
 40
19.7952633654
100
AcDbArc
 50
254.1428709466
 51
255.6419319872
  0
ARC
  5
479
100
AcDbEntity
  8
BEZUGSACHSEN
100
AcDbCircle
 62
7
  6
CONTINUOUS
 10
116.6300874628
 20
91.6716111485
 40
1.5001493006
100
AcDbArc
 50
8.3325888754
 51
89.9956066337
  0
SPLINE
  5
47A
100
AcDbEntity
  8
0
100
AcDbSpline
 62
7
  6
CONTINUOUS
 70
0
 71
3
 72
10
 73
6
 74
0
 42
0.0000001
 43
0.0000001
 44
0.0000000001
 40
0.0
 40
0.0
 40
0.0
 40
0.0
 40
0.4795709903
 40
0.7344580197
 40
1.0
 40
1.0
 40
1.0
 40
1.0
 10
102.4474160038
 20
137.0194906515
 30
0.0
 10
102.0771974221
 20
136.8001434984
 30
0.0
 10
101.4571707182
 20
136.5518031368
 30
0.0
 10
100.5849134617
 20
136.3418219515
 30
0.0
 10
100.1235577235
 20
136.2660274795
 30
0.0
 10
99.8874908829
 20
136.2336920604
 30
0.0
  0
SPLINE
  5
47B
100
AcDbEntity
  8
0
100
AcDbSpline
 62
7
  6
CONTINUOUS
 70
0
 71
3
 72
10
 73
6
 74
0
 42
0.0000001
 43
0.0000001
 44
0.0000000001
 40
0.0
 40
0.0
 40
0.0
 40
0.0
 40
0.2655391273
 40
0.5204359539
 40
1.0
 40
1.0
 40
1.0
 40
1.0
 10
90.2378023913
 20
136.2336920604
 30
0.0
 10
90.001737033
 20
136.2660272764
 30
0.0
 10
89.5403730454
 20
136.3418225333
 30
0.0
 10
88.6681115016
 20
136.5518038811
 30
0.0
 10
88.0480814397
 20
136.800150623
 30
0.0
 10
87.6778671813
 20
137.0194966183
 30
0.0
  0
SPLINE
  5
47C
100
AcDbEntity
  8
BEZUGSACHSEN
100
AcDbSpline
 62
7
  6
CONTINUOUS
 70
0
 71
3
 72
9
 73
5
 74
0
 42
0.0000001
 43
0.0000001
 44
0.0000000001
 40
0.0
 40
0.0
 40
0.0
 40
0.0
 40
0.5000423996
 40
1.0
 40
1.0
 40
1.0
 40
1.0
 10
118.3124290388
 20
147.4779626479
 30
0.0
 10
118.3887265557
 20
147.2937632059
 30
0.0
 10
118.4704571548
 20
146.8917764407
 30
0.0
 10
118.3908791143
 20
146.488940674
 30
0.0
 10
118.3146041026
 20
146.3047685072
 30
0.0
  0
SPLINE
  5
47D
100
AcDbEntity
  8
BEZUGSACHSEN
100
AcDbSpline
 62
7
  6
CONTINUOUS
 70
0
 71
3
 72
9
 73
5
 74
0
 42
0.0000001
 43
0.0000001
 44
0.0000000001
 40
0.0
 40
0.0
 40
0.0
 40
0.0
 40
0.4999585749
 40
1.0
 40
1.0
 40
1.0
 40
1.0
 10
71.8106846408
 20
146.3047665649
 30
0.0
 10
71.7344102467
 20
146.4889397451
 30
0.0
 10
71.6548342877
 20
146.8917766068
 30
0.0
 10
71.7365664493
 20
147.2937634817
 30
0.0
 10
71.8128642639
 20
147.4779627167
 30
0.0
  0
SPLINE
  5
47E
100
AcDbEntity
  8
0
100
AcDbSpline
 62
7
  6
CONTINUOUS
 70
0
 71
3
 72
9
 73
5
 74
0
 42
0.0000001
 43
0.0000001
 44
0.0000000001
 40
0.0
 40
0.0
 40
0.0
 40
0.0
 40
0.2254813851
 40
1.0
 40
1.0
 40
1.0
 40
1.0
 10
105.322796036
 20
139.9461932146
 30
0.0
 10
105.309187203
 20
139.9319881419
 30
0.0
 10
105.2503126039
 20
139.86757344
 30
0.0
 10
105.1949649167
 20
139.8000733467
 30
0.0
 10
105.15220558
 20
139.7477509023
 30
0.0
  0
SPLINE
  5
47F
100
AcDbEntity
  8
0
100
AcDbSpline
 62
7
  6
CONTINUOUS
 70
0
 71
3
 72
13
 73
9
 74
0
 42
0.0000001
 43
0.0000001
 44
0.0000000001
 40
0.0
 40
0.0
 40
0.0
 40
0.0
 40
0.095679313
 40
0.2057525273
 40
0.3252066045
 40
0.4512920199
 40
0.7177470279
 40
1.0
 40
1.0
 40
1.0
 40
1.0
 10
105.15220558
 20
139.7477509023
 30
0.0
 10
105.0741444129
 20
139.6522246174
 30
0.0
 10
104.915294309
 20
139.4396009646
 30
0.0
 10
104.6649988976
 20
139.10325952
 30
0.0
 10
104.3824306295
 20
138.7420207291
 30
0.0
 10
103.9543416285
 20
138.2392774967
 30
0.0
 10
103.3360295155
 20
137.6239063493
 30
0.0
 10
102.7605157199
 20
137.2049958478
 30
0.0
 10
102.44741938
 20
137.0194924878
 30
0.0
  0
SPLINE
  5
480
100
AcDbEntity
  8
0
100
AcDbSpline
 62
7
  6
CONTINUOUS
 70
0
 71
3
 72
9
 73
5
 74
0
 42
0.0000001
 43
0.0000001
 44
0.0000000001
 40
0.0
 40
0.0
 40
0.0
 40
0.0
 40
0.5000004045
 40
1.0
 40
1.0
 40
1.0
 40
1.0
 10
98.2265125986
 20
136.0518755903
 30
0.0
 10
97.173754092
 20
135.9636579441
 30
0.0
 10
95.0626101438
 20
135.7688421133
 30
0.0
 10
92.9514665725
 20
135.9636619193
 30
0.0
 10
91.8987099496
 20
136.0518815726
 30
0.0
  0
SPLINE
  5
481
100
AcDbEntity
  8
0
100
AcDbSpline
 62
7
  6
CONTINUOUS
 70
0
 71
3
 72
13
 73
9
 74
0
 42
0.0000001
 43
0.0000001
 44
0.0000000001
 40
0.0
 40
0.0
 40
0.0
 40
0.0
 40
0.2822538816
 40
0.5487093105
 40
0.6747947741
 40
0.7942487178
 40
0.9043215019
 40
1.0
 40
1.0
 40
1.0
 40
1.0
 10
87.6778635654
 20
137.0194985436
 30
0.0
 10
87.36476558
 20
137.2050040655
 30
0.0
 10
86.7892491374
 20
137.6239183404
 30
0.0
 10
86.1709353348
 20
138.2392949148
 30
0.0
 10
85.7428457564
 20
138.7420414191
 30
0.0
 10
85.460277594
 20
139.1032815935
 30
0.0
 10
85.2099827599
 20
139.4396231943
 30
0.0
 10
85.0511324742
 20
139.6522459017
 30
0.0
 10
84.9730719317
 20
139.7477719289
 30
0.0
  0
SPLINE
  5
482
100
AcDbEntity
  8
0
100
AcDbSpline
 62
7
  6
CONTINUOUS
 70
0
 71
3
 72
9
 73
5
 74
0
 42
0.0000001
 43
0.0000001
 44
0.0000000001
 40
0.0
 40
0.0
 40
0.0
 40
0.0
 40
0.2724392571
 40
1.0
 40
1.0
 40
1.0
 40
1.0
 10
84.9730719317
 20
139.7477719289
 30
0.0
 10
84.9580337213
 20
139.766173536
 30
0.0
 10
84.902645413
 20
139.8335388571
 30
0.0
 10
84.8463976224
 20
139.9003676373
 30
0.0
 10
84.8024931347
 20
139.9461955822
 30
0.0
  0
SPLINE
  5
483
100
AcDbEntity
  8
BEZUGSACHSEN
100
AcDbSpline
 62
7
  6
CONTINUOUS
 70
0
 71
3
 72
34
 73
30
 74
0
 42
0.0000001
 43
0.0000001
 44
0.0000000001
 40
0.0
 40
0.0
 40
0.0
 40
0.0
 40
0.0108901624
 40
0.0220036539
 40
0.033323812
 40
0.0447356883
 40
0.0676490433
 40
0.0906012013
 40
0.1135279604
 40
0.1364042038
 40
0.159215441
 40
0.1819504318
 40
0.2271495833
 40
0.271927144
 40
0.3162062103
 40
0.3599069144
 40
0.4452296301
 40
0.5271913504
 40
0.6050504089
 40
0.6780233311
 40
0.7453315144
 40
0.8061923019
 40
0.8598671859
 40
0.9056761098
 40
0.9430148285
 40
0.971398992
 40
0.9904697634
 40
0.9964364011
 40
1.0
 40
1.0
 40
1.0
 40
1.0
 10
98.6601283351
 20
124.8738839286
 30
0.0
 10
98.6448118933
 20
124.9226432919
 30
0.0
 10
98.6312423999
 20
125.0276726178
 30
0.0
 10
98.6665522771
 20
125.1825934117
 30
0.0
 10
98.7413575562
 20
125.3240374366
 30
0.0
 10
98.8720115302
 20
125.4945353323
 30
0.0
 10
99.0685642741
 20
125.6798330984
 30
0.0
 10
99.3262667862
 20
125.8746473232
 30
0.0
 10
99.5963773497
 20
126.051526501
 30
0.0
 10
99.8736646165
 20
126.2153802013
 30
0.0
 10
100.1555577785
 20
126.3692685177
 30
0.0
 10
100.534682376
 20
126.5633437031
 30
0.0
 10
101.0131515318
 20
126.789205088
 30
0.0
 10
101.5910153051
 20
127.0405030814
 30
0.0
 10
102.1682921556
 20
127.2750192519
 30
0.0
 10
102.9279301772
 20
127.5657296145
 30
0.0
 10
103.8619016051
 20
127.895143921
 30
0.0
 10
104.9576902658
 20
128.2460684333
 30
0.0
 10
106.0063572203
 20
128.5528743428
 30
0.0
 10
106.995304897
 20
128.817840846
 30
0.0
 10
107.9119714281
 20
129.0435026263
 30
0.0
 10
108.7442990881
 20
129.2322063781
 30
0.0
 10
109.4808220965
 20
129.3866359693
 30
0.0
 10
110.1110616166
 20
129.5096673995
 30
0.0
 10
110.6259295706
 20
129.6040013965
 30
0.0
 10
111.0178977372
 20
129.6726792101
 30
0.0
 10
111.2650687262
 20
129.7147442998
 30
0.0
 10
111.3971970363
 20
129.7383119969
 30
0.0
 10
111.4411795287
 20
129.7465209174
 30
0.0
 10
111.4574901376
 20
129.7502175012
 30
0.0
  0
SPLINE
  5
484
100
AcDbEntity
  8
BEZUGSACHSEN
100
AcDbSpline
 62
7
  6
CONTINUOUS
 70
0
 71
3
 72
34
 73
30
 74
0
 42
0.0000001
 43
0.0000001
 44
0.0000000001
 40
0.0
 40
0.0
 40
0.0
 40
0.0
 40
0.0035633378
 40
0.0095294145
 40
0.0285983752
 40
0.0569796498
 40
0.0943157252
 40
0.1401215789
 40
0.1937930213
 40
0.2546503763
 40
0.3219547861
 40
0.3949239124
 40
0.4727791581
 40
0.5547370986
 40
0.6400560749
 40
0.6837549927
 40
0.7280323465
 40
0.7728082637
 40
0.818005865
 40
0.8407401449
 40
0.8635507275
 40
0.8864263378
 40
0.9093526073
 40
0.932304223
 40
0.9552200163
 40
0.9666305894
 40
0.9779667938
 40
0.9890948763
 40
1.0
 40
1.0
 40
1.0
 40
1.0
 10
78.6678031367
 20
129.7502175012
 30
0.0
 10
78.6841124899
 20
129.746521202
 30
0.0
 10
78.7280908569
 20
129.7383121913
 30
0.0
 10
78.8602063443
 20
129.7147457049
 30
0.0
 10
79.1073526123
 20
129.6726880774
 30
0.0
 10
79.499285185
 20
129.6040152993
 30
0.0
 10
80.0141115867
 20
129.5096893818
 30
0.0
 10
80.6443070374
 20
129.386668928
 30
0.0
 10
81.3807823027
 20
129.2322526842
 30
0.0
 10
82.213058909
 20
129.0435641278
 30
0.0
 10
83.1296733896
 20
128.8179216418
 30
0.0
 10
84.1185676759
 20
128.552977013
 30
0.0
 10
85.1671822189
 20
128.2461968344
 30
0.0
 10
86.2629198599
 20
127.8953014817
 30
0.0
 10
87.1968511586
 20
127.5659159272
 30
0.0
 10
87.9564598028
 20
127.2752323706
 30
0.0
 10
88.53371742
 20
127.0407391361
 30
0.0
 10
89.1115637652
 20
126.7894648111
 30
0.0
 10
89.5900226173
 20
126.5636292147
 30
0.0
 10
89.9691435153
 20
126.3695808452
 30
0.0
 10
90.2510381799
 20
126.2157161509
 30
0.0
 10
90.5283263602
 20
126.0518872017
 30
0.0
 10
90.7984633523
 20
125.8750516662
 30
0.0
 10
91.0561394213
 20
125.680232658
 30
0.0
 10
91.2529217464
 20
125.4951077137
 30
0.0
 10
91.3834467032
 20
125.324479711
 30
0.0
 10
91.45893111
 20
125.1831611896
 30
0.0
 10
91.4935726984
 20
125.0278983891
 30
0.0
 10
91.4805023663
 20
124.9227100979
 30
0.0
 10
91.4651649391
 20
124.8738839286
 30
0.0
  0
LINE
  5
485
100
AcDbEntity
  8
0
100
AcDbLine
 62
7
  6
CONTINUOUS
 10
154.0815809623
 20
128.3632454494
 11
154.0881319899
 21
128.3418352694
  0
LINE
  5
486
100
AcDbEntity
  8
0
100
AcDbLine
 62
7
  6
CONTINUOUS
 10
154.0881319899
 20
128.3418352694
 11
154.101142589
 21
128.2994158523
  0
LINE
  5
487
100
AcDbEntity
  8
0
100
AcDbLine
 62
7
  6
CONTINUOUS
 10
182.2608824693
 20
128.3632454494
 11
182.2413208426
 21
128.2994158523
  0
LINE
  5
488
100
AcDbEntity
  8
0
100
AcDbLine
 62
7
  6
CONTINUOUS
 10
153.6261620907
 20
131.2781393187
 11
153.6346852434
 21
131.2511267855
  0
LINE
  5
489
100
AcDbEntity
  8
0
100
AcDbLine
 62
7
  6
CONTINUOUS
 10
153.6346852434
 20
131.2511267855
 11
153.8410827599
 21
130.5972880977
  0
LINE
  5
48A
100
AcDbEntity
  8
0
100
AcDbLine
 62
7
  6
CONTINUOUS
 10
153.7082102368
 20
130.5972880977
 11
153.725972326
 21
130.5404904176
  0
LINE
  5
48B
100
AcDbEntity
  8
0
100
AcDbLine
 62
7
  6
CONTINUOUS
 10
153.725972326
 20
130.5404904176
 11
153.8146845143
 21
130.2568626063
  0
LINE
  5
48C
100
AcDbEntity
  8
0
100
AcDbLine
 62
7
  6
CONTINUOUS
 10
153.9486184329
 20
130.2568626063
 11
153.9573723753
 21
130.2291574232
  0
SPLINE
  5
48D
100
AcDbEntity
  8
0
100
AcDbSpline
 62
7
  6
CONTINUOUS
 70
0
 71
3
 72
8
 73
4
 74
0
 42
0.0000001
 43
0.0000001
 44
0.0000000001
 40
0.0
 40
0.0
 40
0.0
 40
0.0
 40
1.0
 40
1.0
 40
1.0
 40
1.0
 10
153.9573723753
 20
130.2291574232
 30
0.0
 10
154.133749969
 20
129.6709543207
 30
0.0
 10
154.3103173164
 20
129.1128111314
 30
0.0
 10
154.4870961565
 20
128.5547349708
 30
0.0
  0
LINE
  5
48E
100
AcDbEntity
  8
0
100
AcDbLine
 62
7
  6
CONTINUOUS
 10
153.1559977455
 20
131.3910836993
 11
153.1731680531
 21
131.3345453991
  0
LINE
  5
48F
100
AcDbEntity
  8
0
100
AcDbLine
 62
7
  6
CONTINUOUS
 10
153.1731680531
 20
131.3345453991
 11
153.1773985673
 21
131.3206928099
  0
LINE
  5
490
100
AcDbEntity
  8
0
100
AcDbLine
 62
7
  6
CONTINUOUS
 10
153.3179276345
 20
131.2212961356
 11
153.3310872691
 21
131.1930329459
  0
SPLINE
  5
491
100
AcDbEntity
  8
0
100
AcDbSpline
 62
7
  6
CONTINUOUS
 70
0
 71
3
 72
9
 73
5
 74
0
 42
0.0000001
 43
0.0000001
 44
0.0000000001
 40
0.0
 40
0.0
 40
0.0
 40
0.0
 40
0.2443067676
 40
1.0
 40
1.0
 40
1.0
 40
1.0
 10
153.7144378573
 20
129.7462243693
 30
0.0
 10
153.7189500763
 20
129.7402573371
 30
0.0
 10
153.7376754584
 20
129.7160270736
 30
0.0
 10
153.7573928141
 20
129.6925674434
 30
0.0
 10
153.7727546382
 20
129.6752616116
 30
0.0
  0
LINE
  5
492
100
AcDbEntity
  8
0
100
AcDbLine
 62
7
  6
CONTINUOUS
 10
153.8654929205
 20
129.4909052508
 11
153.8863592386
 21
129.4339533864
  0
LINE
  5
493
100
AcDbEntity
  8
0
100
AcDbLine
 62
7
  6
CONTINUOUS
 10
153.990984216
 20
129.1504796403
 11
154.0962434731
 21
128.8100541489
  0
LINE
  5
494
100
AcDbEntity
  8
0
100
AcDbLine
 62
7
  6
CONTINUOUS
 10
154.0962434731
 20
128.8100541489
 11
154.1383619145
 21
128.6398414033
  0
LINE
  5
495
100
AcDbEntity
  8
0
100
AcDbLine
 62
7
  6
CONTINUOUS
 10
154.101142589
 20
128.2994158523
 11
154.1099790019
 21
128.2709759691
  0
LINE
  5
496
100
AcDbEntity
  8
0
100
AcDbLine
 62
7
  6
CONTINUOUS
 10
154.2797950828
 20
127.8284263419
 11
154.2643849128
 21
127.873873468
  0
LINE
  5
497
100
AcDbEntity
  8
0
100
AcDbLine
 62
7
  6
CONTINUOUS
 10
182.9101344464
 20
130.9258474726
 11
182.8612508818
 21
130.7675008433
  0
LINE
  5
498
100
AcDbEntity
  8
0
100
AcDbLine
 62
7
  6
CONTINUOUS
 10
182.8612508818
 20
130.7675008433
 11
182.8183155994
 21
130.5969894565
  0
LINE
  5
499
100
AcDbEntity
  8
0
100
AcDbLine
 62
7
  6
CONTINUOUS
 10
182.8183155994
 20
130.5969894565
 11
182.7896117693
 21
130.483647072
  0
LINE
  5
49A
100
AcDbEntity
  8
0
100
AcDbLine
 62
7
  6
CONTINUOUS
 10
182.7896117693
 20
130.483647072
 11
182.7752357685
 21
130.427075352
  0
SPLINE
  5
49B
100
AcDbEntity
  8
0
100
AcDbSpline
 62
7
  6
CONTINUOUS
 70
0
 71
3
 72
9
 73
5
 74
0
 42
0.0000001
 43
0.0000001
 44
0.0000000001
 40
0.0
 40
0.0
 40
0.0
 40
0.0
 40
0.2434410461
 40
1.0
 40
1.0
 40
1.0
 40
1.0
 10
183.0066459311
 20
131.7887775557
 30
0.0
 10
183.0014700877
 20
131.795943212
 30
0.0
 10
182.9798384475
 20
131.8251096525
 30
0.0
 10
182.9567790676
 20
131.8532094275
 30
0.0
 10
182.9386898166
 20
131.8738839286
 30
0.0
  0
LINE
  5
49C
100
AcDbEntity
  8
0
100
AcDbLine
 62
7
  6
CONTINUOUS
 10
182.8716961524
 20
130.9377138274
 11
182.8854578031
 21
130.9942892404
  0
LINE
  5
49D
100
AcDbEntity
  8
0
100
AcDbLine
 62
7
  6
CONTINUOUS
 10
182.8037685811
 20
130.6823944705
 11
182.8716961524
 21
130.9377138274
  0
LINE
  5
49E
100
AcDbEntity
  8
0
100
AcDbLine
 62
7
  6
CONTINUOUS
 10
182.6829529287
 20
130.2568626063
 11
182.8037685811
 21
130.6823944705
  0
LINE
  5
49F
100
AcDbEntity
  8
0
100
AcDbLine
 62
7
  6
CONTINUOUS
 10
182.4460332715
 20
129.4909052508
 11
182.6829529287
 21
130.2568626063
  0
LINE
  5
4A0
100
AcDbEntity
  8
0
100
AcDbLine
 62
7
  6
CONTINUOUS
 10
182.3031974666
 20
129.0653732674
 11
182.4460332715
 21
129.4909052508
  0
LINE
  5
4A1
100
AcDbEntity
  8
0
100
AcDbLine
 62
7
  6
CONTINUOUS
 10
182.2124945197
 20
128.8100541489
 11
182.3031974666
 21
129.0653732674
  0
LINE
  5
4A2
100
AcDbEntity
  8
0
100
AcDbLine
 62
7
  6
CONTINUOUS
 10
182.1908538409
 20
128.7530934371
 11
182.2124945197
 21
128.8100541489
  0
SPLINE
  5
4A3
100
AcDbEntity
  8
0
100
AcDbSpline
 62
7
  6
CONTINUOUS
 70
0
 71
3
 72
9
 73
5
 74
0
 42
0.0000001
 43
0.0000001
 44
0.0000000001
 40
0.0
 40
0.0
 40
0.0
 40
0.0
 40
0.2570155592
 40
1.0
 40
1.0
 40
1.0
 40
1.0
 10
181.6775223528
 20
127.8738839286
 30
0.0
 10
181.6888949235
 20
127.8808856183
 30
0.0
 10
181.7329750759
 20
127.9083997633
 30
0.0
 10
181.7763650153
 20
127.9370254517
 30
0.0
 10
181.8081149411
 20
127.9589903089
 30
0.0
  0
SPLINE
  5
4A4
100
AcDbEntity
  8
0
100
AcDbSpline
 62
7
  6
CONTINUOUS
 70
0
 71
3
 72
8
 73
4
 74
0
 42
0.0000001
 43
0.0000001
 44
0.0000000001
 40
0.0
 40
0.0
 40
0.0
 40
0.0
 40
1.0
 40
1.0
 40
1.0
 40
1.0
 10
182.1411355282
 20
130.1717562335
 30
0.0
 10
182.2034122307
 20
130.341907227
 30
0.0
 10
182.2655178654
 20
130.5121209231
 30
0.0
 10
182.3274587028
 20
130.6823944705
 30
0.0
  0
LINE
  5
4A5
100
AcDbEntity
  8
0
100
AcDbLine
 62
7
  6
CONTINUOUS
 10
181.9495122069
 20
129.5760116237
 11
182.1411355282
 21
130.1717562335
  0
LINE
  5
4A6
100
AcDbEntity
  8
0
100
AcDbLine
 62
7
  6
CONTINUOUS
 10
181.8082356347
 20
129.0653732674
 11
181.9495122069
 21
129.5760116237
  0
LINE
  5
4A7
100
AcDbEntity
  8
0
100
AcDbLine
 62
7
  6
CONTINUOUS
 10
182.4929625312
 20
131.0216947879
 11
182.5340838252
 21
131.1072231044
  0
LINE
  5
4A8
100
AcDbEntity
  8
0
100
AcDbLine
 62
7
  6
CONTINUOUS
 10
182.5340838252
 20
131.1072231044
 11
182.5751028694
 21
131.1930329459
  0
LINE
  5
4A9
100
AcDbEntity
  8
0
100
AcDbLine
 62
7
  6
CONTINUOUS
 10
181.9028651113
 20
127.363245632
 11
181.9563334483
 21
127.5176611803
  0
LINE
  5
4AA
100
AcDbEntity
  8
0
100
AcDbLine
 62
7
  6
CONTINUOUS
 10
182.168200427
 20
128.1417731835
 11
182.2206651515
 21
128.2994158523
  0
SPLINE
  5
4AB
100
AcDbEntity
  8
0
100
AcDbSpline
 62
7
  6
CONTINUOUS
 70
0
 71
3
 72
9
 73
5
 74
0
 42
0.0000001
 43
0.0000001
 44
0.0000000001
 40
0.0
 40
0.0
 40
0.0
 40
0.0
 40
0.2443067676
 40
1.0
 40
1.0
 40
1.0
 40
1.0
 10
182.6280255743
 20
129.7462243693
 30
0.0
 10
182.6235133553
 20
129.7402573371
 30
0.0
 10
182.6047879732
 20
129.7160270736
 30
0.0
 10
182.5850706175
 20
129.6925674434
 30
0.0
 10
182.5697087934
 20
129.6752616116
 30
0.0
  0
LINE
  5
4AC
100
AcDbEntity
  8
0
100
AcDbLine
 62
7
  6
CONTINUOUS
 10
182.4769705111
 20
129.4909052508
 11
182.456104193
 21
129.4339533864
  0
LINE
  5
4AD
100
AcDbEntity
  8
0
100
AcDbLine
 62
7
  6
CONTINUOUS
 10
182.456104193
 20
129.4339533864
 11
182.4143129169
 21
129.3203068324
  0
LINE
  5
4AE
100
AcDbEntity
  8
0
100
AcDbLine
 62
7
  6
CONTINUOUS
 10
182.4143129169
 20
129.3203068324
 11
182.3933879387
 21
129.2636121151
  0
LINE
  5
4AF
100
AcDbEntity
  8
0
100
AcDbLine
 62
7
  6
CONTINUOUS
 10
182.3933879387
 20
129.2636121151
 11
182.3514792156
 21
129.1504796403
  0
LINE
  5
4B0
100
AcDbEntity
  8
0
100
AcDbLine
 62
7
  6
CONTINUOUS
 10
182.3514792156
 20
129.1504796403
 11
182.2988240521
 21
128.9801773276
  0
LINE
  5
4B1
100
AcDbEntity
  8
0
100
AcDbLine
 62
7
  6
CONTINUOUS
 10
182.2988240521
 20
128.9801773276
 11
182.2637489824
 21
128.8667419663
  0
LINE
  5
4B2
100
AcDbEntity
  8
0
100
AcDbLine
 62
7
  6
CONTINUOUS
 10
182.2637489824
 20
128.8667419663
 11
182.2594213216
 21
128.8527464243
  0
LINE
  5
4B3
100
AcDbEntity
  8
0
100
AcDbLine
 62
7
  6
CONTINUOUS
 10
182.2594213216
 20
128.8527464243
 11
182.2462199586
 21
128.8100541489
  0
LINE
  5
4B4
100
AcDbEntity
  8
0
100
AcDbLine
 62
7
  6
CONTINUOUS
 10
182.2413208426
 20
128.2994158523
 11
182.2324844297
 21
128.2709759691
  0
LINE
  5
4B5
100
AcDbEntity
  8
0
100
AcDbLine
 62
7
  6
CONTINUOUS
 10
182.1962825714
 20
128.1575000342
 11
182.1870189516
 21
128.1292030769
  0
LINE
  5
4B6
100
AcDbEntity
  8
0
100
AcDbLine
 62
7
  6
CONTINUOUS
 10
181.5027272616
 20
130.2568626063
 11
181.2531314468
 21
129.4909052508
  0
LINE
  5
4B7
100
AcDbEntity
  8
0
100
AcDbLine
 62
7
  6
CONTINUOUS
 10
181.2531314468
 20
129.4909052508
 11
181.1404031758
 21
129.0653732674
  0
LINE
  5
4B8
100
AcDbEntity
  8
0
100
AcDbLine
 62
7
  6
CONTINUOUS
 10
181.1404031758
 20
129.0653732674
 11
181.0830522676
 21
128.8100541489
  0
LINE
  5
4B9
100
AcDbEntity
  8
0
100
AcDbLine
 62
7
  6
CONTINUOUS
 10
155.0162625455
 20
127.8738839286
 11
154.9056315717
 21
128.2143094497
  0
LINE
  5
4BA
100
AcDbEntity
  8
0
100
AcDbLine
 62
7
  6
CONTINUOUS
 10
154.2212108449
 20
128.5547349708
 11
154.154377092
 21
128.8100541489
  0
LINE
  5
4BB
100
AcDbEntity
  8
0
100
AcDbLine
 62
7
  6
CONTINUOUS
 10
154.154377092
 20
128.8100541489
 11
154.048657266
 21
129.1504796403
  0
LINE
  5
4BC
100
AcDbEntity
  8
0
100
AcDbLine
 62
7
  6
CONTINUOUS
 10
154.048657266
 20
129.1504796403
 11
153.9307598345
 21
129.4909052508
  0
LINE
  5
4BD
100
AcDbEntity
  8
0
100
AcDbLine
 62
7
  6
CONTINUOUS
 10
153.9307598345
 20
129.4909052508
 11
153.8965549408
 21
129.5757651497
  0
LINE
  5
4BE
100
AcDbEntity
  8
0
100
AcDbLine
 62
7
  6
CONTINUOUS
 10
153.6981976809
 20
130.0865055206
 11
153.6919406689
 21
130.1291131079
  0
LINE
  5
4BF
100
AcDbEntity
  8
0
100
AcDbLine
 62
7
  6
CONTINUOUS
 10
153.6919406689
 20
130.1291131079
 11
153.6858304848
 21
130.1717562335
  0
LINE
  5
4C0
100
AcDbEntity
  8
0
100
AcDbLine
 62
7
  6
CONTINUOUS
 10
153.6289046786
 20
130.427075352
 11
153.597613867
 21
130.5403742247
  0
LINE
  5
4C1
100
AcDbEntity
  8
0
100
AcDbLine
 62
7
  6
CONTINUOUS
 10
153.597613867
 20
130.5403742247
 11
153.5349568468
 21
130.7675008433
  0
LINE
  5
4C2
100
AcDbEntity
  8
0
100
AcDbLine
 62
7
  6
CONTINUOUS
 10
153.482205157
 20
130.9377138274
 11
153.3653658979
 21
131.2781393187
  0
LINE
  5
4C3
100
AcDbEntity
  8
0
100
AcDbLine
 62
7
  6
CONTINUOUS
 10
153.3159919044
 20
131.3909491265
 11
153.2914628675
 21
131.4476032673
  0
SPLINE
  5
4C4
100
AcDbEntity
  8
0
100
AcDbSpline
 62
7
  6
CONTINUOUS
 70
0
 71
3
 72
9
 73
5
 74
0
 42
0.0000001
 43
0.0000001
 44
0.0000000001
 40
0.0
 40
0.0
 40
0.0
 40
0.0
 40
0.2577354218
 40
1.0
 40
1.0
 40
1.0
 40
1.0
 10
153.1303613319
 20
131.7887775557
 30
0.0
 10
153.1246284209
 20
131.7946147856
 30
0.0
 10
153.1026303334
 20
131.817501408
 30
0.0
 10
153.0816427874
 20
131.8413682136
 30
0.0
 10
153.0667909978
 20
131.8596610375
 30
0.0
  0
LINE
  5
4C5
100
AcDbEntity
  8
0
100
AcDbLine
 62
7
  6
CONTINUOUS
 10
181.5234311402
 20
127.8738722379
 11
181.5073145626
 21
127.8282811472
  0
LINE
  5
4C6
100
AcDbEntity
  8
0
100
AcDbLine
 62
7
  6
CONTINUOUS
 10
153.2966540347
 20
130.9377138274
 11
153.2715925624
 21
131.0226168567
  0
LINE
  5
4C7
100
AcDbEntity
  8
0
100
AcDbLine
 62
7
  6
CONTINUOUS
 10
153.2302887063
 20
131.1636868918
 11
153.2217490374
 21
131.1930329459
  0
LINE
  5
4C8
100
AcDbEntity
  8
0
100
AcDbLine
 62
7
  6
CONTINUOUS
 10
153.1843022514
 20
131.3348082585
 11
153.1816939867
 21
131.3449973447
  0
LINE
  5
4C9
100
AcDbEntity
  8
0
100
AcDbLine
 62
7
  6
CONTINUOUS
 10
153.1816939867
 20
131.3449973447
 11
153.1770503718
 21
131.3632456916
  0
SPLINE
  5
4CA
100
AcDbEntity
  8
0
100
AcDbSpline
 62
7
  6
CONTINUOUS
 70
0
 71
3
 72
9
 73
5
 74
0
 42
0.0000001
 43
0.0000001
 44
0.0000000001
 40
0.0
 40
0.0
 40
0.0
 40
0.0
 40
0.2578503745
 40
1.0
 40
1.0
 40
1.0
 40
1.0
 10
181.0454613213
 20
127.9589903089
 30
0.0
 10
181.0539460884
 20
127.9519904051
 30
0.0
 10
181.0866061403
 20
127.9245480031
 30
0.0
 10
181.1182557578
 20
127.8958935226
 30
0.0
 10
181.1410126295
 20
127.8738839286
 30
0.0
  0
SPLINE
  5
4CB
100
AcDbEntity
  8
BEZUGSACHSEN
100
AcDbSpline
 62
7
  6
CONTINUOUS
 70
0
 71
3
 72
22
 73
18
 74
0
 42
0.0000001
 43
0.0000001
 44
0.0000000001
 40
0.0
 40
0.0
 40
0.0
 40
0.0
 40
0.1728154604
 40
0.3364150173
 40
0.4127305876
 40
0.4845081851
 40
0.5512723416
 40
0.6127260952
 40
0.6687890146
 40
0.7196150986
 40
0.7656759354
 40
0.8078233715
 40
0.8474731447
 40
0.8869816296
 40
0.9312660485
 40
0.9598409377
 40
1.0
 40
1.0
 40
1.0
 40
1.0
 10
168.1712317158
 20
129.7502175012
 30
0.0
 10
167.3202514902
 20
129.7405459503
 30
0.0
 10
165.6638414422
 20
129.6976708009
 30
0.0
 10
163.6346099575
 20
129.5676640525
 30
0.0
 10
162.1083888057
 20
129.4018351006
 30
0.0
 10
161.0610992725
 20
129.2491338651
 30
0.0
 10
160.0936206308
 20
129.06249667
 30
0.0
 10
159.2134206591
 20
128.8390059961
 30
0.0
 10
158.4261555396
 20
128.5762437545
 30
0.0
 10
157.7360819314
 20
128.2709116959
 30
0.0
 10
157.1458502666
 20
127.9198203949
 30
0.0
 10
156.6579319286
 20
127.5170141907
 30
0.0
 10
156.2754221973
 20
127.0523966779
 30
0.0
 10
156.0042735757
 20
126.5015677195
 30
0.0
 10
155.8998026461
 20
125.95002128
 30
0.0
 10
155.918209725
 20
125.3920339476
 30
0.0
 10
155.9976757451
 20
125.0583270041
 30
0.0
 10
156.0690310288
 20
124.8738839286
 30
0.0
  0
SPLINE
  5
4CC
100
AcDbEntity
  8
BEZUGSACHSEN
100
AcDbSpline
 62
7
  6
CONTINUOUS
 70
0
 71
3
 72
22
 73
18
 74
0
 42
0.0000001
 43
0.0000001
 44
0.0000000001
 40
0.0
 40
0.0
 40
0.0
 40
0.0
 40
0.1728154604
 40
0.3364150173
 40
0.4127305876
 40
0.4845081851
 40
0.5512723416
 40
0.6127260952
 40
0.6687890146
 40
0.7196150986
 40
0.7656759354
 40
0.8078233715
 40
0.8474731447
 40
0.8869816296
 40
0.9312660485
 40
0.9598409377
 40
1.0
 40
1.0
 40
1.0
 40
1.0
 10
168.1712317158
 20
129.7502175012
 30
0.0
 10
169.0222119414
 20
129.7405459503
 30
0.0
 10
170.6786219894
 20
129.6976708009
 30
0.0
 10
172.7078534741
 20
129.5676640525
 30
0.0
 10
174.2340746259
 20
129.4018351006
 30
0.0
 10
175.2813641592
 20
129.2491338651
 30
0.0
 10
176.2488428008
 20
129.06249667
 30
0.0
 10
177.1290427726
 20
128.8390059961
 30
0.0
 10
177.916307892
 20
128.5762437545
 30
0.0
 10
178.6063815002
 20
128.2709116959
 30
0.0
 10
179.196613165
 20
127.9198203949
 30
0.0
 10
179.6845315031
 20
127.5170141907
 30
0.0
 10
180.0670412343
 20
127.0523966779
 30
0.0
 10
180.3381898559
 20
126.5015677195
 30
0.0
 10
180.4426607855
 20
125.95002128
 30
0.0
 10
180.4242537066
 20
125.3920339476
 30
0.0
 10
180.3447876865
 20
125.0583270041
 30
0.0
 10
180.2734324028
 20
124.8738839286
 30
0.0
  0
LINE
  5
4CD
100
AcDbEntity
  8
0
100
AcDbLine
 62
7
  6
CONTINUOUS
 10
154.0856170323
 20
128.3845222252
 11
154.0803680982
 21
128.3986877092
  0
LINE
  5
4CE
100
AcDbEntity
  8
0
100
AcDbLine
 62
7
  6
CONTINUOUS
 10
154.0803680982
 20
128.3986877092
 11
154.0751585012
 21
128.4128607968
  0
LINE
  5
4CF
100
AcDbEntity
  8
0
100
AcDbLine
 62
7
  6
CONTINUOUS
 10
154.0751585012
 20
128.4128607968
 11
154.0699882487
 21
128.4270415281
  0
LINE
  5
4D0
100
AcDbEntity
  8
0
100
AcDbLine
 62
7
  6
CONTINUOUS
 10
154.0597660321
 20
128.4554254657
 11
154.0547141385
 21
128.469628598
  0
LINE
  5
4D1
100
AcDbEntity
  8
0
100
AcDbLine
 62
7
  6
CONTINUOUS
 10
154.0547141385
 20
128.469628598
 11
154.0361179778
 21
128.5262306416
  0
LINE
  5
4D2
100
AcDbEntity
  8
0
100
AcDbLine
 62
7
  6
CONTINUOUS
 10
154.008457146
 20
128.6113880865
 11
153.9992994892
 21
128.6398414033
  0
LINE
  5
4D3
100
AcDbEntity
  8
0
100
AcDbLine
 62
7
  6
CONTINUOUS
 10
153.9992994892
 20
128.6398414033
 11
153.9904276424
 21
128.6681626314
  0
LINE
  5
4D4
100
AcDbEntity
  8
0
100
AcDbLine
 62
7
  6
CONTINUOUS
 10
153.9904276424
 20
128.6681626314
 11
153.9549865476
 21
128.7816377846
  0
LINE
  5
4D5
100
AcDbEntity
  8
0
100
AcDbLine
 62
7
  6
CONTINUOUS
 10
153.9549865476
 20
128.7816377846
 11
153.9461378458
 21
128.8100541489
  0
SPLINE
  5
4D6
100
AcDbEntity
  8
0
100
AcDbSpline
 62
7
  6
CONTINUOUS
 70
0
 71
3
 72
9
 73
5
 74
0
 42
0.0000001
 43
0.0000001
 44
0.0000000001
 40
0.0
 40
0.0
 40
0.0
 40
0.0
 40
0.2595687538
 40
1.0
 40
1.0
 40
1.0
 40
1.0
 10
153.6558958688
 20
131.7887775557
 30
0.0
 10
153.6488983859
 20
131.7957664327
 30
0.0
 10
153.6222936137
 20
131.8230402128
 30
0.0
 10
153.5971504398
 20
131.851759928
 30
0.0
 10
153.5796460855
 20
131.8738839286
 30
0.0
  0
SPLINE
  5
4D7
100
AcDbEntity
  8
0
100
AcDbSpline
 62
7
  6
CONTINUOUS
 70
0
 71
3
 72
8
 73
4
 74
0
 42
0.0000001
 43
0.0000001
 44
0.0000000001
 40
0.0
 40
0.0
 40
0.0
 40
0.0
 40
1.0
 40
1.0
 40
1.0
 40
1.0
 10
155.0736345007
 20
128.7249477761
 30
0.0
 10
154.9181392735
 20
129.2108453623
 30
0.0
 10
154.7628606932
 20
129.6968123225
 30
0.0
 10
154.6077781854
 20
130.1828417924
 30
0.0
  0
LINE
  5
4D8
100
AcDbEntity
  8
0
100
AcDbLine
 62
7
  6
CONTINUOUS
 10
154.6077781854
 20
130.1828417924
 11
154.5841612591
 21
130.2568626063
  0
LINE
  5
4D9
100
AcDbEntity
  8
0
100
AcDbLine
 62
7
  6
CONTINUOUS
 10
154.83973617
 20
130.2568626063
 11
154.7289822728
 21
130.5972880977
  0
LINE
  5
4DA
100
AcDbEntity
  8
0
100
AcDbLine
 62
7
  6
CONTINUOUS
 10
154.4755883955
 20
130.5972880977
 11
154.2586473787
 21
131.2781393187
  0
LINE
  5
4DB
100
AcDbEntity
  8
0
100
AcDbLine
 62
7
  6
CONTINUOUS
 10
155.5645894174
 20
127.8738839286
 11
155.4535141576
 21
128.2143094497
  0
LINE
  5
4DC
100
AcDbEntity
  8
0
100
AcDbLine
 62
7
  6
CONTINUOUS
 10
183.1520110542
 20
131.2781393187
 11
183.1345921333
 21
131.2212768839
  0
LINE
  5
4DD
100
AcDbEntity
  8
0
100
AcDbLine
 62
7
  6
CONTINUOUS
 10
183.1345921333
 20
131.2212768839
 11
183.1171786183
 21
131.1644643994
  0
LINE
  5
4DE
100
AcDbEntity
  8
0
100
AcDbLine
 62
7
  6
CONTINUOUS
 10
183.1171786183
 20
131.1644643994
 11
183.0475783641
 21
130.9377138274
  0
LINE
  5
4DF
100
AcDbEntity
  8
0
100
AcDbLine
 62
7
  6
CONTINUOUS
 10
182.0497545326
 20
130.2568626063
 11
181.8010962902
 21
129.4909052508
  0
LINE
  5
4E0
100
AcDbEntity
  8
0
100
AcDbLine
 62
7
  6
CONTINUOUS
 10
182.644873664
 20
131.5654130515
 11
182.621463481
 21
131.5334584372
  0
SPLINE
  5
4E1
100
AcDbEntity
  8
0
100
AcDbSpline
 62
7
  6
CONTINUOUS
 70
0
 71
3
 72
8
 73
4
 74
0
 42
0.0000001
 43
0.0000001
 44
0.0000000001
 40
0.0
 40
0.0
 40
0.0
 40
0.0
 40
1.0
 40
1.0
 40
1.0
 40
1.0
 10
154.5332569637
 20
128.7249477761
 30
0.0
 10
154.3703080086
 20
129.2355190771
 30
0.0
 10
154.2075759863
 20
129.7461596536
 30
0.0
 10
154.045040115
 20
130.2568626063
 30
0.0
  0
LINE
  5
4E2
100
AcDbEntity
  8
0
100
AcDbLine
 62
7
  6
CONTINUOUS
 10
154.292708899
 20
130.2568626063
 11
154.1823549299
 21
130.5972880977
  0
SPLINE
  5
4E3
100
AcDbEntity
  8
0
100
AcDbSpline
 62
7
  6
CONTINUOUS
 70
0
 71
3
 72
9
 73
5
 74
0
 42
0.0000001
 43
0.0000001
 44
0.0000000001
 40
0.0
 40
0.0
 40
0.0
 40
0.0
 40
0.2576248027
 40
1.0
 40
1.0
 40
1.0
 40
1.0
 10
181.5858144395
 20
127.9589903089
 30
0.0
 10
181.5939645355
 20
127.951987036
 30
0.0
 10
181.6253513802
 20
127.9245161308
 30
0.0
 10
181.6557157464
 20
127.895867993
 30
0.0
 10
181.6775223528
 20
127.8738839286
 30
0.0
  0
LINE
  5
4E4
100
AcDbEntity
  8
0
100
AcDbLine
 62
7
  6
CONTINUOUS
 10
181.688059485
 20
129.0653732674
 11
181.6301848829
 21
128.8100541489
  0
LINE
  5
4E5
100
AcDbEntity
  8
0
100
AcDbLine
 62
7
  6
CONTINUOUS
 10
181.8010962902
 20
129.4909052508
 11
181.688059485
 21
129.0653732674
  0
LINE
  5
4E6
100
AcDbEntity
  8
0
100
AcDbLine
 62
7
  6
CONTINUOUS
 10
153.9367283928
 20
130.5972880977
 11
153.7202914917
 21
131.2781393187
  0
LINE
  5
4E7
100
AcDbEntity
  8
0
100
AcDbLine
 62
7
  6
CONTINUOUS
 10
182.0619541413
 20
128.6391939355
 11
182.0257152915
 21
128.5547349708
  0
LINE
  5
4E8
100
AcDbEntity
  8
0
100
AcDbLine
 62
7
  6
CONTINUOUS
 10
182.4133646418
 20
129.5760116237
 11
182.2415759675
 21
129.0653732674
  0
LINE
  5
4E9
100
AcDbEntity
  8
0
100
AcDbLine
 62
7
  6
CONTINUOUS
 10
182.5984375682
 20
130.1717562335
 11
182.4133646418
 21
129.5760116237
  0
LINE
  5
4EA
100
AcDbEntity
  8
0
100
AcDbLine
 62
7
  6
CONTINUOUS
 10
182.7443992326
 20
130.6823944705
 11
182.5984375682
 21
130.1717562335
  0
LINE
  5
4EB
100
AcDbEntity
  8
0
100
AcDbLine
 62
7
  6
CONTINUOUS
 10
182.8495064501
 20
131.1930329459
 11
182.8322355003
 21
131.1075182552
  0
LINE
  5
4EC
100
AcDbEntity
  8
0
100
AcDbLine
 62
7
  6
CONTINUOUS
 10
182.1962336889
 20
128.2994158523
 11
182.1450950116
 21
128.1513708455
  0
LINE
  5
4ED
100
AcDbEntity
  8
0
100
AcDbLine
 62
7
  6
CONTINUOUS
 10
182.1450950116
 20
128.1513708455
 11
182.1417516892
 21
128.1417304066
  0
LINE
  5
4EE
100
AcDbEntity
  8
0
100
AcDbLine
 62
7
  6
CONTINUOUS
 10
181.9217874373
 20
127.5176182509
 11
181.8662873715
 21
127.363245632
  0
LINE
  5
4EF
100
AcDbEntity
  8
0
100
AcDbLine
 62
7
  6
CONTINUOUS
 10
182.3963255805
 20
128.8100541489
 11
182.3190065817
 21
128.5547349708
  0
LINE
  5
4F0
100
AcDbEntity
  8
0
100
AcDbLine
 62
7
  6
CONTINUOUS
 10
99.5209801294
 20
103.5542209731
 11
99.5664072377
 21
103.5348799766
  0
LINE
  5
4F1
100
AcDbEntity
  8
0
100
AcDbLine
 62
7
  6
CONTINUOUS
 10
90.6043131448
 20
74.289267759
 11
90.5609214903
 21
74.3077394071
  0
LINE
  5
4F2
100
AcDbEntity
  8
BEZUGSACHSEN
100
AcDbLine
 62
7
  6
CONTINUOUS
 10
118.3124290388
 20
88.9217443619
 11
118.4301360251
 21
88.9217442831
  0
LINE
  5
4F3
100
AcDbEntity
  8
BEZUGSACHSEN
100
AcDbLine
 62
7
  6
CONTINUOUS
 10
71.6951552726
 20
88.9217442612
 11
71.8128642639
 21
88.9217439546
  0
ENDSEC
  0
SECTION
  2
OBJECTS
  0
DICTIONARY
  5
C
100
AcDbDictionary
280
0
281
1
  3
ACAD_GROUP
350
D
  3
ACAD_MLINESTYLE
350
17
  3
ACAD_LAYOUT
350
1A
  3
ACAD_PLOTSETTINGS
350
19
  3
ACAD_PLOTSTYLENAME
350
E
  0
DICTIONARY
  5
D
102
{ACAD_REACTORS
330
C
102
}
100
AcDbDictionary
280
0
281
1
  0
ACDBDICTIONARYWDFLT
  5
E
102
{ACAD_REACTORS
330
C
102
}
100
AcDbDictionary
281
1
  3
Normal
350
F
100
AcDbDictionaryWithDefault
340
F
  0
DICTIONARY
  5
17
102
{ACAD_REACTORS
330
C
102
}
100
AcDbDictionary
280
0
281
1
  3
Standard
350
18
  0
DICTIONARY
  5
19
102
{ACAD_REACTORS
330
C
102
}
100
AcDbDictionary
281
1
  0
DICTIONARY
  5
1A
102
{ACAD_REACTORS
330
C
102
}
100
AcDbDictionary
281
1
  3
Model
350
4F4
  3
Layout1
350
4F5
  0
ACDBPLACEHOLDER
  5
F
102
{ACAD_REACTORS
330
E
102
}
  0
MLINESTYLE
  5
18
102
{ACAD_REACTORS
330
17
102
}
100
AcDbMlineStyle
  2
STANDARD
 70
0
  3

 62
256
 51
90.0
 52
90.0
 71
2
 49
0.5
 62
256
  6
BYLAYER
 49
-0.5
 62
256
  6
BYLAYER
  0
LAYOUT
  5
4F4
102
{ACAD_REACTORS
330
1A
102
}
100
AcDbPlotSettings
  1

  2
none_device
  4
ISO_A4_(297.00_x_210.00_MM)
  6

 40
0.0
 41
0.0
 42
0.0
 43
0.0
 44
297.0
 45
210.0
 46
0.0
 47
0.0
 48
0.0
 49
0.0
140
0.0
141
0.0
142
1.0
143
1.0
 70
1024
 72
1
 73
0
 74
0
  7

 75
0
147
1.0
148
0.0
149
0.0
100
AcDbLayout
  1
Model
 70
0
 71
0
 10
0.0
 20
0.0
 11
297.0
 21
210.0
 12
0.0
 22
0.0
 32
0.0
 14
0.0
 24
0.0
 34
0.0
 15
0.0
 25
0.0
 35
0.0
146
0.0
 13
0.0
 23
0.0
 33
0.0
 16
1.0
 26
0.0
 36
0.0
 17
0.0
 27
1.0
 37
0.0
 76
0
330
20D
345
0
346
0
  0
LAYOUT
  5
4F5
102
{ACAD_REACTORS
330
1A
102
}
100
AcDbPlotSettings
  1

  2
none_device
  4
ISO_A4_(297.00_x_210.00_MM)
  6

 40
0.0
 41
0.0
 42
0.0
 43
0.0
 44
297.0
 45
210.0
 46
0.0
 47
0.0
 48
0.0
 49
0.0
140
0.0
141
0.0
142
1.0
143
1.0
 70
0
 72
1
 73
0
 74
0
  7

 75
0
147
1.0
148
0.0
149
0.0
100
AcDbLayout
  1
Layout1
 70
0
 71
1
 10
0.0
 20
0.0
 11
297.0
 21
210.0
 12
0.0
 22
0.0
 32
0.0
 14
0.0
 24
0.0
 34
0.0
 15
0.0
 25
0.0
 35
0.0
146
0.0
 13
0.0
 23
0.0
 33
0.0
 16
1.0
 26
0.0
 36
0.0
 17
0.0
 27
1.0
 37
0.0
 76
0
330
20E
345
0
346
0
  0
ENDSEC
  0
EOF
