999
DXF file: VRM_M6_0_1t_7900786_M34107-P-1.dxf
999
Pro/ENGINEER 2011490 by Parametric Technology Corporation
  0
SECTION
  2
HEADER
  9
$ACADVER
  1
AC1015
  9
$DWGCODEPAGE
  3
ANSI_1252
  9
$EXTMAX
 10
297.0
 20
210.0
 30
0.0
  9
$EXTMIN
 10
0.0
 20
0.0
 30
0.0
  9
$LIMMIN
 10
0.0
 20
0.0
  9
$LIMMAX
 10
297.0
 20
210.0
  9
$VIEWCTR
 10
148.5
 20
105.0
  9
$VIEWSIZE
 40
210.0
  9
$CLAYER
  8
0
  9
$LTSCALE
 40
16.335
  9
$CELTYPE
  6
BYLAYER
  9
$DIMSCALE
 40
1.0
  9
$DIMASZ
 40
3.5
  9
$DIMEXO
 40
1.85625
  9
$DIMDLI
 40
11.286
  9
$DIMEXE
 40
5.346
  9
$DIMCEN
 40
2.673
  9
$DIMLFAC
 40
1.0
  9
$DIMBLK
  1
_FILLED
  9
$DIMTXT
 40
3.5
  9
$DIMTOL
 70
1
  9
$DIMLIM
 70
0
  9
$DIMTFAC
 40
1.0
  9
$DIMTP
 40
0.005
  9
$DIMTM
 40
0.005
  9
$PDMODE
 70
3
  9
$PDSIZE
 40
0.3125
  9
$HANDSEED
  5
49E
  9
$TILEMODE
 70
1
  9
$MEASUREMENT
 70
1
  9
$INSUNITS
 70
4
  0
ENDSEC
  0
SECTION
  2
CLASSES
  0
CLASS
  1
ACDBDICTIONARYWDFLT
  2
AcDbDictionaryWithDefault
  3
AutoCAD 2000
 90
0
280
0
281
0
  0
CLASS
  1
ACDBPLACEHOLDER
  2
AcDbPlaceHolder
  3
AutoCAD 2000
 90
0
280
0
281
0
  0
CLASS
  1
LAYOUT
  2
AcDbLayout
  3
AutoCAD 2000
 90
0
280
0
281
0
  0
ENDSEC
  0
SECTION
  2
TABLES
  0
TABLE
  2
VPORT
  5
8
100
AcDbSymbolTable
 70
2
  0
VPORT
  5
1F4
100
AcDbSymbolTableRecord
100
AcDbViewportTableRecord
  2
*ACTIVE
 70
0
 10
0.0
 20
0.0
 11
1.0
 21
1.0
 12
148.5
 22
105.0
 13
0.0
 23
0.0
 14
1.0
 24
1.0
 15
0.0
 25
0.0
 16
0.0
 26
0.0
 36
1.0
 17
0.0
 27
0.0
 37
0.0
 40
210.0
 41
1.4142857143
 42
50.0
 43
0.0
 44
0.0
 50
0.0
 51
0.0
 71
0
 72
100
 73
1
 74
1
 75
0
 76
0
 77
0
 78
0
  0
ENDTAB
  0
TABLE
  2
LTYPE
  5
5
100
AcDbSymbolTable
 70
6
  0
LTYPE
  5
14
100
AcDbSymbolTableRecord
100
AcDbLinetypeTableRecord
  2
BYBLOCK
 70
0
  3

 72
65
 73
0
 40
0.0
  0
LTYPE
  5
15
100
AcDbSymbolTableRecord
100
AcDbLinetypeTableRecord
  2
BYLAYER
 70
0
  3

 72
65
 73
0
 40
0.0
  0
LTYPE
  5
16
100
AcDbSymbolTableRecord
100
AcDbLinetypeTableRecord
  2
CONTINUOUS
 70
64
  3
Solid line
 72
65
 73
0
 40
0.0
  0
LTYPE
  5
1F5
100
AcDbSymbolTableRecord
100
AcDbLinetypeTableRecord
  2
CENTER
 70
64
  3
____ _ ____ _ ____ _ ____ _ ____ _ ____ _ ____
 72
65
 73
4
 40
0.6
 49
0.375
 74
0
 49
-0.075
 74
0
 49
0.075
 74
0
 49
-0.075
 74
0
  0
LTYPE
  5
1F6
100
AcDbSymbolTableRecord
100
AcDbLinetypeTableRecord
  2
HIDDEN
 70
64
  3
- - - - - - - - - - - - - - - - - - - -
 72
65
 73
2
 40
0.2
 49
0.1
 74
0
 49
-0.1
 74
0
  0
LTYPE
  5
1F7
100
AcDbSymbolTableRecord
100
AcDbLinetypeTableRecord
  2
PHANTOM
 70
64
  3
_____ _ _ _____ _ _ _____ _ _ _____
 72
65
 73
6
 40
0.8
 49
0.45
 74
0
 49
-0.05
 74
0
 49
0.1
 74
0
 49
-0.05
 74
0
 49
0.1
 74
0
 49
-0.05
 74
0
  0
LTYPE
  5
1F8
100
AcDbSymbolTableRecord
100
AcDbLinetypeTableRecord
  2
DOT
 70
64
  3
. . . . . . . . . . . . . . . . . . . .
 72
65
 73
2
 40
0.2
 49
0.1
 74
0
 49
-0.1
 74
0
  0
LTYPE
  5
1F9
100
AcDbSymbolTableRecord
100
AcDbLinetypeTableRecord
  2
DASHED
 70
64
  3
- - - - - - - - - - - - - - - - - - - -
 72
65
 73
2
 40
0.2
 49
0.1
 74
0
 49
-0.1
 74
0
  0
ENDTAB
  0
TABLE
  2
LAYER
  5
2
100
AcDbSymbolTable
 70
36
  0
LAYER
  5
10
100
AcDbSymbolTableRecord
100
AcDbLayerTableRecord
  2
0
 70
0
 62
7
  6
CONTINUOUS
370
-3
390
F
  0
LAYER
  5
1FA
100
AcDbSymbolTableRecord
100
AcDbLayerTableRecord
  2
DEFAULT_1
 70
0
 62
7
  6
CENTER
370
-3
390
F
  0
LAYER
  5
1FB
100
AcDbSymbolTableRecord
100
AcDbLayerTableRecord
  2
DEFAULT_2
 70
0
 62
8
  6
HIDDEN
370
-3
390
F
  0
LAYER
  5
1FC
100
AcDbSymbolTableRecord
100
AcDbLayerTableRecord
  2
DEFAULT_3
 70
0
 62
7
  6
PHANTOM
370
-3
390
F
  0
LAYER
  5
1FD
100
AcDbSymbolTableRecord
100
AcDbLayerTableRecord
  2
BEZUGSACHSEN
 70
0
 62
7
  6
CONTINUOUS
370
-3
390
F
  0
LAYER
  5
1FE
100
AcDbSymbolTableRecord
100
AcDbLayerTableRecord
  2
BG_STARTBEZUEGE
 70
0
 62
7
  6
CONTINUOUS
370
-3
390
F
  0
LAYER
  5
1FF
100
AcDbSymbolTableRecord
100
AcDbLayerTableRecord
  2
BOHRUNGEN
 70
0
 62
7
  6
CONTINUOUS
370
-3
390
F
  0
LAYER
  5
200
100
AcDbSymbolTableRecord
100
AcDbLayerTableRecord
  2
FASEN
 70
0
 62
7
  6
CONTINUOUS
370
-3
390
F
  0
LAYER
  5
201
100
AcDbSymbolTableRecord
100
AcDbLayerTableRecord
  2
FLAECHEN
 70
0
 62
7
  6
CONTINUOUS
370
-3
390
F
  0
LAYER
  5
202
100
AcDbSymbolTableRecord
100
AcDbLayerTableRecord
  2
GEWINDE
 70
0
 62
7
  6
CONTINUOUS
370
-3
390
F
  0
LAYER
  5
203
100
AcDbSymbolTableRecord
100
AcDbLayerTableRecord
  2
HILFEN
 70
0
 62
7
  6
CONTINUOUS
370
-3
390
F
  0
LAYER
  5
204
100
AcDbSymbolTableRecord
100
AcDbLayerTableRecord
  2
KURVEN
 70
0
 62
7
  6
CONTINUOUS
370
-3
390
F
  0
LAYER
  5
205
100
AcDbSymbolTableRecord
100
AcDbLayerTableRecord
  2
NORM
 70
0
 62
7
  6
CONTINUOUS
370
-3
390
F
  0
LAYER
  5
206
100
AcDbSymbolTableRecord
100
AcDbLayerTableRecord
  2
PLATZIERUNG
 70
0
 62
7
  6
CONTINUOUS
370
-3
390
F
  0
LAYER
  5
207
100
AcDbSymbolTableRecord
100
AcDbLayerTableRecord
  2
RUNDUNGEN
 70
0
 62
7
  6
CONTINUOUS
370
-3
390
F
  0
LAYER
  5
208
100
AcDbSymbolTableRecord
100
AcDbLayerTableRecord
  2
T_STARTBEZUEGE
 70
0
 62
7
  6
CONTINUOUS
370
-3
390
F
  0
LAYER
  5
209
100
AcDbSymbolTableRecord
100
AcDbLayerTableRecord
  2
ZEICHNUNGSBEMASSUNGEN
 70
0
 62
7
  6
CONTINUOUS
370
-3
390
F
  0
ENDTAB
  0
TABLE
  2
STYLE
  5
3
100
AcDbSymbolTable
 70
1
  0
STYLE
  5
11
100
AcDbSymbolTableRecord
100
AcDbTextStyleTableRecord
  2
STANDARD
 70
0
 40
0.0
 41
0.7
 50
0.0
 71
0
 42
0.2
  3
txt
  4

  0
STYLE
  5
20A
100
AcDbSymbolTableRecord
100
AcDbTextStyleTableRecord
  2
TEXTSTYLE_1
 70
0
 40
0.0
 41
0.8
 50
0.0
 71
0
 42
0.2
  3
gdt
  4

  0
ENDTAB
  0
TABLE
  2
VIEW
  5
6
100
AcDbSymbolTable
 70
0
  0
ENDTAB
  0
TABLE
  2
UCS
  5
7
100
AcDbSymbolTable
 70
0
  0
ENDTAB
  0
TABLE
  2
APPID
  5
9
100
AcDbSymbolTable
 70
1
  0
APPID
  5
20B
100
AcDbSymbolTableRecord
100
AcDbRegAppTableRecord
  2
ACAD
 70
0
  0
ENDTAB
  0
TABLE
  2
BLOCK_RECORD
  5
1
100
AcDbSymbolTable
 70
0
  0
BLOCK_RECORD
  5
20C
100
AcDbSymbolTableRecord
100
AcDbBlockTableRecord
  2
*Model_Space
  0
BLOCK_RECORD
  5
20D
100
AcDbSymbolTableRecord
100
AcDbBlockTableRecord
  2
*Paper_Space
  0
ENDTAB
  0
TABLE
  2
DIMSTYLE
  5
A
100
AcDbSymbolTable
 70
1
100
AcDbDimStyleTable
 71
0
  0
DIMSTYLE
105
20E
100
AcDbSymbolTableRecord
100
AcDbDimStyleTableRecord
  2
STANDARD
 70
0
  3

  4

 40
1.0
 41
3.5
 42
0.0625
 43
0.38
 44
0.18
 45
0.0
 46
0.0
 47
0.005
 48
0.005
140
3.5
141
0.09
142
0.0
143
25.4
144
1.0
145
0.0
146
1.0
147
0.09
 71
1.0
 72
0.0
 73
0
 74
0
 75
0
 76
0
 77
1
 78
8
170
0
171
2
172
0
173
0
174
0
175
0
176
0
177
0
178
5
270
2
271
3
272
3
273
2
274
2
275
0
280
0
281
0
282
0
283
1
284
8
285
0
286
0
287
3
288
0
340
11
  0
ENDTAB
  0
ENDSEC
  0
SECTION
  2
BLOCKS
  0
BLOCK
  5
20
100
AcDbEntity
  8
0
100
AcDbBlockBegin
  2
*Model_Space
 70
0
 10
0.0
 20
0.0
 30
0.0
  3
*Model_Space
  1

  0
ENDBLK
  5
21
100
AcDbEntity
  8
0
100
AcDbBlockEnd
  0
BLOCK
  5
1C
100
AcDbEntity
  8
0
100
AcDbBlockBegin
  2
*Paper_Space
 70
0
 10
0.0
 20
0.0
 30
0.0
  3
*Paper_Space
  1

  0
ENDBLK
  5
1D
100
AcDbEntity
  8
0
100
AcDbBlockEnd
  0
ENDSEC
  0
SECTION
  2
ENTITIES
  0
MTEXT
  5
20F
100
AcDbEntity
  8
0
100
AcDbMText
 62
5
  6
CONTINUOUS
  7
STANDARD
 71
1
 72
1
 10
161.5939011401
 20
129.8291521383
 30
0.0
 11
0.0
 21
1.0
 31
0.0
 44
0.9
  1
VRM 0,1t RUD
 40
2.5
 41
23.0357142857
  0
MTEXT
  5
210
100
AcDbEntity
  8
0
100
AcDbMText
 62
5
  6
CONTINUOUS
  7
STANDARD
 71
1
 72
1
 10
88.9767116688
 20
85.4973258386
 30
0.0
 11
1.0
 21
0.0
 31
0.0
 44
0.9
  1
VRM 0,1t RUD
 40
2.5
 41
23.0357142857
  0
LINE
  5
211
100
AcDbEntity
  8
0
100
AcDbLine
 62
7
  6
CONTINUOUS
 10
0.0
 20
0.0
 11
0.0
 21
210.0
  0
LINE
  5
212
100
AcDbEntity
  8
0
100
AcDbLine
 62
7
  6
CONTINUOUS
 10
0.0
 20
0.0
 11
297.0
 21
0.0
  0
LINE
  5
213
100
AcDbEntity
  8
0
100
AcDbLine
 62
7
  6
CONTINUOUS
 10
0.0
 20
210.0
 11
297.0
 21
210.0
  0
LINE
  5
214
100
AcDbEntity
  8
0
100
AcDbLine
 62
7
  6
CONTINUOUS
 10
297.0
 20
0.0
 11
297.0
 21
210.0
  0
LINE
  5
215
100
AcDbEntity
  8
0
100
AcDbLine
 62
7
  6
CONTINUOUS
 10
107.0239702815
 20
118.5996187435
 11
94.0239702815
 21
118.5996187435
  0
LINE
  5
216
100
AcDbEntity
  8
BEZUGSACHSEN
100
AcDbLine
 62
7
  6
CONTINUOUS
 10
112.0239702815
 20
118.7996187435
 11
89.0239702815
 21
118.7996187435
  0
LINE
  5
217
100
AcDbEntity
  8
0
100
AcDbLine
 62
7
  6
CONTINUOUS
 10
99.7323035354
 20
119.0389804469
 11
100.1489702815
 21
119.0389804469
  0
LINE
  5
218
100
AcDbEntity
  8
0
100
AcDbLine
 62
7
  6
CONTINUOUS
 10
101.8156367893
 20
119.5496187435
 11
102.3156367893
 21
119.5496187435
  0
LINE
  5
219
100
AcDbEntity
  8
0
100
AcDbLine
 62
7
  6
CONTINUOUS
 10
97.0656367893
 20
119.6347251238
 11
97.5656367893
 21
119.5496187435
  0
LINE
  5
21A
100
AcDbEntity
  8
0
100
AcDbLine
 62
7
  6
CONTINUOUS
 10
97.9823034162
 20
120.0602570401
 11
97.5656367893
 21
119.9751506673
  0
LINE
  5
21B
100
AcDbEntity
  8
0
100
AcDbLine
 62
7
  6
CONTINUOUS
 10
97.5656367893
 20
119.5496187435
 11
98.0656367893
 21
119.6347251238
  0
LINE
  5
21C
100
AcDbEntity
  8
0
100
AcDbLine
 62
7
  6
CONTINUOUS
 10
100.6489702815
 20
119.9751506673
 11
100.232303297
 21
119.9751506673
  0
LINE
  5
21D
100
AcDbEntity
  8
0
100
AcDbLine
 62
7
  6
CONTINUOUS
 10
102.982303297
 20
121.9325974212
 11
103.6489702815
 21
121.9325974212
  0
LINE
  5
21E
100
AcDbEntity
  8
0
100
AcDbLine
 62
7
  6
CONTINUOUS
 10
104.0656367893
 20
121.9325974212
 11
104.9823037738
 21
121.9325974212
  0
LINE
  5
21F
100
AcDbEntity
  8
0
100
AcDbLine
 62
7
  6
CONTINUOUS
 10
86.0239702815
 20
122.0496187435
 11
87.0095975659
 21
122.0496187435
  0
LINE
  5
220
100
AcDbEntity
  8
0
100
AcDbLine
 62
7
  6
CONTINUOUS
 10
114.0383429972
 20
122.0496187435
 11
115.0239702815
 21
122.0496187435
  0
LINE
  5
221
100
AcDbEntity
  8
0
100
AcDbLine
 62
7
  6
CONTINUOUS
 10
104.9823037738
 20
122.2730229126
 11
104.0656367893
 21
122.2730229126
  0
LINE
  5
222
100
AcDbEntity
  8
0
100
AcDbLine
 62
7
  6
CONTINUOUS
 10
103.6489702815
 20
122.2730229126
 11
102.982303297
 21
122.2730229126
  0
LINE
  5
223
100
AcDbEntity
  8
0
100
AcDbLine
 62
7
  6
CONTINUOUS
 10
104.3156367893
 20
119.6347251238
 11
104.8156367893
 21
119.5496187435
  0
LINE
  5
224
100
AcDbEntity
  8
0
100
AcDbLine
 62
7
  6
CONTINUOUS
 10
97.5656367893
 20
119.9751506673
 11
97.1489701623
 21
120.0602570401
  0
LINE
  5
225
100
AcDbEntity
  8
0
100
AcDbLine
 62
7
  6
CONTINUOUS
 10
104.8156367893
 20
119.8900442646
 11
104.3989698047
 21
119.9751506673
  0
LINE
  5
226
100
AcDbEntity
  8
0
100
AcDbLine
 62
7
  6
CONTINUOUS
 10
104.0656367893
 20
119.7198315041
 11
104.3156367893
 21
119.6347251238
  0
LINE
  5
227
100
AcDbEntity
  8
0
100
AcDbLine
 62
7
  6
CONTINUOUS
 10
96.6489701027
 20
119.8900442646
 11
97.0656367893
 21
119.6347251238
  0
LINE
  5
228
100
AcDbEntity
  8
0
100
AcDbLine
 62
7
  6
CONTINUOUS
 10
97.1489701623
 20
120.0602570401
 11
96.8989701027
 21
120.2304697858
  0
LINE
  5
229
100
AcDbEntity
  8
0
100
AcDbLine
 62
7
  6
CONTINUOUS
 10
97.1489701623
 20
123.0389805065
 11
97.5656367893
 21
123.1240868793
  0
LINE
  5
22A
100
AcDbEntity
  8
0
100
AcDbLine
 62
7
  6
CONTINUOUS
 10
97.5656367893
 20
123.5496187435
 11
97.0656367893
 21
123.4645123706
  0
LINE
  5
22B
100
AcDbEntity
  8
0
100
AcDbLine
 62
7
  6
CONTINUOUS
 10
104.0656367893
 20
122.9538741337
 11
103.6489702815
 21
122.9538741337
  0
LINE
  5
22C
100
AcDbEntity
  8
0
100
AcDbLine
 62
7
  6
CONTINUOUS
 10
102.3156367893
 20
123.5496187435
 11
101.8156367893
 21
123.5496187435
  0
LINE
  5
22D
100
AcDbEntity
  8
0
100
AcDbLine
 62
7
  6
CONTINUOUS
 10
98.0656367893
 20
123.4645123706
 11
97.5656367893
 21
123.5496187435
  0
LINE
  5
22E
100
AcDbEntity
  8
0
100
AcDbLine
 62
7
  6
CONTINUOUS
 10
97.5656367893
 20
123.1240868793
 11
97.9823034162
 21
123.0389805065
  0
LINE
  5
22F
100
AcDbEntity
  8
0
100
AcDbLine
 62
7
  6
CONTINUOUS
 10
96.3989701325
 20
120.1453634129
 11
96.6489701027
 21
119.8900442646
  0
LINE
  5
230
100
AcDbEntity
  8
BEZUGSACHSEN
100
AcDbLine
 62
7
  6
CONTINUOUS
 10
89.0239702815
 20
118.7996187435
 11
87.9334770984
 21
121.4323021758
  0
LINE
  5
231
100
AcDbEntity
  8
BEZUGSACHSEN
100
AcDbLine
 62
7
  6
CONTINUOUS
 10
84.9478498141
 20
128.640244058
 11
81.8874036004
 21
136.0288148138
  0
LINE
  5
232
100
AcDbEntity
  8
0
100
AcDbLine
 62
7
  6
CONTINUOUS
 10
98.4823035354
 20
123.2091932521
 11
98.0656367893
 21
123.4645123706
  0
LINE
  5
233
100
AcDbEntity
  8
0
100
AcDbLine
 62
7
  6
CONTINUOUS
 10
97.9823034162
 20
123.0389805065
 11
98.2323035354
 21
122.8687677608
  0
LINE
  5
234
100
AcDbEntity
  8
0
100
AcDbLine
 62
7
  6
CONTINUOUS
 10
103.8156367893
 20
119.8900442646
 11
104.0656367893
 21
119.7198315041
  0
LINE
  5
235
100
AcDbEntity
  8
0
100
AcDbLine
 62
7
  6
CONTINUOUS
 10
104.3989698047
 20
119.9751506673
 11
104.1489698047
 21
120.1453634129
  0
LINE
  5
236
100
AcDbEntity
  8
RUNDUNGEN
100
AcDbLine
 62
7
  6
CONTINUOUS
 10
85.0239702815
 20
128.3389843531
 11
85.0239702815
 21
123.0496187435
  0
LINE
  5
237
100
AcDbEntity
  8
BEZUGSACHSEN
100
AcDbLine
 62
7
  6
CONTINUOUS
 10
85.0239702815
 20
123.0499213022
 11
85.0239702815
 21
128.3389841716
  0
LINE
  5
238
100
AcDbEntity
  8
BEZUGSACHSEN
100
AcDbLine
 62
7
  6
CONTINUOUS
 10
81.8874036004
 20
136.7941816785
 11
81.9756200061
 21
137.0071549216
  0
LINE
  5
239
100
AcDbEntity
  8
RUNDUNGEN
100
AcDbLine
 62
7
  6
CONTINUOUS
 10
81.9756200061
 20
137.0071549216
 11
86.9968501275
 21
149.1294767802
  0
LINE
  5
23A
100
AcDbEntity
  8
0
100
AcDbLine
 62
7
  6
CONTINUOUS
 10
96.0239702815
 20
129.5996187435
 11
105.0239702815
 21
129.5996187435
  0
LINE
  5
23B
100
AcDbEntity
  8
0
100
AcDbLine
 62
7
  6
CONTINUOUS
 10
98.7323035354
 20
122.9538741337
 11
98.4823035354
 21
123.2091932521
  0
LINE
  5
23C
100
AcDbEntity
  8
0
100
AcDbLine
 62
7
  6
CONTINUOUS
 10
96.8989701027
 20
120.2304697858
 11
96.5656367893
 21
120.7411080824
  0
LINE
  5
23D
100
AcDbEntity
  8
0
100
AcDbLine
 62
7
  6
CONTINUOUS
 10
98.2323035354
 20
122.8687677608
 11
98.5656367893
 21
122.3581292854
  0
LINE
  5
23E
100
AcDbEntity
  8
0
100
AcDbLine
 62
7
  6
CONTINUOUS
 10
96.2323034609
 20
120.4857889639
 11
96.3989701325
 21
120.1453634129
  0
LINE
  5
23F
100
AcDbEntity
  8
0
100
AcDbLine
 62
7
  6
CONTINUOUS
 10
98.8989700431
 20
122.6134486423
 11
98.7323035354
 21
122.9538741337
  0
LINE
  5
240
100
AcDbEntity
  8
0
100
AcDbLine
 62
7
  6
CONTINUOUS
 10
96.1489701251
 20
120.7411080824
 11
96.2323034609
 21
120.4857889639
  0
LINE
  5
241
100
AcDbEntity
  8
0
100
AcDbLine
 62
7
  6
CONTINUOUS
 10
90.6693778358
 20
146.7504052669
 11
90.6706316203
 21
146.6313004647
  0
LINE
  5
242
100
AcDbEntity
  8
0
100
AcDbLine
 62
7
  6
CONTINUOUS
 10
90.8505425238
 20
146.5103149014
 11
90.9082144168
 21
146.6883453812
  0
LINE
  5
243
100
AcDbEntity
  8
0
100
AcDbLine
 62
7
  6
CONTINUOUS
 10
90.6706316203
 20
146.6313004647
 11
90.6123329193
 21
146.5128224703
  0
LINE
  5
244
100
AcDbEntity
  8
0
100
AcDbLine
 62
7
  6
CONTINUOUS
 10
92.0434717288
 20
149.1475473155
 11
91.7783066859
 21
148.8823822725
  0
LINE
  5
245
100
AcDbEntity
  8
0
100
AcDbLine
 62
7
  6
CONTINUOUS
 10
90.8944232094
 20
147.9984987961
 11
90.629258335
 21
147.7333339217
  0
LINE
  5
246
100
AcDbEntity
  8
0
100
AcDbLine
 62
7
  6
CONTINUOUS
 10
89.9810770627
 20
147.0851526494
 11
89.2739702815
 21
146.3780458682
  0
LINE
  5
247
100
AcDbEntity
  8
0
100
AcDbLine
 62
7
  6
CONTINUOUS
 10
89.038267993
 20
146.1423435797
 11
88.8614912978
 21
145.9655668844
  0
LINE
  5
248
100
AcDbEntity
  8
0
100
AcDbLine
 62
7
  6
CONTINUOUS
 10
88.0365334145
 20
145.1406090012
 11
87.8597567192
 21
144.9638323059
  0
LINE
  5
249
100
AcDbEntity
  8
0
100
AcDbLine
 62
7
  6
CONTINUOUS
 10
89.6011952102
 20
146.4043743301
 11
90.1609881349
 21
146.9641672548
  0
LINE
  5
24A
100
AcDbEntity
  8
0
100
AcDbLine
 62
7
  6
CONTINUOUS
 10
90.6123329193
 20
146.5128224703
 11
90.0525399947
 21
145.9530295457
  0
LINE
  5
24B
100
AcDbEntity
  8
0
100
AcDbLine
 62
7
  6
CONTINUOUS
 10
90.2330778747
 20
145.7724916656
 11
90.7339451219
 21
146.2733589128
  0
LINE
  5
24C
100
AcDbEntity
  8
0
100
AcDbLine
 62
7
  6
CONTINUOUS
 10
89.7453748164
 20
144.0210232783
 11
89.9810770627
 21
144.2567255247
  0
LINE
  5
24D
100
AcDbEntity
  8
0
100
AcDbLine
 62
7
  6
CONTINUOUS
 10
90.6881838439
 20
144.9638323059
 11
90.8649605392
 21
145.1406090012
  0
LINE
  5
24E
100
AcDbEntity
  8
0
100
AcDbLine
 62
7
  6
CONTINUOUS
 10
91.6015301591
 20
145.8771786211
 11
91.8077695246
 21
146.0834179865
  0
LINE
  5
24F
100
AcDbEntity
  8
0
100
AcDbLine
 62
7
  6
CONTINUOUS
 10
92.0434718974
 20
146.3191203593
 11
92.2202484241
 21
146.495896886
  0
LINE
  5
250
100
AcDbEntity
  8
0
100
AcDbLine
 62
7
  6
CONTINUOUS
 10
92.6327274922
 20
146.9083759541
 11
92.868429865
 21
147.1440783269
  0
LINE
  5
251
100
AcDbEntity
  8
0
100
AcDbLine
 62
7
  6
CONTINUOUS
 10
93.2809085959
 20
147.5565570578
 11
93.4576852912
 21
147.7333337531
  0
LINE
  5
252
100
AcDbEntity
  8
0
100
AcDbLine
 62
7
  6
CONTINUOUS
 10
90.158480566
 20
147.2023768593
 11
89.9810770627
 21
147.0851526494
  0
LINE
  5
253
100
AcDbEntity
  8
RUNDUNGEN
100
AcDbLine
 62
7
  6
CONTINUOUS
 10
87.5380462276
 20
149.6706728804
 11
100.1412868492
 21
154.8911060757
  0
LINE
  5
254
100
AcDbEntity
  8
0
100
AcDbLine
 62
7
  6
CONTINUOUS
 10
89.9810770627
 20
144.2567255247
 11
89.038267993
 21
146.1423435797
  0
LINE
  5
255
100
AcDbEntity
  8
0
100
AcDbLine
 62
7
  6
CONTINUOUS
 10
88.8614912978
 20
145.9655668844
 11
89.6826880174
 21
144.3194122816
  0
LINE
  5
256
100
AcDbEntity
  8
0
100
AcDbLine
 62
7
  6
CONTINUOUS
 10
98.9823035354
 20
122.3581292854
 11
98.8989700431
 21
122.6134486423
  0
LINE
  5
257
100
AcDbEntity
  8
0
100
AcDbLine
 62
7
  6
CONTINUOUS
 10
96.0656367893
 20
121.1666400657
 11
96.1489701251
 21
120.7411080824
  0
LINE
  5
258
100
AcDbEntity
  8
0
100
AcDbLine
 62
7
  6
CONTINUOUS
 10
90.9082144168
 20
146.6883453812
 11
90.8762441778
 21
146.8970923155
  0
LINE
  5
259
100
AcDbEntity
  8
0
100
AcDbLine
 62
7
  6
CONTINUOUS
 10
94.0239702815
 20
118.7996187435
 11
94.0239702815
 21
118.5996187435
  0
LINE
  5
25A
100
AcDbEntity
  8
0
100
AcDbLine
 62
7
  6
CONTINUOUS
 10
99.0656372661
 20
150.5762144552
 11
98.982303893
 21
150.4911080824
  0
LINE
  5
25B
100
AcDbEntity
  8
0
100
AcDbLine
 62
7
  6
CONTINUOUS
 10
99.0239706392
 20
150.2783421503
 11
99.1906372661
 21
150.3634485231
  0
LINE
  5
25C
100
AcDbEntity
  8
0
100
AcDbLine
 62
7
  6
CONTINUOUS
 10
90.1609881349
 20
146.9641672548
 11
90.2794661292
 21
147.0224659558
  0
LINE
  5
25D
100
AcDbEntity
  8
0
100
AcDbLine
 62
7
  6
CONTINUOUS
 10
98.982303893
 20
150.4911080824
 11
98.857303893
 21
150.4485548959
  0
LINE
  5
25E
100
AcDbEntity
  8
0
100
AcDbLine
 62
7
  6
CONTINUOUS
 10
89.2739702815
 20
146.3780458682
 11
90.6881838439
 21
144.9638323059
  0
LINE
  5
25F
100
AcDbEntity
  8
0
100
AcDbLine
 62
7
  6
CONTINUOUS
 10
90.8649605392
 20
145.1406090012
 11
90.2330778747
 21
145.7724916656
  0
LINE
  5
260
100
AcDbEntity
  8
0
100
AcDbLine
 62
7
  6
CONTINUOUS
 10
90.0525399947
 20
145.9530295457
 11
89.6011952102
 21
146.4043743301
  0
LINE
  5
261
100
AcDbEntity
  8
0
100
AcDbLine
 62
7
  6
CONTINUOUS
 10
90.6085717345
 20
146.8701370457
 11
90.6693778358
 21
146.7504052669
  0
LINE
  5
262
100
AcDbEntity
  8
0
100
AcDbLine
 62
7
  6
CONTINUOUS
 10
90.8762441778
 20
146.8970923155
 11
90.8154380765
 21
147.0168240943
  0
LINE
  5
263
100
AcDbEntity
  8
0
100
AcDbLine
 62
7
  6
CONTINUOUS
 10
103.6489702815
 20
120.2304697858
 11
103.8156367893
 21
119.8900442646
  0
LINE
  5
264
100
AcDbEntity
  8
0
100
AcDbLine
 62
7
  6
CONTINUOUS
 10
91.7783066859
 20
148.8823822725
 11
92.6001302555
 21
147.1766752264
  0
LINE
  5
265
100
AcDbEntity
  8
0
100
AcDbLine
 62
7
  6
CONTINUOUS
 10
92.868429865
 20
147.1440783269
 11
92.1675915003
 21
148.6698741534
  0
LINE
  5
266
100
AcDbEntity
  8
0
100
AcDbLine
 62
7
  6
CONTINUOUS
 10
99.0656367893
 20
121.9325974212
 11
98.9823035354
 21
122.3581292854
  0
LINE
  5
267
100
AcDbEntity
  8
0
100
AcDbLine
 62
7
  6
CONTINUOUS
 10
96.5656367893
 20
120.7411080824
 11
96.482303446
 21
121.2517464386
  0
LINE
  5
268
100
AcDbEntity
  8
0
100
AcDbLine
 62
7
  6
CONTINUOUS
 10
98.5656367893
 20
122.3581292854
 11
98.6489700431
 21
121.8474910484
  0
LINE
  5
269
100
AcDbEntity
  8
0
100
AcDbLine
 62
7
  6
CONTINUOUS
 10
96.0239702815
 20
128.142361145
 11
96.0239702815
 21
129.5996187435
  0
LINE
  5
26A
100
AcDbEntity
  8
0
100
AcDbLine
 62
7
  6
CONTINUOUS
 10
96.0656367893
 20
121.9325974212
 11
96.0656367893
 21
121.1666400657
  0
LINE
  5
26B
100
AcDbEntity
  8
0
100
AcDbLine
 62
7
  6
CONTINUOUS
 10
96.482303446
 20
121.2517464386
 11
96.482303446
 21
121.8474910484
  0
LINE
  5
26C
100
AcDbEntity
  8
0
100
AcDbLine
 62
7
  6
CONTINUOUS
 10
97.8156372661
 20
151.2996187435
 11
97.8156372661
 21
149.2996187435
  0
LINE
  5
26D
100
AcDbEntity
  8
0
100
AcDbLine
 62
7
  6
CONTINUOUS
 10
98.0656372661
 20
149.2996187435
 11
98.0656372661
 21
150.1932357774
  0
LINE
  5
26E
100
AcDbEntity
  8
0
100
AcDbLine
 62
7
  6
CONTINUOUS
 10
98.0656372661
 20
150.4485548959
 11
98.0656372661
 21
151.0868528114
  0
LINE
  5
26F
100
AcDbEntity
  8
0
100
AcDbLine
 62
7
  6
CONTINUOUS
 10
99.107303893
 20
150.7038740144
 11
99.0656372661
 21
150.5762144552
  0
LINE
  5
270
100
AcDbEntity
  8
0
100
AcDbLine
 62
7
  6
CONTINUOUS
 10
99.3156372661
 20
150.5336612688
 11
99.357303893
 21
150.661320828
  0
LINE
  5
271
100
AcDbEntity
  8
0
100
AcDbLine
 62
7
  6
CONTINUOUS
 10
100.9406372661
 20
149.8102570401
 11
100.8573040122
 21
149.6825974808
  0
LINE
  5
272
100
AcDbEntity
  8
0
100
AcDbLine
 62
7
  6
CONTINUOUS
 10
99.1906372661
 20
150.3634485231
 11
99.3156372661
 21
150.5336612688
  0
LINE
  5
273
100
AcDbEntity
  8
0
100
AcDbLine
 62
7
  6
CONTINUOUS
 10
100.9406372661
 20
149.4272783176
 11
101.1073040122
 21
149.5974910782
  0
LINE
  5
274
100
AcDbEntity
  8
0
100
AcDbLine
 62
7
  6
CONTINUOUS
 10
100.8573040122
 20
149.6825974808
 11
100.7323040122
 21
149.5974910782
  0
LINE
  5
275
100
AcDbEntity
  8
0
100
AcDbLine
 62
7
  6
CONTINUOUS
 10
102.8573037738
 20
149.6825974808
 11
102.7323037738
 21
149.5974910782
  0
LINE
  5
276
100
AcDbEntity
  8
0
100
AcDbLine
 62
7
  6
CONTINUOUS
 10
100.77397052
 20
149.3421719336
 11
100.9406372661
 21
149.4272783176
  0
LINE
  5
277
100
AcDbEntity
  8
0
100
AcDbLine
 62
7
  6
CONTINUOUS
 10
102.7739707584
 20
149.3421719336
 11
102.9406372661
 21
149.4272783176
  0
LINE
  5
278
100
AcDbEntity
  8
0
100
AcDbLine
 62
7
  6
CONTINUOUS
 10
89.6826880174
 20
144.3194122816
 11
88.0365334145
 21
145.1406090012
  0
LINE
  5
279
100
AcDbEntity
  8
0
100
AcDbLine
 62
7
  6
CONTINUOUS
 10
87.8597567192
 20
144.9638323059
 11
89.7453748164
 21
144.0210232783
  0
LINE
  5
27A
100
AcDbEntity
  8
0
100
AcDbLine
 62
7
  6
CONTINUOUS
 10
90.5183027102
 20
146.96040607
 11
90.6085717345
 21
146.8701370457
  0
LINE
  5
27B
100
AcDbEntity
  8
0
100
AcDbLine
 62
7
  6
CONTINUOUS
 10
90.8154380765
 20
147.0168240943
 11
90.6950794055
 21
147.1371827653
  0
LINE
  5
27C
100
AcDbEntity
  8
0
100
AcDbLine
 62
7
  6
CONTINUOUS
 10
90.629258335
 20
147.7333339217
 11
92.0434718974
 21
146.3191203593
  0
LINE
  5
27D
100
AcDbEntity
  8
0
100
AcDbLine
 62
7
  6
CONTINUOUS
 10
92.2202484241
 20
146.495896886
 11
91.1069313285
 21
147.6092139816
  0
LINE
  5
27E
100
AcDbEntity
  8
0
100
AcDbLine
 62
7
  6
CONTINUOUS
 10
92.1675915003
 20
148.6698741534
 11
93.2809085959
 21
147.5565570578
  0
LINE
  5
27F
100
AcDbEntity
  8
0
100
AcDbLine
 62
7
  6
CONTINUOUS
 10
104.1489698047
 20
120.1453634129
 11
104.0656367893
 21
120.400682591
  0
LINE
  5
280
100
AcDbEntity
  8
0
100
AcDbLine
 62
7
  6
CONTINUOUS
 10
98.6489700431
 20
121.8474910484
 11
98.6489700431
 21
121.2517464386
  0
LINE
  5
281
100
AcDbEntity
  8
0
100
AcDbLine
 62
7
  6
CONTINUOUS
 10
99.0656367893
 20
121.1666400657
 11
99.0656367893
 21
121.9325974212
  0
LINE
  5
282
100
AcDbEntity
  8
0
100
AcDbLine
 62
7
  6
CONTINUOUS
 10
99.107303893
 20
150.8315336929
 11
99.107303893
 21
150.7038740144
  0
LINE
  5
283
100
AcDbEntity
  8
0
100
AcDbLine
 62
7
  6
CONTINUOUS
 10
99.357303893
 20
150.661320828
 11
99.357303893
 21
150.8315336929
  0
LINE
  5
284
100
AcDbEntity
  8
0
100
AcDbLine
 62
7
  6
CONTINUOUS
 10
99.732303893
 20
151.2996187435
 11
99.732303893
 21
149.9804697858
  0
LINE
  5
285
100
AcDbEntity
  8
0
100
AcDbLine
 62
7
  6
CONTINUOUS
 10
99.9823040122
 20
149.9804697858
 11
99.9823040122
 21
151.2996187435
  0
LINE
  5
286
100
AcDbEntity
  8
0
100
AcDbLine
 62
7
  6
CONTINUOUS
 10
100.5239702815
 20
127.3996824151
 11
100.5239702815
 21
129.5996187435
  0
LINE
  5
287
100
AcDbEntity
  8
0
100
AcDbLine
 62
7
  6
CONTINUOUS
 10
96.482303446
 20
121.8474910484
 11
96.5656367893
 21
122.3581292854
  0
LINE
  5
288
100
AcDbEntity
  8
0
100
AcDbLine
 62
7
  6
CONTINUOUS
 10
101.1906372661
 20
149.7677038537
 11
101.2323040122
 21
149.9804697858
  0
LINE
  5
289
100
AcDbEntity
  8
0
100
AcDbLine
 62
7
  6
CONTINUOUS
 10
96.1489701251
 20
122.3581292854
 11
96.0656367893
 21
121.9325974212
  0
LINE
  5
28A
100
AcDbEntity
  8
0
100
AcDbLine
 62
7
  6
CONTINUOUS
 10
100.9823040122
 20
149.9804697858
 11
100.9406372661
 21
149.8102570401
  0
LINE
  5
28B
100
AcDbEntity
  8
0
100
AcDbLine
 62
7
  6
CONTINUOUS
 10
101.1073040122
 20
149.5974910782
 11
101.1906372661
 21
149.7677038537
  0
LINE
  5
28C
100
AcDbEntity
  8
0
100
AcDbLine
 62
7
  6
CONTINUOUS
 10
103.1073037738
 20
149.5974910782
 11
103.1906372661
 21
149.7677038537
  0
LINE
  5
28D
100
AcDbEntity
  8
0
100
AcDbLine
 62
7
  6
CONTINUOUS
 10
102.9406372661
 20
149.8102570401
 11
102.8573037738
 21
149.6825974808
  0
LINE
  5
28E
100
AcDbEntity
  8
0
100
AcDbLine
 62
7
  6
CONTINUOUS
 10
102.9406372661
 20
149.4272783176
 11
103.1073037738
 21
149.5974910782
  0
LINE
  5
28F
100
AcDbEntity
  8
0
100
AcDbLine
 62
7
  6
CONTINUOUS
 10
91.8077695246
 20
146.0834179865
 11
90.8505425238
 21
146.5103149014
  0
LINE
  5
290
100
AcDbEntity
  8
0
100
AcDbLine
 62
7
  6
CONTINUOUS
 10
90.7339451219
 20
146.2733589128
 11
91.6015301591
 21
145.8771786211
  0
LINE
  5
291
100
AcDbEntity
  8
0
100
AcDbLine
 62
7
  6
CONTINUOUS
 10
91.1069313285
 20
147.6092139816
 11
92.6327274922
 21
146.9083759541
  0
LINE
  5
292
100
AcDbEntity
  8
0
100
AcDbLine
 62
7
  6
CONTINUOUS
 10
92.6001302555
 20
147.1766752264
 11
90.8944232094
 21
147.9984987961
  0
LINE
  5
293
100
AcDbEntity
  8
0
100
AcDbLine
 62
7
  6
CONTINUOUS
 10
90.3985709314
 20
147.0212121713
 11
90.5183027102
 21
146.96040607
  0
LINE
  5
294
100
AcDbEntity
  8
0
100
AcDbLine
 62
7
  6
CONTINUOUS
 10
90.6950794055
 20
147.1371827653
 11
90.5753476267
 21
147.1979888666
  0
LINE
  5
295
100
AcDbEntity
  8
0
100
AcDbLine
 62
7
  6
CONTINUOUS
 10
93.4576852912
 20
147.7333337531
 11
92.0434717288
 21
149.1475473155
  0
LINE
  5
296
100
AcDbEntity
  8
0
100
AcDbLine
 62
7
  6
CONTINUOUS
 10
100.9823040122
 20
151.2996187435
 11
100.9823040122
 21
149.9804697858
  0
LINE
  5
297
100
AcDbEntity
  8
0
100
AcDbLine
 62
7
  6
CONTINUOUS
 10
101.2323040122
 20
149.9804697858
 11
101.2323040122
 21
151.2996187435
  0
LINE
  5
298
100
AcDbEntity
  8
0
100
AcDbLine
 62
7
  6
CONTINUOUS
 10
101.3156367893
 20
122.9538741337
 11
101.3156367893
 21
122.2730229126
  0
LINE
  5
299
100
AcDbEntity
  8
0
100
AcDbLine
 62
7
  6
CONTINUOUS
 10
101.5656372661
 20
151.2996187435
 11
101.5656372661
 21
149.2996187435
  0
LINE
  5
29A
100
AcDbEntity
  8
0
100
AcDbLine
 62
7
  6
CONTINUOUS
 10
101.8156367893
 20
122.8687677608
 11
101.8156367893
 21
119.5496187435
  0
LINE
  5
29B
100
AcDbEntity
  8
0
100
AcDbLine
 62
7
  6
CONTINUOUS
 10
101.8156372661
 20
149.5549378918
 11
101.8156372661
 21
151.044299625
  0
LINE
  5
29C
100
AcDbEntity
  8
0
100
AcDbLine
 62
7
  6
CONTINUOUS
 10
102.3156367893
 20
119.5496187435
 11
102.3156367893
 21
123.5496187435
  0
LINE
  5
29D
100
AcDbEntity
  8
0
100
AcDbLine
 62
7
  6
CONTINUOUS
 10
102.982303297
 20
122.2730229126
 11
102.982303297
 21
121.9325974212
  0
LINE
  5
29E
100
AcDbEntity
  8
0
100
AcDbLine
 62
7
  6
CONTINUOUS
 10
102.9823037738
 20
150.6187676416
 11
102.9823037738
 21
149.9804697858
  0
LINE
  5
29F
100
AcDbEntity
  8
0
100
AcDbLine
 62
7
  6
CONTINUOUS
 10
103.2323037738
 20
149.9804697858
 11
103.2323037738
 21
150.6187676416
  0
LINE
  5
2A0
100
AcDbEntity
  8
0
100
AcDbLine
 62
7
  6
CONTINUOUS
 10
98.6489700431
 20
121.2517464386
 11
98.5656367893
 21
120.7411080824
  0
LINE
  5
2A1
100
AcDbEntity
  8
0
100
AcDbLine
 62
7
  6
CONTINUOUS
 10
103.1906372661
 20
149.7677038537
 11
103.2323037738
 21
149.9804697858
  0
LINE
  5
2A2
100
AcDbEntity
  8
0
100
AcDbLine
 62
7
  6
CONTINUOUS
 10
98.9823035354
 20
120.7411080824
 11
99.0656367893
 21
121.1666400657
  0
LINE
  5
2A3
100
AcDbEntity
  8
0
100
AcDbLine
 62
7
  6
CONTINUOUS
 10
102.9823037738
 20
149.9804697858
 11
102.9406372661
 21
149.8102570401
  0
LINE
  5
2A4
100
AcDbEntity
  8
0
100
AcDbLine
 62
7
  6
CONTINUOUS
 10
96.2323034609
 20
122.6134486423
 11
96.1489701251
 21
122.3581292854
  0
LINE
  5
2A5
100
AcDbEntity
  8
0
100
AcDbLine
 62
7
  6
CONTINUOUS
 10
90.5753476267
 20
147.1979888666
 11
90.3666006924
 21
147.2299591057
  0
LINE
  5
2A6
100
AcDbEntity
  8
0
100
AcDbLine
 62
7
  6
CONTINUOUS
 10
100.1073040122
 20
149.6825974808
 11
100.02397052
 21
149.8102570401
  0
LINE
  5
2A7
100
AcDbEntity
  8
0
100
AcDbLine
 62
7
  6
CONTINUOUS
 10
99.7739706392
 20
149.7677038537
 11
99.8573040122
 21
149.5974910782
  0
LINE
  5
2A8
100
AcDbEntity
  8
0
100
AcDbLine
 62
7
  6
CONTINUOUS
 10
99.3989706392
 20
149.2996187435
 11
99.0239706392
 21
150.2783421503
  0
LINE
  5
2A9
100
AcDbEntity
  8
0
100
AcDbLine
 62
7
  6
CONTINUOUS
 10
98.7739705796
 20
150.1932357774
 11
99.107303893
 21
149.2996187435
  0
LINE
  5
2AA
100
AcDbEntity
  8
0
100
AcDbLine
 62
7
  6
CONTINUOUS
 10
99.0656372661
 20
150.9591932521
 11
99.107303893
 21
150.8315336929
  0
LINE
  5
2AB
100
AcDbEntity
  8
0
100
AcDbLine
 62
7
  6
CONTINUOUS
 10
99.357303893
 20
150.8315336929
 11
99.3156372661
 21
150.9591932521
  0
LINE
  5
2AC
100
AcDbEntity
  8
0
100
AcDbLine
 62
7
  6
CONTINUOUS
 10
100.02397052
 20
149.8102570401
 11
99.9823040122
 21
149.9804697858
  0
LINE
  5
2AD
100
AcDbEntity
  8
0
100
AcDbLine
 62
7
  6
CONTINUOUS
 10
99.732303893
 20
149.9804697858
 11
99.7739706392
 21
149.7677038537
  0
LINE
  5
2AE
100
AcDbEntity
  8
0
100
AcDbLine
 62
7
  6
CONTINUOUS
 10
103.6489702815
 20
122.9538741337
 11
103.6489702815
 21
122.2730229126
  0
LINE
  5
2AF
100
AcDbEntity
  8
0
100
AcDbLine
 62
7
  6
CONTINUOUS
 10
103.6489702815
 20
121.9325974212
 11
103.6489702815
 21
120.2304697858
  0
LINE
  5
2B0
100
AcDbEntity
  8
0
100
AcDbLine
 62
7
  6
CONTINUOUS
 10
104.0656367893
 20
120.400682591
 11
104.0656367893
 21
121.9325974212
  0
LINE
  5
2B1
100
AcDbEntity
  8
0
100
AcDbLine
 62
7
  6
CONTINUOUS
 10
104.0656367893
 20
122.2730229126
 11
104.0656367893
 21
122.9538741337
  0
LINE
  5
2B2
100
AcDbEntity
  8
0
100
AcDbLine
 62
7
  6
CONTINUOUS
 10
104.8156367893
 20
119.5496187435
 11
104.8156367893
 21
119.8900442646
  0
LINE
  5
2B3
100
AcDbEntity
  8
0
100
AcDbLine
 62
7
  6
CONTINUOUS
 10
104.9823037738
 20
121.9325974212
 11
104.9823037738
 21
122.2730229126
  0
LINE
  5
2B4
100
AcDbEntity
  8
0
100
AcDbLine
 62
7
  6
CONTINUOUS
 10
105.0239702815
 20
128.1423915475
 11
105.0239702815
 21
129.5996187435
  0
LINE
  5
2B5
100
AcDbEntity
  8
0
100
AcDbLine
 62
7
  6
CONTINUOUS
 10
98.8989700431
 20
120.4857889639
 11
98.9823035354
 21
120.7411080824
  0
LINE
  5
2B6
100
AcDbEntity
  8
0
100
AcDbLine
 62
7
  6
CONTINUOUS
 10
96.3989701325
 20
122.9538741337
 11
96.2323034609
 21
122.6134486423
  0
LINE
  5
2B7
100
AcDbEntity
  8
0
100
AcDbLine
 62
7
  6
CONTINUOUS
 10
102.7323037738
 20
149.5974910782
 11
102.5656372661
 21
149.5549378918
  0
LINE
  5
2B8
100
AcDbEntity
  8
0
100
AcDbLine
 62
7
  6
CONTINUOUS
 10
100.7323040122
 20
149.5974910782
 11
100.5656372661
 21
149.5549378918
  0
LINE
  5
2B9
100
AcDbEntity
  8
0
100
AcDbLine
 62
7
  6
CONTINUOUS
 10
102.5656372661
 20
149.2996187435
 11
102.7739707584
 21
149.3421719336
  0
LINE
  5
2BA
100
AcDbEntity
  8
0
100
AcDbLine
 62
7
  6
CONTINUOUS
 10
100.5656372661
 20
149.2996187435
 11
100.77397052
 21
149.3421719336
  0
LINE
  5
2BB
100
AcDbEntity
  8
0
100
AcDbLine
 62
7
  6
CONTINUOUS
 10
90.3666006924
 20
147.2299591057
 11
90.158480566
 21
147.2023768593
  0
LINE
  5
2BC
100
AcDbEntity
  8
0
100
AcDbLine
 62
7
  6
CONTINUOUS
 10
97.8156372661
 20
149.2996187435
 11
98.0656372661
 21
149.2996187435
  0
LINE
  5
2BD
100
AcDbEntity
  8
0
100
AcDbLine
 62
7
  6
CONTINUOUS
 10
99.107303893
 20
149.2996187435
 11
99.3989706392
 21
149.2996187435
  0
LINE
  5
2BE
100
AcDbEntity
  8
0
100
AcDbLine
 62
7
  6
CONTINUOUS
 10
100.39897052
 20
149.2996187435
 11
100.5656372661
 21
149.2996187435
  0
LINE
  5
2BF
100
AcDbEntity
  8
0
100
AcDbLine
 62
7
  6
CONTINUOUS
 10
101.5656372661
 20
149.2996187435
 11
102.5656372661
 21
149.2996187435
  0
LINE
  5
2C0
100
AcDbEntity
  8
0
100
AcDbLine
 62
7
  6
CONTINUOUS
 10
90.2794661292
 20
147.0224659558
 11
90.3985709314
 21
147.0212121713
  0
LINE
  5
2C1
100
AcDbEntity
  8
0
100
AcDbLine
 62
7
  6
CONTINUOUS
 10
100.1906372661
 20
149.3421719336
 11
100.39897052
 21
149.2996187435
  0
LINE
  5
2C2
100
AcDbEntity
  8
0
100
AcDbLine
 62
7
  6
CONTINUOUS
 10
100.39897052
 20
149.5549378918
 11
100.2323040122
 21
149.5974910782
  0
LINE
  5
2C3
100
AcDbEntity
  8
0
100
AcDbLine
 62
7
  6
CONTINUOUS
 10
100.02397052
 20
149.4272783176
 11
100.1906372661
 21
149.3421719336
  0
LINE
  5
2C4
100
AcDbEntity
  8
0
100
AcDbLine
 62
7
  6
CONTINUOUS
 10
100.2323040122
 20
149.5974910782
 11
100.1073040122
 21
149.6825974808
  0
LINE
  5
2C5
100
AcDbEntity
  8
0
100
AcDbLine
 62
7
  6
CONTINUOUS
 10
99.1906372661
 20
151.1294059978
 11
99.0239706392
 21
151.2570655571
  0
LINE
  5
2C6
100
AcDbEntity
  8
0
100
AcDbLine
 62
7
  6
CONTINUOUS
 10
99.8573040122
 20
149.5974910782
 11
100.02397052
 21
149.4272783176
  0
LINE
  5
2C7
100
AcDbEntity
  8
0
100
AcDbLine
 62
7
  6
CONTINUOUS
 10
98.982303893
 20
151.044299625
 11
99.0656372661
 21
150.9591932521
  0
LINE
  5
2C8
100
AcDbEntity
  8
0
100
AcDbLine
 62
7
  6
CONTINUOUS
 10
99.3156372661
 20
150.9591932521
 11
99.1906372661
 21
151.1294059978
  0
LINE
  5
2C9
100
AcDbEntity
  8
0
100
AcDbLine
 62
7
  6
CONTINUOUS
 10
103.1906372661
 20
150.8315336929
 11
103.1073037738
 21
151.0017464386
  0
LINE
  5
2CA
100
AcDbEntity
  8
0
100
AcDbLine
 62
7
  6
CONTINUOUS
 10
102.9406372661
 20
150.7889803873
 11
102.9823037738
 21
150.6187676416
  0
LINE
  5
2CB
100
AcDbEntity
  8
0
100
AcDbLine
 62
7
  6
CONTINUOUS
 10
103.2323037738
 20
150.6187676416
 11
103.1906372661
 21
150.8315336929
  0
LINE
  5
2CC
100
AcDbEntity
  8
0
100
AcDbLine
 62
7
  6
CONTINUOUS
 10
107.0239702815
 20
118.7996187435
 11
107.0239702815
 21
118.5996187435
  0
LINE
  5
2CD
100
AcDbEntity
  8
0
100
AcDbLine
 62
7
  6
CONTINUOUS
 10
96.5656367893
 20
122.3581292854
 11
96.8989701027
 21
122.8687677608
  0
LINE
  5
2CE
100
AcDbEntity
  8
0
100
AcDbLine
 62
7
  6
CONTINUOUS
 10
102.5656372661
 20
149.5549378918
 11
101.8156372661
 21
149.5549378918
  0
LINE
  5
2CF
100
AcDbEntity
  8
0
100
AcDbLine
 62
7
  6
CONTINUOUS
 10
100.5656372661
 20
149.5549378918
 11
100.39897052
 21
149.5549378918
  0
LINE
  5
2D0
100
AcDbEntity
  8
0
100
AcDbLine
 62
7
  6
CONTINUOUS
 10
98.0656372661
 20
150.1932357774
 11
98.7739705796
 21
150.1932357774
  0
LINE
  5
2D1
100
AcDbEntity
  8
0
100
AcDbLine
 62
7
  6
CONTINUOUS
 10
98.857303893
 20
150.4485548959
 11
98.0656372661
 21
150.4485548959
  0
LINE
  5
2D2
100
AcDbEntity
  8
0
100
AcDbLine
 62
7
  6
CONTINUOUS
 10
101.8156372661
 20
151.044299625
 11
102.5656372661
 21
151.044299625
  0
LINE
  5
2D3
100
AcDbEntity
  8
0
100
AcDbLine
 62
7
  6
CONTINUOUS
 10
98.0656372661
 20
151.0868528114
 11
98.857303893
 21
151.0868528114
  0
LINE
  5
2D4
100
AcDbEntity
  8
0
100
AcDbLine
 62
7
  6
CONTINUOUS
 10
102.5656372661
 20
151.2996187435
 11
101.5656372661
 21
151.2996187435
  0
LINE
  5
2D5
100
AcDbEntity
  8
0
100
AcDbLine
 62
7
  6
CONTINUOUS
 10
101.2323040122
 20
151.2996187435
 11
100.9823040122
 21
151.2996187435
  0
LINE
  5
2D6
100
AcDbEntity
  8
0
100
AcDbLine
 62
7
  6
CONTINUOUS
 10
99.9823040122
 20
151.2996187435
 11
99.732303893
 21
151.2996187435
  0
LINE
  5
2D7
100
AcDbEntity
  8
0
100
AcDbLine
 62
7
  6
CONTINUOUS
 10
98.8156372661
 20
151.2996187435
 11
97.8156372661
 21
151.2996187435
  0
LINE
  5
2D8
100
AcDbEntity
  8
0
100
AcDbLine
 62
7
  6
CONTINUOUS
 10
99.0239706392
 20
151.2570655571
 11
98.8156372661
 21
151.2996187435
  0
LINE
  5
2D9
100
AcDbEntity
  8
0
100
AcDbLine
 62
7
  6
CONTINUOUS
 10
102.7739707584
 20
151.2570655571
 11
102.5656372661
 21
151.2996187435
  0
LINE
  5
2DA
100
AcDbEntity
  8
0
100
AcDbLine
 62
7
  6
CONTINUOUS
 10
102.5656372661
 20
151.044299625
 11
102.7323037738
 21
151.0017464386
  0
LINE
  5
2DB
100
AcDbEntity
  8
0
100
AcDbLine
 62
7
  6
CONTINUOUS
 10
98.857303893
 20
151.0868528114
 11
98.982303893
 21
151.044299625
  0
LINE
  5
2DC
100
AcDbEntity
  8
0
100
AcDbLine
 62
7
  6
CONTINUOUS
 10
102.9406372661
 20
151.1719591842
 11
102.7739707584
 21
151.2570655571
  0
LINE
  5
2DD
100
AcDbEntity
  8
0
100
AcDbLine
 62
7
  6
CONTINUOUS
 10
102.7323037738
 20
151.0017464386
 11
102.8573037738
 21
150.9166400657
  0
LINE
  5
2DE
100
AcDbEntity
  8
0
100
AcDbLine
 62
7
  6
CONTINUOUS
 10
103.1073037738
 20
151.0017464386
 11
102.9406372661
 21
151.1719591842
  0
LINE
  5
2DF
100
AcDbEntity
  8
0
100
AcDbLine
 62
7
  6
CONTINUOUS
 10
102.8573037738
 20
150.9166400657
 11
102.9406372661
 21
150.7889803873
  0
LINE
  5
2E0
100
AcDbEntity
  8
0
100
AcDbLine
 62
7
  6
CONTINUOUS
 10
98.7323035354
 20
120.1453634129
 11
98.8989700431
 21
120.4857889639
  0
LINE
  5
2E1
100
AcDbEntity
  8
0
100
AcDbLine
 62
7
  6
CONTINUOUS
 10
100.232303297
 20
119.9751506673
 11
99.7323035354
 21
119.0389804469
  0
LINE
  5
2E2
100
AcDbEntity
  8
0
100
AcDbLine
 62
7
  6
CONTINUOUS
 10
98.5656367893
 20
120.7411080824
 11
98.2323035354
 21
120.2304697858
  0
LINE
  5
2E3
100
AcDbEntity
  8
RUNDUNGEN
100
AcDbLine
 62
7
  6
CONTINUOUS
 10
100.9066537139
 20
154.8911060757
 11
113.5098943355
 21
149.6706728804
  0
LINE
  5
2E4
100
AcDbEntity
  8
0
100
AcDbLine
 62
7
  6
CONTINUOUS
 10
100.1489702815
 20
119.0389804469
 11
100.6489702815
 21
119.9751506673
  0
LINE
  5
2E5
100
AcDbEntity
  8
0
100
AcDbLine
 62
7
  6
CONTINUOUS
 10
101.8156367893
 20
123.5496187435
 11
101.3156367893
 21
122.9538741337
  0
LINE
  5
2E6
100
AcDbEntity
  8
0
100
AcDbLine
 62
7
  6
CONTINUOUS
 10
96.6489701027
 20
123.2091932521
 11
96.3989701325
 21
122.9538741337
  0
LINE
  5
2E7
100
AcDbEntity
  8
BEZUGSACHSEN
100
AcDbLine
 62
7
  6
CONTINUOUS
 10
116.0239702815
 20
128.3389835404
 11
116.0239702815
 21
123.0499212749
  0
LINE
  5
2E8
100
AcDbEntity
  8
RUNDUNGEN
100
AcDbLine
 62
7
  6
CONTINUOUS
 10
116.0239702815
 20
128.3389843531
 11
116.0239702815
 21
123.0496187435
  0
LINE
  5
2E9
100
AcDbEntity
  8
0
100
AcDbLine
 62
7
  6
CONTINUOUS
 10
101.3156367893
 20
122.2730229126
 11
101.8156367893
 21
122.8687677608
  0
LINE
  5
2EA
100
AcDbEntity
  8
0
100
AcDbLine
 62
7
  6
CONTINUOUS
 10
98.4823035354
 20
119.8900442646
 11
98.7323035354
 21
120.1453634129
  0
LINE
  5
2EB
100
AcDbEntity
  8
0
100
AcDbLine
 62
7
  6
CONTINUOUS
 10
96.8989701027
 20
122.8687677608
 11
97.1489701623
 21
123.0389805065
  0
LINE
  5
2EC
100
AcDbEntity
  8
0
100
AcDbLine
 62
7
  6
CONTINUOUS
 10
97.0656367893
 20
123.4645123706
 11
96.6489701027
 21
123.2091932521
  0
LINE
  5
2ED
100
AcDbEntity
  8
RUNDUNGEN
100
AcDbLine
 62
7
  6
CONTINUOUS
 10
114.0510904356
 20
149.1294767802
 11
119.0723216374
 21
137.0071523131
  0
LINE
  5
2EE
100
AcDbEntity
  8
BEZUGSACHSEN
100
AcDbLine
 62
7
  6
CONTINUOUS
 10
119.0723216374
 20
137.0071523131
 11
119.1605369626
 21
136.7941816785
  0
LINE
  5
2EF
100
AcDbEntity
  8
0
100
AcDbLine
 62
7
  6
CONTINUOUS
 10
98.2323035354
 20
120.2304697858
 11
97.9823034162
 21
120.0602570401
  0
LINE
  5
2F0
100
AcDbEntity
  8
0
100
AcDbLine
 62
7
  6
CONTINUOUS
 10
98.0656367893
 20
119.6347251238
 11
98.4823035354
 21
119.8900442646
  0
LINE
  5
2F1
100
AcDbEntity
  8
0
100
AcDbLine
 62
7
  6
CONTINUOUS
 10
119.1605369626
 20
136.0288148138
 11
116.100090749
 21
128.640244058
  0
LINE
  5
2F2
100
AcDbEntity
  8
0
100
AcDbLine
 62
7
  6
CONTINUOUS
 10
113.1144634647
 20
121.4323021758
 11
112.0239702815
 21
118.7996187435
  0
LINE
  5
2F3
100
AcDbEntity
  8
BEZUGSACHSEN
100
AcDbLine
 62
7
  6
CONTINUOUS
 10
112.0239702815
 20
118.7996187435
 11
113.1144634647
 21
121.4323021758
  0
LINE
  5
2F4
100
AcDbEntity
  8
BEZUGSACHSEN
100
AcDbLine
 62
7
  6
CONTINUOUS
 10
116.100090749
 20
128.640244058
 11
119.1605369626
 21
136.0288148138
  0
LINE
  5
2F5
100
AcDbEntity
  8
BEZUGSACHSEN
100
AcDbLine
 62
7
  6
CONTINUOUS
 10
151.4148771358
 20
118.7996187435
 11
151.1042169641
 21
119.5496187435
  0
LINE
  5
2F6
100
AcDbEntity
  8
BEZUGSACHSEN
100
AcDbLine
 62
7
  6
CONTINUOUS
 10
149.4473627146
 20
123.5496187435
 11
148.8475456706
 21
124.997705186
  0
LINE
  5
2F7
100
AcDbEntity
  8
0
100
AcDbLine
 62
7
  6
CONTINUOUS
 10
156.4171160825
 20
118.5996187435
 11
169.4126381892
 21
118.5996187435
  0
LINE
  5
2F8
100
AcDbEntity
  8
BEZUGSACHSEN
100
AcDbLine
 62
7
  6
CONTINUOUS
 10
151.4151905921
 20
118.7996187435
 11
174.4145636796
 21
118.7996187435
  0
LINE
  5
2F9
100
AcDbEntity
  8
0
100
AcDbLine
 62
7
  6
CONTINUOUS
 10
151.6494131393
 20
120.2304697858
 11
151.5230035415
 21
120.5708953367
  0
LINE
  5
2FA
100
AcDbEntity
  8
0
100
AcDbLine
 62
7
  6
CONTINUOUS
 10
174.4869759832
 20
119.0389804469
 11
175.0293804706
 21
119.0389804469
  0
LINE
  5
2FB
100
AcDbEntity
  8
0
100
AcDbLine
 62
7
  6
CONTINUOUS
 10
150.6745671839
 20
119.5496187435
 11
152.229456249
 21
119.5496187435
  0
LINE
  5
2FC
100
AcDbEntity
  8
0
100
AcDbLine
 62
7
  6
CONTINUOUS
 10
152.8472837845
 20
119.5496187435
 11
153.8169672913
 21
119.5496187435
  0
LINE
  5
2FD
100
AcDbEntity
  8
0
100
AcDbLine
 62
7
  6
CONTINUOUS
 10
174.349034588
 20
119.5496187435
 11
174.9072337145
 21
119.5496187435
  0
LINE
  5
2FE
100
AcDbEntity
  8
0
100
AcDbLine
 62
7
  6
CONTINUOUS
 10
154.0934913326
 20
119.6347251238
 11
153.3790675801
 21
119.6347251238
  0
LINE
  5
2FF
100
AcDbEntity
  8
0
100
AcDbLine
 62
7
  6
CONTINUOUS
 10
152.3113854354
 20
119.6347251238
 11
151.710018697
 21
119.6347251238
  0
LINE
  5
300
100
AcDbEntity
  8
0
100
AcDbLine
 62
7
  6
CONTINUOUS
 10
150.8888027722
 20
119.6347251238
 11
150.5942093808
 21
119.6347251238
  0
LINE
  5
301
100
AcDbEntity
  8
0
100
AcDbLine
 62
7
  6
CONTINUOUS
 10
174.2447301701
 20
119.6347251238
 11
174.8094299299
 21
119.6347251238
  0
LINE
  5
302
100
AcDbEntity
  8
0
100
AcDbLine
 62
7
  6
CONTINUOUS
 10
154.2271508758
 20
119.8049378918
 11
153.4985234139
 21
119.8049378918
  0
LINE
  5
303
100
AcDbEntity
  8
0
100
AcDbLine
 62
7
  6
CONTINUOUS
 10
152.2874560073
 20
119.8049378918
 11
151.7218038027
 21
119.8049378918
  0
LINE
  5
304
100
AcDbEntity
  8
0
100
AcDbLine
 62
7
  6
CONTINUOUS
 10
152.9473323405
 20
119.8900442646
 11
152.6747715736
 21
119.8900442646
  0
LINE
  5
305
100
AcDbEntity
  8
0
100
AcDbLine
 62
7
  6
CONTINUOUS
 10
150.7799264079
 20
119.8900442646
 11
150.4596291505
 21
119.8900442646
  0
LINE
  5
306
100
AcDbEntity
  8
0
100
AcDbLine
 62
7
  6
CONTINUOUS
 10
174.2209271289
 20
119.8900442646
 11
174.791579246
 21
119.8900442646
  0
LINE
  5
307
100
AcDbEntity
  8
0
100
AcDbLine
 62
7
  6
CONTINUOUS
 10
153.0304992274
 20
119.9751506673
 11
152.3807245862
 21
119.9751506673
  0
LINE
  5
308
100
AcDbEntity
  8
0
100
AcDbLine
 62
7
  6
CONTINUOUS
 10
151.3874128295
 20
119.9751506673
 11
151.2841822773
 21
119.9751506673
  0
LINE
  5
309
100
AcDbEntity
  8
0
100
AcDbLine
 62
7
  6
CONTINUOUS
 10
175.2889883955
 20
119.9751506673
 11
175.4395988935
 21
119.9751506673
  0
LINE
  5
30A
100
AcDbEntity
  8
0
100
AcDbLine
 62
7
  6
CONTINUOUS
 10
154.1997437654
 20
120.0602570401
 11
153.4671710815
 21
120.0602570401
  0
LINE
  5
30B
100
AcDbEntity
  8
0
100
AcDbLine
 62
7
  6
CONTINUOUS
 10
152.9035335379
 20
120.0602570401
 11
152.2597093446
 21
120.0602570401
  0
LINE
  5
30C
100
AcDbEntity
  8
0
100
AcDbLine
 62
7
  6
CONTINUOUS
 10
151.4583790447
 20
120.0602570401
 11
151.149537258
 21
120.0602570401
  0
LINE
  5
30D
100
AcDbEntity
  8
0
100
AcDbLine
 62
7
  6
CONTINUOUS
 10
175.0164319696
 20
120.0602570401
 11
175.2184613594
 21
120.0602570401
  0
LINE
  5
30E
100
AcDbEntity
  8
0
100
AcDbLine
 62
7
  6
CONTINUOUS
 10
150.6710500404
 20
120.1453634129
 11
150.3405016378
 21
120.1453634129
  0
LINE
  5
30F
100
AcDbEntity
  8
0
100
AcDbLine
 62
7
  6
CONTINUOUS
 10
174.2447442192
 20
120.1453634129
 11
174.8190631589
 21
120.1453634129
  0
LINE
  5
310
100
AcDbEntity
  8
0
100
AcDbLine
 62
7
  6
CONTINUOUS
 10
154.1027404221
 20
120.2304697858
 11
153.3736158498
 21
120.2304697858
  0
LINE
  5
311
100
AcDbEntity
  8
0
100
AcDbLine
 62
7
  6
CONTINUOUS
 10
152.7780474161
 20
120.2304697858
 11
151.6494131393
 21
120.2304697858
  0
LINE
  5
312
100
AcDbEntity
  8
0
100
AcDbLine
 62
7
  6
CONTINUOUS
 10
151.4667717895
 20
120.2304697858
 11
151.0061859016
 21
120.2304697858
  0
LINE
  5
313
100
AcDbEntity
  8
0
100
AcDbLine
 62
7
  6
CONTINUOUS
 10
175.0175275127
 20
120.2304697858
 11
175.3391693074
 21
120.2304697858
  0
LINE
  5
314
100
AcDbEntity
  8
0
100
AcDbLine
 62
7
  6
CONTINUOUS
 10
151.3851191464
 20
120.4857889639
 11
150.8509058744
 21
120.4857889639
  0
LINE
  5
315
100
AcDbEntity
  8
0
100
AcDbLine
 62
7
  6
CONTINUOUS
 10
150.5260282651
 20
120.4857889639
 11
150.192160223
 21
120.4857889639
  0
LINE
  5
316
100
AcDbEntity
  8
0
100
AcDbLine
 62
7
  6
CONTINUOUS
 10
174.3334322962
 20
120.4857889639
 11
174.909867157
 21
120.4857889639
  0
LINE
  5
317
100
AcDbEntity
  8
0
100
AcDbLine
 62
7
  6
CONTINUOUS
 10
153.7968351299
 20
120.5708953367
 11
153.0826225418
 21
120.5708953367
  0
LINE
  5
318
100
AcDbEntity
  8
0
100
AcDbLine
 62
7
  6
CONTINUOUS
 10
152.1334002606
 20
120.5708953367
 11
151.5230035415
 21
120.5708953367
  0
LINE
  5
319
100
AcDbEntity
  8
0
100
AcDbLine
 62
7
  6
CONTINUOUS
 10
150.4172835605
 20
120.7411080824
 11
150.0832195679
 21
120.7411080824
  0
LINE
  5
31A
100
AcDbEntity
  8
0
100
AcDbLine
 62
7
  6
CONTINUOUS
 10
174.4149856177
 20
120.7411080824
 11
174.9922671236
 21
120.7411080824
  0
LINE
  5
31B
100
AcDbEntity
  8
0
100
AcDbLine
 62
7
  6
CONTINUOUS
 10
175.135170555
 20
120.7411080824
 11
175.6101087296
 21
120.7411080824
  0
LINE
  5
31C
100
AcDbEntity
  8
0
100
AcDbLine
 62
7
  6
CONTINUOUS
 10
153.4410673789
 20
120.8262144552
 11
152.7461957143
 21
120.8262144552
  0
LINE
  5
31D
100
AcDbEntity
  8
0
100
AcDbLine
 62
7
  6
CONTINUOUS
 10
150.2362010442
 20
121.1666400657
 11
149.9040700557
 21
121.1666400657
  0
LINE
  5
31E
100
AcDbEntity
  8
0
100
AcDbLine
 62
7
  6
CONTINUOUS
 10
174.5718472797
 20
121.1666400657
 11
175.1495242667
 21
121.1666400657
  0
LINE
  5
31F
100
AcDbEntity
  8
0
100
AcDbLine
 62
7
  6
CONTINUOUS
 10
152.4360434193
 20
121.2517464386
 11
151.7952660697
 21
121.2517464386
  0
LINE
  5
320
100
AcDbEntity
  8
0
100
AcDbLine
 62
7
  6
CONTINUOUS
 10
151.5375922041
 20
121.2517464386
 11
151.2076227297
 21
121.2517464386
  0
LINE
  5
321
100
AcDbEntity
  8
0
100
AcDbLine
 62
7
  6
CONTINUOUS
 10
175.3304956756
 20
121.2517464386
 11
175.836449356
 21
121.2517464386
  0
LINE
  5
322
100
AcDbEntity
  8
0
100
AcDbLine
 62
7
  6
CONTINUOUS
 10
151.0005483097
 20
121.3368528114
 11
150.479215535
 21
121.3368528114
  0
LINE
  5
323
100
AcDbEntity
  8
0
100
AcDbLine
 62
7
  6
CONTINUOUS
 10
152.2327892388
 20
121.4219591842
 11
151.6001473783
 21
121.4219591842
  0
LINE
  5
324
100
AcDbEntity
  8
0
100
AcDbLine
 62
7
  6
CONTINUOUS
 10
152.1114123226
 20
121.5921719299
 11
151.4821489812
 21
121.5921719299
  0
LINE
  5
325
100
AcDbEntity
  8
0
100
AcDbLine
 62
7
  6
CONTINUOUS
 10
151.3075207319
 20
121.5921719299
 11
151.0203102297
 21
121.5921719299
  0
LINE
  5
326
100
AcDbEntity
  8
0
100
AcDbLine
 62
7
  6
CONTINUOUS
 10
150.8379833651
 20
121.5921719299
 11
150.4093995465
 21
121.5921719299
  0
LINE
  5
327
100
AcDbEntity
  8
0
100
AcDbLine
 62
7
  6
CONTINUOUS
 10
152.3942378918
 20
121.5921719299
 11
153.3433940394
 21
121.5921719299
  0
LINE
  5
328
100
AcDbEntity
  8
0
100
AcDbLine
 62
7
  6
CONTINUOUS
 10
152.0670008837
 20
121.7623846756
 11
151.4368479621
 21
121.7623846756
  0
LINE
  5
329
100
AcDbEntity
  8
0
100
AcDbLine
 62
7
  6
CONTINUOUS
 10
151.2274173743
 20
121.7623846756
 11
150.9124756472
 21
121.7623846756
  0
LINE
  5
32A
100
AcDbEntity
  8
0
100
AcDbLine
 62
7
  6
CONTINUOUS
 10
150.6893359586
 20
121.7623846756
 11
150.399455629
 21
121.7623846756
  0
LINE
  5
32B
100
AcDbEntity
  8
0
100
AcDbLine
 62
7
  6
CONTINUOUS
 10
152.1030647598
 20
121.8474910484
 11
151.4692588429
 21
121.8474910484
  0
LINE
  5
32C
100
AcDbEntity
  8
0
100
AcDbLine
 62
7
  6
CONTINUOUS
 10
150.4526593933
 20
121.8474910484
 11
150.5992748875
 21
121.8474910484
  0
LINE
  5
32D
100
AcDbEntity
  8
0
100
AcDbLine
 62
7
  6
CONTINUOUS
 10
175.5897523658
 20
121.8474910484
 11
176.0857505697
 21
121.8474910484
  0
LINE
  5
32E
100
AcDbEntity
  8
0
100
AcDbLine
 62
7
  6
CONTINUOUS
 10
153.0529659305
 20
121.9325974212
 11
152.3601464147
 21
121.9325974212
  0
LINE
  5
32F
100
AcDbEntity
  8
0
100
AcDbLine
 62
7
  6
CONTINUOUS
 10
149.9105580827
 20
121.9325974212
 11
149.586542059
 21
121.9325974212
  0
LINE
  5
330
100
AcDbEntity
  8
0
100
AcDbLine
 62
7
  6
CONTINUOUS
 10
151.5796102009
 20
121.9325974212
 11
151.8209952849
 21
121.9325974212
  0
LINE
  5
331
100
AcDbEntity
  8
0
100
AcDbLine
 62
7
  6
CONTINUOUS
 10
174.9109163776
 20
121.9325974212
 11
175.4866711789
 21
121.9325974212
  0
LINE
  5
332
100
AcDbEntity
  8
0
100
AcDbLine
 62
7
  6
CONTINUOUS
 10
151.1748432178
 20
122.0177037941
 11
150.7099105507
 21
122.0177037941
  0
LINE
  5
333
100
AcDbEntity
  8
0
100
AcDbLine
 62
7
  6
CONTINUOUS
 10
152.8109030218
 20
122.1028101669
 11
152.1300890381
 21
122.1028101669
  0
LINE
  5
334
100
AcDbEntity
  8
0
100
AcDbLine
 62
7
  6
CONTINUOUS
 10
152.621581876
 20
122.1879165397
 11
151.9507791135
 21
122.1879165397
  0
LINE
  5
335
100
AcDbEntity
  8
0
100
AcDbLine
 62
7
  6
CONTINUOUS
 10
151.1416803034
 20
122.1879165397
 11
150.5509100624
 21
122.1879165397
  0
LINE
  5
336
100
AcDbEntity
  8
0
100
AcDbLine
 62
7
  6
CONTINUOUS
 10
152.305530578
 20
122.2730229126
 11
151.4140088553
 21
122.2730229126
  0
LINE
  5
337
100
AcDbEntity
  8
0
100
AcDbLine
 62
7
  6
CONTINUOUS
 10
150.9944204043
 20
122.2730229126
 11
150.2646686052
 21
122.2730229126
  0
LINE
  5
338
100
AcDbEntity
  8
0
100
AcDbLine
 62
7
  6
CONTINUOUS
 10
176.3082633663
 20
122.2730229126
 11
176.3715372657
 21
122.2730229126
  0
LINE
  5
339
100
AcDbEntity
  8
0
100
AcDbLine
 62
7
  6
CONTINUOUS
 10
149.7298132518
 20
122.3581292854
 11
149.4127463545
 21
122.3581292854
  0
LINE
  5
33A
100
AcDbEntity
  8
0
100
AcDbLine
 62
7
  6
CONTINUOUS
 10
175.1289516826
 20
122.3581292854
 11
175.7023494668
 21
122.3581292854
  0
LINE
  5
33B
100
AcDbEntity
  8
0
100
AcDbLine
 62
7
  6
CONTINUOUS
 10
175.8374028544
 20
122.3581292854
 11
176.2874238236
 21
122.3581292854
  0
LINE
  5
33C
100
AcDbEntity
  8
0
100
AcDbLine
 62
7
  6
CONTINUOUS
 10
149.6214351306
 20
122.6134486423
 11
149.3097590528
 21
122.6134486423
  0
LINE
  5
33D
100
AcDbEntity
  8
0
100
AcDbLine
 62
7
  6
CONTINUOUS
 10
175.2704910892
 20
122.6134486423
 11
175.8420383871
 21
122.6134486423
  0
LINE
  5
33E
100
AcDbEntity
  8
0
100
AcDbLine
 62
7
  6
CONTINUOUS
 10
176.1542679532
 20
122.8687677608
 11
176.4489215808
 21
122.8687677608
  0
LINE
  5
33F
100
AcDbEntity
  8
0
100
AcDbLine
 62
7
  6
CONTINUOUS
 10
149.4769692161
 20
122.9538741337
 11
149.175125358
 21
122.9538741337
  0
LINE
  5
340
100
AcDbEntity
  8
0
100
AcDbLine
 62
7
  6
CONTINUOUS
 10
175.4756325226
 20
122.9538741337
 11
176.044062359
 21
122.9538741337
  0
LINE
  5
341
100
AcDbEntity
  8
0
100
AcDbLine
 62
7
  6
CONTINUOUS
 10
176.559695241
 20
122.9538741337
 11
176.6540326773
 21
122.9538741337
  0
LINE
  5
342
100
AcDbEntity
  8
0
100
AcDbLine
 62
7
  6
CONTINUOUS
 10
176.2929198112
 20
123.0389805065
 11
176.4759457211
 21
123.0389805065
  0
LINE
  5
343
100
AcDbEntity
  8
0
100
AcDbLine
 62
7
  6
CONTINUOUS
 10
149.3687044315
 20
123.2091932521
 11
149.0810536416
 21
123.2091932521
  0
LINE
  5
344
100
AcDbEntity
  8
0
100
AcDbLine
 62
7
  6
CONTINUOUS
 10
175.6655682626
 20
123.2091932521
 11
176.2301887398
 21
123.2091932521
  0
LINE
  5
345
100
AcDbEntity
  8
0
100
AcDbLine
 62
7
  6
CONTINUOUS
 10
149.2604396469
 20
123.4645123706
 11
149.0002828447
 21
123.4645123706
  0
LINE
  5
346
100
AcDbEntity
  8
0
100
AcDbLine
 62
7
  6
CONTINUOUS
 10
175.8943069178
 20
123.4645123706
 11
176.4536166093
 21
123.4645123706
  0
LINE
  5
347
100
AcDbEntity
  8
0
100
AcDbLine
 62
7
  6
CONTINUOUS
 10
150.0846332731
 20
123.5496187435
 11
149.0044204636
 21
123.5496187435
  0
LINE
  5
348
100
AcDbEntity
  8
0
100
AcDbLine
 62
7
  6
CONTINUOUS
 10
176.0534542139
 20
123.5496187435
 11
176.8639118016
 21
123.5496187435
  0
LINE
  5
349
100
AcDbEntity
  8
0
100
AcDbLine
 62
7
  6
CONTINUOUS
 10
156.4148771358
 20
118.7996187435
 11
156.4148771358
 21
118.5996187435
  0
LINE
  5
34A
100
AcDbEntity
  8
0
100
AcDbLine
 62
7
  6
CONTINUOUS
 10
157.7187247131
 20
129.0836518983
 11
157.7187247131
 21
129.5996187435
  0
LINE
  5
34B
100
AcDbEntity
  8
0
100
AcDbLine
 62
7
  6
CONTINUOUS
 10
157.7187247131
 20
129.5996187435
 11
158.2242975896
 21
129.5996187435
  0
LINE
  5
34C
100
AcDbEntity
  8
0
100
AcDbLine
 62
7
  6
CONTINUOUS
 10
167.605272377
 20
129.5996187435
 11
168.1110295586
 21
129.5996187435
  0
LINE
  5
34D
100
AcDbEntity
  8
RUNDUNGEN
100
AcDbLine
 62
7
  6
CONTINUOUS
 10
176.3171476615
 20
126.3463133529
 11
170.1208183253
 21
128.0066147946
  0
LINE
  5
34E
100
AcDbEntity
  8
BEZUGSACHSEN
100
AcDbLine
 62
7
  6
CONTINUOUS
 10
159.1916299875
 20
125.3524828846
 11
159.1915253577
 21
125.3533547675
  0
LINE
  5
34F
100
AcDbEntity
  8
BEZUGSACHSEN
100
AcDbLine
 62
7
  6
CONTINUOUS
 10
159.4148771358
 20
132.8362611849
 11
159.4148771358
 21
153.9672265432
  0
LINE
  5
350
100
AcDbEntity
  8
BEZUGSACHSEN
100
AcDbLine
 62
7
  6
CONTINUOUS
 10
149.5126066102
 20
126.3463133529
 11
155.7089359464
 21
128.0066147946
  0
LINE
  5
351
100
AcDbEntity
  8
RUNDUNGEN
100
AcDbLine
 62
7
  6
CONTINUOUS
 10
166.4148771358
 20
132.8362611849
 11
166.4148771358
 21
153.9672265432
  0
LINE
  5
352
100
AcDbEntity
  8
0
100
AcDbLine
 62
7
  6
CONTINUOUS
 10
166.9148771358
 20
151.2996187435
 11
166.9148771358
 21
149.2996187435
  0
LINE
  5
353
100
AcDbEntity
  8
0
100
AcDbLine
 62
7
  6
CONTINUOUS
 10
168.1110295586
 20
129.0836518983
 11
168.1110295586
 21
129.5996187435
  0
LINE
  5
354
100
AcDbEntity
  8
0
100
AcDbLine
 62
7
  6
CONTINUOUS
 10
169.4148771358
 20
118.7996187435
 11
169.4148771358
 21
118.5996187435
  0
LINE
  5
355
100
AcDbEntity
  8
RUNDUNGEN
100
AcDbLine
 62
7
  6
CONTINUOUS
 10
166.6381242842
 20
125.3524828846
 11
166.638228914
 21
125.3533547675
  0
LINE
  5
356
100
AcDbEntity
  8
0
100
AcDbLine
 62
7
  6
CONTINUOUS
 10
166.4148771358
 20
149.2996187435
 11
166.9148771358
 21
149.2996187435
  0
LINE
  5
357
100
AcDbEntity
  8
0
100
AcDbLine
 62
7
  6
CONTINUOUS
 10
166.4148771358
 20
151.2996187435
 11
166.9148771358
 21
151.2996187435
  0
LINE
  5
358
100
AcDbEntity
  8
RUNDUNGEN
100
AcDbLine
 62
7
  6
CONTINUOUS
 10
165.4148771358
 20
154.9672265432
 11
160.4148771358
 21
154.9672265432
  0
LINE
  5
359
100
AcDbEntity
  8
0
100
AcDbLine
 62
7
  6
CONTINUOUS
 10
176.9822086011
 20
124.997705186
 11
176.3823915571
 21
123.5496187435
  0
LINE
  5
35A
100
AcDbEntity
  8
0
100
AcDbLine
 62
7
  6
CONTINUOUS
 10
174.5100629094
 20
119.0294175289
 11
174.4148771358
 21
118.7996187435
  0
LWPOLYLINE
  5
35B
100
AcDbEntity
  8
RUNDUNGEN
100
AcDbPolyline
 62
7
  6
CONTINUOUS
 90
6
 70
0
 10
81.8112832256
 20
84.3030641858
 10
81.8126326654
 20
83.989704632
 10
81.8198671629
 20
83.5124836026
 10
81.8334227196
 20
83.0330912733
 10
81.8533724365
 20
82.5520816133
 10
81.8797413883
 20
82.0699866786
  0
LWPOLYLINE
  5
35C
100
AcDbEntity
  8
BEZUGSACHSEN
100
AcDbPolyline
 62
7
  6
CONTINUOUS
 90
7
 70
0
 10
81.9019797086
 20
86.8734460109
 10
81.8797413883
 20
86.536141693
 10
81.8533724365
 20
86.0540467583
 10
81.8334227196
 20
85.5730370983
 10
81.8198671629
 20
85.093644769
 10
81.8126326654
 20
84.6164237396
 10
81.8112832256
 20
84.3030641858
  0
LWPOLYLINE
  5
35D
100
AcDbEntity
  8
BEZUGSACHSEN
100
AcDbPolyline
 62
7
  6
CONTINUOUS
 90
12
 70
0
 10
86.6182518839
 20
90.1930459452
 10
86.2783273559
 20
89.7017751142
 10
85.9677654045
 20
89.2664767278
 10
85.6852365046
 20
88.8904655317
 10
85.4297286855
 20
88.5748949864
 10
85.2013104914
 20
88.3195407366
 10
85.0025773265
 20
88.1238871669
 10
84.8312859604
 20
87.9802754603
 10
84.68904484
 20
87.8835492657
 10
84.5795468456
 20
87.8279809135
 10
84.5100931446
 20
87.8059594331
 10
84.4859186084
 20
87.8030649615
  0
LWPOLYLINE
  5
35E
100
AcDbEntity
  8
BEZUGSACHSEN
100
AcDbPolyline
 62
7
  6
CONTINUOUS
 90
3
 70
0
 10
87.748335963
 20
91.828574487
 10
87.3994533574
 20
91.3310890416
 10
86.6182518839
 20
90.1930459452
  0
LINE
  5
35F
100
AcDbEntity
  8
BEZUGSACHSEN
100
AcDbLine
 62
7
  6
CONTINUOUS
 10
87.748335963
 20
91.828574487
 11
87.7483878195
 21
91.8286477441
  0
LINE
  5
360
100
AcDbEntity
  8
RUNDUNGEN
100
AcDbLine
 62
7
  6
CONTINUOUS
 10
81.8797413883
 20
82.0699866786
 11
81.9019797086
 21
81.7326823608
  0
LINE
  5
361
100
AcDbEntity
  8
0
100
AcDbLine
 62
7
  6
CONTINUOUS
 10
100.5239702815
 20
89.4992166086
 11
97.586148108
 21
87.8030641858
  0
LWPOLYLINE
  5
362
100
AcDbEntity
  8
RUNDUNGEN
100
AcDbPolyline
 62
7
  6
CONTINUOUS
 90
25
 70
0
 10
87.7483920645
 20
76.7774836382
 10
88.4395701817
 20
75.8739023852
 10
89.2910246724
 20
74.9215477997
 10
90.2112702764
 20
74.0463946485
 10
91.1944308424
 20
73.2518709344
 10
92.2344620815
 20
72.5414899535
 10
93.3246496619
 20
71.9186133509
 10
94.4583675683
 20
71.3863631145
 10
95.628539106
 20
70.947273466
 10
96.82810841
 20
70.6036338196
 10
98.0498026247
 20
70.3570214189
 10
99.2863283254
 20
70.2088139484
 10
100.5302576347
 20
70.1596139759
 10
101.7741617802
 20
70.2098176582
 10
103.0106038165
 20
70.359028399
 10
104.2321531976
 20
70.6066422619
 10
105.4315092665
 20
70.95127735
 10
106.6013944691
 20
71.3913519563
 10
107.734747418
 20
71.9245686622
 10
108.8244867199
 20
72.5483845899
 10
109.8639852591
 20
73.2596672929
 10
110.8465283227
 20
74.0550466249
 10
111.7660760353
 20
74.931000213
 10
112.6167498656
 20
75.8840844094
 10
113.2995483754
 20
76.7774835517
  0
LINE
  5
363
100
AcDbEntity
  8
RUNDUNGEN
100
AcDbLine
 62
7
  6
CONTINUOUS
 10
87.7483361494
 20
76.7775536207
 11
87.7483878195
 21
76.7774806276
  0
LINE
  5
364
100
AcDbEntity
  8
RUNDUNGEN
100
AcDbLine
 62
7
  6
CONTINUOUS
 10
87.3982068494
 20
77.2768349216
 11
87.7483361494
 21
76.7775536207
  0
LINE
  5
365
100
AcDbEntity
  8
0
100
AcDbLine
 62
7
  6
CONTINUOUS
 10
97.8156372661
 20
80.8030641858
 11
97.8156372661
 21
80.3030641858
  0
LINE
  5
366
100
AcDbEntity
  8
0
100
AcDbLine
 62
7
  6
CONTINUOUS
 10
100.5239702815
 20
79.1069117631
 11
102.5731697124
 21
80.2900176062
  0
LINE
  5
367
100
AcDbEntity
  8
0
100
AcDbLine
 62
7
  6
CONTINUOUS
 10
103.2323037738
 20
80.670568834
 11
103.4617924551
 21
80.8030641858
  0
LINE
  5
368
100
AcDbEntity
  8
0
100
AcDbLine
 62
7
  6
CONTINUOUS
 10
98.8156372661
 20
80.8030641858
 11
98.8156372661
 21
80.3030641858
  0
LINE
  5
369
100
AcDbEntity
  8
0
100
AcDbLine
 62
7
  6
CONTINUOUS
 10
99.0239706392
 20
80.8030641858
 11
99.0239706392
 21
80.3030641858
  0
LINE
  5
36A
100
AcDbEntity
  8
0
100
AcDbLine
 62
7
  6
CONTINUOUS
 10
99.1906372661
 20
80.8030641858
 11
99.1906372661
 21
80.3030641858
  0
LINE
  5
36B
100
AcDbEntity
  8
0
100
AcDbLine
 62
7
  6
CONTINUOUS
 10
99.3156372661
 20
80.8030641858
 11
99.3156372661
 21
80.3030641858
  0
LINE
  5
36C
100
AcDbEntity
  8
0
100
AcDbLine
 62
7
  6
CONTINUOUS
 10
99.357303893
 20
80.8030641858
 11
99.357303893
 21
80.3030641858
  0
LINE
  5
36D
100
AcDbEntity
  8
0
100
AcDbLine
 62
7
  6
CONTINUOUS
 10
99.3989706392
 20
80.8030641858
 11
99.3989706392
 21
80.3030641858
  0
LINE
  5
36E
100
AcDbEntity
  8
0
100
AcDbLine
 62
7
  6
CONTINUOUS
 10
99.732303893
 20
80.8030641858
 11
99.732303893
 21
80.3030641858
  0
LINE
  5
36F
100
AcDbEntity
  8
0
100
AcDbLine
 62
7
  6
CONTINUOUS
 10
99.9823040122
 20
80.8030641858
 11
99.9823040122
 21
80.3030641858
  0
LINE
  5
370
100
AcDbEntity
  8
0
100
AcDbLine
 62
7
  6
CONTINUOUS
 10
100.02397052
 20
80.8030641858
 11
100.02397052
 21
80.3030641858
  0
LINE
  5
371
100
AcDbEntity
  8
0
100
AcDbLine
 62
7
  6
CONTINUOUS
 10
100.1073040122
 20
80.8030641858
 11
100.1073040122
 21
80.3030641858
  0
LINE
  5
372
100
AcDbEntity
  8
0
100
AcDbLine
 62
7
  6
CONTINUOUS
 10
100.2323040122
 20
80.8030641858
 11
100.2323040122
 21
80.3030641858
  0
LINE
  5
373
100
AcDbEntity
  8
0
100
AcDbLine
 62
7
  6
CONTINUOUS
 10
100.39897052
 20
80.8030641858
 11
100.39897052
 21
80.3030641858
  0
LINE
  5
374
100
AcDbEntity
  8
0
100
AcDbLine
 62
7
  6
CONTINUOUS
 10
100.5656372661
 20
80.8030641858
 11
100.5656372661
 21
80.3030641858
  0
LINE
  5
375
100
AcDbEntity
  8
0
100
AcDbLine
 62
7
  6
CONTINUOUS
 10
100.7323040122
 20
80.8030641858
 11
100.7323040122
 21
80.3030641858
  0
LINE
  5
376
100
AcDbEntity
  8
0
100
AcDbLine
 62
7
  6
CONTINUOUS
 10
100.8573040122
 20
80.8030641858
 11
100.8573040122
 21
80.3030641858
  0
LINE
  5
377
100
AcDbEntity
  8
0
100
AcDbLine
 62
7
  6
CONTINUOUS
 10
100.9406372661
 20
80.8030641858
 11
100.9406372661
 21
80.3030641858
  0
LINE
  5
378
100
AcDbEntity
  8
0
100
AcDbLine
 62
7
  6
CONTINUOUS
 10
100.9823040122
 20
80.8030641858
 11
100.9823040122
 21
80.3030641858
  0
LINE
  5
379
100
AcDbEntity
  8
0
100
AcDbLine
 62
7
  6
CONTINUOUS
 10
101.2323040122
 20
80.8030641858
 11
101.2323040122
 21
80.3030641858
  0
LINE
  5
37A
100
AcDbEntity
  8
0
100
AcDbLine
 62
7
  6
CONTINUOUS
 10
101.5656372661
 20
80.8030641858
 11
101.5656372661
 21
80.3030641858
  0
LINE
  5
37B
100
AcDbEntity
  8
0
100
AcDbLine
 62
7
  6
CONTINUOUS
 10
102.5656372661
 20
80.8030641858
 11
102.5656372661
 21
80.3030641858
  0
LINE
  5
37C
100
AcDbEntity
  8
0
100
AcDbLine
 62
7
  6
CONTINUOUS
 10
102.7739707584
 20
80.8030641858
 11
102.7739707584
 21
80.3030641858
  0
LINE
  5
37D
100
AcDbEntity
  8
0
100
AcDbLine
 62
7
  6
CONTINUOUS
 10
102.9406372661
 20
80.8030641858
 11
102.9406372661
 21
80.3030641858
  0
LINE
  5
37E
100
AcDbEntity
  8
0
100
AcDbLine
 62
7
  6
CONTINUOUS
 10
103.1073037738
 20
80.8030641858
 11
103.1073037738
 21
80.3030641858
  0
LINE
  5
37F
100
AcDbEntity
  8
0
100
AcDbLine
 62
7
  6
CONTINUOUS
 10
103.1906372661
 20
80.8030641858
 11
103.1906372661
 21
80.3030641858
  0
LINE
  5
380
100
AcDbEntity
  8
0
100
AcDbLine
 62
7
  6
CONTINUOUS
 10
103.2323037738
 20
80.8030641858
 11
103.2323037738
 21
80.3030641858
  0
LINE
  5
381
100
AcDbEntity
  8
0
100
AcDbLine
 62
7
  6
CONTINUOUS
 10
103.2323037738
 20
80.3030641858
 11
101.5656372661
 21
80.3030641858
  0
LINE
  5
382
100
AcDbEntity
  8
0
100
AcDbLine
 62
7
  6
CONTINUOUS
 10
101.2323040122
 20
80.3030641858
 11
99.732303893
 21
80.3030641858
  0
LINE
  5
383
100
AcDbEntity
  8
0
100
AcDbLine
 62
7
  6
CONTINUOUS
 10
99.3989706392
 20
80.3030641858
 11
97.8156372661
 21
80.3030641858
  0
LINE
  5
384
100
AcDbEntity
  8
RUNDUNGEN
100
AcDbLine
 62
7
  6
CONTINUOUS
 10
82.8994984112
 20
80.8030641858
 11
118.1484428154
 21
80.8030641858
  0
LWPOLYLINE
  5
385
100
AcDbEntity
  8
RUNDUNGEN
100
AcDbPolyline
 62
7
  6
CONTINUOUS
 90
13
 70
0
 10
84.4859126198
 20
80.8030634105
 10
84.5100703515
 20
80.8001733546
 10
84.579525318
 20
80.7781562519
 10
84.6890513851
 20
80.7225752246
 10
84.8313932611
 20
80.625771477
 10
85.00292173
 20
80.4819271474
 10
85.2019525292
 20
80.2859121405
 10
85.4307156027
 20
80.0300699568
 10
85.6864370929
 20
79.714118526
 10
85.9688131879
 20
79.3382159265
 10
86.2788985975
 20
78.903537666
 10
86.6177100639
 20
78.4138722082
 10
87.3982068494
 20
77.2768349216
  0
LINE
  5
386
100
AcDbEntity
  8
0
100
AcDbLine
 62
7
  6
CONTINUOUS
 10
97.586148108
 20
80.8030641858
 11
97.8156372661
 21
80.6705685587
  0
LINE
  5
387
100
AcDbEntity
  8
0
100
AcDbLine
 62
7
  6
CONTINUOUS
 10
98.4521735118
 20
80.3030641858
 11
100.5239702815
 21
79.1069117631
  0
LWPOLYLINE
  5
388
100
AcDbEntity
  8
RUNDUNGEN
100
AcDbPolyline
 62
7
  6
CONTINUOUS
 90
12
 70
0
 10
114.4364602978
 20
78.4229478895
 10
114.7748501467
 20
78.9118257113
 10
115.084604859
 20
79.3457178107
 10
115.3666962093
 20
79.720794171
 10
115.6221406669
 20
80.0358601205
 10
115.8505841269
 20
80.2907424016
 10
116.0492011647
 20
80.4857356284
 10
116.2201846243
 20
80.6285270419
 10
116.3617851994
 20
80.7242873155
 10
116.4704132377
 20
80.7789688627
 10
116.5389050979
 20
80.8003751212
 10
116.562061984
 20
80.8030635787
  0
LWPOLYLINE
  5
389
100
AcDbEntity
  8
RUNDUNGEN
100
AcDbPolyline
 62
7
  6
CONTINUOUS
 90
3
 70
0
 10
113.299602828
 20
76.7775485878
 10
113.6571093976
 20
77.2874632406
 10
114.4364602978
 20
78.4229478895
  0
LINE
  5
38A
100
AcDbEntity
  8
RUNDUNGEN
100
AcDbLine
 62
7
  6
CONTINUOUS
 10
113.2995972304
 20
76.7775525565
 11
113.2995483754
 21
76.7774835517
  0
LINE
  5
38B
100
AcDbEntity
  8
BEZUGSACHSEN
100
AcDbLine
 62
7
  6
CONTINUOUS
 10
82.8994984112
 20
87.8030641858
 11
118.1484428154
 21
87.8030641858
  0
LINE
  5
38C
100
AcDbEntity
  8
0
100
AcDbLine
 62
7
  6
CONTINUOUS
 10
103.4617924551
 20
87.8030641858
 11
100.5239702815
 21
89.4992166086
  0
LWPOLYLINE
  5
38D
100
AcDbEntity
  8
BEZUGSACHSEN
100
AcDbPolyline
 62
7
  6
CONTINUOUS
 90
13
 70
0
 10
116.5620534146
 20
87.8030647931
 10
116.5388690668
 20
87.8057600768
 10
116.4703610896
 20
87.8271805859
 10
116.3617498449
 20
87.8818618662
 10
116.2202386202
 20
87.9775605497
 10
116.0494629688
 20
88.1201548773
 10
115.851103138
 20
88.3148414137
 10
115.6229428906
 20
88.5693244543
 10
115.3676699214
 20
88.8840835008
 10
115.0854518047
 20
89.2592511432
 10
114.7753095054
 20
89.6936471691
 10
114.4360270447
 20
90.1838119015
 10
113.6561115481
 20
91.3201031116
  0
LWPOLYLINE
  5
38E
100
AcDbEntity
  8
BEZUGSACHSEN
100
AcDbPolyline
 62
7
  6
CONTINUOUS
 90
6
 70
0
 10
119.2366559081
 20
84.3030641858
 10
119.2351918161
 20
84.6298173725
 10
119.2277820654
 20
85.1070593339
 10
119.214047809
 20
85.5864291984
 10
119.1939267872
 20
86.0673807914
 10
119.167387988
 20
86.5493737385
  0
LWPOLYLINE
  5
38F
100
AcDbEntity
  8
RUNDUNGEN
100
AcDbPolyline
 62
7
  6
CONTINUOUS
 90
7
 70
0
 10
119.145961797
 20
81.7326785291
 10
119.167387988
 20
82.0567546331
 10
119.1939267872
 20
82.5387475802
 10
119.2140478089
 20
83.0196991731
 10
119.2277820654
 20
83.4990690376
 10
119.2351918161
 20
83.976310999
 10
119.2366559081
 20
84.3030641858
  0
LINE
  5
390
100
AcDbEntity
  8
BEZUGSACHSEN
100
AcDbLine
 62
7
  6
CONTINUOUS
 10
119.167387988
 20
86.5493737385
 11
119.145961797
 21
86.8734498426
  0
LWPOLYLINE
  5
391
100
AcDbEntity
  8
BEZUGSACHSEN
100
AcDbPolyline
 62
7
  6
CONTINUOUS
 90
25
 70
0
 10
113.2995483754
 20
91.82864482
 10
112.6167498656
 20
92.7220439623
 10
111.7660760353
 20
93.6751281587
 10
110.8465283227
 20
94.5510817468
 10
109.8639852591
 20
95.3464610788
 10
108.8244867199
 20
96.0577437818
 10
107.734747418
 20
96.6815597095
 10
106.6013944691
 20
97.2147764154
 10
105.4315092665
 20
97.6548510217
 10
104.2321531976
 20
97.9994861098
 10
103.0106038165
 20
98.2470999727
 10
101.7741617802
 20
98.3963107135
 10
100.5302576347
 20
98.4465143958
 10
99.2863283254
 20
98.3973144233
 10
98.0498026247
 20
98.2491069528
 10
96.82810841
 20
98.0024945521
 10
95.628539106
 20
97.6588549057
 10
94.4583675683
 20
97.2197652571
 10
93.3246496619
 20
96.6875150208
 10
92.2344620815
 20
96.0646384182
 10
91.1944308424
 20
95.3542574373
 10
90.2112702764
 20
94.5597337231
 10
89.2910246724
 20
93.684580572
 10
88.4395701817
 20
92.7322259865
 10
87.7483920645
 20
91.8286447335
  0
LINE
  5
392
100
AcDbEntity
  8
BEZUGSACHSEN
100
AcDbLine
 62
7
  6
CONTINUOUS
 10
113.2995973744
 20
91.8285756114
 11
113.2995483754
 21
91.82864482
  0
LINE
  5
393
100
AcDbEntity
  8
BEZUGSACHSEN
100
AcDbLine
 62
7
  6
CONTINUOUS
 10
113.6561115481
 20
91.3201031116
 11
113.299602972
 21
91.8285795801
  0
ARC
  5
394
100
AcDbEntity
  8
0
100
AcDbCircle
 62
7
  6
CONTINUOUS
 10
102.879304673
 20
155.8536168395
 40
28.5488953035
100
AcDbArc
 50
256.6684845073
 51
257.0850351857
  0
ARC
  5
395
100
AcDbEntity
  8
0
100
AcDbCircle
 62
7
  6
CONTINUOUS
 10
99.2353116563
 20
151.2773295966
 40
23.8499743129
100
AcDbArc
 50
282.8744330209
 51
283.3726849274
  0
ARC
  5
396
100
AcDbEntity
  8
0
100
AcDbCircle
 62
7
  6
CONTINUOUS
 10
108.2168539045
 20
112.0372588319
 40
16.4048574579
100
AcDbArc
 50
102.9179905153
 51
105.4138763116
  0
ARC
  5
397
100
AcDbEntity
  8
0
100
AcDbCircle
 62
7
  6
CONTINUOUS
 10
92.9341178645
 20
112.4454840912
 40
15.9839336319
100
AcDbArc
 50
74.55323009
 51
77.1148582982
  0
ARC
  5
398
100
AcDbEntity
  8
0
100
AcDbCircle
 62
7
  6
CONTINUOUS
 10
99.84605091
 20
142.9855356455
 40
15.3281659538
100
AcDbArc
 50
256.4053829823
 51
256.6099024556
  0
ARC
  5
399
100
AcDbEntity
  8
0
100
AcDbCircle
 62
7
  6
CONTINUOUS
 10
101.2167629419
 20
142.9226518277
 40
15.2635456561
100
AcDbArc
 50
283.3898680422
 51
283.608137426
  0
ARC
  5
39A
100
AcDbEntity
  8
0
100
AcDbCircle
 62
7
  6
CONTINUOUS
 10
100.5239702815
 20
139.8996187435
 40
12.5
100
AcDbArc
 50
254.5388273561
 51
285.4611715462
  0
ARC
  5
39B
100
AcDbEntity
  8
BEZUGSACHSEN
100
AcDbCircle
 62
7
  6
CONTINUOUS
 10
100.5239702815
 20
136.3996187435
 40
10.0
100
AcDbArc
 50
327.1223375514
 51
341.9493370426
  0
ARC
  5
39C
100
AcDbEntity
  8
BEZUGSACHSEN
100
AcDbCircle
 62
7
  6
CONTINUOUS
 10
100.5239702815
 20
136.3996187435
 40
10.0
100
AcDbArc
 50
198.0506629574
 51
212.8745759043
  0
ARC
  5
39D
100
AcDbEntity
  8
RUNDUNGEN
100
AcDbCircle
 62
7
  6
CONTINUOUS
 10
100.5239702815
 20
136.3996187435
 40
10.0
100
AcDbArc
 50
327.1223375514
 51
212.8745759043
  0
ARC
  5
39E
100
AcDbEntity
  8
0
100
AcDbCircle
 62
7
  6
CONTINUOUS
 10
104.7230955549
 20
133.6853330292
 40
5.0
100
AcDbArc
 50
307.4218342623
 51
327.1230246555
  0
ARC
  5
39F
100
AcDbEntity
  8
0
100
AcDbCircle
 62
7
  6
CONTINUOUS
 10
96.3248450082
 20
133.6853330292
 40
5.0
100
AcDbArc
 50
212.8708025985
 51
232.5797355502
  0
ARC
  5
3A0
100
AcDbEntity
  8
RUNDUNGEN
100
AcDbCircle
 62
7
  6
CONTINUOUS
 10
86.0239702815
 20
123.0496187435
 40
1.0
100
AcDbArc
 50
180.0
 51
270.0
  0
ARC
  5
3A1
100
AcDbEntity
  8
RUNDUNGEN
100
AcDbCircle
 62
7
  6
CONTINUOUS
 10
115.0239702815
 20
123.0496187435
 40
1.0
100
AcDbArc
 50
270.0
 51
360.0
  0
ARC
  5
3A2
100
AcDbEntity
  8
BEZUGSACHSEN
100
AcDbCircle
 62
7
  6
CONTINUOUS
 10
118.2366560427
 20
136.4115015956
 40
1.0
100
AcDbArc
 50
337.4998531172
 51
22.4997922756
  0
ARC
  5
3A3
100
AcDbEntity
  8
BEZUGSACHSEN
100
AcDbCircle
 62
7
  6
CONTINUOUS
 10
113.1272109031
 20
148.7467933479
 40
1.0
100
AcDbArc
 50
22.5
 51
67.5
  0
ARC
  5
3A4
100
AcDbEntity
  8
RUNDUNGEN
100
AcDbCircle
 62
7
  6
CONTINUOUS
 10
113.1272109031
 20
148.7467933479
 40
1.0
100
AcDbArc
 50
22.5
 51
67.5
  0
ARC
  5
3A5
100
AcDbEntity
  8
RUNDUNGEN
100
AcDbCircle
 62
7
  6
CONTINUOUS
 10
100.5239702815
 20
153.9672265432
 40
1.0
100
AcDbArc
 50
67.5
 51
112.5
  0
ARC
  5
3A6
100
AcDbEntity
  8
BEZUGSACHSEN
100
AcDbCircle
 62
7
  6
CONTINUOUS
 10
87.92072966
 20
148.7467933479
 40
1.0
100
AcDbArc
 50
112.5
 51
157.5
  0
ARC
  5
3A7
100
AcDbEntity
  8
RUNDUNGEN
100
AcDbCircle
 62
7
  6
CONTINUOUS
 10
87.92072966
 20
148.7467933479
 40
1.0
100
AcDbArc
 50
112.5
 51
157.5
  0
ARC
  5
3A8
100
AcDbEntity
  8
BEZUGSACHSEN
100
AcDbCircle
 62
7
  6
CONTINUOUS
 10
82.8112832177
 20
136.4114984507
 40
1.0
100
AcDbArc
 50
157.5000126851
 51
202.5000089697
  0
ARC
  5
3A9
100
AcDbEntity
  8
BEZUGSACHSEN
100
AcDbCircle
 62
7
  6
CONTINUOUS
 10
114.0383429921
 20
121.0496187514
 40
0.9999999983
100
AcDbArc
 50
89.999999709
 51
157.5000003085
  0
ARC
  5
3AA
100
AcDbEntity
  8
BEZUGSACHSEN
100
AcDbCircle
 62
7
  6
CONTINUOUS
 10
84.0239702815
 20
128.2575662694
 40
0.9999998545
100
AcDbArc
 50
359.9996766361
 51
22.49970125
  0
ARC
  5
3AB
100
AcDbEntity
  8
BEZUGSACHSEN
100
AcDbCircle
 62
7
  6
CONTINUOUS
 10
117.0239702815
 20
128.2575814737
 40
0.9999994619
100
AcDbArc
 50
157.501103593
 51
180.0011945101
  0
ARC
  5
3AC
100
AcDbEntity
  8
BEZUGSACHSEN
100
AcDbCircle
 62
7
  6
CONTINUOUS
 10
87.0096126417
 20
121.0496342338
 40
0.9999967389
100
AcDbArc
 50
22.4995105728
 51
90.0008637919
  0
ARC
  5
3AD
100
AcDbEntity
  8
0
100
AcDbCircle
 62
7
  6
CONTINUOUS
 10
46.7341923952
 20
187.4574470764
 40
144.4669744796
100
AcDbArc
 50
333.0274978104
 51
333.2167039066
  0
ARC
  5
3AE
100
AcDbEntity
  8
0
100
AcDbCircle
 62
7
  6
CONTINUOUS
 10
56.8419726312
 20
182.6977450539
 40
132.7880967715
100
AcDbArc
 50
332.7670140904
 51
332.9733228914
  0
ARC
  5
3AF
100
AcDbEntity
  8
0
100
AcDbCircle
 62
7
  6
CONTINUOUS
 10
69.5785258629
 20
169.1898904967
 40
116.6282000924
100
AcDbArc
 50
335.3167527754
 51
335.4547198138
  0
ARC
  5
3B0
100
AcDbEntity
  8
0
100
AcDbCircle
 62
7
  6
CONTINUOUS
 10
104.4692445471
 20
161.4966659094
 40
81.2771818259
100
AcDbArc
 50
331.2137103813
 51
331.418873086
  0
ARC
  5
3B1
100
AcDbEntity
  8
0
100
AcDbCircle
 62
7
  6
CONTINUOUS
 10
108.911785201
 20
159.2333167092
 40
75.7924309176
100
AcDbArc
 50
330.8873274185
 51
331.1080116687
  0
ARC
  5
3B2
100
AcDbEntity
  8
0
100
AcDbCircle
 62
7
  6
CONTINUOUS
 10
196.8895321969
 20
150.7708842528
 40
54.3634323483
100
AcDbArc
 50
212.2492310291
 51
212.4615958835
  0
ARC
  5
3B3
100
AcDbEntity
  8
0
100
AcDbCircle
 62
7
  6
CONTINUOUS
 10
191.5078315816
 20
148.5119854657
 40
48.3812075948
100
AcDbArc
 50
213.9233573859
 51
214.0520633393
  0
ARC
  5
3B4
100
AcDbEntity
  8
0
100
AcDbCircle
 62
7
  6
CONTINUOUS
 10
190.8581430659
 20
148.0725864518
 40
47.5968820312
100
AcDbArc
 50
214.0517450786
 51
214.2981889528
  0
ARC
  5
3B5
100
AcDbEntity
  8
0
100
AcDbCircle
 62
7
  6
CONTINUOUS
 10
189.4823785398
 20
147.8094693641
 40
46.1666993759
100
AcDbArc
 50
214.6027530962
 51
214.8597941963
  0
ARC
  5
3B6
100
AcDbEntity
  8
0
100
AcDbCircle
 62
7
  6
CONTINUOUS
 10
188.5409750741
 20
145.3952061871
 40
44.4064969055
100
AcDbArc
 50
214.519759651
 51
214.7881674558
  0
ARC
  5
3B7
100
AcDbEntity
  8
0
100
AcDbCircle
 62
7
  6
CONTINUOUS
 10
187.7161514264
 20
144.822182847
 40
43.4021614048
100
AcDbArc
 50
214.788158178
 51
215.0607486206
  0
ARC
  5
3B8
100
AcDbEntity
  8
0
100
AcDbCircle
 62
7
  6
CONTINUOUS
 10
186.5236629692
 20
146.0028027532
 40
42.1910167187
100
AcDbArc
 50
215.3503169607
 51
215.6342182267
  0
ARC
  5
3B9
100
AcDbEntity
  8
0
100
AcDbCircle
 62
7
  6
CONTINUOUS
 10
186.40048186
 20
144.5650189599
 40
42.0247035051
100
AcDbArc
 50
215.3839942319
 51
215.6691408197
  0
ARC
  5
3BA
100
AcDbEntity
  8
0
100
AcDbCircle
 62
7
  6
CONTINUOUS
 10
183.5244042492
 20
142.76627632
 40
38.1208740018
100
AcDbArc
 50
216.23987297
 51
216.5577118989
  0
ARC
  5
3BB
100
AcDbEntity
  8
0
100
AcDbCircle
 62
7
  6
CONTINUOUS
 10
181.4564498253
 20
144.775694657
 40
37.1764426553
100
AcDbArc
 50
218.2452887312
 51
218.5800826072
  0
ARC
  5
3BC
100
AcDbEntity
  8
0
100
AcDbCircle
 62
7
  6
CONTINUOUS
 10
180.3611877551
 20
144.5351880816
 40
35.9852111388
100
AcDbArc
 50
218.9106546803
 51
219.2621951381
  0
ARC
  5
3BD
100
AcDbEntity
  8
0
100
AcDbCircle
 62
7
  6
CONTINUOUS
 10
179.6758430982
 20
143.9749849077
 40
35.100041723
100
AcDbArc
 50
219.2621827378
 51
219.6195024339
  0
ARC
  5
3BE
100
AcDbEntity
  8
0
100
AcDbCircle
 62
7
  6
CONTINUOUS
 10
178.7473481862
 20
141.5653829901
 40
33.3525878744
100
AcDbArc
 50
219.3884300112
 51
219.767805133
  0
ARC
  5
3BF
100
AcDbEntity
  8
0
100
AcDbCircle
 62
7
  6
CONTINUOUS
 10
177.715182375
 20
141.3300574057
 40
32.2134415073
100
AcDbArc
 50
220.122612575
 51
220.5227553003
  0
ARC
  5
3C0
100
AcDbEntity
  8
0
100
AcDbCircle
 62
7
  6
CONTINUOUS
 10
177.4897760916
 20
142.4863389582
 40
31.9313949275
100
AcDbArc
 50
220.0671095839
 51
220.8700467228
  0
ARC
  5
3C1
100
AcDbEntity
  8
0
100
AcDbCircle
 62
7
  6
CONTINUOUS
 10
177.0630578939
 20
140.7726309239
 40
31.3555425497
100
AcDbArc
 50
220.5227393446
 51
220.930002699
  0
ARC
  5
3C2
100
AcDbEntity
  8
0
100
AcDbCircle
 62
7
  6
CONTINUOUS
 10
174.9725298833
 20
139.2916502042
 40
28.2644071422
100
AcDbArc
 50
221.4788703101
 51
222.4066522812
  0
ARC
  5
3C3
100
AcDbEntity
  8
RUNDUNGEN
100
AcDbCircle
 62
7
  6
CONTINUOUS
 10
171.4148771358
 20
132.8362536834
 40
5.0
100
AcDbArc
 50
179.9999140389
 51
255.0004320046
  0
ARC
  5
3C4
100
AcDbEntity
  8
BEZUGSACHSEN
100
AcDbCircle
 62
7
  6
CONTINUOUS
 10
154.4148771358
 20
132.8362536834
 40
5.0
100
AcDbArc
 50
284.9995679954
 51
0.0000859611
  0
ARC
  5
3C5
100
AcDbEntity
  8
RUNDUNGEN
100
AcDbCircle
 62
7
  6
CONTINUOUS
 10
162.9148771358
 20
125.7996187435
 40
3.75
100
AcDbArc
 50
186.8354249512
 51
353.1645750488
  0
ARC
  5
3C6
100
AcDbEntity
  8
BEZUGSACHSEN
100
AcDbCircle
 62
7
  6
CONTINUOUS
 10
162.9148771358
 20
125.7996187435
 40
3.75
100
AcDbArc
 50
186.843255978
 51
353.156744022
  0
ARC
  5
3C7
100
AcDbEntity
  8
BEZUGSACHSEN
100
AcDbCircle
 62
7
  6
CONTINUOUS
 10
160.4148771358
 20
153.9672265432
 40
1.0
100
AcDbArc
 50
90.0
 51
180.0
  0
ARC
  5
3C8
100
AcDbEntity
  8
BEZUGSACHSEN
100
AcDbCircle
 62
7
  6
CONTINUOUS
 10
149.7714256553
 20
125.3803875266
 40
1.0
100
AcDbArc
 50
105.0
 51
202.5
  0
ARC
  5
3C9
100
AcDbEntity
  8
RUNDUNGEN
100
AcDbCircle
 62
7
  6
CONTINUOUS
 10
165.4148771358
 20
153.9672265432
 40
1.0
100
AcDbArc
 50
0.0
 51
90.0
  0
ARC
  5
3CA
100
AcDbEntity
  8
RUNDUNGEN
100
AcDbCircle
 62
7
  6
CONTINUOUS
 10
176.0583286164
 20
125.3803875266
 40
1.0
100
AcDbArc
 50
337.5
 51
75.0
  0
ARC
  5
3CB
100
AcDbEntity
  8
0
100
AcDbCircle
 62
7
  6
CONTINUOUS
 10
229.9284967198
 20
163.3304199515
 40
87.218983154
100
AcDbArc
 50
209.6142370902
 51
209.7429362347
  0
ARC
  5
3CC
100
AcDbEntity
  8
0
100
AcDbCircle
 62
7
  6
CONTINUOUS
 10
225.7574610355
 20
163.6994464093
 40
85.9254641289
100
AcDbArc
 50
209.4737742883
 51
209.6695213386
  0
ARC
  5
3CD
100
AcDbEntity
  8
0
100
AcDbCircle
 62
7
  6
CONTINUOUS
 10
0.5916796147
 20
207.0338248669
 40
194.6305138872
100
AcDbArc
 50
334.0439030556
 51
334.2109717971
  0
ARC
  5
3CE
100
AcDbEntity
  8
0
100
AcDbCircle
 62
7
  6
CONTINUOUS
 10
281.3677557418
 20
175.0374426032
 40
142.0830378065
100
AcDbArc
 50
201.5043172171
 51
201.6519417153
  0
ARC
  5
3CF
100
AcDbEntity
  8
0
100
AcDbCircle
 62
7
  6
CONTINUOUS
 10
248.5449202543
 20
163.1407546891
 40
107.2040647867
100
AcDbArc
 50
203.4460705417
 51
203.6445362292
  0
ARC
  5
3D0
100
AcDbEntity
  8
0
100
AcDbCircle
 62
7
  6
CONTINUOUS
 10
244.3466929235
 20
172.7214520739
 40
106.4143646072
100
AcDbArc
 50
208.71633034
 51
208.92553716
  0
ARC
  5
3D1
100
AcDbEntity
  8
0
100
AcDbCircle
 62
7
  6
CONTINUOUS
 10
477.5674345222
 20
272.0132131267
 40
359.4992998479
100
AcDbArc
 50
204.7945112938
 51
204.9140993587
  0
ARC
  5
3D2
100
AcDbEntity
  8
0
100
AcDbCircle
 62
7
  6
CONTINUOUS
 10
1783.7256662067
 20
816.1520737323
 40
1775.1880705933
100
AcDbArc
 50
202.9668253182
 51
203.1045717204
  0
ARC
  5
3D3
100
AcDbEntity
  8
0
100
AcDbCircle
 62
7
  6
CONTINUOUS
 10
1465.3963051753
 20
684.1271889131
 40
1430.5130350423
100
AcDbArc
 50
203.0744957484
 51
203.2452632166
  0
ARC
  5
3D4
100
AcDbEntity
  8
RUNDUNGEN
100
AcDbCircle
 62
7
  6
CONTINUOUS
 10
82.8995478919
 20
81.8031159299
 40
1.0000559371
100
AcDbArc
 50
184.0386724977
 51
269.9969620216
  0
ARC
  5
3D5
100
AcDbEntity
  8
BEZUGSACHSEN
100
AcDbCircle
 62
7
  6
CONTINUOUS
 10
82.8995478919
 20
86.8030124418
 40
1.0000559372
100
AcDbArc
 50
90.0030379806
 51
175.9613275001
  0
ARC
  5
3D6
100
AcDbEntity
  8
0
100
AcDbCircle
 62
7
  6
CONTINUOUS
 10
100.5239702815
 20
84.3030641858
 40
8.1
100
AcDbArc
 50
25.6036461993
 51
154.3964093504
  0
ARC
  5
3D7
100
AcDbEntity
  8
0
100
AcDbCircle
 62
7
  6
CONTINUOUS
 10
100.5239702815
 20
84.3030641858
 40
8.1
100
AcDbArc
 50
205.6036429085
 51
334.396412145
  0
ARC
  5
3D8
100
AcDbEntity
  8
0
100
AcDbCircle
 62
7
  6
CONTINUOUS
 10
100.5239702815
 20
84.3030641858
 40
8.0
100
AcDbArc
 50
205.9762646817
 51
334.0237353183
  0
ARC
  5
3D9
100
AcDbEntity
  8
0
100
AcDbCircle
 62
7
  6
CONTINUOUS
 10
100.5239702815
 20
84.3030641858
 40
8.0
100
AcDbArc
 50
25.9762646817
 51
154.0237353183
  0
ARC
  5
3DA
100
AcDbEntity
  8
0
100
AcDbCircle
 62
7
  6
CONTINUOUS
 10
100.5239702815
 20
84.3030641858
 40
7.5
100
AcDbArc
 50
27.8660144178
 51
152.1339855822
  0
ARC
  5
3DB
100
AcDbEntity
  8
0
100
AcDbCircle
 62
7
  6
CONTINUOUS
 10
100.5239702815
 20
84.3030641858
 40
7.5
100
AcDbArc
 50
207.8660144178
 51
332.1339855822
  0
ARC
  5
3DC
100
AcDbEntity
  8
RUNDUNGEN
100
AcDbCircle
 62
7
  6
CONTINUOUS
 10
118.1483940402
 20
81.8031159295
 40
1.0000559365
100
AcDbArc
 50
270.0028309777
 51
355.9610640536
  0
ARC
  5
3DD
100
AcDbEntity
  8
BEZUGSACHSEN
100
AcDbCircle
 62
7
  6
CONTINUOUS
 10
118.1483940401
 20
86.803012442
 40
1.0000559367
100
AcDbArc
 50
4.0389359521
 51
89.9971690166
  0
SPLINE
  5
3DE
100
AcDbEntity
  8
0
100
AcDbSpline
 62
7
  6
CONTINUOUS
 70
0
 71
3
 72
9
 73
5
 74
0
 42
0.0000001
 43
0.0000001
 44
0.0000000001
 40
0.0
 40
0.0
 40
0.0
 40
0.0
 40
0.2418884724
 40
1.0
 40
1.0
 40
1.0
 40
1.0
 10
107.761495758
 20
129.7144076453
 30
0.0
 10
107.7470230446
 20
129.7033336786
 30
0.0
 10
107.6874147944
 20
129.6572597021
 30
0.0
 10
107.6283084796
 20
129.6105431633
 30
0.0
 10
107.5834138879
 20
129.5752365805
 30
0.0
  0
SPLINE
  5
3DF
100
AcDbEntity
  8
0
100
AcDbSpline
 62
7
  6
CONTINUOUS
 70
0
 71
3
 72
14
 73
10
 74
0
 42
0.0000001
 43
0.0000001
 44
0.0000000001
 40
0.0
 40
0.0
 40
0.0
 40
0.0
 40
0.1042457443
 40
0.2168630211
 40
0.4588632782
 40
0.5869388833
 40
0.719609053
 40
0.8571841794
 40
1.0
 40
1.0
 40
1.0
 40
1.0
 10
107.5834138879
 20
129.5752365805
 30
0.0
 10
107.4964450224
 20
129.5068261795
 30
0.0
 10
107.3184782561
 20
129.3607848846
 30
0.0
 10
106.9388884907
 20
129.0557214474
 30
0.0
 10
106.5175202015
 20
128.7615288335
 30
0.0
 10
106.0475407314
 20
128.5075410001
 30
0.0
 10
105.6593071571
 20
128.3387676189
 30
0.0
 10
105.2434331437
 20
128.1984737637
 30
0.0
 10
104.955305168
 20
128.1232655915
 30
0.0
 10
104.8079723049
 20
128.0875906108
 30
0.0
  0
SPLINE
  5
3E0
100
AcDbEntity
  8
0
100
AcDbSpline
 62
7
  6
CONTINUOUS
 70
0
 71
3
 72
14
 73
10
 74
0
 42
0.0000001
 43
0.0000001
 44
0.0000000001
 40
0.0
 40
0.0
 40
0.0
 40
0.0
 40
0.1428314923
 40
0.2804177732
 40
0.4130933924
 40
0.5411686744
 40
0.7831587632
 40
0.8957651551
 40
1.0
 40
1.0
 40
1.0
 40
1.0
 10
96.2431533077
 20
128.0868175672
 30
0.0
 10
96.0956404572
 20
128.1224982466
 30
0.0
 10
95.8071571136
 20
128.1976935883
 30
0.0
 10
95.3907434297
 20
128.3379409374
 30
0.0
 10
95.0020187741
 20
128.5067486636
 30
0.0
 10
94.5314599022
 20
128.7608394217
 30
0.0
 10
94.1096276307
 20
129.0552821185
 30
0.0
 10
93.7296449638
 20
129.3606205217
 30
0.0
 10
93.5515184806
 20
129.506813136
 30
0.0
 10
93.4644673286
 20
129.5752886546
 30
0.0
  0
SPLINE
  5
3E1
100
AcDbEntity
  8
0
100
AcDbSpline
 62
7
  6
CONTINUOUS
 70
0
 71
3
 72
9
 73
5
 74
0
 42
0.0000001
 43
0.0000001
 44
0.0000000001
 40
0.0
 40
0.0
 40
0.0
 40
0.0
 40
0.2576722873
 40
1.0
 40
1.0
 40
1.0
 40
1.0
 10
93.4644673286
 20
129.5752886546
 30
0.0
 10
93.4492230225
 20
129.587277592
 30
0.0
 10
93.3900811423
 20
129.633829547
 30
0.0
 10
93.330926673
 20
129.6803730167
 30
0.0
 10
93.2865532494
 20
129.7143239355
 30
0.0
  0
LINE
  5
3E2
100
AcDbEntity
  8
0
100
AcDbLine
 62
7
  6
CONTINUOUS
 10
151.2274173743
 20
121.7623846756
 11
151.3075207319
 21
121.5921719299
  0
LINE
  5
3E3
100
AcDbEntity
  8
0
100
AcDbLine
 62
7
  6
CONTINUOUS
 10
151.3075207319
 20
121.5921719299
 11
151.3618387886
 21
121.5112352725
  0
LINE
  5
3E4
100
AcDbEntity
  8
0
100
AcDbLine
 62
7
  6
CONTINUOUS
 10
153.1111121817
 20
120.2304697858
 11
153.1511963562
 21
120.0602570401
  0
LINE
  5
3E5
100
AcDbEntity
  8
0
100
AcDbLine
 62
7
  6
CONTINUOUS
 10
151.0972589843
 20
121.1666400657
 11
151.3307357282
 21
120.6560017095
  0
LINE
  5
3E6
100
AcDbEntity
  8
0
100
AcDbLine
 62
7
  6
CONTINUOUS
 10
151.3307357282
 20
120.6560017095
 11
151.4667717895
 21
120.2304697858
  0
LINE
  5
3E7
100
AcDbEntity
  8
0
100
AcDbLine
 62
7
  6
CONTINUOUS
 10
150.2400072373
 20
121.9325974212
 11
150.2937828432
 21
121.7623846756
  0
LINE
  5
3E8
100
AcDbEntity
  8
0
100
AcDbLine
 62
7
  6
CONTINUOUS
 10
149.4261367533
 20
123.5496187435
 11
149.4404401126
 21
123.516370385
  0
SPLINE
  5
3E9
100
AcDbEntity
  8
0
100
AcDbSpline
 62
7
  6
CONTINUOUS
 70
0
 71
3
 72
8
 73
4
 74
0
 42
0.0000001
 43
0.0000001
 44
0.0000000001
 40
0.0
 40
0.0
 40
0.0
 40
0.0
 40
1.0
 40
1.0
 40
1.0
 40
1.0
 10
149.4404401126
 20
123.516370385
 30
0.0
 10
149.6514415982
 20
123.0259134369
 30
0.0
 10
149.8627478458
 20
122.5355874536
 30
0.0
 10
150.0744050384
 20
122.0454131196
 30
0.0
  0
LINE
  5
3EA
100
AcDbEntity
  8
0
100
AcDbLine
 62
7
  6
CONTINUOUS
 10
150.0744050384
 20
122.0454131196
 11
150.1415078392
 21
121.8900430992
  0
LINE
  5
3EB
100
AcDbEntity
  8
0
100
AcDbLine
 62
7
  6
CONTINUOUS
 10
150.1415078392
 20
121.8900430992
 11
150.2119431351
 21
121.7270277672
  0
SPLINE
  5
3EC
100
AcDbEntity
  8
0
100
AcDbSpline
 62
7
  6
CONTINUOUS
 70
0
 71
3
 72
8
 73
4
 74
0
 42
0.0000001
 43
0.0000001
 44
0.0000000001
 40
0.0
 40
0.0
 40
0.0
 40
0.0
 40
1.0
 40
1.0
 40
1.0
 40
1.0
 10
150.2119431351
 20
121.7270277672
 30
0.0
 10
150.4575845442
 20
121.1586433846
 30
0.0
 10
150.7037129666
 20
120.5904691269
 30
0.0
 10
150.9504224847
 20
120.0225475462
 30
0.0
  0
LINE
  5
3ED
100
AcDbEntity
  8
0
100
AcDbLine
 62
7
  6
CONTINUOUS
 10
150.9504224847
 20
120.0225475462
 11
151.0279601956
 21
119.8441097757
  0
LINE
  5
3EE
100
AcDbEntity
  8
0
100
AcDbLine
 62
7
  6
CONTINUOUS
 10
151.0279601956
 20
119.8441097757
 11
151.1092667448
 21
119.6571136531
  0
LINE
  5
3EF
100
AcDbEntity
  8
0
100
AcDbLine
 62
7
  6
CONTINUOUS
 10
151.1092667448
 20
119.6571136531
 11
151.1560294033
 21
119.5496187435
  0
LINE
  5
3F0
100
AcDbEntity
  8
0
100
AcDbLine
 62
7
  6
CONTINUOUS
 10
151.03718931
 20
120.0602570401
 11
151.0854258834
 21
119.9749878647
  0
LINE
  5
3F1
100
AcDbEntity
  8
0
100
AcDbLine
 62
7
  6
CONTINUOUS
 10
151.0854258834
 20
119.9749878647
 11
151.1336520995
 21
119.8900442646
  0
LINE
  5
3F2
100
AcDbEntity
  8
0
100
AcDbLine
 62
7
  6
CONTINUOUS
 10
149.2243513853
 20
123.5496187435
 11
149.235246917
 21
123.5239125173
  0
LINE
  5
3F3
100
AcDbEntity
  8
0
100
AcDbLine
 62
7
  6
CONTINUOUS
 10
149.235246917
 20
123.5239125173
 11
149.2550935203
 21
123.4770900646
  0
LINE
  5
3F4
100
AcDbEntity
  8
0
100
AcDbLine
 62
7
  6
CONTINUOUS
 10
150.192160223
 20
120.4857889639
 11
150.0832195679
 21
120.7411080824
  0
LINE
  5
3F5
100
AcDbEntity
  8
0
100
AcDbLine
 62
7
  6
CONTINUOUS
 10
150.0832195679
 20
120.7411080824
 11
149.9040700557
 21
121.1666400657
  0
LINE
  5
3F6
100
AcDbEntity
  8
0
100
AcDbLine
 62
7
  6
CONTINUOUS
 10
149.9040700557
 20
121.1666400657
 11
149.586542059
 21
121.9325974212
  0
LINE
  5
3F7
100
AcDbEntity
  8
0
100
AcDbLine
 62
7
  6
CONTINUOUS
 10
149.586542059
 20
121.9325974212
 11
149.4127463545
 21
122.3581292854
  0
LINE
  5
3F8
100
AcDbEntity
  8
0
100
AcDbLine
 62
7
  6
CONTINUOUS
 10
149.4127463545
 20
122.3581292854
 11
149.3097590528
 21
122.6134486423
  0
LINE
  5
3F9
100
AcDbEntity
  8
0
100
AcDbLine
 62
7
  6
CONTINUOUS
 10
176.3418402559
 20
122.3581292854
 11
176.4385333109
 21
122.6134486423
  0
LINE
  5
3FA
100
AcDbEntity
  8
0
100
AcDbLine
 62
7
  6
CONTINUOUS
 10
176.173836613
 20
121.9325974212
 11
176.3418402559
 21
122.3581292854
  0
LINE
  5
3FB
100
AcDbEntity
  8
0
100
AcDbLine
 62
7
  6
CONTINUOUS
 10
175.8546063204
 20
121.1666400657
 11
176.173836613
 21
121.9325974212
  0
LINE
  5
3FC
100
AcDbEntity
  8
0
100
AcDbLine
 62
7
  6
CONTINUOUS
 10
175.6674156647
 20
120.7411080824
 11
175.8546063204
 21
121.1666400657
  0
LINE
  5
3FD
100
AcDbEntity
  8
0
100
AcDbLine
 62
7
  6
CONTINUOUS
 10
175.3304956756
 20
121.2517464386
 11
175.5897523658
 21
121.8474910484
  0
LINE
  5
3FE
100
AcDbEntity
  8
0
100
AcDbLine
 62
7
  6
CONTINUOUS
 10
175.135170555
 20
120.7411080824
 11
175.3304956756
 21
121.2517464386
  0
LINE
  5
3FF
100
AcDbEntity
  8
0
100
AcDbLine
 62
7
  6
CONTINUOUS
 10
176.3327768854
 20
122.2730227521
 11
176.1885594231
 21
121.9264703927
  0
LINE
  5
400
100
AcDbEntity
  8
0
100
AcDbLine
 62
7
  6
CONTINUOUS
 10
176.1885594231
 20
121.9264703927
 11
176.1158238
 21
121.7517011277
  0
LINE
  5
401
100
AcDbEntity
  8
0
100
AcDbLine
 62
7
  6
CONTINUOUS
 10
176.1158238
 20
121.7517011277
 11
175.8850057539
 21
121.1971523531
  0
LINE
  5
402
100
AcDbEntity
  8
0
100
AcDbLine
 62
7
  6
CONTINUOUS
 10
175.8850057539
 20
121.1971523531
 11
175.869690592
 21
121.160360492
  0
LINE
  5
403
100
AcDbEntity
  8
0
100
AcDbLine
 62
7
  6
CONTINUOUS
 10
175.869690592
 20
121.160360492
 11
175.6910598564
 21
120.7312650186
  0
LINE
  5
404
100
AcDbEntity
  8
0
100
AcDbLine
 62
7
  6
CONTINUOUS
 10
175.6910598564
 20
120.7312650186
 11
175.6552613461
 21
120.6452793167
  0
LINE
  5
405
100
AcDbEntity
  8
0
100
AcDbLine
 62
7
  6
CONTINUOUS
 10
175.6552613461
 20
120.6452793167
 11
175.5831823441
 21
120.4721576962
  0
LINE
  5
406
100
AcDbEntity
  8
0
100
AcDbLine
 62
7
  6
CONTINUOUS
 10
175.5831823441
 20
120.4721576962
 11
175.4379992621
 21
120.1234833327
  0
LINE
  5
407
100
AcDbEntity
  8
0
100
AcDbLine
 62
7
  6
CONTINUOUS
 10
175.4379992621
 20
120.1234833327
 11
175.4265979749
 21
120.0961035753
  0
LINE
  5
408
100
AcDbEntity
  8
0
100
AcDbLine
 62
7
  6
CONTINUOUS
 10
175.4265979749
 20
120.0961035753
 11
175.3860976066
 21
119.9988456155
  0
LINE
  5
409
100
AcDbEntity
  8
0
100
AcDbLine
 62
7
  6
CONTINUOUS
 10
175.3860976066
 20
119.9988456155
 11
175.3762296284
 21
119.9751490682
  0
LINE
  5
40A
100
AcDbEntity
  8
0
100
AcDbLine
 62
7
  6
CONTINUOUS
 10
176.6540326773
 20
122.9538741337
 11
176.6401780597
 21
122.9204815728
  0
LINE
  5
40B
100
AcDbEntity
  8
0
100
AcDbLine
 62
7
  6
CONTINUOUS
 10
176.6401780597
 20
122.9204815728
 11
176.6068653061
 21
122.840191244
  0
LINE
  5
40C
100
AcDbEntity
  8
0
100
AcDbLine
 62
7
  6
CONTINUOUS
 10
176.6068653061
 20
122.840191244
 11
176.5597318341
 21
122.726591362
  0
LINE
  5
40D
100
AcDbEntity
  8
0
100
AcDbLine
 62
7
  6
CONTINUOUS
 10
176.5597318341
 20
122.726591362
 11
176.4655665728
 21
122.4996406268
  0
LINE
  5
40E
100
AcDbEntity
  8
0
100
AcDbLine
 62
7
  6
CONTINUOUS
 10
176.4655665728
 20
122.4996406268
 11
176.3973017777
 21
122.3351167891
  0
LINE
  5
40F
100
AcDbEntity
  8
0
100
AcDbLine
 62
7
  6
CONTINUOUS
 10
176.3973017777
 20
122.3351167891
 11
176.3715372657
 21
122.2730229126
  0
SPLINE
  5
410
100
AcDbEntity
  8
0
100
AcDbSpline
 62
7
  6
CONTINUOUS
 70
0
 71
3
 72
8
 73
4
 74
0
 42
0.0000001
 43
0.0000001
 44
0.0000000001
 40
0.0
 40
0.0
 40
0.0
 40
0.0
 40
1.0
 40
1.0
 40
1.0
 40
1.0
 10
174.9109163776
 20
121.9325974212
 30
0.0
 10
174.7980596288
 20
121.677204758
 30
0.0
 10
174.6850412829
 20
121.4218834316
 30
0.0
 10
174.5718472797
 20
121.1666400657
 30
0.0
  0
LINE
  5
411
100
AcDbEntity
  8
0
100
AcDbLine
 62
7
  6
CONTINUOUS
 10
174.5718472797
 20
121.1666400657
 11
174.4149856177
 21
120.7411080824
  0
LINE
  5
412
100
AcDbEntity
  8
0
100
AcDbLine
 62
7
  6
CONTINUOUS
 10
174.4149856177
 20
120.7411080824
 11
174.3334322962
 21
120.4857889639
  0
LINE
  5
413
100
AcDbEntity
  8
0
100
AcDbLine
 62
7
  6
CONTINUOUS
 10
153.4671710815
 20
120.0602570401
 11
153.3736158498
 21
120.2304697858
  0
LINE
  5
414
100
AcDbEntity
  8
0
100
AcDbLine
 62
7
  6
CONTINUOUS
 10
151.4821489812
 20
121.5921719299
 11
151.4368479621
 21
121.7623846756
  0
SPLINE
  5
415
100
AcDbEntity
  8
0
100
AcDbSpline
 62
7
  6
CONTINUOUS
 70
0
 71
3
 72
8
 73
4
 74
0
 42
0.0000001
 43
0.0000001
 44
0.0000000001
 40
0.0
 40
0.0
 40
0.0
 40
0.0
 40
1.0
 40
1.0
 40
1.0
 40
1.0
 10
150.8509058744
 20
120.4857889639
 30
0.0
 10
150.7268480943
 20
120.769406544
 30
0.0
 10
150.6029560121
 20
121.0530966505
 30
0.0
 10
150.479215535
 20
121.3368528114
 30
0.0
  0
LINE
  5
416
100
AcDbEntity
  8
0
100
AcDbLine
 62
7
  6
CONTINUOUS
 10
150.2937828432
 20
121.7623846756
 11
150.1656664836
 21
122.0567360875
  0
LINE
  5
417
100
AcDbEntity
  8
0
100
AcDbLine
 62
7
  6
CONTINUOUS
 10
150.1656664836
 20
122.0567360875
 11
150.1554280852
 21
122.0802711712
  0
LINE
  5
418
100
AcDbEntity
  8
0
100
AcDbLine
 62
7
  6
CONTINUOUS
 10
150.1554280852
 20
122.0802711712
 11
150.1251697232
 21
122.1498365863
  0
LINE
  5
419
100
AcDbEntity
  8
0
100
AcDbLine
 62
7
  6
CONTINUOUS
 10
150.1251697232
 20
122.1498365863
 11
150.1023026814
 21
122.202419159
  0
SPLINE
  5
41A
100
AcDbEntity
  8
0
100
AcDbSpline
 62
7
  6
CONTINUOUS
 70
0
 71
3
 72
8
 73
4
 74
0
 42
0.0000001
 43
0.0000001
 44
0.0000000001
 40
0.0
 40
0.0
 40
0.0
 40
0.0
 40
1.0
 40
1.0
 40
1.0
 40
1.0
 10
150.1023026814
 20
122.202419159
 30
0.0
 10
149.9070922051
 20
122.6513411992
 30
0.0
 10
149.7122285473
 20
123.1004141724
 30
0.0
 10
149.5176690923
 20
123.5496187435
 30
0.0
  0
LINE
  5
41B
100
AcDbEntity
  8
0
100
AcDbLine
 62
7
  6
CONTINUOUS
 10
151.2611409859
 20
119.5496187435
 11
151.242224497
 21
119.5927098678
  0
LINE
  5
41C
100
AcDbEntity
  8
0
100
AcDbLine
 62
7
  6
CONTINUOUS
 10
151.242224497
 20
119.5927098678
 11
151.1866620151
 21
119.7193234377
  0
LINE
  5
41D
100
AcDbEntity
  8
0
100
AcDbLine
 62
7
  6
CONTINUOUS
 10
151.1866620151
 20
119.7193234377
 11
151.1120115892
 21
119.8895362924
  0
LINE
  5
41E
100
AcDbEntity
  8
0
100
AcDbLine
 62
7
  6
CONTINUOUS
 10
151.1120115892
 20
119.8895362924
 11
151.03718931
 21
120.0602570401
  0
LINE
  5
41F
100
AcDbEntity
  8
0
100
AcDbLine
 62
7
  6
CONTINUOUS
 10
149.3299656805
 20
123.46959869
 11
149.3158943754
 21
123.5026211912
  0
LINE
  5
420
100
AcDbEntity
  8
0
100
AcDbLine
 62
7
  6
CONTINUOUS
 10
149.3158943754
 20
123.5026211912
 11
149.2958695027
 21
123.5496187435
  0
LINE
  5
421
100
AcDbEntity
  8
0
100
AcDbLine
 62
7
  6
CONTINUOUS
 10
150.6408441468
 20
122.2730144358
 11
150.6037498272
 21
122.3579802844
  0
SPLINE
  5
422
100
AcDbEntity
  8
0
100
AcDbSpline
 62
7
  6
CONTINUOUS
 70
0
 71
3
 72
8
 73
4
 74
0
 42
0.0000001
 43
0.0000001
 44
0.0000000001
 40
0.0
 40
0.0
 40
0.0
 40
0.0
 40
1.0
 40
1.0
 40
1.0
 40
1.0
 10
150.6037498272
 20
122.3579802844
 30
0.0
 10
150.4304170302
 20
122.7550649224
 30
0.0
 10
150.2573897884
 20
123.1522830483
 30
0.0
 10
150.0846332731
 20
123.5496187435
 30
0.0
  0
LINE
  5
423
100
AcDbEntity
  8
0
100
AcDbLine
 62
7
  6
CONTINUOUS
 10
152.2598893089
 20
120.2304697858
 11
152.2282880345
 21
120.3155191625
  0
LINE
  5
424
100
AcDbEntity
  8
0
100
AcDbLine
 62
7
  6
CONTINUOUS
 10
152.2282880345
 20
120.3155191625
 11
152.1334002606
 21
120.5708953367
  0
LINE
  5
425
100
AcDbEntity
  8
0
100
AcDbLine
 62
7
  6
CONTINUOUS
 10
152.1334002606
 20
120.5708953367
 11
151.9742883071
 21
120.9099786052
  0
LINE
  5
426
100
AcDbEntity
  8
0
100
AcDbLine
 62
7
  6
CONTINUOUS
 10
152.1114123226
 20
121.5921719299
 11
152.0892126709
 21
121.6772148809
  0
LINE
  5
427
100
AcDbEntity
  8
0
100
AcDbLine
 62
7
  6
CONTINUOUS
 10
152.0892126709
 20
121.6772148809
 11
152.0670008837
 21
121.7623846756
  0
SPLINE
  5
428
100
AcDbEntity
  8
0
100
AcDbSpline
 62
7
  6
CONTINUOUS
 70
0
 71
3
 72
8
 73
4
 74
0
 42
0.0000001
 43
0.0000001
 44
0.0000000001
 40
0.0
 40
0.0
 40
0.0
 40
0.0
 40
1.0
 40
1.0
 40
1.0
 40
1.0
 10
175.4866711789
 20
121.9325974212
 30
0.0
 10
175.374433388
 20
121.677214742
 30
0.0
 10
175.2620549538
 20
121.4218938199
 30
0.0
 10
175.1495242667
 20
121.1666400657
 30
0.0
  0
LINE
  5
429
100
AcDbEntity
  8
0
100
AcDbLine
 62
7
  6
CONTINUOUS
 10
174.9922671236
 20
120.7411080824
 11
174.909867157
 21
120.4857889639
  0
LINE
  5
42A
100
AcDbEntity
  8
0
100
AcDbLine
 62
7
  6
CONTINUOUS
 10
175.1495242667
 20
121.1666400657
 11
174.9922671236
 21
120.7411080824
  0
SPLINE
  5
42B
100
AcDbEntity
  8
0
100
AcDbSpline
 62
7
  6
CONTINUOUS
 70
0
 71
3
 72
8
 73
4
 74
0
 42
0.0000001
 43
0.0000001
 44
0.0000000001
 40
0.0
 40
0.0
 40
0.0
 40
0.0
 40
1.0
 40
1.0
 40
1.0
 40
1.0
 10
175.836449356
 20
121.2517464386
 30
0.0
 10
175.7611474134
 20
121.0814694854
 30
0.0
 10
175.6857029536
 20
120.9112554791
 30
0.0
 10
175.6101087296
 20
120.7411080824
 30
0.0
  0
LINE
  5
42C
100
AcDbEntity
  8
0
100
AcDbLine
 62
7
  6
CONTINUOUS
 10
176.0857505697
 20
121.8474910484
 11
175.836449356
 21
121.2517464386
  0
LINE
  5
42D
100
AcDbEntity
  8
0
100
AcDbLine
 62
7
  6
CONTINUOUS
 10
176.2874238236
 20
122.3581292854
 11
176.0857505697
 21
121.8474910484
  0
ELLIPSE
  5
42E
100
AcDbEntity
  8
0
100
AcDbEllipse
 62
7
  6
CONTINUOUS
 10
162.9148771358
 20
123.9155531498
 30
0.0
 11
14.0975786714
 21
-0.0
 31
0.0
 40
0.2279598157
 41
-2.4766226074
 42
-2.442507012
  0
ELLIPSE
  5
42F
100
AcDbEntity
  8
0
100
AcDbEllipse
 62
7
  6
CONTINUOUS
 10
162.9148771358
 20
130.378219396
 30
0.0
 11
16.1537843477
 21
0.0
 31
0.0
 40
0.7096506269
 41
-2.3023138204
 42
-2.2911300065
  0
ELLIPSE
  5
430
100
AcDbEntity
  8
0
100
AcDbEllipse
 62
7
  6
CONTINUOUS
 10
162.9148771358
 20
120.9532050156
 30
0.0
 11
12.8759676939
 21
0.0
 31
0.0
 40
0.2279598157
 41
2.6752177635
 42
2.7074241124
  0
ELLIPSE
  5
431
100
AcDbEntity
  8
0
100
AcDbEllipse
 62
7
  6
CONTINUOUS
 10
162.9148771358
 20
120.0690188225
 30
0.0
 11
12.0568903034
 21
0.0
 31
0.0
 40
0.70965945
 41
2.8913467378
 42
2.9118274282
  0
ELLIPSE
  5
432
100
AcDbEntity
  8
0
100
AcDbEllipse
 62
7
  6
CONTINUOUS
 10
162.9148771358
 20
157.2973669343
 30
0.0
 11
-0.0
 21
57.1654849211
 31
0.0
 40
0.2610032176
 41
-4.0472738556
 42
-4.0415849047
  0
ELLIPSE
  5
433
100
AcDbEntity
  8
0
100
AcDbEllipse
 62
7
  6
CONTINUOUS
 10
162.9148771358
 20
136.0908040806
 30
0.0
 11
0.0
 21
19.6121050303
 31
0.0
 40
0.8872353151
 41
2.428935964
 42
2.4490827388
  0
ELLIPSE
  5
434
100
AcDbEntity
  8
0
100
AcDbEllipse
 62
7
  6
CONTINUOUS
 10
162.9148771358
 20
124.6225223581
 30
0.0
 11
14.2528567236
 21
0.0
 31
0.0
 40
0.4061275948
 41
3.818561526
 42
3.9169156761
  0
ELLIPSE
  5
435
100
AcDbEntity
  8
0
100
AcDbEllipse
 62
7
  6
CONTINUOUS
 10
162.9148771358
 20
133.8107924317
 30
0.0
 11
16.918999246
 21
0.0
 31
0.0
 40
0.9797015264
 41
-2.2163617362
 42
-2.1990950976
  0
ELLIPSE
  5
436
100
AcDbEntity
  8
0
100
AcDbEllipse
 62
7
  6
CONTINUOUS
 10
162.9148771358
 20
116.8329223364
 30
0.0
 11
10.770875657
 21
-0.0
 31
0.0
 40
0.7096506269
 41
2.705689429
 42
2.7179377816
  0
ELLIPSE
  5
437
100
AcDbEntity
  8
0
100
AcDbEllipse
 62
7
  6
CONTINUOUS
 10
162.9148771358
 20
117.8860575392
 30
0.0
 11
11.5462550223
 21
-0.0
 31
0.0
 40
0.3438626989
 41
8.8706797334
 42
8.895695985
  0
ELLIPSE
  5
438
100
AcDbEntity
  8
0
100
AcDbEllipse
 62
7
  6
CONTINUOUS
 10
162.9148771358
 20
131.63012025
 30
0.0
 11
16.0820254931
 21
0.0
 31
0.0
 40
0.9797016263
 41
3.9823334196
 42
3.9986825208
  0
ELLIPSE
  5
439
100
AcDbEntity
  8
0
100
AcDbEllipse
 62
7
  6
CONTINUOUS
 10
162.9148771358
 20
123.9213650832
 30
0.0
 11
13.9101262653
 21
0.0
 31
0.0
 40
0.4621421851
 41
-2.429282965
 42
-2.4116557467
  0
ELLIPSE
  5
43A
100
AcDbEntity
  8
0
100
AcDbEllipse
 62
7
  6
CONTINUOUS
 10
162.9148771358
 20
121.4540850336
 30
0.0
 11
13.0825202226
 21
-0.0
 31
0.0
 40
0.2279598359
 41
-2.4854628653
 42
-2.4489253055
  0
ELLIPSE
  5
43B
100
AcDbEntity
  8
0
100
AcDbEllipse
 62
7
  6
CONTINUOUS
 10
162.9148771358
 20
128.3441753839
 30
0.0
 11
15.3454465231
 21
-0.0
 31
0.0
 40
0.7096550384
 41
-2.5023661361
 42
-2.4827462883
  0
ELLIPSE
  5
43C
100
AcDbEntity
  8
0
100
AcDbEllipse
 62
7
  6
CONTINUOUS
 10
162.9148771358
 20
240.1049055471
 30
0.0
 11
0.0
 21
127.2259838611
 31
0.0
 40
0.2609927077
 41
-3.5156714011
 42
-3.5101405311
  0
ELLIPSE
  5
43D
100
AcDbEntity
  8
0
100
AcDbEllipse
 62
7
  6
CONTINUOUS
 10
162.9148771358
 20
119.6033721418
 30
0.0
 11
11.4659858658
 21
0.0
 31
0.0
 40
0.9797015264
 41
3.0857384561
 42
3.1009088613
  0
ELLIPSE
  5
43E
100
AcDbEntity
  8
0
100
AcDbEllipse
 62
7
  6
CONTINUOUS
 10
162.9148771358
 20
118.8846402391
 30
0.0
 11
11.9557487526
 21
0.0
 31
0.0
 40
0.3438625761
 41
2.8515853621
 42
2.8731213837
  0
ELLIPSE
  5
43F
100
AcDbEntity
  8
0
100
AcDbEllipse
 62
7
  6
CONTINUOUS
 10
162.9148771358
 20
121.3159648317
 30
0.0
 11
12.9527753173
 21
-0.0
 31
0.0
 40
0.3438605686
 41
2.9250251698
 42
2.9445495735
  0
ELLIPSE
  5
440
100
AcDbEntity
  8
0
100
AcDbEllipse
 62
7
  6
CONTINUOUS
 10
162.9148771358
 20
121.73330794
 30
0.0
 11
12.7182790833
 21
0.0
 31
0.0
 40
0.70965945
 41
9.3743881056
 42
9.383827376
  0
ELLIPSE
  5
441
100
AcDbEntity
  8
0
100
AcDbEllipse
 62
7
  6
CONTINUOUS
 10
162.9148771358
 20
128.6574427863
 30
0.0
 11
-0.0
 21
21.9567660964
 31
0.0
 40
0.6064072719
 41
-4.4092426953
 42
-4.4011097114
  0
ELLIPSE
  5
442
100
AcDbEntity
  8
0
100
AcDbEllipse
 62
7
  6
CONTINUOUS
 10
162.9148771358
 20
142.2623172482
 30
0.0
 11
-0.0
 21
29.6304290708
 31
0.0
 40
0.606407194
 41
2.4265173081
 42
2.4353233194
  0
ELLIPSE
  5
443
100
AcDbEntity
  8
0
100
AcDbEllipse
 62
7
  6
CONTINUOUS
 10
162.9148771358
 20
125.477968553
 30
0.0
 11
14.2064077438
 21
-0.0
 31
0.0
 40
0.7096595175
 41
3.7494948304
 42
3.7598161462
  0
ELLIPSE
  5
444
100
AcDbEntity
  8
0
100
AcDbEllipse
 62
7
  6
CONTINUOUS
 10
162.9148771358
 20
121.7718312766
 30
0.0
 11
13.1397146785
 21
-0.0
 31
0.0
 40
0.3438605993
 41
-2.6489041942
 42
-2.6273994713
  0
ELLIPSE
  5
445
100
AcDbEntity
  8
0
100
AcDbEllipse
 62
7
  6
CONTINUOUS
 10
162.9148771358
 20
120.1947291082
 30
0.0
 11
12.5631879389
 21
0.0
 31
0.0
 40
0.2279598359
 41
-2.9447858373
 42
-2.9143871603
  0
ELLIPSE
  5
446
100
AcDbEntity
  8
0
100
AcDbEllipse
 62
7
  6
CONTINUOUS
 10
162.9148771358
 20
124.6849241941
 30
0.0
 11
13.624634922
 21
0.0
 31
0.0
 40
0.8682520127
 41
-2.7242545892
 42
-2.7005180464
  0
ELLIPSE
  5
447
100
AcDbEntity
  8
0
100
AcDbEllipse
 62
7
  6
CONTINUOUS
 10
162.9148771358
 20
135.8965702987
 30
0.0
 11
-0.0
 21
26.0398097185
 31
0.0
 40
0.6064105606
 41
-4.0627619141
 42
-4.0503904733
  0
ELLIPSE
  5
448
100
AcDbEntity
  8
0
100
AcDbEllipse
 62
7
  6
CONTINUOUS
 10
162.9148771358
 20
136.8950790261
 30
0.0
 11
-0.0
 21
26.6030009704
 31
0.0
 40
0.6064106644
 41
-4.1720240695
 42
-4.1607939981
  0
ELLIPSE
  5
449
100
AcDbEntity
  8
0
100
AcDbEllipse
 62
7
  6
CONTINUOUS
 10
162.9148771358
 20
126.6456547538
 30
0.0
 11
14.38887454
 21
-0.0
 31
0.0
 40
0.8682519268
 41
-2.8841270014
 42
-2.8629329933
  0
ELLIPSE
  5
44A
100
AcDbEntity
  8
0
100
AcDbEllipse
 62
7
  6
CONTINUOUS
 10
162.9148771358
 20
123.4719167188
 30
0.0
 11
13.9146322014
 21
0.0
 31
0.0
 40
0.2279598157
 41
3.1170938006
 42
3.1439269564
  0
ELLIPSE
  5
44B
100
AcDbEntity
  8
0
100
AcDbEllipse
 62
7
  6
CONTINUOUS
 10
162.9148771358
 20
123.212512026
 30
0.0
 11
13.8345626851
 21
-0.0
 31
0.0
 40
0.1706373825
 41
0.1069522193
 42
0.1432896956
  0
ELLIPSE
  5
44C
100
AcDbEntity
  8
0
100
AcDbEllipse
 62
7
  6
CONTINUOUS
 10
162.9148771358
 20
124.1773395047
 30
0.0
 11
13.8014567309
 21
0.0
 31
0.0
 40
0.6335116597
 41
-0.1109565436
 42
-0.0816181914
  0
ELLIPSE
  5
44D
100
AcDbEntity
  8
0
100
AcDbEllipse
 62
7
  6
CONTINUOUS
 10
162.9148771358
 20
127.9666665681
 30
0.0
 11
0.0
 21
16.1752950617
 31
0.0
 40
0.8872399419
 41
-1.8858886332
 42
-1.8693307008
  0
ELLIPSE
  5
44E
100
AcDbEntity
  8
0
100
AcDbEllipse
 62
7
  6
CONTINUOUS
 10
162.9148771358
 20
193.7600461106
 30
0.0
 11
-0.0
 21
88.0153689492
 31
0.0
 40
0.2609953352
 41
3.7710571402
 42
3.7775977466
  0
ELLIPSE
  5
44F
100
AcDbEntity
  8
0
100
AcDbEllipse
 62
7
  6
CONTINUOUS
 10
162.9148771358
 20
209.6319346267
 30
0.0
 11
0.0
 21
101.4438605218
 31
0.0
 40
0.2609951744
 41
3.6320256433
 42
3.6391035176
  0
ELLIPSE
  5
450
100
AcDbEntity
  8
0
100
AcDbEllipse
 62
7
  6
CONTINUOUS
 10
162.9148771358
 20
129.0032256785
 30
0.0
 11
0.0
 21
16.6137890424
 31
0.0
 40
0.8872398157
 41
-2.1514028696
 42
-2.1331315533
  0
ELLIPSE
  5
451
100
AcDbEntity
  8
0
100
AcDbEllipse
 62
7
  6
CONTINUOUS
 10
162.9148771358
 20
123.3040590723
 30
0.0
 11
13.4515776096
 21
-0.0
 31
0.0
 40
0.6335117189
 41
5.838043953
 42
5.8709869533
  0
ELLIPSE
  5
452
100
AcDbEntity
  8
0
100
AcDbEllipse
 62
7
  6
CONTINUOUS
 10
162.9148771358
 20
120.2046525378
 30
0.0
 11
12.5917669403
 21
-0.0
 31
0.0
 40
0.1706373975
 41
-0.3097931719
 42
-0.2684652654
  0
ELLIPSE
  5
453
100
AcDbEntity
  8
0
100
AcDbEllipse
 62
7
  6
CONTINUOUS
 10
162.9148771358
 20
131.4928884573
 30
0.0
 11
0.0
 21
26.500475573
 31
0.0
 40
0.5045254238
 41
-2.0097463963
 42
-1.9885630748
  0
ELLIPSE
  5
454
100
AcDbEntity
  8
0
100
AcDbEllipse
 62
7
  6
CONTINUOUS
 10
162.9148771358
 20
120.1845912485
 30
0.0
 11
12.1028230438
 21
-0.0
 31
0.0
 40
0.7096563251
 41
-0.0144767489
 42
0.0053416677
  0
ELLIPSE
  5
455
100
AcDbEntity
  8
0
100
AcDbEllipse
 62
7
  6
CONTINUOUS
 10
162.9148771358
 20
119.5845992191
 30
0.0
 11
12.3220066469
 21
0.0
 31
0.0
 40
0.2049902984
 41
0.1552420369
 42
0.1894439514
  0
ELLIPSE
  5
456
100
AcDbEntity
  8
0
100
AcDbEllipse
 62
7
  6
CONTINUOUS
 10
162.9148771358
 20
123.9734618494
 30
0.0
 11
14.133414973
 21
0.0
 31
0.0
 40
0.2049902984
 41
5.9547684234
 42
5.9856448003
  0
ELLIPSE
  5
457
100
AcDbEntity
  8
0
100
AcDbEllipse
 62
7
  6
CONTINUOUS
 10
162.9148771358
 20
128.4135386142
 30
0.0
 11
15.3730092795
 21
-0.0
 31
0.0
 40
0.7096563251
 41
-0.5331505218
 42
-0.5151288091
  0
ELLIPSE
  5
458
100
AcDbEntity
  8
0
100
AcDbEllipse
 62
7
  6
CONTINUOUS
 10
162.9148771358
 20
154.502002727
 30
0.0
 11
0.0
 21
41.1006924503
 31
0.0
 40
0.504525128
 41
3.8143984834
 42
3.8340928827
  0
ELLIPSE
  5
459
100
AcDbEntity
  8
0
100
AcDbEllipse
 62
7
  6
CONTINUOUS
 10
162.9148771358
 20
165.0362421501
 30
0.0
 11
0.0
 21
58.4039763945
 31
0.0
 40
0.3371649734
 41
3.8055321769
 42
3.8195260973
  0
ELLIPSE
  5
45A
100
AcDbEntity
  8
0
100
AcDbEllipse
 62
7
  6
CONTINUOUS
 10
162.9148771358
 20
132.4052386772
 30
0.0
 11
0.0
 21
21.0617504779
 31
0.0
 40
0.7299505483
 41
-2.0361573279
 42
-2.0047483878
  0
ELLIPSE
  5
45B
100
AcDbEntity
  8
0
100
AcDbEllipse
 62
7
  6
CONTINUOUS
 10
162.9148771358
 20
127.9625523106
 30
0.0
 11
14.7945254726
 21
0.0
 31
0.0
 40
0.6335117565
 41
-0.5318862307
 42
-0.5005619351
  0
ELLIPSE
  5
45C
100
AcDbEntity
  8
0
100
AcDbEllipse
 62
7
  6
CONTINUOUS
 10
162.9148771358
 20
119.606715311
 30
0.0
 11
11.8731825495
 21
-0.0
 31
0.0
 40
0.7096506269
 41
2.8724118467
 42
2.8828749329
  0
ELLIPSE
  5
45D
100
AcDbEntity
  8
0
100
AcDbEllipse
 62
7
  6
CONTINUOUS
 10
162.9148771358
 20
120.1437153976
 30
0.0
 11
12.472063806
 21
0.0
 31
0.0
 40
0.3438625761
 41
2.7113211764
 42
2.7330491629
  0
ELLIPSE
  5
45E
100
AcDbEntity
  8
0
100
AcDbEllipse
 62
7
  6
CONTINUOUS
 10
162.9148771358
 20
135.0414539198
 30
0.0
 11
0.0
 21
18.6154094378
 31
0.0
 40
0.887239813
 41
-2.2775019815
 42
-2.2596031041
  0
ELLIPSE
  5
45F
100
AcDbEntity
  8
0
100
AcDbEllipse
 62
7
  6
CONTINUOUS
 10
162.9148771358
 20
232.9927931025
 30
0.0
 11
0.0
 21
120.1028482478
 31
0.0
 40
0.2609962384
 41
-2.7364348037
 42
-2.7293029945
  0
ELLIPSE
  5
460
100
AcDbEntity
  8
0
100
AcDbEllipse
 62
7
  6
CONTINUOUS
 10
162.9148771358
 20
135.8593033877
 30
0.0
 11
17.7052473772
 21
-0.0
 31
0.0
 40
0.9797015264
 41
-2.2257587949
 42
-2.2094758081
  0
ELLIPSE
  5
461
100
AcDbEntity
  8
0
100
AcDbEllipse
 62
7
  6
CONTINUOUS
 10
162.9148771358
 20
127.0386473028
 30
0.0
 11
15.1783202471
 21
-0.0
 31
0.0
 40
0.4621421431
 41
-2.3779945731
 42
-2.3610602008
  0
ELLIPSE
  5
462
100
AcDbEntity
  8
0
100
AcDbEllipse
 62
7
  6
CONTINUOUS
 10
162.9148771358
 20
124.259013841
 30
0.0
 11
14.2392147424
 21
-0.0
 31
0.0
 40
0.2279598157
 41
-2.4832167295
 42
-2.4496267656
  0
ELLIPSE
  5
463
100
AcDbEntity
  8
0
100
AcDbEllipse
 62
7
  6
CONTINUOUS
 10
162.9148771358
 20
165.0219869205
 30
0.0
 11
-0.0
 21
57.3796447843
 31
0.0
 40
0.33716457
 41
-2.5003981942
 42
-2.4856660818
  0
ELLIPSE
  5
464
100
AcDbEntity
  8
0
100
AcDbEllipse
 62
7
  6
CONTINUOUS
 10
162.9148771358
 20
121.7975463359
 30
0.0
 11
13.2241565146
 21
0.0
 31
0.0
 40
0.2279598963
 41
-2.4924197603
 42
-2.4564811311
  0
ELLIPSE
  5
465
100
AcDbEntity
  8
0
100
AcDbEllipse
 62
7
  6
CONTINUOUS
 10
162.9148771358
 20
127.6044264214
 30
0.0
 11
15.0514774552
 21
0.0
 31
0.0
 40
0.7096506269
 41
-2.3573382446
 42
-2.3460187816
  0
ELLIPSE
  5
466
100
AcDbEntity
  8
0
100
AcDbEllipse
 62
7
  6
CONTINUOUS
 10
162.9148771358
 20
163.8162930016
 30
0.0
 11
0.0
 21
61.5758661381
 31
0.0
 40
0.2609960776
 41
-2.3591896774
 42
-2.3513782098
  0
ELLIPSE
  5
467
100
AcDbEntity
  8
0
100
AcDbEllipse
 62
7
  6
CONTINUOUS
 10
162.9148771358
 20
118.0910320232
 30
0.0
 11
11.6956668597
 21
-0.0
 31
0.0
 40
0.2279598359
 41
2.5240925121
 42
2.5627235947
  0
ELLIPSE
  5
468
100
AcDbEntity
  8
0
100
AcDbEllipse
 62
7
  6
CONTINUOUS
 10
162.9148771358
 20
116.3706080227
 30
0.0
 11
10.5871410989
 21
0.0
 31
0.0
 40
0.7096595513
 41
2.6668583614
 42
2.6921682424
  0
ELLIPSE
  5
469
100
AcDbEntity
  8
0
100
AcDbEllipse
 62
7
  6
CONTINUOUS
 10
162.9148771358
 20
136.9346075779
 30
0.0
 11
-0.0
 21
39.9376446725
 31
0.0
 40
0.2610031104
 41
-4.2761679324
 42
-4.2691027709
  0
ELLIPSE
  5
46A
100
AcDbEntity
  8
0
100
AcDbEllipse
 62
7
  6
CONTINUOUS
 10
162.9148771358
 20
137.4383244484
 30
0.0
 11
0.0
 21
20.1821349623
 31
0.0
 40
0.8872358196
 41
-3.7455236303
 42
-3.7228728322
  0
ELLIPSE
  5
46B
100
AcDbEntity
  8
0
100
AcDbEllipse
 62
7
  6
CONTINUOUS
 10
162.9148771358
 20
124.962287148
 30
0.0
 11
14.3916417418
 21
0.0
 31
0.0
 40
0.4061277118
 41
-2.4537913191
 42
-2.3554336042
  0
ELLIPSE
  5
46C
100
AcDbEntity
  8
0
100
AcDbEllipse
 62
7
  6
CONTINUOUS
 10
162.9148771358
 20
133.678629509
 30
0.0
 11
16.8682732048
 21
-0.0
 31
0.0
 40
0.9797015264
 41
-2.3060426828
 42
-2.2905542922
  0
ELLIPSE
  5
46D
100
AcDbEntity
  8
0
100
AcDbEllipse
 62
7
  6
CONTINUOUS
 10
162.9148771358
 20
171.5256943422
 30
0.0
 11
0.0
 21
69.2041060316
 31
0.0
 40
0.2609927077
 41
-3.9063651683
 42
-3.9010216859
  0
ELLIPSE
  5
46E
100
AcDbEntity
  8
0
100
AcDbEllipse
 62
7
  6
CONTINUOUS
 10
162.9148771358
 20
122.3787754683
 30
0.0
 11
12.5312258014
 21
0.0
 31
0.0
 40
0.9797015264
 41
-3.091364012
 42
-3.0774766935
  0
ELLIPSE
  5
46F
100
AcDbEntity
  8
0
100
AcDbEllipse
 62
7
  6
CONTINUOUS
 10
162.9148771358
 20
120.8818002909
 30
0.0
 11
12.7747353389
 21
0.0
 31
0.0
 40
0.3438605686
 41
2.9199437183
 42
2.9397610007
  0
ELLIPSE
  5
470
100
AcDbEntity
  8
0
100
AcDbEllipse
 62
7
  6
CONTINUOUS
 10
162.9148771358
 20
121.3588975064
 30
0.0
 11
-0.0
 21
12.8273253851
 31
0.0
 40
0.8872396869
 41
-1.6855577706
 42
-1.6655434086
  0
ELLIPSE
  5
471
100
AcDbEntity
  8
0
100
AcDbEllipse
 62
7
  6
CONTINUOUS
 10
162.9148771358
 20
122.2059956227
 30
0.0
 11
13.3177546004
 21
-0.0
 31
0.0
 40
0.3438605686
 41
-2.6539347696
 42
-2.6327779081
  0
ELLIPSE
  5
472
100
AcDbEntity
  8
0
100
AcDbEllipse
 62
7
  6
CONTINUOUS
 10
162.9148771358
 20
129.7137677031
 30
0.0
 11
15.3465019025
 21
-0.0
 31
0.0
 40
0.9797015264
 41
-2.4590752693
 42
-2.4443978981
  0
ELLIPSE
  5
473
100
AcDbEntity
  8
0
100
AcDbEllipse
 62
7
  6
CONTINUOUS
 10
162.9148771358
 20
227.3775027275
 30
0.0
 11
0.0
 21
116.4579109417
 31
0.0
 40
0.2609924933
 41
-3.5497417398
 42
-3.5441823892
  0
ELLIPSE
  5
474
100
AcDbEntity
  8
0
100
AcDbEllipse
 62
7
  6
CONTINUOUS
 10
162.9148771358
 20
133.116941791
 30
0.0
 11
16.6526893353
 21
-0.0
 31
0.0
 40
0.9797015264
 41
-2.4075325104
 42
-2.3933897318
  0
ELLIPSE
  5
475
100
AcDbEntity
  8
0
100
AcDbEllipse
 62
7
  6
CONTINUOUS
 10
162.9148771358
 20
124.6807334388
 30
0.0
 11
14.3325824504
 21
-0.0
 31
0.0
 40
0.3438605686
 41
-2.631180417
 42
-2.6112771809
  0
ELLIPSE
  5
476
100
AcDbEntity
  8
0
100
AcDbEllipse
 62
7
  6
CONTINUOUS
 10
162.9148771358
 20
119.3389110941
 30
0.0
 11
11.3394711395
 21
0.0
 31
0.0
 40
0.6335118158
 41
0.0411902153
 42
0.0767955392
  0
ELLIPSE
  5
477
100
AcDbEntity
  8
0
100
AcDbEllipse
 62
7
  6
CONTINUOUS
 10
162.9148771358
 20
119.1860019707
 30
0.0
 11
11.6310287541
 21
0.0
 31
0.0
 40
0.1706373975
 41
0.1842517562
 42
0.2280644182
  0
ELLIPSE
  5
478
100
AcDbEntity
  8
0
100
AcDbEllipse
 62
7
  6
CONTINUOUS
 10
162.9148771358
 20
118.4070623629
 30
0.0
 11
11.7599074221
 21
-0.0
 31
0.0
 40
0.3438605993
 41
2.8331305288
 42
2.8551439678
  0
ELLIPSE
  5
479
100
AcDbEntity
  8
0
100
AcDbEllipse
 62
7
  6
CONTINUOUS
 10
162.9148771358
 20
118.9756018514
 30
0.0
 11
11.2250383066
 21
-0.0
 31
0.0
 40
0.9797016762
 41
3.0661075301
 42
3.0816210966
  0
ELLIPSE
  5
47A
100
AcDbEntity
  8
0
100
AcDbEllipse
 62
7
  6
CONTINUOUS
 10
162.9148771358
 20
131.0229633774
 30
0.0
 11
-0.0
 21
29.1137627776
 31
0.0
 40
0.4166302622
 41
-4.3326255703
 42
-4.3168377405
  0
ELLIPSE
  5
47B
100
AcDbEntity
  8
0
100
AcDbEllipse
 62
7
  6
CONTINUOUS
 10
162.9148771358
 20
148.0035509762
 30
0.0
 11
-0.0
 21
32.868572634
 31
0.0
 40
0.6064106644
 41
-3.8006030453
 42
-3.7878113924
  0
ELLIPSE
  5
47C
100
AcDbEntity
  8
0
100
AcDbEllipse
 62
7
  6
CONTINUOUS
 10
162.9148771358
 20
132.9017793105
 30
0.0
 11
16.0686291016
 21
0.0
 31
0.0
 40
0.9797015264
 41
-2.3930509104
 42
-2.3869439381
  0
ELLIPSE
  5
47D
100
AcDbEntity
  8
0
100
AcDbEllipse
 62
7
  6
CONTINUOUS
 10
162.9148771358
 20
124.6542274673
 30
0.0
 11
13.7859243463
 21
0.0
 31
0.0
 40
0.3438605686
 41
-2.6153156144
 42
-2.5944244874
  0
ELLIPSE
  5
47E
100
AcDbEntity
  8
0
100
AcDbEllipse
 62
7
  6
CONTINUOUS
 10
162.9148771358
 20
118.3805563866
 30
0.0
 11
11.2132493171
 21
0.0
 31
0.0
 40
0.3438605993
 41
2.8102969439
 42
2.8335476773
  0
ELLIPSE
  5
47F
100
AcDbEntity
  8
0
100
AcDbEllipse
 62
7
  6
CONTINUOUS
 10
162.9148771358
 20
118.7604393051
 30
0.0
 11
10.6409780603
 21
0.0
 31
0.0
 40
0.9797016762
 41
3.0453302525
 42
3.057629559
  0
ELLIPSE
  5
480
100
AcDbEntity
  8
0
100
AcDbEllipse
 62
7
  6
CONTINUOUS
 10
162.9148771358
 20
119.4938220145
 30
0.0
 11
11.3090898307
 21
0.0
 31
0.0
 40
0.7096506269
 41
2.8439433139
 42
2.8550169651
  0
ELLIPSE
  5
481
100
AcDbEntity
  8
0
100
AcDbEllipse
 62
7
  6
CONTINUOUS
 10
162.9148771358
 20
135.6441409071
 30
0.0
 11
17.1211871435
 21
-0.0
 31
0.0
 40
0.9797015264
 41
-2.2020341255
 42
-2.1846309398
  0
ELLIPSE
  5
482
100
AcDbEntity
  8
0
100
AcDbEllipse
 62
7
  6
CONTINUOUS
 10
162.9148771358
 20
126.990769951
 30
0.0
 11
14.6272976329
 21
0.0
 31
0.0
 40
0.4621421431
 41
-2.3513944487
 42
-2.3333379861
  0
ELLIPSE
  5
483
100
AcDbEntity
  8
0
100
AcDbEllipse
 62
7
  6
CONTINUOUS
 10
162.9148771358
 20
124.2473646554
 30
0.0
 11
13.6956113708
 21
0.0
 31
0.0
 40
0.2279598157
 41
-2.4569625364
 42
-2.4212445945
  0
ELLIPSE
  5
484
100
AcDbEntity
  8
0
100
AcDbEllipse
 62
7
  6
CONTINUOUS
 10
162.9148771358
 20
121.785897142
 30
0.0
 11
12.6805531413
 21
-0.0
 31
0.0
 40
0.2279598963
 41
-2.4646492786
 42
-2.4591771322
  0
ELLIPSE
  5
485
100
AcDbEntity
  8
0
100
AcDbEllipse
 62
7
  6
CONTINUOUS
 10
162.9148771358
 20
127.4915331249
 30
0.0
 11
14.4873847364
 21
0.0
 31
0.0
 40
0.7096506269
 41
-2.3337214173
 42
-2.3216659921
  0
ELLIPSE
  5
486
100
AcDbEntity
  8
0
100
AcDbEllipse
 62
7
  6
CONTINUOUS
 10
162.9148771358
 20
118.0793828355
 30
0.0
 11
11.1520634876
 21
0.0
 31
0.0
 40
0.2279598359
 41
2.4832532613
 42
2.5249162114
  0
ELLIPSE
  5
487
100
AcDbEntity
  8
0
100
AcDbEllipse
 62
7
  6
CONTINUOUS
 10
162.9148771358
 20
116.2577118868
 30
0.0
 11
10.0230478159
 21
-0.0
 31
0.0
 40
0.7096595513
 41
2.6194948203
 42
2.6468904188
  0
ELLIPSE
  5
488
100
AcDbEntity
  8
0
100
AcDbEllipse
 62
7
  6
CONTINUOUS
 10
162.9148771358
 20
133.64391276
 30
0.0
 11
0.0
 21
36.0481495429
 31
0.0
 40
0.2610031104
 41
-4.3260283937
 42
-4.3183700241
  0
ELLIPSE
  5
489
100
AcDbEntity
  8
0
100
AcDbEllipse
 62
7
  6
CONTINUOUS
 10
162.9148771358
 20
137.1535501181
 30
0.0
 11
0.0
 21
19.5089544422
 31
0.0
 40
0.8872358196
 41
-3.720766801
 42
-3.6963994533
  0
ELLIPSE
  5
48A
100
AcDbEntity
  8
0
100
AcDbEllipse
 62
7
  6
CONTINUOUS
 10
162.9148771358
 20
124.9253124852
 30
0.0
 11
13.8428413616
 21
0.0
 31
0.0
 40
0.4061277118
 41
-2.4294840848
 42
-2.3245539084
  0
ELLIPSE
  5
48B
100
AcDbEntity
  8
0
100
AcDbEllipse
 62
7
  6
CONTINUOUS
 10
162.9148771358
 20
133.4634670285
 30
0.0
 11
16.2842129712
 21
0.0
 31
0.0
 40
0.9797015264
 41
-2.2862741592
 42
-2.2698537509
  0
ELLIPSE
  5
48C
100
AcDbEntity
  8
0
100
AcDbEllipse
 62
7
  6
CONTINUOUS
 10
162.9148771358
 20
236.2836612099
 30
0.0
 11
0.0
 21
123.992519094
 31
0.0
 40
0.2609962384
 41
-2.7306647827
 42
-2.723844991
  0
ELLIPSE
  5
48D
100
AcDbEntity
  8
0
100
AcDbEllipse
 62
7
  6
CONTINUOUS
 10
162.9148771358
 20
135.3262256867
 30
0.0
 11
0.0
 21
19.2885863857
 31
0.0
 40
0.887239813
 41
-2.2671620817
 42
-2.2500300676
  0
ELLIPSE
  5
48E
100
AcDbEntity
  8
0
100
AcDbEllipse
 62
7
  6
CONTINUOUS
 10
162.9148771358
 20
128.0525203654
 30
0.0
 11
15.3540443967
 21
-0.0
 31
0.0
 40
0.6335117565
 41
-0.5212075962
 42
-0.4911941241
  0
ELLIPSE
  5
48F
100
AcDbEntity
  8
0
100
AcDbEllipse
 62
7
  6
CONTINUOUS
 10
162.9148771358
 20
124.2246352963
 30
0.0
 11
14.2527545896
 21
0.0
 31
0.0
 40
0.1706373825
 41
-0.3178697795
 42
-0.2812431073
  0
ELLIPSE
  5
490
100
AcDbEntity
  8
0
100
AcDbEllipse
 62
7
  6
CONTINUOUS
 10
162.9148771358
 20
124.21810809
 30
0.0
 11
13.7102083449
 21
0.0
 31
0.0
 40
0.1706373825
 41
-0.3279699537
 42
-0.2897821147
  0
ELLIPSE
  5
491
100
AcDbEntity
  8
0
100
AcDbEllipse
 62
7
  6
CONTINUOUS
 10
162.9148771358
 20
119.192529178
 30
0.0
 11
12.173574999
 21
-0.0
 31
0.0
 40
0.1706373975
 41
0.1727616434
 42
0.2145153306
  0
ELLIPSE
  5
492
100
AcDbEntity
  8
0
100
AcDbEllipse
 62
7
  6
CONTINUOUS
 10
162.9148771358
 20
119.4288791658
 30
0.0
 11
11.898990067
 21
-0.0
 31
0.0
 40
0.6335118158
 41
0.027310617
 42
0.0612157096
  0
ELLIPSE
  5
493
100
AcDbEntity
  8
0
100
AcDbEllipse
 62
7
  6
CONTINUOUS
 10
162.9148771358
 20
121.6436693542
 30
0.0
 11
0.0
 21
13.5005024458
 31
0.0
 40
0.8872396869
 41
-1.7010577146
 42
-1.6820069181
  0
ELLIPSE
  5
494
100
AcDbEntity
  8
0
100
AcDbEllipse
 62
7
  6
CONTINUOUS
 10
162.9148771358
 20
167.107165164
 30
0.0
 11
0.0
 21
65.465541096
 31
0.0
 40
0.2609960776
 41
-2.3707896858
 42
-2.3633543396
  0
ELLIPSE
  5
495
100
AcDbEntity
  8
0
100
AcDbEllipse
 62
7
  6
CONTINUOUS
 10
162.9148771358
 20
120.8018228538
 30
0.0
 11
12.8243894309
 21
-0.0
 31
0.0
 40
0.2049902984
 41
-0.3198861491
 42
-0.2859664729
  0
ELLIPSE
  5
496
100
AcDbEntity
  8
0
100
AcDbEllipse
 62
7
  6
CONTINUOUS
 10
162.9148771358
 20
124.5610327724
 30
0.0
 11
13.8420225481
 21
0.0
 31
0.0
 40
0.7096561413
 41
-0.4759509717
 42
-0.4565522252
  0
ELLIPSE
  5
497
100
AcDbEntity
  8
0
100
AcDbEllipse
 62
7
  6
CONTINUOUS
 10
162.9148771358
 20
146.6660740346
 30
0.0
 11
0.0
 21
36.1284746266
 31
0.0
 40
0.5045252727
 41
-2.3916252009
 42
-2.3711135944
  0
ELLIPSE
  5
498
100
AcDbEntity
  8
0
100
AcDbEllipse
 62
7
  6
CONTINUOUS
 10
162.9148771358
 20
139.3288303546
 30
0.0
 11
0.0
 21
31.4727104922
 31
0.0
 40
0.504524977
 41
-2.1403064532
 42
-2.1211570937
  0
ELLIPSE
  5
499
100
AcDbEntity
  8
0
100
AcDbEllipse
 62
7
  6
CONTINUOUS
 10
162.9148771358
 20
124.0370942416
 30
0.0
 11
13.6338092092
 21
0.0
 31
0.0
 40
0.7096561413
 41
-0.12104871
 42
-0.1033446938
  0
ELLIPSE
  5
49A
100
AcDbEntity
  8
0
100
AcDbEllipse
 62
7
  6
CONTINUOUS
 10
162.9148771358
 20
122.7562382147
 30
0.0
 11
13.6310321891
 21
-0.0
 31
0.0
 40
0.2049902984
 41
0.1013614103
 42
0.1320290851
  0
ELLIPSE
  5
49B
100
AcDbEntity
  8
0
100
AcDbEllipse
 62
7
  6
CONTINUOUS
 10
162.9148771358
 20
166.9939333369
 30
0.0
 11
0.0
 21
59.922290026
 31
0.0
 40
0.33716457
 41
-2.4985678925
 42
-2.47294808
  0
ENDSEC
  0
SECTION
  2
OBJECTS
  0
DICTIONARY
  5
C
100
AcDbDictionary
280
0
281
1
  3
ACAD_GROUP
350
D
  3
ACAD_MLINESTYLE
350
17
  3
ACAD_LAYOUT
350
1A
  3
ACAD_PLOTSETTINGS
350
19
  3
ACAD_PLOTSTYLENAME
350
E
  0
DICTIONARY
  5
D
102
{ACAD_REACTORS
330
C
102
}
100
AcDbDictionary
280
0
281
1
  0
ACDBDICTIONARYWDFLT
  5
E
102
{ACAD_REACTORS
330
C
102
}
100
AcDbDictionary
281
1
  3
Normal
350
F
100
AcDbDictionaryWithDefault
340
F
  0
DICTIONARY
  5
17
102
{ACAD_REACTORS
330
C
102
}
100
AcDbDictionary
280
0
281
1
  3
Standard
350
18
  0
DICTIONARY
  5
19
102
{ACAD_REACTORS
330
C
102
}
100
AcDbDictionary
281
1
  0
DICTIONARY
  5
1A
102
{ACAD_REACTORS
330
C
102
}
100
AcDbDictionary
281
1
  3
Model
350
49C
  3
Layout1
350
49D
  0
ACDBPLACEHOLDER
  5
F
102
{ACAD_REACTORS
330
E
102
}
  0
MLINESTYLE
  5
18
102
{ACAD_REACTORS
330
17
102
}
100
AcDbMlineStyle
  2
STANDARD
 70
0
  3

 62
256
 51
90.0
 52
90.0
 71
2
 49
0.5
 62
256
  6
BYLAYER
 49
-0.5
 62
256
  6
BYLAYER
  0
LAYOUT
  5
49C
102
{ACAD_REACTORS
330
1A
102
}
100
AcDbPlotSettings
  1

  2
none_device
  4
ISO_A4_(297.00_x_210.00_MM)
  6

 40
0.0
 41
0.0
 42
0.0
 43
0.0
 44
297.0
 45
210.0
 46
0.0
 47
0.0
 48
0.0
 49
0.0
140
0.0
141
0.0
142
1.0
143
1.0
 70
1024
 72
1
 73
0
 74
0
  7

 75
0
147
1.0
148
0.0
149
0.0
100
AcDbLayout
  1
Model
 70
0
 71
0
 10
0.0
 20
0.0
 11
297.0
 21
210.0
 12
0.0
 22
0.0
 32
0.0
 14
0.0
 24
0.0
 34
0.0
 15
0.0
 25
0.0
 35
0.0
146
0.0
 13
0.0
 23
0.0
 33
0.0
 16
1.0
 26
0.0
 36
0.0
 17
0.0
 27
1.0
 37
0.0
 76
0
330
20C
345
0
346
0
  0
LAYOUT
  5
49D
102
{ACAD_REACTORS
330
1A
102
}
100
AcDbPlotSettings
  1

  2
none_device
  4
ISO_A4_(297.00_x_210.00_MM)
  6

 40
0.0
 41
0.0
 42
0.0
 43
0.0
 44
297.0
 45
210.0
 46
0.0
 47
0.0
 48
0.0
 49
0.0
140
0.0
141
0.0
142
1.0
143
1.0
 70
0
 72
1
 73
0
 74
0
  7

 75
0
147
1.0
148
0.0
149
0.0
100
AcDbLayout
  1
Layout1
 70
0
 71
1
 10
0.0
 20
0.0
 11
297.0
 21
210.0
 12
0.0
 22
0.0
 32
0.0
 14
0.0
 24
0.0
 34
0.0
 15
0.0
 25
0.0
 35
0.0
146
0.0
 13
0.0
 23
0.0
 33
0.0
 16
1.0
 26
0.0
 36
0.0
 17
0.0
 27
1.0
 37
0.0
 76
0
330
20D
345
0
346
0
  0
ENDSEC
  0
EOF
