999
DXF file: VRM_M24_3_2t_7990316_M32425-P-1.dxf
999
Pro/ENGINEER 2011490 by Parametric Technology Corporation
  0
SECTION
  2
HEADER
  9
$ACADVER
  1
AC1015
  9
$DWGCODEPAGE
  3
ANSI_1252
  9
$EXTMAX
 10
297.0
 20
210.0
 30
0.0
  9
$EXTMIN
 10
0.0
 20
0.0
 30
0.0
  9
$LIMMIN
 10
0.0
 20
0.0
  9
$LIMMAX
 10
297.0
 20
210.0
  9
$VIEWCTR
 10
148.5
 20
105.0
  9
$VIEWSIZE
 40
210.0
  9
$CLAYER
  8
0
  9
$LTSCALE
 40
16.335
  9
$CELTYPE
  6
BYLAYER
  9
$DIMSCALE
 40
1.0
  9
$DIMASZ
 40
3.5
  9
$DIMEXO
 40
1.85625
  9
$DIMDLI
 40
11.286
  9
$DIMEXE
 40
5.346
  9
$DIMCEN
 40
2.673
  9
$DIMLFAC
 40
1.0
  9
$DIMBLK
  1
_FILLED
  9
$DIMTXT
 40
3.5
  9
$DIMTOL
 70
1
  9
$DIMLIM
 70
0
  9
$DIMTFAC
 40
1.0
  9
$DIMTP
 40
0.005
  9
$DIMTM
 40
0.005
  9
$PDMODE
 70
3
  9
$PDSIZE
 40
0.3125
  9
$HANDSEED
  5
493
  9
$TILEMODE
 70
1
  9
$MEASUREMENT
 70
1
  9
$INSUNITS
 70
4
  0
ENDSEC
  0
SECTION
  2
CLASSES
  0
CLASS
  1
ACDBDICTIONARYWDFLT
  2
AcDbDictionaryWithDefault
  3
AutoCAD 2000
 90
0
280
0
281
0
  0
CLASS
  1
ACDBPLACEHOLDER
  2
AcDbPlaceHolder
  3
AutoCAD 2000
 90
0
280
0
281
0
  0
CLASS
  1
LAYOUT
  2
AcDbLayout
  3
AutoCAD 2000
 90
0
280
0
281
0
  0
ENDSEC
  0
SECTION
  2
TABLES
  0
TABLE
  2
VPORT
  5
8
100
AcDbSymbolTable
 70
2
  0
VPORT
  5
1F4
100
AcDbSymbolTableRecord
100
AcDbViewportTableRecord
  2
*ACTIVE
 70
0
 10
0.0
 20
0.0
 11
1.0
 21
1.0
 12
148.5
 22
105.0
 13
0.0
 23
0.0
 14
1.0
 24
1.0
 15
0.0
 25
0.0
 16
0.0
 26
0.0
 36
1.0
 17
0.0
 27
0.0
 37
0.0
 40
210.0
 41
1.4142857143
 42
50.0
 43
0.0
 44
0.0
 50
0.0
 51
0.0
 71
0
 72
100
 73
1
 74
1
 75
0
 76
0
 77
0
 78
0
  0
ENDTAB
  0
TABLE
  2
LTYPE
  5
5
100
AcDbSymbolTable
 70
6
  0
LTYPE
  5
14
100
AcDbSymbolTableRecord
100
AcDbLinetypeTableRecord
  2
BYBLOCK
 70
0
  3

 72
65
 73
0
 40
0.0
  0
LTYPE
  5
15
100
AcDbSymbolTableRecord
100
AcDbLinetypeTableRecord
  2
BYLAYER
 70
0
  3

 72
65
 73
0
 40
0.0
  0
LTYPE
  5
16
100
AcDbSymbolTableRecord
100
AcDbLinetypeTableRecord
  2
CONTINUOUS
 70
64
  3
Solid line
 72
65
 73
0
 40
0.0
  0
LTYPE
  5
1F5
100
AcDbSymbolTableRecord
100
AcDbLinetypeTableRecord
  2
CENTER
 70
64
  3
____ _ ____ _ ____ _ ____ _ ____ _ ____ _ ____
 72
65
 73
4
 40
0.6
 49
0.375
 74
0
 49
-0.075
 74
0
 49
0.075
 74
0
 49
-0.075
 74
0
  0
LTYPE
  5
1F6
100
AcDbSymbolTableRecord
100
AcDbLinetypeTableRecord
  2
HIDDEN
 70
64
  3
- - - - - - - - - - - - - - - - - - - -
 72
65
 73
2
 40
0.2
 49
0.1
 74
0
 49
-0.1
 74
0
  0
LTYPE
  5
1F7
100
AcDbSymbolTableRecord
100
AcDbLinetypeTableRecord
  2
PHANTOM
 70
64
  3
_____ _ _ _____ _ _ _____ _ _ _____
 72
65
 73
6
 40
0.8
 49
0.45
 74
0
 49
-0.05
 74
0
 49
0.1
 74
0
 49
-0.05
 74
0
 49
0.1
 74
0
 49
-0.05
 74
0
  0
LTYPE
  5
1F8
100
AcDbSymbolTableRecord
100
AcDbLinetypeTableRecord
  2
DOT
 70
64
  3
. . . . . . . . . . . . . . . . . . . .
 72
65
 73
2
 40
0.2
 49
0.1
 74
0
 49
-0.1
 74
0
  0
LTYPE
  5
1F9
100
AcDbSymbolTableRecord
100
AcDbLinetypeTableRecord
  2
DASHED
 70
64
  3
- - - - - - - - - - - - - - - - - - - -
 72
65
 73
2
 40
0.2
 49
0.1
 74
0
 49
-0.1
 74
0
  0
ENDTAB
  0
TABLE
  2
LAYER
  5
2
100
AcDbSymbolTable
 70
36
  0
LAYER
  5
10
100
AcDbSymbolTableRecord
100
AcDbLayerTableRecord
  2
0
 70
0
 62
7
  6
CONTINUOUS
370
-3
390
F
  0
LAYER
  5
1FA
100
AcDbSymbolTableRecord
100
AcDbLayerTableRecord
  2
DEFAULT_1
 70
0
 62
7
  6
CENTER
370
-3
390
F
  0
LAYER
  5
1FB
100
AcDbSymbolTableRecord
100
AcDbLayerTableRecord
  2
DEFAULT_2
 70
0
 62
8
  6
HIDDEN
370
-3
390
F
  0
LAYER
  5
1FC
100
AcDbSymbolTableRecord
100
AcDbLayerTableRecord
  2
DEFAULT_3
 70
0
 62
7
  6
PHANTOM
370
-3
390
F
  0
LAYER
  5
1FD
100
AcDbSymbolTableRecord
100
AcDbLayerTableRecord
  2
BEZUGSACHSEN
 70
0
 62
7
  6
CONTINUOUS
370
-3
390
F
  0
LAYER
  5
1FE
100
AcDbSymbolTableRecord
100
AcDbLayerTableRecord
  2
BG_STARTBEZUEGE
 70
0
 62
7
  6
CONTINUOUS
370
-3
390
F
  0
LAYER
  5
1FF
100
AcDbSymbolTableRecord
100
AcDbLayerTableRecord
  2
BOHRUNGEN
 70
0
 62
7
  6
CONTINUOUS
370
-3
390
F
  0
LAYER
  5
200
100
AcDbSymbolTableRecord
100
AcDbLayerTableRecord
  2
FASEN
 70
0
 62
7
  6
CONTINUOUS
370
-3
390
F
  0
LAYER
  5
201
100
AcDbSymbolTableRecord
100
AcDbLayerTableRecord
  2
FLAECHEN
 70
0
 62
7
  6
CONTINUOUS
370
-3
390
F
  0
LAYER
  5
202
100
AcDbSymbolTableRecord
100
AcDbLayerTableRecord
  2
GEWINDE
 70
0
 62
7
  6
CONTINUOUS
370
-3
390
F
  0
LAYER
  5
203
100
AcDbSymbolTableRecord
100
AcDbLayerTableRecord
  2
HILFEN
 70
0
 62
7
  6
CONTINUOUS
370
-3
390
F
  0
LAYER
  5
204
100
AcDbSymbolTableRecord
100
AcDbLayerTableRecord
  2
KONSTRUKTIONSELEMENTE
 70
0
 62
7
  6
CONTINUOUS
370
-3
390
F
  0
LAYER
  5
205
100
AcDbSymbolTableRecord
100
AcDbLayerTableRecord
  2
KURVEN
 70
0
 62
7
  6
CONTINUOUS
370
-3
390
F
  0
LAYER
  5
206
100
AcDbSymbolTableRecord
100
AcDbLayerTableRecord
  2
NORM
 70
0
 62
7
  6
CONTINUOUS
370
-3
390
F
  0
LAYER
  5
207
100
AcDbSymbolTableRecord
100
AcDbLayerTableRecord
  2
PLATZIERUNG
 70
0
 62
7
  6
CONTINUOUS
370
-3
390
F
  0
LAYER
  5
208
100
AcDbSymbolTableRecord
100
AcDbLayerTableRecord
  2
RUNDUNGEN
 70
0
 62
7
  6
CONTINUOUS
370
-3
390
F
  0
LAYER
  5
209
100
AcDbSymbolTableRecord
100
AcDbLayerTableRecord
  2
TEIL_STARTBEZUEGE
 70
0
 62
7
  6
CONTINUOUS
370
-3
390
F
  0
LAYER
  5
20A
100
AcDbSymbolTableRecord
100
AcDbLayerTableRecord
  2
T_STARTBEZUEGE
 70
0
 62
7
  6
CONTINUOUS
370
-3
390
F
  0
ENDTAB
  0
TABLE
  2
STYLE
  5
3
100
AcDbSymbolTable
 70
1
  0
STYLE
  5
11
100
AcDbSymbolTableRecord
100
AcDbTextStyleTableRecord
  2
STANDARD
 70
0
 40
0.0
 41
0.7
 50
0.0
 71
0
 42
0.2
  3
txt
  4

  0
STYLE
  5
20B
100
AcDbSymbolTableRecord
100
AcDbTextStyleTableRecord
  2
TEXTSTYLE_1
 70
0
 40
0.0
 41
0.8
 50
0.0
 71
0
 42
0.2
  3
gdt
  4

  0
ENDTAB
  0
TABLE
  2
VIEW
  5
6
100
AcDbSymbolTable
 70
0
  0
ENDTAB
  0
TABLE
  2
UCS
  5
7
100
AcDbSymbolTable
 70
0
  0
ENDTAB
  0
TABLE
  2
APPID
  5
9
100
AcDbSymbolTable
 70
1
  0
APPID
  5
20C
100
AcDbSymbolTableRecord
100
AcDbRegAppTableRecord
  2
ACAD
 70
0
  0
ENDTAB
  0
TABLE
  2
BLOCK_RECORD
  5
1
100
AcDbSymbolTable
 70
0
  0
BLOCK_RECORD
  5
20D
100
AcDbSymbolTableRecord
100
AcDbBlockTableRecord
  2
*Model_Space
  0
BLOCK_RECORD
  5
20E
100
AcDbSymbolTableRecord
100
AcDbBlockTableRecord
  2
*Paper_Space
  0
ENDTAB
  0
TABLE
  2
DIMSTYLE
  5
A
100
AcDbSymbolTable
 70
1
100
AcDbDimStyleTable
 71
0
  0
DIMSTYLE
105
20F
100
AcDbSymbolTableRecord
100
AcDbDimStyleTableRecord
  2
STANDARD
 70
0
  3

  4

 40
1.0
 41
3.5
 42
0.0625
 43
0.38
 44
0.18
 45
0.0
 46
0.0
 47
0.005
 48
0.005
140
3.5
141
0.09
142
0.0
143
25.4
144
1.0
145
0.0
146
1.0
147
0.09
 71
1.0
 72
0.0
 73
0
 74
0
 75
0
 76
0
 77
1
 78
8
170
0
171
2
172
0
173
0
174
0
175
0
176
0
177
0
178
5
270
2
271
3
272
3
273
2
274
2
275
0
280
0
281
0
282
0
283
1
284
8
285
0
286
0
287
3
288
0
340
11
  0
ENDTAB
  0
ENDSEC
  0
SECTION
  2
BLOCKS
  0
BLOCK
  5
20
100
AcDbEntity
  8
0
100
AcDbBlockBegin
  2
*Model_Space
 70
0
 10
0.0
 20
0.0
 30
0.0
  3
*Model_Space
  1

  0
ENDBLK
  5
21
100
AcDbEntity
  8
0
100
AcDbBlockEnd
  0
BLOCK
  5
1C
100
AcDbEntity
  8
0
100
AcDbBlockBegin
  2
*Paper_Space
 70
0
 10
0.0
 20
0.0
 30
0.0
  3
*Paper_Space
  1

  0
ENDBLK
  5
1D
100
AcDbEntity
  8
0
100
AcDbBlockEnd
  0
ENDSEC
  0
SECTION
  2
ENTITIES
  0
MTEXT
  5
210
100
AcDbEntity
  8
0
100
AcDbMText
 62
5
  6
CONTINUOUS
  7
STANDARD
 71
1
 72
1
 10
202.6547185034
 20
135.4083921206
 30
0.0
 11
0.0
 21
1.0
 31
0.0
 44
0.9
  1
VRM 3,2t RUD
 40
5.0
 41
46.7857142857
  0
MTEXT
  5
211
100
AcDbEntity
  8
0
100
AcDbMText
 62
5
  6
CONTINUOUS
  7
STANDARD
 71
1
 72
1
 10
63.1422056594
 20
45.4123576773
 30
0.0
 11
1.0
 21
0.0
 31
0.0
 44
0.9
  1
VRM 3,2t RUD
 40
5.0
 41
46.7857142857
  0
LINE
  5
212
100
AcDbEntity
  8
0
100
AcDbLine
 62
7
  6
CONTINUOUS
 10
0.0
 20
0.0
 11
0.0
 21
210.0
  0
LINE
  5
213
100
AcDbEntity
  8
0
100
AcDbLine
 62
7
  6
CONTINUOUS
 10
0.0
 20
0.0
 11
297.0
 21
0.0
  0
LINE
  5
214
100
AcDbEntity
  8
0
100
AcDbLine
 62
7
  6
CONTINUOUS
 10
0.0
 20
210.0
 11
297.0
 21
210.0
  0
LINE
  5
215
100
AcDbEntity
  8
0
100
AcDbLine
 62
7
  6
CONTINUOUS
 10
297.0
 20
0.0
 11
297.0
 21
210.0
  0
LINE
  5
216
100
AcDbEntity
  8
0
100
AcDbLine
 62
7
  6
CONTINUOUS
 10
104.5988650898
 20
98.6292513564
 11
69.3988650898
 21
98.6292513564
  0
LINE
  5
217
100
AcDbEntity
  8
BEZUGSACHSEN
100
AcDbLine
 62
7
  6
CONTINUOUS
 10
112.4987920969
 20
99.0792513564
 11
61.4989380821
 21
99.0792513564
  0
LINE
  5
218
100
AcDbEntity
  8
0
100
AcDbLine
 62
7
  6
CONTINUOUS
 10
79.7488648514
 20
104.0792513564
 11
80.4155315975
 21
104.249464117
  0
LINE
  5
219
100
AcDbEntity
  8
0
100
AcDbLine
 62
7
  6
CONTINUOUS
 10
80.4155315975
 20
105.1005279496
 11
79.5821981052
 21
104.9303152039
  0
LINE
  5
21A
100
AcDbEntity
  8
0
100
AcDbLine
 62
7
  6
CONTINUOUS
 10
83.4155315975
 20
103.0579747632
 11
84.2488650898
 21
103.0579747632
  0
LINE
  5
21B
100
AcDbEntity
  8
0
100
AcDbLine
 62
7
  6
CONTINUOUS
 10
78.4155313591
 20
104.0792513564
 11
79.7488648514
 21
104.0792513564
  0
LINE
  5
21C
100
AcDbEntity
  8
0
100
AcDbLine
 62
7
  6
CONTINUOUS
 10
86.5821981052
 20
104.0792513564
 11
92.5821981052
 21
104.0792513564
  0
LINE
  5
21D
100
AcDbEntity
  8
0
100
AcDbLine
 62
7
  6
CONTINUOUS
 10
92.5821981052
 20
104.9303152039
 11
87.9155311207
 21
104.9303152039
  0
LINE
  5
21E
100
AcDbEntity
  8
0
100
AcDbLine
 62
7
  6
CONTINUOUS
 10
85.2488650898
 20
104.9303152039
 11
84.4155311207
 21
104.9303152039
  0
LINE
  5
21F
100
AcDbEntity
  8
0
100
AcDbLine
 62
7
  6
CONTINUOUS
 10
79.5821981052
 20
104.9303152039
 11
78.5821981052
 21
104.9303152039
  0
LINE
  5
220
100
AcDbEntity
  8
0
100
AcDbLine
 62
7
  6
CONTINUOUS
 10
76.9155314187
 20
105.9515917971
 11
76.0821981052
 21
105.9515917971
  0
LINE
  5
221
100
AcDbEntity
  8
0
100
AcDbLine
 62
7
  6
CONTINUOUS
 10
78.7488648514
 20
107.8239322379
 11
79.4155313591
 21
107.8239322379
  0
LINE
  5
222
100
AcDbEntity
  8
0
100
AcDbLine
 62
7
  6
CONTINUOUS
 10
79.4155313591
 20
108.5047832206
 11
78.7488648514
 21
108.5047832206
  0
LINE
  5
223
100
AcDbEntity
  8
0
100
AcDbLine
 62
7
  6
CONTINUOUS
 10
93.9155320743
 20
108.8452087119
 11
95.2488641361
 21
108.8452087119
  0
LINE
  5
224
100
AcDbEntity
  8
0
100
AcDbLine
 62
7
  6
CONTINUOUS
 10
96.0821981052
 20
108.8452087119
 11
97.9155320743
 21
108.8452087119
  0
LINE
  5
225
100
AcDbEntity
  8
0
100
AcDbLine
 62
7
  6
CONTINUOUS
 10
97.9155320743
 20
109.5260596946
 11
96.0821981052
 21
109.5260596946
  0
LINE
  5
226
100
AcDbEntity
  8
0
100
AcDbLine
 62
7
  6
CONTINUOUS
 10
95.2488641361
 20
109.5260596946
 11
93.9155320743
 21
109.5260596946
  0
LINE
  5
227
100
AcDbEntity
  8
0
100
AcDbLine
 62
7
  6
CONTINUOUS
 10
76.2488647769
 20
110.2069111541
 11
77.0821981052
 21
110.2069111541
  0
LINE
  5
228
100
AcDbEntity
  8
0
100
AcDbLine
 62
7
  6
CONTINUOUS
 10
86.7488650898
 20
110.2069111541
 11
87.5821981052
 21
110.2069111541
  0
LINE
  5
229
100
AcDbEntity
  8
0
100
AcDbLine
 62
7
  6
CONTINUOUS
 10
96.5821981052
 20
104.249464117
 11
97.5821981052
 21
104.0792513564
  0
LINE
  5
22A
100
AcDbEntity
  8
0
100
AcDbLine
 62
7
  6
CONTINUOUS
 10
79.4155313591
 20
107.8239322379
 11
80.4155315975
 21
107.6537194922
  0
LINE
  5
22B
100
AcDbEntity
  8
0
100
AcDbLine
 62
7
  6
CONTINUOUS
 10
78.5821981052
 20
104.9303152039
 11
77.7488647321
 21
105.1005279496
  0
LINE
  5
22C
100
AcDbEntity
  8
0
100
AcDbLine
 62
7
  6
CONTINUOUS
 10
97.5821981052
 20
104.7601023987
 11
96.7488641361
 21
104.9303152039
  0
LINE
  5
22D
100
AcDbEntity
  8
0
100
AcDbLine
 62
7
  6
CONTINUOUS
 10
77.7488647321
 20
104.249464117
 11
78.4155313591
 21
104.0792513564
  0
LINE
  5
22E
100
AcDbEntity
  8
0
100
AcDbLine
 62
7
  6
CONTINUOUS
 10
77.0821981052
 20
104.589889653
 11
77.7488647321
 21
104.249464117
  0
LINE
  5
22F
100
AcDbEntity
  8
0
100
AcDbLine
 62
7
  6
CONTINUOUS
 10
88.4155311207
 20
111.0579748824
 11
89.2488650898
 21
111.2281876281
  0
LINE
  5
230
100
AcDbEntity
  8
0
100
AcDbLine
 62
7
  6
CONTINUOUS
 10
77.9155314783
 20
111.0579748824
 11
78.7488648514
 21
111.2281876281
  0
LINE
  5
231
100
AcDbEntity
  8
0
100
AcDbLine
 62
7
  6
CONTINUOUS
 10
89.4155311207
 20
112.0792513564
 11
88.2488650898
 21
111.9090386107
  0
LINE
  5
232
100
AcDbEntity
  8
0
100
AcDbLine
 62
7
  6
CONTINUOUS
 10
78.9155313591
 20
112.0792513564
 11
77.7488647321
 21
111.9090386107
  0
LINE
  5
233
100
AcDbEntity
  8
0
100
AcDbLine
 62
7
  6
CONTINUOUS
 10
96.0821981052
 20
110.8877621367
 11
95.2488641361
 21
110.8877621367
  0
LINE
  5
234
100
AcDbEntity
  8
0
100
AcDbLine
 62
7
  6
CONTINUOUS
 10
78.7488648514
 20
111.2281876281
 11
79.4155313591
 21
111.2281876281
  0
LINE
  5
235
100
AcDbEntity
  8
0
100
AcDbLine
 62
7
  6
CONTINUOUS
 10
89.2488650898
 20
111.2281876281
 11
89.9155311207
 21
111.2281876281
  0
LINE
  5
236
100
AcDbEntity
  8
0
100
AcDbLine
 62
7
  6
CONTINUOUS
 10
90.0821981052
 20
112.0792513564
 11
89.4155311207
 21
112.0792513564
  0
LINE
  5
237
100
AcDbEntity
  8
0
100
AcDbLine
 62
7
  6
CONTINUOUS
 10
79.2488648514
 20
112.0792513564
 11
78.9155313591
 21
112.0792513564
  0
LINE
  5
238
100
AcDbEntity
  8
0
100
AcDbLine
 62
7
  6
CONTINUOUS
 10
48.4988650898
 20
116.0792513564
 11
50.4273653498
 21
116.0792513564
  0
LINE
  5
239
100
AcDbEntity
  8
0
100
AcDbLine
 62
7
  6
CONTINUOUS
 10
123.5703648297
 20
116.0792513564
 11
125.4988650898
 21
116.0792513564
  0
LINE
  5
23A
100
AcDbEntity
  8
0
100
AcDbLine
 62
7
  6
CONTINUOUS
 10
80.4155315975
 20
111.9090386107
 11
79.2488648514
 21
112.0792513564
  0
LINE
  5
23B
100
AcDbEntity
  8
0
100
AcDbLine
 62
7
  6
CONTINUOUS
 10
91.0821981052
 20
111.9090386107
 11
90.0821981052
 21
112.0792513564
  0
LINE
  5
23C
100
AcDbEntity
  8
0
100
AcDbLine
 62
7
  6
CONTINUOUS
 10
79.4155313591
 20
111.2281876281
 11
80.2488646129
 21
111.0579748824
  0
LINE
  5
23D
100
AcDbEntity
  8
0
100
AcDbLine
 62
7
  6
CONTINUOUS
 10
89.9155311207
 20
111.2281876281
 11
90.7488650898
 21
111.0579748824
  0
LINE
  5
23E
100
AcDbEntity
  8
0
100
AcDbLine
 62
7
  6
CONTINUOUS
 10
96.0821981052
 20
104.4196768775
 11
96.5821981052
 21
104.249464117
  0
LINE
  5
23F
100
AcDbEntity
  8
0
100
AcDbLine
 62
7
  6
CONTINUOUS
 10
81.5821981052
 20
107.8239322379
 11
80.7488646129
 21
108.1643577292
  0
LINE
  5
240
100
AcDbEntity
  8
0
100
AcDbLine
 62
7
  6
CONTINUOUS
 10
77.7488647321
 20
105.1005279496
 11
77.4155314783
 21
105.2707406953
  0
LINE
  5
241
100
AcDbEntity
  8
0
100
AcDbLine
 62
7
  6
CONTINUOUS
 10
81.0821981052
 20
111.5686131194
 11
80.4155315975
 21
111.9090386107
  0
LINE
  5
242
100
AcDbEntity
  8
0
100
AcDbLine
 62
7
  6
CONTINUOUS
 10
76.5821981052
 20
104.9303152039
 11
77.0821981052
 21
104.589889653
  0
LINE
  5
243
100
AcDbEntity
  8
0
100
AcDbLine
 62
7
  6
CONTINUOUS
 10
80.4155315975
 20
107.6537194922
 11
80.9155315975
 21
107.3132940009
  0
LINE
  5
244
100
AcDbEntity
  8
0
100
AcDbLine
 62
7
  6
CONTINUOUS
 10
71.9988650898
 20
127.6292513564
 11
101.9988650898
 21
127.6292513564
  0
LINE
  5
245
100
AcDbEntity
  8
0
100
AcDbLine
 62
7
  6
CONTINUOUS
 10
91.7488650898
 20
111.5686131194
 11
91.0821981052
 21
111.9090386107
  0
LINE
  5
246
100
AcDbEntity
  8
0
100
AcDbLine
 62
7
  6
CONTINUOUS
 10
80.2488646129
 20
111.0579748824
 11
80.7488646129
 21
110.7175493911
  0
LINE
  5
247
100
AcDbEntity
  8
0
100
AcDbLine
 62
7
  6
CONTINUOUS
 10
95.5821981052
 20
104.7601023987
 11
96.0821981052
 21
104.4196768775
  0
LINE
  5
248
100
AcDbEntity
  8
0
100
AcDbLine
 62
7
  6
CONTINUOUS
 10
96.7488641361
 20
104.9303152039
 11
96.2488641361
 21
105.2707406953
  0
LINE
  5
249
100
AcDbEntity
  8
0
100
AcDbLine
 62
7
  6
CONTINUOUS
 10
90.7488650898
 20
111.0579748824
 11
91.2488650898
 21
110.7175493911
  0
LINE
  5
24A
100
AcDbEntity
  8
0
100
AcDbLine
 62
7
  6
CONTINUOUS
 10
77.4155314783
 20
105.2707406953
 11
77.0821981052
 21
105.6111663058
  0
LINE
  5
24B
100
AcDbEntity
  8
0
100
AcDbLine
 62
7
  6
CONTINUOUS
 10
81.7488646129
 20
110.8877621367
 11
81.0821981052
 21
111.5686131194
  0
LINE
  5
24C
100
AcDbEntity
  8
0
100
AcDbLine
 62
7
  6
CONTINUOUS
 10
76.2488647769
 20
105.4409534409
 11
76.5821981052
 21
104.9303152039
  0
LINE
  5
24D
100
AcDbEntity
  8
BEZUGSACHSEN
100
AcDbLine
 62
7
  6
CONTINUOUS
 10
53.5112249073
 20
113.4937361034
 11
53.2056154154
 21
114.2294522159
  0
LINE
  5
24E
100
AcDbEntity
  8
BEZUGSACHSEN
100
AcDbLine
 62
7
  6
CONTINUOUS
 10
46.4296715878
 20
130.5416780633
 11
41.5305891359
 21
142.3355980592
  0
LINE
  5
24F
100
AcDbEntity
  8
0
100
AcDbLine
 62
7
  6
CONTINUOUS
 10
92.4155320743
 20
110.8877621367
 11
91.7488650898
 21
111.5686131194
  0
LINE
  5
250
100
AcDbEntity
  8
0
100
AcDbLine
 62
7
  6
CONTINUOUS
 10
81.9155315975
 20
107.3132940009
 11
81.5821981052
 21
107.8239322379
  0
LINE
  5
251
100
AcDbEntity
  8
0
100
AcDbLine
 62
7
  6
CONTINUOUS
 10
80.7488646129
 20
110.7175493911
 11
81.0821981052
 21
110.2069111541
  0
LINE
  5
252
100
AcDbEntity
  8
0
100
AcDbLine
 62
7
  6
CONTINUOUS
 10
77.0821981052
 20
105.6111663058
 11
76.9155314187
 21
105.9515917971
  0
LINE
  5
253
100
AcDbEntity
  8
BEZUGSACHSEN
100
AcDbLine
 62
7
  6
CONTINUOUS
 10
46.4988650898
 20
118.0792513564
 11
46.4988650898
 21
128.0792513564
  0
LINE
  5
254
100
AcDbEntity
  8
0
100
AcDbLine
 62
7
  6
CONTINUOUS
 10
62.6488021906
 20
167.1386017797
 11
64.8177647838
 21
166.1481510504
  0
LINE
  5
255
100
AcDbEntity
  8
0
100
AcDbLine
 62
7
  6
CONTINUOUS
 10
60.0206594293
 20
162.2537352016
 11
55.9052729221
 21
164.3067270006
  0
LINE
  5
256
100
AcDbEntity
  8
0
100
AcDbLine
 62
7
  6
CONTINUOUS
 10
55.4633311838
 20
163.8647852623
 11
60.1773764269
 21
161.5077626935
  0
LINE
  5
257
100
AcDbEntity
  8
0
100
AcDbLine
 62
7
  6
CONTINUOUS
 10
58.9988650898
 20
167.4003191683
 11
62.5343989957
 21
163.8647852623
  0
LINE
  5
258
100
AcDbEntity
  8
0
100
AcDbLine
 62
7
  6
CONTINUOUS
 10
62.9763407339
 20
164.3067270006
 11
61.3966340727
 21
165.8864336618
  0
LINE
  5
259
100
AcDbEntity
  8
0
100
AcDbLine
 62
7
  6
CONTINUOUS
 10
60.9452893726
 20
166.337778362
 11
59.8169274115
 21
167.466140323
  0
LINE
  5
25A
100
AcDbEntity
  8
0
100
AcDbLine
 62
7
  6
CONTINUOUS
 10
62.1096961614
 20
168.8562196727
 11
62.3353687222
 21
168.6305471119
  0
LINE
  5
25B
100
AcDbEntity
  8
0
100
AcDbLine
 62
7
  6
CONTINUOUS
 10
91.2488650898
 20
110.7175493911
 11
91.5821981052
 21
110.2069111541
  0
LINE
  5
25C
100
AcDbEntity
  8
0
100
AcDbLine
 62
7
  6
CONTINUOUS
 10
60.7666320427
 20
162.0970183094
 11
58.4096093685
 21
166.811063447
  0
LINE
  5
25D
100
AcDbEntity
  8
0
100
AcDbLine
 62
7
  6
CONTINUOUS
 10
57.9676676303
 20
166.3691217088
 11
60.0206594293
 21
162.2537352016
  0
LINE
  5
25E
100
AcDbEntity
  8
0
100
AcDbLine
 62
7
  6
CONTINUOUS
 10
80.9155315975
 20
107.3132940009
 11
81.2488646129
 21
106.6324427798
  0
LINE
  5
25F
100
AcDbEntity
  8
0
100
AcDbLine
 62
7
  6
CONTINUOUS
 10
76.0821981052
 20
105.9515917971
 11
76.2488647769
 21
105.4409534409
  0
LINE
  5
260
100
AcDbEntity
  8
0
100
AcDbLine
 62
7
  6
CONTINUOUS
 10
61.5126047089
 20
169.0113693871
 11
61.8103667145
 21
169.0082349259
  0
LINE
  5
261
100
AcDbEntity
  8
0
100
AcDbLine
 62
7
  6
CONTINUOUS
 10
62.2523084527
 20
169.4501766642
 11
61.7304411169
 21
169.5301022618
  0
LINE
  5
262
100
AcDbEntity
  8
0
100
AcDbLine
 62
7
  6
CONTINUOUS
 10
65.3333631974
 20
166.663749464
 11
62.9402956954
 21
167.7309917513
  0
LINE
  5
263
100
AcDbEntity
  8
0
100
AcDbLine
 62
7
  6
CONTINUOUS
 10
63.5812677071
 20
170.4782394518
 11
67.3957581164
 21
168.726144383
  0
LINE
  5
264
100
AcDbEntity
  8
0
100
AcDbLine
 62
7
  6
CONTINUOUS
 10
67.3142650247
 20
169.3968925636
 11
63.0499974093
 21
171.4514514878
  0
LINE
  5
265
100
AcDbEntity
  8
0
100
AcDbLine
 62
7
  6
CONTINUOUS
 10
61.8103667145
 20
169.0082349259
 11
62.1096961614
 21
168.8562196727
  0
LINE
  5
266
100
AcDbEntity
  8
0
100
AcDbLine
 62
7
  6
CONTINUOUS
 10
62.5516378997
 20
169.298161411
 11
62.2523084527
 21
169.4501766642
  0
LINE
  5
267
100
AcDbEntity
  8
0
100
AcDbLine
 62
7
  6
CONTINUOUS
 10
62.8525345772
 20
168.9972647335
 11
62.5516378997
 21
169.298161411
  0
LINE
  5
268
100
AcDbEntity
  8
0
100
AcDbLine
 62
7
  6
CONTINUOUS
 10
62.3870852234
 20
170.7885393019
 11
65.9226191294
 21
167.253005396
  0
LINE
  5
269
100
AcDbEntity
  8
0
100
AcDbLine
 62
7
  6
CONTINUOUS
 10
66.3645604462
 20
167.6949467128
 11
63.5812677071
 21
170.4782394518
  0
LINE
  5
26A
100
AcDbEntity
  8
0
100
AcDbLine
 62
7
  6
CONTINUOUS
 10
66.2329181366
 20
173.1298898812
 11
69.0162108756
 21
170.3465971422
  0
LINE
  5
26B
100
AcDbEntity
  8
0
100
AcDbLine
 62
7
  6
CONTINUOUS
 10
69.4581526138
 20
170.7885388805
 11
65.9226187079
 21
174.3240727864
  0
LINE
  5
26C
100
AcDbEntity
  8
0
100
AcDbLine
 62
7
  6
CONTINUOUS
 10
62.3353687222
 20
168.6305471119
 11
62.4873839755
 21
168.331217665
  0
LINE
  5
26D
100
AcDbEntity
  8
0
100
AcDbLine
 62
7
  6
CONTINUOUS
 10
63.0045498304
 20
168.6979352865
 11
62.8525345772
 21
168.9972647335
  0
LINE
  5
26E
100
AcDbEntity
  8
0
100
AcDbLine
 62
7
  6
CONTINUOUS
 10
95.2488641361
 20
105.4409534409
 11
95.5821981052
 21
104.7601023987
  0
LINE
  5
26F
100
AcDbEntity
  8
0
100
AcDbLine
 62
7
  6
CONTINUOUS
 10
65.2597061006
 20
173.661160179
 11
67.3142650247
 21
169.3968925636
  0
LINE
  5
270
100
AcDbEntity
  8
0
100
AcDbLine
 62
7
  6
CONTINUOUS
 10
67.9850140483
 20
169.315400315
 11
66.2329181366
 21
173.1298898812
  0
LINE
  5
271
100
AcDbEntity
  8
0
100
AcDbLine
 62
7
  6
CONTINUOUS
 10
62.4873839755
 20
168.331217665
 11
62.4905184366
 21
168.0334556594
  0
LINE
  5
272
100
AcDbEntity
  8
BEZUGSACHSEN
100
AcDbLine
 62
7
  6
CONTINUOUS
 10
41.540686589
 20
146.2926542541
 11
42.2365996554
 21
147.9727370172
  0
LINE
  5
273
100
AcDbEntity
  8
RUNDUNGEN
100
AcDbLine
 62
7
  6
CONTINUOUS
 10
42.2365996554
 20
147.9727370172
 11
52.6017247733
 21
172.9963626527
  0
LINE
  5
274
100
AcDbEntity
  8
0
100
AcDbLine
 62
7
  6
CONTINUOUS
 10
92.5196992973
 20
175.8239321932
 11
92.103033028
 21
175.7175492271
  0
LINE
  5
275
100
AcDbEntity
  8
0
100
AcDbLine
 62
7
  6
CONTINUOUS
 10
87.5196998934
 20
175.8239321932
 11
87.103033028
 21
175.7175492271
  0
LINE
  5
276
100
AcDbEntity
  8
0
100
AcDbLine
 62
7
  6
CONTINUOUS
 10
92.103033028
 20
175.0792513564
 11
92.6238667587
 21
175.1856343317
  0
LINE
  5
277
100
AcDbEntity
  8
0
100
AcDbLine
 62
7
  6
CONTINUOUS
 10
87.103033028
 20
175.0792513564
 11
87.6238661627
 21
175.1856343317
  0
LINE
  5
278
100
AcDbEntity
  8
0
100
AcDbLine
 62
7
  6
CONTINUOUS
 10
61.7304411169
 20
169.5301022618
 11
61.2101408008
 21
169.4611466459
  0
LINE
  5
279
100
AcDbEntity
  8
0
100
AcDbLine
 62
7
  6
CONTINUOUS
 10
80.228033028
 20
175.0792513564
 11
80.853033028
 21
175.0792513564
  0
LINE
  5
27A
100
AcDbEntity
  8
0
100
AcDbLine
 62
7
  6
CONTINUOUS
 10
83.4571995953
 20
175.0792513564
 11
84.1863664607
 21
175.0792513564
  0
LINE
  5
27B
100
AcDbEntity
  8
0
100
AcDbLine
 62
7
  6
CONTINUOUS
 10
86.6863661627
 20
175.0792513564
 11
87.103033028
 21
175.0792513564
  0
LINE
  5
27C
100
AcDbEntity
  8
0
100
AcDbLine
 62
7
  6
CONTINUOUS
 10
89.603033028
 20
175.0792513564
 11
92.103033028
 21
175.0792513564
  0
LINE
  5
27D
100
AcDbEntity
  8
0
100
AcDbLine
 62
7
  6
CONTINUOUS
 10
92.103033028
 20
175.7175492271
 11
90.228033028
 21
175.7175492271
  0
LINE
  5
27E
100
AcDbEntity
  8
0
100
AcDbLine
 62
7
  6
CONTINUOUS
 10
87.103033028
 20
175.7175492271
 11
86.6863661627
 21
175.7175492271
  0
LINE
  5
27F
100
AcDbEntity
  8
0
100
AcDbLine
 62
7
  6
CONTINUOUS
 10
80.853033028
 20
177.3132939413
 11
82.6238663117
 21
177.3132939413
  0
LINE
  5
280
100
AcDbEntity
  8
0
100
AcDbLine
 62
7
  6
CONTINUOUS
 10
82.8321995953
 20
177.9515917375
 11
80.853033028
 21
177.9515917375
  0
LINE
  5
281
100
AcDbEntity
  8
0
100
AcDbLine
 62
7
  6
CONTINUOUS
 10
90.228033028
 20
179.4409535601
 11
92.103033028
 21
179.4409535601
  0
LINE
  5
282
100
AcDbEntity
  8
0
100
AcDbLine
 62
7
  6
CONTINUOUS
 10
80.853033028
 20
179.5473365262
 11
82.8321995953
 21
179.5473365262
  0
LINE
  5
283
100
AcDbEntity
  8
0
100
AcDbLine
 62
7
  6
CONTINUOUS
 10
92.103033028
 20
180.0792513564
 11
89.603033028
 21
180.0792513564
  0
LINE
  5
284
100
AcDbEntity
  8
0
100
AcDbLine
 62
7
  6
CONTINUOUS
 10
88.7696998934
 20
180.0792513564
 11
88.1446998934
 21
180.0792513564
  0
LINE
  5
285
100
AcDbEntity
  8
0
100
AcDbLine
 62
7
  6
CONTINUOUS
 10
85.6446998934
 20
180.0792513564
 11
85.0196995953
 21
180.0792513564
  0
LINE
  5
286
100
AcDbEntity
  8
0
100
AcDbLine
 62
7
  6
CONTINUOUS
 10
82.728033028
 20
180.0792513564
 11
80.228033028
 21
180.0792513564
  0
LINE
  5
287
100
AcDbEntity
  8
0
100
AcDbLine
 62
7
  6
CONTINUOUS
 10
86.165533028
 20
175.1856343317
 11
86.6863661627
 21
175.0792513564
  0
LINE
  5
288
100
AcDbEntity
  8
0
100
AcDbLine
 62
7
  6
CONTINUOUS
 10
83.2488664607
 20
179.9728683904
 11
82.728033028
 21
180.0792513564
  0
LINE
  5
289
100
AcDbEntity
  8
0
100
AcDbLine
 62
7
  6
CONTINUOUS
 10
86.6863661627
 20
175.7175492271
 11
86.2696998934
 21
175.8239321932
  0
LINE
  5
28A
100
AcDbEntity
  8
0
100
AcDbLine
 62
7
  6
CONTINUOUS
 10
82.8321995953
 20
179.5473365262
 11
83.1446995953
 21
179.4409535601
  0
LINE
  5
28B
100
AcDbEntity
  8
0
100
AcDbLine
 62
7
  6
CONTINUOUS
 10
85.7488661627
 20
175.3984002918
 11
86.165533028
 21
175.1856343317
  0
LINE
  5
28C
100
AcDbEntity
  8
0
100
AcDbLine
 62
7
  6
CONTINUOUS
 10
86.2696998934
 20
175.8239321932
 11
85.9571998934
 21
176.0366981998
  0
LINE
  5
28D
100
AcDbEntity
  8
0
100
AcDbLine
 62
7
  6
CONTINUOUS
 10
96.2488641361
 20
105.2707406953
 11
96.0821981052
 21
105.7813790515
  0
LINE
  5
28E
100
AcDbEntity
  8
0
100
AcDbLine
 62
7
  6
CONTINUOUS
 10
82.0821981052
 20
106.6324427798
 11
81.9155315975
 21
107.3132940009
  0
LINE
  5
28F
100
AcDbEntity
  8
0
100
AcDbLine
 62
7
  6
CONTINUOUS
 10
81.9155315975
 20
110.2069111541
 11
81.7488646129
 21
110.8877621367
  0
LINE
  5
290
100
AcDbEntity
  8
0
100
AcDbLine
 62
7
  6
CONTINUOUS
 10
63.084475428
 20
168.1760679507
 11
63.0045498304
 21
168.6979352865
  0
LINE
  5
291
100
AcDbEntity
  8
0
100
AcDbLine
 62
7
  6
CONTINUOUS
 10
69.3988650898
 20
99.0792513564
 11
69.3988650898
 21
98.6292513564
  0
LINE
  5
292
100
AcDbEntity
  8
0
100
AcDbLine
 62
7
  6
CONTINUOUS
 10
71.9988650898
 20
123.8863777456
 11
71.9988650898
 21
127.6292513564
  0
LINE
  5
293
100
AcDbEntity
  8
0
100
AcDbLine
 62
7
  6
CONTINUOUS
 10
62.9402956954
 20
167.7309917513
 11
63.084475428
 21
168.1760679507
  0
LINE
  5
294
100
AcDbEntity
  8
0
100
AcDbLine
 62
7
  6
CONTINUOUS
 10
92.6238667587
 20
179.9728683904
 11
92.103033028
 21
180.0792513564
  0
LINE
  5
295
100
AcDbEntity
  8
0
100
AcDbLine
 62
7
  6
CONTINUOUS
 10
92.103033028
 20
179.4409535601
 11
92.5196992973
 21
179.3345705941
  0
LINE
  5
296
100
AcDbEntity
  8
RUNDUNGEN
100
AcDbLine
 62
7
  6
CONTINUOUS
 10
88.9122822516
 20
188.0366880175
 11
118.6900249055
 21
175.7023431534
  0
LINE
  5
297
100
AcDbEntity
  8
0
100
AcDbLine
 62
7
  6
CONTINUOUS
 10
93.040533028
 20
179.7601024583
 11
92.6238667587
 21
179.9728683904
  0
LINE
  5
298
100
AcDbEntity
  8
0
100
AcDbLine
 62
7
  6
CONTINUOUS
 10
92.5196992973
 20
179.3345705941
 11
92.8321992973
 21
179.121804662
  0
LINE
  5
299
100
AcDbEntity
  8
0
100
AcDbLine
 62
7
  6
CONTINUOUS
 10
83.665533028
 20
179.6537194922
 11
83.2488664607
 21
179.9728683904
  0
LINE
  5
29A
100
AcDbEntity
  8
0
100
AcDbLine
 62
7
  6
CONTINUOUS
 10
85.3321998934
 20
175.8239321932
 11
85.7488661627
 21
175.3984002918
  0
LINE
  5
29B
100
AcDbEntity
  8
0
100
AcDbLine
 62
7
  6
CONTINUOUS
 10
83.1446995953
 20
179.4409535601
 11
83.353033028
 21
179.2281876281
  0
LINE
  5
29C
100
AcDbEntity
  8
0
100
AcDbLine
 62
7
  6
CONTINUOUS
 10
93.4571992973
 20
179.3345705941
 11
93.040533028
 21
179.7601024583
  0
LINE
  5
29D
100
AcDbEntity
  8
0
100
AcDbLine
 62
7
  6
CONTINUOUS
 10
83.978033028
 20
179.2281876281
 11
83.665533028
 21
179.6537194922
  0
LINE
  5
29E
100
AcDbEntity
  8
0
100
AcDbLine
 62
7
  6
CONTINUOUS
 10
85.9571998934
 20
176.0366981998
 11
85.7488661627
 21
176.3558470979
  0
LINE
  5
29F
100
AcDbEntity
  8
0
100
AcDbLine
 62
7
  6
CONTINUOUS
 10
85.1238664607
 20
176.2494641319
 11
85.3321998934
 21
175.8239321932
  0
LINE
  5
2A0
100
AcDbEntity
  8
0
100
AcDbLine
 62
7
  6
CONTINUOUS
 10
84.1863664607
 20
175.0792513564
 11
83.2488664607
 21
177.5260598734
  0
LINE
  5
2A1
100
AcDbEntity
  8
0
100
AcDbLine
 62
7
  6
CONTINUOUS
 10
82.6238663117
 20
177.3132939413
 11
83.4571995953
 21
175.0792513564
  0
LINE
  5
2A2
100
AcDbEntity
  8
0
100
AcDbLine
 62
7
  6
CONTINUOUS
 10
83.353033028
 20
179.2281876281
 11
83.4571995953
 21
178.9090387299
  0
LINE
  5
2A3
100
AcDbEntity
  8
0
100
AcDbLine
 62
7
  6
CONTINUOUS
 10
84.0821995953
 20
178.9090387299
 11
83.978033028
 21
179.2281876281
  0
LINE
  5
2A4
100
AcDbEntity
  8
0
100
AcDbLine
 62
7
  6
CONTINUOUS
 10
92.5821981052
 20
110.2069111541
 11
92.4155320743
 21
110.8877621367
  0
LINE
  5
2A5
100
AcDbEntity
  8
0
100
AcDbLine
 62
7
  6
CONTINUOUS
 10
78.7488648514
 20
108.5047832206
 11
78.7488648514
 21
107.8239322379
  0
LINE
  5
2A6
100
AcDbEntity
  8
0
100
AcDbLine
 62
7
  6
CONTINUOUS
 10
80.228033028
 20
180.0792513564
 11
80.228033028
 21
175.0792513564
  0
LINE
  5
2A7
100
AcDbEntity
  8
0
100
AcDbLine
 62
7
  6
CONTINUOUS
 10
80.853033028
 20
175.0792513564
 11
80.853033028
 21
177.3132939413
  0
LINE
  5
2A8
100
AcDbEntity
  8
0
100
AcDbLine
 62
7
  6
CONTINUOUS
 10
80.853033028
 20
177.9515917375
 11
80.853033028
 21
179.5473365262
  0
LINE
  5
2A9
100
AcDbEntity
  8
0
100
AcDbLine
 62
7
  6
CONTINUOUS
 10
81.0821981052
 20
110.2069111541
 11
81.0821981052
 21
109.8664851859
  0
LINE
  5
2AA
100
AcDbEntity
  8
0
100
AcDbLine
 62
7
  6
CONTINUOUS
 10
81.2488646129
 20
106.6324427798
 11
81.2488646129
 21
105.9515917971
  0
LINE
  5
2AB
100
AcDbEntity
  8
0
100
AcDbLine
 62
7
  6
CONTINUOUS
 10
81.9155315975
 20
109.8664851859
 11
81.9155315975
 21
110.2069111541
  0
LINE
  5
2AC
100
AcDbEntity
  8
0
100
AcDbLine
 62
7
  6
CONTINUOUS
 10
82.0821981052
 20
105.9515917971
 11
82.0821981052
 21
106.6324427798
  0
LINE
  5
2AD
100
AcDbEntity
  8
0
100
AcDbLine
 62
7
  6
CONTINUOUS
 10
83.4571995953
 20
178.9090387299
 11
83.4571995953
 21
178.5898895338
  0
LINE
  5
2AE
100
AcDbEntity
  8
0
100
AcDbLine
 62
7
  6
CONTINUOUS
 10
84.0821995953
 20
178.4835065677
 11
84.0821995953
 21
178.9090387299
  0
LINE
  5
2AF
100
AcDbEntity
  8
0
100
AcDbLine
 62
7
  6
CONTINUOUS
 10
85.0196995953
 20
180.0792513564
 11
85.0196995953
 21
176.7813789621
  0
LINE
  5
2B0
100
AcDbEntity
  8
0
100
AcDbLine
 62
7
  6
CONTINUOUS
 10
85.6446998934
 20
176.7813789621
 11
85.6446998934
 21
180.0792513564
  0
LINE
  5
2B1
100
AcDbEntity
  8
0
100
AcDbLine
 62
7
  6
CONTINUOUS
 10
86.5821981052
 20
104.9303152039
 11
86.5821981052
 21
104.0792513564
  0
LINE
  5
2B2
100
AcDbEntity
  8
0
100
AcDbLine
 62
7
  6
CONTINUOUS
 10
86.9988650898
 20
121.5676828768
 11
86.9988650898
 21
127.6292513564
  0
LINE
  5
2B3
100
AcDbEntity
  8
0
100
AcDbLine
 62
7
  6
CONTINUOUS
 10
88.1446998934
 20
180.0792513564
 11
88.1446998934
 21
176.7813789621
  0
LINE
  5
2B4
100
AcDbEntity
  8
0
100
AcDbLine
 62
7
  6
CONTINUOUS
 10
62.4905184366
 20
168.0334556594
 11
62.3447716842
 21
167.7372606735
  0
LINE
  5
2B5
100
AcDbEntity
  8
0
100
AcDbLine
 62
7
  6
CONTINUOUS
 10
92.8321992973
 20
179.121804662
 11
93.040533028
 21
178.8026554659
  0
LINE
  5
2B6
100
AcDbEntity
  8
0
100
AcDbLine
 62
7
  6
CONTINUOUS
 10
93.665533028
 20
178.9090387299
 11
93.4571992973
 21
179.3345705941
  0
LINE
  5
2B7
100
AcDbEntity
  8
0
100
AcDbLine
 62
7
  6
CONTINUOUS
 10
85.7488661627
 20
176.3558470979
 11
85.6446998934
 21
176.7813789621
  0
LINE
  5
2B8
100
AcDbEntity
  8
0
100
AcDbLine
 62
7
  6
CONTINUOUS
 10
93.040533028
 20
178.8026554659
 11
93.1446992973
 21
178.3771236017
  0
LINE
  5
2B9
100
AcDbEntity
  8
0
100
AcDbLine
 62
7
  6
CONTINUOUS
 10
85.0196995953
 20
176.7813789621
 11
85.1238664607
 21
176.2494641319
  0
LINE
  5
2BA
100
AcDbEntity
  8
0
100
AcDbLine
 62
7
  6
CONTINUOUS
 10
88.7696998934
 20
176.7813789621
 11
88.7696998934
 21
180.0792513564
  0
LINE
  5
2BB
100
AcDbEntity
  8
0
100
AcDbLine
 62
7
  6
CONTINUOUS
 10
89.603033028
 20
180.0792513564
 11
89.603033028
 21
175.0792513564
  0
LINE
  5
2BC
100
AcDbEntity
  8
0
100
AcDbLine
 62
7
  6
CONTINUOUS
 10
90.228033028
 20
175.7175492271
 11
90.228033028
 21
179.4409535601
  0
LINE
  5
2BD
100
AcDbEntity
  8
0
100
AcDbLine
 62
7
  6
CONTINUOUS
 10
91.5821981052
 20
110.2069111541
 11
91.5821981052
 21
109.8664851859
  0
LINE
  5
2BE
100
AcDbEntity
  8
0
100
AcDbLine
 62
7
  6
CONTINUOUS
 10
92.5821981052
 20
104.0792513564
 11
92.5821981052
 21
104.9303152039
  0
LINE
  5
2BF
100
AcDbEntity
  8
0
100
AcDbLine
 62
7
  6
CONTINUOUS
 10
92.5821981052
 20
109.8664851859
 11
92.5821981052
 21
110.2069111541
  0
LINE
  5
2C0
100
AcDbEntity
  8
0
100
AcDbLine
 62
7
  6
CONTINUOUS
 10
93.1446992973
 20
178.3771236017
 11
93.1446992973
 21
176.7813789621
  0
LINE
  5
2C1
100
AcDbEntity
  8
0
100
AcDbLine
 62
7
  6
CONTINUOUS
 10
93.7696992973
 20
176.7813789621
 11
93.7696992973
 21
178.3771236017
  0
LINE
  5
2C2
100
AcDbEntity
  8
0
100
AcDbLine
 62
7
  6
CONTINUOUS
 10
93.9155320743
 20
109.5260596946
 11
93.9155320743
 21
108.8452087119
  0
LINE
  5
2C3
100
AcDbEntity
  8
0
100
AcDbLine
 62
7
  6
CONTINUOUS
 10
95.2488641361
 20
110.8877621367
 11
95.2488641361
 21
109.5260596946
  0
LINE
  5
2C4
100
AcDbEntity
  8
0
100
AcDbLine
 62
7
  6
CONTINUOUS
 10
95.2488641361
 20
108.8452087119
 11
95.2488641361
 21
105.4409534409
  0
LINE
  5
2C5
100
AcDbEntity
  8
0
100
AcDbLine
 62
7
  6
CONTINUOUS
 10
96.0821981052
 20
105.7813790515
 11
96.0821981052
 21
108.8452087119
  0
LINE
  5
2C6
100
AcDbEntity
  8
0
100
AcDbLine
 62
7
  6
CONTINUOUS
 10
96.0821981052
 20
109.5260596946
 11
96.0821981052
 21
110.8877621367
  0
LINE
  5
2C7
100
AcDbEntity
  8
0
100
AcDbLine
 62
7
  6
CONTINUOUS
 10
97.5821981052
 20
104.0792513564
 11
97.5821981052
 21
104.7601023987
  0
LINE
  5
2C8
100
AcDbEntity
  8
0
100
AcDbLine
 62
7
  6
CONTINUOUS
 10
97.9155320743
 20
108.8452087119
 11
97.9155320743
 21
109.5260596946
  0
LINE
  5
2C9
100
AcDbEntity
  8
0
100
AcDbLine
 62
7
  6
CONTINUOUS
 10
88.665533028
 20
176.2494641319
 11
88.7696998934
 21
176.7813789621
  0
LINE
  5
2CA
100
AcDbEntity
  8
0
100
AcDbLine
 62
7
  6
CONTINUOUS
 10
93.665533028
 20
176.2494641319
 11
93.7696992973
 21
176.7813789621
  0
LINE
  5
2CB
100
AcDbEntity
  8
0
100
AcDbLine
 62
7
  6
CONTINUOUS
 10
88.1446998934
 20
176.7813789621
 11
88.040533028
 21
176.3558470979
  0
LINE
  5
2CC
100
AcDbEntity
  8
0
100
AcDbLine
 62
7
  6
CONTINUOUS
 10
76.4155314485
 20
110.8877621367
 11
76.2488647769
 21
110.2069111541
  0
LINE
  5
2CD
100
AcDbEntity
  8
0
100
AcDbLine
 62
7
  6
CONTINUOUS
 10
93.1446992973
 20
176.7813789621
 11
93.040533028
 21
176.3558470979
  0
LINE
  5
2CE
100
AcDbEntity
  8
0
100
AcDbLine
 62
7
  6
CONTINUOUS
 10
83.4571995953
 20
178.5898895338
 11
83.353033028
 21
178.2707406357
  0
LINE
  5
2CF
100
AcDbEntity
  8
0
100
AcDbLine
 62
7
  6
CONTINUOUS
 10
83.978033028
 20
178.1643576696
 11
84.0821995953
 21
178.4835065677
  0
LINE
  5
2D0
100
AcDbEntity
  8
0
100
AcDbLine
 62
7
  6
CONTINUOUS
 10
83.665533028
 20
177.7388258055
 11
83.978033028
 21
178.1643576696
  0
LINE
  5
2D1
100
AcDbEntity
  8
0
100
AcDbLine
 62
7
  6
CONTINUOUS
 10
65.9226187079
 20
174.3240727864
 11
65.2597061006
 21
173.661160179
  0
LINE
  5
2D2
100
AcDbEntity
  8
0
100
AcDbLine
 62
7
  6
CONTINUOUS
 10
63.0499974093
 20
171.4514514878
 11
62.3870852234
 21
170.7885393019
  0
LINE
  5
2D3
100
AcDbEntity
  8
0
100
AcDbLine
 62
7
  6
CONTINUOUS
 10
60.7666320427
 20
169.1680861212
 11
58.9988650898
 21
167.4003191683
  0
LINE
  5
2D4
100
AcDbEntity
  8
0
100
AcDbLine
 62
7
  6
CONTINUOUS
 10
58.4096093685
 20
166.811063447
 11
57.9676676303
 21
166.3691217088
  0
LINE
  5
2D5
100
AcDbEntity
  8
0
100
AcDbLine
 62
7
  6
CONTINUOUS
 10
55.9052729221
 20
164.3067270006
 11
55.4633311838
 21
163.8647852623
  0
LINE
  5
2D6
100
AcDbEntity
  8
0
100
AcDbLine
 62
7
  6
CONTINUOUS
 10
59.8169274115
 20
167.466140323
 11
61.2164097231
 21
168.8656226346
  0
LINE
  5
2D7
100
AcDbEntity
  8
0
100
AcDbLine
 62
7
  6
CONTINUOUS
 10
62.3447716842
 20
167.7372606735
 11
60.9452893726
 21
166.337778362
  0
LINE
  5
2D8
100
AcDbEntity
  8
0
100
AcDbLine
 62
7
  6
CONTINUOUS
 10
61.3966340727
 20
165.8864336618
 11
62.6488021906
 21
167.1386017797
  0
LINE
  5
2D9
100
AcDbEntity
  8
0
100
AcDbLine
 62
7
  6
CONTINUOUS
 10
60.1773764269
 20
161.5077626935
 11
60.7666320427
 21
162.0970183094
  0
LINE
  5
2DA
100
AcDbEntity
  8
0
100
AcDbLine
 62
7
  6
CONTINUOUS
 10
62.5343989957
 20
163.8647852623
 11
62.9763407339
 21
164.3067270006
  0
LINE
  5
2DB
100
AcDbEntity
  8
0
100
AcDbLine
 62
7
  6
CONTINUOUS
 10
64.8177647838
 20
166.1481510504
 11
65.3333631974
 21
166.663749464
  0
LINE
  5
2DC
100
AcDbEntity
  8
0
100
AcDbLine
 62
7
  6
CONTINUOUS
 10
65.9226191294
 20
167.253005396
 11
66.3645604462
 21
167.6949467128
  0
LINE
  5
2DD
100
AcDbEntity
  8
0
100
AcDbLine
 62
7
  6
CONTINUOUS
 10
67.3957581164
 20
168.726144383
 11
67.9850140483
 21
169.315400315
  0
LINE
  5
2DE
100
AcDbEntity
  8
0
100
AcDbLine
 62
7
  6
CONTINUOUS
 10
69.0162108756
 20
170.3465971422
 11
69.4581526138
 21
170.7885388805
  0
LINE
  5
2DF
100
AcDbEntity
  8
0
100
AcDbLine
 62
7
  6
CONTINUOUS
 10
61.2101408008
 20
169.4611466459
 11
60.7666320427
 21
169.1680861212
  0
LINE
  5
2E0
100
AcDbEntity
  8
RUNDUNGEN
100
AcDbLine
 62
7
  6
CONTINUOUS
 10
55.3077052741
 20
175.7023431534
 11
85.0854479279
 21
188.0366880175
  0
LINE
  5
2E1
100
AcDbEntity
  8
0
100
AcDbLine
 62
7
  6
CONTINUOUS
 10
93.7696992973
 20
178.3771236017
 11
93.665533028
 21
178.9090387299
  0
LINE
  5
2E2
100
AcDbEntity
  8
0
100
AcDbLine
 62
7
  6
CONTINUOUS
 10
101.9988650898
 20
123.886377666
 11
101.9988650898
 21
127.6292513564
  0
LINE
  5
2E3
100
AcDbEntity
  8
0
100
AcDbLine
 62
7
  6
CONTINUOUS
 10
104.5988650898
 20
99.0792513564
 11
104.5988650898
 21
98.6292513564
  0
LINE
  5
2E4
100
AcDbEntity
  8
0
100
AcDbLine
 62
7
  6
CONTINUOUS
 10
81.7488646129
 20
109.1856342032
 11
81.9155315975
 21
109.8664851859
  0
LINE
  5
2E5
100
AcDbEntity
  8
0
100
AcDbLine
 62
7
  6
CONTINUOUS
 10
86.9155311207
 20
110.8877621367
 11
86.7488650898
 21
110.2069111541
  0
LINE
  5
2E6
100
AcDbEntity
  8
0
100
AcDbLine
 62
7
  6
CONTINUOUS
 10
88.4571998934
 20
175.8239321932
 11
88.665533028
 21
176.2494641319
  0
LINE
  5
2E7
100
AcDbEntity
  8
0
100
AcDbLine
 62
7
  6
CONTINUOUS
 10
93.4571992973
 20
175.8239321932
 11
93.665533028
 21
176.2494641319
  0
LINE
  5
2E8
100
AcDbEntity
  8
0
100
AcDbLine
 62
7
  6
CONTINUOUS
 10
88.040533028
 20
176.3558470979
 11
87.8321998934
 21
176.0366981998
  0
LINE
  5
2E9
100
AcDbEntity
  8
0
100
AcDbLine
 62
7
  6
CONTINUOUS
 10
93.040533028
 20
176.3558470979
 11
92.8321992973
 21
176.0366981998
  0
LINE
  5
2EA
100
AcDbEntity
  8
0
100
AcDbLine
 62
7
  6
CONTINUOUS
 10
83.353033028
 20
178.2707406357
 11
83.1446995953
 21
178.0579747036
  0
LINE
  5
2EB
100
AcDbEntity
  8
0
100
AcDbLine
 62
7
  6
CONTINUOUS
 10
88.040533028
 20
175.3984002918
 11
88.4571998934
 21
175.8239321932
  0
LINE
  5
2EC
100
AcDbEntity
  8
0
100
AcDbLine
 62
7
  6
CONTINUOUS
 10
93.040533028
 20
175.3984002918
 11
93.4571992973
 21
175.8239321932
  0
LINE
  5
2ED
100
AcDbEntity
  8
0
100
AcDbLine
 62
7
  6
CONTINUOUS
 10
87.8321998934
 20
176.0366981998
 11
87.5196998934
 21
175.8239321932
  0
LINE
  5
2EE
100
AcDbEntity
  8
0
100
AcDbLine
 62
7
  6
CONTINUOUS
 10
83.2488664607
 20
177.5260598734
 11
83.665533028
 21
177.7388258055
  0
LINE
  5
2EF
100
AcDbEntity
  8
0
100
AcDbLine
 62
7
  6
CONTINUOUS
 10
61.2164097231
 20
168.8656226346
 11
61.5126047089
 21
169.0113693871
  0
LINE
  5
2F0
100
AcDbEntity
  8
0
100
AcDbLine
 62
7
  6
CONTINUOUS
 10
83.1446995953
 20
178.0579747036
 11
82.8321995953
 21
177.9515917375
  0
LINE
  5
2F1
100
AcDbEntity
  8
0
100
AcDbLine
 62
7
  6
CONTINUOUS
 10
92.4155320743
 20
109.1856342032
 11
92.5821981052
 21
109.8664851859
  0
LINE
  5
2F2
100
AcDbEntity
  8
0
100
AcDbLine
 62
7
  6
CONTINUOUS
 10
81.9155315975
 20
105.4409534409
 11
82.0821981052
 21
105.9515917971
  0
LINE
  5
2F3
100
AcDbEntity
  8
0
100
AcDbLine
 62
7
  6
CONTINUOUS
 10
92.8321992973
 20
176.0366981998
 11
92.5196992973
 21
175.8239321932
  0
LINE
  5
2F4
100
AcDbEntity
  8
0
100
AcDbLine
 62
7
  6
CONTINUOUS
 10
87.6238661627
 20
175.1856343317
 11
88.040533028
 21
175.3984002918
  0
LINE
  5
2F5
100
AcDbEntity
  8
0
100
AcDbLine
 62
7
  6
CONTINUOUS
 10
92.6238667587
 20
175.1856343317
 11
93.040533028
 21
175.3984002918
  0
LINE
  5
2F6
100
AcDbEntity
  8
RUNDUNGEN
100
AcDbLine
 62
7
  6
CONTINUOUS
 10
121.3960054062
 20
172.9963626527
 11
131.7611295525
 21
147.9727393631
  0
LINE
  5
2F7
100
AcDbEntity
  8
BEZUGSACHSEN
100
AcDbLine
 62
7
  6
CONTINUOUS
 10
131.7611295525
 20
147.9727393631
 11
132.4570435905
 21
146.2926542541
  0
LINE
  5
2F8
100
AcDbEntity
  8
BEZUGSACHSEN
100
AcDbLine
 62
7
  6
CONTINUOUS
 10
127.4988650898
 20
128.0792513564
 11
127.4988650898
 21
118.0792513564
  0
LINE
  5
2F9
100
AcDbEntity
  8
0
100
AcDbLine
 62
7
  6
CONTINUOUS
 10
81.0821981052
 20
109.8664851859
 11
80.7488646129
 21
109.1856342032
  0
LINE
  5
2FA
100
AcDbEntity
  8
0
100
AcDbLine
 62
7
  6
CONTINUOUS
 10
81.2488646129
 20
105.9515917971
 11
81.0821981052
 21
105.6111663058
  0
LINE
  5
2FB
100
AcDbEntity
  8
0
100
AcDbLine
 62
7
  6
CONTINUOUS
 10
77.0821981052
 20
110.2069111541
 11
77.4155314783
 21
110.7175493911
  0
LINE
  5
2FC
100
AcDbEntity
  8
0
100
AcDbLine
 62
7
  6
CONTINUOUS
 10
91.5821981052
 20
109.8664851859
 11
91.2488650898
 21
109.1856342032
  0
LINE
  5
2FD
100
AcDbEntity
  8
0
100
AcDbLine
 62
7
  6
CONTINUOUS
 10
84.4155311207
 20
104.9303152039
 11
83.4155315975
 21
103.0579747632
  0
LINE
  5
2FE
100
AcDbEntity
  8
0
100
AcDbLine
 62
7
  6
CONTINUOUS
 10
84.2488650898
 20
103.0579747632
 11
85.2488650898
 21
104.9303152039
  0
LINE
  5
2FF
100
AcDbEntity
  8
0
100
AcDbLine
 62
7
  6
CONTINUOUS
 10
81.4155315975
 20
108.6749959662
 11
81.7488646129
 21
109.1856342032
  0
LINE
  5
300
100
AcDbEntity
  8
0
100
AcDbLine
 62
7
  6
CONTINUOUS
 10
81.5821981052
 20
104.9303152039
 11
81.9155315975
 21
105.4409534409
  0
LINE
  5
301
100
AcDbEntity
  8
0
100
AcDbLine
 62
7
  6
CONTINUOUS
 10
87.5821981052
 20
110.2069111541
 11
87.9155311207
 21
110.7175493911
  0
LINE
  5
302
100
AcDbEntity
  8
0
100
AcDbLine
 62
7
  6
CONTINUOUS
 10
92.0821981052
 20
108.6749959662
 11
92.4155320743
 21
109.1856342032
  0
LINE
  5
303
100
AcDbEntity
  8
0
100
AcDbLine
 62
7
  6
CONTINUOUS
 10
77.0821981052
 20
111.5686131194
 11
76.4155314485
 21
110.8877621367
  0
LINE
  5
304
100
AcDbEntity
  8
0
100
AcDbLine
 62
7
  6
CONTINUOUS
 10
80.7488646129
 20
109.1856342032
 11
80.4155315975
 21
108.8452087119
  0
LINE
  5
305
100
AcDbEntity
  8
0
100
AcDbLine
 62
7
  6
CONTINUOUS
 10
81.0821981052
 20
105.6111663058
 11
80.7488646129
 21
105.2707406953
  0
LINE
  5
306
100
AcDbEntity
  8
BEZUGSACHSEN
100
AcDbLine
 62
7
  6
CONTINUOUS
 10
132.4671410438
 20
142.3355980594
 11
127.5680585918
 21
130.5416780633
  0
LINE
  5
307
100
AcDbEntity
  8
BEZUGSACHSEN
100
AcDbLine
 62
7
  6
CONTINUOUS
 10
120.7921147641
 20
114.2294522159
 11
120.4865052723
 21
113.4937361034
  0
LINE
  5
308
100
AcDbEntity
  8
0
100
AcDbLine
 62
7
  6
CONTINUOUS
 10
87.5821981052
 20
111.5686131194
 11
86.9155311207
 21
110.8877621367
  0
LINE
  5
309
100
AcDbEntity
  8
0
100
AcDbLine
 62
7
  6
CONTINUOUS
 10
91.2488650898
 20
109.1856342032
 11
86.5821981052
 21
104.9303152039
  0
LINE
  5
30A
100
AcDbEntity
  8
0
100
AcDbLine
 62
7
  6
CONTINUOUS
 10
87.9155311207
 20
104.9303152039
 11
92.0821981052
 21
108.6749959662
  0
LINE
  5
30B
100
AcDbEntity
  8
0
100
AcDbLine
 62
7
  6
CONTINUOUS
 10
80.7488646129
 20
108.1643577292
 11
81.4155315975
 21
108.6749959662
  0
LINE
  5
30C
100
AcDbEntity
  8
0
100
AcDbLine
 62
7
  6
CONTINUOUS
 10
77.4155314783
 20
110.7175493911
 11
77.9155314783
 21
111.0579748824
  0
LINE
  5
30D
100
AcDbEntity
  8
0
100
AcDbLine
 62
7
  6
CONTINUOUS
 10
87.9155311207
 20
110.7175493911
 11
88.4155311207
 21
111.0579748824
  0
LINE
  5
30E
100
AcDbEntity
  8
0
100
AcDbLine
 62
7
  6
CONTINUOUS
 10
81.0821981052
 20
104.589889653
 11
81.5821981052
 21
104.9303152039
  0
LINE
  5
30F
100
AcDbEntity
  8
0
100
AcDbLine
 62
7
  6
CONTINUOUS
 10
77.7488647321
 20
111.9090386107
 11
77.0821981052
 21
111.5686131194
  0
LINE
  5
310
100
AcDbEntity
  8
0
100
AcDbLine
 62
7
  6
CONTINUOUS
 10
88.2488650898
 20
111.9090386107
 11
87.5821981052
 21
111.5686131194
  0
LINE
  5
311
100
AcDbEntity
  8
0
100
AcDbLine
 62
7
  6
CONTINUOUS
 10
80.7488646129
 20
105.2707406953
 11
80.4155315975
 21
105.1005279496
  0
LINE
  5
312
100
AcDbEntity
  8
0
100
AcDbLine
 62
7
  6
CONTINUOUS
 10
80.4155315975
 20
104.249464117
 11
81.0821981052
 21
104.589889653
  0
LINE
  5
313
100
AcDbEntity
  8
0
100
AcDbLine
 62
7
  6
CONTINUOUS
 10
80.4155315975
 20
108.8452087119
 11
79.4155313591
 21
108.5047832206
  0
LINE
  5
314
100
AcDbEntity
  8
0
100
AcDbLine
 62
7
  6
CONTINUOUS
 10
187.8832410046
 20
98.6292513564
 11
223.0816593895
 21
98.6292513564
  0
LINE
  5
315
100
AcDbEntity
  8
BEZUGSACHSEN
100
AcDbLine
 62
7
  6
CONTINUOUS
 10
179.9824797851
 20
99.0792513564
 11
230.982420609
 21
99.0792513564
  0
LINE
  5
316
100
AcDbEntity
  8
0
100
AcDbLine
 62
7
  6
CONTINUOUS
 10
178.8415696189
 20
103.0579747632
 11
178.4405790351
 21
103.0579747632
  0
LINE
  5
317
100
AcDbEntity
  8
0
100
AcDbLine
 62
7
  6
CONTINUOUS
 10
231.917274414
 20
103.0579747632
 11
232.5243213589
 21
103.0579747632
  0
LINE
  5
318
100
AcDbEntity
  8
0
100
AcDbLine
 62
7
  6
CONTINUOUS
 10
180.3756495205
 20
104.0792513564
 11
179.8227953234
 21
104.0792513564
  0
LINE
  5
319
100
AcDbEntity
  8
0
100
AcDbLine
 62
7
  6
CONTINUOUS
 10
178.0286009124
 20
104.0792513564
 11
179.0447600758
 21
104.0792513564
  0
LINE
  5
31A
100
AcDbEntity
  8
0
100
AcDbLine
 62
7
  6
CONTINUOUS
 10
231.2287098111
 20
104.0792513564
 11
232.1090407814
 21
104.0792513564
  0
LINE
  5
31B
100
AcDbEntity
  8
0
100
AcDbLine
 62
7
  6
CONTINUOUS
 10
232.8606887012
 20
104.0792513564
 11
232.9336284973
 21
104.0792513564
  0
LINE
  5
31C
100
AcDbEntity
  8
0
100
AcDbLine
 62
7
  6
CONTINUOUS
 10
231.0840914833
 20
104.249464117
 11
231.628467244
 21
104.249464117
  0
LINE
  5
31D
100
AcDbEntity
  8
0
100
AcDbLine
 62
7
  6
CONTINUOUS
 10
230.9766924362
 20
104.589889653
 11
231.5247633509
 21
104.589889653
  0
LINE
  5
31E
100
AcDbEntity
  8
0
100
AcDbLine
 62
7
  6
CONTINUOUS
 10
180.1631727691
 20
104.7601023987
 11
179.6109479945
 21
104.7601023987
  0
LINE
  5
31F
100
AcDbEntity
  8
0
100
AcDbLine
 62
7
  6
CONTINUOUS
 10
232.3236472181
 20
104.9303152039
 11
232.0720426709
 21
104.9303152039
  0
LINE
  5
320
100
AcDbEntity
  8
0
100
AcDbLine
 62
7
  6
CONTINUOUS
 10
179.8290600367
 20
104.9303152039
 11
179.282259006
 21
104.9303152039
  0
LINE
  5
321
100
AcDbEntity
  8
0
100
AcDbLine
 62
7
  6
CONTINUOUS
 10
178.7951779794
 20
104.9303152039
 11
177.7974503177
 21
104.9303152039
  0
LINE
  5
322
100
AcDbEntity
  8
0
100
AcDbLine
 62
7
  6
CONTINUOUS
 10
230.9130984357
 20
104.9303152039
 11
231.4640653459
 21
104.9303152039
  0
LINE
  5
323
100
AcDbEntity
  8
0
100
AcDbLine
 62
7
  6
CONTINUOUS
 10
232.7267014211
 20
104.9303152039
 11
233.1776964111
 21
104.9303152039
  0
LINE
  5
324
100
AcDbEntity
  8
0
100
AcDbLine
 62
7
  6
CONTINUOUS
 10
232.0262041297
 20
105.1005279496
 11
232.5578902513
 21
105.1005279496
  0
LINE
  5
325
100
AcDbEntity
  8
0
100
AcDbLine
 62
7
  6
CONTINUOUS
 10
179.5688759675
 20
105.2707406953
 11
179.0251733052
 21
105.2707406953
  0
LINE
  5
326
100
AcDbEntity
  8
0
100
AcDbLine
 62
7
  6
CONTINUOUS
 10
232.1445561503
 20
105.2707406953
 11
232.6750167022
 21
105.2707406953
  0
LINE
  5
327
100
AcDbEntity
  8
0
100
AcDbLine
 62
7
  6
CONTINUOUS
 10
230.9549791278
 20
105.4409534409
 11
231.5077035049
 21
105.4409534409
  0
LINE
  5
328
100
AcDbEntity
  8
0
100
AcDbLine
 62
7
  6
CONTINUOUS
 10
232.308932463
 20
105.6111663058
 11
232.8382062231
 21
105.6111663058
  0
LINE
  5
329
100
AcDbEntity
  8
0
100
AcDbLine
 62
7
  6
CONTINUOUS
 10
179.3636333564
 20
105.7813790515
 11
178.8211484005
 21
105.7813790515
  0
LINE
  5
32A
100
AcDbEntity
  8
0
100
AcDbLine
 62
7
  6
CONTINUOUS
 10
231.0548249417
 20
105.9515917971
 11
231.8900504636
 21
105.9515917971
  0
LINE
  5
32B
100
AcDbEntity
  8
0
100
AcDbLine
 62
7
  6
CONTINUOUS
 10
232.4394732647
 20
105.9515917971
 11
232.9681487651
 21
105.9515917971
  0
LINE
  5
32C
100
AcDbEntity
  8
0
100
AcDbLine
 62
7
  6
CONTINUOUS
 10
232.6392154483
 20
106.6324427798
 11
233.1677425262
 21
106.6324427798
  0
LINE
  5
32D
100
AcDbEntity
  8
0
100
AcDbLine
 62
7
  6
CONTINUOUS
 10
232.7780735372
 20
107.3132940009
 11
233.307470818
 21
107.3132940009
  0
LINE
  5
32E
100
AcDbEntity
  8
0
100
AcDbLine
 62
7
  6
CONTINUOUS
 10
232.7806621469
 20
107.6537194922
 11
233.3116073248
 21
107.6537194922
  0
LINE
  5
32F
100
AcDbEntity
  8
0
100
AcDbLine
 62
7
  6
CONTINUOUS
 10
232.4479631647
 20
107.8239322379
 11
233.1466824933
 21
107.8239322379
  0
LINE
  5
330
100
AcDbEntity
  8
0
100
AcDbLine
 62
7
  6
CONTINUOUS
 10
232.6523415552
 20
108.5047832206
 11
233.3493233322
 21
108.5047832206
  0
LINE
  5
331
100
AcDbEntity
  8
0
100
AcDbLine
 62
7
  6
CONTINUOUS
 10
177.617838857
 20
108.6749959662
 11
177.0915106434
 21
108.6749959662
  0
LINE
  5
332
100
AcDbEntity
  8
0
100
AcDbLine
 62
7
  6
CONTINUOUS
 10
177.3692670677
 20
108.8452087119
 11
177.6734945747
 21
108.8452087119
  0
LINE
  5
333
100
AcDbEntity
  8
0
100
AcDbLine
 62
7
  6
CONTINUOUS
 10
177.8927486509
 20
108.8452087119
 11
179.0077453525
 21
108.8452087119
  0
LINE
  5
334
100
AcDbEntity
  8
0
100
AcDbLine
 62
7
  6
CONTINUOUS
 10
233.1322807362
 20
108.8452087119
 11
233.6629034613
 21
108.8452087119
  0
LINE
  5
335
100
AcDbEntity
  8
0
100
AcDbLine
 62
7
  6
CONTINUOUS
 10
177.2686538984
 20
109.1856342032
 11
176.9943020886
 21
109.1856342032
  0
LINE
  5
336
100
AcDbEntity
  8
0
100
AcDbLine
 62
7
  6
CONTINUOUS
 10
233.2972763023
 20
109.1856342032
 11
233.8267514123
 21
109.1856342032
  0
LINE
  5
337
100
AcDbEntity
  8
0
100
AcDbLine
 62
7
  6
CONTINUOUS
 10
233.9968222335
 20
109.1856342032
 11
234.1365550083
 21
109.1856342032
  0
LINE
  5
338
100
AcDbEntity
  8
0
100
AcDbLine
 62
7
  6
CONTINUOUS
 10
178.7962054603
 20
109.5260596946
 11
177.6869333549
 21
109.5260596946
  0
LINE
  5
339
100
AcDbEntity
  8
0
100
AcDbLine
 62
7
  6
CONTINUOUS
 10
177.4696312673
 20
109.5260596946
 11
177.1680643853
 21
109.5260596946
  0
LINE
  5
33A
100
AcDbEntity
  8
0
100
AcDbLine
 62
7
  6
CONTINUOUS
 10
177.3497484905
 20
109.8664851859
 11
176.8223303374
 21
109.8664851859
  0
LINE
  5
33B
100
AcDbEntity
  8
0
100
AcDbLine
 62
7
  6
CONTINUOUS
 10
233.5580303454
 20
109.8664851859
 11
234.0863683908
 21
109.8664851859
  0
LINE
  5
33C
100
AcDbEntity
  8
0
100
AcDbLine
 62
7
  6
CONTINUOUS
 10
234.2205796606
 20
109.8664851859
 11
234.2910957644
 21
109.8664851859
  0
LINE
  5
33D
100
AcDbEntity
  8
0
100
AcDbLine
 62
7
  6
CONTINUOUS
 10
177.2501892998
 20
110.2069111541
 11
176.7228319724
 21
110.2069111541
  0
LINE
  5
33E
100
AcDbEntity
  8
0
100
AcDbLine
 62
7
  6
CONTINUOUS
 10
176.5749297606
 20
110.2069111541
 11
176.2763945023
 21
110.2069111541
  0
LINE
  5
33F
100
AcDbEntity
  8
0
100
AcDbLine
 62
7
  6
CONTINUOUS
 10
232.4359653556
 20
110.2069111541
 11
233.2457052189
 21
110.2069111541
  0
LINE
  5
340
100
AcDbEntity
  8
0
100
AcDbLine
 62
7
  6
CONTINUOUS
 10
233.6578353792
 20
110.2069111541
 11
234.1861046297
 21
110.2069111541
  0
LINE
  5
341
100
AcDbEntity
  8
0
100
AcDbLine
 62
7
  6
CONTINUOUS
 10
234.3197496412
 20
110.2069111541
 11
234.6925050349
 21
110.2069111541
  0
LINE
  5
342
100
AcDbEntity
  8
0
100
AcDbLine
 62
7
  6
CONTINUOUS
 10
176.3842033569
 20
110.7175493911
 11
176.1370947479
 21
110.7175493911
  0
LINE
  5
343
100
AcDbEntity
  8
0
100
AcDbLine
 62
7
  6
CONTINUOUS
 10
233.7475993987
 20
110.7175493911
 11
234.2767256105
 21
110.7175493911
  0
LINE
  5
344
100
AcDbEntity
  8
0
100
AcDbLine
 62
7
  6
CONTINUOUS
 10
177.8154896388
 20
110.8877621367
 11
177.0623141848
 21
110.8877621367
  0
LINE
  5
345
100
AcDbEntity
  8
0
100
AcDbLine
 62
7
  6
CONTINUOUS
 10
177.0241874129
 20
110.8877621367
 11
176.4973761285
 21
110.8877621367
  0
LINE
  5
346
100
AcDbEntity
  8
0
100
AcDbLine
 62
7
  6
CONTINUOUS
 10
232.7009579014
 20
110.8877621367
 11
233.2482505378
 21
110.8877621367
  0
LINE
  5
347
100
AcDbEntity
  8
0
100
AcDbLine
 62
7
  6
CONTINUOUS
 10
234.4932008949
 20
110.8877621367
 11
234.8885367019
 21
110.8877621367
  0
LINE
  5
348
100
AcDbEntity
  8
0
100
AcDbLine
 62
7
  6
CONTINUOUS
 10
176.2282133638
 20
111.0579748824
 11
176.0560544495
 21
111.0579748824
  0
LINE
  5
349
100
AcDbEntity
  8
0
100
AcDbLine
 62
7
  6
CONTINUOUS
 10
233.7517469771
 20
111.0579748824
 11
234.2823329104
 21
111.0579748824
  0
LINE
  5
34A
100
AcDbEntity
  8
0
100
AcDbLine
 62
7
  6
CONTINUOUS
 10
176.0506617101
 20
111.2281876281
 11
176.0997222623
 21
111.2281876281
  0
LINE
  5
34B
100
AcDbEntity
  8
0
100
AcDbLine
 62
7
  6
CONTINUOUS
 10
234.0043321104
 20
111.2281876281
 11
234.1587302509
 21
111.2281876281
  0
LINE
  5
34C
100
AcDbEntity
  8
0
100
AcDbLine
 62
7
  6
CONTINUOUS
 10
176.7268982336
 20
111.5686131194
 11
176.2017357477
 21
111.5686131194
  0
LINE
  5
34D
100
AcDbEntity
  8
0
100
AcDbLine
 62
7
  6
CONTINUOUS
 10
233.1173840335
 20
111.5686131194
 11
233.6606936499
 21
111.5686131194
  0
LINE
  5
34E
100
AcDbEntity
  8
0
100
AcDbLine
 62
7
  6
CONTINUOUS
 10
234.5848870986
 20
111.5686131194
 11
235.0790470818
 21
111.5686131194
  0
LINE
  5
34F
100
AcDbEntity
  8
0
100
AcDbLine
 62
7
  6
CONTINUOUS
 10
176.5429722859
 20
111.9090386107
 11
176.0191636461
 21
111.9090386107
  0
LINE
  5
350
100
AcDbEntity
  8
0
100
AcDbLine
 62
7
  6
CONTINUOUS
 10
233.4123061842
 20
111.9090386107
 11
233.9522362899
 21
111.9090386107
  0
LINE
  5
351
100
AcDbEntity
  8
0
100
AcDbLine
 62
7
  6
CONTINUOUS
 10
234.6613324925
 20
111.9090386107
 11
235.1594426373
 21
111.9090386107
  0
LINE
  5
352
100
AcDbEntity
  8
0
100
AcDbLine
 62
7
  6
CONTINUOUS
 10
176.3907922679
 20
112.0792513564
 11
175.8168583774
 21
112.0792513564
  0
LINE
  5
353
100
AcDbEntity
  8
0
100
AcDbLine
 62
7
  6
CONTINUOUS
 10
233.7630598821
 20
112.0792513564
 11
234.3743960766
 21
112.0792513564
  0
LINE
  5
354
100
AcDbEntity
  8
0
100
AcDbLine
 62
7
  6
CONTINUOUS
 10
234.7101402119
 20
112.0792513564
 11
235.1480420166
 21
112.0792513564
  0
LINE
  5
355
100
AcDbEntity
  8
0
100
AcDbLine
 62
7
  6
CONTINUOUS
 10
176.0518598647
 20
110.9728690303
 11
176.2714953778
 21
110.2069111541
  0
LINE
  5
356
100
AcDbEntity
  8
0
100
AcDbLine
 62
7
  6
CONTINUOUS
 10
177.6755890319
 20
105.3102546643
 11
178.0285735503
 21
104.0792513564
  0
LINE
  5
357
100
AcDbEntity
  8
BEZUGSACHSEN
100
AcDbLine
 62
7
  6
CONTINUOUS
 10
175.3823648257
 20
115.1216555234
 11
176.2547601822
 21
112.0792513564
  0
LINE
  5
358
100
AcDbEntity
  8
BEZUGSACHSEN
100
AcDbLine
 62
7
  6
CONTINUOUS
 10
178.5487232682
 20
104.0792513564
 11
179.982450197
 21
99.0792513564
  0
LINE
  5
359
100
AcDbEntity
  8
0
100
AcDbLine
 62
7
  6
CONTINUOUS
 10
188.1619421213
 20
127.6292513564
 11
193.1854791661
 21
127.6292513564
  0
LINE
  5
35A
100
AcDbEntity
  8
0
100
AcDbLine
 62
7
  6
CONTINUOUS
 10
217.7816898377
 20
127.6292513564
 11
222.8029582727
 21
127.6292513564
  0
LINE
  5
35B
100
AcDbEntity
  8
0
100
AcDbLine
 62
7
  6
CONTINUOUS
 10
229.5486157606
 20
121.2776006639
 11
226.332031196
 21
122.4483417014
  0
LINE
  5
35C
100
AcDbEntity
  8
RUNDUNGEN
100
AcDbLine
 62
7
  6
CONTINUOUS
 10
233.1055693579
 20
119.9829754298
 11
223.5363329962
 21
123.4658926301
  0
LINE
  5
35D
100
AcDbEntity
  8
0
100
AcDbLine
 62
7
  6
CONTINUOUS
 10
187.882450197
 20
99.0792513564
 11
187.882450197
 21
98.6292513564
  0
LINE
  5
35E
100
AcDbEntity
  8
0
100
AcDbLine
 62
7
  6
CONTINUOUS
 10
188.1619421213
 20
123.7598777347
 11
188.1619421213
 21
127.6292513564
  0
LINE
  5
35F
100
AcDbEntity
  8
BEZUGSACHSEN
100
AcDbLine
 62
7
  6
CONTINUOUS
 10
195.982450197
 20
135.6820668298
 11
195.982450197
 21
184.4172903549
  0
LINE
  5
360
100
AcDbEntity
  8
0
100
AcDbLine
 62
7
  6
CONTINUOUS
 10
214.982450197
 20
175.0792513564
 11
215.482450197
 21
175.0792513564
  0
LINE
  5
361
100
AcDbEntity
  8
RUNDUNGEN
100
AcDbLine
 62
7
  6
CONTINUOUS
 10
214.982450197
 20
135.6820668298
 11
214.982450197
 21
184.4172903549
  0
LINE
  5
362
100
AcDbEntity
  8
0
100
AcDbLine
 62
7
  6
CONTINUOUS
 10
215.482450197
 20
180.0792513564
 11
215.482450197
 21
175.0792513564
  0
LINE
  5
363
100
AcDbEntity
  8
0
100
AcDbLine
 62
7
  6
CONTINUOUS
 10
214.982450197
 20
180.0792513564
 11
215.482450197
 21
180.0792513564
  0
LINE
  5
364
100
AcDbEntity
  8
0
100
AcDbLine
 62
7
  6
CONTINUOUS
 10
222.8029582727
 20
123.7598777347
 11
222.8029582727
 21
127.6292513564
  0
LINE
  5
365
100
AcDbEntity
  8
0
100
AcDbLine
 62
7
  6
CONTINUOUS
 10
223.082450197
 20
99.0792513564
 11
223.082450197
 21
98.6292513564
  0
LINE
  5
366
100
AcDbEntity
  8
RUNDUNGEN
100
AcDbLine
 62
7
  6
CONTINUOUS
 10
210.982450197
 20
188.4172903549
 11
199.982450197
 21
188.4172903549
  0
LINE
  5
367
100
AcDbEntity
  8
0
100
AcDbLine
 62
7
  6
CONTINUOUS
 10
230.982450197
 20
99.0792513564
 11
232.1233307751
 21
103.0579747632
  0
LINE
  5
368
100
AcDbEntity
  8
0
100
AcDbLine
 62
7
  6
CONTINUOUS
 10
233.5477908293
 20
108.0256573308
 11
233.6589437509
 21
108.4132936349
  0
LINE
  5
369
100
AcDbEntity
  8
0
100
AcDbLine
 62
7
  6
CONTINUOUS
 10
234.5820750728
 20
111.6326351406
 11
235.5825355684
 21
115.1216555234
  0
LINE
  5
36A
100
AcDbEntity
  8
0
100
AcDbLine
 62
7
  6
CONTINUOUS
 10
234.9130405293
 20
110.9728690303
 11
234.8885367019
 21
110.8877621367
  0
LINE
  5
36B
100
AcDbEntity
  8
0
100
AcDbLine
 62
7
  6
CONTINUOUS
 10
233.289460303
 20
105.3102352626
 11
233.1776964111
 21
104.9303152039
  0
LINE
  5
36C
100
AcDbEntity
  8
0
100
AcDbLine
 62
7
  6
CONTINUOUS
 10
181.4162846335
 20
121.2776006639
 11
184.6328691981
 21
122.4483417014
  0
LINE
  5
36D
100
AcDbEntity
  8
BEZUGSACHSEN
100
AcDbLine
 62
7
  6
CONTINUOUS
 10
177.8593310361
 20
119.9829754298
 11
187.4285673978
 21
123.4658926301
  0
LWPOLYLINE
  5
36E
100
AcDbEntity
  8
BEZUGSACHSEN
100
AcDbPolyline
 62
7
  6
CONTINUOUS
 90
7
 70
0
 10
41.8948760629
 20
48.6801824465
 10
41.761237104
 20
47.8322781177
 10
41.5942429482
 20
46.6730926243
 10
41.4450809361
 20
45.5135487457
 10
41.3136162088
 20
44.3552253452
 10
41.1996554146
 20
43.1996513534
 10
41.141781479
 20
42.5352020921
  0
LWPOLYLINE
  5
36F
100
AcDbEntity
  8
BEZUGSACHSEN
100
AcDbPolyline
 62
7
  6
CONTINUOUS
 90
13
 70
0
 10
54.0426367058
 20
55.9100653496
 10
53.5612597738
 20
55.3849224968
 10
53.1103232422
 20
54.899980976
 10
52.6881064566
 20
54.4551287708
 10
52.2931916802
 20
54.0500394326
 10
51.92456038
 20
53.6843207089
 10
51.5814510308
 20
53.357358025
 10
51.2636916127
 20
53.0686510319
 10
50.9712213488
 20
52.8173600175
 10
50.7051680852
 20
52.6031241636
 10
50.4666012433
 20
52.4249807918
 10
50.2578583618
 20
52.2821854777
 10
50.0812787627
 20
52.1731754293
  0
LWPOLYLINE
  5
370
100
AcDbEntity
  8
BEZUGSACHSEN
100
AcDbPolyline
 62
7
  6
CONTINUOUS
 90
8
 70
0
 10
59.9833306802
 20
62.1332243888
 10
59.2524309943
 20
61.4332591666
 10
58.446295181
 20
60.6346044629
 10
57.6900219458
 20
59.8611298156
 10
56.9804182821
 20
59.1161003414
 10
56.3146350782
 20
58.4024265352
 10
55.6902752323
 20
57.7229421617
 10
54.0426367058
 20
55.9100653496
  0
LINE
  5
371
100
AcDbEntity
  8
BEZUGSACHSEN
100
AcDbLine
 62
7
  6
CONTINUOUS
 10
59.9833306802
 20
62.1332243888
 11
59.9833564921
 21
62.1332486922
  0
LINE
  5
372
100
AcDbEntity
  8
BEZUGSACHSEN
100
AcDbLine
 62
7
  6
CONTINUOUS
 10
50.0812787627
 20
52.1731754293
 11
49.9399001831
 21
52.0958766665
  0
LWPOLYLINE
  5
373
100
AcDbEntity
  8
RUNDUNGEN
100
AcDbPolyline
 62
7
  6
CONTINUOUS
 90
7
 70
0
 10
41.141781479
 20
42.5351960731
 10
41.1996554146
 20
41.8707468118
 10
41.3136162088
 20
40.71517282
 10
41.4450809361
 20
39.5568494195
 10
41.5942429482
 20
38.397305541
 10
41.761237104
 20
37.2381200475
 10
41.8948760629
 20
36.3902157188
  0
LINE
  5
374
100
AcDbEntity
  8
BEZUGSACHSEN
100
AcDbLine
 62
7
  6
CONTINUOUS
 10
49.9399001831
 20
52.0958766665
 11
49.894122695
 21
52.0732756954
  0
LINE
  5
375
100
AcDbEntity
  8
0
100
AcDbLine
 62
7
  6
CONTINUOUS
 10
86.9988650898
 20
59.8557071583
 11
73.4533477617
 21
52.0351990826
  0
LWPOLYLINE
  5
376
100
AcDbEntity
  8
RUNDUNGEN
100
AcDbPolyline
 62
7
  6
CONTINUOUS
 90
7
 70
0
 10
55.5672857209
 20
27.4821855456
 10
56.2044428183
 20
26.787266156
 10
56.8800647142
 20
26.0610227018
 10
57.6007496869
 20
25.302022155
 10
58.3738431466
 20
24.5089030503
 10
59.2101192565
 20
23.6783725549
 10
59.9833284764
 20
22.9371758518
  0
LINE
  5
377
100
AcDbEntity
  8
RUNDUNGEN
100
AcDbLine
 62
7
  6
CONTINUOUS
 10
53.8345668838
 20
29.3880354702
 11
55.5672857209
 21
27.4821855456
  0
LINE
  5
378
100
AcDbEntity
  8
0
100
AcDbLine
 62
7
  6
CONTINUOUS
 10
86.9988650898
 20
25.2146910069
 11
100.5443824179
 21
33.0351990826
  0
LWPOLYLINE
  5
379
100
AcDbEntity
  8
RUNDUNGEN
100
AcDbPolyline
 62
7
  6
CONTINUOUS
 90
33
 70
0
 10
59.9833506454
 20
22.9371432622
 10
61.2753402985
 20
21.7740748036
 10
62.7310889843
 20
20.5812507715
 10
64.2391302041
 20
19.4628343052
 10
65.7962964971
 20
18.4202346409
 10
67.3992511977
 20
17.4549833088
 10
69.0443722563
 20
16.5686019988
 10
70.7281299417
 20
15.7624886641
 10
72.446875201
 20
15.0377883382
 10
74.1969717266
 20
14.395607214
 10
75.9746286865
 20
13.8369360845
 10
77.7762248784
 20
13.3626972753
 10
79.5978349358
 20
12.9736498567
 10
81.4356486958
 20
12.6704493226
 10
83.2855596321
 20
12.4535599323
 10
85.1434985097
 20
12.3233932408
 10
87.0054214876
 20
12.280161035
 10
88.8673279766
 20
12.3240058762
 10
90.7252193737
 20
12.4547833856
 10
92.5750521962
 20
12.672280631
 10
94.4127584735
 20
12.9760851335
 10
96.2342343993
 20
13.3657321585
 10
98.0356717237
 20
13.8405655838
 10
99.8131460832
 20
14.3998259328
 10
101.5630348802
 20
15.0425895906
 10
103.2815476021
 20
15.7678656849
 10
104.9650481497
 20
16.5745473903
 10
106.6098873227
 20
17.4614887704
 10
108.2125361558
 20
18.427290629
 10
109.7693722489
 20
19.470430696
 10
111.2770589737
 20
20.5893765568
 10
112.7324287085
 20
21.7827174794
 10
114.014378413
 20
22.9371422615
  0
LINE
  5
37A
100
AcDbEntity
  8
RUNDUNGEN
100
AcDbLine
 62
7
  6
CONTINUOUS
 10
59.9833284764
 20
22.9371758518
 11
59.9833564921
 21
22.937149473
  0
LINE
  5
37B
100
AcDbEntity
  8
0
100
AcDbLine
 62
7
  6
CONTINUOUS
 10
80.228033028
 20
33.0351990826
 11
80.228033028
 21
32.5351990826
  0
LINE
  5
37C
100
AcDbEntity
  8
0
100
AcDbLine
 62
7
  6
CONTINUOUS
 10
82.728033028
 20
33.0351990826
 11
82.728033028
 21
32.5351990826
  0
LINE
  5
37D
100
AcDbEntity
  8
0
100
AcDbLine
 62
7
  6
CONTINUOUS
 10
83.2488664607
 20
33.0351990826
 11
83.2488664607
 21
32.5351990826
  0
LINE
  5
37E
100
AcDbEntity
  8
0
100
AcDbLine
 62
7
  6
CONTINUOUS
 10
83.665533028
 20
33.0351990826
 11
83.665533028
 21
32.5351990826
  0
LINE
  5
37F
100
AcDbEntity
  8
0
100
AcDbLine
 62
7
  6
CONTINUOUS
 10
83.978033028
 20
33.0351990826
 11
83.978033028
 21
32.5351990826
  0
LINE
  5
380
100
AcDbEntity
  8
0
100
AcDbLine
 62
7
  6
CONTINUOUS
 10
84.0821995953
 20
33.0351990826
 11
84.0821995953
 21
32.5351990826
  0
LINE
  5
381
100
AcDbEntity
  8
0
100
AcDbLine
 62
7
  6
CONTINUOUS
 10
84.1863664607
 20
33.0351990826
 11
84.1863664607
 21
32.5351990826
  0
LINE
  5
382
100
AcDbEntity
  8
0
100
AcDbLine
 62
7
  6
CONTINUOUS
 10
85.0196995953
 20
33.0351990826
 11
85.0196995953
 21
32.5351990826
  0
LINE
  5
383
100
AcDbEntity
  8
0
100
AcDbLine
 62
7
  6
CONTINUOUS
 10
85.6446998934
 20
33.0351990826
 11
85.6446998934
 21
32.5351990826
  0
LINE
  5
384
100
AcDbEntity
  8
0
100
AcDbLine
 62
7
  6
CONTINUOUS
 10
85.7488661627
 20
33.0351990826
 11
85.7488661627
 21
32.5351990826
  0
LINE
  5
385
100
AcDbEntity
  8
0
100
AcDbLine
 62
7
  6
CONTINUOUS
 10
85.9571998934
 20
33.0351990826
 11
85.9571998934
 21
32.5351990826
  0
LINE
  5
386
100
AcDbEntity
  8
0
100
AcDbLine
 62
7
  6
CONTINUOUS
 10
86.2696998934
 20
33.0351990826
 11
86.2696998934
 21
32.5351990826
  0
LINE
  5
387
100
AcDbEntity
  8
0
100
AcDbLine
 62
7
  6
CONTINUOUS
 10
86.6863661627
 20
33.0351990826
 11
86.6863661627
 21
32.5351990826
  0
LINE
  5
388
100
AcDbEntity
  8
0
100
AcDbLine
 62
7
  6
CONTINUOUS
 10
87.103033028
 20
33.0351990826
 11
87.103033028
 21
32.5351990826
  0
LINE
  5
389
100
AcDbEntity
  8
0
100
AcDbLine
 62
7
  6
CONTINUOUS
 10
87.5196998934
 20
33.0351990826
 11
87.5196998934
 21
32.5351990826
  0
LINE
  5
38A
100
AcDbEntity
  8
0
100
AcDbLine
 62
7
  6
CONTINUOUS
 10
87.8321998934
 20
33.0351990826
 11
87.8321998934
 21
32.5351990826
  0
LINE
  5
38B
100
AcDbEntity
  8
0
100
AcDbLine
 62
7
  6
CONTINUOUS
 10
88.040533028
 20
33.0351990826
 11
88.040533028
 21
32.5351990826
  0
LWPOLYLINE
  5
38C
100
AcDbEntity
  8
RUNDUNGEN
100
AcDbPolyline
 62
7
  6
CONTINUOUS
 90
3
 70
0
 10
49.8067272285
 20
33.0351990826
 10
49.8699479557
 20
33.0084679395
 10
49.9928142041
 20
32.9468072763
  0
LWPOLYLINE
  5
38D
100
AcDbEntity
  8
RUNDUNGEN
100
AcDbPolyline
 62
7
  6
CONTINUOUS
 90
12
 70
0
 10
49.9928142041
 20
32.9468072763
 10
50.1557984649
 20
32.8527137945
 10
50.3575094684
 20
32.7217321876
 10
50.5964550872
 20
32.5502449527
 10
50.8728822888
 20
32.3339549496
 10
51.188135314
 20
32.0680944424
 10
51.5409980693
 20
31.7506043747
 10
51.9322948338
 20
31.3785472585
 10
52.3591651309
 20
30.9535563927
 10
52.8198015772
 20
30.477662832
 10
53.3122952942
 20
29.954265021
 10
53.8345668838
 20
29.3880354702
  0
LINE
  5
38E
100
AcDbEntity
  8
0
100
AcDbLine
 62
7
  6
CONTINUOUS
 10
88.1446998934
 20
33.0351990826
 11
88.1446998934
 21
32.5351990826
  0
LINE
  5
38F
100
AcDbEntity
  8
0
100
AcDbLine
 62
7
  6
CONTINUOUS
 10
88.7696998934
 20
33.0351990826
 11
88.7696998934
 21
32.5351990826
  0
LINE
  5
390
100
AcDbEntity
  8
0
100
AcDbLine
 62
7
  6
CONTINUOUS
 10
89.603033028
 20
33.0351990826
 11
89.603033028
 21
32.5351990826
  0
LINE
  5
391
100
AcDbEntity
  8
0
100
AcDbLine
 62
7
  6
CONTINUOUS
 10
92.103033028
 20
33.0351990826
 11
92.103033028
 21
32.5351990826
  0
LINE
  5
392
100
AcDbEntity
  8
0
100
AcDbLine
 62
7
  6
CONTINUOUS
 10
92.6238667587
 20
33.0351990826
 11
92.6238667587
 21
32.5351990826
  0
LINE
  5
393
100
AcDbEntity
  8
0
100
AcDbLine
 62
7
  6
CONTINUOUS
 10
93.040533028
 20
33.0351990826
 11
93.040533028
 21
32.5351990826
  0
LINE
  5
394
100
AcDbEntity
  8
0
100
AcDbLine
 62
7
  6
CONTINUOUS
 10
93.4571992973
 20
33.0351990826
 11
93.4571992973
 21
32.5351990826
  0
LINE
  5
395
100
AcDbEntity
  8
0
100
AcDbLine
 62
7
  6
CONTINUOUS
 10
93.665533028
 20
33.0351990826
 11
93.665533028
 21
32.5351990826
  0
LINE
  5
396
100
AcDbEntity
  8
0
100
AcDbLine
 62
7
  6
CONTINUOUS
 10
93.7696992973
 20
33.0351990826
 11
93.7696992973
 21
32.5351990826
  0
LWPOLYLINE
  5
397
100
AcDbEntity
  8
RUNDUNGEN
100
AcDbPolyline
 62
7
  6
CONTINUOUS
 90
3
 70
0
 10
124.0068804882
 20
32.9478640223
 10
124.1291977513
 20
33.0091183714
 10
124.1910462481
 20
33.0351990826
  0
LINE
  5
398
100
AcDbEntity
  8
0
100
AcDbLine
 62
7
  6
CONTINUOUS
 10
73.4533477617
 20
33.0351990826
 11
86.9988650898
 21
25.2146910069
  0
LWPOLYLINE
  5
399
100
AcDbEntity
  8
RUNDUNGEN
100
AcDbPolyline
 62
7
  6
CONTINUOUS
 90
13
 70
0
 10
118.4380026298
 20
27.4904728753
 10
120.1696335412
 20
29.3951007248
 10
120.6915557879
 20
29.9608425999
 10
121.1837001141
 20
30.4837168079
 10
121.6439820282
 20
30.9590555461
 10
122.0704853345
 20
31.3834646324
 10
122.461400398
 20
31.7549249047
 10
122.8138605576
 20
32.0718117707
 10
123.1286929682
 20
32.3370791196
 10
123.4046825111
 20
32.5527985969
 10
123.6431710417
 20
32.7237464387
 10
123.844404986
 20
32.8542278033
 10
124.0068804882
 20
32.9478640223
  0
LWPOLYLINE
  5
39A
100
AcDbEntity
  8
RUNDUNGEN
100
AcDbPolyline
 62
7
  6
CONTINUOUS
 90
7
 70
0
 10
114.0143998145
 20
22.9371741012
 10
114.7974639524
 20
23.6879857401
 10
115.6331844956
 20
24.5183004899
 10
116.4057830646
 20
25.3111837032
 10
117.1260202838
 20
26.0699221956
 10
117.8012303235
 20
26.7958767085
 10
118.4380026298
 20
27.4904728753
  0
LINE
  5
39B
100
AcDbEntity
  8
RUNDUNGEN
100
AcDbLine
 62
7
  6
CONTINUOUS
 10
114.0144056482
 20
22.9371679047
 11
114.014378413
 21
22.9371422615
  0
LINE
  5
39C
100
AcDbEntity
  8
0
100
AcDbLine
 62
7
  6
CONTINUOUS
 10
93.7696992973
 20
32.5351990826
 11
89.603033028
 21
32.5351990826
  0
LINE
  5
39D
100
AcDbEntity
  8
0
100
AcDbLine
 62
7
  6
CONTINUOUS
 10
88.7696998934
 20
32.5351990826
 11
85.0196995953
 21
32.5351990826
  0
LINE
  5
39E
100
AcDbEntity
  8
0
100
AcDbLine
 62
7
  6
CONTINUOUS
 10
84.1863664607
 20
32.5351990826
 11
80.228033028
 21
32.5351990826
  0
LINE
  5
39F
100
AcDbEntity
  8
RUNDUNGEN
100
AcDbLine
 62
7
  6
CONTINUOUS
 10
45.8441159053
 20
33.0351990826
 11
128.1551969251
 21
33.0351990826
  0
LWPOLYLINE
  5
3A0
100
AcDbEntity
  8
RUNDUNGEN
100
AcDbPolyline
 62
7
  6
CONTINUOUS
 90
7
 70
0
 10
132.1028508545
 20
36.3901925008
 10
132.2344054903
 20
37.2244019816
 10
132.4014943124
 20
38.3827144316
 10
132.5508405382
 20
39.5418380369
 10
132.6825322669
 20
40.7002790073
 10
132.7967728321
 20
41.8564757481
 10
132.8559475701
 20
42.535196852
  0
LINE
  5
3A1
100
AcDbEntity
  8
BEZUGSACHSEN
100
AcDbLine
 62
7
  6
CONTINUOUS
 10
45.8441159053
 20
52.0351990826
 11
128.1551969251
 21
52.0351990826
  0
LINE
  5
3A2
100
AcDbEntity
  8
0
100
AcDbLine
 62
7
  6
CONTINUOUS
 10
100.5443824179
 20
52.0351990826
 11
86.9988650898
 21
59.8557071583
  0
LWPOLYLINE
  5
3A3
100
AcDbEntity
  8
BEZUGSACHSEN
100
AcDbPolyline
 62
7
  6
CONTINUOUS
 90
7
 70
0
 10
132.8559475701
 20
42.5352013132
 10
132.7967728321
 20
43.2139224172
 10
132.6825322669
 20
44.3701191579
 10
132.5508405382
 20
45.5285601283
 10
132.4014943124
 20
46.6876837337
 10
132.2344054903
 20
47.8459961837
 10
132.1028508545
 20
48.6802056645
  0
LWPOLYLINE
  5
3A4
100
AcDbEntity
  8
BEZUGSACHSEN
100
AcDbPolyline
 62
7
  6
CONTINUOUS
 90
3
 70
0
 10
124.19110556
 20
52.0351990826
 10
124.1620290883
 20
52.0466702009
 10
124.0597006274
 20
52.0949267219
  0
LINE
  5
3A5
100
AcDbEntity
  8
BEZUGSACHSEN
100
AcDbLine
 62
7
  6
CONTINUOUS
 10
124.0597006274
 20
52.0949267219
 11
123.9188657628
 21
52.171773222
  0
LWPOLYLINE
  5
3A6
100
AcDbEntity
  8
BEZUGSACHSEN
100
AcDbPolyline
 62
7
  6
CONTINUOUS
 90
12
 70
0
 10
123.9188657628
 20
52.171773222
 10
123.7427890572
 20
52.2802893313
 10
123.5345197629
 20
52.4225567399
 10
123.2963988146
 20
52.6001478167
 10
123.0307652572
 20
52.8138180789
 10
122.7386932954
 20
53.0645364557
 10
122.4213125047
 20
53.3526720047
 10
122.078569609
 20
53.6790674057
 10
121.7102985669
 20
54.0442250268
 10
121.3157433946
 20
54.4487624047
 10
120.8938920192
 20
54.893072716
 10
120.4433314568
 20
55.377484863
  0
LWPOLYLINE
  5
3A7
100
AcDbEntity
  8
BEZUGSACHSEN
100
AcDbPolyline
 62
7
  6
CONTINUOUS
 90
33
 70
0
 10
114.014378413
 20
62.1332559037
 10
112.7324287085
 20
63.2876806858
 10
111.2770589737
 20
64.4810216084
 10
109.7693722489
 20
65.5999674693
 10
108.2125361558
 20
66.6431075362
 10
106.6098873227
 20
67.6089093948
 10
104.9650481497
 20
68.4958507749
 10
103.2815476021
 20
69.3025324803
 10
101.5630348802
 20
70.0278085746
 10
99.8131460832
 20
70.6705722325
 10
98.0356717237
 20
71.2298325815
 10
96.2342343993
 20
71.7046660067
 10
94.4127584735
 20
72.0943130317
 10
92.5750521962
 20
72.3981175343
 10
90.7252193737
 20
72.6156147797
 10
88.8673279766
 20
72.746392289
 10
87.0054214876
 20
72.7902371302
 10
85.1434985097
 20
72.7470049245
 10
83.2855596321
 20
72.6168382329
 10
81.4356486958
 20
72.3999488426
 10
79.5978349358
 20
72.0967483085
 10
77.7762248784
 20
71.7077008899
 10
75.9746286865
 20
71.2334620807
 10
74.1969717266
 20
70.6747909513
 10
72.446875201
 20
70.032609827
 10
70.7281299417
 20
69.3079095011
 10
69.0443722563
 20
68.5017961664
 10
67.3992511977
 20
67.6154148565
 10
65.7962964971
 20
66.6501635243
 10
64.2391302041
 20
65.60756386
 10
62.7310889843
 20
64.4891473937
 10
61.2753402985
 20
63.2963233616
 10
59.9833506454
 20
62.133254903
  0
LINE
  5
3A8
100
AcDbEntity
  8
BEZUGSACHSEN
100
AcDbLine
 62
7
  6
CONTINUOUS
 10
114.0144036307
 20
62.1332321604
 11
114.014378413
 21
62.1332559037
  0
LWPOLYLINE
  5
3A9
100
AcDbEntity
  8
BEZUGSACHSEN
100
AcDbPolyline
 62
7
  6
CONTINUOUS
 90
7
 70
0
 10
118.3160055215
 20
57.7135832715
 10
117.69208472
 20
58.3927056039
 10
117.0267214327
 20
59.1061070443
 10
116.317497571
 20
59.8509731522
 10
115.5615447016
 20
60.6244159629
 10
114.7556357231
 20
61.4231929542
 10
114.014397797
 20
62.1332259639
  0
LINE
  5
3AA
100
AcDbEntity
  8
BEZUGSACHSEN
100
AcDbLine
 62
7
  6
CONTINUOUS
 10
120.4433314568
 20
55.377484863
 11
118.3160055215
 21
57.7135832715
  0
ARC
  5
3AB
100
AcDbEntity
  8
0
100
AcDbCircle
 62
7
  6
CONTINUOUS
 10
86.9988650898
 20
144.0792513564
 40
24.5
100
AcDbArc
 50
196.5381858601
 51
205.3465717068
  0
ARC
  5
3AC
100
AcDbEntity
  8
0
100
AcDbCircle
 62
7
  6
CONTINUOUS
 10
86.9988650898
 20
144.0792513564
 40
24.5
100
AcDbArc
 50
334.6534287612
 51
343.4618141399
  0
ARC
  5
3AD
100
AcDbEntity
  8
RUNDUNGEN
100
AcDbCircle
 62
7
  6
CONTINUOUS
 10
86.9988650898
 20
144.0792513564
 40
24.5
100
AcDbArc
 50
343.4618141399
 51
196.5381858601
  0
ARC
  5
3AE
100
AcDbEntity
  8
BEZUGSACHSEN
100
AcDbCircle
 62
7
  6
CONTINUOUS
 10
44.4988650898
 20
99.0792513564
 40
17.0
100
AcDbArc
 50
0.0180734806
 51
57.985165672
  0
ARC
  5
3AF
100
AcDbEntity
  8
BEZUGSACHSEN
100
AcDbCircle
 62
7
  6
CONTINUOUS
 10
129.4988650898
 20
99.0792513564
 40
17.0
100
AcDbArc
 50
122.014834328
 51
179.9819265262
  0
ARC
  5
3B0
100
AcDbEntity
  8
BEZUGSACHSEN
100
AcDbCircle
 62
7
  6
CONTINUOUS
 10
57.2211224359
 20
171.0829454908
 40
5.0
100
AcDbArc
 50
151.554358202
 51
157.5000000054
  0
ARC
  5
3B1
100
AcDbEntity
  8
RUNDUNGEN
100
AcDbCircle
 62
7
  6
CONTINUOUS
 10
116.7766077436
 20
171.0829454908
 40
5.0
100
AcDbArc
 50
22.5
 51
67.5
  0
ARC
  5
3B2
100
AcDbEntity
  8
RUNDUNGEN
100
AcDbCircle
 62
7
  6
CONTINUOUS
 10
86.9988650898
 20
183.4172903549
 40
5.0
100
AcDbArc
 50
67.5
 51
112.5
  0
ARC
  5
3B3
100
AcDbEntity
  8
RUNDUNGEN
100
AcDbCircle
 62
7
  6
CONTINUOUS
 10
57.2211224359
 20
171.0829454908
 40
5.0
100
AcDbArc
 50
112.5
 51
157.5
  0
ARC
  5
3B4
100
AcDbEntity
  8
BEZUGSACHSEN
100
AcDbCircle
 62
7
  6
CONTINUOUS
 10
123.5665350694
 20
113.07319891
 40
3.0058820697
100
AcDbArc
 50
89.927004306
 51
157.3758267715
  0
ARC
  5
3B5
100
AcDbEntity
  8
BEZUGSACHSEN
100
AcDbCircle
 62
7
  6
CONTINUOUS
 10
50.4311988444
 20
113.0732010603
 40
3.0058785382
100
AcDbArc
 50
22.6241627488
 51
90.0730669541
  0
ARC
  5
3B6
100
AcDbEntity
  8
BEZUGSACHSEN
100
AcDbCircle
 62
7
  6
CONTINUOUS
 10
48.4988650898
 20
128.0792513564
 40
2.0
100
AcDbArc
 50
165.4282742543
 51
180.0
  0
ARC
  5
3B7
100
AcDbEntity
  8
BEZUGSACHSEN
100
AcDbCircle
 62
7
  6
CONTINUOUS
 10
125.4988650898
 20
128.0792513564
 40
2.0
100
AcDbArc
 50
0.0
 51
14.5717257457
  0
ARC
  5
3B8
100
AcDbEntity
  8
RUNDUNGEN
100
AcDbCircle
 62
7
  6
CONTINUOUS
 10
48.4988650898
 20
128.0792513564
 40
2.0
100
AcDbArc
 50
165.4282742543
 51
180.0
  0
ARC
  5
3B9
100
AcDbEntity
  8
RUNDUNGEN
100
AcDbCircle
 62
7
  6
CONTINUOUS
 10
125.4988650898
 20
128.0792513564
 40
2.0
100
AcDbArc
 50
0.0
 51
14.5717257457
  0
ARC
  5
3BA
100
AcDbEntity
  8
BEZUGSACHSEN
100
AcDbCircle
 62
7
  6
CONTINUOUS
 10
125.4988650898
 20
118.0792513564
 40
2.0
100
AcDbArc
 50
270.0
 51
360.0
  0
ARC
  5
3BB
100
AcDbEntity
  8
BEZUGSACHSEN
100
AcDbCircle
 62
7
  6
CONTINUOUS
 10
48.4988650898
 20
118.0792513564
 40
2.0
100
AcDbArc
 50
180.0
 51
270.0
  0
ARC
  5
3BC
100
AcDbEntity
  8
0
100
AcDbCircle
 62
7
  6
CONTINUOUS
 10
42.5376568702
 20
146.1094336547
 40
194.6747604743
100
AcDbArc
 50
348.3001735061
 51
348.5047349653
  0
ARC
  5
3BD
100
AcDbEntity
  8
0
100
AcDbCircle
 62
7
  6
CONTINUOUS
 10
44.4277032893
 20
145.3723466575
 40
192.157106196
100
AcDbArc
 50
348.3691477693
 51
348.5763374014
  0
ARC
  5
3BE
100
AcDbEntity
  8
0
100
AcDbCircle
 62
7
  6
CONTINUOUS
 10
48.7740133149
 20
151.6172991384
 40
190.1570878305
100
AcDbArc
 50
347.1064686387
 51
347.2816434435
  0
ARC
  5
3BF
100
AcDbEntity
  8
0
100
AcDbCircle
 62
7
  6
CONTINUOUS
 10
120.3079329527
 20
148.7596890398
 40
120.5191163942
100
AcDbArc
 50
339.021216061
 51
339.1944465479
  0
ARC
  5
3C0
100
AcDbEntity
  8
0
100
AcDbCircle
 62
7
  6
CONTINUOUS
 10
122.1690120895
 20
148.0410638451
 40
118.0300735621
100
AcDbArc
 50
338.9315031411
 51
339.1084905248
  0
ARC
  5
3C1
100
AcDbEntity
  8
0
100
AcDbCircle
 62
7
  6
CONTINUOUS
 10
121.3141983364
 20
140.2637327787
 40
117.2687507062
100
AcDbArc
 50
341.5021446148
 51
342.4559074213
  0
ARC
  5
3C2
100
AcDbEntity
  8
0
100
AcDbCircle
 62
7
  6
CONTINUOUS
 10
125.084241876
 20
140.6156184492
 40
113.7366935162
100
AcDbArc
 50
340.7319497886
 51
341.7144105522
  0
ARC
  5
3C3
100
AcDbEntity
  8
0
100
AcDbCircle
 62
7
  6
CONTINUOUS
 10
128.3744422726
 20
139.4088569631
 40
109.7383466459
100
AcDbArc
 50
340.6553066687
 51
341.1676323056
  0
ARC
  5
3C4
100
AcDbEntity
  8
0
100
AcDbCircle
 62
7
  6
CONTINUOUS
 10
132.7413734215
 20
128.4732730275
 40
103.0761537214
100
AcDbArc
 50
349.7925741462
 51
350.0808522238
  0
ARC
  5
3C5
100
AcDbEntity
  8
0
100
AcDbCircle
 62
7
  6
CONTINUOUS
 10
129.7825108182
 20
113.8770085099
 40
102.074393715
100
AcDbArc
 50
354.971644087
 51
355.2593174781
  0
ARC
  5
3C6
100
AcDbEntity
  8
0
100
AcDbCircle
 62
7
  6
CONTINUOUS
 10
133.6167189771
 20
128.0561369877
 40
101.6209615869
100
AcDbArc
 50
349.8837978092
 51
350.1761199405
  0
ARC
  5
3C7
100
AcDbEntity
  8
0
100
AcDbCircle
 62
7
  6
CONTINUOUS
 10
130.8600365532
 20
113.3933402271
 40
100.4103479956
100
AcDbArc
 50
355.1651241782
 51
355.457481351
  0
ARC
  5
3C8
100
AcDbEntity
  8
0
100
AcDbCircle
 62
7
  6
CONTINUOUS
 10
136.7656180891
 20
125.8336701011
 40
98.4681787795
100
AcDbArc
 50
349.1589586613
 51
349.4613320895
  0
ARC
  5
3C9
100
AcDbEntity
  8
0
100
AcDbCircle
 62
7
  6
CONTINUOUS
 10
160.4449011783
 20
138.0742513287
 40
79.0217520075
100
AcDbArc
 50
338.1585133591
 51
338.5568394734
  0
ARC
  5
3CA
100
AcDbEntity
  8
0
100
AcDbCircle
 62
7
  6
CONTINUOUS
 10
162.8460811377
 20
133.0785510615
 40
75.3367391986
100
AcDbArc
 50
338.0601968662
 51
338.4782633108
  0
ARC
  5
3CB
100
AcDbEntity
  8
0
100
AcDbCircle
 62
7
  6
CONTINUOUS
 10
169.5049118409
 20
142.1003058706
 40
71.2746614653
100
AcDbArc
 50
333.4184131049
 51
333.8765078277
  0
ARC
  5
3CC
100
AcDbEntity
  8
0
100
AcDbCircle
 62
7
  6
CONTINUOUS
 10
-12.7042653838
 20
205.6984425821
 40
263.5938262075
100
AcDbArc
 50
338.7604707526
 51
338.9191630661
  0
ARC
  5
3CD
100
AcDbEntity
  8
0
100
AcDbCircle
 62
7
  6
CONTINUOUS
 10
-5.7464271018
 20
203.3013616534
 40
255.7292098891
100
AcDbArc
 50
338.6517767236
 51
338.8154671311
  0
ARC
  5
3CE
100
AcDbEntity
  8
0
100
AcDbCircle
 62
7
  6
CONTINUOUS
 10
-0.2349812178
 20
185.4371631864
 40
246.506405182
100
AcDbArc
 50
341.0635151297
 51
341.1889474912
  0
ARC
  5
3CF
100
AcDbEntity
  8
0
100
AcDbCircle
 62
7
  6
CONTINUOUS
 10
116.0504821632
 20
154.4851189046
 40
126.1875307329
100
AcDbArc
 50
338.9620992567
 51
339.2929539517
  0
ARC
  5
3D0
100
AcDbEntity
  8
0
100
AcDbCircle
 62
7
  6
CONTINUOUS
 10
117.9151167919
 20
153.7653450831
 40
123.6947588033
100
AcDbArc
 50
338.8751770868
 51
339.2128873996
  0
ARC
  5
3D1
100
AcDbEntity
  8
0
100
AcDbCircle
 62
7
  6
CONTINUOUS
 10
193.5690732066
 20
105.4283883736
 40
38.2701990346
100
AcDbArc
 50
359.7639789604
 51
0.2736448773
  0
ARC
  5
3D2
100
AcDbEntity
  8
0
100
AcDbCircle
 62
7
  6
CONTINUOUS
 10
186.5449495568
 20
112.9590492358
 40
11.2408178995
100
AcDbArc
 50
229.4355864919
 51
230.788511162
  0
ARC
  5
3D3
100
AcDbEntity
  8
0
100
AcDbCircle
 62
7
  6
CONTINUOUS
 10
177.5309727971
 20
111.1898955586
 40
1.4808062658
100
AcDbArc
 50
178.5182271253
 51
185.1110884894
  0
ARC
  5
3D4
100
AcDbEntity
  8
0
100
AcDbCircle
 62
7
  6
CONTINUOUS
 10
176.582017387
 20
111.9418607391
 40
0.7773959684
100
AcDbArc
 50
169.8205439236
 51
176.1456183456
  0
ARC
  5
3D5
100
AcDbEntity
  8
0
100
AcDbCircle
 62
7
  6
CONTINUOUS
 10
176.5645179364
 20
111.9433570515
 40
0.759835582
100
AcDbArc
 50
176.1694916252
 51
182.5886797021
  0
ARC
  5
3D6
100
AcDbEntity
  8
0
100
AcDbCircle
 62
7
  6
CONTINUOUS
 10
193.3633196518
 20
116.7730806292
 40
41.5488159257
100
AcDbArc
 50
351.8567634041
 51
352.8041419778
  0
ARC
  5
3D7
100
AcDbEntity
  8
0
100
AcDbCircle
 62
7
  6
CONTINUOUS
 10
195.1717030486
 20
122.3680004324
 40
41.342748749
100
AcDbArc
 50
344.0006842896
 51
344.8577726928
  0
ARC
  5
3D8
100
AcDbEntity
  8
0
100
AcDbCircle
 62
7
  6
CONTINUOUS
 10
198.2452962812
 20
126.1014669763
 40
39.3977835373
100
AcDbArc
 50
334.0236102244
 51
334.5730483096
  0
ARC
  5
3D9
100
AcDbEntity
  8
0
100
AcDbCircle
 62
7
  6
CONTINUOUS
 10
198.3313002257
 20
125.9225550113
 40
38.7652421781
100
AcDbArc
 50
333.8621428633
 51
334.4212840399
  0
ARC
  5
3DA
100
AcDbEntity
  8
0
100
AcDbCircle
 62
7
  6
CONTINUOUS
 10
198.7514661283
 20
121.741969642
 40
37.7108560836
100
AcDbArc
 50
334.101588369
 51
334.6751717969
  0
ARC
  5
3DB
100
AcDbEntity
  8
0
100
AcDbCircle
 62
7
  6
CONTINUOUS
 10
198.8362408244
 20
121.5637353061
 40
37.079718759
100
AcDbArc
 50
333.9341090834
 51
334.5182506728
  0
ARC
  5
3DC
100
AcDbEntity
  8
0
100
AcDbCircle
 62
7
  6
CONTINUOUS
 10
203.1973622095
 20
113.9192977368
 40
31.2992165375
100
AcDbArc
 50
344.0346378495
 51
351.259557337
  0
ARC
  5
3DD
100
AcDbEntity
  8
0
100
AcDbCircle
 62
7
  6
CONTINUOUS
 10
196.6067885729
 20
118.2809021219
 40
21.8718425325
100
AcDbArc
 50
216.5009486444
 51
217.6184782729
  0
ARC
  5
3DE
100
AcDbEntity
  8
0
100
AcDbCircle
 62
7
  6
CONTINUOUS
 10
196.8692906112
 20
118.2236474565
 40
21.6120832038
100
AcDbArc
 50
216.8223809869
 51
217.9583121774
  0
ARC
  5
3DF
100
AcDbEntity
  8
0
100
AcDbCircle
 62
7
  6
CONTINUOUS
 10
196.3742957022
 20
117.0374037238
 40
21.282901313
100
AcDbArc
 50
215.2301479464
 51
216.3600456315
  0
ARC
  5
3E0
100
AcDbEntity
  8
0
100
AcDbCircle
 62
7
  6
CONTINUOUS
 10
194.366328293
 20
119.1632822033
 40
19.8667365199
100
AcDbArc
 50
204.0782451376
 51
205.1582139571
  0
ARC
  5
3E1
100
AcDbEntity
  8
0
100
AcDbCircle
 62
7
  6
CONTINUOUS
 10
193.577002865
 20
115.0490914066
 40
17.9697704874
100
AcDbArc
 50
192.9552797294
 51
193.9482867034
  0
ARC
  5
3E2
100
AcDbEntity
  8
0
100
AcDbCircle
 62
7
  6
CONTINUOUS
 10
187.1286372166
 20
117.6479416692
 40
12.5042157422
100
AcDbArc
 50
207.3198545456
 51
209.0899635088
  0
ARC
  5
3E3
100
AcDbEntity
  8
0
100
AcDbCircle
 62
7
  6
CONTINUOUS
 10
187.50332401
 20
117.6108264972
 40
12.3547438265
100
AcDbArc
 50
207.4843269937
 51
209.2788293695
  0
ARC
  5
3E4
100
AcDbEntity
  8
0
100
AcDbCircle
 62
7
  6
CONTINUOUS
 10
185.1677173753
 20
114.9966056306
 40
11.3943611112
100
AcDbArc
 50
242.0607558091
 51
243.9463605145
  0
ARC
  5
3E5
100
AcDbEntity
  8
0
100
AcDbCircle
 62
7
  6
CONTINUOUS
 10
184.6115170956
 20
114.8189015713
 40
11.2332155739
100
AcDbArc
 50
241.6784304219
 51
243.566476111
  0
ARC
  5
3E6
100
AcDbEntity
  8
0
100
AcDbCircle
 62
7
  6
CONTINUOUS
 10
184.1128556697
 20
114.2791440228
 40
11.0653706752
100
AcDbArc
 50
245.0128468582
 51
247.1884471813
  0
ARC
  5
3E7
100
AcDbEntity
  8
0
100
AcDbCircle
 62
7
  6
CONTINUOUS
 10
185.6940253411
 20
114.064636303
 40
10.1207890147
100
AcDbArc
 50
192.2974627271
 51
194.277790689
  0
ARC
  5
3E8
100
AcDbEntity
  8
BEZUGSACHSEN
100
AcDbCircle
 62
7
  6
CONTINUOUS
 10
179.2274116094
 20
116.2242049466
 40
4.0
100
AcDbArc
 50
110.0
 51
196.0
  0
ARC
  5
3E9
100
AcDbEntity
  8
0
100
AcDbCircle
 62
7
  6
CONTINUOUS
 10
206.8593663595
 20
112.3471532484
 40
29.9934988463
100
AcDbArc
 50
187.0324680531
 51
193.5560256857
  0
ARC
  5
3EA
100
AcDbEntity
  8
0
100
AcDbCircle
 62
7
  6
CONTINUOUS
 10
206.4488266339
 20
112.2523219841
 40
29.5721684714
100
AcDbArc
 50
193.5638522142
 51
194.3354136224
  0
ARC
  5
3EB
100
AcDbEntity
  8
0
100
AcDbCircle
 62
7
  6
CONTINUOUS
 10
206.8511442151
 20
112.2016815977
 40
29.4452653869
100
AcDbArc
 50
186.8788801598
 51
194.2732685952
  0
ARC
  5
3EC
100
AcDbEntity
  8
0
100
AcDbCircle
 62
7
  6
CONTINUOUS
 10
217.2202744567
 20
111.1687527207
 40
17.0624180703
100
AcDbArc
 50
358.4846778229
 51
359.6280042391
  0
ARC
  5
3ED
100
AcDbEntity
  8
0
100
AcDbCircle
 62
7
  6
CONTINUOUS
 10
216.9351284785
 20
111.0924884201
 40
16.8166539155
100
AcDbArc
 50
359.5921012026
 51
359.8824093397
  0
ARC
  5
3EE
100
AcDbEntity
  8
0
100
AcDbCircle
 62
7
  6
CONTINUOUS
 10
216.9503471048
 20
111.0923805091
 40
16.8014349065
100
AcDbArc
 50
359.3017450703
 51
359.5920997198
  0
ARC
  5
3EF
100
AcDbEntity
  8
0
100
AcDbCircle
 62
7
  6
CONTINUOUS
 10
216.9723233516
 20
111.092095141
 40
16.779456814
100
AcDbArc
 50
358.7209554257
 51
359.3018049368
  0
ARC
  5
3F0
100
AcDbEntity
  8
0
100
AcDbCircle
 62
7
  6
CONTINUOUS
 10
216.964291595
 20
107.6821176863
 40
16.3473403962
100
AcDbArc
 50
358.7072004824
 51
359.9004671434
  0
ARC
  5
3F1
100
AcDbEntity
  8
0
100
AcDbCircle
 62
7
  6
CONTINUOUS
 10
216.7003787662
 20
107.6057720521
 40
16.0803548642
100
AcDbArc
 50
358.9578164047
 51
0.1708413808
  0
ARC
  5
3F2
100
AcDbEntity
  8
0
100
AcDbCircle
 62
7
  6
CONTINUOUS
 10
215.8235440038
 20
101.9659802967
 40
15.9189569161
100
AcDbArc
 50
9.4873140399
 51
10.731927765
  0
ARC
  5
3F3
100
AcDbEntity
  8
0
100
AcDbCircle
 62
7
  6
CONTINUOUS
 10
215.5475369602
 20
101.8837624478
 40
15.664672456
100
AcDbArc
 50
9.9479529069
 51
11.2146736147
  0
ARC
  5
3F4
100
AcDbEntity
  8
0
100
AcDbCircle
 62
7
  6
CONTINUOUS
 10
221.8048666169
 20
112.6252816465
 40
13.1243832419
100
AcDbArc
 50
325.0164303759
 51
325.9184506476
  0
ARC
  5
3F5
100
AcDbEntity
  8
0
100
AcDbCircle
 62
7
  6
CONTINUOUS
 10
221.418598271
 20
112.6024419356
 40
12.9923060119
100
AcDbArc
 50
324.7312752119
 51
325.6455401824
  0
ARC
  5
3F6
100
AcDbEntity
  8
0
100
AcDbCircle
 62
7
  6
CONTINUOUS
 10
221.7162610424
 20
111.7116557921
 40
12.9550881902
100
AcDbArc
 50
324.8299777097
 51
326.6516907993
  0
ARC
  5
3F7
100
AcDbEntity
  8
0
100
AcDbCircle
 62
7
  6
CONTINUOUS
 10
225.1039595862
 20
111.1869448953
 40
9.4886067011
100
AcDbArc
 50
2.3052783522
 51
4.364493381
  0
ARC
  5
3F8
100
AcDbEntity
  8
0
100
AcDbCircle
 62
7
  6
CONTINUOUS
 10
222.5896113378
 20
101.6819642295
 40
9.396433992
100
AcDbArc
 50
15.8572728439
 51
18.0273636526
  0
ARC
  5
3F9
100
AcDbEntity
  8
0
100
AcDbCircle
 62
7
  6
CONTINUOUS
 10
222.8383488439
 20
102.5909573791
 40
9.3910604022
100
AcDbArc
 50
15.4994861402
 51
16.5800524591
  0
ARC
  5
3FA
100
AcDbEntity
  8
0
100
AcDbCircle
 62
7
  6
CONTINUOUS
 10
222.1735001757
 20
101.6254630631
 40
9.2889191503
100
AcDbArc
 50
16.408706697
 51
18.6106694361
  0
ARC
  5
3FB
100
AcDbEntity
  8
0
100
AcDbCircle
 62
7
  6
CONTINUOUS
 10
227.8202317167
 20
109.2502956866
 40
6.7181532179
100
AcDbArc
 50
309.6719504823
 51
311.8944757276
  0
ARC
  5
3FC
100
AcDbEntity
  8
0
100
AcDbCircle
 62
7
  6
CONTINUOUS
 10
228.9902699649
 20
109.7639220177
 40
5.8715550532
100
AcDbArc
 50
304.5911264046
 51
307.4169483068
  0
ARC
  5
3FD
100
AcDbEntity
  8
0
100
AcDbCircle
 62
7
  6
CONTINUOUS
 10
227.7587200487
 20
107.2073882345
 40
5.8466844053
100
AcDbArc
 50
6.0532033065
 51
9.4204045305
  0
ARC
  5
3FE
100
AcDbEntity
  8
0
100
AcDbCircle
 62
7
  6
CONTINUOUS
 10
228.6187229996
 20
109.613806225
 40
5.6551400021
100
AcDbArc
 50
306.1023682774
 51
307.052449023
  0
ARC
  5
3FF
100
AcDbEntity
  8
0
100
AcDbCircle
 62
7
  6
CONTINUOUS
 10
227.840963962
 20
101.347454305
 40
4.3519578431
100
AcDbArc
 50
38.8818723512
 51
41.8227614373
  0
ARC
  5
400
100
AcDbEntity
  8
0
100
AcDbCircle
 62
7
  6
CONTINUOUS
 10
228.3813964849
 20
101.4138529946
 40
4.3109348118
100
AcDbArc
 50
38.1912074245
 51
41.1301541482
  0
ARC
  5
401
100
AcDbEntity
  8
0
100
AcDbCircle
 62
7
  6
CONTINUOUS
 10
234.3910174324
 20
111.9430586966
 40
0.7691779129
100
AcDbArc
 50
357.4650293777
 51
10.1987124969
  0
ARC
  5
402
100
AcDbEntity
  8
0
100
AcDbCircle
 62
7
  6
CONTINUOUS
 10
215.86820853
 20
122.3886193134
 40
41.420541556
100
AcDbArc
 50
195.1426545714
 51
195.6577056915
  0
ARC
  5
403
100
AcDbEntity
  8
0
100
AcDbCircle
 62
7
  6
CONTINUOUS
 10
207.7711236716
 20
113.920115876
 40
31.3028887605
100
AcDbArc
 50
188.6992242291
 51
195.9649967574
  0
ARC
  5
404
100
AcDbEntity
  8
0
100
AcDbCircle
 62
7
  6
CONTINUOUS
 10
212.012910583
 20
119.7663298653
 40
24.4426406715
100
AcDbArc
 50
331.6627096184
 51
333.0141865526
  0
ARC
  5
405
100
AcDbEntity
  8
0
100
AcDbCircle
 62
7
  6
CONTINUOUS
 10
214.9625876723
 20
124.1380002127
 40
22.8843729155
100
AcDbArc
 50
324.0947851429
 51
325.1402075231
  0
ARC
  5
406
100
AcDbEntity
  8
0
100
AcDbCircle
 62
7
  6
CONTINUOUS
 10
215.6974664435
 20
114.1364897589
 40
19.3584217812
100
AcDbArc
 50
330.452185976
 51
331.6039012503
  0
ARC
  5
407
100
AcDbEntity
  8
0
100
AcDbCircle
 62
7
  6
CONTINUOUS
 10
221.2802359133
 20
122.4663711919
 40
16.4935400922
100
AcDbArc
 50
318.6445158875
 51
320.2015482094
  0
ARC
  5
408
100
AcDbEntity
  8
0
100
AcDbCircle
 62
7
  6
CONTINUOUS
 10
220.8856223767
 20
122.4633664328
 40
16.380221091
100
AcDbArc
 50
318.3087458294
 51
319.8842659778
  0
ARC
  5
409
100
AcDbEntity
  8
0
100
AcDbCircle
 62
7
  6
CONTINUOUS
 10
225.270875053
 20
114.064636303
 40
10.1207890147
100
AcDbArc
 50
345.722209311
 51
347.7025372729
  0
ARC
  5
40A
100
AcDbEntity
  8
0
100
AcDbCircle
 62
7
  6
CONTINUOUS
 10
227.1703802787
 20
114.511104189
 40
8.6171473723
100
AcDbArc
 50
315.8116242169
 51
318.8894453555
  0
ARC
  5
40B
100
AcDbEntity
  8
0
100
AcDbCircle
 62
7
  6
CONTINUOUS
 10
226.6923965584
 20
114.5293291903
 40
8.5896061514
100
AcDbArc
 50
315.4624726749
 51
318.5669825494
  0
ARC
  5
40C
100
AcDbEntity
  8
0
100
AcDbCircle
 62
7
  6
CONTINUOUS
 10
229.510828274
 20
117.9052768455
 40
8.0482977794
100
AcDbArc
 50
301.7037823426
 51
303.9395071008
  0
ARC
  5
40D
100
AcDbEntity
  8
BEZUGSACHSEN
100
AcDbCircle
 62
7
  6
CONTINUOUS
 10
205.482450197
 20
123.0792513564
 40
7.0
100
AcDbArc
 50
177.5487407844
 51
2.4512592156
  0
ARC
  5
40E
100
AcDbEntity
  8
RUNDUNGEN
100
AcDbCircle
 62
7
  6
CONTINUOUS
 10
231.7374887846
 20
116.2242049466
 40
4.0
100
AcDbArc
 50
344.0
 51
70.0
  0
ARC
  5
40F
100
AcDbEntity
  8
0
100
AcDbCircle
 62
7
  6
CONTINUOUS
 10
266.549641035
 20
135.1073554844
 40
93.6444935242
100
AcDbArc
 50
195.096827169
 51
195.4206748549
  0
ARC
  5
410
100
AcDbEntity
  8
0
100
AcDbCircle
 62
7
  6
CONTINUOUS
 10
254.2096284447
 20
139.4948684243
 40
82.9754836131
100
AcDbArc
 50
200.2927596284
 51
200.669155966
  0
ARC
  5
411
100
AcDbEntity
  8
0
100
AcDbCircle
 62
7
  6
CONTINUOUS
 10
213.6986629832
 20
127.4459863994
 40
40.7199034181
100
AcDbArc
 50
202.9493207863
 51
203.9937582747
  0
ARC
  5
412
100
AcDbEntity
  8
0
100
AcDbCircle
 62
7
  6
CONTINUOUS
 10
213.6042403896
 20
127.2655359415
 40
40.0790687339
100
AcDbArc
 50
203.0571371884
 51
204.1192159807
  0
ARC
  5
413
100
AcDbEntity
  8
0
100
AcDbCircle
 62
7
  6
CONTINUOUS
 10
199.313060238
 20
131.9102318868
 40
39.9191855513
100
AcDbArc
 50
328.2222496036
 51
329.3648091209
  0
ARC
  5
414
100
AcDbEntity
  8
0
100
AcDbCircle
 62
7
  6
CONTINUOUS
 10
199.4139387263
 20
131.7147410142
 40
39.265617208
100
AcDbArc
 50
327.9666618993
 51
329.1312618165
  0
ARC
  5
415
100
AcDbEntity
  8
RUNDUNGEN
100
AcDbCircle
 62
7
  6
CONTINUOUS
 10
227.982450197
 20
135.6819493531
 40
13.0
100
AcDbArc
 50
179.9994822377
 51
250.0006784976
  0
ARC
  5
416
100
AcDbEntity
  8
BEZUGSACHSEN
100
AcDbCircle
 62
7
  6
CONTINUOUS
 10
182.982450197
 20
135.6819493531
 40
13.0
100
AcDbArc
 50
289.9993215024
 51
0.0005177623
  0
ARC
  5
417
100
AcDbEntity
  8
0
100
AcDbCircle
 62
7
  6
CONTINUOUS
 10
362.4777586247
 20
151.6826296968
 40
190.4513041749
100
AcDbArc
 50
192.6833933403
 51
192.8934323253
  0
ARC
  5
418
100
AcDbEntity
  8
0
100
AcDbCircle
 62
7
  6
CONTINUOUS
 10
287.9601463371
 20
139.7058951481
 40
115.4885522056
100
AcDbArc
 50
198.0168293162
 51
198.5014988388
  0
ARC
  5
419
100
AcDbEntity
  8
0
100
AcDbCircle
 62
7
  6
CONTINUOUS
 10
275.9134140577
 20
147.0946682304
 40
105.7660294792
100
AcDbArc
 50
203.1929530417
 51
203.5948204601
  0
ARC
  5
41A
100
AcDbEntity
  8
0
100
AcDbCircle
 62
7
  6
CONTINUOUS
 10
275.3433502739
 20
127.6434536402
 40
100.0661100339
100
AcDbArc
 50
190.6294322632
 51
190.9270641851
  0
ARC
  5
41B
100
AcDbEntity
  8
0
100
AcDbCircle
 62
7
  6
CONTINUOUS
 10
349.0012217539
 20
173.4805324345
 40
183.1513929385
100
AcDbArc
 50
201.6931045995
 51
201.8651279665
  0
ARC
  5
41C
100
AcDbEntity
  8
0
100
AcDbCircle
 62
7
  6
CONTINUOUS
 10
344.7065324221
 20
171.9416466906
 40
178.0883356246
100
AcDbArc
 50
201.8083122144
 51
201.9853719469
  0
ARC
  5
41D
100
AcDbEntity
  8
BEZUGSACHSEN
100
AcDbCircle
 62
7
  6
CONTINUOUS
 10
199.982450197
 20
184.4172903549
 40
4.0
100
AcDbArc
 50
90.0
 51
180.0
  0
ARC
  5
41E
100
AcDbEntity
  8
RUNDUNGEN
100
AcDbCircle
 62
7
  6
CONTINUOUS
 10
210.982450197
 20
184.4172903549
 40
4.0
100
AcDbArc
 50
0.0
 51
90.0
  0
ARC
  5
41F
100
AcDbEntity
  8
RUNDUNGEN
100
AcDbCircle
 62
7
  6
CONTINUOUS
 10
45.8425331701
 20
37.0351990826
 40
4.0
100
AcDbArc
 50
189.278965423
 51
270.0
  0
ARC
  5
420
100
AcDbEntity
  8
BEZUGSACHSEN
100
AcDbCircle
 62
7
  6
CONTINUOUS
 10
45.8425331701
 20
48.0351990826
 40
4.0
100
AcDbArc
 50
90.0
 51
170.721034577
  0
ARC
  5
421
100
AcDbEntity
  8
0
100
AcDbCircle
 62
7
  6
CONTINUOUS
 10
86.9988650898
 20
42.5351990826
 40
22.7
100
AcDbArc
 50
204.7396598805
 51
335.2604342716
  0
ARC
  5
422
100
AcDbEntity
  8
0
100
AcDbCircle
 62
7
  6
CONTINUOUS
 10
86.9988650898
 20
42.5351990826
 40
22.7
100
AcDbArc
 50
24.7395870037
 51
155.2604921806
  0
ARC
  5
423
100
AcDbEntity
  8
KONSTRUKTIONSELEMENTE
100
AcDbCircle
 62
7
  6
CONTINUOUS
 10
86.9988650898
 20
42.5351990826
 40
22.5
100
AcDbArc
 50
204.9937003773
 51
335.0062996227
  0
ARC
  5
424
100
AcDbEntity
  8
KONSTRUKTIONSELEMENTE
100
AcDbCircle
 62
7
  6
CONTINUOUS
 10
86.9988650898
 20
42.5351990826
 40
22.5
100
AcDbArc
 50
24.9937003773
 51
155.0062996227
  0
ARC
  5
425
100
AcDbEntity
  8
0
100
AcDbCircle
 62
7
  6
CONTINUOUS
 10
86.9988650898
 20
42.5351990826
 40
22.5
100
AcDbArc
 50
204.9971911325
 51
246.7103168329
  0
ARC
  5
426
100
AcDbEntity
  8
0
100
AcDbCircle
 62
7
  6
CONTINUOUS
 10
86.9988650898
 20
42.5351990826
 40
22.5
100
AcDbArc
 50
113.2896831671
 51
127.2932032135
  0
ARC
  5
427
100
AcDbEntity
  8
0
100
AcDbCircle
 62
7
  6
CONTINUOUS
 10
86.9988650898
 20
42.5351990826
 40
22.5
100
AcDbArc
 50
138.8076317972
 51
155.0028088675
  0
ARC
  5
428
100
AcDbEntity
  8
0
100
AcDbCircle
 62
7
  6
CONTINUOUS
 10
86.9988650898
 20
42.5351990826
 40
21.35
100
AcDbArc
 50
26.4227439023
 51
153.5772560977
  0
ARC
  5
429
100
AcDbEntity
  8
0
100
AcDbCircle
 62
7
  6
CONTINUOUS
 10
86.9988650898
 20
42.5351990826
 40
21.35
100
AcDbArc
 50
206.4227439023
 51
333.5772560977
  0
ARC
  5
42A
100
AcDbEntity
  8
FASEN
100
AcDbCircle
 62
7
  6
CONTINUOUS
 10
86.9988650898
 20
42.5351990826
 40
12.5
100
AcDbArc
 50
49.5362158046
 51
130.4637862149
  0
ARC
  5
42B
100
AcDbEntity
  8
FASEN
100
AcDbCircle
 62
7
  6
CONTINUOUS
 10
86.9988650898
 20
42.5351990826
 40
12.5
100
AcDbArc
 50
229.5362158046
 51
310.4637862149
  0
ARC
  5
42C
100
AcDbEntity
  8
0
100
AcDbCircle
 62
2
  6
CONTINUOUS
 10
86.9988650898
 20
42.5351990826
 40
12.0
100
AcDbArc
 50
255.0
 51
303.5549596728
  0
ARC
  5
42D
100
AcDbEntity
  8
0
100
AcDbCircle
 62
2
  6
CONTINUOUS
 10
86.9988650898
 20
42.5351990826
 40
12.0
100
AcDbArc
 50
304.3552792499
 51
307.6552154624
  0
ARC
  5
42E
100
AcDbEntity
  8
0
100
AcDbCircle
 62
2
  6
CONTINUOUS
 10
86.9988650898
 20
42.5351990826
 40
12.0
100
AcDbArc
 50
52.3513722201
 51
127.6486277799
  0
ARC
  5
42F
100
AcDbEntity
  8
FASEN
100
AcDbCircle
 62
7
  6
CONTINUOUS
 10
86.9988650898
 20
42.5351990826
 40
10.5
100
AcDbArc
 50
252.3491784928
 51
287.6508181684
  0
ARC
  5
430
100
AcDbEntity
  8
FASEN
100
AcDbCircle
 62
7
  6
CONTINUOUS
 10
86.9988650898
 20
42.5351990826
 40
10.5
100
AcDbArc
 50
64.9370494692
 51
115.0629503381
  0
ARC
  5
431
100
AcDbEntity
  8
RUNDUNGEN
100
AcDbCircle
 62
7
  6
CONTINUOUS
 10
128.1551975407
 20
37.0351990826
 40
4.0
100
AcDbArc
 50
270.0
 51
350.7207265912
  0
ARC
  5
432
100
AcDbEntity
  8
BEZUGSACHSEN
100
AcDbCircle
 62
7
  6
CONTINUOUS
 10
128.1551975407
 20
48.0351990826
 40
4.0
100
AcDbArc
 50
9.2792734088
 51
90.0
  0
SPLINE
  5
433
100
AcDbEntity
  8
0
100
AcDbSpline
 62
7
  6
CONTINUOUS
 70
0
 71
3
 72
9
 73
5
 74
0
 42
0.0000001
 43
0.0000001
 44
0.0000000001
 40
0.0
 40
0.0
 40
0.0
 40
0.0
 40
0.4834538147
 40
1.0
 40
1.0
 40
1.0
 40
1.0
 10
100.7594079311
 20
123.4659452829
 30
0.0
 10
99.9996400639
 20
123.2551721659
 30
0.0
 10
98.4132771055
 20
122.8717010622
 30
0.0
 10
96.8080400944
 20
122.5787745189
 30
0.0
 10
95.9757665199
 20
122.4483411965
 30
0.0
  0
SPLINE
  5
434
100
AcDbEntity
  8
0
100
AcDbSpline
 62
7
  6
CONTINUOUS
 70
0
 71
3
 72
9
 73
5
 74
0
 42
0.0000001
 43
0.0000001
 44
0.0000000001
 40
0.0
 40
0.0
 40
0.0
 40
0.0
 40
0.5165461762
 40
1.0
 40
1.0
 40
1.0
 40
1.0
 10
78.0219604226
 20
122.4483417014
 30
0.0
 10
77.1896874264
 20
122.5787749756
 30
0.0
 10
75.5844515102
 20
122.8717014325
 30
0.0
 10
73.9980896214
 20
123.255172303
 30
0.0
 10
73.2383222484
 20
123.4659452829
 30
0.0
  0
SPLINE
  5
435
100
AcDbEntity
  8
0
100
AcDbSpline
 62
7
  6
CONTINUOUS
 70
0
 71
3
 72
10
 73
6
 74
0
 42
0.0000001
 43
0.0000001
 44
0.0000000001
 40
0.0
 40
0.0
 40
0.0
 40
0.0
 40
0.2439027714
 40
0.4903435944
 40
1.0
 40
1.0
 40
1.0
 40
1.0
 10
104.0841864809
 20
125.1019438265
 30
0.0
 10
103.84931992
 20
124.9102475163
 30
0.0
 10
103.3522342479
 20
124.5543439061
 30
0.0
 10
102.261420252
 20
123.9539911647
 30
0.0
 10
101.3698461194
 20
123.6352916915
 30
0.0
 10
100.7594079311
 20
123.4659452829
 30
0.0
  0
SPLINE
  5
436
100
AcDbEntity
  8
0
100
AcDbSpline
 62
7
  6
CONTINUOUS
 70
0
 71
3
 72
10
 73
6
 74
0
 42
0.0000001
 43
0.0000001
 44
0.0000000001
 40
0.0
 40
0.0
 40
0.0
 40
0.0
 40
0.5096563889
 40
0.7560972083
 40
1.0
 40
1.0
 40
1.0
 40
1.0
 10
73.2383222484
 20
123.4659452829
 30
0.0
 10
72.6278841264
 20
123.6352916731
 30
0.0
 10
71.7363100637
 20
123.9539910632
 30
0.0
 10
70.6454961719
 20
124.5543437967
 30
0.0
 10
70.1484104949
 20
124.9102473531
 30
0.0
 10
69.9135439216
 20
125.1019436517
 30
0.0
  0
SPLINE
  5
437
100
AcDbEntity
  8
BEZUGSACHSEN
100
AcDbSpline
 62
7
  6
CONTINUOUS
 70
0
 71
3
 72
11
 73
7
 74
0
 42
0.0000001
 43
0.0000001
 44
0.0000000001
 40
0.0
 40
0.0
 40
0.0
 40
0.0
 40
0.2500108883
 40
0.5000153567
 40
0.7500118357
 40
1.0
 40
1.0
 40
1.0
 40
1.0
 10
132.4570435914
 20
146.292654252
 30
0.0
 10
132.5863405158
 20
145.9805031306
 30
0.0
 10
132.7852216104
 20
145.3295089463
 30
0.0
 10
132.8891750278
 20
144.3150023055
 30
0.0
 10
132.7935069205
 20
143.2995773494
 30
0.0
 10
132.5967273252
 20
142.6475959822
 30
0.0
 10
132.4671377389
 20
142.335599499
 30
0.0
  0
SPLINE
  5
438
100
AcDbEntity
  8
BEZUGSACHSEN
100
AcDbSpline
 62
7
  6
CONTINUOUS
 70
0
 71
3
 72
11
 73
7
 74
0
 42
0.0000001
 43
0.0000001
 44
0.0000000001
 40
0.0
 40
0.0
 40
0.0
 40
0.0
 40
0.2499886362
 40
0.4999854353
 40
0.7499895526
 40
1.0
 40
1.0
 40
1.0
 40
1.0
 10
41.5305892973
 20
142.3355981295
 30
0.0
 10
41.4009989116
 20
142.6475950759
 30
0.0
 10
41.2042205569
 20
143.2995783232
 30
0.0
 10
41.1085539644
 20
144.3150042216
 30
0.0
 10
41.2125090569
 20
145.3295103219
 30
0.0
 10
41.411389992
 20
145.9805035374
 30
0.0
 10
41.540686589
 20
146.2926542541
 30
0.0
  0
SPLINE
  5
439
100
AcDbEntity
  8
0
100
AcDbSpline
 62
7
  6
CONTINUOUS
 70
0
 71
3
 72
15
 73
11
 74
0
 42
0.0000001
 43
0.0000001
 44
0.0000000001
 40
0.0
 40
0.0
 40
0.0
 40
0.0
 40
0.0462505534
 40
0.098414553
 40
0.2139016575
 40
0.3381204898
 40
0.4670927039
 40
0.5987407839
 40
0.7318786066
 40
1.0
 40
1.0
 40
1.0
 40
1.0
 10
109.1403628524
 20
133.5909728838
 30
0.0
 10
109.1115662325
 20
133.5301811037
 30
0.0
 10
109.0558376766
 20
133.3982256597
 30
0.0
 10
108.9456398126
 20
133.1072878407
 30
0.0
 10
108.8068689004
 20
132.7060520274
 30
0.0
 10
108.6341868078
 20
132.1984290186
 30
0.0
 10
108.4500693797
 20
131.6698485872
 30
0.0
 10
108.2534120537
 20
131.1319461562
 30
0.0
 10
107.9723290359
 20
130.4096183663
 30
0.0
 10
107.7403668018
 20
129.8736523232
 30
0.0
 10
107.5741745248
 20
129.5208808271
 30
0.0
  0
SPLINE
  5
43A
100
AcDbEntity
  8
0
100
AcDbSpline
 62
7
  6
CONTINUOUS
 70
0
 71
3
 72
9
 73
5
 74
0
 42
0.0000001
 43
0.0000001
 44
0.0000000001
 40
0.0
 40
0.0
 40
0.0
 40
0.0
 40
0.5033318227
 40
1.0
 40
1.0
 40
1.0
 40
1.0
 10
107.5741745248
 20
129.5208808271
 30
0.0
 10
107.3615674053
 20
129.0695995818
 30
0.0
 10
106.8810739588
 20
128.1991297917
 30
0.0
 10
106.2938281382
 20
127.3973710041
 30
0.0
 10
105.9806542081
 20
127.0175908069
 30
0.0
  0
SPLINE
  5
43B
100
AcDbEntity
  8
0
100
AcDbSpline
 62
7
  6
CONTINUOUS
 70
0
 71
3
 72
9
 73
5
 74
0
 42
0.0000001
 43
0.0000001
 44
0.0000000001
 40
0.0
 40
0.0
 40
0.0
 40
0.0
 40
0.2461728911
 40
1.0
 40
1.0
 40
1.0
 40
1.0
 10
105.9806542081
 20
127.0175908069
 30
0.0
 10
105.8398058949
 20
126.8467991077
 30
0.0
 10
105.2548152171
 20
126.1639930826
 30
0.0
 10
104.6093642737
 20
125.5305898893
 30
0.0
 10
104.0841874194
 20
125.1019445135
 30
0.0
  0
SPLINE
  5
43C
100
AcDbEntity
  8
0
100
AcDbSpline
 62
7
  6
CONTINUOUS
 70
0
 71
3
 72
15
 73
11
 74
0
 42
0.0000001
 43
0.0000001
 44
0.0000000001
 40
0.0
 40
0.0
 40
0.0
 40
0.0
 40
0.1205305218
 40
0.2448632869
 40
0.3717746997
 40
0.5000000526
 40
0.6282254116
 40
0.7551368118
 40
0.8794695198
 40
1.0
 40
1.0
 40
1.0
 40
1.0
 10
95.9762471876
 20
122.448423301
 30
0.0
 10
95.2594808204
 20
122.3360921852
 30
0.0
 10
93.8016463677
 20
122.1184712379
 30
0.0
 10
91.5819624074
 20
121.8321630516
 30
0.0
 10
89.3067791626
 20
121.6209050479
 30
0.0
 10
86.9988628574
 20
121.5405310562
 30
0.0
 10
84.6909466312
 20
121.620905276
 30
0.0
 10
82.4157638065
 20
121.8321636352
 30
0.0
 10
80.1960805056
 20
122.1184716738
 30
0.0
 10
78.7382466435
 20
122.336092561
 30
0.0
 10
78.0214805293
 20
122.4484236737
 30
0.0
  0
SPLINE
  5
43D
100
AcDbEntity
  8
0
100
AcDbSpline
 62
7
  6
CONTINUOUS
 70
0
 71
3
 72
9
 73
5
 74
0
 42
0.0000001
 43
0.0000001
 44
0.0000000001
 40
0.0
 40
0.0
 40
0.0
 40
0.0
 40
0.2538832467
 40
1.0
 40
1.0
 40
1.0
 40
1.0
 10
69.9135432413
 20
125.1019441498
 30
0.0
 10
69.7366397112
 20
125.2463314563
 30
0.0
 10
69.0574272899
 20
125.8366054009
 30
0.0
 10
68.4440348641
 20
126.499861396
 30
0.0
 10
68.0170752322
 20
127.0175897398
 30
0.0
  0
SPLINE
  5
43E
100
AcDbEntity
  8
0
100
AcDbSpline
 62
7
  6
CONTINUOUS
 70
0
 71
3
 72
9
 73
5
 74
0
 42
0.0000001
 43
0.0000001
 44
0.0000000001
 40
0.0
 40
0.0
 40
0.0
 40
0.0
 40
0.4966684261
 40
1.0
 40
1.0
 40
1.0
 40
1.0
 10
68.0170752322
 20
127.0175897398
 30
0.0
 10
67.703899957
 20
127.3973668791
 30
0.0
 10
67.1166620643
 20
128.1991273758
 30
0.0
 10
66.6361675319
 20
129.0695920194
 30
0.0
 10
66.423560727
 20
129.5208711799
 30
0.0
  0
SPLINE
  5
43F
100
AcDbEntity
  8
0
100
AcDbSpline
 62
7
  6
CONTINUOUS
 70
0
 71
3
 72
15
 73
11
 74
0
 42
0.0000001
 43
0.0000001
 44
0.0000000001
 40
0.0
 40
0.0
 40
0.0
 40
0.0
 40
0.2681213803
 40
0.4012594704
 40
0.532907531
 40
0.6618801464
 40
0.7860984796
 40
0.9015853333
 40
0.9537494585
 40
1.0
 40
1.0
 40
1.0
 40
1.0
 10
66.423560727
 20
129.5208711799
 30
0.0
 10
66.2573682751
 20
129.8736435876
 30
0.0
 10
66.0254027615
 20
130.4096101281
 30
0.0
 10
65.7443209341
 20
131.1319407159
 30
0.0
 10
65.5476612044
 20
131.6698447055
 30
0.0
 10
65.3635453801
 20
132.1984269166
 30
0.0
 10
65.1908615745
 20
132.7060501418
 30
0.0
 10
65.0520902675
 20
133.1072858904
 30
0.0
 10
64.9418933849
 20
133.3982246564
 30
0.0
 10
64.8861644988
 20
133.5301805133
 30
0.0
 10
64.857367818
 20
133.5909724207
 30
0.0
  0
SPLINE
  5
440
100
AcDbEntity
  8
BEZUGSACHSEN
100
AcDbSpline
 62
7
  6
CONTINUOUS
 70
0
 71
3
 72
9
 73
5
 74
0
 42
0.0000001
 43
0.0000001
 44
0.0000000001
 40
0.0
 40
0.0
 40
0.0
 40
0.0
 40
0.4999714007
 40
1.0
 40
1.0
 40
1.0
 40
1.0
 10
127.5680583899
 20
130.5416781512
 30
0.0
 10
127.4408742505
 20
130.2354222392
 30
0.0
 10
127.286642286
 20
129.5765374702
 30
0.0
 10
127.3510907831
 20
128.9034196907
 30
0.0
 10
127.4345319949
 20
128.5824349307
 30
0.0
  0
SPLINE
  5
441
100
AcDbEntity
  8
BEZUGSACHSEN
100
AcDbSpline
 62
7
  6
CONTINUOUS
 70
0
 71
3
 72
9
 73
5
 74
0
 42
0.0000001
 43
0.0000001
 44
0.0000000001
 40
0.0
 40
0.0
 40
0.0
 40
0.0
 40
0.5000289105
 40
1.0
 40
1.0
 40
1.0
 40
1.0
 10
46.5631981147
 20
128.5824349479
 30
0.0
 10
46.6466395101
 20
128.9034198937
 30
0.0
 10
46.7110873528
 20
129.5765376672
 30
0.0
 10
46.5568567084
 20
130.2354227795
 30
0.0
 10
46.4296724886
 20
130.5416784558
 30
0.0
  0
SPLINE
  5
442
100
AcDbEntity
  8
BEZUGSACHSEN
100
AcDbSpline
 62
7
  6
CONTINUOUS
 70
0
 71
3
 72
37
 73
33
 74
0
 42
0.0000001
 43
0.0000001
 44
0.0000000001
 40
0.0
 40
0.0
 40
0.0
 40
0.0
 40
0.0062871574
 40
0.0146949091
 40
0.0252272093
 40
0.0378694102
 40
0.0693789143
 40
0.1089255697
 40
0.1560974553
 40
0.2103859193
 40
0.2712120913
 40
0.3379433824
 40
0.409900923
 40
0.4864112145
 40
0.5261596597
 40
0.5667888713
 40
0.608217612
 40
0.6503676411
 40
0.6931600631
 40
0.7365171745
 40
0.7803645513
 40
0.8246278029
 40
0.8692190278
 40
0.8916057712
 40
0.9139995282
 40
0.9362881681
 40
0.9473373562
 40
0.9582388247
 40
0.9689341073
 40
0.9794186101
 40
0.9897523714
 40
1.0
 40
1.0
 40
1.0
 40
1.0
 10
53.5112249073
 20
113.4937361034
 30
0.0
 10
53.5641523857
 20
113.4606442872
 30
0.0
 10
53.6928544661
 20
113.391452625
 30
0.0
 10
53.9194639127
 20
113.2847606785
 30
0.0
 10
54.2074261981
 20
113.1605338002
 30
0.0
 10
54.710163773
 20
112.9555206735
 30
0.0
 10
55.4856816731
 20
112.6568518764
 30
0.0
 10
56.5844554535
 20
112.2439487748
 30
0.0
 10
57.8952700937
 20
111.7523350081
 30
0.0
 10
59.4011975165
 20
111.1793632262
 30
0.0
 10
61.0829971602
 20
110.5226733789
 30
0.0
 10
62.9193431441
 20
109.7798036927
 30
0.0
 10
64.8878161369
 20
108.9488720408
 30
0.0
 10
66.5956338273
 20
108.1900094627
 30
0.0
 10
68.0081497451
 20
107.5333999505
 30
0.0
 10
69.0982290735
 20
107.0096535127
 30
0.0
 10
70.2019395568
 20
106.4594920543
 30
0.0
 10
71.3152175902
 20
105.8807439545
 30
0.0
 10
72.4334799946
 20
105.2705570541
 30
0.0
 10
73.5510851753
 20
104.6247025858
 30
0.0
 10
74.6603882515
 20
103.9362324099
 30
0.0
 10
75.7488330958
 20
103.1931104386
 30
0.0
 10
76.6196378437
 20
102.5110476262
 30
0.0
 10
77.2673429125
 20
101.9033193574
 30
0.0
 10
77.7109505049
 20
101.4055132299
 30
0.0
 10
78.0191385387
 20
100.9409311505
 30
0.0
 10
78.1874563353
 20
100.5334500705
 30
0.0
 10
78.2567079621
 20
100.2145082732
 30
0.0
 10
78.2522459862
 20
99.892780458
 30
0.0
 10
78.1690573591
 20
99.5878340173
 30
0.0
 10
78.0215245823
 20
99.3145718633
 30
0.0
 10
77.8933134891
 20
99.1542725663
 30
0.0
 10
77.8245876416
 20
99.0792513564
 30
0.0
  0
SPLINE
  5
443
100
AcDbEntity
  8
BEZUGSACHSEN
100
AcDbSpline
 62
7
  6
CONTINUOUS
 70
0
 71
3
 72
37
 73
33
 74
0
 42
0.0000001
 43
0.0000001
 44
0.0000000001
 40
0.0
 40
0.0
 40
0.0
 40
0.0
 40
0.006287056
 40
0.0146946354
 40
0.0252266976
 40
0.0378685947
 40
0.0693773541
 40
0.1089230239
 40
0.1560937721
 40
0.2103810898
 40
0.271206446
 40
0.3379370826
 40
0.4098941674
 40
0.4864040243
 40
0.5261521758
 40
0.5667811147
 40
0.6082095454
 40
0.6503592878
 40
0.6931513814
 40
0.736508214
 40
0.7803552884
 40
0.8246184611
 40
0.8692100085
 40
0.8915971659
 40
0.9139916278
 40
0.9362840865
 40
0.947335961
 40
0.9582402809
 40
0.9689368332
 40
0.9794206542
 40
0.9897531203
 40
1.0
 40
1.0
 40
1.0
 40
1.0
 10
120.4865052723
 20
113.4937361034
 30
0.0
 10
120.4335786419
 20
113.4606448174
 30
0.0
 10
120.3048791158
 20
113.3914541373
 30
0.0
 10
120.0782742981
 20
113.2847641967
 30
0.0
 10
119.7903185484
 20
113.1605400019
 30
0.0
 10
119.2875930732
 20
112.9555308801
 30
0.0
 10
118.5120940854
 20
112.6568689189
 30
0.0
 10
117.4133469287
 20
112.2439755698
 30
0.0
 10
116.1025625781
 20
111.752373067
 30
0.0
 10
114.5966631029
 20
111.179413905
 30
0.0
 10
112.9148873519
 20
110.522733778
 30
0.0
 10
111.078557675
 20
109.7798742984
 30
0.0
 10
109.1100964733
 20
108.9489535028
 30
0.0
 10
107.4022896881
 20
108.1900949242
 30
0.0
 10
105.9897801992
 20
107.5334947784
 30
0.0
 10
104.8997078805
 20
107.0097535922
 30
0.0
 10
103.7960011725
 20
106.4596036197
 30
0.0
 10
102.6827315596
 20
105.8808588325
 30
0.0
 10
101.5644754641
 20
105.2706789326
 30
0.0
 10
100.4468700438
 20
104.6248423586
 30
0.0
 10
99.3375734066
 20
103.9363745083
 30
0.0
 10
98.2491116518
 20
103.1932777054
 30
0.0
 10
97.3782889118
 20
102.5112297063
 30
0.0
 10
96.7305550654
 20
101.9035063623
 30
0.0
 10
96.2869346022
 20
101.4056549917
 30
0.0
 10
95.9786129037
 20
100.9410664597
 30
0.0
 10
95.8103045582
 20
100.533481064
 30
0.0
 10
95.7409982074
 20
100.2144824316
 30
0.0
 10
95.7454848682
 20
99.892715551
 30
0.0
 10
95.8287002101
 20
99.5877857922
 30
0.0
 10
95.9762242716
 20
99.3145513481
 30
0.0
 10
96.1044217059
 20
99.1542670914
 30
0.0
 10
96.1731425379
 20
99.0792513564
 30
0.0
  0
LINE
  5
444
100
AcDbEntity
  8
0
100
AcDbLine
 62
7
  6
CONTINUOUS
 10
177.0623141848
 20
110.8877621367
 11
177.4696312673
 21
109.5260596946
  0
LINE
  5
445
100
AcDbEntity
  8
0
100
AcDbLine
 62
7
  6
CONTINUOUS
 10
177.1680643853
 20
109.5260596946
 11
177.3692670677
 21
108.8452087119
  0
SPLINE
  5
446
100
AcDbEntity
  8
0
100
AcDbSpline
 62
7
  6
CONTINUOUS
 70
0
 71
3
 72
8
 73
4
 74
0
 42
0.0000001
 43
0.0000001
 44
0.0000000001
 40
0.0
 40
0.0
 40
0.0
 40
0.0
 40
1.0
 40
1.0
 40
1.0
 40
1.0
 10
177.6734945747
 20
108.8452087119
 30
0.0
 10
178.0134336691
 20
107.7102887714
 30
0.0
 10
178.353910868
 20
106.5755298316
 30
0.0
 10
178.6949948357
 20
105.4409534409
 30
0.0
  0
LINE
  5
447
100
AcDbEntity
  8
0
100
AcDbLine
 62
7
  6
CONTINUOUS
 10
175.9847321337
 20
111.2096402301
 11
175.988320156
 21
111.1968472974
  0
LINE
  5
448
100
AcDbEntity
  8
0
100
AcDbLine
 62
7
  6
CONTINUOUS
 10
175.988320156
 20
111.1968472974
 11
176.0117947413
 21
111.1135373367
  0
LINE
  5
449
100
AcDbEntity
  8
0
100
AcDbLine
 62
7
  6
CONTINUOUS
 10
176.0117947413
 20
111.1135373367
 11
176.0518604722
 21
110.9728691192
  0
SPLINE
  5
44A
100
AcDbEntity
  8
0
100
AcDbSpline
 62
7
  6
CONTINUOUS
 70
0
 71
3
 72
9
 73
5
 74
0
 42
0.0000001
 43
0.0000001
 44
0.0000000001
 40
0.0
 40
0.0
 40
0.0
 40
0.0
 40
0.2450086927
 40
1.0
 40
1.0
 40
1.0
 40
1.0
 10
176.0997222623
 20
111.2281876281
 30
0.0
 10
176.1096660879
 20
111.2138849228
 30
0.0
 10
176.1508401618
 20
111.1559190273
 30
0.0
 10
176.1943061143
 20
111.0995885857
 30
0.0
 10
176.2282133638
 20
111.0579748824
 30
0.0
  0
LINE
  5
44B
100
AcDbEntity
  8
0
100
AcDbLine
 62
7
  6
CONTINUOUS
 10
176.5749297606
 20
110.2069111541
 11
176.6738046297
 21
109.8664851859
  0
LINE
  5
44C
100
AcDbEntity
  8
0
100
AcDbLine
 62
7
  6
CONTINUOUS
 10
178.1344934489
 20
103.9857095632
 11
178.1041181833
 21
104.0792277585
  0
LINE
  5
44D
100
AcDbEntity
  8
0
100
AcDbLine
 62
7
  6
CONTINUOUS
 10
234.3899706334
 20
110.2069111541
 11
234.3734817781
 21
110.1501377575
  0
LINE
  5
44E
100
AcDbEntity
  8
0
100
AcDbLine
 62
7
  6
CONTINUOUS
 10
234.3734817781
 20
110.1501377575
 11
234.3405157209
 21
110.0366338465
  0
LINE
  5
44F
100
AcDbEntity
  8
0
100
AcDbLine
 62
7
  6
CONTINUOUS
 10
234.3405157209
 20
110.0366338465
 11
234.2910957644
 21
109.8664851859
  0
LINE
  5
450
100
AcDbEntity
  8
0
100
AcDbLine
 62
7
  6
CONTINUOUS
 10
234.2910957644
 20
109.8664851859
 11
234.2876909737
 21
109.8513597422
  0
LINE
  5
451
100
AcDbEntity
  8
0
100
AcDbLine
 62
7
  6
CONTINUOUS
 10
234.2876909737
 20
109.8513597422
 11
234.2654180646
 21
109.7525548281
  0
LINE
  5
452
100
AcDbEntity
  8
0
100
AcDbLine
 62
7
  6
CONTINUOUS
 10
234.1365550083
 20
109.1856342032
 11
234.1330969378
 21
109.1631151629
  0
LINE
  5
453
100
AcDbEntity
  8
0
100
AcDbLine
 62
7
  6
CONTINUOUS
 10
233.1282232423
 20
104.9142812054
 11
233.1332925919
 21
104.9303152039
  0
LINE
  5
454
100
AcDbEntity
  8
0
100
AcDbLine
 62
7
  6
CONTINUOUS
 10
233.1047962242
 20
105.9515917971
 11
233.3031929426
 21
106.6324427798
  0
LINE
  5
455
100
AcDbEntity
  8
0
100
AcDbLine
 62
7
  6
CONTINUOUS
 10
233.3031929426
 20
106.6324427798
 11
233.4764132531
 21
107.3132940009
  0
SPLINE
  5
456
100
AcDbEntity
  8
0
100
AcDbSpline
 62
7
  6
CONTINUOUS
 70
0
 71
3
 72
8
 73
4
 74
0
 42
0.0000001
 43
0.0000001
 44
0.0000000001
 40
0.0
 40
0.0
 40
0.0
 40
0.0
 40
1.0
 40
1.0
 40
1.0
 40
1.0
 10
233.9968222335
 20
109.1856342032
 30
0.0
 10
234.0716067812
 20
109.4125191201
 30
0.0
 10
234.146190942
 20
109.6394701806
 30
0.0
 10
234.2205796606
 20
109.8664851859
 30
0.0
  0
LINE
  5
457
100
AcDbEntity
  8
0
100
AcDbLine
 62
7
  6
CONTINUOUS
 10
234.2205796606
 20
109.8664851859
 11
234.3197496412
 21
110.2069111541
  0
LINE
  5
458
100
AcDbEntity
  8
0
100
AcDbLine
 62
7
  6
CONTINUOUS
 10
234.3197496412
 20
110.2069111541
 11
234.4932008949
 21
110.8877621367
  0
SPLINE
  5
459
100
AcDbEntity
  8
0
100
AcDbSpline
 62
7
  6
CONTINUOUS
 70
0
 71
3
 72
9
 73
5
 74
0
 42
0.0000001
 43
0.0000001
 44
0.0000000001
 40
0.0
 40
0.0
 40
0.0
 40
0.0
 40
0.23965068
 40
1.0
 40
1.0
 40
1.0
 40
1.0
 10
234.5650503158
 20
111.9090386107
 30
0.0
 10
234.5505916256
 20
111.9234610644
 30
0.0
 10
234.4893665608
 20
111.9827454849
 30
0.0
 10
234.4248051793
 20
112.0385429548
 30
0.0
 10
234.3743960766
 20
112.0792513564
 30
0.0
  0
LINE
  5
45A
100
AcDbEntity
  8
0
100
AcDbLine
 62
7
  6
CONTINUOUS
 10
231.8388357664
 20
105.6111663058
 11
231.8900504636
 21
105.9515917971
  0
SPLINE
  5
45B
100
AcDbEntity
  8
0
100
AcDbSpline
 62
7
  6
CONTINUOUS
 70
0
 71
3
 72
9
 73
5
 74
0
 42
0.0000001
 43
0.0000001
 44
0.0000000001
 40
0.0
 40
0.0
 40
0.0
 40
0.0
 40
0.2442153973
 40
1.0
 40
1.0
 40
1.0
 40
1.0
 10
232.0720426709
 20
104.9303152039
 30
0.0
 10
232.0575052908
 20
104.9446498648
 30
0.0
 10
231.9974862116
 20
105.0028463734
 30
0.0
 10
231.9355640997
 20
105.0590721885
 30
0.0
 10
231.887883143
 20
105.1005279496
 30
0.0
  0
LINE
  5
45C
100
AcDbEntity
  8
0
100
AcDbLine
 62
7
  6
CONTINUOUS
 10
178.456917561
 20
108.8452087119
 11
178.2459351045
 21
109.5260596946
  0
SPLINE
  5
45D
100
AcDbEntity
  8
0
100
AcDbSpline
 62
7
  6
CONTINUOUS
 70
0
 71
3
 72
9
 73
5
 74
0
 42
0.0000001
 43
0.0000001
 44
0.0000000001
 40
0.0
 40
0.0
 40
0.0
 40
0.0
 40
0.2413358399
 40
1.0
 40
1.0
 40
1.0
 40
1.0
 10
233.7630598821
 20
112.0792513564
 30
0.0
 10
233.7352099507
 20
112.0648235328
 30
0.0
 10
233.6193965432
 20
112.0058414345
 30
0.0
 10
233.5020168903
 20
111.9499525325
 30
0.0
 10
233.4123061842
 20
111.9090386107
 30
0.0
  0
LINE
  5
45E
100
AcDbEntity
  8
0
100
AcDbLine
 62
7
  6
CONTINUOUS
 10
177.6869333549
 20
109.5260596946
 11
177.2758113658
 21
110.8877621367
  0
LINE
  5
45F
100
AcDbEntity
  8
0
100
AcDbLine
 62
7
  6
CONTINUOUS
 10
179.8227953234
 20
104.0792513564
 11
179.6109479945
 21
104.7601023987
  0
LINE
  5
460
100
AcDbEntity
  8
0
100
AcDbLine
 62
7
  6
CONTINUOUS
 10
178.5161837108
 20
104.0792513564
 11
178.2667879531
 21
104.9303152039
  0
LINE
  5
461
100
AcDbEntity
  8
0
100
AcDbLine
 62
7
  6
CONTINUOUS
 10
176.9943020886
 20
109.1856342032
 11
176.8223303374
 21
109.8664851859
  0
LINE
  5
462
100
AcDbEntity
  8
0
100
AcDbLine
 62
7
  6
CONTINUOUS
 10
176.8223303374
 20
109.8664851859
 11
176.7228319724
 21
110.2069111541
  0
SPLINE
  5
463
100
AcDbEntity
  8
0
100
AcDbSpline
 62
7
  6
CONTINUOUS
 70
0
 71
3
 72
8
 73
4
 74
0
 42
0.0000001
 43
0.0000001
 44
0.0000000001
 40
0.0
 40
0.0
 40
0.0
 40
0.0
 40
1.0
 40
1.0
 40
1.0
 40
1.0
 10
176.7228319724
 20
110.2069111541
 30
0.0
 10
176.6474788261
 20
110.4337947581
 30
0.0
 10
176.5723285408
 20
110.6607458326
 30
0.0
 10
176.4973761285
 20
110.8877621367
 30
0.0
  0
SPLINE
  5
464
100
AcDbEntity
  8
0
100
AcDbSpline
 62
7
  6
CONTINUOUS
 70
0
 71
3
 72
9
 73
5
 74
0
 42
0.0000001
 43
0.0000001
 44
0.0000000001
 40
0.0
 40
0.0
 40
0.0
 40
0.0
 40
0.2576412014
 40
1.0
 40
1.0
 40
1.0
 40
1.0
 10
176.0191636461
 20
111.9090386107
 30
0.0
 10
176.0055700221
 20
111.923049748
 30
0.0
 10
175.9534060137
 20
111.9780061936
 30
0.0
 10
175.9037044843
 20
112.0353212973
 30
0.0
 10
175.8685742273
 20
112.0792513564
 30
0.0
  0
LINE
  5
465
100
AcDbEntity
  8
0
100
AcDbLine
 62
7
  6
CONTINUOUS
 10
176.0646466704
 20
111.0204400343
 11
176.0560544495
 21
111.0579748824
  0
LINE
  5
466
100
AcDbEntity
  8
0
100
AcDbLine
 62
7
  6
CONTINUOUS
 10
233.6578353792
 20
110.2069111541
 11
233.5580303454
 21
109.8664851859
  0
SPLINE
  5
467
100
AcDbEntity
  8
BEZUGSACHSEN
100
AcDbSpline
 62
7
  6
CONTINUOUS
 70
0
 71
3
 72
27
 73
23
 74
0
 42
0.0000001
 43
0.0000001
 44
0.0000000001
 40
0.0
 40
0.0
 40
0.0
 40
0.0
 40
0.1613852786
 40
0.2391659836
 40
0.3141504215
 40
0.385793088
 40
0.4536575563
 40
0.5174380371
 40
0.5769933135
 40
0.6323778634
 40
0.6838631739
 40
0.7320143012
 40
0.7777753145
 40
0.8226797638
 40
0.8456022976
 40
0.8695062236
 40
0.895337585
 40
0.924965681
 40
0.9423416204
 40
0.9619874714
 40
0.982243205
 40
1.0
 40
1.0
 40
1.0
 40
1.0
 10
205.482450197
 20
113.4937361034
 30
0.0
 10
203.7415541628
 20
113.3851070573
 30
0.0
 10
201.1644914798
 20
113.1608714029
 30
0.0
 10
197.7991710401
 20
112.7060065876
 30
0.0
 10
195.4083304916
 20
112.2940167726
 30
0.0
 10
193.1416149492
 20
111.8040554912
 30
0.0
 10
191.0187550417
 20
111.2333394233
 30
0.0
 10
189.0569958407
 20
110.5790953499
 30
0.0
 10
187.2710340181
 20
109.8380938583
 30
0.0
 10
185.6722535674
 20
109.0080382117
 30
0.0
 10
184.2707951243
 20
108.0831465026
 30
0.0
 10
183.0747058923
 20
107.0561702214
 30
0.0
 10
182.0921046818
 20
105.9137255179
 30
0.0
 10
181.4665921042
 20
104.8477201431
 30
0.0
 10
181.0998256679
 20
103.9248982725
 30
0.0
 10
180.8904719377
 20
103.166209908
 30
0.0
 10
180.7618000277
 20
102.3160367771
 30
0.0
 10
180.7493067598
 20
101.5257756334
 30
0.0
 10
180.8244153774
 20
100.8084700209
 30
0.0
 10
180.9516533632
 20
100.201186906
 30
0.0
 10
181.1555168231
 20
99.6102315981
 30
0.0
 10
181.343593536
 20
99.2431884959
 30
0.0
 10
181.4433803516
 20
99.0792513564
 30
0.0
  0
LINE
  5
468
100
AcDbEntity
  8
0
100
AcDbLine
 62
7
  6
CONTINUOUS
 10
231.0548249417
 20
105.9515917971
 11
230.9549791278
 21
105.4409534409
  0
LINE
  5
469
100
AcDbEntity
  8
0
100
AcDbLine
 62
7
  6
CONTINUOUS
 10
232.6523415552
 20
108.5047832206
 11
232.4479631647
 21
107.8239322379
  0
SPLINE
  5
46A
100
AcDbEntity
  8
0
100
AcDbSpline
 62
7
  6
CONTINUOUS
 70
0
 71
3
 72
9
 73
5
 74
0
 42
0.0000001
 43
0.0000001
 44
0.0000000001
 40
0.0
 40
0.0
 40
0.0
 40
0.0
 40
0.258330069
 40
1.0
 40
1.0
 40
1.0
 40
1.0
 10
232.6121005141
 20
107.8239322379
 30
0.0
 10
232.627261956
 20
107.8099389647
 30
0.0
 10
232.6853728227
 20
107.7551497584
 30
0.0
 10
232.7410948942
 20
107.6978013369
 30
0.0
 10
232.7806621469
 20
107.6537194922
 30
0.0
  0
LINE
  5
46B
100
AcDbEntity
  8
0
100
AcDbLine
 62
7
  6
CONTINUOUS
 10
232.6392154483
 20
106.6324427798
 11
232.4394732647
 21
105.9515917971
  0
LINE
  5
46C
100
AcDbEntity
  8
0
100
AcDbLine
 62
7
  6
CONTINUOUS
 10
232.3444313947
 20
104.2983162256
 11
232.3256966966
 21
104.2429026661
  0
LINE
  5
46D
100
AcDbEntity
  8
0
100
AcDbLine
 62
7
  6
CONTINUOUS
 10
232.3256966966
 20
104.2429026661
 11
232.2534934203
 21
104.0302228247
  0
LINE
  5
46E
100
AcDbEntity
  8
0
100
AcDbLine
 62
7
  6
CONTINUOUS
 10
232.2534934203
 20
104.0302228247
 11
232.2381719135
 21
103.9852717455
  0
LINE
  5
46F
100
AcDbEntity
  8
0
100
AcDbLine
 62
7
  6
CONTINUOUS
 10
179.0447600758
 20
104.0792513564
 11
178.8784858454
 21
104.6461952466
  0
LINE
  5
470
100
AcDbEntity
  8
0
100
AcDbLine
 62
7
  6
CONTINUOUS
 10
178.8784858454
 20
104.6461952466
 11
178.8368461485
 21
104.7882012263
  0
LINE
  5
471
100
AcDbEntity
  8
0
100
AcDbLine
 62
7
  6
CONTINUOUS
 10
178.8368461485
 20
104.7882012263
 11
178.7951779794
 21
104.9303152039
  0
LINE
  5
472
100
AcDbEntity
  8
0
100
AcDbLine
 62
7
  6
CONTINUOUS
 10
177.617838857
 20
108.6749959662
 11
177.5884427413
 21
108.8290883343
  0
LINE
  5
473
100
AcDbEntity
  8
0
100
AcDbLine
 62
7
  6
CONTINUOUS
 10
177.5884427413
 20
108.8290883343
 11
177.5853826648
 21
108.8452062134
  0
LINE
  5
474
100
AcDbEntity
  8
0
100
AcDbLine
 62
7
  6
CONTINUOUS
 10
177.4356618243
 20
109.5254897103
 11
177.3927272283
 21
109.6958449556
  0
LINE
  5
475
100
AcDbEntity
  8
0
100
AcDbLine
 62
7
  6
CONTINUOUS
 10
177.3927272283
 20
109.6958449556
 11
177.3497484905
 21
109.8664851859
  0
LINE
  5
476
100
AcDbEntity
  8
0
100
AcDbLine
 62
7
  6
CONTINUOUS
 10
177.3497484905
 20
109.8664851859
 11
177.2501892998
 21
110.2069111541
  0
LINE
  5
477
100
AcDbEntity
  8
0
100
AcDbLine
 62
7
  6
CONTINUOUS
 10
177.2501892998
 20
110.2069111541
 11
177.0807511102
 21
110.7169731536
  0
LINE
  5
478
100
AcDbEntity
  8
0
100
AcDbLine
 62
7
  6
CONTINUOUS
 10
177.0807511102
 20
110.7169731536
 11
177.0490497193
 21
110.8126610138
  0
LINE
  5
479
100
AcDbEntity
  8
0
100
AcDbLine
 62
7
  6
CONTINUOUS
 10
177.0490497193
 20
110.8126610138
 11
177.0279536638
 21
110.8763823042
  0
LINE
  5
47A
100
AcDbEntity
  8
0
100
AcDbLine
 62
7
  6
CONTINUOUS
 10
177.0279536638
 20
110.8763823042
 11
177.0241874129
 21
110.8877621367
  0
SPLINE
  5
47B
100
AcDbEntity
  8
0
100
AcDbSpline
 62
7
  6
CONTINUOUS
 70
0
 71
3
 72
9
 73
5
 74
0
 42
0.0000001
 43
0.0000001
 44
0.0000000001
 40
0.0
 40
0.0
 40
0.0
 40
0.0
 40
0.25777048
 40
1.0
 40
1.0
 40
1.0
 40
1.0
 10
176.5429722859
 20
111.9090386107
 30
0.0
 10
176.52923128
 20
111.9230466446
 30
0.0
 10
176.4765248489
 20
111.9779728296
 30
0.0
 10
176.4262932603
 20
112.0352960198
 30
0.0
 10
176.3907922679
 20
112.0792513564
 30
0.0
  0
LINE
  5
47C
100
AcDbEntity
  8
0
100
AcDbLine
 62
7
  6
CONTINUOUS
 10
234.8885367019
 20
110.8877621367
 11
234.8558175166
 21
110.7739276322
  0
LINE
  5
47D
100
AcDbEntity
  8
0
100
AcDbLine
 62
7
  6
CONTINUOUS
 10
234.8558175166
 20
110.7739276322
 11
234.6925050349
 21
110.2069111541
  0
SPLINE
  5
47E
100
AcDbEntity
  8
0
100
AcDbSpline
 62
7
  6
CONTINUOUS
 70
0
 71
3
 72
8
 73
4
 74
0
 42
0.0000001
 43
0.0000001
 44
0.0000000001
 40
0.0
 40
0.0
 40
0.0
 40
0.0
 40
1.0
 40
1.0
 40
1.0
 40
1.0
 10
179.3636333564
 20
105.7813790515
 30
0.0
 10
179.0529680113
 20
106.8024685353
 30
0.0
 10
178.742940841
 20
107.8237523561
 30
0.0
 10
178.433483891
 20
108.8452087119
 30
0.0
  0
LINE
  5
47F
100
AcDbEntity
  8
0
100
AcDbLine
 62
7
  6
CONTINUOUS
 10
179.0077453525
 20
108.8452087119
 11
178.7962054603
 21
109.5260596946
  0
LINE
  5
480
100
AcDbEntity
  8
0
100
AcDbLine
 62
7
  6
CONTINUOUS
 10
178.2273071566
 20
109.5260596946
 11
177.8154896388
 21
110.8877621367
  0
SPLINE
  5
481
100
AcDbEntity
  8
BEZUGSACHSEN
100
AcDbSpline
 62
7
  6
CONTINUOUS
 70
0
 71
3
 72
27
 73
23
 74
0
 42
0.0000001
 43
0.0000001
 44
0.0000000001
 40
0.0
 40
0.0
 40
0.0
 40
0.0
 40
0.1613852786
 40
0.2391659836
 40
0.3141504215
 40
0.385793088
 40
0.4536575563
 40
0.5174380371
 40
0.5769933135
 40
0.6323778634
 40
0.6838631739
 40
0.7320143012
 40
0.7777753145
 40
0.8226797638
 40
0.8456022976
 40
0.8695062236
 40
0.895337585
 40
0.924965681
 40
0.9423416204
 40
0.9619874714
 40
0.982243205
 40
1.0
 40
1.0
 40
1.0
 40
1.0
 10
205.482450197
 20
113.4937361034
 30
0.0
 10
207.2233462313
 20
113.3851070573
 30
0.0
 10
209.8004089143
 20
113.1608714029
 30
0.0
 10
213.165729354
 20
112.7060065876
 30
0.0
 10
215.5565699025
 20
112.2940167726
 30
0.0
 10
217.8232854448
 20
111.8040554912
 30
0.0
 10
219.9461453524
 20
111.2333394233
 30
0.0
 10
221.9079045534
 20
110.5790953499
 30
0.0
 10
223.693866376
 20
109.8380938583
 30
0.0
 10
225.2926468267
 20
109.0080382117
 30
0.0
 10
226.6941052698
 20
108.0831465026
 30
0.0
 10
227.8901945018
 20
107.0561702214
 30
0.0
 10
228.8727957123
 20
105.9137255179
 30
0.0
 10
229.4983082898
 20
104.8477201431
 30
0.0
 10
229.8650747262
 20
103.9248982725
 30
0.0
 10
230.0744284564
 20
103.166209908
 30
0.0
 10
230.2031003664
 20
102.3160367771
 30
0.0
 10
230.2155936343
 20
101.5257756334
 30
0.0
 10
230.1404850166
 20
100.8084700209
 30
0.0
 10
230.0132470309
 20
100.201186906
 30
0.0
 10
229.809383571
 20
99.6102315981
 30
0.0
 10
229.621306858
 20
99.2431884959
 30
0.0
 10
229.5215200425
 20
99.0792513564
 30
0.0
  0
LINE
  5
482
100
AcDbEntity
  8
0
100
AcDbLine
 62
7
  6
CONTINUOUS
 10
233.1776964111
 20
104.9303152039
 11
233.174322044
 21
104.9185487862
  0
LINE
  5
483
100
AcDbEntity
  8
0
100
AcDbLine
 62
7
  6
CONTINUOUS
 10
233.174322044
 20
104.9185487862
 11
233.1701000804
 21
104.9038268014
  0
LINE
  5
484
100
AcDbEntity
  8
0
100
AcDbLine
 62
7
  6
CONTINUOUS
 10
233.1701000804
 20
104.9038268014
 11
232.9336284973
 21
104.0792513564
  0
LINE
  5
485
100
AcDbEntity
  8
0
100
AcDbLine
 62
7
  6
CONTINUOUS
 10
232.4499869305
 20
103.0838686778
 11
232.4409289457
 21
103.0579747632
  0
LINE
  5
486
100
AcDbEntity
  8
0
100
AcDbLine
 62
7
  6
CONTINUOUS
 10
180.3756495205
 20
104.0792513564
 11
180.1631727691
 21
104.7601023987
  0
SPLINE
  5
487
100
AcDbEntity
  8
0
100
AcDbSpline
 62
7
  6
CONTINUOUS
 70
0
 71
3
 72
9
 73
5
 74
0
 42
0.0000001
 43
0.0000001
 44
0.0000000001
 40
0.0
 40
0.0
 40
0.0
 40
0.0
 40
0.2414073886
 40
1.0
 40
1.0
 40
1.0
 40
1.0
 10
234.2980232145
 20
112.0792513564
 30
0.0
 10
234.2705658546
 20
112.0648272757
 30
0.0
 10
234.1564118307
 20
112.0058692172
 30
0.0
 10
234.0406869115
 20
111.9499701421
 30
0.0
 10
233.9522362899
 20
111.9090386107
 30
0.0
  0
SPLINE
  5
488
100
AcDbEntity
  8
0
100
AcDbSpline
 62
7
  6
CONTINUOUS
 70
0
 71
3
 72
8
 73
4
 74
0
 42
0.0000001
 43
0.0000001
 44
0.0000000001
 40
0.0
 40
0.0
 40
0.0
 40
0.0
 40
1.0
 40
1.0
 40
1.0
 40
1.0
 10
178.8211484005
 20
105.7813790515
 30
0.0
 10
178.5110989473
 20
106.8024788024
 30
0.0
 10
178.2016533346
 20
107.8237620607
 30
0.0
 10
177.8927486509
 20
108.8452087119
 30
0.0
  0
SPLINE
  5
489
100
AcDbEntity
  8
0
100
AcDbSpline
 62
7
  6
CONTINUOUS
 70
0
 71
3
 72
9
 73
5
 74
0
 42
0.0000001
 43
0.0000001
 44
0.0000000001
 40
0.0
 40
0.0
 40
0.0
 40
0.0
 40
0.2551120499
 40
1.0
 40
1.0
 40
1.0
 40
1.0
 10
234.1587302509
 20
111.2281876281
 30
0.0
 10
234.1697902037
 20
111.2141250286
 30
0.0
 10
234.2126312339
 20
111.158601888
 30
0.0
 10
234.2533749654
 20
111.1014521609
 30
0.0
 10
234.2823329104
 20
111.0579748824
 30
0.0
  0
LINE
  5
48A
100
AcDbEntity
  8
0
100
AcDbLine
 62
7
  6
CONTINUOUS
 10
234.1861046297
 20
110.2069111541
 11
234.0863683908
 21
109.8664851859
  0
LINE
  5
48B
100
AcDbEntity
  8
0
100
AcDbLine
 62
7
  6
CONTINUOUS
 10
231.6082030589
 20
105.9515917971
 11
231.5077035049
 21
105.4409534409
  0
LINE
  5
48C
100
AcDbEntity
  8
0
100
AcDbLine
 62
7
  6
CONTINUOUS
 10
233.1677425262
 20
106.6324427798
 11
232.9681487651
 21
105.9515917971
  0
SPLINE
  5
48D
100
AcDbEntity
  8
0
100
AcDbSpline
 62
7
  6
CONTINUOUS
 70
0
 71
3
 72
9
 73
5
 74
0
 42
0.0000001
 43
0.0000001
 44
0.0000000001
 40
0.0
 40
0.0
 40
0.0
 40
0.0
 40
0.2581878574
 40
1.0
 40
1.0
 40
1.0
 40
1.0
 10
233.1466824933
 20
107.8239322379
 30
0.0
 10
233.1615252917
 20
107.8099351604
 30
0.0
 10
233.2184312649
 20
107.755111335
 30
0.0
 10
233.2729359473
 20
107.6977702652
 30
0.0
 10
233.3116073248
 20
107.6537194922
 30
0.0
  0
LINE
  5
48E
100
AcDbEntity
  8
0
100
AcDbLine
 62
7
  6
CONTINUOUS
 10
233.1894212314
 20
108.5047832206
 11
232.9853452683
 21
107.8239322379
  0
LINE
  5
48F
100
AcDbEntity
  8
BEZUGSACHSEN
100
AcDbLine
 62
7
  6
CONTINUOUS
 10
41.1417812541
 20
42.5351991501
 11
41.540686589
 21
42.5351990826
  0
LINE
  5
490
100
AcDbEntity
  8
BEZUGSACHSEN
100
AcDbLine
 62
7
  6
CONTINUOUS
 10
132.4570435914
 20
42.5351990926
 11
132.8559477397
 21
42.5351991381
  0
ENDSEC
  0
SECTION
  2
OBJECTS
  0
DICTIONARY
  5
C
100
AcDbDictionary
280
0
281
1
  3
ACAD_GROUP
350
D
  3
ACAD_MLINESTYLE
350
17
  3
ACAD_LAYOUT
350
1A
  3
ACAD_PLOTSETTINGS
350
19
  3
ACAD_PLOTSTYLENAME
350
E
  0
DICTIONARY
  5
D
102
{ACAD_REACTORS
330
C
102
}
100
AcDbDictionary
280
0
281
1
  0
ACDBDICTIONARYWDFLT
  5
E
102
{ACAD_REACTORS
330
C
102
}
100
AcDbDictionary
281
1
  3
Normal
350
F
100
AcDbDictionaryWithDefault
340
F
  0
DICTIONARY
  5
17
102
{ACAD_REACTORS
330
C
102
}
100
AcDbDictionary
280
0
281
1
  3
Standard
350
18
  0
DICTIONARY
  5
19
102
{ACAD_REACTORS
330
C
102
}
100
AcDbDictionary
281
1
  0
DICTIONARY
  5
1A
102
{ACAD_REACTORS
330
C
102
}
100
AcDbDictionary
281
1
  3
Model
350
491
  3
Layout1
350
492
  0
ACDBPLACEHOLDER
  5
F
102
{ACAD_REACTORS
330
E
102
}
  0
MLINESTYLE
  5
18
102
{ACAD_REACTORS
330
17
102
}
100
AcDbMlineStyle
  2
STANDARD
 70
0
  3

 62
256
 51
90.0
 52
90.0
 71
2
 49
0.5
 62
256
  6
BYLAYER
 49
-0.5
 62
256
  6
BYLAYER
  0
LAYOUT
  5
491
102
{ACAD_REACTORS
330
1A
102
}
100
AcDbPlotSettings
  1

  2
none_device
  4
ISO_A4_(297.00_x_210.00_MM)
  6

 40
0.0
 41
0.0
 42
0.0
 43
0.0
 44
297.0
 45
210.0
 46
0.0
 47
0.0
 48
0.0
 49
0.0
140
0.0
141
0.0
142
1.0
143
1.0
 70
1024
 72
1
 73
0
 74
0
  7

 75
0
147
1.0
148
0.0
149
0.0
100
AcDbLayout
  1
Model
 70
0
 71
0
 10
0.0
 20
0.0
 11
297.0
 21
210.0
 12
0.0
 22
0.0
 32
0.0
 14
0.0
 24
0.0
 34
0.0
 15
0.0
 25
0.0
 35
0.0
146
0.0
 13
0.0
 23
0.0
 33
0.0
 16
1.0
 26
0.0
 36
0.0
 17
0.0
 27
1.0
 37
0.0
 76
0
330
20D
345
0
346
0
  0
LAYOUT
  5
492
102
{ACAD_REACTORS
330
1A
102
}
100
AcDbPlotSettings
  1

  2
none_device
  4
ISO_A4_(297.00_x_210.00_MM)
  6

 40
0.0
 41
0.0
 42
0.0
 43
0.0
 44
297.0
 45
210.0
 46
0.0
 47
0.0
 48
0.0
 49
0.0
140
0.0
141
0.0
142
1.0
143
1.0
 70
0
 72
1
 73
0
 74
0
  7

 75
0
147
1.0
148
0.0
149
0.0
100
AcDbLayout
  1
Layout1
 70
0
 71
1
 10
0.0
 20
0.0
 11
297.0
 21
210.0
 12
0.0
 22
0.0
 32
0.0
 14
0.0
 24
0.0
 34
0.0
 15
0.0
 25
0.0
 35
0.0
146
0.0
 13
0.0
 23
0.0
 33
0.0
 16
1.0
 26
0.0
 36
0.0
 17
0.0
 27
1.0
 37
0.0
 76
0
330
20E
345
0
346
0
  0
ENDSEC
  0
EOF
