999
DXF file: VRM_M20_2_3t_7990315_M32424-P-1.dxf
999
Pro/ENGINEER 2011490 by Parametric Technology Corporation
  0
SECTION
  2
HEADER
  9
$ACADVER
  1
AC1015
  9
$DWGCODEPAGE
  3
ANSI_1252
  9
$EXTMAX
 10
297.0
 20
210.0
 30
0.0
  9
$EXTMIN
 10
0.0
 20
0.0
 30
0.0
  9
$LIMMIN
 10
0.0
 20
0.0
  9
$LIMMAX
 10
297.0
 20
210.0
  9
$VIEWCTR
 10
148.5
 20
105.0
  9
$VIEWSIZE
 40
210.0
  9
$CLAYER
  8
0
  9
$LTSCALE
 40
16.335
  9
$CELTYPE
  6
BYLAYER
  9
$DIMSCALE
 40
1.0
  9
$DIMASZ
 40
3.5
  9
$DIMEXO
 40
1.85625
  9
$DIMDLI
 40
11.286
  9
$DIMEXE
 40
5.346
  9
$DIMCEN
 40
2.673
  9
$DIMLFAC
 40
1.0
  9
$DIMBLK
  1
_FILLED
  9
$DIMTXT
 40
3.5
  9
$DIMTOL
 70
1
  9
$DIMLIM
 70
0
  9
$DIMTFAC
 40
1.0
  9
$DIMTP
 40
0.005
  9
$DIMTM
 40
0.005
  9
$PDMODE
 70
3
  9
$PDSIZE
 40
0.3125
  9
$HANDSEED
  5
4AA
  9
$TILEMODE
 70
1
  9
$MEASUREMENT
 70
1
  9
$INSUNITS
 70
4
  0
ENDSEC
  0
SECTION
  2
CLASSES
  0
CLASS
  1
ACDBDICTIONARYWDFLT
  2
AcDbDictionaryWithDefault
  3
AutoCAD 2000
 90
0
280
0
281
0
  0
CLASS
  1
ACDBPLACEHOLDER
  2
AcDbPlaceHolder
  3
AutoCAD 2000
 90
0
280
0
281
0
  0
CLASS
  1
LAYOUT
  2
AcDbLayout
  3
AutoCAD 2000
 90
0
280
0
281
0
  0
ENDSEC
  0
SECTION
  2
TABLES
  0
TABLE
  2
VPORT
  5
8
100
AcDbSymbolTable
 70
2
  0
VPORT
  5
1F4
100
AcDbSymbolTableRecord
100
AcDbViewportTableRecord
  2
*ACTIVE
 70
0
 10
0.0
 20
0.0
 11
1.0
 21
1.0
 12
148.5
 22
105.0
 13
0.0
 23
0.0
 14
1.0
 24
1.0
 15
0.0
 25
0.0
 16
0.0
 26
0.0
 36
1.0
 17
0.0
 27
0.0
 37
0.0
 40
210.0
 41
1.4142857143
 42
50.0
 43
0.0
 44
0.0
 50
0.0
 51
0.0
 71
0
 72
100
 73
1
 74
1
 75
0
 76
0
 77
0
 78
0
  0
ENDTAB
  0
TABLE
  2
LTYPE
  5
5
100
AcDbSymbolTable
 70
6
  0
LTYPE
  5
14
100
AcDbSymbolTableRecord
100
AcDbLinetypeTableRecord
  2
BYBLOCK
 70
0
  3

 72
65
 73
0
 40
0.0
  0
LTYPE
  5
15
100
AcDbSymbolTableRecord
100
AcDbLinetypeTableRecord
  2
BYLAYER
 70
0
  3

 72
65
 73
0
 40
0.0
  0
LTYPE
  5
16
100
AcDbSymbolTableRecord
100
AcDbLinetypeTableRecord
  2
CONTINUOUS
 70
64
  3
Solid line
 72
65
 73
0
 40
0.0
  0
LTYPE
  5
1F5
100
AcDbSymbolTableRecord
100
AcDbLinetypeTableRecord
  2
CENTER
 70
64
  3
____ _ ____ _ ____ _ ____ _ ____ _ ____ _ ____
 72
65
 73
4
 40
0.6
 49
0.375
 74
0
 49
-0.075
 74
0
 49
0.075
 74
0
 49
-0.075
 74
0
  0
LTYPE
  5
1F6
100
AcDbSymbolTableRecord
100
AcDbLinetypeTableRecord
  2
HIDDEN
 70
64
  3
- - - - - - - - - - - - - - - - - - - -
 72
65
 73
2
 40
0.2
 49
0.1
 74
0
 49
-0.1
 74
0
  0
LTYPE
  5
1F7
100
AcDbSymbolTableRecord
100
AcDbLinetypeTableRecord
  2
PHANTOM
 70
64
  3
_____ _ _ _____ _ _ _____ _ _ _____
 72
65
 73
6
 40
0.8
 49
0.45
 74
0
 49
-0.05
 74
0
 49
0.1
 74
0
 49
-0.05
 74
0
 49
0.1
 74
0
 49
-0.05
 74
0
  0
LTYPE
  5
1F8
100
AcDbSymbolTableRecord
100
AcDbLinetypeTableRecord
  2
DOT
 70
64
  3
. . . . . . . . . . . . . . . . . . . .
 72
65
 73
2
 40
0.2
 49
0.1
 74
0
 49
-0.1
 74
0
  0
LTYPE
  5
1F9
100
AcDbSymbolTableRecord
100
AcDbLinetypeTableRecord
  2
DASHED
 70
64
  3
- - - - - - - - - - - - - - - - - - - -
 72
65
 73
2
 40
0.2
 49
0.1
 74
0
 49
-0.1
 74
0
  0
ENDTAB
  0
TABLE
  2
LAYER
  5
2
100
AcDbSymbolTable
 70
36
  0
LAYER
  5
10
100
AcDbSymbolTableRecord
100
AcDbLayerTableRecord
  2
0
 70
0
 62
7
  6
CONTINUOUS
370
-3
390
F
  0
LAYER
  5
1FA
100
AcDbSymbolTableRecord
100
AcDbLayerTableRecord
  2
DEFAULT_1
 70
0
 62
7
  6
CENTER
370
-3
390
F
  0
LAYER
  5
1FB
100
AcDbSymbolTableRecord
100
AcDbLayerTableRecord
  2
DEFAULT_2
 70
0
 62
8
  6
HIDDEN
370
-3
390
F
  0
LAYER
  5
1FC
100
AcDbSymbolTableRecord
100
AcDbLayerTableRecord
  2
DEFAULT_3
 70
0
 62
7
  6
PHANTOM
370
-3
390
F
  0
LAYER
  5
1FD
100
AcDbSymbolTableRecord
100
AcDbLayerTableRecord
  2
BEZUGSACHSEN
 70
0
 62
7
  6
CONTINUOUS
370
-3
390
F
  0
LAYER
  5
1FE
100
AcDbSymbolTableRecord
100
AcDbLayerTableRecord
  2
BG_STARTBEZUEGE
 70
0
 62
7
  6
CONTINUOUS
370
-3
390
F
  0
LAYER
  5
1FF
100
AcDbSymbolTableRecord
100
AcDbLayerTableRecord
  2
BOHRUNGEN
 70
0
 62
7
  6
CONTINUOUS
370
-3
390
F
  0
LAYER
  5
200
100
AcDbSymbolTableRecord
100
AcDbLayerTableRecord
  2
FASEN
 70
0
 62
7
  6
CONTINUOUS
370
-3
390
F
  0
LAYER
  5
201
100
AcDbSymbolTableRecord
100
AcDbLayerTableRecord
  2
FLAECHEN
 70
0
 62
7
  6
CONTINUOUS
370
-3
390
F
  0
LAYER
  5
202
100
AcDbSymbolTableRecord
100
AcDbLayerTableRecord
  2
GEWINDE
 70
0
 62
7
  6
CONTINUOUS
370
-3
390
F
  0
LAYER
  5
203
100
AcDbSymbolTableRecord
100
AcDbLayerTableRecord
  2
HILFEN
 70
0
 62
7
  6
CONTINUOUS
370
-3
390
F
  0
LAYER
  5
204
100
AcDbSymbolTableRecord
100
AcDbLayerTableRecord
  2
KONSTRUKTIONSELEMENTE
 70
0
 62
7
  6
CONTINUOUS
370
-3
390
F
  0
LAYER
  5
205
100
AcDbSymbolTableRecord
100
AcDbLayerTableRecord
  2
KURVEN
 70
0
 62
7
  6
CONTINUOUS
370
-3
390
F
  0
LAYER
  5
206
100
AcDbSymbolTableRecord
100
AcDbLayerTableRecord
  2
NORM
 70
0
 62
7
  6
CONTINUOUS
370
-3
390
F
  0
LAYER
  5
207
100
AcDbSymbolTableRecord
100
AcDbLayerTableRecord
  2
PLATZIERUNG
 70
0
 62
7
  6
CONTINUOUS
370
-3
390
F
  0
LAYER
  5
208
100
AcDbSymbolTableRecord
100
AcDbLayerTableRecord
  2
RUNDUNGEN
 70
0
 62
7
  6
CONTINUOUS
370
-3
390
F
  0
LAYER
  5
209
100
AcDbSymbolTableRecord
100
AcDbLayerTableRecord
  2
TEIL_STARTBEZUEGE
 70
0
 62
7
  6
CONTINUOUS
370
-3
390
F
  0
LAYER
  5
20A
100
AcDbSymbolTableRecord
100
AcDbLayerTableRecord
  2
T_STARTBEZUEGE
 70
0
 62
7
  6
CONTINUOUS
370
-3
390
F
  0
ENDTAB
  0
TABLE
  2
STYLE
  5
3
100
AcDbSymbolTable
 70
1
  0
STYLE
  5
11
100
AcDbSymbolTableRecord
100
AcDbTextStyleTableRecord
  2
STANDARD
 70
0
 40
0.0
 41
0.7
 50
0.0
 71
0
 42
0.2
  3
txt
  4

  0
STYLE
  5
20B
100
AcDbSymbolTableRecord
100
AcDbTextStyleTableRecord
  2
TEXTSTYLE_1
 70
0
 40
0.0
 41
0.8
 50
0.0
 71
0
 42
0.2
  3
gdt
  4

  0
ENDTAB
  0
TABLE
  2
VIEW
  5
6
100
AcDbSymbolTable
 70
0
  0
ENDTAB
  0
TABLE
  2
UCS
  5
7
100
AcDbSymbolTable
 70
0
  0
ENDTAB
  0
TABLE
  2
APPID
  5
9
100
AcDbSymbolTable
 70
1
  0
APPID
  5
20C
100
AcDbSymbolTableRecord
100
AcDbRegAppTableRecord
  2
ACAD
 70
0
  0
ENDTAB
  0
TABLE
  2
BLOCK_RECORD
  5
1
100
AcDbSymbolTable
 70
0
  0
BLOCK_RECORD
  5
20D
100
AcDbSymbolTableRecord
100
AcDbBlockTableRecord
  2
*Model_Space
  0
BLOCK_RECORD
  5
20E
100
AcDbSymbolTableRecord
100
AcDbBlockTableRecord
  2
*Paper_Space
  0
ENDTAB
  0
TABLE
  2
DIMSTYLE
  5
A
100
AcDbSymbolTable
 70
1
100
AcDbDimStyleTable
 71
0
  0
DIMSTYLE
105
20F
100
AcDbSymbolTableRecord
100
AcDbDimStyleTableRecord
  2
STANDARD
 70
0
  3

  4

 40
1.0
 41
3.5
 42
0.0625
 43
0.38
 44
0.18
 45
0.0
 46
0.0
 47
0.005
 48
0.005
140
3.5
141
0.09
142
0.0
143
25.4
144
1.0
145
0.0
146
1.0
147
0.09
 71
1.0
 72
0.0
 73
0
 74
0
 75
0
 76
0
 77
1
 78
8
170
0
171
2
172
0
173
0
174
0
175
0
176
0
177
0
178
5
270
2
271
3
272
3
273
2
274
2
275
0
280
0
281
0
282
0
283
1
284
8
285
0
286
0
287
3
288
0
340
11
  0
ENDTAB
  0
ENDSEC
  0
SECTION
  2
BLOCKS
  0
BLOCK
  5
20
100
AcDbEntity
  8
0
100
AcDbBlockBegin
  2
*Model_Space
 70
0
 10
0.0
 20
0.0
 30
0.0
  3
*Model_Space
  1

  0
ENDBLK
  5
21
100
AcDbEntity
  8
0
100
AcDbBlockEnd
  0
BLOCK
  5
1C
100
AcDbEntity
  8
0
100
AcDbBlockBegin
  2
*Paper_Space
 70
0
 10
0.0
 20
0.0
 30
0.0
  3
*Paper_Space
  1

  0
ENDBLK
  5
1D
100
AcDbEntity
  8
0
100
AcDbBlockEnd
  0
ENDSEC
  0
SECTION
  2
ENTITIES
  0
MTEXT
  5
210
100
AcDbEntity
  8
0
100
AcDbMText
 62
5
  6
CONTINUOUS
  7
STANDARD
 71
1
 72
1
 10
202.5440832909
 20
135.3459619989
 30
0.0
 11
0.0
 21
1.0
 31
0.0
 44
0.9
  1
VRM 2,3t RUD
 40
4.5
 41
42.1071428571
  0
MTEXT
  5
211
100
AcDbEntity
  8
0
100
AcDbMText
 62
5
  6
CONTINUOUS
  7
STANDARD
 71
1
 72
1
 10
79.8424048285
 20
58.5371418811
 30
0.0
 11
1.0
 21
0.0
 31
0.0
 44
0.9
  1
VRM 2,3t RUD
 40
4.5
 41
42.1071428571
  0
LINE
  5
212
100
AcDbEntity
  8
0
100
AcDbLine
 62
7
  6
CONTINUOUS
 10
0.0
 20
0.0
 11
0.0
 21
210.0
  0
LINE
  5
213
100
AcDbEntity
  8
0
100
AcDbLine
 62
7
  6
CONTINUOUS
 10
0.0
 20
0.0
 11
297.0
 21
0.0
  0
LINE
  5
214
100
AcDbEntity
  8
0
100
AcDbLine
 62
7
  6
CONTINUOUS
 10
0.0
 20
210.0
 11
297.0
 21
210.0
  0
LINE
  5
215
100
AcDbEntity
  8
0
100
AcDbLine
 62
7
  6
CONTINUOUS
 10
297.0
 20
0.0
 11
297.0
 21
210.0
  0
LINE
  5
216
100
AcDbEntity
  8
0
100
AcDbLine
 62
7
  6
CONTINUOUS
 10
114.6693204591
 20
106.8289946396
 11
85.3693204591
 21
106.8289946396
  0
LINE
  5
217
100
AcDbEntity
  8
BEZUGSACHSEN
100
AcDbLine
 62
7
  6
CONTINUOUS
 10
120.5193204591
 20
107.2039946396
 11
79.5193204591
 21
107.2039946396
  0
LINE
  5
218
100
AcDbEntity
  8
0
100
AcDbLine
 62
7
  6
CONTINUOUS
 10
102.8630710552
 20
113.2039946396
 11
103.4464038322
 21
113.3529308051
  0
LINE
  5
219
100
AcDbEntity
  8
0
100
AcDbLine
 62
7
  6
CONTINUOUS
 10
96.8839042494
 20
112.3103776205
 11
97.6130710552
 21
112.3103776205
  0
LINE
  5
21A
100
AcDbEntity
  8
0
100
AcDbLine
 62
7
  6
CONTINUOUS
 10
90.4672374437
 20
113.2039946396
 11
95.7172374437
 21
113.2039946396
  0
LINE
  5
21B
100
AcDbEntity
  8
0
100
AcDbLine
 62
7
  6
CONTINUOUS
 10
101.6964038322
 20
113.2039946396
 11
102.8630710552
 21
113.2039946396
  0
LINE
  5
21C
100
AcDbEntity
  8
0
100
AcDbLine
 62
7
  6
CONTINUOUS
 10
102.7172374437
 20
113.9486755062
 11
101.8422374437
 21
113.9486755062
  0
LINE
  5
21D
100
AcDbEntity
  8
0
100
AcDbLine
 62
7
  6
CONTINUOUS
 10
98.4880710552
 20
113.9486755062
 11
97.7589038322
 21
113.9486755062
  0
LINE
  5
21E
100
AcDbEntity
  8
0
100
AcDbLine
 62
7
  6
CONTINUOUS
 10
95.7172374437
 20
113.9486755062
 11
91.6339041451
 21
113.9486755062
  0
LINE
  5
21F
100
AcDbEntity
  8
0
100
AcDbLine
 62
7
  6
CONTINUOUS
 10
103.4464038322
 20
114.0976116587
 11
102.7172374437
 21
113.9486755062
  0
LINE
  5
220
100
AcDbEntity
  8
0
100
AcDbLine
 62
7
  6
CONTINUOUS
 10
100.3839038322
 20
114.8422925253
 11
99.6547374437
 21
114.8422925253
  0
LINE
  5
221
100
AcDbEntity
  8
0
100
AcDbLine
 62
7
  6
CONTINUOUS
 10
101.9880710552
 20
116.4805904109
 11
102.5714038322
 21
116.4805904109
  0
LINE
  5
222
100
AcDbEntity
  8
0
100
AcDbLine
 62
7
  6
CONTINUOUS
 10
102.5714038322
 20
117.0763350207
 11
101.9880710552
 21
117.0763350207
  0
LINE
  5
223
100
AcDbEntity
  8
0
100
AcDbLine
 62
7
  6
CONTINUOUS
 10
106.0714046667
 20
117.3742073257
 11
107.2380702207
 21
117.3742073257
  0
LINE
  5
224
100
AcDbEntity
  8
0
100
AcDbLine
 62
7
  6
CONTINUOUS
 10
107.9672374437
 20
117.3742073257
 11
109.5714046667
 21
117.3742073257
  0
LINE
  5
225
100
AcDbEntity
  8
0
100
AcDbLine
 62
7
  6
CONTINUOUS
 10
109.5714046667
 20
117.9699519355
 11
107.9672374437
 21
117.9699519355
  0
LINE
  5
226
100
AcDbEntity
  8
0
100
AcDbLine
 62
7
  6
CONTINUOUS
 10
107.2380702207
 20
117.9699519355
 11
106.0714046667
 21
117.9699519355
  0
LINE
  5
227
100
AcDbEntity
  8
0
100
AcDbLine
 62
7
  6
CONTINUOUS
 10
90.6130707814
 20
118.5656969626
 11
91.3422374437
 21
118.5656969626
  0
LINE
  5
228
100
AcDbEntity
  8
0
100
AcDbLine
 62
7
  6
CONTINUOUS
 10
99.8005710552
 20
118.5656969626
 11
100.5297374437
 21
118.5656969626
  0
LINE
  5
229
100
AcDbEntity
  8
0
100
AcDbLine
 62
7
  6
CONTINUOUS
 10
107.9672374437
 20
119.1614415724
 11
107.2380702207
 21
119.1614415724
  0
LINE
  5
22A
100
AcDbEntity
  8
0
100
AcDbLine
 62
7
  6
CONTINUOUS
 10
92.8005708466
 20
119.4593138773
 11
93.3839040408
 21
119.4593138773
  0
LINE
  5
22B
100
AcDbEntity
  8
0
100
AcDbLine
 62
7
  6
CONTINUOUS
 10
101.9880710552
 20
119.4593138773
 11
102.5714038322
 21
119.4593138773
  0
LINE
  5
22C
100
AcDbEntity
  8
0
100
AcDbLine
 62
7
  6
CONTINUOUS
 10
108.4047374437
 20
113.3529308051
 11
109.2797374437
 21
113.2039946396
  0
LINE
  5
22D
100
AcDbEntity
  8
0
100
AcDbLine
 62
7
  6
CONTINUOUS
 10
102.5714038322
 20
116.4805904109
 11
103.4464038322
 21
116.3316542585
  0
LINE
  5
22E
100
AcDbEntity
  8
0
100
AcDbLine
 62
7
  6
CONTINUOUS
 10
101.8422374437
 20
113.9486755062
 11
101.1130710552
 21
114.0976116587
  0
LINE
  5
22F
100
AcDbEntity
  8
0
100
AcDbLine
 62
7
  6
CONTINUOUS
 10
109.2797374437
 20
113.7997393016
 11
108.5505702207
 21
113.9486755062
  0
LINE
  5
230
100
AcDbEntity
  8
0
100
AcDbLine
 62
7
  6
CONTINUOUS
 10
93.3839040408
 20
119.4593138773
 11
94.113070638
 21
119.3103777248
  0
LINE
  5
231
100
AcDbEntity
  8
0
100
AcDbLine
 62
7
  6
CONTINUOUS
 10
101.1130710552
 20
113.3529308051
 11
101.6964038322
 21
113.2039946396
  0
LINE
  5
232
100
AcDbEntity
  8
0
100
AcDbLine
 62
7
  6
CONTINUOUS
 10
107.9672374437
 20
113.5018669706
 11
108.4047374437
 21
113.3529308051
  0
LINE
  5
233
100
AcDbEntity
  8
0
100
AcDbLine
 62
7
  6
CONTINUOUS
 10
100.5297374437
 20
113.6508031491
 11
101.1130710552
 21
113.3529308051
  0
LINE
  5
234
100
AcDbEntity
  8
0
100
AcDbLine
 62
7
  6
CONTINUOUS
 10
101.1130710552
 20
114.0976116587
 11
100.8214038322
 21
114.2465478111
  0
LINE
  5
235
100
AcDbEntity
  8
BEZUGSACHSEN
100
AcDbLine
 62
7
  6
CONTINUOUS
 10
65.9472097831
 20
133.6326577024
 11
62.2715443433
 21
142.5064990581
  0
LINE
  5
236
100
AcDbEntity
  8
BEZUGSACHSEN
100
AcDbLine
 62
7
  6
CONTINUOUS
 10
66.0193204591
 20
123.2039946396
 11
66.0193204591
 21
131.2039946396
  0
LINE
  5
237
100
AcDbEntity
  8
0
100
AcDbLine
 62
7
  6
CONTINUOUS
 10
101.2589038322
 20
119.3103777248
 11
101.9880710552
 21
119.4593138773
  0
LINE
  5
238
100
AcDbEntity
  8
0
100
AcDbLine
 62
7
  6
CONTINUOUS
 10
92.0714041451
 20
119.3103777248
 11
92.8005708466
 21
119.4593138773
  0
LINE
  5
239
100
AcDbEntity
  8
0
100
AcDbLine
 62
7
  6
CONTINUOUS
 10
102.1339038322
 20
120.2039946396
 11
101.1130710552
 21
120.0550584871
  0
LINE
  5
23A
100
AcDbEntity
  8
0
100
AcDbLine
 62
7
  6
CONTINUOUS
 10
92.9464040408
 20
120.2039946396
 11
91.9255707423
 21
120.0550584871
  0
LINE
  5
23B
100
AcDbEntity
  8
0
100
AcDbLine
 62
7
  6
CONTINUOUS
 10
102.4255710552
 20
120.2039946396
 11
102.1339038322
 21
120.2039946396
  0
LINE
  5
23C
100
AcDbEntity
  8
0
100
AcDbLine
 62
7
  6
CONTINUOUS
 10
93.5297374437
 20
120.2039946396
 11
92.9464040408
 21
120.2039946396
  0
LINE
  5
23D
100
AcDbEntity
  8
0
100
AcDbLine
 62
7
  6
CONTINUOUS
 10
68.0193204591
 20
121.2039946396
 11
69.0856983979
 21
121.2039946396
  0
LINE
  5
23E
100
AcDbEntity
  8
0
100
AcDbLine
 62
7
  6
CONTINUOUS
 10
130.9529425204
 20
121.2039946396
 11
132.0193204591
 21
121.2039946396
  0
LINE
  5
23F
100
AcDbEntity
  8
0
100
AcDbLine
 62
7
  6
CONTINUOUS
 10
103.4464038322
 20
120.0550584871
 11
102.4255710552
 21
120.2039946396
  0
LINE
  5
240
100
AcDbEntity
  8
0
100
AcDbLine
 62
7
  6
CONTINUOUS
 10
94.4047374437
 20
120.0550584871
 11
93.5297374437
 21
120.2039946396
  0
LINE
  5
241
100
AcDbEntity
  8
0
100
AcDbLine
 62
7
  6
CONTINUOUS
 10
102.5714038322
 20
119.4593138773
 11
103.3005710552
 21
119.3103777248
  0
LINE
  5
242
100
AcDbEntity
  8
0
100
AcDbLine
 62
7
  6
CONTINUOUS
 10
104.4672374437
 20
116.4805904109
 11
103.7380710552
 21
116.7784627158
  0
LINE
  5
243
100
AcDbEntity
  8
0
100
AcDbLine
 62
7
  6
CONTINUOUS
 10
94.988070638
 20
119.7571861822
 11
94.4047374437
 21
120.0550584871
  0
LINE
  5
244
100
AcDbEntity
  8
0
100
AcDbLine
 62
7
  6
CONTINUOUS
 10
100.0922374437
 20
113.9486755062
 11
100.5297374437
 21
113.6508031491
  0
LINE
  5
245
100
AcDbEntity
  8
0
100
AcDbLine
 62
7
  6
CONTINUOUS
 10
94.113070638
 20
119.3103777248
 11
94.550570638
 21
119.0125054199
  0
LINE
  5
246
100
AcDbEntity
  8
BEZUGSACHSEN
100
AcDbLine
 62
7
  6
CONTINUOUS
 10
62.2761972692
 20
144.8544802042
 11
62.8460270405
 21
146.2301709664
  0
LINE
  5
247
100
AcDbEntity
  8
RUNDUNGEN
100
AcDbLine
 62
7
  6
CONTINUOUS
 10
62.8460270405
 20
146.2301709664
 11
72.4085597278
 21
169.3161670705
  0
LINE
  5
248
100
AcDbEntity
  8
0
100
AcDbLine
 62
7
  6
CONTINUOUS
 10
88.0193204591
 20
129.3289946396
 11
112.0193204591
 21
129.3289946396
  0
LINE
  5
249
100
AcDbEntity
  8
0
100
AcDbLine
 62
7
  6
CONTINUOUS
 10
104.0297374437
 20
119.7571861822
 11
103.4464038322
 21
120.0550584871
  0
LINE
  5
24A
100
AcDbEntity
  8
0
100
AcDbLine
 62
7
  6
CONTINUOUS
 10
103.4464038322
 20
116.3316542585
 11
103.8839038322
 21
116.0337819535
  0
LINE
  5
24B
100
AcDbEntity
  8
0
100
AcDbLine
 62
7
  6
CONTINUOUS
 10
107.5297374437
 20
113.7997393016
 11
107.9672374437
 21
113.5018669706
  0
LINE
  5
24C
100
AcDbEntity
  8
0
100
AcDbLine
 62
7
  6
CONTINUOUS
 10
108.5505702207
 20
113.9486755062
 11
108.1130702207
 21
114.2465478111
  0
LINE
  5
24D
100
AcDbEntity
  8
0
100
AcDbLine
 62
7
  6
CONTINUOUS
 10
103.3005710552
 20
119.3103777248
 11
103.7380710552
 21
119.0125054199
  0
LINE
  5
24E
100
AcDbEntity
  8
0
100
AcDbLine
 62
7
  6
CONTINUOUS
 10
95.5714042494
 20
119.1614415724
 11
94.988070638
 21
119.7571861822
  0
LINE
  5
24F
100
AcDbEntity
  8
0
100
AcDbLine
 62
7
  6
CONTINUOUS
 10
100.8214038322
 20
114.2465478111
 11
100.5297374437
 21
114.5444202203
  0
LINE
  5
250
100
AcDbEntity
  8
0
100
AcDbLine
 62
7
  6
CONTINUOUS
 10
80.1724649437
 20
164.8753869555
 11
80.2878087297
 21
165.231447915
  0
LINE
  5
251
100
AcDbEntity
  8
0
100
AcDbLine
 62
7
  6
CONTINUOUS
 10
79.8126431366
 20
165.117358082
 11
79.6960457346
 21
164.8804020933
  0
LINE
  5
252
100
AcDbEntity
  8
0
100
AcDbLine
 62
7
  6
CONTINUOUS
 10
82.5583233536
 20
170.1498517836
 11
82.0279932678
 21
169.6195216977
  0
LINE
  5
253
100
AcDbEntity
  8
0
100
AcDbLine
 62
7
  6
CONTINUOUS
 10
80.2602263148
 20
167.8517547447
 11
79.7298965661
 21
167.321424996
  0
LINE
  5
254
100
AcDbEntity
  8
0
100
AcDbLine
 62
7
  6
CONTINUOUS
 10
78.4335340215
 20
166.0250624515
 11
77.0193204591
 21
164.6108488891
  0
LINE
  5
255
100
AcDbEntity
  8
0
100
AcDbLine
 62
7
  6
CONTINUOUS
 10
76.5479158822
 20
164.1394443121
 11
76.1943624916
 21
163.7858909215
  0
LINE
  5
256
100
AcDbEntity
  8
0
100
AcDbLine
 62
7
  6
CONTINUOUS
 10
74.544446725
 20
162.1359751549
 11
74.1908933344
 21
161.7824217643
  0
LINE
  5
257
100
AcDbEntity
  8
0
100
AcDbLine
 62
7
  6
CONTINUOUS
 10
77.6737703165
 20
164.6635058129
 11
78.7933561658
 21
165.7830916622
  0
LINE
  5
258
100
AcDbEntity
  8
RUNDUNGEN
100
AcDbLine
 62
7
  6
CONTINUOUS
 10
74.0321480282
 20
170.939755371
 11
98.871270162
 21
181.2284566363
  0
LINE
  5
259
100
AcDbEntity
  8
0
100
AcDbLine
 62
7
  6
CONTINUOUS
 10
104.6130702207
 20
119.1614415724
 11
104.0297374437
 21
119.7571861822
  0
LINE
  5
25A
100
AcDbEntity
  8
0
100
AcDbLine
 62
7
  6
CONTINUOUS
 10
94.550570638
 20
119.0125054199
 11
94.8422374437
 21
118.5656969626
  0
LINE
  5
25B
100
AcDbEntity
  8
0
100
AcDbLine
 62
7
  6
CONTINUOUS
 10
99.8005710552
 20
114.3954839636
 11
100.0922374437
 21
113.9486755062
  0
LINE
  5
25C
100
AcDbEntity
  8
0
100
AcDbLine
 62
7
  6
CONTINUOUS
 10
79.8101355677
 20
165.3555676865
 11
79.8126431366
 21
165.117358082
  0
LINE
  5
25D
100
AcDbEntity
  8
0
100
AcDbLine
 62
7
  6
CONTINUOUS
 10
79.6960457346
 20
164.8804020933
 11
78.5764598854
 21
163.760816244
  0
LINE
  5
25E
100
AcDbEntity
  8
0
100
AcDbLine
 62
7
  6
CONTINUOUS
 10
78.9375356455
 20
163.3997404839
 11
79.9392701398
 21
164.4014749782
  0
LINE
  5
25F
100
AcDbEntity
  8
0
100
AcDbLine
 62
7
  6
CONTINUOUS
 10
77.9621295288
 20
159.8968037093
 11
78.4335340215
 21
160.368208202
  0
LINE
  5
260
100
AcDbEntity
  8
0
100
AcDbLine
 62
7
  6
CONTINUOUS
 10
79.8477475839
 20
161.7824217643
 11
80.2013009745
 21
162.1359751549
  0
LINE
  5
261
100
AcDbEntity
  8
0
100
AcDbLine
 62
7
  6
CONTINUOUS
 10
81.6744402143
 20
163.6091143948
 11
82.0869189452
 21
164.0215931257
  0
LINE
  5
262
100
AcDbEntity
  8
0
100
AcDbLine
 62
7
  6
CONTINUOUS
 10
82.5583236908
 20
164.4929978713
 11
82.9118767442
 21
164.8465509247
  0
LINE
  5
263
100
AcDbEntity
  8
0
100
AcDbLine
 62
7
  6
CONTINUOUS
 10
83.7368348804
 20
165.6715090609
 11
84.208239626
 21
166.1429138064
  0
LINE
  5
264
100
AcDbEntity
  8
0
100
AcDbLine
 62
7
  6
CONTINUOUS
 10
85.0331970878
 20
166.9678712683
 11
85.3867504784
 21
167.3214246589
  0
LINE
  5
265
100
AcDbEntity
  8
0
100
AcDbLine
 62
7
  6
CONTINUOUS
 10
78.788341028
 20
166.2595108712
 11
78.4335340215
 21
166.0250624515
  0
LINE
  5
266
100
AcDbEntity
  8
0
100
AcDbLine
 62
7
  6
CONTINUOUS
 10
78.7933561658
 20
165.7830916622
 11
79.0303121544
 21
165.8996890641
  0
LINE
  5
267
100
AcDbEntity
  8
0
100
AcDbLine
 62
7
  6
CONTINUOUS
 10
96.9359857748
 20
173.0869733173
 11
96.6859857748
 21
173.0018669445
  0
LINE
  5
268
100
AcDbEntity
  8
0
100
AcDbLine
 62
7
  6
CONTINUOUS
 10
104.7589046667
 20
116.0337819535
 11
104.4672374437
 21
116.4805904109
  0
LINE
  5
269
100
AcDbEntity
  8
0
100
AcDbLine
 62
7
  6
CONTINUOUS
 10
103.7380710552
 20
119.0125054199
 11
104.0297374437
 21
118.5656969626
  0
LINE
  5
26A
100
AcDbEntity
  8
0
100
AcDbLine
 62
7
  6
CONTINUOUS
 10
78.4335340215
 20
160.368208202
 11
76.5479158822
 21
164.1394443121
  0
LINE
  5
26B
100
AcDbEntity
  8
0
100
AcDbLine
 62
7
  6
CONTINUOUS
 10
76.1943624916
 20
163.7858909215
 11
77.8367559308
 21
160.4935817157
  0
LINE
  5
26C
100
AcDbEntity
  8
0
100
AcDbLine
 62
7
  6
CONTINUOUS
 10
100.5297374437
 20
114.5444202203
 11
100.3839038322
 21
114.8422925253
  0
LINE
  5
26D
100
AcDbEntity
  8
0
100
AcDbLine
 62
7
  6
CONTINUOUS
 10
80.2878087297
 20
165.231447915
 11
80.2238682516
 21
165.6489417837
  0
LINE
  5
26E
100
AcDbEntity
  8
0
100
AcDbLine
 62
7
  6
CONTINUOUS
 10
85.3693204591
 20
107.2039946396
 11
85.3693204591
 21
106.8289946396
  0
LINE
  5
26F
100
AcDbEntity
  8
0
100
AcDbLine
 62
7
  6
CONTINUOUS
 10
88.0193204591
 20
128.0782301155
 11
88.0193204591
 21
129.3289946396
  0
LINE
  5
270
100
AcDbEntity
  8
0
100
AcDbLine
 62
7
  6
CONTINUOUS
 10
97.3526525209
 20
172.8316541988
 11
97.6026525209
 21
173.1720796902
  0
LINE
  5
271
100
AcDbEntity
  8
0
100
AcDbLine
 62
7
  6
CONTINUOUS
 10
97.1026525209
 20
173.257186063
 11
96.9359857748
 21
173.0869733173
  0
LINE
  5
272
100
AcDbEntity
  8
0
100
AcDbLine
 62
7
  6
CONTINUOUS
 10
100.6859860132
 20
171.4699521143
 11
100.4359860132
 21
171.299739309
  0
LINE
  5
273
100
AcDbEntity
  8
0
100
AcDbLine
 62
7
  6
CONTINUOUS
 10
97.019319267
 20
172.6614414532
 11
97.3526525209
 21
172.8316541988
  0
LINE
  5
274
100
AcDbEntity
  8
0
100
AcDbLine
 62
7
  6
CONTINUOUS
 10
100.5193190286
 20
170.7891010199
 11
100.8526525209
 21
170.9593137879
  0
LINE
  5
275
100
AcDbEntity
  8
0
100
AcDbLine
 62
7
  6
CONTINUOUS
 10
104.5193195055
 20
170.7891010199
 11
104.8526525209
 21
170.9593137879
  0
LINE
  5
276
100
AcDbEntity
  8
0
100
AcDbLine
 62
7
  6
CONTINUOUS
 10
77.0193204591
 20
164.6108488891
 11
79.8477475839
 21
161.7824217643
  0
LINE
  5
277
100
AcDbEntity
  8
0
100
AcDbLine
 62
7
  6
CONTINUOUS
 10
80.2013009745
 20
162.1359751549
 11
78.9375356455
 21
163.3997404839
  0
LINE
  5
278
100
AcDbEntity
  8
0
100
AcDbLine
 62
7
  6
CONTINUOUS
 10
78.5764598854
 20
163.760816244
 11
77.6737703165
 21
164.6635058129
  0
LINE
  5
279
100
AcDbEntity
  8
0
100
AcDbLine
 62
7
  6
CONTINUOUS
 10
79.6885233651
 20
165.595031244
 11
79.8101355677
 21
165.3555676865
  0
LINE
  5
27A
100
AcDbEntity
  8
0
100
AcDbLine
 62
7
  6
CONTINUOUS
 10
80.2238682516
 20
165.6489417837
 11
80.1022560491
 21
165.8884053413
  0
LINE
  5
27B
100
AcDbEntity
  8
0
100
AcDbLine
 62
7
  6
CONTINUOUS
 10
103.8839038322
 20
116.0337819535
 11
104.1755710552
 21
115.4380371351
  0
LINE
  5
27C
100
AcDbEntity
  8
0
100
AcDbLine
 62
7
  6
CONTINUOUS
 10
107.2380702207
 20
114.3954839636
 11
107.5297374437
 21
113.7997393016
  0
LINE
  5
27D
100
AcDbEntity
  8
0
100
AcDbLine
 62
7
  6
CONTINUOUS
 10
82.0279932678
 20
169.6195216977
 11
83.6716404071
 21
166.2081076054
  0
LINE
  5
27E
100
AcDbEntity
  8
0
100
AcDbLine
 62
7
  6
CONTINUOUS
 10
84.208239626
 20
166.1429138064
 11
82.8065628966
 21
169.1945054595
  0
LINE
  5
27F
100
AcDbEntity
  8
0
100
AcDbLine
 62
7
  6
CONTINUOUS
 10
99.6547374437
 20
114.8422925253
 11
99.8005710552
 21
114.3954839636
  0
LINE
  5
280
100
AcDbEntity
  8
0
100
AcDbLine
 62
7
  6
CONTINUOUS
 10
95.7172374437
 20
118.5656969626
 11
95.5714042494
 21
119.1614415724
  0
LINE
  5
281
100
AcDbEntity
  8
0
100
AcDbLine
 62
7
  6
CONTINUOUS
 10
90.4672374437
 20
113.9486755062
 11
90.4672374437
 21
113.2039946396
  0
LINE
  5
282
100
AcDbEntity
  8
0
100
AcDbLine
 62
7
  6
CONTINUOUS
 10
94.6026525209
 20
174.7039946396
 11
94.6026525209
 21
170.7039946396
  0
LINE
  5
283
100
AcDbEntity
  8
0
100
AcDbLine
 62
7
  6
CONTINUOUS
 10
94.8422374437
 20
118.5656969626
 11
94.8422374437
 21
118.2678242404
  0
LINE
  5
284
100
AcDbEntity
  8
0
100
AcDbLine
 62
7
  6
CONTINUOUS
 10
95.1026525209
 20
170.7039946396
 11
95.1026525209
 21
172.4912287075
  0
LINE
  5
285
100
AcDbEntity
  8
0
100
AcDbLine
 62
7
  6
CONTINUOUS
 10
95.1026525209
 20
173.0018669445
 11
95.1026525209
 21
174.2784627754
  0
LINE
  5
286
100
AcDbEntity
  8
0
100
AcDbLine
 62
7
  6
CONTINUOUS
 10
97.1859857748
 20
173.5125051815
 11
97.1026525209
 21
173.257186063
  0
LINE
  5
287
100
AcDbEntity
  8
0
100
AcDbLine
 62
7
  6
CONTINUOUS
 10
97.6026525209
 20
173.1720796902
 11
97.6859857748
 21
173.4273988087
  0
LINE
  5
288
100
AcDbEntity
  8
0
100
AcDbLine
 62
7
  6
CONTINUOUS
 10
101.1859860132
 20
171.299739309
 11
101.3526525209
 21
171.64016486
  0
LINE
  5
289
100
AcDbEntity
  8
0
100
AcDbLine
 62
7
  6
CONTINUOUS
 10
100.8526525209
 20
171.7252712328
 11
100.6859860132
 21
171.4699521143
  0
LINE
  5
28A
100
AcDbEntity
  8
0
100
AcDbLine
 62
7
  6
CONTINUOUS
 10
100.8526525209
 20
170.9593137879
 11
101.1859860132
 21
171.299739309
  0
LINE
  5
28B
100
AcDbEntity
  8
0
100
AcDbLine
 62
7
  6
CONTINUOUS
 10
104.8526525209
 20
170.9593137879
 11
105.1859855363
 21
171.299739309
  0
LINE
  5
28C
100
AcDbEntity
  8
0
100
AcDbLine
 62
7
  6
CONTINUOUS
 10
104.6859855363
 20
171.4699521143
 11
104.4359855363
 21
171.299739309
  0
LINE
  5
28D
100
AcDbEntity
  8
0
100
AcDbLine
 62
7
  6
CONTINUOUS
 10
77.8367559308
 20
160.4935817157
 11
74.544446725
 21
162.1359751549
  0
LINE
  5
28E
100
AcDbEntity
  8
0
100
AcDbLine
 62
7
  6
CONTINUOUS
 10
74.1908933344
 20
161.7824217643
 11
77.9621295288
 21
159.8968037093
  0
LINE
  5
28F
100
AcDbEntity
  8
0
100
AcDbLine
 62
7
  6
CONTINUOUS
 10
79.5079853165
 20
165.7755692927
 11
79.6885233651
 21
165.595031244
  0
LINE
  5
290
100
AcDbEntity
  8
0
100
AcDbLine
 62
7
  6
CONTINUOUS
 10
80.1022560491
 20
165.8884053413
 11
79.8615387071
 21
166.1291226833
  0
LINE
  5
291
100
AcDbEntity
  8
0
100
AcDbLine
 62
7
  6
CONTINUOUS
 10
79.7298965661
 20
167.321424996
 11
82.5583236908
 21
164.4929978713
  0
LINE
  5
292
100
AcDbEntity
  8
0
100
AcDbLine
 62
7
  6
CONTINUOUS
 10
82.9118767442
 20
164.8465509247
 11
80.685242553
 21
167.0731851159
  0
LINE
  5
293
100
AcDbEntity
  8
0
100
AcDbLine
 62
7
  6
CONTINUOUS
 10
108.1130702207
 20
114.2465478111
 11
107.9672374437
 21
114.6933563728
  0
LINE
  5
294
100
AcDbEntity
  8
0
100
AcDbLine
 62
7
  6
CONTINUOUS
 10
104.9047374437
 20
115.4380371351
 11
104.7589046667
 21
116.0337819535
  0
LINE
  5
295
100
AcDbEntity
  8
0
100
AcDbLine
 62
7
  6
CONTINUOUS
 10
95.7172374437
 20
113.2039946396
 11
95.7172374437
 21
113.9486755062
  0
LINE
  5
296
100
AcDbEntity
  8
0
100
AcDbLine
 62
7
  6
CONTINUOUS
 10
95.7172374437
 20
118.2678242404
 11
95.7172374437
 21
118.5656969626
  0
LINE
  5
297
100
AcDbEntity
  8
0
100
AcDbLine
 62
7
  6
CONTINUOUS
 10
97.1859857748
 20
173.7678245384
 11
97.1859857748
 21
173.5125051815
  0
LINE
  5
298
100
AcDbEntity
  8
0
100
AcDbLine
 62
7
  6
CONTINUOUS
 10
97.6859857748
 20
173.4273988087
 11
97.6859857748
 21
173.7678245384
  0
LINE
  5
299
100
AcDbEntity
  8
0
100
AcDbLine
 62
7
  6
CONTINUOUS
 10
98.4359857748
 20
174.7039946396
 11
98.4359857748
 21
172.0656967241
  0
LINE
  5
29A
100
AcDbEntity
  8
0
100
AcDbLine
 62
7
  6
CONTINUOUS
 10
98.9359860132
 20
172.0656967241
 11
98.9359860132
 21
174.7039946396
  0
LINE
  5
29B
100
AcDbEntity
  8
0
100
AcDbLine
 62
7
  6
CONTINUOUS
 10
100.0193204591
 20
126.495622327
 11
100.0193204591
 21
129.3289946396
  0
LINE
  5
29C
100
AcDbEntity
  8
0
100
AcDbLine
 62
7
  6
CONTINUOUS
 10
101.3526525209
 20
171.64016486
 11
101.4359860132
 21
172.0656967241
  0
LINE
  5
29D
100
AcDbEntity
  8
0
100
AcDbLine
 62
7
  6
CONTINUOUS
 10
100.9359860132
 20
172.0656967241
 11
100.8526525209
 21
171.7252712328
  0
LINE
  5
29E
100
AcDbEntity
  8
0
100
AcDbLine
 62
7
  6
CONTINUOUS
 10
90.7589041191
 20
119.1614415724
 11
90.6130707814
 21
118.5656969626
  0
LINE
  5
29F
100
AcDbEntity
  8
0
100
AcDbLine
 62
7
  6
CONTINUOUS
 10
105.1859855363
 20
171.299739309
 11
105.3526525209
 21
171.64016486
  0
LINE
  5
2A0
100
AcDbEntity
  8
0
100
AcDbLine
 62
7
  6
CONTINUOUS
 10
104.8526525209
 20
171.7252712328
 11
104.6859855363
 21
171.4699521143
  0
LINE
  5
2A1
100
AcDbEntity
  8
0
100
AcDbLine
 62
7
  6
CONTINUOUS
 10
82.0869189452
 20
164.0215931257
 11
80.1724649437
 21
164.8753869555
  0
LINE
  5
2A2
100
AcDbEntity
  8
0
100
AcDbLine
 62
7
  6
CONTINUOUS
 10
79.9392701398
 20
164.4014749782
 11
81.6744402143
 21
163.6091143948
  0
LINE
  5
2A3
100
AcDbEntity
  8
0
100
AcDbLine
 62
7
  6
CONTINUOUS
 10
79.2685217589
 20
165.8971814952
 11
79.5079853165
 21
165.7755692927
  0
LINE
  5
2A4
100
AcDbEntity
  8
0
100
AcDbLine
 62
7
  6
CONTINUOUS
 10
79.8615387071
 20
166.1291226833
 11
79.6220751495
 21
166.2507348858
  0
LINE
  5
2A5
100
AcDbEntity
  8
0
100
AcDbLine
 62
7
  6
CONTINUOUS
 10
82.8065628966
 20
169.1945054595
 11
85.0331970878
 21
166.9678712683
  0
LINE
  5
2A6
100
AcDbEntity
  8
0
100
AcDbLine
 62
7
  6
CONTINUOUS
 10
85.3867504784
 20
167.3214246589
 11
82.5583233536
 21
170.1498517836
  0
LINE
  5
2A7
100
AcDbEntity
  8
0
100
AcDbLine
 62
7
  6
CONTINUOUS
 10
104.7589046667
 20
118.5656969626
 11
104.6130702207
 21
119.1614415724
  0
LINE
  5
2A8
100
AcDbEntity
  8
0
100
AcDbLine
 62
7
  6
CONTINUOUS
 10
100.9359860132
 20
174.7039946396
 11
100.9359860132
 21
172.0656967241
  0
LINE
  5
2A9
100
AcDbEntity
  8
0
100
AcDbLine
 62
7
  6
CONTINUOUS
 10
101.4359860132
 20
172.0656967241
 11
101.4359860132
 21
174.7039946396
  0
LINE
  5
2AA
100
AcDbEntity
  8
0
100
AcDbLine
 62
7
  6
CONTINUOUS
 10
101.9880710552
 20
117.0763350207
 11
101.9880710552
 21
116.4805904109
  0
LINE
  5
2AB
100
AcDbEntity
  8
0
100
AcDbLine
 62
7
  6
CONTINUOUS
 10
102.1026525209
 20
174.7039946396
 11
102.1026525209
 21
170.7039946396
  0
LINE
  5
2AC
100
AcDbEntity
  8
0
100
AcDbLine
 62
7
  6
CONTINUOUS
 10
102.6026525209
 20
171.2146329362
 11
102.6026525209
 21
174.1933564026
  0
LINE
  5
2AD
100
AcDbEntity
  8
0
100
AcDbLine
 62
7
  6
CONTINUOUS
 10
104.0297374437
 20
118.5656969626
 11
104.0297374437
 21
118.2678242404
  0
LINE
  5
2AE
100
AcDbEntity
  8
0
100
AcDbLine
 62
7
  6
CONTINUOUS
 10
104.1755710552
 20
115.4380371351
 11
104.1755710552
 21
114.8422925253
  0
LINE
  5
2AF
100
AcDbEntity
  8
0
100
AcDbLine
 62
7
  6
CONTINUOUS
 10
104.7589046667
 20
118.2678242404
 11
104.7589046667
 21
118.5656969626
  0
LINE
  5
2B0
100
AcDbEntity
  8
0
100
AcDbLine
 62
7
  6
CONTINUOUS
 10
104.9047374437
 20
114.8422925253
 11
104.9047374437
 21
115.4380371351
  0
LINE
  5
2B1
100
AcDbEntity
  8
0
100
AcDbLine
 62
7
  6
CONTINUOUS
 10
104.9359855363
 20
173.3422924358
 11
104.9359855363
 21
172.0656967241
  0
LINE
  5
2B2
100
AcDbEntity
  8
0
100
AcDbLine
 62
7
  6
CONTINUOUS
 10
105.4359855363
 20
172.0656967241
 11
105.4359855363
 21
173.3422924358
  0
LINE
  5
2B3
100
AcDbEntity
  8
0
100
AcDbLine
 62
7
  6
CONTINUOUS
 10
106.0714046667
 20
117.9699519355
 11
106.0714046667
 21
117.3742073257
  0
LINE
  5
2B4
100
AcDbEntity
  8
0
100
AcDbLine
 62
7
  6
CONTINUOUS
 10
105.3526525209
 20
171.64016486
 11
105.4359855363
 21
172.0656967241
  0
LINE
  5
2B5
100
AcDbEntity
  8
0
100
AcDbLine
 62
7
  6
CONTINUOUS
 10
104.9359855363
 20
172.0656967241
 11
104.8526525209
 21
171.7252712328
  0
LINE
  5
2B6
100
AcDbEntity
  8
0
100
AcDbLine
 62
7
  6
CONTINUOUS
 10
95.5714042494
 20
117.6720796306
 11
95.7172374437
 21
118.2678242404
  0
LINE
  5
2B7
100
AcDbEntity
  8
0
100
AcDbLine
 62
7
  6
CONTINUOUS
 10
79.6220751495
 20
166.2507348858
 11
79.2045812808
 21
166.3146753639
  0
LINE
  5
2B8
100
AcDbEntity
  8
0
100
AcDbLine
 62
7
  6
CONTINUOUS
 10
80.685242553
 20
167.0731851159
 11
83.7368348804
 21
165.6715090609
  0
LINE
  5
2B9
100
AcDbEntity
  8
0
100
AcDbLine
 62
7
  6
CONTINUOUS
 10
83.6716404071
 20
166.2081076054
 11
80.2602263148
 21
167.8517547447
  0
LINE
  5
2BA
100
AcDbEntity
  8
0
100
AcDbLine
 62
7
  6
CONTINUOUS
 10
98.519319267
 20
171.64016486
 11
98.6859860132
 21
171.299739309
  0
LINE
  5
2BB
100
AcDbEntity
  8
0
100
AcDbLine
 62
7
  6
CONTINUOUS
 10
97.769319267
 20
170.7039946396
 11
97.019319267
 21
172.6614414532
  0
LINE
  5
2BC
100
AcDbEntity
  8
0
100
AcDbLine
 62
7
  6
CONTINUOUS
 10
96.5193191478
 20
172.4912287075
 11
97.1859857748
 21
170.7039946396
  0
LINE
  5
2BD
100
AcDbEntity
  8
0
100
AcDbLine
 62
7
  6
CONTINUOUS
 10
97.1026525209
 20
174.0231436569
 11
97.1859857748
 21
173.7678245384
  0
LINE
  5
2BE
100
AcDbEntity
  8
0
100
AcDbLine
 62
7
  6
CONTINUOUS
 10
97.6859857748
 20
173.7678245384
 11
97.6026525209
 21
174.0231436569
  0
LINE
  5
2BF
100
AcDbEntity
  8
0
100
AcDbLine
 62
7
  6
CONTINUOUS
 10
99.0193190286
 20
171.7252712328
 11
98.9359860132
 21
172.0656967241
  0
LINE
  5
2C0
100
AcDbEntity
  8
0
100
AcDbLine
 62
7
  6
CONTINUOUS
 10
98.4359857748
 20
172.0656967241
 11
98.519319267
 21
171.64016486
  0
LINE
  5
2C1
100
AcDbEntity
  8
0
100
AcDbLine
 62
7
  6
CONTINUOUS
 10
107.2380702207
 20
119.1614415724
 11
107.2380702207
 21
117.9699519355
  0
LINE
  5
2C2
100
AcDbEntity
  8
0
100
AcDbLine
 62
7
  6
CONTINUOUS
 10
107.2380702207
 20
117.3742073257
 11
107.2380702207
 21
114.3954839636
  0
LINE
  5
2C3
100
AcDbEntity
  8
0
100
AcDbLine
 62
7
  6
CONTINUOUS
 10
107.9672374437
 20
114.6933563728
 11
107.9672374437
 21
117.3742073257
  0
LINE
  5
2C4
100
AcDbEntity
  8
0
100
AcDbLine
 62
7
  6
CONTINUOUS
 10
107.9672374437
 20
117.9699519355
 11
107.9672374437
 21
119.1614415724
  0
LINE
  5
2C5
100
AcDbEntity
  8
0
100
AcDbLine
 62
7
  6
CONTINUOUS
 10
109.2797374437
 20
113.2039946396
 11
109.2797374437
 21
113.7997393016
  0
LINE
  5
2C6
100
AcDbEntity
  8
0
100
AcDbLine
 62
7
  6
CONTINUOUS
 10
109.5714046667
 20
117.3742073257
 11
109.5714046667
 21
117.9699519355
  0
LINE
  5
2C7
100
AcDbEntity
  8
0
100
AcDbLine
 62
7
  6
CONTINUOUS
 10
99.9464038322
 20
119.1614415724
 11
99.8005710552
 21
118.5656969626
  0
LINE
  5
2C8
100
AcDbEntity
  8
0
100
AcDbLine
 62
7
  6
CONTINUOUS
 10
79.0303121544
 20
165.8996890641
 11
79.2685217589
 21
165.8971814952
  0
LINE
  5
2C9
100
AcDbEntity
  8
0
100
AcDbLine
 62
7
  6
CONTINUOUS
 10
99.4359860132
 20
171.299739309
 11
99.1859860132
 21
171.4699521143
  0
LINE
  5
2CA
100
AcDbEntity
  8
0
100
AcDbLine
 62
7
  6
CONTINUOUS
 10
98.6859860132
 20
171.299739309
 11
99.0193190286
 21
170.9593137879
  0
LINE
  5
2CB
100
AcDbEntity
  8
0
100
AcDbLine
 62
7
  6
CONTINUOUS
 10
96.9359857748
 20
174.1933564026
 11
97.1026525209
 21
174.0231436569
  0
LINE
  5
2CC
100
AcDbEntity
  8
0
100
AcDbLine
 62
7
  6
CONTINUOUS
 10
97.6026525209
 20
174.0231436569
 11
97.3526525209
 21
174.3635691483
  0
LINE
  5
2CD
100
AcDbEntity
  8
0
100
AcDbLine
 62
7
  6
CONTINUOUS
 10
99.1859860132
 20
171.4699521143
 11
99.0193190286
 21
171.7252712328
  0
LINE
  5
2CE
100
AcDbEntity
  8
0
100
AcDbLine
 62
7
  6
CONTINUOUS
 10
104.8526525209
 20
173.6827179272
 11
104.9359855363
 21
173.3422924358
  0
LINE
  5
2CF
100
AcDbEntity
  8
0
100
AcDbLine
 62
7
  6
CONTINUOUS
 10
105.4359855363
 20
173.3422924358
 11
105.3526525209
 21
173.7678245384
  0
LINE
  5
2D0
100
AcDbEntity
  8
0
100
AcDbLine
 62
7
  6
CONTINUOUS
 10
112.0193204591
 20
128.0782300435
 11
112.0193204591
 21
129.3289946396
  0
LINE
  5
2D1
100
AcDbEntity
  8
0
100
AcDbLine
 62
7
  6
CONTINUOUS
 10
114.6693204591
 20
107.2039946396
 11
114.6693204591
 21
106.8289946396
  0
LINE
  5
2D2
100
AcDbEntity
  8
0
100
AcDbLine
 62
7
  6
CONTINUOUS
 10
104.6130702207
 20
117.6720796306
 11
104.7589046667
 21
118.2678242404
  0
LINE
  5
2D3
100
AcDbEntity
  8
0
100
AcDbLine
 62
7
  6
CONTINUOUS
 10
94.8422374437
 20
118.2678242404
 11
94.550570638
 21
117.6720796306
  0
LINE
  5
2D4
100
AcDbEntity
  8
0
100
AcDbLine
 62
7
  6
CONTINUOUS
 10
91.3422374437
 20
118.5656969626
 11
91.6339041451
 21
119.0125054199
  0
LINE
  5
2D5
100
AcDbEntity
  8
0
100
AcDbLine
 62
7
  6
CONTINUOUS
 10
104.4359855363
 20
171.299739309
 11
104.1026525209
 21
171.2146329362
  0
LINE
  5
2D6
100
AcDbEntity
  8
0
100
AcDbLine
 62
7
  6
CONTINUOUS
 10
100.4359860132
 20
171.299739309
 11
100.1026525209
 21
171.2146329362
  0
LINE
  5
2D7
100
AcDbEntity
  8
0
100
AcDbLine
 62
7
  6
CONTINUOUS
 10
104.1026525209
 20
170.7039946396
 11
104.5193195055
 21
170.7891010199
  0
LINE
  5
2D8
100
AcDbEntity
  8
0
100
AcDbLine
 62
7
  6
CONTINUOUS
 10
100.1026525209
 20
170.7039946396
 11
100.5193190286
 21
170.7891010199
  0
LINE
  5
2D9
100
AcDbEntity
  8
0
100
AcDbLine
 62
7
  6
CONTINUOUS
 10
79.2045812808
 20
166.3146753639
 11
78.788341028
 21
166.2595108712
  0
LINE
  5
2DA
100
AcDbEntity
  8
0
100
AcDbLine
 62
7
  6
CONTINUOUS
 10
94.6026525209
 20
170.7039946396
 11
95.1026525209
 21
170.7039946396
  0
LINE
  5
2DB
100
AcDbEntity
  8
0
100
AcDbLine
 62
7
  6
CONTINUOUS
 10
97.1859857748
 20
170.7039946396
 11
97.769319267
 21
170.7039946396
  0
LINE
  5
2DC
100
AcDbEntity
  8
0
100
AcDbLine
 62
7
  6
CONTINUOUS
 10
99.7693190286
 20
170.7039946396
 11
100.1026525209
 21
170.7039946396
  0
LINE
  5
2DD
100
AcDbEntity
  8
0
100
AcDbLine
 62
7
  6
CONTINUOUS
 10
102.1026525209
 20
170.7039946396
 11
104.1026525209
 21
170.7039946396
  0
LINE
  5
2DE
100
AcDbEntity
  8
0
100
AcDbLine
 62
7
  6
CONTINUOUS
 10
104.1026525209
 20
171.2146329362
 11
102.6026525209
 21
171.2146329362
  0
LINE
  5
2DF
100
AcDbEntity
  8
0
100
AcDbLine
 62
7
  6
CONTINUOUS
 10
100.1026525209
 20
171.2146329362
 11
99.7693190286
 21
171.2146329362
  0
LINE
  5
2E0
100
AcDbEntity
  8
0
100
AcDbLine
 62
7
  6
CONTINUOUS
 10
95.1026525209
 20
172.4912287075
 11
96.5193191478
 21
172.4912287075
  0
LINE
  5
2E1
100
AcDbEntity
  8
0
100
AcDbLine
 62
7
  6
CONTINUOUS
 10
96.6859857748
 20
173.0018669445
 11
95.1026525209
 21
173.0018669445
  0
LINE
  5
2E2
100
AcDbEntity
  8
0
100
AcDbLine
 62
7
  6
CONTINUOUS
 10
99.3526525209
 20
170.7891010199
 11
99.7693190286
 21
170.7039946396
  0
LINE
  5
2E3
100
AcDbEntity
  8
0
100
AcDbLine
 62
7
  6
CONTINUOUS
 10
97.019319267
 20
174.6188882668
 11
96.6026525209
 21
174.7039946396
  0
LINE
  5
2E4
100
AcDbEntity
  8
0
100
AcDbLine
 62
7
  6
CONTINUOUS
 10
99.7693190286
 20
171.2146329362
 11
99.4359860132
 21
171.299739309
  0
LINE
  5
2E5
100
AcDbEntity
  8
0
100
AcDbLine
 62
7
  6
CONTINUOUS
 10
96.6859857748
 20
174.2784627754
 11
96.9359857748
 21
174.1933564026
  0
LINE
  5
2E6
100
AcDbEntity
  8
0
100
AcDbLine
 62
7
  6
CONTINUOUS
 10
99.0193190286
 20
170.9593137879
 11
99.3526525209
 21
170.7891010199
  0
LINE
  5
2E7
100
AcDbEntity
  8
0
100
AcDbLine
 62
7
  6
CONTINUOUS
 10
104.4359855363
 20
174.1082500298
 11
104.6859855363
 21
173.9380372841
  0
LINE
  5
2E8
100
AcDbEntity
  8
0
100
AcDbLine
 62
7
  6
CONTINUOUS
 10
97.3526525209
 20
174.3635691483
 11
97.019319267
 21
174.6188882668
  0
LINE
  5
2E9
100
AcDbEntity
  8
0
100
AcDbLine
 62
7
  6
CONTINUOUS
 10
105.1859855363
 20
174.1082500298
 11
104.8526525209
 21
174.4486755211
  0
LINE
  5
2EA
100
AcDbEntity
  8
0
100
AcDbLine
 62
7
  6
CONTINUOUS
 10
104.6859855363
 20
173.9380372841
 11
104.8526525209
 21
173.6827179272
  0
LINE
  5
2EB
100
AcDbEntity
  8
0
100
AcDbLine
 62
7
  6
CONTINUOUS
 10
105.3526525209
 20
173.7678245384
 11
105.1859855363
 21
174.1082500298
  0
LINE
  5
2EC
100
AcDbEntity
  8
0
100
AcDbLine
 62
7
  6
CONTINUOUS
 10
104.7589046667
 20
114.3954839636
 11
104.9047374437
 21
114.8422925253
  0
LINE
  5
2ED
100
AcDbEntity
  8
0
100
AcDbLine
 62
7
  6
CONTINUOUS
 10
104.0297374437
 20
118.2678242404
 11
103.7380710552
 21
117.6720796306
  0
LINE
  5
2EE
100
AcDbEntity
  8
0
100
AcDbLine
 62
7
  6
CONTINUOUS
 10
104.1755710552
 20
114.8422925253
 11
104.0297374437
 21
114.5444202203
  0
LINE
  5
2EF
100
AcDbEntity
  8
0
100
AcDbLine
 62
7
  6
CONTINUOUS
 10
97.7589038322
 20
113.9486755062
 11
96.8839042494
 21
112.3103776205
  0
LINE
  5
2F0
100
AcDbEntity
  8
0
100
AcDbLine
 62
7
  6
CONTINUOUS
 10
97.6130710552
 20
112.3103776205
 11
98.4880710552
 21
113.9486755062
  0
LINE
  5
2F1
100
AcDbEntity
  8
0
100
AcDbLine
 62
7
  6
CONTINUOUS
 10
95.2797374437
 20
117.2252711732
 11
95.5714042494
 21
117.6720796306
  0
LINE
  5
2F2
100
AcDbEntity
  8
0
100
AcDbLine
 62
7
  6
CONTINUOUS
 10
100.5297374437
 20
118.5656969626
 11
100.8214038322
 21
119.0125054199
  0
LINE
  5
2F3
100
AcDbEntity
  8
0
100
AcDbLine
 62
7
  6
CONTINUOUS
 10
91.3422374437
 20
119.7571861822
 11
90.7589041191
 21
119.1614415724
  0
LINE
  5
2F4
100
AcDbEntity
  8
0
100
AcDbLine
 62
7
  6
CONTINUOUS
 10
102.6026525209
 20
174.1933564026
 11
104.1026525209
 21
174.1933564026
  0
LINE
  5
2F5
100
AcDbEntity
  8
0
100
AcDbLine
 62
7
  6
CONTINUOUS
 10
95.1026525209
 20
174.2784627754
 11
96.6859857748
 21
174.2784627754
  0
LINE
  5
2F6
100
AcDbEntity
  8
0
100
AcDbLine
 62
7
  6
CONTINUOUS
 10
104.1026525209
 20
174.7039946396
 11
102.1026525209
 21
174.7039946396
  0
LINE
  5
2F7
100
AcDbEntity
  8
0
100
AcDbLine
 62
7
  6
CONTINUOUS
 10
101.4359860132
 20
174.7039946396
 11
100.9359860132
 21
174.7039946396
  0
LINE
  5
2F8
100
AcDbEntity
  8
0
100
AcDbLine
 62
7
  6
CONTINUOUS
 10
98.9359860132
 20
174.7039946396
 11
98.4359857748
 21
174.7039946396
  0
LINE
  5
2F9
100
AcDbEntity
  8
0
100
AcDbLine
 62
7
  6
CONTINUOUS
 10
96.6026525209
 20
174.7039946396
 11
94.6026525209
 21
174.7039946396
  0
LINE
  5
2FA
100
AcDbEntity
  8
0
100
AcDbLine
 62
7
  6
CONTINUOUS
 10
104.5193195055
 20
174.6188882668
 11
104.1026525209
 21
174.7039946396
  0
LINE
  5
2FB
100
AcDbEntity
  8
0
100
AcDbLine
 62
7
  6
CONTINUOUS
 10
104.1026525209
 20
174.1933564026
 11
104.4359855363
 21
174.1082500298
  0
LINE
  5
2FC
100
AcDbEntity
  8
0
100
AcDbLine
 62
7
  6
CONTINUOUS
 10
104.8526525209
 20
174.4486755211
 11
104.5193195055
 21
174.6188882668
  0
LINE
  5
2FD
100
AcDbEntity
  8
0
100
AcDbLine
 62
7
  6
CONTINUOUS
 10
104.3214038322
 20
117.2252711732
 11
104.6130702207
 21
117.6720796306
  0
LINE
  5
2FE
100
AcDbEntity
  8
0
100
AcDbLine
 62
7
  6
CONTINUOUS
 10
104.4672374437
 20
113.9486755062
 11
104.7589046667
 21
114.3954839636
  0
LINE
  5
2FF
100
AcDbEntity
  8
0
100
AcDbLine
 62
7
  6
CONTINUOUS
 10
100.5297374437
 20
119.7571861822
 11
99.9464038322
 21
119.1614415724
  0
LINE
  5
300
100
AcDbEntity
  8
0
100
AcDbLine
 62
7
  6
CONTINUOUS
 10
94.550570638
 20
117.6720796306
 11
90.4672374437
 21
113.9486755062
  0
LINE
  5
301
100
AcDbEntity
  8
0
100
AcDbLine
 62
7
  6
CONTINUOUS
 10
91.6339041451
 20
113.9486755062
 11
95.2797374437
 21
117.2252711732
  0
LINE
  5
302
100
AcDbEntity
  8
0
100
AcDbLine
 62
7
  6
CONTINUOUS
 10
91.6339041451
 20
119.0125054199
 11
92.0714041451
 21
119.3103777248
  0
LINE
  5
303
100
AcDbEntity
  8
RUNDUNGEN
100
AcDbLine
 62
7
  6
CONTINUOUS
 10
101.1673707562
 20
181.2284566363
 11
126.0064928901
 21
170.939755371
  0
LINE
  5
304
100
AcDbEntity
  8
0
100
AcDbLine
 62
7
  6
CONTINUOUS
 10
103.7380710552
 20
117.6720796306
 11
103.4464038322
 21
117.3742073257
  0
LINE
  5
305
100
AcDbEntity
  8
0
100
AcDbLine
 62
7
  6
CONTINUOUS
 10
104.0297374437
 20
114.5444202203
 11
103.7380710552
 21
114.2465478111
  0
LINE
  5
306
100
AcDbEntity
  8
0
100
AcDbLine
 62
7
  6
CONTINUOUS
 10
100.8214038322
 20
119.0125054199
 11
101.2589038322
 21
119.3103777248
  0
LINE
  5
307
100
AcDbEntity
  8
0
100
AcDbLine
 62
7
  6
CONTINUOUS
 10
91.9255707423
 20
120.0550584871
 11
91.3422374437
 21
119.7571861822
  0
LINE
  5
308
100
AcDbEntity
  8
0
100
AcDbLine
 62
7
  6
CONTINUOUS
 10
101.1130710552
 20
120.0550584871
 11
100.5297374437
 21
119.7571861822
  0
LINE
  5
309
100
AcDbEntity
  8
RUNDUNGEN
100
AcDbLine
 62
7
  6
CONTINUOUS
 10
127.6300811905
 20
169.3161670705
 11
137.1926136361
 21
146.2301715497
  0
LINE
  5
30A
100
AcDbEntity
  8
BEZUGSACHSEN
100
AcDbLine
 62
7
  6
CONTINUOUS
 10
137.1926136361
 20
146.2301715497
 11
137.7624436491
 21
144.8544802042
  0
LINE
  5
30B
100
AcDbEntity
  8
BEZUGSACHSEN
100
AcDbLine
 62
7
  6
CONTINUOUS
 10
134.0193204591
 20
131.2039946396
 11
134.0193204591
 21
123.2039946396
  0
LINE
  5
30C
100
AcDbEntity
  8
0
100
AcDbLine
 62
7
  6
CONTINUOUS
 10
103.7380710552
 20
116.7784627158
 11
104.3214038322
 21
117.2252711732
  0
LINE
  5
30D
100
AcDbEntity
  8
0
100
AcDbLine
 62
7
  6
CONTINUOUS
 10
104.0297374437
 20
113.6508031491
 11
104.4672374437
 21
113.9486755062
  0
LINE
  5
30E
100
AcDbEntity
  8
0
100
AcDbLine
 62
7
  6
CONTINUOUS
 10
103.4464038322
 20
117.3742073257
 11
102.5714038322
 21
117.0763350207
  0
LINE
  5
30F
100
AcDbEntity
  8
BEZUGSACHSEN
100
AcDbLine
 62
7
  6
CONTINUOUS
 10
137.7670965752
 20
142.5064990585
 11
134.0914311351
 21
133.6326577024
  0
LINE
  5
310
100
AcDbEntity
  8
0
100
AcDbLine
 62
7
  6
CONTINUOUS
 10
103.7380710552
 20
114.2465478111
 11
103.4464038322
 21
114.0976116587
  0
LINE
  5
311
100
AcDbEntity
  8
0
100
AcDbLine
 62
7
  6
CONTINUOUS
 10
103.4464038322
 20
113.3529308051
 11
104.0297374437
 21
113.6508031491
  0
LINE
  5
312
100
AcDbEntity
  8
0
100
AcDbLine
 62
7
  6
CONTINUOUS
 10
189.9663200065
 20
106.8289946396
 11
219.2663200065
 21
106.8289946396
  0
LINE
  5
313
100
AcDbEntity
  8
BEZUGSACHSEN
100
AcDbLine
 62
7
  6
CONTINUOUS
 10
184.1176163122
 20
107.2039946396
 11
225.1150237008
 21
107.2039946396
  0
LINE
  5
314
100
AcDbEntity
  8
0
100
AcDbLine
 62
7
  6
CONTINUOUS
 10
180.3770583738
 20
118.5656969626
 11
180.4691842679
 21
118.2678242404
  0
LINE
  5
315
100
AcDbEntity
  8
0
100
AcDbLine
 62
7
  6
CONTINUOUS
 10
179.9149480862
 20
119.235909496
 11
180.002026812
 21
118.9510894982
  0
LINE
  5
316
100
AcDbEntity
  8
BEZUGSACHSEN
100
AcDbLine
 62
7
  6
CONTINUOUS
 10
179.8038880935
 20
121.309323854
 11
180.1418211475
 21
120.2039946396
  0
LINE
  5
317
100
AcDbEntity
  8
BEZUGSACHSEN
100
AcDbLine
 62
7
  6
CONTINUOUS
 10
182.2819359177
 20
113.2039946396
 11
184.1163200065
 21
107.2039946396
  0
LINE
  5
318
100
AcDbEntity
  8
0
100
AcDbLine
 62
7
  6
CONTINUOUS
 10
182.5551420579
 20
112.3103776205
 11
182.1332079795
 21
112.3103776205
  0
LINE
  5
319
100
AcDbEntity
  8
0
100
AcDbLine
 62
7
  6
CONTINUOUS
 10
226.5026445523
 20
112.3103776205
 11
227.0994320334
 21
112.3103776205
  0
LINE
  5
31A
100
AcDbEntity
  8
0
100
AcDbLine
 62
7
  6
CONTINUOUS
 10
183.833641934
 20
113.2039946396
 11
183.2798082399
 21
113.2039946396
  0
LINE
  5
31B
100
AcDbEntity
  8
0
100
AcDbLine
 62
7
  6
CONTINUOUS
 10
181.8074375725
 20
113.2039946396
 11
182.4237776618
 21
113.2039946396
  0
LINE
  5
31C
100
AcDbEntity
  8
0
100
AcDbLine
 62
7
  6
CONTINUOUS
 10
225.2958332683
 20
113.2039946396
 11
227.153863245
 21
113.2039946396
  0
LINE
  5
31D
100
AcDbEntity
  8
0
100
AcDbLine
 62
7
  6
CONTINUOUS
 10
227.4094916074
 20
113.2039946396
 11
227.4252024404
 21
113.2039946396
  0
LINE
  5
31E
100
AcDbEntity
  8
0
100
AcDbLine
 62
7
  6
CONTINUOUS
 10
182.442194047
 20
113.3529308051
 11
181.9155083792
 21
113.3529308051
  0
LINE
  5
31F
100
AcDbEntity
  8
0
100
AcDbLine
 62
7
  6
CONTINUOUS
 10
227.4603553357
 20
113.3529308051
 11
227.4985690793
 21
113.3529308051
  0
LINE
  5
320
100
AcDbEntity
  8
0
100
AcDbLine
 62
7
  6
CONTINUOUS
 10
182.4263285449
 20
113.6508031491
 11
181.8982437156
 21
113.6508031491
  0
LINE
  5
321
100
AcDbEntity
  8
0
100
AcDbLine
 62
7
  6
CONTINUOUS
 10
227.5613258418
 20
113.6508031491
 11
227.6057040371
 21
113.6508031491
  0
LINE
  5
322
100
AcDbEntity
  8
0
100
AcDbLine
 62
7
  6
CONTINUOUS
 10
183.6369149764
 20
113.7997393016
 11
183.0836772929
 21
113.7997393016
  0
LINE
  5
323
100
AcDbEntity
  8
0
100
AcDbLine
 62
7
  6
CONTINUOUS
 10
183.348869293
 20
113.9486755062
 11
182.8007891288
 21
113.9486755062
  0
LINE
  5
324
100
AcDbEntity
  8
0
100
AcDbLine
 62
7
  6
CONTINUOUS
 10
182.3988532591
 20
113.9486755062
 11
181.8695900919
 21
113.9486755062
  0
LINE
  5
325
100
AcDbEntity
  8
0
100
AcDbLine
 62
7
  6
CONTINUOUS
 10
181.6553255214
 20
113.9486755062
 11
181.5879308208
 21
113.9486755062
  0
LINE
  5
326
100
AcDbEntity
  8
0
100
AcDbLine
 62
7
  6
CONTINUOUS
 10
225.5430097023
 20
113.9486755062
 11
226.0982759535
 21
113.9486755062
  0
LINE
  5
327
100
AcDbEntity
  8
0
100
AcDbLine
 62
7
  6
CONTINUOUS
 10
226.4760519457
 20
113.9486755062
 11
227.7011313306
 21
113.9486755062
  0
LINE
  5
328
100
AcDbEntity
  8
0
100
AcDbLine
 62
7
  6
CONTINUOUS
 10
181.6856596303
 20
114.0976116587
 11
181.5061788916
 21
114.0976116587
  0
LINE
  5
329
100
AcDbEntity
  8
0
100
AcDbLine
 62
7
  6
CONTINUOUS
 10
183.1196707616
 20
114.2465478111
 11
182.5745326934
 21
114.2465478111
  0
LINE
  5
32A
100
AcDbEntity
  8
0
100
AcDbLine
 62
7
  6
CONTINUOUS
 10
181.6752294251
 20
114.2465478111
 11
181.4512405263
 21
114.2465478111
  0
LINE
  5
32B
100
AcDbEntity
  8
0
100
AcDbLine
 62
7
  6
CONTINUOUS
 10
182.2904561742
 20
114.3954839636
 11
181.7766660724
 21
114.3954839636
  0
LINE
  5
32C
100
AcDbEntity
  8
0
100
AcDbLine
 62
7
  6
CONTINUOUS
 10
227.3141553175
 20
114.3954839636
 11
227.837016271
 21
114.3954839636
  0
LINE
  5
32D
100
AcDbEntity
  8
0
100
AcDbLine
 62
7
  6
CONTINUOUS
 10
181.6214801547
 20
114.5444202203
 11
181.3536727652
 21
114.5444202203
  0
LINE
  5
32E
100
AcDbEntity
  8
0
100
AcDbLine
 62
7
  6
CONTINUOUS
 10
182.9331290338
 20
114.6933563728
 11
182.3891453521
 21
114.6933563728
  0
LINE
  5
32F
100
AcDbEntity
  8
0
100
AcDbLine
 62
7
  6
CONTINUOUS
 10
182.1479336264
 20
114.8422925253
 11
181.6615033771
 21
114.8422925253
  0
LINE
  5
330
100
AcDbEntity
  8
0
100
AcDbLine
 62
7
  6
CONTINUOUS
 10
181.5494313741
 20
114.8422925253
 11
181.2604435124
 21
114.8422925253
  0
LINE
  5
331
100
AcDbEntity
  8
0
100
AcDbLine
 62
7
  6
CONTINUOUS
 10
227.4493093023
 20
114.8422925253
 11
227.9721965049
 21
114.8422925253
  0
LINE
  5
332
100
AcDbEntity
  8
0
100
AcDbLine
 62
7
  6
CONTINUOUS
 10
181.9580142878
 20
115.4380371351
 11
181.4759150892
 21
115.4380371351
  0
LINE
  5
333
100
AcDbEntity
  8
0
100
AcDbLine
 62
7
  6
CONTINUOUS
 10
227.6337194298
 20
115.4380371351
 11
227.8678252953
 21
115.4380371351
  0
LINE
  5
334
100
AcDbEntity
  8
0
100
AcDbLine
 62
7
  6
CONTINUOUS
 10
181.7682291045
 20
116.0337819535
 11
181.2668878982
 21
116.0337819535
  0
LINE
  5
335
100
AcDbEntity
  8
0
100
AcDbLine
 62
7
  6
CONTINUOUS
 10
227.8158568991
 20
116.0337819535
 11
228.0913618152
 21
116.0337819535
  0
LINE
  5
336
100
AcDbEntity
  8
0
100
AcDbLine
 62
7
  6
CONTINUOUS
 10
227.9069256019
 20
116.3316542585
 11
228.236270368
 21
116.3316542585
  0
LINE
  5
337
100
AcDbEntity
  8
0
100
AcDbLine
 62
7
  6
CONTINUOUS
 10
181.6122346599
 20
116.4805904109
 11
181.0834264993
 21
116.4805904109
  0
LINE
  5
338
100
AcDbEntity
  8
0
100
AcDbLine
 62
7
  6
CONTINUOUS
 10
180.8209250591
 20
116.4805904109
 11
180.8642579674
 21
116.4805904109
  0
LINE
  5
339
100
AcDbEntity
  8
0
100
AcDbLine
 62
7
  6
CONTINUOUS
 10
227.9524599533
 20
116.4805904109
 11
228.4117149538
 21
116.4805904109
  0
LINE
  5
33A
100
AcDbEntity
  8
0
100
AcDbLine
 62
7
  6
CONTINUOUS
 10
181.4197729782
 20
116.7784627158
 11
180.892821439
 21
116.7784627158
  0
LINE
  5
33B
100
AcDbEntity
  8
0
100
AcDbLine
 62
7
  6
CONTINUOUS
 10
180.6812341998
 20
117.0763350207
 11
180.6382609392
 21
117.0763350207
  0
LINE
  5
33C
100
AcDbEntity
  8
0
100
AcDbLine
 62
7
  6
CONTINUOUS
 10
228.2620128785
 20
117.0763350207
 11
228.5943790738
 21
117.0763350207
  0
LINE
  5
33D
100
AcDbEntity
  8
0
100
AcDbLine
 62
7
  6
CONTINUOUS
 10
181.3597179448
 20
117.2252711732
 11
180.8314188881
 21
117.2252711732
  0
LINE
  5
33E
100
AcDbEntity
  8
0
100
AcDbLine
 62
7
  6
CONTINUOUS
 10
181.0836834404
 20
117.3742073257
 11
181.3416493833
 21
117.3742073257
  0
LINE
  5
33F
100
AcDbEntity
  8
0
100
AcDbLine
 62
7
  6
CONTINUOUS
 10
181.5276016886
 20
117.3742073257
 11
182.5581683797
 21
117.3742073257
  0
LINE
  5
340
100
AcDbEntity
  8
0
100
AcDbLine
 62
7
  6
CONTINUOUS
 10
228.3975200967
 20
117.3742073257
 11
228.5578140792
 21
117.3742073257
  0
LINE
  5
341
100
AcDbEntity
  8
0
100
AcDbLine
 62
7
  6
CONTINUOUS
 10
180.9900968358
 20
117.6720796306
 11
180.7352620193
 21
117.6720796306
  0
LINE
  5
342
100
AcDbEntity
  8
0
100
AcDbLine
 62
7
  6
CONTINUOUS
 10
227.8215317225
 20
117.6720796306
 11
228.3531921357
 21
117.6720796306
  0
LINE
  5
343
100
AcDbEntity
  8
0
100
AcDbLine
 62
7
  6
CONTINUOUS
 10
228.5188952437
 20
117.6720796306
 11
228.6158316078
 21
117.6720796306
  0
LINE
  5
344
100
AcDbEntity
  8
0
100
AcDbLine
 62
7
  6
CONTINUOUS
 10
182.3622560809
 20
117.9699519355
 11
181.3365687952
 21
117.9699519355
  0
LINE
  5
345
100
AcDbEntity
  8
0
100
AcDbLine
 62
7
  6
CONTINUOUS
 10
181.1522589939
 20
117.9699519355
 11
180.8965302962
 21
117.9699519355
  0
LINE
  5
346
100
AcDbEntity
  8
0
100
AcDbLine
 62
7
  6
CONTINUOUS
 10
181.0576093703
 20
118.2678242404
 11
180.5723503474
 21
118.2678242404
  0
LINE
  5
347
100
AcDbEntity
  8
0
100
AcDbLine
 62
7
  6
CONTINUOUS
 10
228.0592967908
 20
118.2678242404
 11
228.5898824863
 21
118.2678242404
  0
LINE
  5
348
100
AcDbEntity
  8
0
100
AcDbLine
 62
7
  6
CONTINUOUS
 10
228.7243043283
 20
118.2678242404
 11
228.7634557451
 21
118.2678242404
  0
LINE
  5
349
100
AcDbEntity
  8
0
100
AcDbLine
 62
7
  6
CONTINUOUS
 10
180.9629852805
 20
118.5656969626
 11
180.4797959302
 21
118.5656969626
  0
LINE
  5
34A
100
AcDbEntity
  8
0
100
AcDbLine
 62
7
  6
CONTINUOUS
 10
180.3770583738
 20
118.5656969626
 11
180.1240043559
 21
118.5656969626
  0
LINE
  5
34B
100
AcDbEntity
  8
0
100
AcDbLine
 62
7
  6
CONTINUOUS
 10
227.1136937826
 20
118.5656969626
 11
227.8851206913
 21
118.5656969626
  0
LINE
  5
34C
100
AcDbEntity
  8
0
100
AcDbLine
 62
7
  6
CONTINUOUS
 10
228.1522107245
 20
118.5656969626
 11
228.6827318165
 21
118.5656969626
  0
LINE
  5
34D
100
AcDbEntity
  8
0
100
AcDbLine
 62
7
  6
CONTINUOUS
 10
228.816592357
 20
118.5656969626
 11
229.112024321
 21
118.5656969626
  0
LINE
  5
34E
100
AcDbEntity
  8
0
100
AcDbLine
 62
7
  6
CONTINUOUS
 10
180.2029092405
 20
119.0125054199
 11
179.9934381793
 21
119.0125054199
  0
LINE
  5
34F
100
AcDbEntity
  8
0
100
AcDbLine
 62
7
  6
CONTINUOUS
 10
228.2406568809
 20
119.0125054199
 11
228.7719895838
 21
119.0125054199
  0
LINE
  5
350
100
AcDbEntity
  8
0
100
AcDbLine
 62
7
  6
CONTINUOUS
 10
181.4962721719
 20
119.1614415724
 11
180.2729494627
 21
119.1614415724
  0
LINE
  5
351
100
AcDbEntity
  8
0
100
AcDbLine
 62
7
  6
CONTINUOUS
 10
227.35506609
 20
119.1614415724
 11
227.9036410695
 21
119.1614415724
  0
LINE
  5
352
100
AcDbEntity
  8
0
100
AcDbLine
 62
7
  6
CONTINUOUS
 10
228.980763827
 20
119.1614415724
 11
229.2948402341
 21
119.1614415724
  0
LINE
  5
353
100
AcDbEntity
  8
0
100
AcDbLine
 62
7
  6
CONTINUOUS
 10
180.0623577044
 20
119.3103777248
 11
179.9164177074
 21
119.3103777248
  0
LINE
  5
354
100
AcDbEntity
  8
0
100
AcDbLine
 62
7
  6
CONTINUOUS
 10
228.3253703646
 20
119.3103777248
 11
228.7850129804
 21
119.3103777248
  0
LINE
  5
355
100
AcDbEntity
  8
0
100
AcDbLine
 62
7
  6
CONTINUOUS
 10
179.9076833912
 20
119.4593138773
 11
179.9492723586
 21
119.4593138773
  0
LINE
  5
356
100
AcDbEntity
  8
0
100
AcDbLine
 62
7
  6
CONTINUOUS
 10
228.5533523089
 20
119.4593138773
 11
228.6843134206
 21
119.4593138773
  0
LINE
  5
357
100
AcDbEntity
  8
0
100
AcDbLine
 62
7
  6
CONTINUOUS
 10
180.5358876963
 20
119.7571861822
 11
180.0086355686
 21
119.7571861822
  0
LINE
  5
358
100
AcDbEntity
  8
0
100
AcDbLine
 62
7
  6
CONTINUOUS
 10
227.7252160585
 20
119.7571861822
 11
228.2700064571
 21
119.7571861822
  0
LINE
  5
359
100
AcDbEntity
  8
0
100
AcDbLine
 62
7
  6
CONTINUOUS
 10
229.0776748882
 20
119.7571861822
 11
229.4729771316
 21
119.7571861822
  0
LINE
  5
35A
100
AcDbEntity
  8
0
100
AcDbLine
 62
7
  6
CONTINUOUS
 10
180.374362311
 20
120.0550584871
 11
179.8483376125
 21
120.0550584871
  0
LINE
  5
35B
100
AcDbEntity
  8
0
100
AcDbLine
 62
7
  6
CONTINUOUS
 10
227.9840042895
 20
120.0550584871
 11
228.5255848693
 21
120.0550584871
  0
LINE
  5
35C
100
AcDbEntity
  8
0
100
AcDbLine
 62
7
  6
CONTINUOUS
 10
229.0718199705
 20
120.0550584871
 11
229.5494504246
 21
120.0550584871
  0
LINE
  5
35D
100
AcDbEntity
  8
0
100
AcDbLine
 62
7
  6
CONTINUOUS
 10
180.2336803234
 20
120.2039946396
 11
179.7092810582
 21
120.2039946396
  0
LINE
  5
35E
100
AcDbEntity
  8
0
100
AcDbLine
 62
7
  6
CONTINUOUS
 10
228.2861913726
 20
120.2039946396
 11
228.9497474957
 21
120.2039946396
  0
LINE
  5
35F
100
AcDbEntity
  8
0
100
AcDbLine
 62
7
  6
CONTINUOUS
 10
229.0908188654
 20
120.2039946396
 11
229.5439449361
 21
120.2039946396
  0
LINE
  5
360
100
AcDbEntity
  8
0
100
AcDbLine
 62
7
  6
CONTINUOUS
 10
189.9663200065
 20
107.2039946396
 11
189.9663200065
 21
106.8289946396
  0
LINE
  5
361
100
AcDbEntity
  8
0
100
AcDbLine
 62
7
  6
CONTINUOUS
 10
190.7599135459
 20
128.3224370082
 11
190.7599135459
 21
129.3289946396
  0
LINE
  5
362
100
AcDbEntity
  8
0
100
AcDbLine
 62
7
  6
CONTINUOUS
 10
190.7599135459
 20
129.3289946396
 11
192.9443711817
 21
129.3289946396
  0
LINE
  5
363
100
AcDbEntity
  8
0
100
AcDbLine
 62
7
  6
CONTINUOUS
 10
216.2882688313
 20
129.3289946396
 11
218.472726467
 21
129.3289946396
  0
LINE
  5
364
100
AcDbEntity
  8
0
100
AcDbLine
 62
7
  6
CONTINUOUS
 10
223.7478227646
 20
126.402458973
 11
223.0730880673
 21
126.6480423188
  0
LINE
  5
365
100
AcDbEntity
  8
RUNDUNGEN
100
AcDbLine
 62
7
  6
CONTINUOUS
 10
227.5856876172
 20
125.0055904035
 11
217.8801998687
 21
128.538099053
  0
LINE
  5
366
100
AcDbEntity
  8
BEZUGSACHSEN
100
AcDbLine
 62
7
  6
CONTINUOUS
 10
196.6163200065
 20
136.0558124483
 11
196.6163200065
 21
178.4568180387
  0
LINE
  5
367
100
AcDbEntity
  8
RUNDUNGEN
100
AcDbLine
 62
7
  6
CONTINUOUS
 10
212.6163200065
 20
136.0558124483
 11
212.6163200065
 21
178.4568180387
  0
LINE
  5
368
100
AcDbEntity
  8
0
100
AcDbLine
 62
7
  6
CONTINUOUS
 10
213.1163200065
 20
174.7039946396
 11
213.1163200065
 21
170.7039946396
  0
LINE
  5
369
100
AcDbEntity
  8
0
100
AcDbLine
 62
7
  6
CONTINUOUS
 10
218.472726467
 20
128.3224370082
 11
218.472726467
 21
129.3289946396
  0
LINE
  5
36A
100
AcDbEntity
  8
0
100
AcDbLine
 62
7
  6
CONTINUOUS
 10
219.2663200065
 20
107.2039946396
 11
219.2663200065
 21
106.8289946396
  0
LINE
  5
36B
100
AcDbEntity
  8
0
100
AcDbLine
 62
7
  6
CONTINUOUS
 10
212.6163200065
 20
170.7039946396
 11
213.1163200065
 21
170.7039946396
  0
LINE
  5
36C
100
AcDbEntity
  8
0
100
AcDbLine
 62
7
  6
CONTINUOUS
 10
185.4848167967
 20
126.4024588086
 11
186.1595519457
 21
126.6480423188
  0
LINE
  5
36D
100
AcDbEntity
  8
BEZUGSACHSEN
100
AcDbLine
 62
7
  6
CONTINUOUS
 10
181.6469523957
 20
125.0055904035
 11
191.3524401443
 21
128.538099053
  0
LINE
  5
36E
100
AcDbEntity
  8
0
100
AcDbLine
 62
7
  6
CONTINUOUS
 10
212.6163200065
 20
174.7039946396
 11
213.1163200065
 21
174.7039946396
  0
LINE
  5
36F
100
AcDbEntity
  8
0
100
AcDbLine
 62
7
  6
CONTINUOUS
 10
225.1163200065
 20
107.2039946396
 11
226.677497955
 21
112.3103776205
  0
LINE
  5
370
100
AcDbEntity
  8
0
100
AcDbLine
 62
7
  6
CONTINUOUS
 10
227.178375884
 20
113.9486755062
 11
227.212526829
 21
114.0603782141
  0
LINE
  5
371
100
AcDbEntity
  8
0
100
AcDbLine
 62
7
  6
CONTINUOUS
 10
227.4515820242
 20
114.8422925253
 11
227.9412892534
 21
116.444052698
  0
LINE
  5
372
100
AcDbEntity
  8
0
100
AcDbLine
 62
7
  6
CONTINUOUS
 10
229.0529649658
 20
120.0801801128
 11
229.4287519194
 21
121.309323854
  0
LINE
  5
373
100
AcDbEntity
  8
0
100
AcDbLine
 62
7
  6
CONTINUOUS
 10
229.3176919268
 20
119.235909496
 11
229.2948402341
 21
119.1614415724
  0
LINE
  5
374
100
AcDbEntity
  8
RUNDUNGEN
100
AcDbLine
 62
7
  6
CONTINUOUS
 10
209.6163200065
 20
181.4568180387
 11
199.6163200065
 21
181.4568180387
  0
LWPOLYLINE
  5
375
100
AcDbEntity
  8
BEZUGSACHSEN
100
AcDbPolyline
 62
7
  6
CONTINUOUS
 90
7
 70
0
 10
62.6540441417
 20
61.6333987391
 10
62.5258792383
 20
60.7788300559
 10
62.3922915814
 20
59.7863871598
 10
62.2749887849
 20
58.795030277
 10
62.1738339489
 20
57.8063281893
 10
62.0886251654
 20
56.8218415299
 10
62.0404639893
 20
56.1676229153
  0
LWPOLYLINE
  5
376
100
AcDbEntity
  8
RUNDUNGEN
100
AcDbPolyline
 62
7
  6
CONTINUOUS
 90
7
 70
0
 10
62.0404639893
 20
56.1676219127
 10
62.0886251654
 20
55.5134032982
 10
62.1738339489
 20
54.5289166387
 10
62.2749887849
 20
53.540214551
 10
62.3922915814
 20
52.5488576682
 10
62.5258792383
 20
51.5564147721
 10
62.6540441417
 20
50.7018460889
  0
LWPOLYLINE
  5
377
100
AcDbEntity
  8
BEZUGSACHSEN
100
AcDbPolyline
 62
7
  6
CONTINUOUS
 90
11
 70
0
 10
73.4050089818
 20
68.5606023028
 10
71.9898960585
 20
66.9298448044
 10
71.5858785365
 20
66.4713770467
 10
71.2119033771
 20
66.0557669229
 10
70.8662572847
 20
65.6826998769
 10
70.548042917
 20
65.3520494888
 10
70.2565962638
 20
65.0632301118
 10
69.9922016766
 20
64.8159028771
 10
69.7552564599
 20
64.609079824
 10
69.547951091
 20
64.4424823594
 10
69.3724352356
 20
64.3146909739
  0
LWPOLYLINE
  5
378
100
AcDbEntity
  8
BEZUGSACHSEN
100
AcDbPolyline
 62
7
  6
CONTINUOUS
 90
4
 70
0
 10
75.0786908598
 20
70.4369503111
 10
74.5514187606
 20
69.8576133379
 10
73.9550232289
 20
69.1882962779
 10
73.4050089818
 20
68.5606023028
  0
LINE
  5
379
100
AcDbEntity
  8
BEZUGSACHSEN
100
AcDbLine
 62
7
  6
CONTINUOUS
 10
75.0786908598
 20
70.4369503111
 11
75.0787363529
 21
70.4369997529
  0
LINE
  5
37A
100
AcDbEntity
  8
BEZUGSACHSEN
100
AcDbLine
 62
7
  6
CONTINUOUS
 10
69.3724352356
 20
64.3146909739
 11
69.2327183823
 21
64.2243462769
  0
LINE
  5
37B
100
AcDbEntity
  8
BEZUGSACHSEN
100
AcDbLine
 62
7
  6
CONTINUOUS
 10
69.2327183823
 20
64.2243462769
 11
69.1778463828
 21
64.1924990238
  0
LINE
  5
37C
100
AcDbEntity
  8
0
100
AcDbLine
 62
7
  6
CONTINUOUS
 10
100.0193204591
 20
70.0240288746
 11
89.8757269197
 21
64.167622414
  0
LWPOLYLINE
  5
37D
100
AcDbEntity
  8
RUNDUNGEN
100
AcDbPolyline
 62
7
  6
CONTINUOUS
 90
4
 70
0
 10
73.4068545515
 20
43.772523443
 10
73.9559700444
 20
43.1458756827
 10
74.551770635
 20
42.4772407618
 10
75.0786910203
 20
41.8982943424
  0
LINE
  5
37E
100
AcDbEntity
  8
RUNDUNGEN
100
AcDbLine
 62
7
  6
CONTINUOUS
 10
71.9938307425
 20
45.4009005417
 11
73.4068545515
 21
43.772523443
  0
LWPOLYLINE
  5
37F
100
AcDbEntity
  8
RUNDUNGEN
100
AcDbPolyline
 62
7
  6
CONTINUOUS
 90
31
 70
0
 10
75.0787361489
 20
41.898244887
 10
76.2410888213
 20
40.7003645353
 10
77.5827921832
 20
39.4615550124
 10
79.0005027913
 20
38.2952630751
 10
80.4896814924
 20
37.2060151376
 10
82.0456756488
 20
36.1979165665
 10
83.6632861962
 20
35.2746760512
 10
85.3371495402
 20
34.4397345671
 10
87.0614247196
 20
33.6961087041
 10
88.830238994
 20
33.0464825768
 10
90.6373513886
 20
32.4931144906
 10
92.4764788435
 20
32.0379605294
 10
94.3413230554
 20
31.6824819318
 10
96.2255294858
 20
31.427882438
 10
98.1226645057
 20
31.2749318897
 10
100.0262739312
 20
31.2241575073
 10
101.9298601184
 20
31.275678775
 10
103.8269255067
 20
31.4293740019
 10
105.7110158431
 20
31.6847136764
 10
107.575697756
 20
32.0409256352
 10
109.4146170515
 20
32.4968035658
 10
111.221475685
 20
33.0508837062
 10
112.9899904381
 20
33.7012068526
 10
114.7139208593
 20
34.4455117754
 10
116.3873954576
 20
35.281111169
 10
118.0045742613
 20
36.2049851129
 10
119.5600966265
 20
37.213689772
 10
121.048767267
 20
38.3035149959
 10
122.4659378807
 20
39.4703536423
 10
123.807070363
 20
40.709675276
 10
124.9599029395
 20
41.8982429032
  0
LINE
  5
380
100
AcDbEntity
  8
RUNDUNGEN
100
AcDbLine
 62
7
  6
CONTINUOUS
 10
75.0786910203
 20
41.8982943424
 11
75.0787363529
 21
41.8982450751
  0
LINE
  5
381
100
AcDbEntity
  8
RUNDUNGEN
100
AcDbLine
 62
7
  6
CONTINUOUS
 10
69.132867521
 20
48.166814503
 11
69.2325084252
 21
48.1110248839
  0
LINE
  5
382
100
AcDbEntity
  8
RUNDUNGEN
100
AcDbLine
 62
7
  6
CONTINUOUS
 10
69.2325084252
 20
48.1110248839
 11
69.3722598213
 21
48.020674303
  0
LWPOLYLINE
  5
383
100
AcDbEntity
  8
RUNDUNGEN
100
AcDbPolyline
 62
7
  6
CONTINUOUS
 90
10
 70
0
 10
69.3722598213
 20
48.020674303
 10
69.5479410194
 20
47.8927701824
 10
69.7556145117
 20
47.7258647463
 10
69.993086044
 20
47.5185417208
 10
70.2581586866
 20
47.2705083466
 10
70.5503398154
 20
46.9808613735
 10
70.8692610836
 20
46.6493595631
 10
71.2154884296
 20
46.275546241
 10
71.5897901345
 20
45.8594692706
 10
71.9938307425
 20
45.4009005417
  0
LINE
  5
384
100
AcDbEntity
  8
0
100
AcDbLine
 62
7
  6
CONTINUOUS
 10
94.6026525209
 20
48.167622414
 11
94.6026525209
 21
47.667622414
  0
LINE
  5
385
100
AcDbEntity
  8
0
100
AcDbLine
 62
7
  6
CONTINUOUS
 10
96.6026525209
 20
48.167622414
 11
96.6026525209
 21
47.667622414
  0
LINE
  5
386
100
AcDbEntity
  8
0
100
AcDbLine
 62
7
  6
CONTINUOUS
 10
97.019319267
 20
48.167622414
 11
97.019319267
 21
47.667622414
  0
LINE
  5
387
100
AcDbEntity
  8
0
100
AcDbLine
 62
7
  6
CONTINUOUS
 10
97.3526525209
 20
48.167622414
 11
97.3526525209
 21
47.667622414
  0
LINE
  5
388
100
AcDbEntity
  8
0
100
AcDbLine
 62
7
  6
CONTINUOUS
 10
97.6026525209
 20
48.167622414
 11
97.6026525209
 21
47.667622414
  0
LINE
  5
389
100
AcDbEntity
  8
0
100
AcDbLine
 62
7
  6
CONTINUOUS
 10
97.6130698631
 20
81.0192284719
 11
97.6130698631
 21
81.0746613623
  0
LINE
  5
38A
100
AcDbEntity
  8
0
100
AcDbLine
 62
7
  6
CONTINUOUS
 10
97.6859857748
 20
48.167622414
 11
97.6859857748
 21
47.667622414
  0
LINE
  5
38B
100
AcDbEntity
  8
0
100
AcDbLine
 62
7
  6
CONTINUOUS
 10
97.769319267
 20
48.167622414
 11
97.769319267
 21
47.667622414
  0
LINE
  5
38C
100
AcDbEntity
  8
0
100
AcDbLine
 62
7
  6
CONTINUOUS
 10
97.9047370861
 20
81.0427432251
 11
97.9047370861
 21
81.0952473436
  0
LINE
  5
38D
100
AcDbEntity
  8
0
100
AcDbLine
 62
7
  6
CONTINUOUS
 10
98.4359857748
 20
48.167622414
 11
98.4359857748
 21
47.667622414
  0
LINE
  5
38E
100
AcDbEntity
  8
0
100
AcDbLine
 62
7
  6
CONTINUOUS
 10
98.9359860132
 20
48.167622414
 11
98.9359860132
 21
47.667622414
  0
LINE
  5
38F
100
AcDbEntity
  8
0
100
AcDbLine
 62
7
  6
CONTINUOUS
 10
99.0193190286
 20
48.167622414
 11
99.0193190286
 21
47.667622414
  0
LINE
  5
390
100
AcDbEntity
  8
0
100
AcDbLine
 62
7
  6
CONTINUOUS
 10
99.1859860132
 20
48.167622414
 11
99.1859860132
 21
47.667622414
  0
LINE
  5
391
100
AcDbEntity
  8
0
100
AcDbLine
 62
7
  6
CONTINUOUS
 10
99.4359860132
 20
48.167622414
 11
99.4359860132
 21
47.667622414
  0
LINE
  5
392
100
AcDbEntity
  8
0
100
AcDbLine
 62
7
  6
CONTINUOUS
 10
99.7693190286
 20
48.167622414
 11
99.7693190286
 21
47.667622414
  0
LINE
  5
393
100
AcDbEntity
  8
0
100
AcDbLine
 62
7
  6
CONTINUOUS
 10
100.1026525209
 20
48.167622414
 11
100.1026525209
 21
47.667622414
  0
LINE
  5
394
100
AcDbEntity
  8
0
100
AcDbLine
 62
7
  6
CONTINUOUS
 10
100.4359860132
 20
48.167622414
 11
100.4359860132
 21
47.667622414
  0
LINE
  5
395
100
AcDbEntity
  8
0
100
AcDbLine
 62
7
  6
CONTINUOUS
 10
100.6859860132
 20
48.167622414
 11
100.6859860132
 21
47.667622414
  0
LINE
  5
396
100
AcDbEntity
  8
0
100
AcDbLine
 62
7
  6
CONTINUOUS
 10
89.8757269197
 20
48.167622414
 11
100.0193204591
 21
42.3112159535
  0
LINE
  5
397
100
AcDbEntity
  8
0
100
AcDbLine
 62
7
  6
CONTINUOUS
 10
100.8526525209
 20
48.167622414
 11
100.8526525209
 21
47.667622414
  0
LINE
  5
398
100
AcDbEntity
  8
0
100
AcDbLine
 62
7
  6
CONTINUOUS
 10
100.9359860132
 20
48.167622414
 11
100.9359860132
 21
47.667622414
  0
LINE
  5
399
100
AcDbEntity
  8
0
100
AcDbLine
 62
7
  6
CONTINUOUS
 10
101.4359860132
 20
48.167622414
 11
101.4359860132
 21
47.667622414
  0
LINE
  5
39A
100
AcDbEntity
  8
0
100
AcDbLine
 62
7
  6
CONTINUOUS
 10
102.1026525209
 20
48.167622414
 11
102.1026525209
 21
47.667622414
  0
LINE
  5
39B
100
AcDbEntity
  8
0
100
AcDbLine
 62
7
  6
CONTINUOUS
 10
102.1339038322
 20
31.2922098577
 11
102.1339038322
 21
31.2399974844
  0
LINE
  5
39C
100
AcDbEntity
  8
0
100
AcDbLine
 62
7
  6
CONTINUOUS
 10
102.4255710552
 20
31.3158399657
 11
102.4255710552
 21
31.2605834658
  0
LINE
  5
39D
100
AcDbEntity
  8
0
100
AcDbLine
 62
7
  6
CONTINUOUS
 10
104.1026525209
 20
48.167622414
 11
104.1026525209
 21
47.667622414
  0
LINE
  5
39E
100
AcDbEntity
  8
0
100
AcDbLine
 62
7
  6
CONTINUOUS
 10
104.5193195055
 20
48.167622414
 11
104.5193195055
 21
47.667622414
  0
LINE
  5
39F
100
AcDbEntity
  8
0
100
AcDbLine
 62
7
  6
CONTINUOUS
 10
104.8526525209
 20
48.167622414
 11
104.8526525209
 21
47.667622414
  0
LINE
  5
3A0
100
AcDbEntity
  8
0
100
AcDbLine
 62
7
  6
CONTINUOUS
 10
105.1859855363
 20
48.167622414
 11
105.1859855363
 21
47.667622414
  0
LINE
  5
3A1
100
AcDbEntity
  8
0
100
AcDbLine
 62
7
  6
CONTINUOUS
 10
105.3526525209
 20
48.167622414
 11
105.3526525209
 21
47.667622414
  0
LINE
  5
3A2
100
AcDbEntity
  8
0
100
AcDbLine
 62
7
  6
CONTINUOUS
 10
105.4359855363
 20
48.167622414
 11
105.4359855363
 21
47.667622414
  0
LINE
  5
3A3
100
AcDbEntity
  8
0
100
AcDbLine
 62
7
  6
CONTINUOUS
 10
100.0193204591
 20
42.3112159535
 11
110.1629139986
 21
48.167622414
  0
LINE
  5
3A4
100
AcDbEntity
  8
0
100
AcDbLine
 62
7
  6
CONTINUOUS
 10
105.4359855363
 20
47.667622414
 11
102.1026525209
 21
47.667622414
  0
LINE
  5
3A5
100
AcDbEntity
  8
0
100
AcDbLine
 62
7
  6
CONTINUOUS
 10
101.4359860132
 20
47.667622414
 11
98.4359857748
 21
47.667622414
  0
LINE
  5
3A6
100
AcDbEntity
  8
0
100
AcDbLine
 62
7
  6
CONTINUOUS
 10
97.769319267
 20
47.667622414
 11
94.6026525209
 21
47.667622414
  0
LINE
  5
3A7
100
AcDbEntity
  8
RUNDUNGEN
100
AcDbLine
 62
7
  6
CONTINUOUS
 10
65.6176656821
 20
48.167622414
 11
134.4209750699
 21
48.167622414
  0
LINE
  5
3A8
100
AcDbEntity
  8
RUNDUNGEN
100
AcDbLine
 62
7
  6
CONTINUOUS
 10
130.6694627343
 20
48.0227877186
 11
130.8084742489
 21
48.1124317522
  0
LINE
  5
3A9
100
AcDbEntity
  8
RUNDUNGEN
100
AcDbLine
 62
7
  6
CONTINUOUS
 10
130.8084742489
 20
48.1124317522
 11
130.8629327454
 21
48.1439354822
  0
LWPOLYLINE
  5
3AA
100
AcDbEntity
  8
RUNDUNGEN
100
AcDbPolyline
 62
7
  6
CONTINUOUS
 90
11
 70
0
 10
126.6398380148
 20
43.7817688771
 10
128.0513967398
 20
45.4084322581
 10
128.4550919627
 20
45.8664869065
 10
128.8290961966
 20
46.2820639768
 10
129.1750554753
 20
46.6553773921
 10
129.4937041474
 20
46.9863502847
 10
129.7855800111
 20
47.2754214313
 10
130.0502885742
 20
47.5228227853
 10
130.2873052374
 20
47.7294502883
 10
130.4944329229
 20
47.8956264982
 10
130.6694627343
 20
48.0227877186
  0
LWPOLYLINE
  5
3AB
100
AcDbEntity
  8
RUNDUNGEN
100
AcDbPolyline
 62
7
  6
CONTINUOUS
 90
4
 70
0
 10
124.9599457034
 20
41.8982897843
 10
125.4960235998
 20
42.4874064959
 10
126.0912841329
 20
43.1556366991
 10
126.6398380148
 20
43.7817688771
  0
LINE
  5
3AC
100
AcDbEntity
  8
RUNDUNGEN
100
AcDbLine
 62
7
  6
CONTINUOUS
 10
124.9599459057
 20
41.8982895975
 11
124.9599029395
 21
41.8982429032
  0
LINE
  5
3AD
100
AcDbEntity
  8
BEZUGSACHSEN
100
AcDbLine
 62
7
  6
CONTINUOUS
 10
65.6176656821
 20
64.167622414
 11
134.4209750699
 21
64.167622414
  0
LINE
  5
3AE
100
AcDbEntity
  8
0
100
AcDbLine
 62
7
  6
CONTINUOUS
 10
110.1629139986
 20
64.167622414
 11
100.0193204591
 21
70.0240288746
  0
LINE
  5
3AF
100
AcDbEntity
  8
BEZUGSACHSEN
100
AcDbLine
 62
7
  6
CONTINUOUS
 10
130.9071421902
 20
64.1677324618
 11
130.8082671994
 21
64.2229373041
  0
LINE
  5
3B0
100
AcDbEntity
  8
BEZUGSACHSEN
100
AcDbLine
 62
7
  6
CONTINUOUS
 10
130.8082671994
 20
64.2229373041
 11
130.6692898642
 21
64.312575534
  0
LWPOLYLINE
  5
3B1
100
AcDbEntity
  8
BEZUGSACHSEN
100
AcDbPolyline
 62
7
  6
CONTINUOUS
 90
10
 70
0
 10
130.6692898642
 20
64.312575534
 10
130.4944244999
 20
64.4396247685
 10
130.2876633104
 20
64.6054947439
 10
130.0511709167
 20
64.8116246907
 10
129.7871380423
 20
65.0583228545
 10
129.4959944389
 20
65.3465692497
 10
129.1780510417
 20
65.676692847
 10
128.8326724287
 20
66.0492607554
 10
128.4589958334
 20
66.4643695766
 10
128.0553267507
 20
66.9223193431
  0
LWPOLYLINE
  5
3B2
100
AcDbEntity
  8
BEZUGSACHSEN
100
AcDbPolyline
 62
7
  6
CONTINUOUS
 90
7
 70
0
 10
137.9981759673
 20
56.1676232258
 10
137.9489994506
 20
56.8347344211
 10
137.8636060757
 20
57.8190223812
 10
137.762268938
 20
58.8075788103
 10
137.6447752008
 20
59.7988225936
 10
137.5109933738
 20
60.7911954181
 10
137.3845991933
 20
61.6333815653
  0
LWPOLYLINE
  5
3B3
100
AcDbEntity
  8
RUNDUNGEN
100
AcDbPolyline
 62
7
  6
CONTINUOUS
 90
7
 70
0
 10
137.3845991933
 20
50.7018632627
 10
137.5109933738
 20
51.5440494099
 10
137.6447752008
 20
52.5364222344
 10
137.762268938
 20
53.5276660178
 10
137.8636060757
 20
54.5162224469
 10
137.9489994506
 20
55.5005104069
 10
137.9981759673
 20
56.1676216023
  0
LWPOLYLINE
  5
3B4
100
AcDbEntity
  8
BEZUGSACHSEN
100
AcDbPolyline
 62
7
  6
CONTINUOUS
 90
31
 70
0
 10
124.9599029395
 20
70.4370019248
 10
123.807070363
 20
71.625569552
 10
122.4659378807
 20
72.8648911857
 10
121.048767267
 20
74.0317298321
 10
119.5600966265
 20
75.121555056
 10
118.0045742613
 20
76.1302597151
 10
116.3873954576
 20
77.054133659
 10
114.7139208593
 20
77.8897330526
 10
112.9899904381
 20
78.6340379754
 10
111.221475685
 20
79.2843611218
 10
109.4146170515
 20
79.8384412622
 10
107.575697756
 20
80.2943191928
 10
105.7110158431
 20
80.6505311517
 10
103.8269255067
 20
80.9058708262
 10
101.9298601184
 20
81.0595660531
 10
100.0262739312
 20
81.1110873207
 10
98.1226645057
 20
81.0603129384
 10
96.2255294858
 20
80.90736239
 10
94.3413230554
 20
80.6527628963
 10
92.4764788435
 20
80.2972842986
 10
90.6373513886
 20
79.8421303374
 10
88.830238994
 20
79.2887622512
 10
87.0614247196
 20
78.6391361239
 10
85.3371495402
 20
77.8955102609
 10
83.6632861962
 20
77.0605687768
 10
82.0456756488
 20
76.1373282615
 10
80.4896814924
 20
75.1292296904
 10
79.0005027913
 20
74.0399817529
 10
77.5827921832
 20
72.8736898156
 10
76.2410888213
 20
71.6348802927
 10
75.0787361489
 20
70.436999941
  0
LINE
  5
3B5
100
AcDbEntity
  8
BEZUGSACHSEN
100
AcDbLine
 62
7
  6
CONTINUOUS
 10
124.9599460551
 20
70.4369550681
 11
124.9599029395
 21
70.4370019248
  0
LWPOLYLINE
  5
3B6
100
AcDbEntity
  8
BEZUGSACHSEN
100
AcDbPolyline
 62
7
  6
CONTINUOUS
 90
4
 70
0
 10
126.6416994994
 20
68.5513382833
 10
126.0922497438
 20
69.17851369
 10
125.4963887991
 20
69.8474326661
 10
124.9599458528
 20
70.4369548813
  0
LINE
  5
3B7
100
AcDbEntity
  8
BEZUGSACHSEN
100
AcDbLine
 62
7
  6
CONTINUOUS
 10
128.0553267507
 20
66.9223193431
 11
126.6416994994
 21
68.5513382833
  0
ARC
  5
3B8
100
AcDbEntity
  8
0
100
AcDbCircle
 62
7
  6
CONTINUOUS
 10
100.0193204591
 20
144.7039946396
 40
20.0
100
AcDbArc
 50
200.2387958486
 51
201.5020210555
  0
ARC
  5
3B9
100
AcDbEntity
  8
0
100
AcDbCircle
 62
7
  6
CONTINUOUS
 10
100.0193204591
 20
144.7039946396
 40
20.0
100
AcDbArc
 50
338.4979766964
 51
339.7612041514
  0
ARC
  5
3BA
100
AcDbEntity
  8
RUNDUNGEN
100
AcDbCircle
 62
7
  6
CONTINUOUS
 10
100.0193204591
 20
144.7039946396
 40
20.0
100
AcDbArc
 50
339.7612041514
 51
200.2387958487
  0
ARC
  5
3BB
100
AcDbEntity
  8
BEZUGSACHSEN
100
AcDbCircle
 62
7
  6
CONTINUOUS
 10
134.0193204591
 20
107.2039946396
 40
13.5
100
AcDbArc
 50
115.5926053686
 51
180.0
  0
ARC
  5
3BC
100
AcDbEntity
  8
BEZUGSACHSEN
100
AcDbCircle
 62
7
  6
CONTINUOUS
 10
66.0193204591
 20
107.2039946396
 40
13.5
100
AcDbArc
 50
0.0
 51
64.2563231088
  0
ARC
  5
3BD
100
AcDbEntity
  8
BEZUGSACHSEN
100
AcDbCircle
 62
7
  6
CONTINUOUS
 10
63.1159297677
 20
132.4644754905
 40
3.0628110716
100
AcDbArc
 50
345.5606613604
 51
22.4209765917
  0
ARC
  5
3BE
100
AcDbEntity
  8
BEZUGSACHSEN
100
AcDbCircle
 62
7
  6
CONTINUOUS
 10
136.922711127
 20
132.4644754735
 40
3.0628110501
100
AcDbArc
 50
157.579022951
 51
194.4393384409
  0
ARC
  5
3BF
100
AcDbEntity
  8
BEZUGSACHSEN
100
AcDbCircle
 62
7
  6
CONTINUOUS
 10
130.9502255959
 20
118.2000137417
 40
3.0038635468
100
AcDbArc
 50
89.9481794165
 51
156.8794668111
  0
ARC
  5
3C0
100
AcDbEntity
  8
BEZUGSACHSEN
100
AcDbCircle
 62
7
  6
CONTINUOUS
 10
69.088417364
 20
118.2000143369
 40
3.0038617079
100
AcDbArc
 50
23.12053298
 51
90.0518595554
  0
ARC
  5
3C1
100
AcDbEntity
  8
RUNDUNGEN
100
AcDbCircle
 62
7
  6
CONTINUOUS
 10
124.858442593
 20
168.1681167734
 40
3.0
100
AcDbArc
 50
22.5
 51
67.5
  0
ARC
  5
3C2
100
AcDbEntity
  8
RUNDUNGEN
100
AcDbCircle
 62
7
  6
CONTINUOUS
 10
100.0193204591
 20
178.4568180387
 40
3.0
100
AcDbArc
 50
67.5
 51
112.5
  0
ARC
  5
3C3
100
AcDbEntity
  8
RUNDUNGEN
100
AcDbCircle
 62
7
  6
CONTINUOUS
 10
75.1801983253
 20
168.1681167734
 40
3.0
100
AcDbArc
 50
112.5
 51
157.5
  0
ARC
  5
3C4
100
AcDbEntity
  8
BEZUGSACHSEN
100
AcDbCircle
 62
7
  6
CONTINUOUS
 10
68.0193204591
 20
131.2039946396
 40
2.0
100
AcDbArc
 50
165.618507725
 51
180.0
  0
ARC
  5
3C5
100
AcDbEntity
  8
BEZUGSACHSEN
100
AcDbCircle
 62
7
  6
CONTINUOUS
 10
132.0193204591
 20
131.2039946396
 40
2.0
100
AcDbArc
 50
0.0
 51
14.381492275
  0
ARC
  5
3C6
100
AcDbEntity
  8
BEZUGSACHSEN
100
AcDbCircle
 62
7
  6
CONTINUOUS
 10
132.0193204591
 20
123.2039946396
 40
2.0
100
AcDbArc
 50
270.0
 51
360.0
  0
ARC
  5
3C7
100
AcDbEntity
  8
RUNDUNGEN
100
AcDbCircle
 62
7
  6
CONTINUOUS
 10
68.0193204591
 20
131.2039946396
 40
2.0
100
AcDbArc
 50
165.618507725
 51
180.0
  0
ARC
  5
3C8
100
AcDbEntity
  8
RUNDUNGEN
100
AcDbCircle
 62
7
  6
CONTINUOUS
 10
132.0193204591
 20
131.2039946396
 40
2.0
100
AcDbArc
 50
0.0
 51
14.381492275
  0
ARC
  5
3C9
100
AcDbEntity
  8
BEZUGSACHSEN
100
AcDbCircle
 62
7
  6
CONTINUOUS
 10
68.0193204591
 20
123.2039946396
 40
2.0
100
AcDbArc
 50
180.0
 51
270.0
  0
ARC
  5
3CA
100
AcDbEntity
  8
0
100
AcDbCircle
 62
7
  6
CONTINUOUS
 10
3.1221137197
 20
209.3678995544
 40
242.2063997903
100
AcDbArc
 50
337.9821168572
 51
338.1340504427
  0
ARC
  5
3CB
100
AcDbEntity
  8
0
100
AcDbCircle
 62
7
  6
CONTINUOUS
 10
10.2803160852
 20
206.7648311656
 40
234.085029333
100
AcDbArc
 50
337.8654770686
 51
338.0228082094
  0
ARC
  5
3CC
100
AcDbEntity
  8
0
100
AcDbCircle
 62
7
  6
CONTINUOUS
 10
116.0585194907
 20
157.731150835
 40
119.5409065172
100
AcDbArc
 50
339.2803181554
 51
339.5852972084
  0
ARC
  5
3CD
100
AcDbEntity
  8
0
100
AcDbCircle
 62
7
  6
CONTINUOUS
 10
120.6427128965
 20
160.8105279806
 40
116.0278977832
100
AcDbArc
 50
338.1737143023
 51
338.4902675539
  0
ARC
  5
3CE
100
AcDbEntity
  8
0
100
AcDbCircle
 62
7
  6
CONTINUOUS
 10
122.5540328703
 20
160.0302572289
 40
113.4700908789
100
AcDbArc
 50
338.0808314786
 51
338.4047211546
  0
ARC
  5
3CF
100
AcDbEntity
  8
0
100
AcDbCircle
 62
7
  6
CONTINUOUS
 10
123.857937548
 20
148.629829161
 40
109.443736694
100
AcDbArc
 50
341.0687634919
 51
341.5174736023
  0
ARC
  5
3D0
100
AcDbEntity
  8
0
100
AcDbCircle
 62
7
  6
CONTINUOUS
 10
127.294074698
 20
148.8697047279
 40
106.2244060962
100
AcDbArc
 50
340.3455318692
 51
340.8072163797
  0
ARC
  5
3D1
100
AcDbEntity
  8
0
100
AcDbCircle
 62
7
  6
CONTINUOUS
 10
126.9826638082
 20
147.5579393107
 40
106.1402745661
100
AcDbArc
 50
340.6046425065
 51
341.0688417915
  0
ARC
  5
3D2
100
AcDbEntity
  8
0
100
AcDbCircle
 62
7
  6
CONTINUOUS
 10
130.4561191767
 20
147.7399622418
 40
102.866602299
100
AcDbArc
 50
339.8669462969
 51
340.3345153599
  0
ARC
  5
3D3
100
AcDbEntity
  8
0
100
AcDbCircle
 62
7
  6
CONTINUOUS
 10
131.8923831203
 20
147.1367242894
 40
100.816546214
100
AcDbArc
 50
339.791173762
 51
340.3314029016
  0
ARC
  5
3D4
100
AcDbEntity
  8
0
100
AcDbCircle
 62
7
  6
CONTINUOUS
 10
136.6254731615
 20
137.18805652
 40
93.9219417738
100
AcDbArc
 50
348.5639045435
 51
348.8418596358
  0
ARC
  5
3D5
100
AcDbEntity
  8
0
100
AcDbCircle
 62
7
  6
CONTINUOUS
 10
137.6504086095
 20
136.7126382689
 40
92.3032375643
100
AcDbArc
 50
348.661714673
 51
348.8736142293
  0
ARC
  5
3D6
100
AcDbEntity
  8
0
100
AcDbCircle
 62
7
  6
CONTINUOUS
 10
151.7647221816
 20
137.2866026832
 40
79.4417852535
100
AcDbArc
 50
343.0002305628
 51
343.2527922859
  0
ARC
  5
3D7
100
AcDbEntity
  8
0
100
AcDbCircle
 62
7
  6
CONTINUOUS
 10
152.6311410175
 20
136.8618548858
 40
77.9890405593
100
AcDbArc
 50
343.00023974
 51
343.2575028626
  0
ARC
  5
3D8
100
AcDbEntity
  8
0
100
AcDbCircle
 62
7
  6
CONTINUOUS
 10
160.8890952956
 20
145.0557810121
 40
72.9633945371
100
AcDbArc
 50
337.577641809
 51
337.9566871342
  0
ARC
  5
3D9
100
AcDbEntity
  8
0
100
AcDbCircle
 62
7
  6
CONTINUOUS
 10
169.7612590785
 20
148.3660579235
 40
65.318028156
100
AcDbArc
 50
332.8555849848
 51
333.295167584
  0
ARC
  5
3DA
100
AcDbEntity
  8
BEZUGSACHSEN
100
AcDbCircle
 62
7
  6
CONTINUOUS
 10
200.8533596473
 20
22.3903948835
 40
97.0620612237
100
AcDbArc
 50
87.5631979371
 51
87.7781659559
  0
ARC
  5
3DB
100
AcDbEntity
  8
BEZUGSACHSEN
100
AcDbCircle
 62
7
  6
CONTINUOUS
 10
208.3792803657
 20
22.3903948835
 40
97.0620612237
100
AcDbArc
 50
92.2218340441
 51
92.4368020629
  0
ARC
  5
3DC
100
AcDbEntity
  8
0
100
AcDbCircle
 62
7
  6
CONTINUOUS
 10
196.2714642253
 20
115.1837394145
 40
14.4547349133
100
AcDbArc
 50
184.9015313758
 51
186.0877112668
  0
ARC
  5
3DD
100
AcDbEntity
  8
0
100
AcDbCircle
 62
7
  6
CONTINUOUS
 10
196.5219465487
 20
115.1011644824
 40
14.1700386347
100
AcDbArc
 50
184.6651794631
 51
185.8747453333
  0
ARC
  5
3DE
100
AcDbEntity
  8
0
100
AcDbCircle
 62
7
  6
CONTINUOUS
 10
189.6290106457
 20
114.7287288387
 40
7.968383415
100
AcDbArc
 50
183.4691887158
 51
184.5427362174
  0
ARC
  5
3DF
100
AcDbEntity
  8
0
100
AcDbCircle
 62
7
  6
CONTINUOUS
 10
189.763216
 20
113.9572199786
 40
7.8709389724
100
AcDbArc
 50
182.2310970532
 51
184.4032006244
  0
ARC
  5
3E0
100
AcDbEntity
  8
0
100
AcDbCircle
 62
7
  6
CONTINUOUS
 10
190.1390418379
 20
113.9122448281
 40
7.7171431302
100
AcDbArc
 50
181.9414401686
 51
184.1562602772
  0
ARC
  5
3E1
100
AcDbEntity
  8
0
100
AcDbCircle
 62
7
  6
CONTINUOUS
 10
184.0844391324
 20
114.4181945153
 40
2.5805072062
100
AcDbArc
 50
204.3815877059
 51
208.0685499726
  0
ARC
  5
3E2
100
AcDbEntity
  8
0
100
AcDbCircle
 62
7
  6
CONTINUOUS
 10
225.1482008806
 20
114.4181945153
 40
2.5805072063
100
AcDbArc
 50
331.9314500275
 51
335.6184122941
  0
ARC
  5
3E3
100
AcDbEntity
  8
0
100
AcDbCircle
 62
7
  6
CONTINUOUS
 10
183.8397879707
 20
113.0549603513
 40
1.9472129667
100
AcDbArc
 50
171.197783255
 51
175.6104469356
  0
ARC
  5
3E4
100
AcDbEntity
  8
0
100
AcDbCircle
 62
7
  6
CONTINUOUS
 10
184.3327669737
 20
113.0435493229
 40
1.915719941
100
AcDbArc
 50
170.7062485695
 51
175.1957379647
  0
ARC
  5
3E5
100
AcDbEntity
  8
0
100
AcDbCircle
 62
7
  6
CONTINUOUS
 10
183.2053114652
 20
114.9360444455
 40
1.8949452686
100
AcDbArc
 50
209.6627309825
 51
211.4029828319
  0
ARC
  5
3E6
100
AcDbEntity
  8
0
100
AcDbCircle
 62
7
  6
CONTINUOUS
 10
183.1478887114
 20
114.9031226658
 40
1.8287547928
100
AcDbArc
 50
208.8805373737
 51
209.6567985872
  0
ARC
  5
3E7
100
AcDbEntity
  8
0
100
AcDbCircle
 62
7
  6
CONTINUOUS
 10
183.0731850634
 20
114.8624732252
 40
1.7437091381
100
AcDbArc
 50
206.0171761485
 51
208.8965370252
  0
ARC
  5
3E8
100
AcDbEntity
  8
0
100
AcDbCircle
 62
7
  6
CONTINUOUS
 10
182.956635803
 20
113.7611923493
 40
1.3147465091
100
AcDbArc
 50
165.1741755401
 51
171.8016614819
  0
ARC
  5
3E9
100
AcDbEntity
  8
0
100
AcDbCircle
 62
7
  6
CONTINUOUS
 10
200.2905765033
 20
119.6718181494
 40
19.6123534335
100
AcDbArc
 50
187.1660417186
 51
188.4836508065
  0
ARC
  5
3EA
100
AcDbEntity
  8
0
100
AcDbCircle
 62
7
  6
CONTINUOUS
 10
196.924342744
 20
123.8960914154
 40
17.6329531431
100
AcDbArc
 50
205.4037555706
 51
206.480120473
  0
ARC
  5
3EB
100
AcDbEntity
  8
0
100
AcDbCircle
 62
7
  6
CONTINUOUS
 10
195.9091378821
 20
123.2868064876
 40
16.4796585719
100
AcDbArc
 50
194.6761822308
 51
195.0325827542
  0
ARC
  5
3EC
100
AcDbEntity
  8
0
100
AcDbCircle
 62
7
  6
CONTINUOUS
 10
195.8842764732
 20
123.2803121947
 40
16.4539629453
100
AcDbArc
 50
194.0851929654
 51
194.6762392629
  0
ARC
  5
3ED
100
AcDbEntity
  8
0
100
AcDbCircle
 62
7
  6
CONTINUOUS
 10
196.5108250931
 20
118.5833562943
 40
15.6799309879
100
AcDbArc
 50
197.5733596063
 51
198.3353084171
  0
ARC
  5
3EE
100
AcDbEntity
  8
0
100
AcDbCircle
 62
7
  6
CONTINUOUS
 10
196.4602084821
 20
118.5672620294
 40
15.6268173081
100
AcDbArc
 50
197.1908303014
 51
197.5731371969
  0
ARC
  5
3EF
100
AcDbEntity
  8
0
100
AcDbCircle
 62
7
  6
CONTINUOUS
 10
189.3012211136
 20
121.0724561565
 40
9.9964991796
100
AcDbArc
 50
229.2288560742
 51
230.5539230145
  0
ARC
  5
3F0
100
AcDbEntity
  8
0
100
AcDbCircle
 62
7
  6
CONTINUOUS
 10
188.0265977419
 20
122.6424873084
 40
9.872360766
100
AcDbArc
 50
241.7174092372
 51
243.599456591
  0
ARC
  5
3F1
100
AcDbEntity
  8
0
100
AcDbCircle
 62
7
  6
CONTINUOUS
 10
187.4732514768
 20
122.4803850758
 40
9.7273826168
100
AcDbArc
 50
241.2923132617
 51
243.1754766546
  0
ARC
  5
3F2
100
AcDbEntity
  8
0
100
AcDbCircle
 62
7
  6
CONTINUOUS
 10
187.029590862
 20
121.9492222182
 40
9.5152443539
100
AcDbArc
 50
244.6117295823
 51
246.7912925276
  0
ARC
  5
3F3
100
AcDbEntity
  8
0
100
AcDbCircle
 62
7
  6
CONTINUOUS
 10
188.70085101
 20
122.2114262205
 40
9.2719005235
100
AcDbArc
 50
193.4484373756
 51
195.3489222638
  0
ARC
  5
3F4
100
AcDbEntity
  8
0
100
AcDbCircle
 62
7
  6
CONTINUOUS
 10
190.0956921559
 20
117.3506426384
 40
9.1848760837
100
AcDbArc
 50
199.7524632644
 51
200.7427403802
  0
ARC
  5
3F5
100
AcDbEntity
  8
0
100
AcDbCircle
 62
7
  6
CONTINUOUS
 10
190.1836098003
 20
116.5601567396
 40
9.0377544364
100
AcDbArc
 50
198.778540346
 51
200.7854637512
  0
ARC
  5
3F6
100
AcDbEntity
  8
0
100
AcDbCircle
 62
7
  6
CONTINUOUS
 10
187.66726554
 20
120.9034323978
 40
7.9314858478
100
AcDbArc
 50
211.3373009178
 51
213.8921199532
  0
ARC
  5
3F7
100
AcDbEntity
  8
0
100
AcDbCircle
 62
7
  6
CONTINUOUS
 10
188.1001114479
 20
120.8836596453
 40
7.8408905042
100
AcDbArc
 50
211.5715277388
 51
214.1632101337
  0
ARC
  5
3F8
100
AcDbEntity
  8
0
100
AcDbCircle
 62
7
  6
CONTINUOUS
 10
184.298403803
 20
117.3031579645
 40
3.6242743531
100
AcDbArc
 50
178.8767160203
 51
183.5881654891
  0
ARC
  5
3F9
100
AcDbEntity
  8
BEZUGSACHSEN
100
AcDbCircle
 62
7
  6
CONTINUOUS
 10
182.6728544478
 20
122.1864548963
 40
3.0
100
AcDbArc
 50
110.0
 51
197.0000000672
  0
ARC
  5
3FA
100
AcDbEntity
  8
0
100
AcDbCircle
 62
7
  6
CONTINUOUS
 10
181.2494437297
 20
119.4632768249
 40
1.3417661909
100
AcDbArc
 50
180.1692250892
 51
186.543274517
  0
ARC
  5
3FB
100
AcDbEntity
  8
0
100
AcDbCircle
 62
7
  6
CONTINUOUS
 10
180.3742379839
 20
120.1038826226
 40
0.6928141838
100
AcDbArc
 50
171.6916429176
 51
179.9333569236
  0
ARC
  5
3FC
100
AcDbEntity
  8
0
100
AcDbCircle
 62
7
  6
CONTINUOUS
 10
180.3676697082
 20
120.1042515719
 40
0.6862455786
100
AcDbArc
 50
179.9635232284
 51
184.1107378386
  0
ARC
  5
3FD
100
AcDbEntity
  8
0
100
AcDbCircle
 62
7
  6
CONTINUOUS
 10
193.0492345801
 20
130.3238695361
 40
37.9255035373
100
AcDbArc
 50
343.000606883
 51
343.8223302031
  0
ARC
  5
3FE
100
AcDbEntity
  8
0
100
AcDbCircle
 62
7
  6
CONTINUOUS
 10
191.6804867952
 20
125.5349127926
 40
37.8408747526
100
AcDbArc
 50
350.3035549252
 51
351.2174528216
  0
ARC
  5
3FF
100
AcDbEntity
  8
0
100
AcDbCircle
 62
7
  6
CONTINUOUS
 10
198.4771442571
 20
126.0909126819
 40
19.8288182638
100
AcDbArc
 50
216.6789720966
 51
217.7598383536
  0
ARC
  5
400
100
AcDbEntity
  8
0
100
AcDbCircle
 62
7
  6
CONTINUOUS
 10
198.7439369777
 20
126.0315606364
 40
19.5704936597
100
AcDbArc
 50
217.0263828973
 51
218.1267483269
  0
ARC
  5
401
100
AcDbEntity
  8
0
100
AcDbCircle
 62
7
  6
CONTINUOUS
 10
198.3346803001
 20
125.0342688729
 40
19.3690119014
100
AcDbArc
 50
215.4523679992
 51
216.5414919746
  0
ARC
  5
402
100
AcDbEntity
  8
0
100
AcDbCircle
 62
7
  6
CONTINUOUS
 10
196.6159513818
 20
126.9391221909
 40
18.2268814054
100
AcDbArc
 50
204.7426726417
 51
205.7780443774
  0
ARC
  5
403
100
AcDbEntity
  8
0
100
AcDbCircle
 62
7
  6
CONTINUOUS
 10
189.9331053941
 20
125.2900399392
 40
11.3625512986
100
AcDbArc
 50
207.4337299132
 51
209.1394985839
  0
ARC
  5
404
100
AcDbEntity
  8
0
100
AcDbCircle
 62
7
  6
CONTINUOUS
 10
190.3068334906
 20
125.2483477883
 40
11.2082218705
100
AcDbArc
 50
207.6032565638
 51
209.3354968052
  0
ARC
  5
405
100
AcDbEntity
  8
0
100
AcDbCircle
 62
7
  6
CONTINUOUS
 10
216.3950261697
 20
120.6653102197
 40
35.3081406597
100
AcDbArc
 50
189.9830213653
 51
190.4741972588
  0
ARC
  5
406
100
AcDbEntity
  8
0
100
AcDbCircle
 62
7
  6
CONTINUOUS
 10
200.4650765192
 20
119.5657612147
 40
19.2481848466
100
AcDbArc
 50
186.9841845121
 51
188.3261831597
  0
ARC
  5
407
100
AcDbEntity
  8
0
100
AcDbCircle
 62
7
  6
CONTINUOUS
 10
212.3082972689
 20
123.8960914154
 40
17.6329531431
100
AcDbArc
 50
333.519879527
 51
334.5962444294
  0
ARC
  5
408
100
AcDbEntity
  8
0
100
AcDbCircle
 62
7
  6
CONTINUOUS
 10
212.7049658233
 20
118.5888787149
 40
15.6976619154
100
AcDbArc
 50
341.6649043353
 51
342.0454341498
  0
ARC
  5
409
100
AcDbEntity
  8
0
100
AcDbCircle
 62
7
  6
CONTINUOUS
 10
212.7389080091
 20
118.5778795073
 40
15.6619820255
100
AcDbArc
 50
342.0454357926
 51
342.4268611056
  0
ARC
  5
40A
100
AcDbEntity
  8
0
100
AcDbCircle
 62
7
  6
CONTINUOUS
 10
212.7724315309
 20
118.5672620294
 40
15.6268173081
100
AcDbArc
 50
342.4268628031
 51
342.8091696986
  0
ARC
  5
40B
100
AcDbEntity
  8
0
100
AcDbCircle
 62
7
  6
CONTINUOUS
 10
213.3768462156
 20
119.8348236199
 40
15.4170894318
100
AcDbArc
 50
356.9425012877
 51
358.0505831062
  0
ARC
  5
40C
100
AcDbEntity
  8
0
100
AcDbCircle
 62
7
  6
CONTINUOUS
 10
213.1247985241
 20
119.7523727867
 40
15.1339544595
100
AcDbArc
 50
357.1978122525
 51
357.7618649922
  0
ARC
  5
40D
100
AcDbEntity
  8
0
100
AcDbCircle
 62
7
  6
CONTINUOUS
 10
220.5317890029
 20
122.2114262205
 40
9.2719005235
100
AcDbArc
 50
344.6510777362
 51
346.5515626244
  0
ARC
  5
40E
100
AcDbEntity
  8
0
100
AcDbCircle
 62
7
  6
CONTINUOUS
 10
219.0490302127
 20
116.5601567396
 40
9.0377544364
100
AcDbArc
 50
339.2145362488
 51
341.221459654
  0
ARC
  5
40F
100
AcDbEntity
  8
0
100
AcDbCircle
 62
7
  6
CONTINUOUS
 10
220.5540402715
 20
119.7386410425
 40
8.5236547913
100
AcDbArc
 50
0.1246600318
 51
2.1274384146
  0
ARC
  5
410
100
AcDbEntity
  8
0
100
AcDbCircle
 62
7
  6
CONTINUOUS
 10
216.2466543056
 20
130.3424800613
 40
37.9914331093
100
AcDbArc
 50
196.1780489272
 51
196.6725219857
  0
ARC
  5
411
100
AcDbEntity
  8
0
100
AcDbCircle
 62
7
  6
CONTINUOUS
 10
216.0909204711
 20
130.2959253981
 40
37.8288896927
100
AcDbArc
 50
196.6907743402
 51
196.9615524993
  0
ARC
  5
412
100
AcDbEntity
  8
0
100
AcDbCircle
 62
7
  6
CONTINUOUS
 10
216.9359898279
 20
124.5914948939
 40
36.9724390161
100
AcDbArc
 50
190.7865447265
 51
191.2568298984
  0
ARC
  5
413
100
AcDbEntity
  8
0
100
AcDbCircle
 62
7
  6
CONTINUOUS
 10
214.9430009605
 20
125.3816502856
 40
35.2943129144
100
AcDbArc
 50
197.8817292388
 51
198.3905677225
  0
ARC
  5
414
100
AcDbEntity
  8
0
100
AcDbCircle
 62
7
  6
CONTINUOUS
 10
201.5744909998
 20
131.3180520378
 40
30.0551392854
100
AcDbArc
 50
332.2296838094
 51
332.9973796521
  0
ARC
  5
415
100
AcDbEntity
  8
0
100
AcDbCircle
 62
7
  6
CONTINUOUS
 10
201.9787775487
 20
131.0991825354
 40
29.595440437
100
AcDbArc
 50
324.5847374637
 51
332.2399291654
  0
ARC
  5
416
100
AcDbEntity
  8
0
100
AcDbCircle
 62
7
  6
CONTINUOUS
 10
201.9077528114
 20
130.9710431023
 40
29.1270727482
100
AcDbArc
 50
324.238158633
 51
332.8330841413
  0
ARC
  5
417
100
AcDbEntity
  8
0
100
AcDbCircle
 62
7
  6
CONTINUOUS
 10
202.5188540611
 20
129.7161167713
 40
28.6802987176
100
AcDbArc
 50
326.6490672421
 51
334.1816088823
  0
ARC
  5
418
100
AcDbEntity
  8
0
100
AcDbCircle
 62
7
  6
CONTINUOUS
 10
211.3140159647
 20
131.2681922951
 40
20.7936410427
100
AcDbArc
 50
323.8858485199
 51
324.8954135929
  0
ARC
  5
419
100
AcDbEntity
  8
0
100
AcDbCircle
 62
7
  6
CONTINUOUS
 10
217.0866964085
 20
129.6111964246
 40
14.905299108
100
AcDbArc
 50
318.6155814706
 51
320.1243508036
  0
ARC
  5
41A
100
AcDbEntity
  8
0
100
AcDbCircle
 62
7
  6
CONTINUOUS
 10
216.6969906471
 20
129.5997412856
 40
14.7816658969
100
AcDbArc
 50
318.2514817918
 51
319.781002701
  0
ARC
  5
41B
100
AcDbEntity
  8
BEZUGSACHSEN
100
AcDbCircle
 62
7
  6
CONTINUOUS
 10
204.6163200065
 20
127.2039946396
 40
6.0
100
AcDbArc
 50
188.2976596303
 51
351.7023403697
  0
ARC
  5
41C
100
AcDbEntity
  8
0
100
AcDbCircle
 62
7
  6
CONTINUOUS
 10
214.338912066
 20
134.6319868625
 40
37.4142697331
100
AcDbArc
 50
203.4263708689
 51
204.4244605033
  0
ARC
  5
41D
100
AcDbEntity
  8
0
100
AcDbCircle
 62
7
  6
CONTINUOUS
 10
214.2689618594
 20
134.451179779
 40
36.7944797533
100
AcDbArc
 50
203.5377507338
 51
204.3852332684
  0
ARC
  5
41E
100
AcDbEntity
  8
0
100
AcDbCircle
 62
7
  6
CONTINUOUS
 10
197.0389326058
 20
138.5528524305
 40
36.4507481902
100
AcDbArc
 50
327.8600321151
 51
328.9593855117
  0
ARC
  5
41F
100
AcDbEntity
  8
0
100
AcDbCircle
 62
7
  6
CONTINUOUS
 10
197.1580172222
 20
138.3364333724
 40
35.7706873131
100
AcDbArc
 50
327.5846341736
 51
328.7080763125
  0
ARC
  5
420
100
AcDbEntity
  8
RUNDUNGEN
100
AcDbCircle
 62
7
  6
CONTINUOUS
 10
220.6163200065
 20
136.0556549453
 40
8.0
100
AcDbArc
 50
179.998871965
 51
250.0003125531
  0
ARC
  5
421
100
AcDbEntity
  8
BEZUGSACHSEN
100
AcDbCircle
 62
7
  6
CONTINUOUS
 10
188.6163200065
 20
136.0556549453
 40
8.0
100
AcDbArc
 50
289.9996874469
 51
0.001128035
  0
ARC
  5
422
100
AcDbEntity
  8
0
100
AcDbCircle
 62
7
  6
CONTINUOUS
 10
224.5795827529
 20
125.293148195
 40
7.058644865
100
AcDbArc
 50
302.0505105511
 51
304.2610918569
  0
ARC
  5
423
100
AcDbEntity
  8
0
100
AcDbCircle
 62
7
  6
CONTINUOUS
 10
224.93423621
 20
117.3031579645
 40
3.6242743531
100
AcDbArc
 50
356.4118345109
 51
1.1232839797
  0
ARC
  5
424
100
AcDbEntity
  8
RUNDUNGEN
100
AcDbCircle
 62
7
  6
CONTINUOUS
 10
226.5597855652
 20
122.1864548963
 40
3.0
100
AcDbArc
 50
342.9999999328
 51
70.0
  0
ARC
  5
425
100
AcDbEntity
  8
0
100
AcDbCircle
 62
7
  6
CONTINUOUS
 10
226.6477306491
 20
117.8798976493
 40
2.2182236216
100
AcDbArc
 50
315.7360032402
 51
317.4959228619
  0
ARC
  5
426
100
AcDbEntity
  8
0
100
AcDbCircle
 62
7
  6
CONTINUOUS
 10
226.7745733836
 20
117.763675331
 40
2.046186689
100
AcDbArc
 50
317.4954224772
 51
319.3538880451
  0
ARC
  5
427
100
AcDbEntity
  8
0
100
AcDbCircle
 62
7
  6
CONTINUOUS
 10
226.8942292496
 20
117.6609700072
 40
1.8884974072
100
AcDbArc
 50
319.3534433827
 51
321.3151417858
  0
ARC
  5
428
100
AcDbEntity
  8
0
100
AcDbCircle
 62
7
  6
CONTINUOUS
 10
228.8592390065
 20
120.1041143596
 40
0.691952513
100
AcDbArc
 50
355.9346137114
 51
8.2993844455
  0
ARC
  5
429
100
AcDbEntity
  8
0
100
AcDbCircle
 62
7
  6
CONTINUOUS
 10
262.4161014542
 20
142.8554642512
 40
85.8019932157
100
AcDbArc
 50
196.1728575011
 51
196.4447688829
  0
ARC
  5
42A
100
AcDbEntity
  8
0
100
AcDbCircle
 62
7
  6
CONTINUOUS
 10
251.3175230904
 20
146.472964817
 40
76.2323102976
100
AcDbArc
 50
201.1137531754
 51
201.4741789299
  0
ARC
  5
42B
100
AcDbEntity
  8
0
100
AcDbCircle
 62
7
  6
CONTINUOUS
 10
247.4116523359
 20
143.4541647862
 40
71.6031232364
100
AcDbArc
 50
202.130007793
 51
202.5165038135
  0
ARC
  5
42C
100
AcDbEntity
  8
BEZUGSACHSEN
100
AcDbCircle
 62
7
  6
CONTINUOUS
 10
199.6163200065
 20
178.4568180387
 40
3.0
100
AcDbArc
 50
90.0
 51
180.0
  0
ARC
  5
42D
100
AcDbEntity
  8
RUNDUNGEN
100
AcDbCircle
 62
7
  6
CONTINUOUS
 10
209.6163200065
 20
178.4568180387
 40
3.0
100
AcDbArc
 50
0.0
 51
90.0
  0
ARC
  5
42E
100
AcDbEntity
  8
0
100
AcDbCircle
 62
7
  6
CONTINUOUS
 10
282.2499762023
 20
147.5579393099
 40
106.1402745635
100
AcDbArc
 50
198.9311582085
 51
199.3953574935
  0
ARC
  5
42F
100
AcDbEntity
  8
0
100
AcDbCircle
 62
7
  6
CONTINUOUS
 10
269.8183736107
 20
136.609749595
 40
91.0737948835
100
AcDbArc
 50
192.0015199923
 51
192.2890493415
  0
ARC
  5
430
100
AcDbEntity
  8
0
100
AcDbCircle
 62
7
  6
CONTINUOUS
 10
267.2931827726
 20
131.9475289167
 40
87.299191924
100
AcDbArc
 50
191.5987303021
 51
191.8982525225
  0
ARC
  5
431
100
AcDbEntity
  8
0
100
AcDbCircle
 62
7
  6
CONTINUOUS
 10
266.2568376879
 20
131.4718263047
 40
85.6692615024
100
AcDbArc
 50
191.5741385481
 51
191.8028184215
  0
ARC
  5
432
100
AcDbEntity
  8
0
100
AcDbCircle
 62
7
  6
CONTINUOUS
 10
349.3213886656
 20
159.7928474393
 40
173.8832783266
100
AcDbArc
 50
193.8163018275
 51
194.0185410828
  0
ARC
  5
433
100
AcDbEntity
  8
0
100
AcDbCircle
 62
7
  6
CONTINUOUS
 10
337.8555429096
 20
178.9367513835
 40
168.2171649149
100
AcDbArc
 50
202.4518870484
 51
202.6166525561
  0
ARC
  5
434
100
AcDbEntity
  8
0
100
AcDbCircle
 62
7
  6
CONTINUOUS
 10
333.4393112586
 20
177.2670575474
 40
162.9956409435
100
AcDbArc
 50
202.5753440122
 51
202.7455436697
  0
ARC
  5
435
100
AcDbEntity
  8
0
100
AcDbCircle
 62
7
  6
CONTINUOUS
 10
314.0787678776
 20
156.2487715304
 40
139.1229808147
100
AcDbArc
 50
197.315011616
 51
197.4435542007
  0
ARC
  5
436
100
AcDbEntity
  8
0
100
AcDbCircle
 62
7
  6
CONTINUOUS
 10
293.1741205223
 20
157.731150835
 40
119.5409065172
100
AcDbArc
 50
200.4147027916
 51
200.7196818446
  0
ARC
  5
437
100
AcDbEntity
  8
0
100
AcDbCircle
 62
7
  6
CONTINUOUS
 10
271.0711449887
 20
153.7183054295
 40
97.0994077964
100
AcDbArc
 50
203.8895532897
 51
204.2746008636
  0
ARC
  5
438
100
AcDbEntity
  8
0
100
AcDbCircle
 62
7
  6
CONTINUOUS
 10
98.5886023356
 20
48.9369518367
 40
32.1655660853
100
AcDbArc
 50
89.3997565512
 51
91.2182451552
  0
ARC
  5
439
100
AcDbEntity
  8
0
100
AcDbCircle
 62
7
  6
CONTINUOUS
 10
100.0186979974
 20
49.0676323325
 40
32.0973044667
100
AcDbArc
 50
93.7762913601
 51
94.2982333677
  0
ARC
  5
43A
100
AcDbEntity
  8
RUNDUNGEN
100
AcDbCircle
 62
7
  6
CONTINUOUS
 10
65.6176872487
 20
51.1676476715
 40
3.0000280124
100
AcDbArc
 50
188.9322233945
 51
269.9995898408
  0
ARC
  5
43B
100
AcDbEntity
  8
0
100
AcDbCircle
 62
7
  6
CONTINUOUS
 10
98.5971739312
 20
63.1819663382
 40
32.1501369986
100
AcDbArc
 50
276.8389358203
 51
278.6464133494
  0
ARC
  5
43C
100
AcDbEntity
  8
BEZUGSACHSEN
100
AcDbCircle
 62
7
  6
CONTINUOUS
 10
65.6176874572
 20
61.1675969126
 40
3.0000280124
100
AcDbArc
 50
90.000414142
 51
171.0677726227
  0
ARC
  5
43D
100
AcDbEntity
  8
0
100
AcDbCircle
 62
7
  6
CONTINUOUS
 10
101.4414927928
 20
49.1530801215
 40
32.1503370284
100
AcDbArc
 50
96.8389393858
 51
98.6406520681
  0
ARC
  5
43E
100
AcDbEntity
  8
RUNDUNGEN
100
AcDbCircle
 62
7
  6
CONTINUOUS
 10
134.4209534536
 20
51.1676476716
 40
3.0000280124
100
AcDbArc
 50
270.000419505
 51
351.0680902167
  0
ARC
  5
43F
100
AcDbEntity
  8
0
100
AcDbCircle
 62
7
  6
CONTINUOUS
 10
101.4500385827
 20
63.3982929913
 40
32.1655660853
100
AcDbArc
 50
269.3997565512
 51
271.2182451552
  0
ARC
  5
440
100
AcDbEntity
  8
0
100
AcDbCircle
 62
7
  6
CONTINUOUS
 10
100.019942921
 20
63.2676124947
 40
32.0973044659
100
AcDbArc
 50
273.7762913601
 51
274.2982333677
  0
ARC
  5
441
100
AcDbEntity
  8
0
100
AcDbCircle
 62
7
  6
CONTINUOUS
 10
100.0193204591
 20
56.167622414
 40
18.85
100
AcDbArc
 50
205.1100688098
 51
334.8898510255
  0
ARC
  5
442
100
AcDbEntity
  8
0
100
AcDbCircle
 62
7
  6
CONTINUOUS
 10
100.0193204591
 20
56.167622414
 40
18.85
100
AcDbArc
 50
25.1100725552
 51
154.889823602
  0
ARC
  5
443
100
AcDbEntity
  8
0
100
AcDbCircle
 62
7
  6
CONTINUOUS
 10
100.0193204591
 20
56.167622414
 40
17.85
100
AcDbArc
 50
26.6583665196
 51
153.3416334804
  0
ARC
  5
444
100
AcDbEntity
  8
0
100
AcDbCircle
 62
7
  6
CONTINUOUS
 10
100.0193204591
 20
56.167622414
 40
17.85
100
AcDbArc
 50
206.6583665196
 51
333.3416334804
  0
ARC
  5
445
100
AcDbEntity
  8
FASEN
100
AcDbCircle
 62
7
  6
CONTINUOUS
 10
100.0193204591
 20
56.167622414
 40
10.25
100
AcDbArc
 50
51.3955415957
 51
128.6044578586
  0
ARC
  5
446
100
AcDbEntity
  8
FASEN
100
AcDbCircle
 62
7
  6
CONTINUOUS
 10
100.0193204591
 20
56.167622414
 40
10.25
100
AcDbArc
 50
231.3955415957
 51
308.6044578586
  0
ARC
  5
447
100
AcDbEntity
  8
0
100
AcDbCircle
 62
2
  6
CONTINUOUS
 10
100.0193204591
 20
56.167622414
 40
10.0
100
AcDbArc
 50
255.0
 51
301.7803655295
  0
ARC
  5
448
100
AcDbEntity
  8
0
100
AcDbCircle
 62
2
  6
CONTINUOUS
 10
100.0193204591
 20
56.167622414
 40
10.0
100
AcDbArc
 50
302.8021683889
 51
306.8595879892
  0
ARC
  5
449
100
AcDbEntity
  8
0
100
AcDbCircle
 62
2
  6
CONTINUOUS
 10
100.0193204591
 20
56.167622414
 40
10.0
100
AcDbArc
 50
53.1382793073
 51
126.8617206927
  0
ARC
  5
44A
100
AcDbEntity
  8
FASEN
100
AcDbCircle
 62
7
  6
CONTINUOUS
 10
100.0193204591
 20
56.167622414
 40
8.75
100
AcDbArc
 50
255.0774273425
 51
283.7705639727
  0
ARC
  5
44B
100
AcDbEntity
  8
FASEN
100
AcDbCircle
 62
7
  6
CONTINUOUS
 10
100.0193204591
 20
56.167622414
 40
8.75
100
AcDbArc
 50
66.2805374941
 51
113.7194659552
  0
ARC
  5
44C
100
AcDbEntity
  8
BEZUGSACHSEN
100
AcDbCircle
 62
7
  6
CONTINUOUS
 10
134.4209532451
 20
61.1675969126
 40
3.0000280124
100
AcDbArc
 50
8.9319137664
 51
89.9995765119
  0
SPLINE
  5
44D
100
AcDbEntity
  8
0
100
AcDbSpline
 62
7
  6
CONTINUOUS
 70
0
 71
3
 72
11
 73
7
 74
0
 42
0.0000001
 43
0.0000001
 44
0.0000000001
 40
0.0
 40
0.0
 40
0.0
 40
0.0
 40
0.2202384686
 40
0.4629266858
 40
0.7244147922
 40
1.0
 40
1.0
 40
1.0
 40
1.0
 10
113.4130906106
 20
128.538113979
 30
0.0
 10
112.7394468215
 20
128.2905258698
 30
0.0
 10
111.2978542556
 20
127.83880778
 30
0.0
 10
108.9964221914
 20
127.3053685593
 30
0.0
 10
106.4870465935
 20
126.8952135194
 30
0.0
 10
104.7449734383
 20
126.7156791684
 30
0.0
 10
103.8494613665
 20
126.6480401042
 30
0.0
  0
SPLINE
  5
44E
100
AcDbEntity
  8
0
100
AcDbSpline
 62
7
  6
CONTINUOUS
 70
0
 71
3
 72
11
 73
7
 74
0
 42
0.0000001
 43
0.0000001
 44
0.0000000001
 40
0.0
 40
0.0
 40
0.0
 40
0.0
 40
0.2755851682
 40
0.5370732607
 40
0.7797614777
 40
1.0
 40
1.0
 40
1.0
 40
1.0
 10
96.1891457912
 20
126.6480423188
 30
0.0
 10
95.2936369316
 20
126.7156809578
 30
0.0
 10
93.5515702602
 20
126.895217639
 30
0.0
 10
91.0422036075
 20
127.3053714469
 30
0.0
 10
88.7407796081
 20
127.8388099384
 30
0.0
 10
87.299191931
 20
128.2905266658
 30
0.0
 10
86.6255503076
 20
128.538113979
 30
0.0
  0
SPLINE
  5
44F
100
AcDbEntity
  8
0
100
AcDbSpline
 62
7
  6
CONTINUOUS
 70
0
 71
3
 72
10
 73
6
 74
0
 42
0.0000001
 43
0.0000001
 44
0.0000000001
 40
0.0
 40
0.0
 40
0.0
 40
0.0
 40
0.2526130308
 40
0.5012062633
 40
1.0
 40
1.0
 40
1.0
 40
1.0
 10
115.3234030556
 20
129.8067466993
 30
0.0
 10
115.1931287621
 20
129.661929047
 30
0.0
 10
114.9159967661
 20
129.3906195962
 30
0.0
 10
114.2982229869
 20
128.9263801982
 30
0.0
 10
113.77410165
 20
128.6707984067
 30
0.0
 10
113.4130906106
 20
128.538113979
 30
0.0
  0
SPLINE
  5
450
100
AcDbEntity
  8
0
100
AcDbSpline
 62
7
  6
CONTINUOUS
 70
0
 71
3
 72
10
 73
6
 74
0
 42
0.0000001
 43
0.0000001
 44
0.0000000001
 40
0.0
 40
0.0
 40
0.0
 40
0.0
 40
0.4987937751
 40
0.7473870516
 40
1.0
 40
1.0
 40
1.0
 40
1.0
 10
86.6255503076
 20
128.538113979
 30
0.0
 10
86.2645411178
 20
128.6707977269
 30
0.0
 10
85.7404223773
 20
128.9263778962
 30
0.0
 10
85.1226510586
 20
129.3906138454
 30
0.0
 10
84.8455198867
 20
129.661921195
 30
0.0
 10
84.7152459397
 20
129.806737711
 30
0.0
  0
SPLINE
  5
451
100
AcDbEntity
  8
BEZUGSACHSEN
100
AcDbSpline
 62
7
  6
CONTINUOUS
 70
0
 71
3
 72
11
 73
7
 74
0
 42
0.0000001
 43
0.0000001
 44
0.0000000001
 40
0.0
 40
0.0
 40
0.0
 40
0.0
 40
0.2500081923
 40
0.5000093076
 40
0.7500055265
 40
1.0
 40
1.0
 40
1.0
 40
1.0
 10
137.762443652
 20
144.8544801972
 30
0.0
 10
137.8391586887
 20
144.6692735823
 30
0.0
 10
137.9569323578
 20
144.2829228294
 30
0.0
 10
138.0178798567
 20
143.6809107392
 30
0.0
 10
137.960517934
 20
143.0785045242
 30
0.0
 10
137.8437977252
 20
142.691699565
 30
0.0
 10
137.7670933576
 20
142.5065004376
 30
0.0
  0
SPLINE
  5
452
100
AcDbEntity
  8
BEZUGSACHSEN
100
AcDbSpline
 62
7
  6
CONTINUOUS
 70
0
 71
3
 72
11
 73
7
 74
0
 42
0.0000001
 43
0.0000001
 44
0.0000000001
 40
0.0
 40
0.0
 40
0.0
 40
0.0
 40
0.249994925
 40
0.4999914017
 40
0.7499922468
 40
1.0
 40
1.0
 40
1.0
 40
1.0
 10
62.2715454647
 20
142.5064995407
 30
0.0
 10
62.1948409978
 20
142.6916990848
 30
0.0
 10
62.0781212465
 20
143.0785049438
 30
0.0
 10
62.0207601286
 20
143.6809117583
 30
0.0
 10
62.0817084662
 20
144.2829235736
 30
0.0
 10
62.1994822616
 20
144.6692737858
 30
0.0
 10
62.2761972315
 20
144.8544801131
 30
0.0
  0
SPLINE
  5
453
100
AcDbEntity
  8
0
100
AcDbSpline
 62
7
  6
CONTINUOUS
 70
0
 71
3
 72
16
 73
12
 74
0
 42
0.0000001
 43
0.0000001
 44
0.0000000001
 40
0.0
 40
0.0
 40
0.0
 40
0.0
 40
0.0413978214
 40
0.0922418183
 40
0.1490137941
 40
0.2095357272
 40
0.3369604973
 40
0.4685926018
 40
0.6017727238
 40
0.7351673557
 40
1.0
 40
1.0
 40
1.0
 40
1.0
 10
118.6274137759
 20
137.3733140059
 30
0.0
 10
118.6049480208
 20
137.3162872698
 30
0.0
 10
118.564037013
 20
137.1857479198
 30
0.0
 10
118.5071491603
 20
136.9726281816
 30
0.0
 10
118.4482873794
 20
136.7307140927
 30
0.0
 10
118.3657878393
 20
136.3779169905
 30
0.0
 10
118.2593950347
 20
135.9168677983
 30
0.0
 10
118.1223695549
 20
135.352511523
 30
0.0
 10
117.9721478731
 20
134.7823308266
 30
0.0
 10
117.7524028005
 20
134.0268190585
 30
0.0
 10
117.5620717437
 20
133.4681170328
 30
0.0
 10
117.4210311724
 20
133.1022581965
 30
0.0
  0
SPLINE
  5
454
100
AcDbEntity
  8
0
100
AcDbSpline
 62
7
  6
CONTINUOUS
 70
0
 71
3
 72
9
 73
5
 74
0
 42
0.0000001
 43
0.0000001
 44
0.0000000001
 40
0.0
 40
0.0
 40
0.0
 40
0.0
 40
0.5086651954
 40
1.0
 40
1.0
 40
1.0
 40
1.0
 10
117.4210311724
 20
133.1022581965
 30
0.0
 10
117.3255065402
 20
132.8544791453
 30
0.0
 10
117.1122124646
 20
132.3768311148
 30
0.0
 10
116.8546574876
 20
131.9219328923
 30
0.0
 10
116.7197216908
 20
131.7037853206
 30
0.0
  0
SPLINE
  5
455
100
AcDbEntity
  8
0
100
AcDbSpline
 62
7
  6
CONTINUOUS
 70
0
 71
3
 72
9
 73
5
 74
0
 42
0.0000001
 43
0.0000001
 44
0.0000000001
 40
0.0
 40
0.0
 40
0.0
 40
0.0
 40
0.4954929922
 40
1.0
 40
1.0
 40
1.0
 40
1.0
 10
116.7197216908
 20
131.7037853206
 30
0.0
 10
116.5148491177
 20
131.3726031708
 30
0.0
 10
116.0796275952
 20
130.7173409072
 30
0.0
 10
115.58858679
 20
130.1015346066
 30
0.0
 10
115.3234030099
 20
129.8067466525
 30
0.0
  0
SPLINE
  5
456
100
AcDbEntity
  8
0
100
AcDbSpline
 62
7
  6
CONTINUOUS
 70
0
 71
3
 72
11
 73
7
 74
0
 42
0.0000001
 43
0.0000001
 44
0.0000000001
 40
0.0
 40
0.0
 40
0.0
 40
0.0
 40
0.2486929432
 40
0.5000000505
 40
0.7513071231
 40
1.0
 40
1.0
 40
1.0
 40
1.0
 10
103.8494726084
 20
126.6480411827
 30
0.0
 10
103.2156397696
 20
126.6001670542
 30
0.0
 10
101.9397153615
 20
126.5231630933
 30
0.0
 10
100.0193251598
 20
126.4816881513
 30
0.0
 10
98.098935151
 20
126.5231628281
 30
0.0
 10
96.8230109031
 20
126.6001652197
 30
0.0
 10
96.1891782235
 20
126.6480392074
 30
0.0
  0
SPLINE
  5
457
100
AcDbEntity
  8
0
100
AcDbSpline
 62
7
  6
CONTINUOUS
 70
0
 71
3
 72
9
 73
5
 74
0
 42
0.0000001
 43
0.0000001
 44
0.0000000001
 40
0.0
 40
0.0
 40
0.0
 40
0.0
 40
0.5045075077
 40
1.0
 40
1.0
 40
1.0
 40
1.0
 10
84.7152457123
 20
129.8067379438
 30
0.0
 10
84.4500596268
 20
130.1015269319
 30
0.0
 10
83.9590182635
 20
130.7173376198
 30
0.0
 10
83.5237908754
 20
131.3726004695
 30
0.0
 10
83.3189175009
 20
131.7037838762
 30
0.0
  0
SPLINE
  5
458
100
AcDbEntity
  8
0
100
AcDbSpline
 62
7
  6
CONTINUOUS
 70
0
 71
3
 72
9
 73
5
 74
0
 42
0.0000001
 43
0.0000001
 44
0.0000000001
 40
0.0
 40
0.0
 40
0.0
 40
0.0
 40
0.4913361401
 40
1.0
 40
1.0
 40
1.0
 40
1.0
 10
83.3189175009
 20
131.7037838762
 30
0.0
 10
83.1839835133
 20
131.9219334751
 30
0.0
 10
82.9264304123
 20
132.3768326228
 30
0.0
 10
82.7131334465
 20
132.8544796357
 30
0.0
 10
82.617610023
 20
133.102258489
 30
0.0
  0
SPLINE
  5
459
100
AcDbEntity
  8
0
100
AcDbSpline
 62
7
  6
CONTINUOUS
 70
0
 71
3
 72
16
 73
12
 74
0
 42
0.0000001
 43
0.0000001
 44
0.0000000001
 40
0.0
 40
0.0
 40
0.0
 40
0.0
 40
0.2648308223
 40
0.3982250453
 40
0.5314035532
 40
0.6630346745
 40
0.7904591929
 40
0.8509809764
 40
0.9077536831
 40
0.9586000665
 40
1.0
 40
1.0
 40
1.0
 40
1.0
 10
82.617610023
 20
133.102258489
 30
0.0
 10
82.4765699711
 20
133.4681146215
 30
0.0
 10
82.2862382392
 20
134.0268129755
 30
0.0
 10
82.0664975717
 20
134.782320069
 30
0.0
 10
81.916275246
 20
135.3524959466
 30
0.0
 10
81.7792497643
 20
135.9168478839
 30
0.0
 10
81.6728605859
 20
136.3778958109
 30
0.0
 10
81.590357445
 20
136.7306925397
 30
0.0
 10
81.5314977727
 20
136.9726116775
 30
0.0
 10
81.4746061045
 20
137.1857383849
 30
0.0
 10
81.4336942537
 20
137.316284462
 30
0.0
 10
81.4112273553
 20
137.3733141067
 30
0.0
  0
SPLINE
  5
45A
100
AcDbEntity
  8
BEZUGSACHSEN
100
AcDbSpline
 62
7
  6
CONTINUOUS
 70
0
 71
3
 72
36
 73
32
 74
0
 42
0.0000001
 43
0.0000001
 44
0.0000000001
 40
0.0
 40
0.0
 40
0.0
 40
0.0
 40
0.0101250809
 40
0.0203197901
 40
0.0306259646
 40
0.0410893931
 40
0.0517046002
 40
0.0624305438
 40
0.0840632546
 40
0.1058331954
 40
0.1276495076
 40
0.1494683913
 40
0.1712649256
 40
0.2147226121
 40
0.2579267848
 40
0.3007921501
 40
0.3432379672
 40
0.3851819948
 40
0.4265384589
 40
0.5071314444
 40
0.5842901847
 40
0.6572354906
 40
0.787309735
 40
0.8428679961
 40
0.8911270854
 40
0.9314404124
 40
0.9632638987
 40
0.9758596832
 40
0.9861970901
 40
0.9942486937
 40
1.0
 40
1.0
 40
1.0
 40
1.0
 10
106.4478739219
 20
107.2039946396
 30
0.0
 10
106.3965134576
 20
107.2756959768
 30
0.0
 10
106.3037553567
 20
107.4275570936
 30
0.0
 10
106.2092682716
 20
107.6790566518
 30
0.0
 10
106.1717411367
 20
107.9485329559
 30
0.0
 10
106.1949958698
 20
108.2229774204
 30
0.0
 10
106.2711206014
 20
108.4907723775
 30
0.0
 10
106.4267243389
 20
108.8323682952
 30
0.0
 10
106.6930328591
 20
109.2248707115
 30
0.0
 10
107.0710332302
 20
109.6499578383
 30
0.0
 10
107.4846594578
 20
110.0425140005
 30
0.0
 10
107.9206880106
 20
110.4099317182
 30
0.0
 10
108.5217570688
 20
110.8728446767
 30
0.0
 10
109.298923257
 20
111.4110430262
 30
0.0
 10
110.2548369618
 20
112.0108933893
 30
0.0
 10
111.2227983777
 20
112.5736410521
 30
0.0
 10
112.1958327243
 20
113.1048909662
 30
0.0
 10
113.1688721358
 20
113.6080740729
 30
0.0
 10
114.4496653801
 20
114.2389337296
 30
0.0
 10
116.0250957843
 20
114.9650837673
 30
0.0
 10
117.8733904169
 20
115.7544537273
 30
0.0
 10
120.1408283896
 20
116.6578758845
 30
0.0
 10
122.2581468214
 20
117.4280159837
 30
0.0
 10
124.1889028489
 20
118.0786510096
 30
0.0
 10
125.3833005454
 20
118.4656599214
 30
0.0
 10
126.3833999007
 20
118.7813982773
 30
0.0
 10
127.0877876028
 20
119.0019291567
 30
0.0
 10
127.5420438784
 20
119.1473873464
 30
0.0
 10
127.7983668843
 20
119.2319876881
 30
0.0
 10
127.9968546114
 20
119.3013908889
 30
0.0
 10
128.1091844813
 20
119.3445004825
 30
0.0
 10
128.1550818462
 20
119.3645839209
 30
0.0
  0
SPLINE
  5
45B
100
AcDbEntity
  8
BEZUGSACHSEN
100
AcDbSpline
 62
7
  6
CONTINUOUS
 70
0
 71
3
 72
36
 73
32
 74
0
 42
0.0000001
 43
0.0000001
 44
0.0000000001
 40
0.0
 40
0.0
 40
0.0
 40
0.0
 40
0.0057466882
 40
0.0137936601
 40
0.0241260783
 40
0.0367167642
 40
0.0685317462
 40
0.1088362133
 40
0.1570850341
 40
0.2126360821
 40
0.3426966613
 40
0.4156365099
 40
0.4927916
 40
0.5733821521
 40
0.6147376834
 40
0.6566810848
 40
0.6991264866
 40
0.7419916779
 40
0.7851958459
 40
0.8286540725
 40
0.8504510231
 40
0.8722703769
 40
0.894087483
 40
0.91585855
 40
0.9374915355
 40
0.9482203709
 40
0.9588464185
 40
0.9693183216
 40
0.9796515367
 40
0.9898623917
 40
1.0
 40
1.0
 40
1.0
 40
1.0
 10
71.8833270492
 20
119.3646854617
 30
0.0
 10
71.9291841854
 20
119.3446094211
 30
0.0
 10
72.0414359909
 20
119.3015178464
 30
0.0
 10
72.2398048194
 20
119.2321453788
 30
0.0
 10
72.4960068088
 20
119.147580237
 30
0.0
 10
72.950110871
 20
119.0021650831
 30
0.0
 10
73.6543153366
 20
118.7816835905
 30
0.0
 10
74.654194878
 20
118.4660202937
 30
0.0
 10
75.8483931744
 20
118.0791070439
 30
0.0
 10
77.7789069305
 20
117.4285504327
 30
0.0
 10
79.8960447607
 20
116.6585337878
 30
0.0
 10
82.1633441976
 20
115.7552457266
 30
0.0
 10
84.0115803526
 20
114.9659529052
 30
0.0
 10
85.5869889013
 20
114.2398684236
 30
0.0
 10
86.8677889144
 20
113.6090748703
 30
0.0
 10
87.8408398189
 20
113.1059319695
 30
0.0
 10
88.8138999073
 20
112.5747328495
 30
0.0
 10
89.7819014979
 20
112.0120463188
 30
0.0
 10
90.7378640379
 20
111.4122512855
 30
0.0
 10
91.5151050294
 20
110.8741342094
 30
0.0
 10
92.1162553157
 20
110.4112970928
 30
0.0
 10
92.5523691823
 20
110.0439501484
 30
0.0
 10
92.9661119663
 20
109.6514861798
 30
0.0
 10
93.3443190838
 20
109.2265424084
 30
0.0
 10
93.6108110821
 20
108.8341462943
 30
0.0
 10
93.7669046098
 20
108.4926291066
 30
0.0
 10
93.8432392445
 20
108.2246996015
 30
0.0
 10
93.866983095
 20
107.949874831
 30
0.0
 10
93.829396754
 20
107.6799476086
 30
0.0
 10
93.7351818628
 20
107.4278238328
 30
0.0
 10
93.6421914269
 20
107.2757852763
 30
0.0
 10
93.5907669964
 20
107.2039946396
 30
0.0
  0
SPLINE
  5
45C
100
AcDbEntity
  8
BEZUGSACHSEN
100
AcDbSpline
 62
7
  6
CONTINUOUS
 70
0
 71
3
 72
9
 73
5
 74
0
 42
0.0000001
 43
0.0000001
 44
0.0000000001
 40
0.0
 40
0.0
 40
0.0
 40
0.0
 40
0.2653732742
 40
1.0
 40
1.0
 40
1.0
 40
1.0
 10
128.1550818462
 20
119.3645839209
 30
0.0
 10
128.1579906039
 20
119.3658567141
 30
0.0
 10
128.1689341128
 20
119.3706926092
 30
0.0
 10
128.1798071326
 20
119.3756897295
 30
0.0
 10
128.1877341788
 20
119.3794864759
 30
0.0
  0
SPLINE
  5
45D
100
AcDbEntity
  8
BEZUGSACHSEN
100
AcDbSpline
 62
7
  6
CONTINUOUS
 70
0
 71
3
 72
9
 73
5
 74
0
 42
0.0000001
 43
0.0000001
 44
0.0000000001
 40
0.0
 40
0.0
 40
0.0
 40
0.0
 40
0.2343534463
 40
1.0
 40
1.0
 40
1.0
 40
1.0
 10
71.8509070579
 20
119.3794863234
 30
0.0
 10
71.8534180047
 20
119.3782836776
 30
0.0
 10
71.8641589168
 20
119.3732073849
 30
0.0
 10
71.874994753
 20
119.3683333029
 30
0.0
 10
71.8833270492
 20
119.3646854617
 30
0.0
  0
LINE
  5
45E
100
AcDbEntity
  8
0
100
AcDbLine
 62
7
  6
CONTINUOUS
 10
181.4972673064
 20
114.0603782142
 11
181.5315086824
 21
113.9486755062
  0
LINE
  5
45F
100
AcDbEntity
  8
0
100
AcDbLine
 62
7
  6
CONTINUOUS
 10
227.7353727065
 20
114.0603782142
 11
227.7011313306
 21
113.9486755062
  0
LINE
  5
460
100
AcDbEntity
  8
0
100
AcDbLine
 62
7
  6
CONTINUOUS
 10
180.7738256306
 20
119.1614415724
 11
181.1522589939
 21
117.9699519355
  0
LINE
  5
461
100
AcDbEntity
  8
0
100
AcDbLine
 62
7
  6
CONTINUOUS
 10
180.8965302962
 20
117.9699519355
 11
180.9277654595
 21
117.870506654
  0
LINE
  5
462
100
AcDbEntity
  8
0
100
AcDbLine
 62
7
  6
CONTINUOUS
 10
180.9277654595
 20
117.870506654
 11
181.0836834404
 21
117.3742073257
  0
SPLINE
  5
463
100
AcDbEntity
  8
0
100
AcDbSpline
 62
7
  6
CONTINUOUS
 70
0
 71
3
 72
8
 73
4
 74
0
 42
0.0000001
 43
0.0000001
 44
0.0000000001
 40
0.0
 40
0.0
 40
0.0
 40
0.0
 40
1.0
 40
1.0
 40
1.0
 40
1.0
 10
181.3416493833
 20
117.3742073257
 30
0.0
 10
181.6574466793
 20
116.3811494329
 30
0.0
 10
181.9736959789
 20
115.3882351354
 30
0.0
 10
182.2904561742
 20
114.3954839636
 30
0.0
  0
LINE
  5
464
100
AcDbEntity
  8
0
100
AcDbLine
 62
7
  6
CONTINUOUS
 10
179.8523735382
 20
119.4426948745
 11
179.8558090857
 21
119.4312303601
  0
LINE
  5
465
100
AcDbEntity
  8
0
100
AcDbLine
 62
7
  6
CONTINUOUS
 10
179.9075597731
 20
119.2601062631
 11
179.914948581
 21
119.2359095732
  0
SPLINE
  5
466
100
AcDbEntity
  8
0
100
AcDbSpline
 62
7
  6
CONTINUOUS
 70
0
 71
3
 72
9
 73
5
 74
0
 42
0.0000001
 43
0.0000001
 44
0.0000000001
 40
0.0
 40
0.0
 40
0.0
 40
0.0
 40
0.2451539632
 40
1.0
 40
1.0
 40
1.0
 40
1.0
 10
179.9492723586
 20
119.4593138773
 30
0.0
 10
179.9580493477
 20
119.4468018885
 30
0.0
 10
179.994346839
 20
119.3961133142
 30
0.0
 10
180.0325760945
 20
119.3468139878
 30
0.0
 10
180.0623577044
 20
119.3103777248
 30
0.0
  0
LINE
  5
467
100
AcDbEntity
  8
0
100
AcDbLine
 62
7
  6
CONTINUOUS
 10
180.6382609392
 20
117.0763350207
 11
180.6687304013
 21
116.9769594279
  0
LINE
  5
468
100
AcDbEntity
  8
0
100
AcDbLine
 62
7
  6
CONTINUOUS
 10
180.6687304013
 20
116.9769594279
 11
180.8209250591
 21
116.4805904109
  0
SPLINE
  5
469
100
AcDbEntity
  8
0
100
AcDbSpline
 62
7
  6
CONTINUOUS
 70
0
 71
3
 72
9
 73
5
 74
0
 42
0.0000001
 43
0.0000001
 44
0.0000000001
 40
0.0
 40
0.0
 40
0.0
 40
0.0
 40
0.2424192505
 40
1.0
 40
1.0
 40
1.0
 40
1.0
 10
180.8642579674
 20
116.4805904109
 30
0.0
 10
180.8743126238
 20
116.4680274522
 30
0.0
 10
180.9164776363
 20
116.4167569514
 30
0.0
 10
180.9612791031
 20
116.3676729547
 30
0.0
 10
180.996369645
 20
116.3316542585
 30
0.0
  0
LINE
  5
46A
100
AcDbEntity
  8
0
100
AcDbLine
 62
7
  6
CONTINUOUS
 10
181.3648147177
 20
115.4380371351
 11
181.5494313741
 21
114.8422925253
  0
LINE
  5
46B
100
AcDbEntity
  8
0
100
AcDbLine
 62
7
  6
CONTINUOUS
 10
181.5494313741
 20
114.8422925253
 11
181.6214801547
 21
114.5444202203
  0
LINE
  5
46C
100
AcDbEntity
  8
0
100
AcDbLine
 62
7
  6
CONTINUOUS
 10
181.8509279774
 20
113.1226521767
 11
181.8230702203
 21
113.2039738277
  0
LINE
  5
46D
100
AcDbEntity
  8
0
100
AcDbLine
 62
7
  6
CONTINUOUS
 10
228.8521778798
 20
118.5546910937
 11
228.7634557451
 21
118.2678242404
  0
LINE
  5
46E
100
AcDbEntity
  8
0
100
AcDbLine
 62
7
  6
CONTINUOUS
 10
228.7634557451
 20
118.2678242404
 11
228.7389095498
 21
118.1681408063
  0
LINE
  5
46F
100
AcDbEntity
  8
0
100
AcDbLine
 62
7
  6
CONTINUOUS
 10
228.7389095498
 20
118.1681408063
 11
228.7143401448
 21
118.0686145558
  0
LINE
  5
470
100
AcDbEntity
  8
0
100
AcDbLine
 62
7
  6
CONTINUOUS
 10
228.7143401448
 20
118.0686145558
 11
228.6651320142
 21
117.8700335444
  0
LINE
  5
471
100
AcDbEntity
  8
0
100
AcDbLine
 62
7
  6
CONTINUOUS
 10
228.6651320142
 20
117.8700335444
 11
228.6158316078
 21
117.6720796306
  0
LINE
  5
472
100
AcDbEntity
  8
0
100
AcDbLine
 62
7
  6
CONTINUOUS
 10
228.6158316078
 20
117.6720796306
 11
228.5967415082
 21
117.5726194228
  0
LINE
  5
473
100
AcDbEntity
  8
0
100
AcDbLine
 62
7
  6
CONTINUOUS
 10
228.5967415082
 20
117.5726194228
 11
228.577401985
 21
117.4733280255
  0
LINE
  5
474
100
AcDbEntity
  8
0
100
AcDbLine
 62
7
  6
CONTINUOUS
 10
228.577401985
 20
117.4733280255
 11
228.5578140792
 21
117.3742073257
  0
LINE
  5
475
100
AcDbEntity
  8
0
100
AcDbLine
 62
7
  6
CONTINUOUS
 10
228.5943790738
 20
117.0763350207
 11
228.4117149538
 21
116.4805904109
  0
LINE
  5
476
100
AcDbEntity
  8
0
100
AcDbLine
 62
7
  6
CONTINUOUS
 10
227.8678252953
 20
115.4380371351
 11
227.6832086389
 21
114.8422925253
  0
LINE
  5
477
100
AcDbEntity
  8
0
100
AcDbLine
 62
7
  6
CONTINUOUS
 10
227.6566079035
 20
113.9344759565
 11
227.6613534382
 21
113.9486755062
  0
SPLINE
  5
478
100
AcDbEntity
  8
0
100
AcDbSpline
 62
7
  6
CONTINUOUS
 70
0
 71
3
 72
9
 73
5
 74
0
 42
0.0000001
 43
0.0000001
 44
0.0000000001
 40
0.0
 40
0.0
 40
0.0
 40
0.0
 40
0.2428064899
 40
1.0
 40
1.0
 40
1.0
 40
1.0
 10
229.0718199705
 20
120.0550584871
 30
0.0
 10
229.0625757116
 20
120.0676114868
 30
0.0
 10
229.0238012276
 20
120.1187925712
 30
0.0
 10
228.9823334852
 20
120.1679158425
 30
0.0
 10
228.9497474957
 20
120.2039946396
 30
0.0
  0
LINE
  5
479
100
AcDbEntity
  8
0
100
AcDbLine
 62
7
  6
CONTINUOUS
 10
228.816592357
 20
118.5656969626
 11
228.980763827
 21
119.1614415724
  0
LINE
  5
47A
100
AcDbEntity
  8
0
100
AcDbLine
 62
7
  6
CONTINUOUS
 10
228.7243043283
 20
118.2678242404
 11
228.816592357
 21
118.5656969626
  0
SPLINE
  5
47B
100
AcDbEntity
  8
0
100
AcDbSpline
 62
7
  6
CONTINUOUS
 70
0
 71
3
 72
8
 73
4
 74
0
 42
0.0000001
 43
0.0000001
 44
0.0000000001
 40
0.0
 40
0.0
 40
0.0
 40
0.0
 40
1.0
 40
1.0
 40
1.0
 40
1.0
 10
228.5188952437
 20
117.6720796306
 30
0.0
 10
228.5875287273
 20
117.8706046182
 30
0.0
 10
228.6559970719
 20
118.0691867703
 30
0.0
 10
228.7243043283
 20
118.2678242404
 30
0.0
  0
LINE
  5
47C
100
AcDbEntity
  8
0
100
AcDbLine
 62
7
  6
CONTINUOUS
 10
227.153863245
 20
113.2039946396
 11
227.3850050113
 21
113.9486755062
  0
LINE
  5
47D
100
AcDbEntity
  8
0
100
AcDbLine
 62
7
  6
CONTINUOUS
 10
183.2798082399
 20
113.2039946396
 11
183.0836772929
 21
113.7997393016
  0
LINE
  5
47E
100
AcDbEntity
  8
0
100
AcDbLine
 62
7
  6
CONTINUOUS
 10
181.7766660724
 20
114.3954839636
 11
181.6615033771
 21
114.8422925253
  0
LINE
  5
47F
100
AcDbEntity
  8
0
100
AcDbLine
 62
7
  6
CONTINUOUS
 10
181.6615033771
 20
114.8422925253
 11
181.4759150892
 21
115.4380371351
  0
SPLINE
  5
480
100
AcDbEntity
  8
0
100
AcDbSpline
 62
7
  6
CONTINUOUS
 70
0
 71
3
 72
8
 73
4
 74
0
 42
0.0000001
 43
0.0000001
 44
0.0000000001
 40
0.0
 40
0.0
 40
0.0
 40
0.0
 40
1.0
 40
1.0
 40
1.0
 40
1.0
 10
181.4759150892
 20
115.4380371351
 30
0.0
 10
181.4060601771
 20
115.6365557814
 30
0.0
 10
181.3363859959
 20
115.8351381112
 30
0.0
 10
181.2668878982
 20
116.0337819535
 30
0.0
  0
LINE
  5
481
100
AcDbEntity
  8
0
100
AcDbLine
 62
7
  6
CONTINUOUS
 10
180.7352620193
 20
117.6720796306
 11
180.5723503474
 21
118.2678242404
  0
LINE
  5
482
100
AcDbEntity
  8
0
100
AcDbLine
 62
7
  6
CONTINUOUS
 10
180.5723503474
 20
118.2678242404
 11
180.4797959302
 21
118.5656969626
  0
SPLINE
  5
483
100
AcDbEntity
  8
0
100
AcDbSpline
 62
7
  6
CONTINUOUS
 70
0
 71
3
 72
8
 73
4
 74
0
 42
0.0000001
 43
0.0000001
 44
0.0000000001
 40
0.0
 40
0.0
 40
0.0
 40
0.0
 40
1.0
 40
1.0
 40
1.0
 40
1.0
 10
180.4797959302
 20
118.5656969626
 30
0.0
 10
180.4106812777
 20
118.7642208443
 30
0.0
 10
180.3417338175
 20
118.9628030078
 30
0.0
 10
180.2729494627
 20
119.1614415724
 30
0.0
  0
SPLINE
  5
484
100
AcDbEntity
  8
0
100
AcDbSpline
 62
7
  6
CONTINUOUS
 70
0
 71
3
 72
9
 73
5
 74
0
 42
0.0000001
 43
0.0000001
 44
0.0000000001
 40
0.0
 40
0.0
 40
0.0
 40
0.0
 40
0.2602147969
 40
1.0
 40
1.0
 40
1.0
 40
1.0
 10
179.8483376125
 20
120.0550584871
 30
0.0
 10
179.8355591139
 20
120.0672765487
 30
0.0
 10
179.7870798203
 20
120.114877511
 30
0.0
 10
179.7412004685
 20
120.1651678958
 30
0.0
 10
179.7092810582
 20
120.2039946396
 30
0.0
  0
LINE
  5
485
100
AcDbEntity
  8
0
100
AcDbLine
 62
7
  6
CONTINUOUS
 10
180.0096583475
 20
118.9565066529
 11
179.9934381793
 21
119.0125054199
  0
LINE
  5
486
100
AcDbEntity
  8
0
100
AcDbLine
 62
7
  6
CONTINUOUS
 10
179.9250028997
 20
119.2760040631
 11
179.9164177074
 21
119.3103777248
  0
SPLINE
  5
487
100
AcDbEntity
  8
BEZUGSACHSEN
100
AcDbSpline
 62
7
  6
CONTINUOUS
 70
0
 71
3
 72
23
 73
19
 74
0
 42
0.0000001
 43
0.0000001
 44
0.0000000001
 40
0.0
 40
0.0
 40
0.0
 40
0.0
 40
0.1654529041
 40
0.2447312786
 40
0.3206561686
 40
0.3925798668
 40
0.4600201384
 40
0.5226946133
 40
0.5805551464
 40
0.6338260906
 40
0.6830400121
 40
0.7291024756
 40
0.7733475043
 40
0.8176817347
 40
0.8650834872
 40
0.9221004421
 40
0.9596859967
 40
1.0
 40
1.0
 40
1.0
 40
1.0
 10
204.9801860122
 20
119.3646854617
 30
0.0
 10
206.4673120715
 20
119.3015312236
 30
0.0
 10
208.66569833
 20
119.1543025265
 30
0.0
 10
211.5315794828
 20
118.8208360526
 30
0.0
 10
213.5512514142
 20
118.5069814647
 30
0.0
 10
215.4503381667
 20
118.1225507311
 30
0.0
 10
217.2102460294
 20
117.6637837965
 30
0.0
 10
218.8156086929
 20
117.1272206358
 30
0.0
 10
220.2542749924
 20
116.5091931351
 30
0.0
 10
221.5174188929
 20
115.8061832658
 30
0.0
 10
222.5977599912
 20
115.0124590475
 30
0.0
 10
223.4903143836
 20
114.1219851785
 30
0.0
 10
224.1877554598
 20
113.1230378305
 30
0.0
 10
224.6824410882
 20
111.9949986287
 30
0.0
 10
224.9568627204
 20
110.6756131198
 30
0.0
 10
224.9418464123
 20
109.3865348903
 30
0.0
 10
224.7146932127
 20
108.1912158043
 30
0.0
 10
224.4711786494
 20
107.5279908127
 30
0.0
 10
224.3082018711
 20
107.2039946396
 30
0.0
  0
SPLINE
  5
488
100
AcDbEntity
  8
BEZUGSACHSEN
100
AcDbSpline
 62
7
  6
CONTINUOUS
 70
0
 71
3
 72
23
 73
19
 74
0
 42
0.0000001
 43
0.0000001
 44
0.0000000001
 40
0.0
 40
0.0
 40
0.0
 40
0.0
 40
0.1654529041
 40
0.2447312786
 40
0.3206561686
 40
0.3925798668
 40
0.4600201384
 40
0.5226946133
 40
0.5805551464
 40
0.6338260906
 40
0.6830400121
 40
0.7291024756
 40
0.7733475043
 40
0.8176817347
 40
0.8650834872
 40
0.9221004421
 40
0.9596859967
 40
1.0
 40
1.0
 40
1.0
 40
1.0
 10
204.2524540008
 20
119.3646854617
 30
0.0
 10
202.7653279414
 20
119.3015312236
 30
0.0
 10
200.566941683
 20
119.1543025265
 30
0.0
 10
197.7010605301
 20
118.8208360526
 30
0.0
 10
195.6813885987
 20
118.5069814647
 30
0.0
 10
193.7823018463
 20
118.1225507311
 30
0.0
 10
192.0223939835
 20
117.6637837965
 30
0.0
 10
190.4170313201
 20
117.1272206358
 30
0.0
 10
188.9783650205
 20
116.5091931351
 30
0.0
 10
187.7152211201
 20
115.8061832658
 30
0.0
 10
186.6348800217
 20
115.0124590475
 30
0.0
 10
185.7423256293
 20
114.1219851785
 30
0.0
 10
185.0448845532
 20
113.1230378305
 30
0.0
 10
184.5501989248
 20
111.9949986287
 30
0.0
 10
184.2757772925
 20
110.6756131198
 30
0.0
 10
184.2907936006
 20
109.3865348903
 30
0.0
 10
184.5179468003
 20
108.1912158043
 30
0.0
 10
184.7614613636
 20
107.5279908127
 30
0.0
 10
184.9244381418
 20
107.2039946396
 30
0.0
  0
SPLINE
  5
489
100
AcDbEntity
  8
0
100
AcDbSpline
 62
7
  6
CONTINUOUS
 70
0
 71
3
 72
9
 73
5
 74
0
 42
0.0000001
 43
0.0000001
 44
0.0000000001
 40
0.0
 40
0.0
 40
0.0
 40
0.0
 40
0.2414677911
 40
1.0
 40
1.0
 40
1.0
 40
1.0
 10
228.2861913726
 20
120.2039946396
 30
0.0
 10
228.2621883132
 20
120.191375342
 30
0.0
 10
228.1624230662
 20
120.1398012589
 30
0.0
 10
228.0612928061
 20
120.0908824578
 30
0.0
 10
227.9840042895
 20
120.0550584871
 30
0.0
  0
LINE
  5
48A
100
AcDbEntity
  8
0
100
AcDbLine
 62
7
  6
CONTINUOUS
 10
182.3295826723
 20
114.2835095776
 11
182.3205768881
 21
114.3275410143
  0
LINE
  5
48B
100
AcDbEntity
  8
0
100
AcDbLine
 62
7
  6
CONTINUOUS
 10
181.6735461902
 20
116.3310412609
 11
181.6122346599
 21
116.4805904109
  0
LINE
  5
48C
100
AcDbEntity
  8
0
100
AcDbLine
 62
7
  6
CONTINUOUS
 10
181.3597179448
 20
117.2252711732
 11
181.3276359248
 21
117.3742049139
  0
LINE
  5
48D
100
AcDbEntity
  8
0
100
AcDbLine
 62
7
  6
CONTINUOUS
 10
180.8017020111
 20
119.1614415724
 11
180.7569139959
 21
119.2598536912
  0
SPLINE
  5
48E
100
AcDbEntity
  8
0
100
AcDbSpline
 62
7
  6
CONTINUOUS
 70
0
 71
3
 72
9
 73
5
 74
0
 42
0.0000001
 43
0.0000001
 44
0.0000000001
 40
0.0
 40
0.0
 40
0.0
 40
0.0
 40
0.2604000736
 40
1.0
 40
1.0
 40
1.0
 40
1.0
 10
180.374362311
 20
120.0550584871
 30
0.0
 10
180.3614296169
 20
120.0672729268
 30
0.0
 10
180.3123957154
 20
120.1148371052
 30
0.0
 10
180.2659726688
 20
120.1651361771
 30
0.0
 10
180.2336803234
 20
120.2039946396
 30
0.0
  0
SPLINE
  5
48F
100
AcDbEntity
  8
0
100
AcDbSpline
 62
7
  6
CONTINUOUS
 70
0
 71
3
 72
8
 73
4
 74
0
 42
0.0000001
 43
0.0000001
 44
0.0000000001
 40
0.0
 40
0.0
 40
0.0
 40
0.0
 40
1.0
 40
1.0
 40
1.0
 40
1.0
 10
182.9331290338
 20
114.6933563728
 30
0.0
 10
182.644876438
 20
115.5868053307
 30
0.0
 10
182.3571647728
 20
116.4804289512
 30
0.0
 10
182.0699352187
 20
117.3742073257
 30
0.0
  0
LINE
  5
490
100
AcDbEntity
  8
0
100
AcDbLine
 62
7
  6
CONTINUOUS
 10
182.5581683797
 20
117.3742073257
 11
182.3622560809
 21
117.9699519355
  0
LINE
  5
491
100
AcDbEntity
  8
0
100
AcDbLine
 62
7
  6
CONTINUOUS
 10
181.8785616665
 20
117.9699519355
 11
181.8722339067
 21
117.9896584598
  0
LINE
  5
492
100
AcDbEntity
  8
0
100
AcDbLine
 62
7
  6
CONTINUOUS
 10
181.8722339067
 20
117.9896584598
 11
181.4962721719
 21
119.1614415724
  0
LINE
  5
493
100
AcDbEntity
  8
0
100
AcDbLine
 62
7
  6
CONTINUOUS
 10
183.833641934
 20
113.2039946396
 11
183.6369149764
 21
113.7997393016
  0
LINE
  5
494
100
AcDbEntity
  8
0
100
AcDbLine
 62
7
  6
CONTINUOUS
 10
229.2948402341
 20
119.1614415724
 11
229.2643264232
 21
119.0618506117
  0
LINE
  5
495
100
AcDbEntity
  8
0
100
AcDbLine
 62
7
  6
CONTINUOUS
 10
229.2643264232
 20
119.0618506117
 11
229.112024321
 21
118.5656969626
  0
LINE
  5
496
100
AcDbEntity
  8
0
100
AcDbLine
 62
7
  6
CONTINUOUS
 10
227.4493093023
 20
114.8422925253
 11
227.3141553175
 21
114.3954839636
  0
SPLINE
  5
497
100
AcDbEntity
  8
0
100
AcDbSpline
 62
7
  6
CONTINUOUS
 70
0
 71
3
 72
8
 73
4
 74
0
 42
0.0000001
 43
0.0000001
 44
0.0000000001
 40
0.0
 40
0.0
 40
0.0
 40
0.0
 40
1.0
 40
1.0
 40
1.0
 40
1.0
 10
182.3891453521
 20
114.6933563728
 30
0.0
 10
182.1014735638
 20
115.5868155552
 30
0.0
 10
181.8143103394
 20
116.4804386095
 30
0.0
 10
181.5276016886
 20
117.3742073257
 30
0.0
  0
LINE
  5
498
100
AcDbEntity
  8
0
100
AcDbLine
 62
7
  6
CONTINUOUS
 10
182.006239902
 20
117.3742073257
 11
181.8108545466
 21
117.9699519355
  0
LINE
  5
499
100
AcDbEntity
  8
0
100
AcDbLine
 62
7
  6
CONTINUOUS
 10
181.3365687952
 20
117.9699519355
 11
180.9549346517
 21
119.1614415724
  0
LINE
  5
49A
100
AcDbEntity
  8
0
100
AcDbLine
 62
7
  6
CONTINUOUS
 10
227.9721965049
 20
114.8422925253
 11
227.837016271
 21
114.3954839636
  0
LINE
  5
49B
100
AcDbEntity
  8
0
100
AcDbLine
 62
7
  6
CONTINUOUS
 10
227.3296483312
 20
113.1414461871
 11
227.3228666722
 21
113.122465247
  0
LINE
  5
49C
100
AcDbEntity
  8
0
100
AcDbLine
 62
7
  6
CONTINUOUS
 10
227.0371441451
 20
112.3331340218
 11
227.0287979493
 21
112.3103776205
  0
LINE
  5
49D
100
AcDbEntity
  8
0
100
AcDbLine
 62
7
  6
CONTINUOUS
 10
228.248744302
 20
119.2020610429
 11
228.2472079687
 21
119.1613481069
  0
LINE
  5
49E
100
AcDbEntity
  8
0
100
AcDbLine
 62
7
  6
CONTINUOUS
 10
228.2406568809
 20
119.0125054199
 11
228.2359089484
 21
118.9882236289
  0
LINE
  5
49F
100
AcDbEntity
  8
0
100
AcDbLine
 62
7
  6
CONTINUOUS
 10
228.2359089484
 20
118.9882236289
 11
228.2187052901
 21
118.9005271862
  0
LINE
  5
4A0
100
AcDbEntity
  8
0
100
AcDbLine
 62
7
  6
CONTINUOUS
 10
226.0982759535
 20
113.9486755062
 11
225.8519023606
 21
113.2039946396
  0
LINE
  5
4A1
100
AcDbEntity
  8
0
100
AcDbLine
 62
7
  6
CONTINUOUS
 10
228.6827318165
 20
118.5656969626
 11
228.5898824863
 21
118.2678242404
  0
SPLINE
  5
4A2
100
AcDbEntity
  8
0
100
AcDbSpline
 62
7
  6
CONTINUOUS
 70
0
 71
3
 72
9
 73
5
 74
0
 42
0.0000001
 43
0.0000001
 44
0.0000000001
 40
0.0
 40
0.0
 40
0.0
 40
0.0
 40
0.2548618841
 40
1.0
 40
1.0
 40
1.0
 40
1.0
 10
228.6843134206
 20
119.4593138773
 30
0.0
 10
228.6933575568
 20
119.447003339
 30
0.0
 10
228.7283857912
 20
119.3983664693
 30
0.0
 10
228.761539858
 20
119.3483731016
 30
0.0
 10
228.7850129804
 20
119.3103777248
 30
0.0
  0
LINE
  5
4A3
100
AcDbEntity
  8
0
100
AcDbLine
 62
7
  6
CONTINUOUS
 10
228.1522107245
 20
118.5656969626
 11
228.0592967908
 21
118.2678242404
  0
SPLINE
  5
4A4
100
AcDbEntity
  8
0
100
AcDbSpline
 62
7
  6
CONTINUOUS
 70
0
 71
3
 72
9
 73
5
 74
0
 42
0.0000001
 43
0.0000001
 44
0.0000000001
 40
0.0
 40
0.0
 40
0.0
 40
0.0
 40
0.2415509044
 40
1.0
 40
1.0
 40
1.0
 40
1.0
 10
228.8230580115
 20
120.2039946396
 30
0.0
 10
228.7994271625
 20
120.1913789589
 30
0.0
 10
228.7012363023
 20
120.1398287612
 30
0.0
 10
228.6016767938
 20
120.0908999308
 30
0.0
 10
228.5255848693
 20
120.0550584871
 30
0.0
  0
LINE
  5
4A5
100
AcDbEntity
  8
0
100
AcDbLine
 62
7
  6
CONTINUOUS
 10
225.5430097023
 20
113.9486755062
 11
225.2958332683
 21
113.2039946396
  0
LINE
  5
4A6
100
AcDbEntity
  8
BEZUGSACHSEN
100
AcDbLine
 62
7
  6
CONTINUOUS
 10
137.762443652
 20
56.1676224542
 11
137.998175279
 21
56.1676220885
  0
LINE
  5
4A7
100
AcDbEntity
  8
BEZUGSACHSEN
100
AcDbLine
 62
7
  6
CONTINUOUS
 10
62.0404646968
 20
56.1676220903
 11
62.2761972315
 21
56.1676229393
  0
ENDSEC
  0
SECTION
  2
OBJECTS
  0
DICTIONARY
  5
C
100
AcDbDictionary
280
0
281
1
  3
ACAD_GROUP
350
D
  3
ACAD_MLINESTYLE
350
17
  3
ACAD_LAYOUT
350
1A
  3
ACAD_PLOTSETTINGS
350
19
  3
ACAD_PLOTSTYLENAME
350
E
  0
DICTIONARY
  5
D
102
{ACAD_REACTORS
330
C
102
}
100
AcDbDictionary
280
0
281
1
  0
ACDBDICTIONARYWDFLT
  5
E
102
{ACAD_REACTORS
330
C
102
}
100
AcDbDictionary
281
1
  3
Normal
350
F
100
AcDbDictionaryWithDefault
340
F
  0
DICTIONARY
  5
17
102
{ACAD_REACTORS
330
C
102
}
100
AcDbDictionary
280
0
281
1
  3
Standard
350
18
  0
DICTIONARY
  5
19
102
{ACAD_REACTORS
330
C
102
}
100
AcDbDictionary
281
1
  0
DICTIONARY
  5
1A
102
{ACAD_REACTORS
330
C
102
}
100
AcDbDictionary
281
1
  3
Model
350
4A8
  3
Layout1
350
4A9
  0
ACDBPLACEHOLDER
  5
F
102
{ACAD_REACTORS
330
E
102
}
  0
MLINESTYLE
  5
18
102
{ACAD_REACTORS
330
17
102
}
100
AcDbMlineStyle
  2
STANDARD
 70
0
  3

 62
256
 51
90.0
 52
90.0
 71
2
 49
0.5
 62
256
  6
BYLAYER
 49
-0.5
 62
256
  6
BYLAYER
  0
LAYOUT
  5
4A8
102
{ACAD_REACTORS
330
1A
102
}
100
AcDbPlotSettings
  1

  2
none_device
  4
ISO_A4_(297.00_x_210.00_MM)
  6

 40
0.0
 41
0.0
 42
0.0
 43
0.0
 44
297.0
 45
210.0
 46
0.0
 47
0.0
 48
0.0
 49
0.0
140
0.0
141
0.0
142
1.0
143
1.0
 70
1024
 72
1
 73
0
 74
0
  7

 75
0
147
1.0
148
0.0
149
0.0
100
AcDbLayout
  1
Model
 70
0
 71
0
 10
0.0
 20
0.0
 11
297.0
 21
210.0
 12
0.0
 22
0.0
 32
0.0
 14
0.0
 24
0.0
 34
0.0
 15
0.0
 25
0.0
 35
0.0
146
0.0
 13
0.0
 23
0.0
 33
0.0
 16
1.0
 26
0.0
 36
0.0
 17
0.0
 27
1.0
 37
0.0
 76
0
330
20D
345
0
346
0
  0
LAYOUT
  5
4A9
102
{ACAD_REACTORS
330
1A
102
}
100
AcDbPlotSettings
  1

  2
none_device
  4
ISO_A4_(297.00_x_210.00_MM)
  6

 40
0.0
 41
0.0
 42
0.0
 43
0.0
 44
297.0
 45
210.0
 46
0.0
 47
0.0
 48
0.0
 49
0.0
140
0.0
141
0.0
142
1.0
143
1.0
 70
0
 72
1
 73
0
 74
0
  7

 75
0
147
1.0
148
0.0
149
0.0
100
AcDbLayout
  1
Layout1
 70
0
 71
1
 10
0.0
 20
0.0
 11
297.0
 21
210.0
 12
0.0
 22
0.0
 32
0.0
 14
0.0
 24
0.0
 34
0.0
 15
0.0
 25
0.0
 35
0.0
146
0.0
 13
0.0
 23
0.0
 33
0.0
 16
1.0
 26
0.0
 36
0.0
 17
0.0
 27
1.0
 37
0.0
 76
0
330
20E
345
0
346
0
  0
ENDSEC
  0
EOF
