999
DXF file: VRM_M16_1_5t_7990314_M32423-P-1.dxf
999
Pro/ENGINEER 2011490 by Parametric Technology Corporation
  0
SECTION
  2
HEADER
  9
$ACADVER
  1
AC1015
  9
$DWGCODEPAGE
  3
ANSI_1252
  9
$EXTMAX
 10
297.0
 20
210.0
 30
0.0
  9
$EXTMIN
 10
0.0
 20
0.0
 30
0.0
  9
$LIMMIN
 10
0.0
 20
0.0
  9
$LIMMAX
 10
297.0
 20
210.0
  9
$VIEWCTR
 10
148.5
 20
105.0
  9
$VIEWSIZE
 40
210.0
  9
$CLAYER
  8
0
  9
$LTSCALE
 40
16.335
  9
$CELTYPE
  6
BYLAYER
  9
$DIMSCALE
 40
1.0
  9
$DIMASZ
 40
3.5
  9
$DIMEXO
 40
1.85625
  9
$DIMDLI
 40
11.286
  9
$DIMEXE
 40
5.346
  9
$DIMCEN
 40
2.673
  9
$DIMLFAC
 40
1.0
  9
$DIMBLK
  1
_FILLED
  9
$DIMTXT
 40
3.5
  9
$DIMTOL
 70
1
  9
$DIMLIM
 70
0
  9
$DIMTFAC
 40
1.0
  9
$DIMTP
 40
0.005
  9
$DIMTM
 40
0.005
  9
$PDMODE
 70
3
  9
$PDSIZE
 40
0.3125
  9
$HANDSEED
  5
43B
  9
$TILEMODE
 70
1
  9
$MEASUREMENT
 70
1
  9
$INSUNITS
 70
4
  0
ENDSEC
  0
SECTION
  2
CLASSES
  0
CLASS
  1
ACDBDICTIONARYWDFLT
  2
AcDbDictionaryWithDefault
  3
AutoCAD 2000
 90
0
280
0
281
0
  0
CLASS
  1
ACDBPLACEHOLDER
  2
AcDbPlaceHolder
  3
AutoCAD 2000
 90
0
280
0
281
0
  0
CLASS
  1
LAYOUT
  2
AcDbLayout
  3
AutoCAD 2000
 90
0
280
0
281
0
  0
ENDSEC
  0
SECTION
  2
TABLES
  0
TABLE
  2
VPORT
  5
8
100
AcDbSymbolTable
 70
2
  0
VPORT
  5
1F4
100
AcDbSymbolTableRecord
100
AcDbViewportTableRecord
  2
*ACTIVE
 70
0
 10
0.0
 20
0.0
 11
1.0
 21
1.0
 12
148.5
 22
105.0
 13
0.0
 23
0.0
 14
1.0
 24
1.0
 15
0.0
 25
0.0
 16
0.0
 26
0.0
 36
1.0
 17
0.0
 27
0.0
 37
0.0
 40
210.0
 41
1.4142857143
 42
50.0
 43
0.0
 44
0.0
 50
0.0
 51
0.0
 71
0
 72
100
 73
1
 74
1
 75
0
 76
0
 77
0
 78
0
  0
ENDTAB
  0
TABLE
  2
LTYPE
  5
5
100
AcDbSymbolTable
 70
6
  0
LTYPE
  5
14
100
AcDbSymbolTableRecord
100
AcDbLinetypeTableRecord
  2
BYBLOCK
 70
0
  3

 72
65
 73
0
 40
0.0
  0
LTYPE
  5
15
100
AcDbSymbolTableRecord
100
AcDbLinetypeTableRecord
  2
BYLAYER
 70
0
  3

 72
65
 73
0
 40
0.0
  0
LTYPE
  5
16
100
AcDbSymbolTableRecord
100
AcDbLinetypeTableRecord
  2
CONTINUOUS
 70
64
  3
Solid line
 72
65
 73
0
 40
0.0
  0
LTYPE
  5
1F5
100
AcDbSymbolTableRecord
100
AcDbLinetypeTableRecord
  2
CENTER
 70
64
  3
____ _ ____ _ ____ _ ____ _ ____ _ ____ _ ____
 72
65
 73
4
 40
0.6
 49
0.375
 74
0
 49
-0.075
 74
0
 49
0.075
 74
0
 49
-0.075
 74
0
  0
LTYPE
  5
1F6
100
AcDbSymbolTableRecord
100
AcDbLinetypeTableRecord
  2
HIDDEN
 70
64
  3
- - - - - - - - - - - - - - - - - - - -
 72
65
 73
2
 40
0.2
 49
0.1
 74
0
 49
-0.1
 74
0
  0
LTYPE
  5
1F7
100
AcDbSymbolTableRecord
100
AcDbLinetypeTableRecord
  2
PHANTOM
 70
64
  3
_____ _ _ _____ _ _ _____ _ _ _____
 72
65
 73
6
 40
0.8
 49
0.45
 74
0
 49
-0.05
 74
0
 49
0.1
 74
0
 49
-0.05
 74
0
 49
0.1
 74
0
 49
-0.05
 74
0
  0
LTYPE
  5
1F8
100
AcDbSymbolTableRecord
100
AcDbLinetypeTableRecord
  2
DOT
 70
64
  3
. . . . . . . . . . . . . . . . . . . .
 72
65
 73
2
 40
0.2
 49
0.1
 74
0
 49
-0.1
 74
0
  0
LTYPE
  5
1F9
100
AcDbSymbolTableRecord
100
AcDbLinetypeTableRecord
  2
DASHED
 70
64
  3
- - - - - - - - - - - - - - - - - - - -
 72
65
 73
2
 40
0.2
 49
0.1
 74
0
 49
-0.1
 74
0
  0
ENDTAB
  0
TABLE
  2
LAYER
  5
2
100
AcDbSymbolTable
 70
36
  0
LAYER
  5
10
100
AcDbSymbolTableRecord
100
AcDbLayerTableRecord
  2
0
 70
0
 62
7
  6
CONTINUOUS
370
-3
390
F
  0
LAYER
  5
1FA
100
AcDbSymbolTableRecord
100
AcDbLayerTableRecord
  2
DEFAULT_1
 70
0
 62
7
  6
CENTER
370
-3
390
F
  0
LAYER
  5
1FB
100
AcDbSymbolTableRecord
100
AcDbLayerTableRecord
  2
DEFAULT_2
 70
0
 62
8
  6
HIDDEN
370
-3
390
F
  0
LAYER
  5
1FC
100
AcDbSymbolTableRecord
100
AcDbLayerTableRecord
  2
DEFAULT_3
 70
0
 62
7
  6
PHANTOM
370
-3
390
F
  0
LAYER
  5
1FD
100
AcDbSymbolTableRecord
100
AcDbLayerTableRecord
  2
BEZUGSACHSEN
 70
0
 62
7
  6
CONTINUOUS
370
-3
390
F
  0
LAYER
  5
1FE
100
AcDbSymbolTableRecord
100
AcDbLayerTableRecord
  2
BG_STARTBEZUEGE
 70
0
 62
7
  6
CONTINUOUS
370
-3
390
F
  0
LAYER
  5
1FF
100
AcDbSymbolTableRecord
100
AcDbLayerTableRecord
  2
BOHRUNGEN
 70
0
 62
7
  6
CONTINUOUS
370
-3
390
F
  0
LAYER
  5
200
100
AcDbSymbolTableRecord
100
AcDbLayerTableRecord
  2
FASEN
 70
0
 62
7
  6
CONTINUOUS
370
-3
390
F
  0
LAYER
  5
201
100
AcDbSymbolTableRecord
100
AcDbLayerTableRecord
  2
FLAECHEN
 70
0
 62
7
  6
CONTINUOUS
370
-3
390
F
  0
LAYER
  5
202
100
AcDbSymbolTableRecord
100
AcDbLayerTableRecord
  2
GEWINDE
 70
0
 62
7
  6
CONTINUOUS
370
-3
390
F
  0
LAYER
  5
203
100
AcDbSymbolTableRecord
100
AcDbLayerTableRecord
  2
HILFEN
 70
0
 62
7
  6
CONTINUOUS
370
-3
390
F
  0
LAYER
  5
204
100
AcDbSymbolTableRecord
100
AcDbLayerTableRecord
  2
KURVEN
 70
0
 62
7
  6
CONTINUOUS
370
-3
390
F
  0
LAYER
  5
205
100
AcDbSymbolTableRecord
100
AcDbLayerTableRecord
  2
NORM
 70
0
 62
7
  6
CONTINUOUS
370
-3
390
F
  0
LAYER
  5
206
100
AcDbSymbolTableRecord
100
AcDbLayerTableRecord
  2
PLATZIERUNG
 70
0
 62
7
  6
CONTINUOUS
370
-3
390
F
  0
LAYER
  5
207
100
AcDbSymbolTableRecord
100
AcDbLayerTableRecord
  2
RUNDUNGEN
 70
0
 62
7
  6
CONTINUOUS
370
-3
390
F
  0
LAYER
  5
208
100
AcDbSymbolTableRecord
100
AcDbLayerTableRecord
  2
TEIL_STARTBEZUEGE
 70
0
 62
7
  6
CONTINUOUS
370
-3
390
F
  0
LAYER
  5
209
100
AcDbSymbolTableRecord
100
AcDbLayerTableRecord
  2
T_STARTBEZUEGE
 70
0
 62
7
  6
CONTINUOUS
370
-3
390
F
  0
ENDTAB
  0
TABLE
  2
STYLE
  5
3
100
AcDbSymbolTable
 70
1
  0
STYLE
  5
11
100
AcDbSymbolTableRecord
100
AcDbTextStyleTableRecord
  2
STANDARD
 70
0
 40
0.0
 41
0.7
 50
0.0
 71
0
 42
0.2
  3
txt
  4

  0
STYLE
  5
20A
100
AcDbSymbolTableRecord
100
AcDbTextStyleTableRecord
  2
TEXTSTYLE_1
 70
0
 40
0.0
 41
0.8
 50
0.0
 71
0
 42
0.2
  3
gdt
  4

  0
ENDTAB
  0
TABLE
  2
VIEW
  5
6
100
AcDbSymbolTable
 70
0
  0
ENDTAB
  0
TABLE
  2
UCS
  5
7
100
AcDbSymbolTable
 70
0
  0
ENDTAB
  0
TABLE
  2
APPID
  5
9
100
AcDbSymbolTable
 70
1
  0
APPID
  5
20B
100
AcDbSymbolTableRecord
100
AcDbRegAppTableRecord
  2
ACAD
 70
0
  0
ENDTAB
  0
TABLE
  2
BLOCK_RECORD
  5
1
100
AcDbSymbolTable
 70
0
  0
BLOCK_RECORD
  5
20C
100
AcDbSymbolTableRecord
100
AcDbBlockTableRecord
  2
*Model_Space
  0
BLOCK_RECORD
  5
20D
100
AcDbSymbolTableRecord
100
AcDbBlockTableRecord
  2
*Paper_Space
  0
ENDTAB
  0
TABLE
  2
DIMSTYLE
  5
A
100
AcDbSymbolTable
 70
1
100
AcDbDimStyleTable
 71
0
  0
DIMSTYLE
105
20E
100
AcDbSymbolTableRecord
100
AcDbDimStyleTableRecord
  2
STANDARD
 70
0
  3

  4

 40
1.0
 41
3.5
 42
0.0625
 43
0.38
 44
0.18
 45
0.0
 46
0.0
 47
0.005
 48
0.005
140
3.5
141
0.09
142
0.0
143
25.4
144
1.0
145
0.0
146
1.0
147
0.09
 71
1.0
 72
0.0
 73
0
 74
0
 75
0
 76
0
 77
1
 78
8
170
0
171
2
172
0
173
0
174
0
175
0
176
0
177
0
178
5
270
2
271
3
272
3
273
2
274
2
275
0
280
0
281
0
282
0
283
1
284
8
285
0
286
0
287
3
288
0
340
11
  0
ENDTAB
  0
ENDSEC
  0
SECTION
  2
BLOCKS
  0
BLOCK
  5
20
100
AcDbEntity
  8
0
100
AcDbBlockBegin
  2
*Model_Space
 70
0
 10
0.0
 20
0.0
 30
0.0
  3
*Model_Space
  1

  0
ENDBLK
  5
21
100
AcDbEntity
  8
0
100
AcDbBlockEnd
  0
BLOCK
  5
1C
100
AcDbEntity
  8
0
100
AcDbBlockBegin
  2
*Paper_Space
 70
0
 10
0.0
 20
0.0
 30
0.0
  3
*Paper_Space
  1

  0
ENDBLK
  5
1D
100
AcDbEntity
  8
0
100
AcDbBlockEnd
  0
ENDSEC
  0
SECTION
  2
ENTITIES
  0
MTEXT
  5
20F
100
AcDbEntity
  8
0
100
AcDbMText
 62
5
  6
CONTINUOUS
  7
STANDARD
 71
1
 72
1
 10
187.3803560268
 20
130.0041678888
 30
0.0
 11
0.0
 21
1.0
 31
0.0
 44
0.9
  1
VRM 1,5t RUD
 40
4.0
 41
36.5714285714
  0
MTEXT
  5
210
100
AcDbEntity
  8
0
100
AcDbMText
 62
5
  6
CONTINUOUS
  7
STANDARD
 71
1
 72
1
 10
81.1197126524
 20
60.9608523321
 30
0.0
 11
1.0
 21
0.0
 31
0.0
 44
0.9
  1
VRM 1,5t RUD
 40
4.0
 41
36.5714285714
  0
LINE
  5
211
100
AcDbEntity
  8
0
100
AcDbLine
 62
7
  6
CONTINUOUS
 10
0.0
 20
0.0
 11
0.0
 21
210.0
  0
LINE
  5
212
100
AcDbEntity
  8
0
100
AcDbLine
 62
7
  6
CONTINUOUS
 10
0.0
 20
0.0
 11
297.0
 21
0.0
  0
LINE
  5
213
100
AcDbEntity
  8
0
100
AcDbLine
 62
7
  6
CONTINUOUS
 10
0.0
 20
210.0
 11
297.0
 21
210.0
  0
LINE
  5
214
100
AcDbEntity
  8
0
100
AcDbLine
 62
7
  6
CONTINUOUS
 10
297.0
 20
0.0
 11
297.0
 21
210.0
  0
LINE
  5
215
100
AcDbEntity
  8
0
100
AcDbLine
 62
7
  6
CONTINUOUS
 10
111.0272325502
 20
106.1805628422
 11
87.4272325502
 21
106.1805628422
  0
LINE
  5
216
100
AcDbEntity
  8
BEZUGSACHSEN
100
AcDbLine
 62
7
  6
CONTINUOUS
 10
117.2272325502
 20
106.4805628422
 11
81.2272325502
 21
106.4805628422
  0
LINE
  5
217
100
AcDbEntity
  8
0
100
AcDbLine
 62
7
  6
CONTINUOUS
 10
100.5397327886
 20
111.2465202871
 11
100.0397325502
 21
111.1188607278
  0
LINE
  5
218
100
AcDbEntity
  8
0
100
AcDbLine
 62
7
  6
CONTINUOUS
 10
100.0397325502
 20
110.4805628422
 11
100.6647323118
 21
110.6082224126
  0
LINE
  5
219
100
AcDbEntity
  8
0
100
AcDbLine
 62
7
  6
CONTINUOUS
 10
95.0397324906
 20
109.7146053972
 11
95.664732431
 21
109.7146053972
  0
LINE
  5
21A
100
AcDbEntity
  8
0
100
AcDbLine
 62
7
  6
CONTINUOUS
 10
93.2897325502
 20
110.4805628422
 11
94.0397325502
 21
110.4805628422
  0
LINE
  5
21B
100
AcDbEntity
  8
0
100
AcDbLine
 62
7
  6
CONTINUOUS
 10
99.2897325502
 20
110.4805628422
 11
100.0397325502
 21
110.4805628422
  0
LINE
  5
21C
100
AcDbEntity
  8
0
100
AcDbLine
 62
7
  6
CONTINUOUS
 10
100.0397325502
 20
111.1188607278
 11
99.2897325502
 21
111.1188607278
  0
LINE
  5
21D
100
AcDbEntity
  8
0
100
AcDbLine
 62
7
  6
CONTINUOUS
 10
96.414732431
 20
111.1188607278
 11
95.7897326694
 21
111.1188607278
  0
LINE
  5
21E
100
AcDbEntity
  8
0
100
AcDbLine
 62
7
  6
CONTINUOUS
 10
98.1647325502
 20
112.012477732
 11
97.4147325502
 21
112.012477732
  0
LINE
  5
21F
100
AcDbEntity
  8
0
100
AcDbLine
 62
7
  6
CONTINUOUS
 10
97.4147325502
 20
113.161413944
 11
98.289732431
 21
113.161413944
  0
LINE
  5
220
100
AcDbEntity
  8
0
100
AcDbLine
 62
7
  6
CONTINUOUS
 10
99.2897325502
 20
113.672052181
 11
100.0397325502
 21
113.672052181
  0
LINE
  5
221
100
AcDbEntity
  8
0
100
AcDbLine
 62
7
  6
CONTINUOUS
 10
102.9147323118
 20
114.0550308588
 11
103.9147327886
 21
114.0550308588
  0
LINE
  5
222
100
AcDbEntity
  8
0
100
AcDbLine
 62
7
  6
CONTINUOUS
 10
104.5397325502
 20
114.0550308588
 11
105.914733027
 21
114.0550308588
  0
LINE
  5
223
100
AcDbEntity
  8
0
100
AcDbLine
 62
7
  6
CONTINUOUS
 10
100.0397325502
 20
114.3103499773
 11
99.2897325502
 21
114.3103499773
  0
LINE
  5
224
100
AcDbEntity
  8
0
100
AcDbLine
 62
7
  6
CONTINUOUS
 10
105.914733027
 20
114.5656690958
 11
104.5397325502
 21
114.5656690958
  0
LINE
  5
225
100
AcDbEntity
  8
0
100
AcDbLine
 62
7
  6
CONTINUOUS
 10
103.9147327886
 20
114.5656690958
 11
102.9147323118
 21
114.5656690958
  0
LINE
  5
226
100
AcDbEntity
  8
0
100
AcDbLine
 62
7
  6
CONTINUOUS
 10
104.9147325502
 20
110.6082224126
 11
105.6647325502
 21
110.4805628422
  0
LINE
  5
227
100
AcDbEntity
  8
0
100
AcDbLine
 62
7
  6
CONTINUOUS
 10
98.6647327886
 20
110.6082224126
 11
99.2897325502
 21
110.4805628422
  0
LINE
  5
228
100
AcDbEntity
  8
0
100
AcDbLine
 62
7
  6
CONTINUOUS
 10
105.6647325502
 20
110.9912011239
 11
105.0397320733
 21
111.1188607278
  0
LINE
  5
229
100
AcDbEntity
  8
0
100
AcDbLine
 62
7
  6
CONTINUOUS
 10
99.2897325502
 20
111.1188607278
 11
98.7897323118
 21
111.2465202871
  0
LINE
  5
22A
100
AcDbEntity
  8
0
100
AcDbLine
 62
7
  6
CONTINUOUS
 10
98.7897323118
 20
113.5443926218
 11
99.2897325502
 21
113.672052181
  0
LINE
  5
22B
100
AcDbEntity
  8
0
100
AcDbLine
 62
7
  6
CONTINUOUS
 10
99.2897325502
 20
114.3103499773
 11
98.6647327886
 21
114.182690418
  0
LINE
  5
22C
100
AcDbEntity
  8
0
100
AcDbLine
 62
7
  6
CONTINUOUS
 10
104.5397325502
 20
115.5869459274
 11
103.9147327886
 21
115.5869459274
  0
LINE
  5
22D
100
AcDbEntity
  8
0
100
AcDbLine
 62
7
  6
CONTINUOUS
 10
98.0397326694
 20
115.8422650459
 11
101.6647327886
 21
115.8422650459
  0
LINE
  5
22E
100
AcDbEntity
  8
0
100
AcDbLine
 62
7
  6
CONTINUOUS
 10
101.6647327886
 20
116.4805628422
 11
97.4147325502
 21
116.4805628422
  0
LINE
  5
22F
100
AcDbEntity
  8
0
100
AcDbLine
 62
7
  6
CONTINUOUS
 10
94.0397325502
 20
116.4805628422
 11
93.2897325502
 21
116.4805628422
  0
LINE
  5
230
100
AcDbEntity
  8
0
100
AcDbLine
 62
7
  6
CONTINUOUS
 10
73.2272325502
 20
117.4805628422
 11
73.5621718195
 21
117.4805628422
  0
LINE
  5
231
100
AcDbEntity
  8
0
100
AcDbLine
 62
7
  6
CONTINUOUS
 10
124.8922932809
 20
117.4805628422
 11
125.2272325502
 21
117.4805628422
  0
LINE
  5
232
100
AcDbEntity
  8
0
100
AcDbLine
 62
7
  6
CONTINUOUS
 10
100.6647323118
 20
114.182690418
 11
100.0397325502
 21
114.3103499773
  0
LINE
  5
233
100
AcDbEntity
  8
0
100
AcDbLine
 62
7
  6
CONTINUOUS
 10
100.0397325502
 20
113.672052181
 11
100.5397327886
 21
113.5443926218
  0
LINE
  5
234
100
AcDbEntity
  8
0
100
AcDbLine
 62
7
  6
CONTINUOUS
 10
104.5397325502
 20
110.735881983
 11
104.9147325502
 21
110.6082224126
  0
LINE
  5
235
100
AcDbEntity
  8
0
100
AcDbLine
 62
7
  6
CONTINUOUS
 10
98.0397326694
 20
110.9912011239
 11
98.6647327886
 21
110.6082224126
  0
LINE
  5
236
100
AcDbEntity
  8
0
100
AcDbLine
 62
7
  6
CONTINUOUS
 10
98.7897323118
 20
111.2465202871
 11
98.4147326694
 21
111.5018394056
  0
LINE
  5
237
100
AcDbEntity
  8
BEZUGSACHSEN
100
AcDbLine
 62
7
  6
CONTINUOUS
 10
75.7830496058
 20
115.3825025721
 11
75.4248365921
 21
116.2456949767
  0
LINE
  5
238
100
AcDbEntity
  8
BEZUGSACHSEN
100
AcDbLine
 62
7
  6
CONTINUOUS
 10
71.0708063712
 20
126.7376806722
 11
66.8087117285
 21
137.0081275355
  0
LINE
  5
239
100
AcDbEntity
  8
0
100
AcDbLine
 62
7
  6
CONTINUOUS
 10
101.2897327886
 20
113.7997117403
 11
100.6647323118
 21
114.182690418
  0
LINE
  5
23A
100
AcDbEntity
  8
0
100
AcDbLine
 62
7
  6
CONTINUOUS
 10
104.1647325502
 20
110.9912011239
 11
104.5397325502
 21
110.735881983
  0
LINE
  5
23B
100
AcDbEntity
  8
0
100
AcDbLine
 62
7
  6
CONTINUOUS
 10
100.5397327886
 20
113.5443926218
 11
100.9147327886
 21
113.2890735033
  0
LINE
  5
23C
100
AcDbEntity
  8
0
100
AcDbLine
 62
7
  6
CONTINUOUS
 10
105.0397320733
 20
111.1188607278
 11
104.6647320733
 21
111.3741798463
  0
LINE
  5
23D
100
AcDbEntity
  8
BEZUGSACHSEN
100
AcDbLine
 62
7
  6
CONTINUOUS
 10
71.2272325502
 20
119.4805628422
 11
71.2272325502
 21
125.4805628422
  0
LINE
  5
23E
100
AcDbEntity
  8
BEZUGSACHSEN
100
AcDbLine
 62
7
  6
CONTINUOUS
 10
71.2345659764
 20
125.6516766228
 11
71.2272325502
 21
125.4805628422
  0
LINE
  5
23F
100
AcDbEntity
  8
RUNDUNGEN
100
AcDbLine
 62
7
  6
CONTINUOUS
 10
71.2272325502
 20
125.4805628422
 11
71.2345659764
 21
125.6516766228
  0
LINE
  5
240
100
AcDbEntity
  8
0
100
AcDbLine
 62
7
  6
CONTINUOUS
 10
89.7272325502
 20
126.6805628422
 11
108.7272325502
 21
126.6805628422
  0
LINE
  5
241
100
AcDbEntity
  8
0
100
AcDbLine
 62
7
  6
CONTINUOUS
 10
97.6647326694
 20
111.5018394056
 11
98.0397326694
 21
110.9912011239
  0
LINE
  5
242
100
AcDbEntity
  8
BEZUGSACHSEN
100
AcDbLine
 62
7
  6
CONTINUOUS
 10
66.8276338056
 20
139.1282830006
 11
67.6428955548
 21
141.0964989724
  0
LINE
  5
243
100
AcDbEntity
  8
RUNDUNGEN
100
AcDbLine
 62
7
  6
CONTINUOUS
 10
67.6428955548
 20
141.0964989724
 11
75.5223154492
 21
160.1191013451
  0
LINE
  5
244
100
AcDbEntity
  8
0
100
AcDbLine
 62
7
  6
CONTINUOUS
 10
101.6647327886
 20
113.2890735033
 11
101.2897327886
 21
113.7997117403
  0
LINE
  5
245
100
AcDbEntity
  8
0
100
AcDbLine
 62
7
  6
CONTINUOUS
 10
100.9147327886
 20
113.2890735033
 11
101.1647325502
 21
112.9060948255
  0
LINE
  5
246
100
AcDbEntity
  8
0
100
AcDbLine
 62
7
  6
CONTINUOUS
 10
97.4147325502
 20
112.012477732
 11
97.6647326694
 21
111.5018394056
  0
LINE
  5
247
100
AcDbEntity
  8
0
100
AcDbLine
 62
7
  6
CONTINUOUS
 10
98.4147326694
 20
111.5018394056
 11
98.1647325502
 21
112.012477732
  0
LINE
  5
248
100
AcDbEntity
  8
0
100
AcDbLine
 62
7
  6
CONTINUOUS
 10
81.9191957702
 20
156.5819392582
 11
81.9213898929
 21
156.3735058542
  0
LINE
  5
249
100
AcDbEntity
  8
0
100
AcDbLine
 62
7
  6
CONTINUOUS
 10
82.2362339741
 20
156.1617811186
 11
82.337159787
 21
156.4733344581
  0
LINE
  5
24A
100
AcDbEntity
  8
0
100
AcDbLine
 62
7
  6
CONTINUOUS
 10
81.9213898929
 20
156.3735058542
 11
81.8193671662
 21
156.1661693642
  0
LINE
  5
24B
100
AcDbEntity
  8
0
100
AcDbLine
 62
7
  6
CONTINUOUS
 10
81.8127850929
 20
156.791469871
 11
81.9191957702
 21
156.5819392582
  0
LINE
  5
24C
100
AcDbEntity
  8
0
100
AcDbLine
 62
7
  6
CONTINUOUS
 10
80.7146694173
 20
152.2179997092
 11
79.0647535453
 21
155.5178313056
  0
LINE
  5
24D
100
AcDbEntity
  8
0
100
AcDbLine
 62
7
  6
CONTINUOUS
 10
78.7553943285
 20
155.2084720888
 11
80.1924885878
 21
152.3277015338
  0
LINE
  5
24E
100
AcDbEntity
  8
0
100
AcDbLine
 62
7
  6
CONTINUOUS
 10
103.9147327886
 20
111.5018394056
 11
104.1647325502
 21
110.9912011239
  0
LINE
  5
24F
100
AcDbEntity
  8
0
100
AcDbLine
 62
7
  6
CONTINUOUS
 10
82.337159787
 20
156.4733344581
 11
82.2812118686
 21
156.8386415933
  0
LINE
  5
250
100
AcDbEntity
  8
0
100
AcDbLine
 62
7
  6
CONTINUOUS
 10
87.4272325502
 20
106.4805628422
 11
87.4272325502
 21
106.1805628422
  0
LINE
  5
251
100
AcDbEntity
  8
0
100
AcDbLine
 62
7
  6
CONTINUOUS
 10
84.3238600829
 20
160.7769378432
 11
83.8598212577
 21
160.312899018
  0
LINE
  5
252
100
AcDbEntity
  8
0
100
AcDbLine
 62
7
  6
CONTINUOUS
 10
82.3130251739
 20
158.7661029342
 11
81.8489866438
 21
158.302064404
  0
LINE
  5
253
100
AcDbEntity
  8
0
100
AcDbLine
 62
7
  6
CONTINUOUS
 10
80.7146694173
 20
157.1677471775
 11
79.4772325502
 21
155.9303103105
  0
LINE
  5
254
100
AcDbEntity
  8
0
100
AcDbLine
 62
7
  6
CONTINUOUS
 10
79.0647535453
 20
155.5178313056
 11
78.7553943285
 21
155.2084720888
  0
LINE
  5
255
100
AcDbEntity
  8
0
100
AcDbLine
 62
7
  6
CONTINUOUS
 10
77.3117180328
 20
153.7647957931
 11
77.002358816
 21
153.4554365763
  0
LINE
  5
256
100
AcDbEntity
  8
0
100
AcDbLine
 62
7
  6
CONTINUOUS
 10
80.0498761754
 20
155.9763851188
 11
81.0295137935
 21
156.9560227369
  0
LINE
  5
257
100
AcDbEntity
  8
0
100
AcDbLine
 62
7
  6
CONTINUOUS
 10
81.8193671662
 20
156.1661693642
 11
80.8397295481
 21
155.186531746
  0
LINE
  5
258
100
AcDbEntity
  8
0
100
AcDbLine
 62
7
  6
CONTINUOUS
 10
81.1556708382
 20
154.8705904559
 11
82.0321885207
 21
155.7471081384
  0
LINE
  5
259
100
AcDbEntity
  8
0
100
AcDbLine
 62
7
  6
CONTINUOUS
 10
80.3021904862
 20
151.8055207781
 11
80.7146694173
 21
152.2179997092
  0
LINE
  5
25A
100
AcDbEntity
  8
0
100
AcDbLine
 62
7
  6
CONTINUOUS
 10
81.9521062843
 20
153.4554365763
 11
82.2614655011
 21
153.7647957931
  0
LINE
  5
25B
100
AcDbEntity
  8
0
100
AcDbLine
 62
7
  6
CONTINUOUS
 10
83.550462336
 20
155.053792628
 11
83.9113812255
 21
155.4147115175
  0
LINE
  5
25C
100
AcDbEntity
  8
0
100
AcDbLine
 62
7
  6
CONTINUOUS
 10
84.3238603779
 20
155.8271906699
 11
84.6332192996
 21
156.1365495916
  0
LINE
  5
25D
100
AcDbEntity
  8
0
100
AcDbLine
 62
7
  6
CONTINUOUS
 10
85.3550576688
 20
156.8583879608
 11
85.7675368212
 21
157.2708671131
  0
LINE
  5
25E
100
AcDbEntity
  8
0
100
AcDbLine
 62
7
  6
CONTINUOUS
 10
86.4893746003
 20
157.9927048922
 11
86.798733817
 21
158.302064109
  0
LINE
  5
25F
100
AcDbEntity
  8
0
100
AcDbLine
 62
7
  6
CONTINUOUS
 10
81.0251255479
 20
157.3728895448
 11
80.7146694173
 21
157.1677471775
  0
LINE
  5
260
100
AcDbEntity
  8
RUNDUNGEN
100
AcDbLine
 62
7
  6
CONTINUOUS
 10
76.8753056996
 20
161.4720915955
 11
98.2705239693
 21
170.3342811727
  0
LINE
  5
261
100
AcDbEntity
  8
0
100
AcDbLine
 62
7
  6
CONTINUOUS
 10
80.1924885878
 20
152.3277015338
 11
77.3117180328
 21
153.7647957931
  0
LINE
  5
262
100
AcDbEntity
  8
0
100
AcDbLine
 62
7
  6
CONTINUOUS
 10
77.002358816
 20
153.4554365763
 11
80.3021904862
 21
151.8055207781
  0
LINE
  5
263
100
AcDbEntity
  8
0
100
AcDbLine
 62
7
  6
CONTINUOUS
 10
79.4772325502
 20
155.9303103105
 11
81.9521062843
 21
153.4554365763
  0
LINE
  5
264
100
AcDbEntity
  8
0
100
AcDbLine
 62
7
  6
CONTINUOUS
 10
82.2614655011
 20
153.7647957931
 11
81.1556708382
 21
154.8705904559
  0
LINE
  5
265
100
AcDbEntity
  8
0
100
AcDbLine
 62
7
  6
CONTINUOUS
 10
80.8397295481
 20
155.186531746
 11
80.0498761754
 21
155.9763851188
  0
LINE
  5
266
100
AcDbEntity
  8
0
100
AcDbLine
 62
7
  6
CONTINUOUS
 10
81.6548143004
 20
156.9494406636
 11
81.8127850929
 21
156.791469871
  0
LINE
  5
267
100
AcDbEntity
  8
0
100
AcDbLine
 62
7
  6
CONTINUOUS
 10
82.1748011914
 20
157.0481722061
 11
81.9641735171
 21
157.2587998804
  0
LINE
  5
268
100
AcDbEntity
  8
0
100
AcDbLine
 62
7
  6
CONTINUOUS
 10
81.8489866438
 20
158.302064404
 11
84.3238603779
 21
155.8271906699
  0
LINE
  5
269
100
AcDbEntity
  8
0
100
AcDbLine
 62
7
  6
CONTINUOUS
 10
84.6332192996
 20
156.1365495916
 11
82.6849143823
 21
158.0848545089
  0
LINE
  5
26A
100
AcDbEntity
  8
0
100
AcDbLine
 62
7
  6
CONTINUOUS
 10
82.2812118686
 20
156.8386415933
 11
82.1748011914
 21
157.0481722061
  0
LINE
  5
26B
100
AcDbEntity
  8
0
100
AcDbLine
 62
7
  6
CONTINUOUS
 10
83.8598212577
 20
160.312899018
 11
85.2980125047
 21
157.3279116872
  0
LINE
  5
26C
100
AcDbEntity
  8
0
100
AcDbLine
 62
7
  6
CONTINUOUS
 10
85.7675368212
 20
157.2708671131
 11
84.5410696829
 21
159.9410098096
  0
LINE
  5
26D
100
AcDbEntity
  8
0
100
AcDbLine
 62
7
  6
CONTINUOUS
 10
101.9147325502
 20
112.6507755282
 11
101.6647327886
 21
113.2890735033
  0
LINE
  5
26E
100
AcDbEntity
  8
0
100
AcDbLine
 62
7
  6
CONTINUOUS
 10
101.1647325502
 20
112.9060948255
 11
101.2897327886
 21
112.523115969
  0
LINE
  5
26F
100
AcDbEntity
  8
0
100
AcDbLine
 62
7
  6
CONTINUOUS
 10
89.7272325502
 20
123.8325648825
 11
89.7272325502
 21
126.6805628422
  0
LINE
  5
270
100
AcDbEntity
  8
0
100
AcDbLine
 62
7
  6
CONTINUOUS
 10
92.5397325502
 20
115.5869459274
 11
92.5397325502
 21
114.5656690958
  0
LINE
  5
271
100
AcDbEntity
  8
0
100
AcDbLine
 62
7
  6
CONTINUOUS
 10
93.2897325502
 20
115.4592863682
 11
93.2897325502
 21
110.4805628422
  0
LINE
  5
272
100
AcDbEntity
  8
0
100
AcDbLine
 62
7
  6
CONTINUOUS
 10
94.0397325502
 20
110.4805628422
 11
94.0397325502
 21
116.4805628422
  0
LINE
  5
273
100
AcDbEntity
  8
0
100
AcDbLine
 62
7
  6
CONTINUOUS
 10
94.4876504884
 20
164.2305628422
 11
94.4876504884
 21
160.7305628422
  0
LINE
  5
274
100
AcDbEntity
  8
0
100
AcDbLine
 62
7
  6
CONTINUOUS
 10
96.8939004884
 20
162.5922649565
 11
97.1126504884
 21
162.8901372614
  0
LINE
  5
275
100
AcDbEntity
  8
0
100
AcDbLine
 62
7
  6
CONTINUOUS
 10
96.6751504884
 20
162.9646053376
 11
96.5293170855
 21
162.8156691852
  0
LINE
  5
276
100
AcDbEntity
  8
0
100
AcDbLine
 62
7
  6
CONTINUOUS
 10
96.6022338913
 20
162.443328804
 11
96.8939004884
 21
162.5922649565
  0
LINE
  5
277
100
AcDbEntity
  8
0
100
AcDbLine
 62
7
  6
CONTINUOUS
 10
81.0295137935
 20
156.9560227369
 11
81.2368502835
 21
157.0580454636
  0
LINE
  5
278
100
AcDbEntity
  8
0
100
AcDbLine
 62
7
  6
CONTINUOUS
 10
96.5293170855
 20
162.8156691852
 11
96.3105670855
 21
162.741201109
  0
LINE
  5
279
100
AcDbEntity
  8
0
100
AcDbLine
 62
7
  6
CONTINUOUS
 10
83.9113812255
 20
155.4147115175
 11
82.2362339741
 21
156.1617811186
  0
LINE
  5
27A
100
AcDbEntity
  8
0
100
AcDbLine
 62
7
  6
CONTINUOUS
 10
82.0321885207
 20
155.7471081384
 11
83.550462336
 21
155.053792628
  0
LINE
  5
27B
100
AcDbEntity
  8
0
100
AcDbLine
 62
7
  6
CONTINUOUS
 10
82.6849143823
 20
158.0848545089
 11
85.3550576688
 21
156.8583879608
  0
LINE
  5
27C
100
AcDbEntity
  8
0
100
AcDbLine
 62
7
  6
CONTINUOUS
 10
85.2980125047
 20
157.3279116872
 11
82.3130251739
 21
158.7661029342
  0
LINE
  5
27D
100
AcDbEntity
  8
0
100
AcDbLine
 62
7
  6
CONTINUOUS
 10
81.4452836875
 20
157.0558513408
 11
81.6548143004
 21
156.9494406636
  0
LINE
  5
27E
100
AcDbEntity
  8
0
100
AcDbLine
 62
7
  6
CONTINUOUS
 10
81.9641735171
 20
157.2587998804
 11
81.7546429043
 21
157.3652105576
  0
LINE
  5
27F
100
AcDbEntity
  8
0
100
AcDbLine
 62
7
  6
CONTINUOUS
 10
84.5410696829
 20
159.9410098096
 11
86.4893746003
 21
157.9927048922
  0
LINE
  5
280
100
AcDbEntity
  8
0
100
AcDbLine
 62
7
  6
CONTINUOUS
 10
86.798733817
 20
158.302064109
 11
84.3238600829
 21
160.7769378432
  0
LINE
  5
281
100
AcDbEntity
  8
0
100
AcDbLine
 62
7
  6
CONTINUOUS
 10
104.6647320733
 20
111.3741798463
 11
104.5397325502
 21
111.7571586135
  0
LINE
  5
282
100
AcDbEntity
  8
0
100
AcDbLine
 62
7
  6
CONTINUOUS
 10
94.9251504884
 20
160.7305628422
 11
94.9251504884
 21
162.2943926516
  0
LINE
  5
283
100
AcDbEntity
  8
0
100
AcDbLine
 62
7
  6
CONTINUOUS
 10
94.9251504884
 20
162.741201109
 11
94.9251504884
 21
163.858222461
  0
LINE
  5
284
100
AcDbEntity
  8
0
100
AcDbLine
 62
7
  6
CONTINUOUS
 10
96.7480670855
 20
163.4114140036
 11
96.7480670855
 21
163.1880095663
  0
LINE
  5
285
100
AcDbEntity
  8
0
100
AcDbLine
 62
7
  6
CONTINUOUS
 10
97.1855670855
 20
163.1135414901
 11
97.1855670855
 21
163.4114140036
  0
LINE
  5
286
100
AcDbEntity
  8
0
100
AcDbLine
 62
7
  6
CONTINUOUS
 10
97.4147325502
 20
116.4805628422
 11
97.4147325502
 21
113.161413944
  0
LINE
  5
287
100
AcDbEntity
  8
0
100
AcDbLine
 62
7
  6
CONTINUOUS
 10
97.8418170855
 20
164.2305628422
 11
97.8418170855
 21
161.9220521661
  0
LINE
  5
288
100
AcDbEntity
  8
0
100
AcDbLine
 62
7
  6
CONTINUOUS
 10
98.0397326694
 20
113.7997117403
 11
98.0397326694
 21
115.8422650459
  0
LINE
  5
289
100
AcDbEntity
  8
0
100
AcDbLine
 62
7
  6
CONTINUOUS
 10
98.2793172942
 20
161.9220521661
 11
98.2793172942
 21
164.2305628422
  0
LINE
  5
28A
100
AcDbEntity
  8
0
100
AcDbLine
 62
7
  6
CONTINUOUS
 10
99.2272325502
 20
122.2502551881
 11
99.2272325502
 21
126.6805628422
  0
LINE
  5
28B
100
AcDbEntity
  8
0
100
AcDbLine
 62
7
  6
CONTINUOUS
 10
100.3939004884
 20
161.549711785
 11
100.4668172942
 21
161.9220521661
  0
LINE
  5
28C
100
AcDbEntity
  8
0
100
AcDbLine
 62
7
  6
CONTINUOUS
 10
100.0293172942
 20
161.9220521661
 11
99.9564004884
 21
161.6241798612
  0
LINE
  5
28D
100
AcDbEntity
  8
0
100
AcDbLine
 62
7
  6
CONTINUOUS
 10
96.7480670855
 20
163.1880095663
 11
96.6751504884
 21
162.9646053376
  0
LINE
  5
28E
100
AcDbEntity
  8
0
100
AcDbLine
 62
7
  6
CONTINUOUS
 10
97.1126504884
 20
162.8901372614
 11
97.1855670855
 21
163.1135414901
  0
LINE
  5
28F
100
AcDbEntity
  8
0
100
AcDbLine
 62
7
  6
CONTINUOUS
 10
100.2480672942
 20
161.2518394279
 11
100.3939004884
 21
161.549711785
  0
LINE
  5
290
100
AcDbEntity
  8
0
100
AcDbLine
 62
7
  6
CONTINUOUS
 10
99.9564004884
 20
161.6241798612
 11
99.8105672942
 21
161.4007756325
  0
LINE
  5
291
100
AcDbEntity
  8
0
100
AcDbLine
 62
7
  6
CONTINUOUS
 10
103.4564004884
 20
161.6241798612
 11
103.3105668769
 21
161.4007756325
  0
LINE
  5
292
100
AcDbEntity
  8
0
100
AcDbLine
 62
7
  6
CONTINUOUS
 10
99.9564004884
 20
160.9539670969
 11
100.2480672942
 21
161.2518394279
  0
LINE
  5
293
100
AcDbEntity
  8
0
100
AcDbLine
 62
7
  6
CONTINUOUS
 10
103.4564004884
 20
160.9539670969
 11
103.7480668769
 21
161.2518394279
  0
LINE
  5
294
100
AcDbEntity
  8
0
100
AcDbLine
 62
7
  6
CONTINUOUS
 10
99.8105672942
 20
161.4007756325
 11
99.5918172942
 21
161.2518394279
  0
LINE
  5
295
100
AcDbEntity
  8
0
100
AcDbLine
 62
7
  6
CONTINUOUS
 10
103.3105668769
 20
161.4007756325
 11
103.0918168769
 21
161.2518394279
  0
LINE
  5
296
100
AcDbEntity
  8
0
100
AcDbLine
 62
7
  6
CONTINUOUS
 10
99.6647336827
 20
160.8050309249
 11
99.9564004884
 21
160.9539670969
  0
LINE
  5
297
100
AcDbEntity
  8
0
100
AcDbLine
 62
7
  6
CONTINUOUS
 10
103.1647340999
 20
160.8050309249
 11
103.4564004884
 21
160.9539670969
  0
LINE
  5
298
100
AcDbEntity
  8
0
100
AcDbLine
 62
7
  6
CONTINUOUS
 10
81.2368502835
 20
157.0580454636
 11
81.4452836875
 21
157.0558513408
  0
LINE
  5
299
100
AcDbEntity
  8
0
100
AcDbLine
 62
7
  6
CONTINUOUS
 10
81.7546429043
 20
157.3652105576
 11
81.3893357691
 21
157.421158476
  0
LINE
  5
29A
100
AcDbEntity
  8
0
100
AcDbLine
 62
7
  6
CONTINUOUS
 10
97.2584838913
 20
160.7305628422
 11
96.6022338913
 21
162.443328804
  0
LINE
  5
29B
100
AcDbEntity
  8
0
100
AcDbLine
 62
7
  6
CONTINUOUS
 10
96.164733787
 20
162.2943926516
 11
96.7480670855
 21
160.7305628422
  0
LINE
  5
29C
100
AcDbEntity
  8
0
100
AcDbLine
 62
7
  6
CONTINUOUS
 10
96.6751504884
 20
163.6348182323
 11
96.7480670855
 21
163.4114140036
  0
LINE
  5
29D
100
AcDbEntity
  8
0
100
AcDbLine
 62
7
  6
CONTINUOUS
 10
97.1855670855
 20
163.4114140036
 11
97.1126504884
 21
163.6348182323
  0
LINE
  5
29E
100
AcDbEntity
  8
0
100
AcDbLine
 62
7
  6
CONTINUOUS
 10
98.3522336827
 20
161.6241798612
 11
98.2793172942
 21
161.9220521661
  0
LINE
  5
29F
100
AcDbEntity
  8
0
100
AcDbLine
 62
7
  6
CONTINUOUS
 10
97.8418170855
 20
161.9220521661
 11
97.9147338913
 21
161.549711785
  0
LINE
  5
2A0
100
AcDbEntity
  8
0
100
AcDbLine
 62
7
  6
CONTINUOUS
 10
100.0293172942
 20
164.2305628422
 11
100.0293172942
 21
161.9220521661
  0
LINE
  5
2A1
100
AcDbEntity
  8
0
100
AcDbLine
 62
7
  6
CONTINUOUS
 10
100.4668172942
 20
161.9220521661
 11
100.4668172942
 21
164.2305628422
  0
LINE
  5
2A2
100
AcDbEntity
  8
0
100
AcDbLine
 62
7
  6
CONTINUOUS
 10
101.0501504884
 20
164.2305628422
 11
101.0501504884
 21
160.7305628422
  0
LINE
  5
2A3
100
AcDbEntity
  8
0
100
AcDbLine
 62
7
  6
CONTINUOUS
 10
101.2897327886
 20
112.523115969
 11
101.2897327886
 21
112.2677968505
  0
LINE
  5
2A4
100
AcDbEntity
  8
0
100
AcDbLine
 62
7
  6
CONTINUOUS
 10
101.4876504884
 20
161.1773713517
 11
101.4876504884
 21
163.7837543848
  0
LINE
  5
2A5
100
AcDbEntity
  8
0
100
AcDbLine
 62
7
  6
CONTINUOUS
 10
101.6647327886
 20
115.8422650459
 11
101.6647327886
 21
116.4805628422
  0
LINE
  5
2A6
100
AcDbEntity
  8
0
100
AcDbLine
 62
7
  6
CONTINUOUS
 10
101.9147325502
 20
112.1401372912
 11
101.9147325502
 21
112.6507755282
  0
LINE
  5
2A7
100
AcDbEntity
  8
0
100
AcDbLine
 62
7
  6
CONTINUOUS
 10
102.9147323118
 20
114.5656690958
 11
102.9147323118
 21
114.0550308588
  0
LINE
  5
2A8
100
AcDbEntity
  8
0
100
AcDbLine
 62
7
  6
CONTINUOUS
 10
103.5293168769
 20
163.0390734139
 11
103.5293168769
 21
161.9220521661
  0
LINE
  5
2A9
100
AcDbEntity
  8
0
100
AcDbLine
 62
7
  6
CONTINUOUS
 10
103.9147327886
 20
115.5869459274
 11
103.9147327886
 21
114.5656690958
  0
LINE
  5
2AA
100
AcDbEntity
  8
0
100
AcDbLine
 62
7
  6
CONTINUOUS
 10
103.9147327886
 20
114.0550308588
 11
103.9147327886
 21
111.5018394056
  0
LINE
  5
2AB
100
AcDbEntity
  8
0
100
AcDbLine
 62
7
  6
CONTINUOUS
 10
103.9668168769
 20
161.9220521661
 11
103.9668168769
 21
163.0390734139
  0
LINE
  5
2AC
100
AcDbEntity
  8
0
100
AcDbLine
 62
7
  6
CONTINUOUS
 10
104.5397325502
 20
111.7571586135
 11
104.5397325502
 21
114.0550308588
  0
LINE
  5
2AD
100
AcDbEntity
  8
0
100
AcDbLine
 62
7
  6
CONTINUOUS
 10
104.5397325502
 20
114.5656690958
 11
104.5397325502
 21
115.5869459274
  0
LINE
  5
2AE
100
AcDbEntity
  8
0
100
AcDbLine
 62
7
  6
CONTINUOUS
 10
103.8939004884
 20
161.549711785
 11
103.9668168769
 21
161.9220521661
  0
LINE
  5
2AF
100
AcDbEntity
  8
0
100
AcDbLine
 62
7
  6
CONTINUOUS
 10
103.5293168769
 20
161.9220521661
 11
103.4564004884
 21
161.6241798612
  0
LINE
  5
2B0
100
AcDbEntity
  8
0
100
AcDbLine
 62
7
  6
CONTINUOUS
 10
103.7480668769
 20
161.2518394279
 11
103.8939004884
 21
161.549711785
  0
LINE
  5
2B1
100
AcDbEntity
  8
0
100
AcDbLine
 62
7
  6
CONTINUOUS
 10
103.0918168769
 20
161.2518394279
 11
102.8001504884
 21
161.1773713517
  0
LINE
  5
2B2
100
AcDbEntity
  8
0
100
AcDbLine
 62
7
  6
CONTINUOUS
 10
99.5918172942
 20
161.2518394279
 11
99.3001504884
 21
161.1773713517
  0
LINE
  5
2B3
100
AcDbEntity
  8
0
100
AcDbLine
 62
7
  6
CONTINUOUS
 10
102.8001504884
 20
160.7305628422
 11
103.1647340999
 21
160.8050309249
  0
LINE
  5
2B4
100
AcDbEntity
  8
0
100
AcDbLine
 62
7
  6
CONTINUOUS
 10
99.3001504884
 20
160.7305628422
 11
99.6647336827
 21
160.8050309249
  0
LINE
  5
2B5
100
AcDbEntity
  8
0
100
AcDbLine
 62
7
  6
CONTINUOUS
 10
81.3893357691
 20
157.421158476
 11
81.0251255479
 21
157.3728895448
  0
LINE
  5
2B6
100
AcDbEntity
  8
0
100
AcDbLine
 62
7
  6
CONTINUOUS
 10
94.4876504884
 20
160.7305628422
 11
94.9251504884
 21
160.7305628422
  0
LINE
  5
2B7
100
AcDbEntity
  8
0
100
AcDbLine
 62
7
  6
CONTINUOUS
 10
96.7480670855
 20
160.7305628422
 11
97.2584838913
 21
160.7305628422
  0
LINE
  5
2B8
100
AcDbEntity
  8
0
100
AcDbLine
 62
7
  6
CONTINUOUS
 10
99.0084836827
 20
160.7305628422
 11
99.3001504884
 21
160.7305628422
  0
LINE
  5
2B9
100
AcDbEntity
  8
0
100
AcDbLine
 62
7
  6
CONTINUOUS
 10
101.0501504884
 20
160.7305628422
 11
102.8001504884
 21
160.7305628422
  0
LINE
  5
2BA
100
AcDbEntity
  8
0
100
AcDbLine
 62
7
  6
CONTINUOUS
 10
102.8001504884
 20
161.1773713517
 11
101.4876504884
 21
161.1773713517
  0
LINE
  5
2BB
100
AcDbEntity
  8
0
100
AcDbLine
 62
7
  6
CONTINUOUS
 10
99.3001504884
 20
161.1773713517
 11
99.0084836827
 21
161.1773713517
  0
LINE
  5
2BC
100
AcDbEntity
  8
0
100
AcDbLine
 62
7
  6
CONTINUOUS
 10
94.9251504884
 20
162.2943926516
 11
96.164733787
 21
162.2943926516
  0
LINE
  5
2BD
100
AcDbEntity
  8
0
100
AcDbLine
 62
7
  6
CONTINUOUS
 10
98.6439004884
 20
160.8050309249
 11
99.0084836827
 21
160.7305628422
  0
LINE
  5
2BE
100
AcDbEntity
  8
0
100
AcDbLine
 62
7
  6
CONTINUOUS
 10
99.0084836827
 20
161.1773713517
 11
98.7168172942
 21
161.2518394279
  0
LINE
  5
2BF
100
AcDbEntity
  8
0
100
AcDbLine
 62
7
  6
CONTINUOUS
 10
98.3522336827
 20
160.9539670969
 11
98.6439004884
 21
160.8050309249
  0
LINE
  5
2C0
100
AcDbEntity
  8
0
100
AcDbLine
 62
7
  6
CONTINUOUS
 10
98.7168172942
 20
161.2518394279
 11
98.4980672942
 21
161.4007756325
  0
LINE
  5
2C1
100
AcDbEntity
  8
0
100
AcDbLine
 62
7
  6
CONTINUOUS
 10
96.8939004884
 20
163.9326905372
 11
96.6022338913
 21
164.1560947659
  0
LINE
  5
2C2
100
AcDbEntity
  8
0
100
AcDbLine
 62
7
  6
CONTINUOUS
 10
98.0605672942
 20
161.2518394279
 11
98.3522336827
 21
160.9539670969
  0
LINE
  5
2C3
100
AcDbEntity
  8
0
100
AcDbLine
 62
7
  6
CONTINUOUS
 10
96.5293170855
 20
163.7837543848
 11
96.6751504884
 21
163.6348182323
  0
LINE
  5
2C4
100
AcDbEntity
  8
0
100
AcDbLine
 62
7
  6
CONTINUOUS
 10
97.1126504884
 20
163.6348182323
 11
96.8939004884
 21
163.9326905372
  0
LINE
  5
2C5
100
AcDbEntity
  8
0
100
AcDbLine
 62
7
  6
CONTINUOUS
 10
98.4980672942
 20
161.4007756325
 11
98.3522336827
 21
161.6241798612
  0
LINE
  5
2C6
100
AcDbEntity
  8
0
100
AcDbLine
 62
7
  6
CONTINUOUS
 10
97.9147338913
 20
161.549711785
 11
98.0605672942
 21
161.2518394279
  0
LINE
  5
2C7
100
AcDbEntity
  8
0
100
AcDbLine
 62
7
  6
CONTINUOUS
 10
103.4564004884
 20
163.3369457188
 11
103.5293168769
 21
163.0390734139
  0
LINE
  5
2C8
100
AcDbEntity
  8
0
100
AcDbLine
 62
7
  6
CONTINUOUS
 10
103.9668168769
 20
163.0390734139
 11
103.8939004884
 21
163.4114140036
  0
LINE
  5
2C9
100
AcDbEntity
  8
0
100
AcDbLine
 62
7
  6
CONTINUOUS
 10
105.6647325502
 20
110.4805628422
 11
105.6647325502
 21
110.9912011239
  0
LINE
  5
2CA
100
AcDbEntity
  8
0
100
AcDbLine
 62
7
  6
CONTINUOUS
 10
105.914733027
 20
114.0550308588
 11
105.914733027
 21
114.5656690958
  0
LINE
  5
2CB
100
AcDbEntity
  8
0
100
AcDbLine
 62
7
  6
CONTINUOUS
 10
108.7272325502
 20
123.8325642204
 11
108.7272325502
 21
126.6805628422
  0
LINE
  5
2CC
100
AcDbEntity
  8
0
100
AcDbLine
 62
7
  6
CONTINUOUS
 10
96.3105670855
 20
162.741201109
 11
94.9251504884
 21
162.741201109
  0
LINE
  5
2CD
100
AcDbEntity
  8
0
100
AcDbLine
 62
7
  6
CONTINUOUS
 10
101.4876504884
 20
163.7837543848
 11
102.8001504884
 21
163.7837543848
  0
LINE
  5
2CE
100
AcDbEntity
  8
0
100
AcDbLine
 62
7
  6
CONTINUOUS
 10
94.9251504884
 20
163.858222461
 11
96.3105670855
 21
163.858222461
  0
LINE
  5
2CF
100
AcDbEntity
  8
0
100
AcDbLine
 62
7
  6
CONTINUOUS
 10
102.8001504884
 20
164.2305628422
 11
101.0501504884
 21
164.2305628422
  0
LINE
  5
2D0
100
AcDbEntity
  8
0
100
AcDbLine
 62
7
  6
CONTINUOUS
 10
100.4668172942
 20
164.2305628422
 11
100.0293172942
 21
164.2305628422
  0
LINE
  5
2D1
100
AcDbEntity
  8
0
100
AcDbLine
 62
7
  6
CONTINUOUS
 10
98.2793172942
 20
164.2305628422
 11
97.8418170855
 21
164.2305628422
  0
LINE
  5
2D2
100
AcDbEntity
  8
0
100
AcDbLine
 62
7
  6
CONTINUOUS
 10
96.2376504884
 20
164.2305628422
 11
94.4876504884
 21
164.2305628422
  0
LINE
  5
2D3
100
AcDbEntity
  8
0
100
AcDbLine
 62
7
  6
CONTINUOUS
 10
96.6022338913
 20
164.1560947659
 11
96.2376504884
 21
164.2305628422
  0
LINE
  5
2D4
100
AcDbEntity
  8
0
100
AcDbLine
 62
7
  6
CONTINUOUS
 10
103.1647340999
 20
164.1560947659
 11
102.8001504884
 21
164.2305628422
  0
LINE
  5
2D5
100
AcDbEntity
  8
0
100
AcDbLine
 62
7
  6
CONTINUOUS
 10
102.8001504884
 20
163.7837543848
 11
103.0918168769
 21
163.7092863085
  0
LINE
  5
2D6
100
AcDbEntity
  8
0
100
AcDbLine
 62
7
  6
CONTINUOUS
 10
96.3105670855
 20
163.858222461
 11
96.5293170855
 21
163.7837543848
  0
LINE
  5
2D7
100
AcDbEntity
  8
0
100
AcDbLine
 62
7
  6
CONTINUOUS
 10
103.4564004884
 20
164.0071586135
 11
103.1647340999
 21
164.1560947659
  0
LINE
  5
2D8
100
AcDbEntity
  8
0
100
AcDbLine
 62
7
  6
CONTINUOUS
 10
103.0918168769
 20
163.7092863085
 11
103.3105668769
 21
163.5603501561
  0
LINE
  5
2D9
100
AcDbEntity
  8
0
100
AcDbLine
 62
7
  6
CONTINUOUS
 10
103.7480668769
 20
163.7092863085
 11
103.4564004884
 21
164.0071586135
  0
LINE
  5
2DA
100
AcDbEntity
  8
0
100
AcDbLine
 62
7
  6
CONTINUOUS
 10
103.3105668769
 20
163.5603501561
 11
103.4564004884
 21
163.3369457188
  0
LINE
  5
2DB
100
AcDbEntity
  8
0
100
AcDbLine
 62
7
  6
CONTINUOUS
 10
103.8939004884
 20
163.4114140036
 11
103.7480668769
 21
163.7092863085
  0
LINE
  5
2DC
100
AcDbEntity
  8
0
100
AcDbLine
 62
7
  6
CONTINUOUS
 10
111.0272325502
 20
106.4805628422
 11
111.0272325502
 21
106.1805628422
  0
LINE
  5
2DD
100
AcDbEntity
  8
0
100
AcDbLine
 62
7
  6
CONTINUOUS
 10
101.2897327886
 20
112.2677968505
 11
101.1647325502
 21
111.8848181727
  0
LINE
  5
2DE
100
AcDbEntity
  8
RUNDUNGEN
100
AcDbLine
 62
7
  6
CONTINUOUS
 10
100.1839411311
 20
170.3342811727
 11
121.5791594008
 21
161.4720915955
  0
LINE
  5
2DF
100
AcDbEntity
  8
0
100
AcDbLine
 62
7
  6
CONTINUOUS
 10
101.6647327886
 20
111.5018394056
 11
101.9147325502
 21
112.1401372912
  0
LINE
  5
2E0
100
AcDbEntity
  8
0
100
AcDbLine
 62
7
  6
CONTINUOUS
 10
95.7897326694
 20
111.1188607278
 11
95.0397324906
 21
109.7146053972
  0
LINE
  5
2E1
100
AcDbEntity
  8
0
100
AcDbLine
 62
7
  6
CONTINUOUS
 10
95.664732431
 20
109.7146053972
 11
96.414732431
 21
111.1188607278
  0
LINE
  5
2E2
100
AcDbEntity
  8
0
100
AcDbLine
 62
7
  6
CONTINUOUS
 10
93.2897325502
 20
116.4805628422
 11
92.5397325502
 21
115.5869459274
  0
LINE
  5
2E3
100
AcDbEntity
  8
0
100
AcDbLine
 62
7
  6
CONTINUOUS
 10
92.5397325502
 20
114.5656690958
 11
93.2897325502
 21
115.4592863682
  0
LINE
  5
2E4
100
AcDbEntity
  8
RUNDUNGEN
100
AcDbLine
 62
7
  6
CONTINUOUS
 10
127.2198991239
 20
125.6516766228
 11
127.2272325502
 21
125.4805628422
  0
LINE
  5
2E5
100
AcDbEntity
  8
BEZUGSACHSEN
100
AcDbLine
 62
7
  6
CONTINUOUS
 10
127.2272325502
 20
125.4805628422
 11
127.2198991239
 21
125.6516766228
  0
LINE
  5
2E6
100
AcDbEntity
  8
0
100
AcDbLine
 62
7
  6
CONTINUOUS
 10
101.1647325502
 20
111.8848181727
 11
100.9147327886
 21
111.5018394056
  0
LINE
  5
2E7
100
AcDbEntity
  8
RUNDUNGEN
100
AcDbLine
 62
7
  6
CONTINUOUS
 10
122.9321496511
 20
160.1191013451
 11
130.8115693575
 21
141.0964994264
  0
LINE
  5
2E8
100
AcDbEntity
  8
BEZUGSACHSEN
100
AcDbLine
 62
7
  6
CONTINUOUS
 10
130.8115693575
 20
141.0964994264
 11
131.6268312948
 21
139.1282830006
  0
LINE
  5
2E9
100
AcDbEntity
  8
BEZUGSACHSEN
100
AcDbLine
 62
7
  6
CONTINUOUS
 10
127.2272325502
 20
125.4805628422
 11
127.2272325502
 21
119.4805628422
  0
LINE
  5
2EA
100
AcDbEntity
  8
0
100
AcDbLine
 62
7
  6
CONTINUOUS
 10
101.2897327886
 20
110.9912011239
 11
101.6647327886
 21
111.5018394056
  0
LINE
  5
2EB
100
AcDbEntity
  8
BEZUGSACHSEN
100
AcDbLine
 62
7
  6
CONTINUOUS
 10
131.6457533718
 20
137.0081275354
 11
127.3836587292
 21
126.7376806722
  0
LINE
  5
2EC
100
AcDbEntity
  8
BEZUGSACHSEN
100
AcDbLine
 62
7
  6
CONTINUOUS
 10
123.0296285082
 20
116.2456949767
 11
122.6714154945
 21
115.3825025721
  0
LINE
  5
2ED
100
AcDbEntity
  8
0
100
AcDbLine
 62
7
  6
CONTINUOUS
 10
98.289732431
 20
113.161413944
 11
98.7897323118
 21
113.5443926218
  0
LINE
  5
2EE
100
AcDbEntity
  8
0
100
AcDbLine
 62
7
  6
CONTINUOUS
 10
98.6647327886
 20
114.182690418
 11
98.0397326694
 21
113.7997117403
  0
LINE
  5
2EF
100
AcDbEntity
  8
0
100
AcDbLine
 62
7
  6
CONTINUOUS
 10
100.9147327886
 20
111.5018394056
 11
100.5397327886
 21
111.2465202871
  0
LINE
  5
2F0
100
AcDbEntity
  8
0
100
AcDbLine
 62
7
  6
CONTINUOUS
 10
100.6647323118
 20
110.6082224126
 11
101.2897327886
 21
110.9912011239
  0
LINE
  5
2F1
100
AcDbEntity
  8
0
100
AcDbLine
 62
7
  6
CONTINUOUS
 10
177.6054418403
 20
106.1805628422
 11
201.2035645317
 21
106.1805628422
  0
LINE
  5
2F2
100
AcDbEntity
  8
BEZUGSACHSEN
100
AcDbLine
 62
7
  6
CONTINUOUS
 10
171.404512732
 20
106.4805628422
 11
207.4044936399
 21
106.4805628422
  0
LINE
  5
2F3
100
AcDbEntity
  8
0
100
AcDbLine
 62
7
  6
CONTINUOUS
 10
170.8342542267
 20
109.7146053972
 11
170.5978814168
 21
109.7146053972
  0
LINE
  5
2F4
100
AcDbEntity
  8
0
100
AcDbLine
 62
7
  6
CONTINUOUS
 10
207.5900248567
 20
109.7146053972
 11
208.2111249552
 21
109.7146053972
  0
LINE
  5
2F5
100
AcDbEntity
  8
0
100
AcDbLine
 62
7
  6
CONTINUOUS
 10
171.6079284964
 20
110.4805628422
 11
171.0790113128
 21
110.4805628422
  0
LINE
  5
2F6
100
AcDbEntity
  8
0
100
AcDbLine
 62
7
  6
CONTINUOUS
 10
170.7133606614
 20
110.4805628422
 11
170.2053321456
 21
110.4805628422
  0
LINE
  5
2F7
100
AcDbEntity
  8
0
100
AcDbLine
 62
7
  6
CONTINUOUS
 10
170.191563947
 20
110.4805628422
 11
170.2013978411
 21
110.4805628422
  0
LINE
  5
2F8
100
AcDbEntity
  8
0
100
AcDbLine
 62
7
  6
CONTINUOUS
 10
207.3395459677
 20
110.4805628422
 11
208.0458128274
 21
110.4805628422
  0
LINE
  5
2F9
100
AcDbEntity
  8
0
100
AcDbLine
 62
7
  6
CONTINUOUS
 10
208.4080851977
 20
110.4805628422
 11
208.6174424249
 21
110.4805628422
  0
LINE
  5
2FA
100
AcDbEntity
  8
0
100
AcDbLine
 62
7
  6
CONTINUOUS
 10
170.7209304484
 20
110.6082224126
 11
170.2122344474
 21
110.6082224126
  0
LINE
  5
2FB
100
AcDbEntity
  8
0
100
AcDbLine
 62
7
  6
CONTINUOUS
 10
208.4400872801
 20
110.6082224126
 11
208.6334109231
 21
110.6082224126
  0
LINE
  5
2FC
100
AcDbEntity
  8
0
100
AcDbLine
 62
7
  6
CONTINUOUS
 10
171.5089876929
 20
110.9912011239
 11
170.9804810648
 21
110.9912011239
  0
LINE
  5
2FD
100
AcDbEntity
  8
0
100
AcDbLine
 62
7
  6
CONTINUOUS
 10
170.6138014752
 20
110.9912011239
 11
170.1899519833
 21
110.9912011239
  0
LINE
  5
2FE
100
AcDbEntity
  8
0
100
AcDbLine
 62
7
  6
CONTINUOUS
 10
208.5345031261
 20
110.9912011239
 11
208.6782486941
 21
110.9912011239
  0
LINE
  5
2FF
100
AcDbEntity
  8
0
100
AcDbLine
 62
7
  6
CONTINUOUS
 10
171.3152562938
 20
111.1188607278
 11
170.7909011299
 21
111.1188607278
  0
LINE
  5
300
100
AcDbEntity
  8
0
100
AcDbLine
 62
7
  6
CONTINUOUS
 10
170.0926239377
 20
111.1188607278
 11
170.0790138638
 21
111.1188607278
  0
LINE
  5
301
100
AcDbEntity
  8
0
100
AcDbLine
 62
7
  6
CONTINUOUS
 10
208.1650461324
 20
111.1188607278
 11
208.5656155069
 21
111.1188607278
  0
LINE
  5
302
100
AcDbEntity
  8
0
100
AcDbLine
 62
7
  6
CONTINUOUS
 10
170.0920720437
 20
111.2465202871
 11
170.0603839094
 21
111.2465202871
  0
LINE
  5
303
100
AcDbEntity
  8
0
100
AcDbLine
 62
7
  6
CONTINUOUS
 10
171.1746675386
 20
111.3741798463
 11
170.6526346409
 21
111.3741798463
  0
LINE
  5
304
100
AcDbEntity
  8
0
100
AcDbLine
 62
7
  6
CONTINUOUS
 10
170.4682906961
 20
111.5018394056
 11
170.133972499
 21
111.5018394056
  0
LINE
  5
305
100
AcDbEntity
  8
0
100
AcDbLine
 62
7
  6
CONTINUOUS
 10
170.070081162
 20
111.5018394056
 11
170.025000178
 21
111.5018394056
  0
LINE
  5
306
100
AcDbEntity
  8
0
100
AcDbLine
 62
7
  6
CONTINUOUS
 10
208.2384641166
 20
111.5018394056
 11
208.7473025093
 21
111.5018394056
  0
LINE
  5
307
100
AcDbEntity
  8
0
100
AcDbLine
 62
7
  6
CONTINUOUS
 10
171.0735681774
 20
111.7571586135
 11
170.5524102654
 21
111.7571586135
  0
LINE
  5
308
100
AcDbEntity
  8
0
100
AcDbLine
 62
7
  6
CONTINUOUS
 10
170.0013699169
 20
112.012477732
 11
169.9444035144
 21
112.012477732
  0
LINE
  5
309
100
AcDbEntity
  8
0
100
AcDbLine
 62
7
  6
CONTINUOUS
 10
208.3318333338
 20
112.012477732
 11
208.8646028575
 21
112.012477732
  0
LINE
  5
30A
100
AcDbEntity
  8
0
100
AcDbLine
 62
7
  6
CONTINUOUS
 10
170.3504463128
 20
112.1401372912
 11
170.0462327696
 21
112.1401372912
  0
LINE
  5
30B
100
AcDbEntity
  8
0
100
AcDbLine
 62
7
  6
CONTINUOUS
 10
208.4249486853
 20
112.2677968505
 11
208.8461634434
 21
112.2677968505
  0
LINE
  5
30C
100
AcDbEntity
  8
0
100
AcDbLine
 62
7
  6
CONTINUOUS
 10
208.4699683346
 20
112.523115969
 11
208.8915779252
 21
112.523115969
  0
LINE
  5
30D
100
AcDbEntity
  8
0
100
AcDbLine
 62
7
  6
CONTINUOUS
 10
170.2562268611
 20
112.6507755282
 11
169.954848855
 21
112.6507755282
  0
LINE
  5
30E
100
AcDbEntity
  8
0
100
AcDbLine
 62
7
  6
CONTINUOUS
 10
208.53749784
 20
112.9060948255
 11
208.9697602082
 21
112.9060948255
  0
LINE
  5
30F
100
AcDbEntity
  8
0
100
AcDbLine
 62
7
  6
CONTINUOUS
 10
169.7815045749
 20
113.161413944
 11
169.7363472006
 21
113.161413944
  0
LINE
  5
310
100
AcDbEntity
  8
0
100
AcDbLine
 62
7
  6
CONTINUOUS
 10
208.5459786308
 20
113.161413944
 11
209.0726591714
 21
113.161413944
  0
LINE
  5
311
100
AcDbEntity
  8
0
100
AcDbLine
 62
7
  6
CONTINUOUS
 10
170.1385272403
 20
113.2890735033
 11
169.8149685114
 21
113.2890735033
  0
LINE
  5
312
100
AcDbEntity
  8
0
100
AcDbLine
 62
7
  6
CONTINUOUS
 10
169.6854574308
 20
113.5443926218
 11
169.6550469535
 21
113.5443926218
  0
LINE
  5
313
100
AcDbEntity
  8
0
100
AcDbLine
 62
7
  6
CONTINUOUS
 10
169.628813687
 20
113.672052181
 11
169.6418147557
 21
113.672052181
  0
LINE
  5
314
100
AcDbEntity
  8
0
100
AcDbLine
 62
7
  6
CONTINUOUS
 10
170.0444280068
 20
113.7997117403
 11
169.6903915796
 21
113.7997117403
  0
LINE
  5
315
100
AcDbEntity
  8
0
100
AcDbLine
 62
7
  6
CONTINUOUS
 10
169.8300765116
 20
114.0550308588
 11
169.9973927433
 21
114.0550308588
  0
LINE
  5
316
100
AcDbEntity
  8
0
100
AcDbLine
 62
7
  6
CONTINUOUS
 10
170.1231496967
 20
114.0550308588
 11
170.9866388594
 21
114.0550308588
  0
LINE
  5
317
100
AcDbEntity
  8
0
100
AcDbLine
 62
7
  6
CONTINUOUS
 10
169.8069547804
 20
114.182690418
 11
169.5792759572
 21
114.182690418
  0
LINE
  5
318
100
AcDbEntity
  8
0
100
AcDbLine
 62
7
  6
CONTINUOUS
 10
209.2426218377
 20
114.182690418
 11
209.2640975584
 21
114.182690418
  0
LINE
  5
319
100
AcDbEntity
  8
0
100
AcDbLine
 62
7
  6
CONTINUOUS
 10
169.7838347225
 20
114.3103499773
 11
169.5291181546
 21
114.3103499773
  0
LINE
  5
31A
100
AcDbEntity
  8
0
100
AcDbLine
 62
7
  6
CONTINUOUS
 10
169.5168756301
 20
114.3103499773
 11
169.5162636884
 21
114.3103499773
  0
LINE
  5
31B
100
AcDbEntity
  8
0
100
AcDbLine
 62
7
  6
CONTINUOUS
 10
209.2651941585
 20
114.3103499773
 11
209.2927426835
 21
114.3103499773
  0
LINE
  5
31C
100
AcDbEntity
  8
0
100
AcDbLine
 62
7
  6
CONTINUOUS
 10
170.8878391569
 20
114.5656690958
 11
170.0279452257
 21
114.5656690958
  0
LINE
  5
31D
100
AcDbEntity
  8
0
100
AcDbLine
 62
7
  6
CONTINUOUS
 10
169.9033684319
 20
114.5656690958
 11
169.7376004319
 21
114.5656690958
  0
LINE
  5
31E
100
AcDbEntity
  8
0
100
AcDbLine
 62
7
  6
CONTINUOUS
 10
207.9211673476
 20
114.5656690958
 11
208.4486032341
 21
114.5656690958
  0
LINE
  5
31F
100
AcDbEntity
  8
0
100
AcDbLine
 62
7
  6
CONTINUOUS
 10
170.3571364251
 20
115.5869459274
 11
169.7154680945
 21
115.5869459274
  0
LINE
  5
320
100
AcDbEntity
  8
0
100
AcDbLine
 62
7
  6
CONTINUOUS
 10
208.1184120066
 20
115.5869459274
 11
208.6451173422
 21
115.5869459274
  0
LINE
  5
321
100
AcDbEntity
  8
0
100
AcDbLine
 62
7
  6
CONTINUOUS
 10
169.2460692107
 20
115.8422650459
 11
169.8696003318
 21
115.8422650459
  0
LINE
  5
322
100
AcDbEntity
  8
0
100
AcDbLine
 62
7
  6
CONTINUOUS
 10
209.5360489538
 20
115.8422650459
 11
209.5629371613
 21
115.8422650459
  0
LINE
  5
323
100
AcDbEntity
  8
0
100
AcDbLine
 62
7
  6
CONTINUOUS
 10
169.7557366178
 20
116.4805628422
 11
169.1335280011
 21
116.4805628422
  0
LINE
  5
324
100
AcDbEntity
  8
0
100
AcDbLine
 62
7
  6
CONTINUOUS
 10
208.4793799374
 20
116.4805628422
 11
209.6754783709
 21
116.4805628422
  0
LINE
  5
325
100
AcDbEntity
  8
0
100
AcDbLine
 62
7
  6
CONTINUOUS
 10
170.1892307495
 20
110.4933288025
 11
170.191563947
 21
110.4805628422
  0
LINE
  5
326
100
AcDbEntity
  8
0
100
AcDbLine
 62
7
  6
CONTINUOUS
 10
170.0790138638
 20
111.1188607278
 11
170.076118946
 21
111.1348181635
  0
LINE
  5
327
100
AcDbEntity
  8
0
100
AcDbLine
 62
7
  6
CONTINUOUS
 10
170.0462327696
 20
112.1401372912
 11
169.954848855
 21
112.6507755282
  0
LINE
  5
328
100
AcDbEntity
  8
0
100
AcDbLine
 62
7
  6
CONTINUOUS
 10
169.9174284468
 20
112.523115969
 11
169.9628429285
 21
112.2677968505
  0
LINE
  5
329
100
AcDbEntity
  8
0
100
AcDbLine
 62
7
  6
CONTINUOUS
 10
169.1335200729
 20
116.4805628422
 11
169.2460691961
 21
115.8422650459
  0
LINE
  5
32A
100
AcDbEntity
  8
0
100
AcDbLine
 62
7
  6
CONTINUOUS
 10
169.5184381382
 20
114.2975840165
 11
169.6315500048
 21
113.6560947437
  0
LINE
  5
32B
100
AcDbEntity
  8
0
100
AcDbLine
 62
7
  6
CONTINUOUS
 10
170.079345656
 20
111.1165194085
 11
170.1892309737
 21
110.4933288041
  0
LINE
  5
32C
100
AcDbEntity
  8
BEZUGSACHSEN
100
AcDbLine
 62
7
  6
CONTINUOUS
 10
169.3853108699
 20
117.9319715147
 11
169.6412333789
 21
116.4805628422
  0
LINE
  5
32D
100
AcDbEntity
  8
BEZUGSACHSEN
100
AcDbLine
 62
7
  6
CONTINUOUS
 10
169.7537825021
 20
115.8422650459
 11
169.7962893221
 21
115.6011968904
  0
LINE
  5
32E
100
AcDbEntity
  8
BEZUGSACHSEN
100
AcDbLine
 62
7
  6
CONTINUOUS
 10
170.6996224022
 20
110.4781404164
 11
171.404503186
 21
106.4805628422
  0
LINE
  5
32F
100
AcDbEntity
  8
0
100
AcDbLine
 62
7
  6
CONTINUOUS
 10
169.6315501195
 20
113.656094745
 11
169.628813687
 21
113.672052181
  0
LINE
  5
330
100
AcDbEntity
  8
0
100
AcDbLine
 62
7
  6
CONTINUOUS
 10
178.4348480714
 20
126.6805628422
 11
181.3778723683
 21
126.6805628422
  0
LINE
  5
331
100
AcDbEntity
  8
0
100
AcDbLine
 62
7
  6
CONTINUOUS
 10
197.4311340036
 20
126.6805628422
 11
200.3741583006
 21
126.6805628422
  0
LINE
  5
332
100
AcDbEntity
  8
RUNDUNGEN
100
AcDbLine
 62
7
  6
CONTINUOUS
 10
208.018166436
 20
120.6318689004
 11
200.5237626086
 21
124.1265667984
  0
LINE
  5
333
100
AcDbEntity
  8
0
100
AcDbLine
 62
7
  6
CONTINUOUS
 10
177.604503186
 20
106.4805628422
 11
177.604503186
 21
106.1805628422
  0
LINE
  5
334
100
AcDbEntity
  8
0
100
AcDbLine
 62
7
  6
CONTINUOUS
 10
178.4348480714
 20
124.2028420126
 11
178.4348480714
 21
126.6805628422
  0
LINE
  5
335
100
AcDbEntity
  8
BEZUGSACHSEN
100
AcDbLine
 62
7
  6
CONTINUOUS
 10
182.904503186
 20
131.377269174
 11
182.904503186
 21
168.0245823414
  0
LINE
  5
336
100
AcDbEntity
  8
RUNDUNGEN
100
AcDbLine
 62
7
  6
CONTINUOUS
 10
195.904503186
 20
131.377269174
 11
195.904503186
 21
168.0245823414
  0
LINE
  5
337
100
AcDbEntity
  8
0
100
AcDbLine
 62
7
  6
CONTINUOUS
 10
196.404503186
 20
164.2305628422
 11
196.404503186
 21
160.7305628422
  0
LINE
  5
338
100
AcDbEntity
  8
0
100
AcDbLine
 62
7
  6
CONTINUOUS
 10
200.3741583006
 20
124.2028420126
 11
200.3741583006
 21
126.6805628422
  0
LINE
  5
339
100
AcDbEntity
  8
0
100
AcDbLine
 62
7
  6
CONTINUOUS
 10
201.204503186
 20
106.4805628422
 11
201.204503186
 21
106.1805628422
  0
LINE
  5
33A
100
AcDbEntity
  8
0
100
AcDbLine
 62
7
  6
CONTINUOUS
 10
195.904503186
 20
160.7305628422
 11
196.404503186
 21
160.7305628422
  0
LINE
  5
33B
100
AcDbEntity
  8
0
100
AcDbLine
 62
7
  6
CONTINUOUS
 10
195.904503186
 20
164.2305628422
 11
196.404503186
 21
164.2305628422
  0
LINE
  5
33C
100
AcDbEntity
  8
RUNDUNGEN
100
AcDbLine
 62
7
  6
CONTINUOUS
 10
193.404503186
 20
170.5245823414
 11
185.404503186
 21
170.5245823414
  0
LINE
  5
33D
100
AcDbEntity
  8
0
100
AcDbLine
 62
7
  6
CONTINUOUS
 10
209.2927426835
 20
114.3103499773
 11
209.2905680749
 21
114.2975840176
  0
LINE
  5
33E
100
AcDbEntity
  8
0
100
AcDbLine
 62
7
  6
CONTINUOUS
 10
209.1774562524
 20
113.656094745
 11
209.1801926849
 21
113.672052181
  0
LINE
  5
33F
100
AcDbEntity
  8
0
100
AcDbLine
 62
7
  6
CONTINUOUS
 10
207.404503186
 20
106.4805628422
 11
207.9747521452
 21
109.7146053972
  0
LINE
  5
340
100
AcDbEntity
  8
0
100
AcDbLine
 62
7
  6
CONTINUOUS
 10
208.379929036
 20
112.012477732
 11
208.5804927394
 21
113.1499310167
  0
LINE
  5
341
100
AcDbEntity
  8
0
100
AcDbLine
 62
7
  6
CONTINUOUS
 10
209.1677729931
 20
116.4805628422
 11
209.4236955021
 21
117.9319715147
  0
LINE
  5
342
100
AcDbEntity
  8
0
100
AcDbLine
 62
7
  6
CONTINUOUS
 10
208.6197753983
 20
110.4933288041
 11
208.7328872805
 21
111.1348181651
  0
LINE
  5
343
100
AcDbEntity
  8
0
100
AcDbLine
 62
7
  6
CONTINUOUS
 10
209.1774563671
 20
113.6560947437
 11
209.2905682337
 21
114.2975840165
  0
LINE
  5
344
100
AcDbEntity
  8
0
100
AcDbLine
 62
7
  6
CONTINUOUS
 10
209.5629371758
 20
115.8422650459
 11
209.675486299
 21
116.4805628422
  0
LINE
  5
345
100
AcDbEntity
  8
0
100
AcDbLine
 62
7
  6
CONTINUOUS
 10
208.8915779252
 20
112.523115969
 11
208.8461634434
 21
112.2677968505
  0
LINE
  5
346
100
AcDbEntity
  8
0
100
AcDbLine
 62
7
  6
CONTINUOUS
 10
208.7299925082
 20
111.1188607278
 11
208.7328874259
 21
111.1348181635
  0
LINE
  5
347
100
AcDbEntity
  8
0
100
AcDbLine
 62
7
  6
CONTINUOUS
 10
208.6197756225
 20
110.4933288025
 11
208.6174424249
 21
110.4805628422
  0
LINE
  5
348
100
AcDbEntity
  8
BEZUGSACHSEN
100
AcDbLine
 62
7
  6
CONTINUOUS
 10
170.790839936
 20
120.6318689004
 11
178.2852437634
 21
124.1265667984
  0
LINE
  5
349
100
AcDbEntity
  8
BEZUGSACHSEN
100
AcDbLine
 62
7
  6
CONTINUOUS
 10
66.6730846672
 20
59.406004973
 11
66.6075313535
 21
58.9836628722
  0
LWPOLYLINE
  5
34A
100
AcDbEntity
  8
BEZUGSACHSEN
100
AcDbPolyline
 62
7
  6
CONTINUOUS
 90
6
 70
0
 10
67.5280476679
 20
63.5932396959
 10
67.3504672411
 20
62.8617967299
 10
67.1572402746
 20
62.0006402114
 10
66.9800192783
 20
61.136561278
 10
66.8186993355
 20
60.271133815
 10
66.6730846672
 20
59.406004973
  0
LINE
  5
34B
100
AcDbEntity
  8
BEZUGSACHSEN
100
AcDbLine
 62
7
  6
CONTINUOUS
 10
67.5280668635
 20
63.5933159405
 11
67.5280476822
 21
63.5932396664
  0
LWPOLYLINE
  5
34C
100
AcDbEntity
  8
RUNDUNGEN
100
AcDbPolyline
 62
7
  6
CONTINUOUS
 90
7
 70
0
 10
66.6075313535
 20
58.9836806321
 10
66.6730846672
 20
58.5613385313
 10
66.8186993355
 20
57.6962096892
 10
66.9800192783
 20
56.8307822263
 10
67.1572402746
 20
55.9667032928
 10
67.3504672411
 20
55.1055467743
 10
67.5280476679
 20
54.3741038083
  0
LWPOLYLINE
  5
34D
100
AcDbEntity
  8
BEZUGSACHSEN
100
AcDbPolyline
 62
7
  6
CONTINUOUS
 90
11
 70
0
 10
77.2903594377
 20
69.0876259008
 10
76.2727526723
 20
68.0426393028
 10
75.8277730039
 20
67.5909834683
 10
75.4222746101
 20
67.1880781572
 10
75.0524875396
 20
66.8320292903
 10
74.7159161797
 20
66.5212762862
 10
74.4108000786
 20
66.25409438
 10
74.135545026
 20
66.0283253492
 10
73.8916301854
 20
65.8435808038
 10
73.6796322316
 20
65.6978896181
 10
73.5050557879
 20
65.5914109208
  0
LWPOLYLINE
  5
34E
100
AcDbEntity
  8
BEZUGSACHSEN
100
AcDbPolyline
 62
7
  6
CONTINUOUS
 90
4
 70
0
 10
79.0588527093
 20
70.8503722472
 10
78.4982644611
 20
70.3049782251
 10
77.8689281712
 20
69.676629576
 10
77.2903594377
 20
69.0876259008
  0
LINE
  5
34F
100
AcDbEntity
  8
BEZUGSACHSEN
100
AcDbLine
 62
7
  6
CONTINUOUS
 10
79.0588527093
 20
70.8503722472
 11
79.0589191688
 21
70.8504360093
  0
LWPOLYLINE
  5
350
100
AcDbEntity
  8
BEZUGSACHSEN
100
AcDbPolyline
 62
7
  6
CONTINUOUS
 90
3
 70
0
 10
73.5050557879
 20
65.5914109208
 10
73.3726611958
 20
65.5217108505
 10
73.2863850802
 20
65.4839773937
  0
LWPOLYLINE
  5
351
100
AcDbEntity
  8
RUNDUNGEN
100
AcDbPolyline
 62
7
  6
CONTINUOUS
 90
5
 70
0
 10
76.2691010281
 20
49.9284373288
 10
77.2853227277
 20
48.8848778242
 10
77.8642637711
 20
48.2954253694
 10
78.4952688467
 20
47.6653185336
 10
79.0588528713
 20
47.1169711016
  0
LINE
  5
352
100
AcDbEntity
  8
0
100
AcDbLine
 62
7
  6
CONTINUOUS
 10
99.2272325502
 20
69.9533268667
 11
91.4855627994
 21
65.4836717521
  0
LWPOLYLINE
  5
353
100
AcDbEntity
  8
RUNDUNGEN
100
AcDbPolyline
 62
7
  6
CONTINUOUS
 90
27
 70
0
 10
79.0589093108
 20
47.1168972196
 10
80.2997872504
 20
45.9907782778
 10
81.6994335102
 20
44.8604235067
 10
83.1459454578
 20
43.8291854405
 10
84.6354904498
 20
42.8963265494
 10
86.1636020083
 20
42.0618774464
 10
87.7254140126
 20
41.3258963597
 10
89.3165093226
 20
40.6884247706
 10
90.9322623307
 20
40.1493478279
 10
92.5684257154
 20
39.7086358134
 10
94.220686116
 20
39.3660681071
 10
95.8849790138
 20
39.1216308243
 10
97.557187267
 20
38.9751094821
 10
99.2333070652
 20
38.9265564283
 10
100.9094078673
 20
38.9758183838
 10
102.5815588467
 20
39.1230474072
 10
104.2457579903
 20
39.3681898367
 10
105.8978897871
 20
39.7114598435
 10
107.5338910576
 20
40.1528703594
 10
109.1494496827
 20
40.6926425266
 10
110.7403194817
 20
41.3308053734
 10
112.3018750333
 20
42.0674743909
 10
113.8297005965
 20
42.9026079947
 10
115.3189307014
 20
43.8361497728
 10
116.7650994776
 20
44.8680687647
 10
118.164370533
 20
45.999101258
 10
119.3955552
 20
47.1168967623
  0
LINE
  5
354
100
AcDbEntity
  8
RUNDUNGEN
100
AcDbLine
 62
7
  6
CONTINUOUS
 10
79.0588528713
 20
47.1169711016
 11
79.0589191688
 21
47.1169074949
  0
LINE
  5
355
100
AcDbEntity
  8
RUNDUNGEN
100
AcDbLine
 62
7
  6
CONTINUOUS
 10
73.3727868542
 20
52.445572393
 11
73.5053831471
 21
52.3757468394
  0
LWPOLYLINE
  5
356
100
AcDbEntity
  8
RUNDUNGEN
100
AcDbPolyline
 62
7
  6
CONTINUOUS
 90
10
 70
0
 10
73.5053831471
 20
52.3757468394
 10
73.6801717359
 20
52.269104026
 10
73.8923110719
 20
52.1232704714
 10
74.1361933536
 20
51.93850635
 10
74.4112326648
 20
51.7128819339
 10
74.7159111299
 20
51.4460717651
 10
75.0518404182
 20
51.135925184
 10
75.4207629283
 20
50.7807459569
 10
75.8252627502
 20
50.3788845332
 10
76.2691010281
 20
49.9284373288
  0
LINE
  5
357
100
AcDbEntity
  8
0
100
AcDbLine
 62
7
  6
CONTINUOUS
 10
93.2897325502
 20
39.5590852778
 11
93.2897325502
 21
39.3867919628
  0
LINE
  5
358
100
AcDbEntity
  8
0
100
AcDbLine
 62
7
  6
CONTINUOUS
 10
93.9147325502
 20
78.5378412004
 11
93.9147325502
 21
78.5504437025
  0
LINE
  5
359
100
AcDbEntity
  8
0
100
AcDbLine
 62
7
  6
CONTINUOUS
 10
94.0397325502
 20
39.403585709
 11
94.0397325502
 21
39.2253544503
  0
LINE
  5
35A
100
AcDbEntity
  8
0
100
AcDbLine
 62
7
  6
CONTINUOUS
 10
94.4876504884
 20
52.4836717521
 11
94.4876504884
 21
51.9836717521
  0
LINE
  5
35B
100
AcDbEntity
  8
0
100
AcDbLine
 62
7
  6
CONTINUOUS
 10
94.5397323118
 20
78.6481342074
 11
94.5397323118
 21
78.6727068435
  0
LWPOLYLINE
  5
35C
100
AcDbEntity
  8
RUNDUNGEN
100
AcDbPolyline
 62
7
  6
CONTINUOUS
 90
3
 70
0
 10
73.2855114042
 20
52.4836717521
 10
73.286378061
 20
52.4833688157
 10
73.3727868542
 20
52.445572393
  0
LINE
  5
35D
100
AcDbEntity
  8
0
100
AcDbLine
 62
7
  6
CONTINUOUS
 10
96.2376504884
 20
52.4836717521
 11
96.2376504884
 21
51.9836717521
  0
LINE
  5
35E
100
AcDbEntity
  8
0
100
AcDbLine
 62
7
  6
CONTINUOUS
 10
96.6022338913
 20
52.4836717521
 11
96.6022338913
 21
51.9836717521
  0
LINE
  5
35F
100
AcDbEntity
  8
0
100
AcDbLine
 62
7
  6
CONTINUOUS
 10
96.7897323118
 20
78.9249884922
 11
96.7897323118
 21
79.1424613468
  0
LINE
  5
360
100
AcDbEntity
  8
0
100
AcDbLine
 62
7
  6
CONTINUOUS
 10
96.8939004884
 20
52.4836717521
 11
96.8939004884
 21
51.9836717521
  0
LINE
  5
361
100
AcDbEntity
  8
0
100
AcDbLine
 62
7
  6
CONTINUOUS
 10
97.1126504884
 20
52.4836717521
 11
97.1126504884
 21
51.9836717521
  0
LINE
  5
362
100
AcDbEntity
  8
0
100
AcDbLine
 62
7
  6
CONTINUOUS
 10
97.1855670855
 20
52.4836717521
 11
97.1855670855
 21
51.9836717521
  0
LINE
  5
363
100
AcDbEntity
  8
0
100
AcDbLine
 62
7
  6
CONTINUOUS
 10
97.2584838913
 20
52.4836717521
 11
97.2584838913
 21
51.9836717521
  0
LINE
  5
364
100
AcDbEntity
  8
0
100
AcDbLine
 62
7
  6
CONTINUOUS
 10
97.4147325502
 20
38.9875915735
 11
97.4147325502
 21
38.7746651843
  0
LINE
  5
365
100
AcDbEntity
  8
0
100
AcDbLine
 62
7
  6
CONTINUOUS
 10
97.8418170855
 20
52.4836717521
 11
97.8418170855
 21
51.9836717521
  0
LINE
  5
366
100
AcDbEntity
  8
0
100
AcDbLine
 62
7
  6
CONTINUOUS
 10
98.2793172942
 20
52.4836717521
 11
98.2793172942
 21
51.9836717521
  0
LINE
  5
367
100
AcDbEntity
  8
0
100
AcDbLine
 62
7
  6
CONTINUOUS
 10
98.3522336827
 20
52.4836717521
 11
98.3522336827
 21
51.9836717521
  0
LINE
  5
368
100
AcDbEntity
  8
0
100
AcDbLine
 62
7
  6
CONTINUOUS
 10
98.4980672942
 20
52.4836717521
 11
98.4980672942
 21
51.9836717521
  0
LINE
  5
369
100
AcDbEntity
  8
0
100
AcDbLine
 62
7
  6
CONTINUOUS
 10
98.7168172942
 20
52.4836717521
 11
98.7168172942
 21
51.9836717521
  0
LINE
  5
36A
100
AcDbEntity
  8
0
100
AcDbLine
 62
7
  6
CONTINUOUS
 10
99.0084836827
 20
52.4836717521
 11
99.0084836827
 21
51.9836717521
  0
LINE
  5
36B
100
AcDbEntity
  8
0
100
AcDbLine
 62
7
  6
CONTINUOUS
 10
99.3001504884
 20
52.4836717521
 11
99.3001504884
 21
51.9836717521
  0
LINE
  5
36C
100
AcDbEntity
  8
0
100
AcDbLine
 62
7
  6
CONTINUOUS
 10
99.5918172942
 20
52.4836717521
 11
99.5918172942
 21
51.9836717521
  0
LINE
  5
36D
100
AcDbEntity
  8
0
100
AcDbLine
 62
7
  6
CONTINUOUS
 10
99.8105672942
 20
52.4836717521
 11
99.8105672942
 21
51.9836717521
  0
LINE
  5
36E
100
AcDbEntity
  8
0
100
AcDbLine
 62
7
  6
CONTINUOUS
 10
91.4855627994
 20
52.4836717521
 11
99.2272325502
 21
48.0140166375
  0
LINE
  5
36F
100
AcDbEntity
  8
0
100
AcDbLine
 62
7
  6
CONTINUOUS
 10
99.9564004884
 20
52.4836717521
 11
99.9564004884
 21
51.9836717521
  0
LINE
  5
370
100
AcDbEntity
  8
0
100
AcDbLine
 62
7
  6
CONTINUOUS
 10
100.0293172942
 20
52.4836717521
 11
100.0293172942
 21
51.9836717521
  0
LINE
  5
371
100
AcDbEntity
  8
0
100
AcDbLine
 62
7
  6
CONTINUOUS
 10
100.4668172942
 20
52.4836717521
 11
100.4668172942
 21
51.9836717521
  0
LINE
  5
372
100
AcDbEntity
  8
0
100
AcDbLine
 62
7
  6
CONTINUOUS
 10
101.0397325502
 20
78.9800503337
 11
101.0397325502
 21
79.19267832
  0
LINE
  5
373
100
AcDbEntity
  8
0
100
AcDbLine
 62
7
  6
CONTINUOUS
 10
101.0501504884
 20
52.4836717521
 11
101.0501504884
 21
51.9836717521
  0
LINE
  5
374
100
AcDbEntity
  8
0
100
AcDbLine
 62
7
  6
CONTINUOUS
 10
101.6647327886
 20
39.0423229949
 11
101.6647327886
 21
38.8248821574
  0
LINE
  5
375
100
AcDbEntity
  8
0
100
AcDbLine
 62
7
  6
CONTINUOUS
 10
102.8001504884
 20
52.4836717521
 11
102.8001504884
 21
51.9836717521
  0
LINE
  5
376
100
AcDbEntity
  8
0
100
AcDbLine
 62
7
  6
CONTINUOUS
 10
103.1647340999
 20
52.4836717521
 11
103.1647340999
 21
51.9836717521
  0
LINE
  5
377
100
AcDbEntity
  8
0
100
AcDbLine
 62
7
  6
CONTINUOUS
 10
103.4564004884
 20
52.4836717521
 11
103.4564004884
 21
51.9836717521
  0
LINE
  5
378
100
AcDbEntity
  8
0
100
AcDbLine
 62
7
  6
CONTINUOUS
 10
103.7480668769
 20
52.4836717521
 11
103.7480668769
 21
51.9836717521
  0
LINE
  5
379
100
AcDbEntity
  8
0
100
AcDbLine
 62
7
  6
CONTINUOUS
 10
103.8939004884
 20
52.4836717521
 11
103.8939004884
 21
51.9836717521
  0
LINE
  5
37A
100
AcDbEntity
  8
0
100
AcDbLine
 62
7
  6
CONTINUOUS
 10
103.9147327886
 20
39.3194286518
 11
103.9147327886
 21
39.2946366607
  0
LINE
  5
37B
100
AcDbEntity
  8
0
100
AcDbLine
 62
7
  6
CONTINUOUS
 10
103.9668168769
 20
52.4836717521
 11
103.9668168769
 21
51.9836717521
  0
LINE
  5
37C
100
AcDbEntity
  8
0
100
AcDbLine
 62
7
  6
CONTINUOUS
 10
99.2272325502
 20
48.0140166375
 11
106.968902301
 21
52.4836717521
  0
LINE
  5
37D
100
AcDbEntity
  8
0
100
AcDbLine
 62
7
  6
CONTINUOUS
 10
103.9668168769
 20
51.9836717521
 11
101.0501504884
 21
51.9836717521
  0
LINE
  5
37E
100
AcDbEntity
  8
0
100
AcDbLine
 62
7
  6
CONTINUOUS
 10
100.4668172942
 20
51.9836717521
 11
97.8418170855
 21
51.9836717521
  0
LINE
  5
37F
100
AcDbEntity
  8
0
100
AcDbLine
 62
7
  6
CONTINUOUS
 10
97.2584838913
 20
51.9836717521
 11
94.4876504884
 21
51.9836717521
  0
LINE
  5
380
100
AcDbEntity
  8
RUNDUNGEN
100
AcDbLine
 62
7
  6
CONTINUOUS
 10
69.9525946222
 20
52.4836717521
 11
128.5018704562
 21
52.4836717521
  0
LINE
  5
381
100
AcDbEntity
  8
0
100
AcDbLine
 62
7
  6
CONTINUOUS
 10
104.4147325502
 20
78.5640451499
 11
104.4147325502
 21
78.7419890539
  0
LINE
  5
382
100
AcDbEntity
  8
0
100
AcDbLine
 62
7
  6
CONTINUOUS
 10
104.5397325502
 20
39.4292701024
 11
104.5397325502
 21
39.4168998017
  0
LINE
  5
383
100
AcDbEntity
  8
0
100
AcDbLine
 62
7
  6
CONTINUOUS
 10
105.1647325502
 20
78.4082146613
 11
105.1647325502
 21
78.5805515414
  0
LWPOLYLINE
  5
384
100
AcDbEntity
  8
RUNDUNGEN
100
AcDbPolyline
 62
7
  6
CONTINUOUS
 90
3
 70
0
 10
124.9529564252
 20
52.3779414509
 10
125.0845005262
 20
52.4469227685
 10
125.168972995
 20
52.4836717521
  0
LWPOLYLINE
  5
385
100
AcDbEntity
  8
RUNDUNGEN
100
AcDbPolyline
 62
7
  6
CONTINUOUS
 90
11
 70
0
 10
121.1790914318
 20
48.8950719329
 10
122.1944818598
 20
49.9377571525
 10
122.6378376917
 20
50.3875664247
 10
123.041869013
 20
50.7887417557
 10
123.410317754
 20
51.1431848613
 10
123.7457648321
 20
51.4525604771
 10
124.0499310171
 20
51.7185638357
 10
124.3244126934
 20
51.9433500705
 10
124.5676582603
 20
52.1272455107
 10
124.7790512271
 20
52.2721853943
 10
124.9529564252
 20
52.3779414509
  0
LWPOLYLINE
  5
386
100
AcDbEntity
  8
RUNDUNGEN
100
AcDbPolyline
 62
7
  6
CONTINUOUS
 90
4
 70
0
 10
119.3956093395
 20
47.1169683387
 10
119.9694582409
 20
47.6754385608
 10
120.6004088964
 20
48.3057383434
 10
121.1790914318
 20
48.8950719329
  0
LINE
  5
387
100
AcDbEntity
  8
RUNDUNGEN
100
AcDbLine
 62
7
  6
CONTINUOUS
 10
119.3956191503
 20
47.1169581129
 11
119.3955552
 21
47.1168967623
  0
LINE
  5
388
100
AcDbEntity
  8
BEZUGSACHSEN
100
AcDbLine
 62
7
  6
CONTINUOUS
 10
69.9525946222
 20
65.4836717521
 11
128.5018705393
 21
65.4836717521
  0
LINE
  5
389
100
AcDbEntity
  8
0
100
AcDbLine
 62
7
  6
CONTINUOUS
 10
106.968902301
 20
65.4836717521
 11
99.2272325502
 21
69.9533268667
  0
LINE
  5
38A
100
AcDbEntity
  8
BEZUGSACHSEN
100
AcDbLine
 62
7
  6
CONTINUOUS
 10
125.1689719069
 20
65.4836717521
 11
125.0846233924
 21
65.5203621031
  0
LINE
  5
38B
100
AcDbEntity
  8
BEZUGSACHSEN
100
AcDbLine
 62
7
  6
CONTINUOUS
 10
125.0846233924
 20
65.5203621031
 11
124.9532805424
 21
65.5892188379
  0
LWPOLYLINE
  5
38C
100
AcDbEntity
  8
BEZUGSACHSEN
100
AcDbPolyline
 62
7
  6
CONTINUOUS
 90
10
 70
0
 10
124.9532805424
 20
65.5892188379
 10
124.7795883278
 20
65.6948108363
 10
124.5683382034
 20
65.8396076032
 10
124.3250615612
 20
66.0234821703
 10
124.0503655389
 20
66.2484113945
 10
123.7457627771
 20
66.5147848755
 10
123.409674681
 20
66.8247652318
 10
123.0403635955
 20
67.1800752372
 10
122.6353347678
 20
67.5822931021
 10
122.1908344893
 20
68.0333142711
  0
LINE
  5
38D
100
AcDbEntity
  8
RUNDUNGEN
100
AcDbLine
 62
7
  6
CONTINUOUS
 10
131.7789279799
 20
58.5459833789
 11
131.8469308213
 21
58.9836769197
  0
LWPOLYLINE
  5
38E
100
AcDbEntity
  8
RUNDUNGEN
100
AcDbPolyline
 62
7
  6
CONTINUOUS
 90
6
 70
0
 10
130.9264161795
 20
54.3740990489
 10
131.1023875328
 20
55.0986733855
 10
131.2959580015
 20
55.9608010993
 10
131.4724436742
 20
56.8205529488
 10
131.6330888774
 20
57.6811224711
 10
131.7789279799
 20
58.5459833789
  0
LINE
  5
38F
100
AcDbEntity
  8
RUNDUNGEN
100
AcDbLine
 62
7
  6
CONTINUOUS
 10
130.9264160666
 20
54.3740990743
 11
130.9263974387
 21
54.3740250015
  0
LWPOLYLINE
  5
390
100
AcDbEntity
  8
BEZUGSACHSEN
100
AcDbPolyline
 62
7
  6
CONTINUOUS
 90
27
 70
0
 10
119.3955552
 20
70.850446742
 10
118.164370533
 20
71.9682422462
 10
116.7650994776
 20
73.0992747395
 10
115.3189307014
 20
74.1311937314
 10
113.8297005965
 20
75.0647355095
 10
112.3018750333
 20
75.8998691133
 10
110.7403194817
 20
76.6365381308
 10
109.1494496827
 20
77.2747009776
 10
107.5338910576
 20
77.8144731449
 10
105.8978897871
 20
78.2558836608
 10
104.2457579903
 20
78.5991536676
 10
102.5815588467
 20
78.8442960971
 10
100.9094078673
 20
78.9915251204
 10
99.2333070652
 20
79.040787076
 10
97.557187267
 20
78.9922340222
 10
95.8849790138
 20
78.8457126799
 10
94.220686116
 20
78.6012753971
 10
92.5684257154
 20
78.2587076908
 10
90.9322623307
 20
77.8179956763
 10
89.3165093226
 20
77.2789187337
 10
87.7254140126
 20
76.6414471446
 10
86.1636020083
 20
75.9054660578
 10
84.6354904498
 20
75.0710169548
 10
83.1459454578
 20
74.1381580638
 10
81.6994335102
 20
73.1069199975
 10
80.2997872504
 20
71.9765652264
 10
79.0589093108
 20
70.8504462846
  0
LINE
  5
391
100
AcDbEntity
  8
BEZUGSACHSEN
100
AcDbLine
 62
7
  6
CONTINUOUS
 10
119.3956193138
 20
70.8503852344
 11
119.3955552
 21
70.850446742
  0
LWPOLYLINE
  5
392
100
AcDbEntity
  8
BEZUGSACHSEN
100
AcDbPolyline
 62
7
  6
CONTINUOUS
 90
5
 70
0
 10
122.1908344893
 20
68.0333142711
 10
121.1740432991
 20
69.0774443145
 10
120.5957257533
 20
69.6663370974
 10
119.9664479896
 20
70.2948739635
 10
119.3956095029
 20
70.8503750087
  0
LWPOLYLINE
  5
393
100
AcDbEntity
  8
BEZUGSACHSEN
100
AcDbPolyline
 62
7
  6
CONTINUOUS
 90
7
 70
0
 10
131.846930821
 20
58.9836665862
 10
131.7793697931
 20
59.4185943388
 10
131.6335434466
 20
60.2836608197
 10
131.472027049
 20
61.1489173308
 10
131.2946317604
 20
62.0127153546
 10
131.1012543844
 20
62.8735033874
 10
130.9264166331
 20
63.5932426513
  0
ARC
  5
394
100
AcDbEntity
  8
0
100
AcDbCircle
 62
7
  6
CONTINUOUS
 10
99.2272325502
 20
137.9805628422
 40
17.5
100
AcDbArc
 50
197.8867559961
 51
213.1709223163
  0
ARC
  5
395
100
AcDbEntity
  8
0
100
AcDbCircle
 62
7
  6
CONTINUOUS
 10
99.2272325502
 20
137.9805628422
 40
17.5
100
AcDbArc
 50
326.8291439068
 51
342.1132440039
  0
ARC
  5
396
100
AcDbEntity
  8
RUNDUNGEN
100
AcDbCircle
 62
7
  6
CONTINUOUS
 10
99.2272325502
 20
137.9805628422
 40
17.5
100
AcDbArc
 50
342.1132440039
 51
197.8867559961
  0
ARC
  5
397
100
AcDbEntity
  8
BEZUGSACHSEN
100
AcDbCircle
 62
7
  6
CONTINUOUS
 10
127.2272325502
 20
106.4805628422
 40
10.0
100
AcDbArc
 50
117.1023684353
 51
180.0
  0
ARC
  5
398
100
AcDbEntity
  8
BEZUGSACHSEN
100
AcDbCircle
 62
7
  6
CONTINUOUS
 10
71.2272325502
 20
106.4805628422
 40
10.0
100
AcDbArc
 50
0.0
 51
62.8976315647
  0
ARC
  5
399
100
AcDbEntity
  8
0
100
AcDbCircle
 62
7
  6
CONTINUOUS
 10
91.9228659157
 20
131.3433182051
 40
7.7902014625
100
AcDbArc
 50
245.2183608081
 51
246.3240775129
  0
ARC
  5
39A
100
AcDbEntity
  8
0
100
AcDbCircle
 62
7
  6
CONTINUOUS
 10
106.531794146
 20
131.3429058344
 40
7.789745577
100
AcDbArc
 50
293.6758442316
 51
294.7817556084
  0
ARC
  5
39B
100
AcDbEntity
  8
RUNDUNGEN
100
AcDbCircle
 62
7
  6
CONTINUOUS
 10
120.6224508199
 20
159.1623927642
 40
2.5
100
AcDbArc
 50
22.5
 51
67.5
  0
ARC
  5
39C
100
AcDbEntity
  8
RUNDUNGEN
100
AcDbCircle
 62
7
  6
CONTINUOUS
 10
99.2272325502
 20
168.0245823414
 40
2.5
100
AcDbArc
 50
67.5
 51
112.5
  0
ARC
  5
39D
100
AcDbEntity
  8
RUNDUNGEN
100
AcDbCircle
 62
7
  6
CONTINUOUS
 10
77.8320142805
 20
159.1623927642
 40
2.5
100
AcDbArc
 50
112.5
 51
157.5
  0
ARC
  5
39E
100
AcDbEntity
  8
BEZUGSACHSEN
100
AcDbCircle
 62
7
  6
CONTINUOUS
 10
125.2272325502
 20
119.4805628422
 40
2.0
100
AcDbArc
 50
270.0
 51
360.0
  0
ARC
  5
39F
100
AcDbEntity
  8
BEZUGSACHSEN
100
AcDbCircle
 62
7
  6
CONTINUOUS
 10
73.2272325502
 20
119.4805628422
 40
2.0
100
AcDbArc
 50
180.0
 51
270.0
  0
ARC
  5
3A0
100
AcDbEntity
  8
0
100
AcDbCircle
 62
7
  6
CONTINUOUS
 10
91.3546051486
 20
128.6035585045
 40
118.6318430683
100
AcDbArc
 50
351.7114810644
 51
351.9606298588
  0
ARC
  5
3A1
100
AcDbEntity
  8
0
100
AcDbCircle
 62
7
  6
CONTINUOUS
 10
96.7941551626
 20
129.4392398529
 40
113.4172706626
100
AcDbArc
 50
350.9436138915
 51
351.161389451
  0
ARC
  5
3A2
100
AcDbEntity
  8
0
100
AcDbCircle
 62
7
  6
CONTINUOUS
 10
138.0248570379
 20
128.1791895186
 40
72.5744656951
100
AcDbArc
 50
345.2606259177
 51
346.3887831293
  0
ARC
  5
3A3
100
AcDbEntity
  8
0
100
AcDbCircle
 62
7
  6
CONTINUOUS
 10
140.8992131243
 20
128.5280205387
 40
69.7909362227
100
AcDbArc
 50
344.3844314398
 51
345.5551920061
  0
ARC
  5
3A4
100
AcDbEntity
  8
0
100
AcDbCircle
 62
7
  6
CONTINUOUS
 10
143.6235730886
 20
127.7983671202
 40
66.4735239765
100
AcDbArc
 50
344.2140326012
 51
344.8366075202
  0
ARC
  5
3A5
100
AcDbEntity
  8
0
100
AcDbCircle
 62
7
  6
CONTINUOUS
 10
153.6653797601
 20
125.5475948424
 40
56.7307854646
100
AcDbArc
 50
347.1245073662
 51
347.3223192736
  0
ARC
  5
3A6
100
AcDbEntity
  8
0
100
AcDbCircle
 62
7
  6
CONTINUOUS
 10
220.3495448489
 20
116.7484089638
 40
50.4889116396
100
AcDbArc
 50
185.9646749997
 51
186.5476312706
  0
ARC
  5
3A7
100
AcDbEntity
  8
0
100
AcDbCircle
 62
7
  6
CONTINUOUS
 10
160.0782252752
 20
117.8232108571
 40
49.0778833418
100
AcDbArc
 50
351.9980093665
 51
352.49880856
  0
ARC
  5
3A8
100
AcDbEntity
  8
0
100
AcDbCircle
 62
7
  6
CONTINUOUS
 10
160.372720061
 20
117.6710448891
 40
48.2616675043
100
AcDbArc
 50
352.1972147768
 51
352.6558856687
  0
ARC
  5
3A9
100
AcDbEntity
  8
0
100
AcDbCircle
 62
7
  6
CONTINUOUS
 10
184.8077014452
 20
116.5608342366
 40
15.4499789847
100
AcDbArc
 50
191.501503613
 51
191.9861348175
  0
ARC
  5
3AA
100
AcDbEntity
  8
0
100
AcDbCircle
 62
7
  6
CONTINUOUS
 10
194.007315778
 20
116.5596296761
 40
15.4438488747
100
AcDbArc
 50
347.5300810018
 51
348.7413315928
  0
ARC
  5
3AB
100
AcDbEntity
  8
0
100
AcDbCircle
 62
7
  6
CONTINUOUS
 10
184.7755063998
 20
116.5539783369
 40
15.4170620606
100
AcDbArc
 50
191.9860592961
 51
192.7121217092
  0
ARC
  5
3AC
100
AcDbEntity
  8
0
100
AcDbCircle
 62
7
  6
CONTINUOUS
 10
182.2447940742
 20
117.4867438286
 40
13.105021891
100
AcDbArc
 50
207.8027522745
 51
209.0722199674
  0
ARC
  5
3AD
100
AcDbEntity
  8
0
100
AcDbCircle
 62
7
  6
CONTINUOUS
 10
182.5142243758
 20
117.4518197167
 40
12.8655841553
100
AcDbArc
 50
208.1898851445
 51
209.4879365716
  0
ARC
  5
3AE
100
AcDbEntity
  8
0
100
AcDbCircle
 62
7
  6
CONTINUOUS
 10
182.1175084989
 20
116.6811859116
 40
12.8339862152
100
AcDbArc
 50
206.3180047582
 51
207.5968212937
  0
ARC
  5
3AF
100
AcDbEntity
  8
0
100
AcDbCircle
 62
7
  6
CONTINUOUS
 10
181.6947294049
 20
116.5891871092
 40
12.3892448042
100
AcDbArc
 50
194.2268170914
 51
195.4483285849
  0
ARC
  5
3B0
100
AcDbEntity
  8
0
100
AcDbCircle
 62
7
  6
CONTINUOUS
 10
181.6796673491
 20
112.9868073194
 40
11.748889158
100
AcDbArc
 50
187.2893439526
 51
187.6809677006
  0
ARC
  5
3B1
100
AcDbEntity
  8
0
100
AcDbCircle
 62
7
  6
CONTINUOUS
 10
197.144594328
 20
112.9847909942
 40
11.7335013529
100
AcDbArc
 50
351.4805030842
 51
352.7391910917
  0
ARC
  5
3B2
100
AcDbEntity
  8
0
100
AcDbCircle
 62
7
  6
CONTINUOUS
 10
181.7704854666
 20
112.3809998991
 40
11.7333875784
100
AcDbArc
 50
184.2970913868
 51
185.5484913982
  0
ARC
  5
3B3
100
AcDbEntity
  8
0
100
AcDbCircle
 62
7
  6
CONTINUOUS
 10
181.6638794674
 20
112.9846773361
 40
11.7329582436
100
AcDbArc
 50
187.6809642262
 51
188.1005465658
  0
ARC
  5
3B4
100
AcDbEntity
  8
0
100
AcDbCircle
 62
7
  6
CONTINUOUS
 10
181.6482009973
 20
112.9824464736
 40
11.717121856
100
AcDbArc
 50
188.1005497939
 51
188.5199025393
  0
ARC
  5
3B5
100
AcDbEntity
  8
0
100
AcDbCircle
 62
7
  6
CONTINUOUS
 10
179.5310413208
 20
116.86243994
 40
10.3062452597
100
AcDbArc
 50
195.0707861559
 51
197.2878297843
  0
ARC
  5
3B6
100
AcDbEntity
  8
0
100
AcDbCircle
 62
7
  6
CONTINUOUS
 10
199.3671410366
 20
116.2857710909
 40
10.117939351
100
AcDbArc
 50
345.7763176829
 51
348.0032258094
  0
ARC
  5
3B7
100
AcDbEntity
  8
0
100
AcDbCircle
 62
7
  6
CONTINUOUS
 10
199.357452579
 20
111.8883323517
 40
9.3638712432
100
AcDbArc
 50
352.1426412488
 51
354.5021887249
  0
ARC
  5
3B8
100
AcDbEntity
  8
0
100
AcDbCircle
 62
7
  6
CONTINUOUS
 10
179.5304422219
 20
111.3425118712
 40
9.3470945828
100
AcDbArc
 50
182.153970415
 51
184.5056868167
  0
ARC
  5
3B9
100
AcDbEntity
  8
0
100
AcDbCircle
 62
7
  6
CONTINUOUS
 10
179.8169632785
 20
111.3051829918
 40
9.1226951771
100
AcDbArc
 50
183.1793106813
 51
184.3815832483
  0
ARC
  5
3BA
100
AcDbEntity
  8
0
100
AcDbCircle
 62
7
  6
CONTINUOUS
 10
174.9869525703
 20
114.3771612422
 40
5.5914663871
100
AcDbArc
 50
220.6337089334
 51
222.3805719959
  0
ARC
  5
3BB
100
AcDbEntity
  8
0
100
AcDbCircle
 62
7
  6
CONTINUOUS
 10
174.1937523653
 20
115.2763282442
 40
5.0567060211
100
AcDbArc
 50
235.3025237226
 51
237.9315837096
  0
ARC
  5
3BC
100
AcDbEntity
  8
0
100
AcDbCircle
 62
7
  6
CONTINUOUS
 10
173.6650748562
 20
115.1825338766
 40
4.9773802415
100
AcDbArc
 50
234.7288159948
 51
237.3600003397
  0
ARC
  5
3BD
100
AcDbEntity
  8
BEZUGSACHSEN
100
AcDbCircle
 62
7
  6
CONTINUOUS
 10
171.8473817019
 20
118.3660976196
 40
2.5
100
AcDbArc
 50
115.0
 51
189.999923008
  0
ARC
  5
3BE
100
AcDbEntity
  8
RUNDUNGEN
100
AcDbCircle
 62
7
  6
CONTINUOUS
 10
206.9616246701
 20
118.3660976196
 40
2.5
100
AcDbArc
 50
350.000076992
 51
65.0
  0
ARC
  5
3BF
100
AcDbEntity
  8
0
100
AcDbCircle
 62
7
  6
CONTINUOUS
 10
171.4791702126
 20
114.2288948075
 40
1.9198824927
100
AcDbArc
 50
196.8603479186
 51
200.8874507233
  0
ARC
  5
3C0
100
AcDbEntity
  8
0
100
AcDbCircle
 62
7
  6
CONTINUOUS
 10
171.3630415466
 20
113.9621028603
 40
1.7583308486
100
AcDbArc
 50
190.9053936808
 51
193.7426131915
  0
ARC
  5
3C1
100
AcDbEntity
  8
0
100
AcDbCircle
 62
7
  6
CONTINUOUS
 10
207.4528488767
 20
113.9605497429
 40
1.751274914
100
AcDbArc
 50
346.2532408293
 51
349.988395529
  0
ARC
  5
3C2
100
AcDbEntity
  8
0
100
AcDbCircle
 62
7
  6
CONTINUOUS
 10
171.3344642541
 20
113.9563960708
 40
1.729189992
100
AcDbArc
 50
190.1811230953
 51
190.8988578197
  0
ARC
  5
3C3
100
AcDbEntity
  8
0
100
AcDbCircle
 62
7
  6
CONTINUOUS
 10
171.683324251
 20
111.4182992718
 40
1.6320140749
100
AcDbArc
 50
187.5488474257
 51
190.0030243537
  0
ARC
  5
3C4
100
AcDbEntity
  8
0
100
AcDbCircle
 62
7
  6
CONTINUOUS
 10
207.1321569262
 20
111.4172682563
 40
1.625458612
100
AcDbArc
 50
349.9931218019
 51
353.9701816234
  0
ARC
  5
3C5
100
AcDbEntity
  8
0
100
AcDbCircle
 62
7
  6
CONTINUOUS
 10
171.6682683977
 20
111.4162161804
 40
1.6168150511
100
AcDbArc
 50
186.784926816
 51
187.5457597912
  0
ARC
  5
3C6
100
AcDbEntity
  8
0
100
AcDbCircle
 62
7
  6
CONTINUOUS
 10
171.6797213955
 20
111.1895529918
 40
1.58867106
100
AcDbArc
 50
177.9450211156
 51
182.5503745353
  0
ARC
  5
3C7
100
AcDbEntity
  8
0
100
AcDbCircle
 62
7
  6
CONTINUOUS
 10
208.1588674936
 20
114.4978237001
 40
1.1492791138
100
AcDbArc
 50
344.0856057321
 51
349.9661083392
  0
ARC
  5
3C8
100
AcDbEntity
  8
0
100
AcDbCircle
 62
7
  6
CONTINUOUS
 10
207.6140740835
 20
110.6709410294
 40
1.0212645189
100
AcDbArc
 50
349.9845325962
 51
356.4790956179
  0
ARC
  5
3C9
100
AcDbEntity
  8
0
100
AcDbCircle
 62
7
  6
CONTINUOUS
 10
171.214709123
 20
110.4900041969
 40
1.009421132
100
AcDbArc
 50
173.2743779184
 51
180.5359088016
  0
ARC
  5
3CA
100
AcDbEntity
  8
0
100
AcDbCircle
 62
7
  6
CONTINUOUS
 10
171.7014300231
 20
110.4860278398
 40
0.988084475
100
AcDbArc
 50
172.8961507388
 51
180.3168989165
  0
ARC
  5
3CB
100
AcDbEntity
  8
0
100
AcDbCircle
 62
7
  6
CONTINUOUS
 10
225.306728953
 20
125.5846137137
 40
56.8980358903
100
AcDbArc
 50
192.5460543153
 51
192.875234322
  0
ARC
  5
3CC
100
AcDbEntity
  8
0
100
AcDbCircle
 62
7
  6
CONTINUOUS
 10
213.8609081205
 20
124.3049782037
 40
45.4025897384
100
AcDbArc
 50
193.3783515132
 51
193.9316985868
  0
ARC
  5
3CD
100
AcDbEntity
  8
0
100
AcDbCircle
 62
7
  6
CONTINUOUS
 10
178.1195869632
 20
128.2746372785
 40
33.0573065561
100
AcDbArc
 50
337.4301793804
 51
339.0976307078
  0
ARC
  5
3CE
100
AcDbEntity
  8
0
100
AcDbCircle
 62
7
  6
CONTINUOUS
 10
178.3899946875
 20
128.115166486
 40
32.2604263249
100
AcDbArc
 50
337.1483531014
 51
338.8601066989
  0
ARC
  5
3CF
100
AcDbEntity
  8
0
100
AcDbCircle
 62
7
  6
CONTINUOUS
 10
178.7274931562
 20
127.0650701134
 40
32.2425093636
100
AcDbArc
 50
337.1905039046
 51
338.9026984305
  0
ARC
  5
3D0
100
AcDbEntity
  8
RUNDUNGEN
100
AcDbCircle
 62
7
  6
CONTINUOUS
 10
203.904503186
 20
131.3771249286
 40
8.0
100
AcDbArc
 50
179.9989669212
 51
245.0016240563
  0
ARC
  5
3D1
100
AcDbEntity
  8
BEZUGSACHSEN
100
AcDbCircle
 62
7
  6
CONTINUOUS
 10
174.904503186
 20
131.3771249286
 40
8.0
100
AcDbArc
 50
294.9983759437
 51
0.0010330788
  0
ARC
  5
3D2
100
AcDbEntity
  8
BEZUGSACHSEN
100
AcDbCircle
 62
7
  6
CONTINUOUS
 10
189.404503186
 20
122.4805628422
 40
5.0
100
AcDbArc
 50
186.796863805
 51
353.203136195
  0
ARC
  5
3D3
100
AcDbEntity
  8
BEZUGSACHSEN
100
AcDbCircle
 62
7
  6
CONTINUOUS
 10
185.404503186
 20
168.0245823414
 40
2.5
100
AcDbArc
 50
90.0
 51
180.0
  0
ARC
  5
3D4
100
AcDbEntity
  8
RUNDUNGEN
100
AcDbCircle
 62
7
  6
CONTINUOUS
 10
193.404503186
 20
168.0245823414
 40
2.5
100
AcDbArc
 50
0.0
 51
90.0
  0
ARC
  5
3D5
100
AcDbEntity
  8
0
100
AcDbCircle
 62
7
  6
CONTINUOUS
 10
244.4279752694
 20
132.3012374931
 40
76.8287049415
100
AcDbArc
 50
195.707372017
 51
196.1033460042
  0
ARC
  5
3D6
100
AcDbEntity
  8
0
100
AcDbCircle
 62
7
  6
CONTINUOUS
 10
239.6459946488
 20
127.8859051743
 40
71.3991461888
100
AcDbArc
 50
194.1094776909
 51
194.7441399562
  0
ARC
  5
3D7
100
AcDbEntity
  8
0
100
AcDbCircle
 62
7
  6
CONTINUOUS
 10
234.0032192823
 20
119.9370179865
 40
64.4871955322
100
AcDbArc
 50
187.172965273
 51
187.5160507869
  0
ARC
  5
3D8
100
AcDbEntity
  8
0
100
AcDbCircle
 62
7
  6
CONTINUOUS
 10
375.6565566323
 20
140.0779283348
 40
207.4996998728
100
AcDbArc
 50
187.7378121198
 51
187.9157192871
  0
ARC
  5
3D9
100
AcDbEntity
  8
0
100
AcDbCircle
 62
7
  6
CONTINUOUS
 10
305.9652716284
 20
146.9896879004
 40
139.9213141107
100
AcDbArc
 50
194.5841973845
 51
194.7463029305
  0
ARC
  5
3DA
100
AcDbEntity
  8
0
100
AcDbCircle
 62
7
  6
CONTINUOUS
 10
304.8228207599
 20
142.5410061128
 40
138.1404927244
100
AcDbArc
 50
192.2252164308
 51
192.4962426479
  0
ARC
  5
3DB
100
AcDbEntity
  8
0
100
AcDbCircle
 62
7
  6
CONTINUOUS
 10
301.8457398611
 20
146.0737767614
 40
135.1998194081
100
AcDbArc
 50
194.7037634832
 51
194.8716243999
  0
ARC
  5
3DC
100
AcDbEntity
  8
0
100
AcDbCircle
 62
7
  6
CONTINUOUS
 10
99.227242309
 20
52.7190012923
 40
26.5356495349
100
AcDbArc
 50
86.0834212696
 51
95.2705018234
  0
ARC
  5
3DD
100
AcDbEntity
  8
0
100
AcDbCircle
 62
7
  6
CONTINUOUS
 10
99.2272227914
 20
65.2483422119
 40
26.5356495349
100
AcDbArc
 50
266.0834212696
 51
275.2705018234
  0
ARC
  5
3DE
100
AcDbEntity
  8
0
100
AcDbCircle
 62
7
  6
CONTINUOUS
 10
99.2716411753
 20
53.0255399878
 40
26.2256962054
100
AcDbArc
 50
77.0143644583
 51
78.690492639
  0
ARC
  5
3DF
100
AcDbEntity
  8
0
100
AcDbCircle
 62
7
  6
CONTINUOUS
 10
99.1828239251
 20
64.9418035163
 40
26.2256962053
100
AcDbArc
 50
257.0143644583
 51
258.690492639
  0
ARC
  5
3E0
100
AcDbEntity
  8
0
100
AcDbCircle
 62
7
  6
CONTINUOUS
 10
99.1920640882
 20
53.2317381715
 40
25.8628513109
100
AcDbArc
 50
100.3630451682
 51
101.7739304655
  0
ARC
  5
3E1
100
AcDbEntity
  8
0
100
AcDbCircle
 62
7
  6
CONTINUOUS
 10
99.2624010122
 20
64.7356053324
 40
25.8628513106
100
AcDbArc
 50
280.3630451682
 51
281.7739304655
  0
ARC
  5
3E2
100
AcDbEntity
  8
0
100
AcDbCircle
 62
7
  6
CONTINUOUS
 10
103.7840871924
 20
62.4476552263
 40
25.336434118
100
AcDbArc
 50
243.9053679971
 51
245.5310442069
  0
ARC
  5
3E3
100
AcDbEntity
  8
0
100
AcDbCircle
 62
7
  6
CONTINUOUS
 10
94.67055695
 20
55.5200758834
 40
25.3360071657
100
AcDbArc
 50
63.9024183275
 51
65.531049669
  0
ARC
  5
3E4
100
AcDbEntity
  8
0
100
AcDbCircle
 62
7
  6
CONTINUOUS
 10
99.2272325502
 20
58.9836717521
 40
15.1
100
AcDbArc
 50
205.4913845684
 51
334.5086231903
  0
ARC
  5
3E5
100
AcDbEntity
  8
0
100
AcDbCircle
 62
7
  6
CONTINUOUS
 10
99.2272325502
 20
58.9836717521
 40
15.1
100
AcDbArc
 50
25.4913768097
 51
154.5086154316
  0
ARC
  5
3E6
100
AcDbEntity
  8
0
100
AcDbCircle
 62
7
  6
CONTINUOUS
 10
99.2272325502
 20
58.9836717521
 40
14.0
100
AcDbArc
 50
27.6964453929
 51
152.3035546071
  0
ARC
  5
3E7
100
AcDbEntity
  8
0
100
AcDbCircle
 62
7
  6
CONTINUOUS
 10
99.2272325502
 20
58.9836717521
 40
14.0
100
AcDbArc
 50
207.6964453929
 51
332.3035546071
  0
ARC
  5
3E8
100
AcDbEntity
  8
0
100
AcDbCircle
 62
2
  6
CONTINUOUS
 10
99.2272325502
 20
58.9836717521
 40
8.0
100
AcDbArc
 50
255.0
 51
298.9433328193
  0
ARC
  5
3E9
100
AcDbEntity
  8
0
100
AcDbCircle
 62
2
  6
CONTINUOUS
 10
99.2272325502
 20
58.9836717521
 40
8.0
100
AcDbArc
 50
54.3568359207
 51
125.6431640793
  0
ARC
  5
3EA
100
AcDbEntity
  8
FASEN
100
AcDbCircle
 62
7
  6
CONTINUOUS
 10
99.2272325502
 20
58.9836717521
 40
8.0
100
AcDbArc
 50
54.4182226034
 51
125.5817696541
  0
ARC
  5
3EB
100
AcDbEntity
  8
FASEN
100
AcDbCircle
 62
7
  6
CONTINUOUS
 10
99.2272325502
 20
58.9836717521
 40
8.0
100
AcDbArc
 50
241.1498560609
 51
298.9082429807
  0
ARC
  5
3EC
100
AcDbEntity
  8
FASEN
100
AcDbCircle
 62
7
  6
CONTINUOUS
 10
99.2272325502
 20
58.9836717521
 40
7.0
100
AcDbArc
 50
280.2189420756
 51
285.1132656455
  0
ARC
  5
3ED
100
AcDbEntity
  8
FASEN
100
AcDbCircle
 62
7
  6
CONTINUOUS
 10
99.2272325502
 20
58.9836717521
 40
7.0
100
AcDbArc
 50
253.6357117668
 51
258.5667979605
  0
ARC
  5
3EE
100
AcDbEntity
  8
FASEN
100
AcDbCircle
 62
7
  6
CONTINUOUS
 10
99.2272325502
 20
58.9836717521
 40
7.0
100
AcDbArc
 50
68.3303189317
 51
111.6696722884
  0
ARC
  5
3EF
100
AcDbEntity
  8
BEZUGSACHSEN
100
AcDbCircle
 62
7
  6
CONTINUOUS
 10
128.5018704981
 20
62.9836717354
 40
2.5000000167
100
AcDbArc
 50
14.1126262927
 51
89.9999997761
  0
ARC
  5
3F0
100
AcDbEntity
  8
RUNDUNGEN
100
AcDbCircle
 62
7
  6
CONTINUOUS
 10
69.9525944483
 20
54.9836717688
 40
2.5000000167
100
AcDbArc
 50
194.1125698582
 51
270.0000136522
  0
ARC
  5
3F1
100
AcDbEntity
  8
BEZUGSACHSEN
100
AcDbCircle
 62
7
  6
CONTINUOUS
 10
69.9525938925
 20
62.9836878838
 40
2.4999838683
100
AcDbArc
 50
89.9999736107
 51
165.8860175248
  0
ARC
  5
3F2
100
AcDbEntity
  8
RUNDUNGEN
100
AcDbCircle
 62
7
  6
CONTINUOUS
 10
128.5018710538
 20
54.9836556204
 40
2.4999838683
100
AcDbArc
 50
269.9999875525
 51
345.8859638468
  0
SPLINE
  5
3F3
100
AcDbEntity
  8
BEZUGSACHSEN
100
AcDbSpline
 62
7
  6
CONTINUOUS
 70
0
 71
3
 72
11
 73
7
 74
0
 42
0.0000001
 43
0.0000001
 44
0.0000000001
 40
0.0
 40
0.0
 40
0.0
 40
0.0
 40
0.2500316124
 40
0.5000435195
 40
0.7500328762
 40
1.0
 40
1.0
 40
1.0
 40
1.0
 10
131.6268312948
 20
139.1282830005
 30
0.0
 10
131.6961075106
 20
138.9610347316
 30
0.0
 10
131.8038897793
 20
138.6128107548
 30
0.0
 10
131.8643827791
 20
138.0699009276
 30
0.0
 10
131.8186294978
 20
137.5253778001
 30
0.0
 10
131.7150752085
 20
137.1753067127
 30
0.0
 10
131.6457482255
 20
137.0081300267
 30
0.0
  0
SPLINE
  5
3F4
100
AcDbEntity
  8
BEZUGSACHSEN
100
AcDbSpline
 62
7
  6
CONTINUOUS
 70
0
 71
3
 72
11
 73
7
 74
0
 42
0.0000001
 43
0.0000001
 44
0.0000000001
 40
0.0
 40
0.0
 40
0.0
 40
0.0
 40
0.2499694689
 40
0.4999599298
 40
0.7499705052
 40
1.0
 40
1.0
 40
1.0
 40
1.0
 10
66.8087133078
 20
137.0081282995
 30
0.0
 10
66.7393843146
 20
137.1753061666
 30
0.0
 10
66.6358317919
 20
137.5253810814
 30
0.0
 10
66.5900799219
 20
138.0699061625
 30
0.0
 10
66.650575415
 20
138.612814561
 30
0.0
 10
66.7583578975
 20
138.9610360793
 30
0.0
 10
66.8276338028
 20
139.1282829939
 30
0.0
  0
SPLINE
  5
3F5
100
AcDbEntity
  8
0
100
AcDbSpline
 62
7
  6
CONTINUOUS
 70
0
 71
3
 72
12
 73
8
 74
0
 42
0.0000001
 43
0.0000001
 44
0.0000000001
 40
0.0
 40
0.0
 40
0.0
 40
0.0
 40
0.0988487799
 40
0.2097069257
 40
0.4555595677
 40
0.7217070593
 40
1.0
 40
1.0
 40
1.0
 40
1.0
 10
113.8753959275
 20
128.4055520983
 30
0.0
 10
113.8465003007
 20
128.3613458921
 30
0.0
 10
113.7889380309
 20
128.2651399071
 30
0.0
 10
113.6710556107
 20
128.0521991148
 30
0.0
 10
113.5158325771
 20
127.7578209122
 30
0.0
 10
113.3150967238
 20
127.3863449677
 30
0.0
 10
113.1702093942
 20
127.1340433614
 30
0.0
 10
113.0937963753
 20
127.0064964592
 30
0.0
  0
SPLINE
  5
3F6
100
AcDbEntity
  8
0
100
AcDbSpline
 62
7
  6
CONTINUOUS
 70
0
 71
3
 72
9
 73
5
 74
0
 42
0.0000001
 43
0.0000001
 44
0.0000000001
 40
0.0
 40
0.0
 40
0.0
 40
0.0
 40
0.4994937473
 40
1.0
 40
1.0
 40
1.0
 40
1.0
 10
113.0937963753
 20
127.0064964592
 30
0.0
 10
112.9369957351
 20
126.7447865187
 30
0.0
 10
112.5752657554
 20
126.2479326801
 30
0.0
 10
112.1323920285
 20
125.8228662676
 30
0.0
 10
111.8965788334
 20
125.6283196016
 30
0.0
  0
SPLINE
  5
3F7
100
AcDbEntity
  8
0
100
AcDbSpline
 62
7
  6
CONTINUOUS
 70
0
 71
3
 72
9
 73
5
 74
0
 42
0.0000001
 43
0.0000001
 44
0.0000000001
 40
0.0
 40
0.0
 40
0.0
 40
0.0
 40
0.4820698673
 40
1.0
 40
1.0
 40
1.0
 40
1.0
 10
111.8965788334
 20
125.6283196016
 30
0.0
 10
111.5859713834
 20
125.3721122869
 30
0.0
 10
110.9196225496
 20
124.8660910334
 30
0.0
 10
110.1897263263
 20
124.451827827
 30
0.0
 10
109.7969672901
 20
124.2705101658
 30
0.0
  0
SPLINE
  5
3F8
100
AcDbEntity
  8
0
100
AcDbSpline
 62
7
  6
CONTINUOUS
 70
0
 71
3
 72
15
 73
11
 74
0
 42
0.0000001
 43
0.0000001
 44
0.0000000001
 40
0.0
 40
0.0
 40
0.0
 40
0.0
 40
0.1100180699
 40
0.2322328111
 40
0.3636329557
 40
0.4999999177
 40
0.6363669438
 40
0.7677671741
 40
0.8899819054
 40
1.0
 40
1.0
 40
1.0
 40
1.0
 10
109.6598576202
 20
124.2088077796
 30
0.0
 10
108.9423497264
 20
123.8942058471
 30
0.0
 10
107.3821711864
 20
123.3318505814
 30
0.0
 10
104.860493222
 20
122.7251716735
 30
0.0
 10
102.1061426133
 20
122.3390830771
 30
0.0
 10
99.2272350165
 20
122.2050783122
 30
0.0
 10
96.3483267804
 20
122.3390826303
 30
0.0
 10
93.5939751382
 20
122.7251710459
 30
0.0
 10
91.0722963796
 20
123.3318497325
 30
0.0
 10
89.5121177156
 20
123.8942049743
 30
0.0
 10
88.7946096309
 20
124.2088069084
 30
0.0
  0
SPLINE
  5
3F9
100
AcDbEntity
  8
0
100
AcDbSpline
 62
7
  6
CONTINUOUS
 70
0
 71
3
 72
9
 73
5
 74
0
 42
0.0000001
 43
0.0000001
 44
0.0000000001
 40
0.0
 40
0.0
 40
0.0
 40
0.0
 40
0.5179306717
 40
1.0
 40
1.0
 40
1.0
 40
1.0
 10
88.6575160522
 20
124.2705019983
 30
0.0
 10
88.264752912
 20
124.4518206037
 30
0.0
 10
87.5348513766
 20
124.8660883914
 30
0.0
 10
86.8684925251
 20
125.3721081607
 30
0.0
 10
86.5578829433
 20
125.628317554
 30
0.0
  0
SPLINE
  5
3FA
100
AcDbEntity
  8
0
100
AcDbSpline
 62
7
  6
CONTINUOUS
 70
0
 71
3
 72
9
 73
5
 74
0
 42
0.0000001
 43
0.0000001
 44
0.0000000001
 40
0.0
 40
0.0
 40
0.0
 40
0.0
 40
0.500507034
 40
1.0
 40
1.0
 40
1.0
 40
1.0
 10
86.5578829433
 20
125.628317554
 30
0.0
 10
86.3220690711
 20
125.8228639227
 30
0.0
 10
85.8792007383
 20
126.2479359456
 30
0.0
 10
85.5174712604
 20
126.7447888427
 30
0.0
 10
85.3606694045
 20
127.0064973306
 30
0.0
  0
SPLINE
  5
3FB
100
AcDbEntity
  8
0
100
AcDbSpline
 62
7
  6
CONTINUOUS
 70
0
 71
3
 72
12
 73
8
 74
0
 42
0.0000001
 43
0.0000001
 44
0.0000000001
 40
0.0
 40
0.0
 40
0.0
 40
0.0
 40
0.2782917955
 40
0.5444349778
 40
0.7902912406
 40
0.901150865
 40
1.0
 40
1.0
 40
1.0
 40
1.0
 10
85.3606694045
 20
127.0064973306
 30
0.0
 10
85.2842593236
 20
127.1340423191
 30
0.0
 10
85.1393768787
 20
127.3863375208
 30
0.0
 10
84.9386364193
 20
127.757801699
 30
0.0
 10
84.7834223874
 20
128.0521787131
 30
0.0
 10
84.6655424661
 20
128.2651195112
 30
0.0
 10
84.6079799201
 20
128.3613242449
 30
0.0
 10
84.579084632
 20
128.4055298214
 30
0.0
  0
SPLINE
  5
3FC
100
AcDbEntity
  8
BEZUGSACHSEN
100
AcDbSpline
 62
7
  6
CONTINUOUS
 70
0
 71
3
 72
9
 73
5
 74
0
 42
0.0000001
 43
0.0000001
 44
0.0000000001
 40
0.0
 40
0.0
 40
0.0
 40
0.0
 40
0.4999507264
 40
1.0
 40
1.0
 40
1.0
 40
1.0
 10
127.3836587881
 20
126.7376806431
 30
0.0
 10
127.3130833
 20
126.5673848985
 30
0.0
 10
127.2146953856
 20
126.2076550731
 30
0.0
 10
127.204124344
 20
125.8353777231
 30
0.0
 10
127.2198991181
 20
125.6516766223
 30
0.0
  0
SPLINE
  5
3FD
100
AcDbEntity
  8
BEZUGSACHSEN
100
AcDbSpline
 62
7
  6
CONTINUOUS
 70
0
 71
3
 72
11
 73
7
 74
0
 42
0.0000001
 43
0.0000001
 44
0.0000000001
 40
0.0
 40
0.0
 40
0.0
 40
0.0
 40
0.2500212251
 40
0.5000239818
 40
0.7500126428
 40
1.0
 40
1.0
 40
1.0
 40
1.0
 10
124.8922932808
 20
117.4805651678
 30
0.0
 10
124.6955405129
 20
117.4805653512
 30
0.0
 10
124.2996703406
 20
117.4229479515
 30
0.0
 10
123.7574326563
 20
117.1697535483
 30
0.0
 10
123.3116137276
 20
116.7703386948
 30
0.0
 10
123.1050144275
 20
116.4274038847
 30
0.0
 10
123.0296281265
 20
116.2456951335
 30
0.0
  0
SPLINE
  5
3FE
100
AcDbEntity
  8
BEZUGSACHSEN
100
AcDbSpline
 62
7
  6
CONTINUOUS
 70
0
 71
3
 72
9
 73
5
 74
0
 42
0.0000001
 43
0.0000001
 44
0.0000000001
 40
0.0
 40
0.0
 40
0.0
 40
0.0
 40
0.5000497318
 40
1.0
 40
1.0
 40
1.0
 40
1.0
 10
71.2345659898
 20
125.6516766216
 30
0.0
 10
71.2503407821
 20
125.8353778894
 30
0.0
 10
71.2397673644
 20
126.2076542875
 30
0.0
 10
71.1413863458
 20
126.567386964
 30
0.0
 10
71.0708062884
 20
126.737680631
 30
0.0
  0
SPLINE
  5
3FF
100
AcDbEntity
  8
BEZUGSACHSEN
100
AcDbSpline
 62
7
  6
CONTINUOUS
 70
0
 71
3
 72
11
 73
7
 74
0
 42
0.0000001
 43
0.0000001
 44
0.0000000001
 40
0.0
 40
0.0
 40
0.0
 40
0.0
 40
0.249988569
 40
0.4999777435
 40
0.7499795454
 40
1.0
 40
1.0
 40
1.0
 40
1.0
 10
75.4248368746
 20
116.2456950927
 30
0.0
 10
75.3494502174
 20
116.4274047104
 30
0.0
 10
75.1428498277
 20
116.7703405206
 30
0.0
 10
74.6970297725
 20
117.1697549966
 30
0.0
 10
74.1547927005
 20
117.4229481226
 30
0.0
 10
73.7589239643
 20
117.4805652436
 30
0.0
 10
73.5621718195
 20
117.4805651011
 30
0.0
  0
SPLINE
  5
400
100
AcDbEntity
  8
BEZUGSACHSEN
100
AcDbSpline
 62
7
  6
CONTINUOUS
 70
0
 71
3
 72
29
 73
25
 74
0
 42
0.0000001
 43
0.0000001
 44
0.0000000001
 40
0.0
 40
0.0
 40
0.0
 40
0.0
 40
0.0220876462
 40
0.0442010245
 40
0.0662504949
 40
0.0882220141
 40
0.1319078514
 40
0.1752323276
 40
0.2181538071
 40
0.2606268385
 40
0.3026007947
 40
0.3440203339
 40
0.4249575405
 40
0.5029523393
 40
0.5774694855
 40
0.6479458256
 40
0.7138007873
 40
0.774438541
 40
0.8292890181
 40
0.8777987453
 40
0.9194885761
 40
0.9539346602
 40
0.9808340534
 40
1.0
 40
1.0
 40
1.0
 40
1.0
 10
104.6525096694
 20
106.4805628422
 30
0.0
 10
104.7078084785
 20
106.6191190807
 30
0.0
 10
104.8776467078
 20
106.8714394919
 30
0.0
 10
105.190237173
 20
107.1916544467
 30
0.0
 10
105.5317523435
 20
107.4805917086
 30
0.0
 10
106.0060557239
 20
107.8357064153
 30
0.0
 10
106.6206271401
 20
108.2418193244
 30
0.0
 10
107.3731191936
 20
108.6935794333
 30
0.0
 10
108.1311285449
 20
109.1195279394
 30
0.0
 10
108.8896499911
 20
109.5254555695
 30
0.0
 10
109.6455896416
 20
109.9144543708
 30
0.0
 10
110.63925983
 20
110.409018641
 30
0.0
 10
111.8611155182
 20
110.9908591542
 30
0.0
 10
113.2970788027
 20
111.642316731
 30
0.0
 10
114.6787156633
 20
112.2419888337
 30
0.0
 10
115.9932799663
 20
112.7898271734
 30
0.0
 10
117.227816707
 20
113.2856817836
 30
0.0
 10
118.3695121621
 20
113.7292761893
 30
0.0
 10
119.4054965493
 20
114.1213069475
 30
0.0
 10
120.3238718408
 20
114.4624844853
 30
0.0
 10
121.113441553
 20
114.7545524708
 30
0.0
 10
121.7650337092
 20
114.9991272041
 30
0.0
 10
122.2707184957
 20
115.198861581
 30
0.0
 10
122.5561798092
 20
115.3235274817
 30
0.0
 10
122.6714154945
 20
115.3825025721
 30
0.0
  0
SPLINE
  5
401
100
AcDbEntity
  8
BEZUGSACHSEN
100
AcDbSpline
 62
7
  6
CONTINUOUS
 70
0
 71
3
 72
29
 73
25
 74
0
 42
0.0000001
 43
0.0000001
 44
0.0000000001
 40
0.0
 40
0.0
 40
0.0
 40
0.0
 40
0.0191658842
 40
0.0460650115
 40
0.0805110767
 40
0.1222007598
 40
0.1707103059
 40
0.2255607932
 40
0.2861984567
 40
0.3520534186
 40
0.4225297505
 40
0.4970469239
 40
0.5750417727
 40
0.65597909
 40
0.6973986831
 40
0.739372688
 40
0.7818457571
 40
0.8247672635
 40
0.8680917437
 40
0.9117775791
 40
0.9337492026
 40
0.9557989021
 40
0.9779131404
 40
1.0
 40
1.0
 40
1.0
 40
1.0
 10
75.7830496058
 20
115.3825025721
 30
0.0
 10
75.8982849178
 20
115.3235276727
 30
0.0
 10
76.1837439557
 20
115.1988620984
 30
0.0
 10
76.6894270089
 20
114.9991296525
 30
0.0
 10
77.3410159612
 20
114.754554705
 30
0.0
 10
78.1305837296
 20
114.4624881733
 30
0.0
 10
79.0489571406
 20
114.1213117085
 30
0.0
 10
80.084939627
 20
113.7292808576
 30
0.0
 10
81.2266349293
 20
113.2856874912
 30
0.0
 10
82.461170967
 20
112.7898328453
 30
0.0
 10
83.7757357044
 20
112.2419951472
 30
0.0
 10
85.1573728051
 20
111.6423223614
 30
0.0
 10
86.5933375416
 20
110.9908648521
 30
0.0
 10
87.8151945003
 20
110.4090235823
 30
0.0
 10
88.8088662009
 20
109.9144590736
 30
0.0
 10
89.5648067249
 20
109.5254598694
 30
0.0
 10
90.3233290392
 20
109.1195322005
 30
0.0
 10
91.0813388361
 20
108.6935835347
 30
0.0
 10
91.8338309146
 20
108.2418229323
 30
0.0
 10
92.4484029937
 20
107.8357101101
 30
0.0
 10
92.9227112123
 20
107.4805977635
 30
0.0
 10
93.2642284682
 20
107.1916507444
 30
0.0
 10
93.5768237047
 20
106.8714372211
 30
0.0
 10
93.7466585903
 20
106.6191141485
 30
0.0
 10
93.801955431
 20
106.4805628422
 30
0.0
  0
LINE
  5
402
100
AcDbEntity
  8
0
100
AcDbLine
 62
7
  6
CONTINUOUS
 10
170.0627765119
 20
111.2252012232
 11
170.0607583279
 21
111.2430078459
  0
LINE
  5
403
100
AcDbEntity
  8
0
100
AcDbLine
 62
7
  6
CONTINUOUS
 10
170.0607583279
 20
111.2430078459
 11
170.0603839094
 21
111.2465202871
  0
LINE
  5
404
100
AcDbEntity
  8
0
100
AcDbLine
 62
7
  6
CONTINUOUS
 10
169.7154680945
 20
115.5869459274
 11
169.9033684319
 21
114.5656690958
  0
LINE
  5
405
100
AcDbEntity
  8
0
100
AcDbLine
 62
7
  6
CONTINUOUS
 10
169.7376004319
 20
114.5656690958
 11
169.7530223683
 21
114.480500121
  0
LINE
  5
406
100
AcDbEntity
  8
0
100
AcDbLine
 62
7
  6
CONTINUOUS
 10
169.7530223683
 20
114.480500121
 11
169.8300765116
 21
114.0550308588
  0
SPLINE
  5
407
100
AcDbEntity
  8
0
100
AcDbSpline
 62
7
  6
CONTINUOUS
 70
0
 71
3
 72
8
 73
4
 74
0
 42
0.0000001
 43
0.0000001
 44
0.0000000001
 40
0.0
 40
0.0
 40
0.0
 40
0.0
 40
1.0
 40
1.0
 40
1.0
 40
1.0
 10
169.9973927433
 20
114.0550308588
 30
0.0
 10
170.1541489756
 20
113.2039283822
 30
0.0
 10
170.3111088919
 20
112.3528633902
 30
0.0
 10
170.4682906961
 20
111.5018394056
 30
0.0
  0
SPLINE
  5
408
100
AcDbEntity
  8
0
100
AcDbSpline
 62
7
  6
CONTINUOUS
 70
0
 71
3
 72
9
 73
5
 74
0
 42
0.0000001
 43
0.0000001
 44
0.0000000001
 40
0.0
 40
0.0
 40
0.0
 40
0.0
 40
0.2422282493
 40
1.0
 40
1.0
 40
1.0
 40
1.0
 10
170.8566261357
 20
110.6082224126
 30
0.0
 10
170.8742899152
 20
110.5974190251
 30
0.0
 10
170.9475375459
 20
110.5533522791
 30
0.0
 10
171.0220264178
 20
110.5113591222
 30
0.0
 10
171.0790113128
 20
110.4805628422
 30
0.0
  0
LINE
  5
409
100
AcDbEntity
  8
0
100
AcDbLine
 62
7
  6
CONTINUOUS
 10
169.6325022648
 20
113.6507436289
 11
169.63155001
 21
113.6560947438
  0
LINE
  5
40A
100
AcDbEntity
  8
0
100
AcDbLine
 62
7
  6
CONTINUOUS
 10
169.7530948013
 20
113.2890735033
 11
169.7673204254
 21
113.2249782586
  0
LINE
  5
40B
100
AcDbEntity
  8
0
100
AcDbLine
 62
7
  6
CONTINUOUS
 10
169.8392461637
 20
112.9060948255
 11
169.9174284468
 21
112.523115969
  0
LINE
  5
40C
100
AcDbEntity
  8
0
100
AcDbLine
 62
7
  6
CONTINUOUS
 10
169.9628429285
 20
112.2677968505
 11
170.0207180357
 21
111.8848181727
  0
LINE
  5
40D
100
AcDbEntity
  8
0
100
AcDbLine
 62
7
  6
CONTINUOUS
 10
170.0257320399
 20
111.4961067264
 11
170.025000178
 21
111.5018394056
  0
LINE
  5
40E
100
AcDbEntity
  8
0
100
AcDbLine
 62
7
  6
CONTINUOUS
 10
170.025000178
 20
111.5018394056
 11
170.0114502758
 21
111.5866360127
  0
LINE
  5
40F
100
AcDbEntity
  8
0
100
AcDbLine
 62
7
  6
CONTINUOUS
 10
170.0114502758
 20
111.5866360127
 11
169.9979472429
 21
111.6715564944
  0
LINE
  5
410
100
AcDbEntity
  8
0
100
AcDbLine
 62
7
  6
CONTINUOUS
 10
169.9979472429
 20
111.6715564944
 11
169.9844910753
 21
111.7566008124
  0
LINE
  5
411
100
AcDbEntity
  8
0
100
AcDbLine
 62
7
  6
CONTINUOUS
 10
169.9844910753
 20
111.7566008124
 11
169.9577192266
 21
111.9270613954
  0
LINE
  5
412
100
AcDbEntity
  8
0
100
AcDbLine
 62
7
  6
CONTINUOUS
 10
169.9577192266
 20
111.9270613954
 11
169.9444035144
 21
112.012477732
  0
LINE
  5
413
100
AcDbEntity
  8
0
100
AcDbLine
 62
7
  6
CONTINUOUS
 10
169.5166155279
 20
114.3082219679
 11
169.5184381446
 21
114.2975840165
  0
LINE
  5
414
100
AcDbEntity
  8
0
100
AcDbLine
 62
7
  6
CONTINUOUS
 10
169.543366581
 20
114.3128693347
 11
169.2755813831
 21
115.827423567
  0
LINE
  5
415
100
AcDbEntity
  8
0
100
AcDbLine
 62
7
  6
CONTINUOUS
 10
169.6679661919
 20
113.4802065266
 11
169.6550469535
 21
113.5443926218
  0
LINE
  5
416
100
AcDbEntity
  8
0
100
AcDbLine
 62
7
  6
CONTINUOUS
 10
209.0275020425
 20
113.1614139055
 11
209.0130749084
 21
113.0971064503
  0
LINE
  5
417
100
AcDbEntity
  8
0
100
AcDbLine
 62
7
  6
CONTINUOUS
 10
208.9697602082
 20
112.9060948255
 11
208.8915779252
 21
112.523115969
  0
LINE
  5
418
100
AcDbEntity
  8
0
100
AcDbLine
 62
7
  6
CONTINUOUS
 10
208.8461634434
 20
112.2677968505
 11
208.8076364749
 21
112.0124777292
  0
LINE
  5
419
100
AcDbEntity
  8
0
100
AcDbLine
 62
7
  6
CONTINUOUS
 10
208.7840061939
 20
111.5018394056
 11
208.7975560962
 21
111.5866360127
  0
SPLINE
  5
41A
100
AcDbEntity
  8
0
100
AcDbSpline
 62
7
  6
CONTINUOUS
 70
0
 71
3
 72
8
 73
4
 74
0
 42
0.0000001
 43
0.0000001
 44
0.0000000001
 40
0.0
 40
0.0
 40
0.0
 40
0.0
 40
1.0
 40
1.0
 40
1.0
 40
1.0
 10
208.0458128274
 20
110.4805628422
 30
0.0
 10
208.3541694773
 20
112.1300983446
 30
0.0
 10
208.6614492832
 20
113.7798354037
 30
0.0
 10
208.9678197892
 20
115.4297409496
 30
0.0
  0
LINE
  5
41B
100
AcDbEntity
  8
0
100
AcDbLine
 62
7
  6
CONTINUOUS
 10
208.9678197892
 20
115.4297409496
 11
209.1628204877
 21
116.4805628422
  0
LINE
  5
41C
100
AcDbEntity
  8
0
100
AcDbLine
 62
7
  6
CONTINUOUS
 10
208.5610650806
 20
111.1000670036
 11
208.5656155069
 21
111.1188607278
  0
LINE
  5
41D
100
AcDbEntity
  8
0
100
AcDbLine
 62
7
  6
CONTINUOUS
 10
209.0726591714
 20
113.161413944
 11
209.0868366295
 21
113.2248854653
  0
LINE
  5
41E
100
AcDbEntity
  8
0
100
AcDbLine
 62
7
  6
CONTINUOUS
 10
209.1749035549
 20
113.7997117403
 11
209.5360489538
 21
115.8422650459
  0
SPLINE
  5
41F
100
AcDbEntity
  8
0
100
AcDbSpline
 62
7
  6
CONTINUOUS
 70
0
 71
3
 72
8
 73
4
 74
0
 42
0.0000001
 43
0.0000001
 44
0.0000000001
 40
0.0
 40
0.0
 40
0.0
 40
0.0
 40
1.0
 40
1.0
 40
1.0
 40
1.0
 10
170.5524102654
 20
111.7571586135
 30
0.0
 10
170.409094702
 20
112.5230732689
 30
0.0
 10
170.2660137743
 20
113.2890318604
 30
0.0
 10
170.1231496967
 20
114.0550308588
 30
0.0
  0
LINE
  5
420
100
AcDbEntity
  8
0
100
AcDbLine
 62
7
  6
CONTINUOUS
 10
170.4588245283
 20
114.0550308588
 11
170.3604032673
 21
114.5656690958
  0
LINE
  5
421
100
AcDbEntity
  8
0
100
AcDbLine
 62
7
  6
CONTINUOUS
 10
170.0279452257
 20
114.5656690958
 11
169.8377312355
 21
115.5869459274
  0
LINE
  5
422
100
AcDbEntity
  8
0
100
AcDbLine
 62
7
  6
CONTINUOUS
 10
207.8016288564
 20
110.4805441894
 11
207.7827426141
 21
110.4107176051
  0
LINE
  5
423
100
AcDbEntity
  8
0
100
AcDbLine
 62
7
  6
CONTINUOUS
 10
171.0790113128
 20
110.4805628422
 11
170.9804810648
 21
110.9912011239
  0
SPLINE
  5
424
100
AcDbEntity
  8
BEZUGSACHSEN
100
AcDbSpline
 62
7
  6
CONTINUOUS
 70
0
 71
3
 72
19
 73
15
 74
0
 42
0.0000001
 43
0.0000001
 44
0.0000000001
 40
0.0
 40
0.0
 40
0.0
 40
0.0
 40
0.1649801874
 40
0.3205122626
 40
0.4628159178
 40
0.5898174391
 40
0.6475483484
 40
0.7016486566
 40
0.8004315127
 40
0.8466091666
 40
0.8921260796
 40
0.9396761263
 40
0.9665521063
 40
1.0
 40
1.0
 40
1.0
 40
1.0
 10
189.404503186
 20
115.3825025721
 30
0.0
 10
188.2467862405
 20
115.2902312937
 30
0.0
 10
186.0010698507
 20
115.0610979706
 30
0.0
 10
182.7826444081
 20
114.5382416715
 30
0.0
 10
179.8747875044
 20
113.8229027457
 30
0.0
 10
177.7054899052
 20
113.0309786376
 30
0.0
 10
176.2005725137
 20
112.276637534
 30
0.0
 10
174.9368109901
 20
111.4998107038
 30
0.0
 10
173.8494267972
 20
110.5926639382
 30
0.0
 10
173.0089533255
 20
109.5426271669
 30
0.0
 10
172.5152397207
 20
108.6912216079
 30
0.0
 10
172.225595701
 20
107.89145699
 30
0.0
 10
172.0887328516
 20
107.1431108235
 30
0.0
 10
172.0768397125
 20
106.7151549472
 30
0.0
 10
172.0970202083
 20
106.4805628422
 30
0.0
  0
LINE
  5
425
100
AcDbEntity
  8
0
100
AcDbLine
 62
7
  6
CONTINUOUS
 10
169.8149685114
 20
113.2890735033
 11
169.7939069261
 21
113.3736214405
  0
SPLINE
  5
426
100
AcDbEntity
  8
0
100
AcDbSpline
 62
7
  6
CONTINUOUS
 70
0
 71
3
 72
9
 73
5
 74
0
 42
0.0000001
 43
0.0000001
 44
0.0000000001
 40
0.0
 40
0.0
 40
0.0
 40
0.0
 40
0.253812531
 40
1.0
 40
1.0
 40
1.0
 40
1.0
 10
169.5792759572
 20
114.182690418
 30
0.0
 10
169.5744810534
 20
114.1932609969
 30
0.0
 10
169.5561127946
 20
114.235142853
 30
0.0
 10
169.5398819232
 20
114.2779677045
 30
0.0
 10
169.5291181546
 20
114.3103499773
 30
0.0
  0
LINE
  5
427
100
AcDbEntity
  8
0
100
AcDbLine
 62
7
  6
CONTINUOUS
 10
169.359525828
 20
115.8422650459
 11
169.2457135913
 21
116.4805628422
  0
LINE
  5
428
100
AcDbEntity
  8
0
100
AcDbLine
 62
7
  6
CONTINUOUS
 10
208.1184120066
 20
115.5869459274
 11
207.9211673476
 21
114.5656690958
  0
LINE
  5
429
100
AcDbEntity
  8
0
100
AcDbLine
 62
7
  6
CONTINUOUS
 10
208.1169973115
 20
114.565668097
 11
208.1101995298
 21
114.5298100497
  0
SPLINE
  5
42A
100
AcDbEntity
  8
0
100
AcDbSpline
 62
7
  6
CONTINUOUS
 70
0
 71
3
 72
8
 73
4
 74
0
 42
0.0000001
 43
0.0000001
 44
0.0000000001
 40
0.0
 40
0.0
 40
0.0
 40
0.0
 40
1.0
 40
1.0
 40
1.0
 40
1.0
 10
208.1101995298
 20
114.5298100497
 30
0.0
 10
207.8542780586
 20
113.1798780487
 30
0.0
 10
207.5974429464
 20
111.8301188266
 30
0.0
 10
207.3395459677
 20
110.4805628422
 30
0.0
  0
LINE
  5
42B
100
AcDbEntity
  8
0
100
AcDbLine
 62
7
  6
CONTINUOUS
 10
169.8696003318
 20
115.8422650459
 11
169.7557366178
 21
116.4805628422
  0
SPLINE
  5
42C
100
AcDbEntity
  8
BEZUGSACHSEN
100
AcDbSpline
 62
7
  6
CONTINUOUS
 70
0
 71
3
 72
19
 73
15
 74
0
 42
0.0000001
 43
0.0000001
 44
0.0000000001
 40
0.0
 40
0.0
 40
0.0
 40
0.0
 40
0.1649801874
 40
0.3205122626
 40
0.4628159178
 40
0.5898174391
 40
0.6475483484
 40
0.7016486566
 40
0.8004315127
 40
0.8466091666
 40
0.8921260796
 40
0.9396761263
 40
0.9665521063
 40
1.0
 40
1.0
 40
1.0
 40
1.0
 10
189.404503186
 20
115.3825025721
 30
0.0
 10
190.5622201314
 20
115.2902312937
 30
0.0
 10
192.8079365213
 20
115.0610979706
 30
0.0
 10
196.0263619639
 20
114.5382416715
 30
0.0
 10
198.9342188675
 20
113.8229027457
 30
0.0
 10
201.1035164667
 20
113.0309786376
 30
0.0
 10
202.6084338582
 20
112.276637534
 30
0.0
 10
203.8721953819
 20
111.4998107038
 30
0.0
 10
204.9595795747
 20
110.5926639382
 30
0.0
 10
205.8000530465
 20
109.5426271669
 30
0.0
 10
206.2937666512
 20
108.6912216079
 30
0.0
 10
206.583410671
 20
107.89145699
 30
0.0
 10
206.7202735204
 20
107.1431108235
 30
0.0
 10
206.7321666594
 20
106.7151549472
 30
0.0
 10
206.7119861636
 20
106.4805628422
 30
0.0
  0
SPLINE
  5
42D
100
AcDbEntity
  8
0
100
AcDbSpline
 62
7
  6
CONTINUOUS
 70
0
 71
3
 72
8
 73
4
 74
0
 42
0.0000001
 43
0.0000001
 44
0.0000000001
 40
0.0
 40
0.0
 40
0.0
 40
0.0
 40
1.0
 40
1.0
 40
1.0
 40
1.0
 10
171.0735681774
 20
111.7571586135
 30
0.0
 10
170.9298717579
 20
112.5230697046
 30
0.0
 10
170.7864291499
 20
113.2890284515
 30
0.0
 10
170.6432203071
 20
114.0550308588
 30
0.0
  0
LINE
  5
42E
100
AcDbEntity
  8
0
100
AcDbLine
 62
7
  6
CONTINUOUS
 10
170.9866388594
 20
114.0550308588
 11
170.8878391569
 21
114.5656690958
  0
LINE
  5
42F
100
AcDbEntity
  8
0
100
AcDbLine
 62
7
  6
CONTINUOUS
 10
170.5477890092
 20
114.5656690958
 11
170.5414705897
 21
114.5994913741
  0
LINE
  5
430
100
AcDbEntity
  8
0
100
AcDbLine
 62
7
  6
CONTINUOUS
 10
170.5414705897
 20
114.5994913741
 11
170.3571364251
 21
115.5869459274
  0
LINE
  5
431
100
AcDbEntity
  8
0
100
AcDbLine
 62
7
  6
CONTINUOUS
 10
171.6079284964
 20
110.4805628422
 11
171.5089876929
 21
110.9912011239
  0
LINE
  5
432
100
AcDbEntity
  8
0
100
AcDbLine
 62
7
  6
CONTINUOUS
 10
208.7473025093
 20
111.5018394056
 11
208.7361073022
 21
111.4162498021
  0
SPLINE
  5
433
100
AcDbEntity
  8
0
100
AcDbSpline
 62
7
  6
CONTINUOUS
 70
0
 71
3
 72
8
 73
4
 74
0
 42
0.0000001
 43
0.0000001
 44
0.0000000001
 40
0.0
 40
0.0
 40
0.0
 40
0.0
 40
1.0
 40
1.0
 40
1.0
 40
1.0
 10
208.8088028638
 20
115.4592863682
 30
0.0
 10
208.4955520937
 20
113.7994624803
 30
0.0
 10
208.181062307
 20
112.1398717506
 30
0.0
 10
207.865095014
 20
110.4805628422
 30
0.0
  0
LINE
  5
434
100
AcDbEntity
  8
0
100
AcDbLine
 62
7
  6
CONTINUOUS
 10
208.6451173422
 20
115.5869459274
 11
208.4486032341
 21
114.5656690958
  0
LINE
  5
435
100
AcDbEntity
  8
0
100
AcDbLine
 62
7
  6
CONTINUOUS
 10
208.1141281788
 20
109.741589982
 11
208.1065762201
 21
109.7146053972
  0
LINE
  5
436
100
AcDbEntity
  8
0
100
AcDbLine
 62
7
  6
CONTINUOUS
 10
209.6135097538
 20
116.4805628422
 11
209.0245121539
 21
113.161413944
  0
LINE
  5
437
100
AcDbEntity
  8
BEZUGSACHSEN
100
AcDbLine
 62
7
  6
CONTINUOUS
 10
131.6268312948
 20
58.9836717522
 11
131.8469299088
 21
58.9836716399
  0
LINE
  5
438
100
AcDbEntity
  8
BEZUGSACHSEN
100
AcDbLine
 62
7
  6
CONTINUOUS
 10
66.6075327984
 20
58.9836716852
 11
66.8276338028
 21
58.9836717695
  0
ENDSEC
  0
SECTION
  2
OBJECTS
  0
DICTIONARY
  5
C
100
AcDbDictionary
280
0
281
1
  3
ACAD_GROUP
350
D
  3
ACAD_MLINESTYLE
350
17
  3
ACAD_LAYOUT
350
1A
  3
ACAD_PLOTSETTINGS
350
19
  3
ACAD_PLOTSTYLENAME
350
E
  0
DICTIONARY
  5
D
102
{ACAD_REACTORS
330
C
102
}
100
AcDbDictionary
280
0
281
1
  0
ACDBDICTIONARYWDFLT
  5
E
102
{ACAD_REACTORS
330
C
102
}
100
AcDbDictionary
281
1
  3
Normal
350
F
100
AcDbDictionaryWithDefault
340
F
  0
DICTIONARY
  5
17
102
{ACAD_REACTORS
330
C
102
}
100
AcDbDictionary
280
0
281
1
  3
Standard
350
18
  0
DICTIONARY
  5
19
102
{ACAD_REACTORS
330
C
102
}
100
AcDbDictionary
281
1
  0
DICTIONARY
  5
1A
102
{ACAD_REACTORS
330
C
102
}
100
AcDbDictionary
281
1
  3
Model
350
439
  3
Layout1
350
43A
  0
ACDBPLACEHOLDER
  5
F
102
{ACAD_REACTORS
330
E
102
}
  0
MLINESTYLE
  5
18
102
{ACAD_REACTORS
330
17
102
}
100
AcDbMlineStyle
  2
STANDARD
 70
0
  3

 62
256
 51
90.0
 52
90.0
 71
2
 49
0.5
 62
256
  6
BYLAYER
 49
-0.5
 62
256
  6
BYLAYER
  0
LAYOUT
  5
439
102
{ACAD_REACTORS
330
1A
102
}
100
AcDbPlotSettings
  1

  2
none_device
  4
ISO_A4_(297.00_x_210.00_MM)
  6

 40
0.0
 41
0.0
 42
0.0
 43
0.0
 44
297.0
 45
210.0
 46
0.0
 47
0.0
 48
0.0
 49
0.0
140
0.0
141
0.0
142
1.0
143
1.0
 70
1024
 72
1
 73
0
 74
0
  7

 75
0
147
1.0
148
0.0
149
0.0
100
AcDbLayout
  1
Model
 70
0
 71
0
 10
0.0
 20
0.0
 11
297.0
 21
210.0
 12
0.0
 22
0.0
 32
0.0
 14
0.0
 24
0.0
 34
0.0
 15
0.0
 25
0.0
 35
0.0
146
0.0
 13
0.0
 23
0.0
 33
0.0
 16
1.0
 26
0.0
 36
0.0
 17
0.0
 27
1.0
 37
0.0
 76
0
330
20C
345
0
346
0
  0
LAYOUT
  5
43A
102
{ACAD_REACTORS
330
1A
102
}
100
AcDbPlotSettings
  1

  2
none_device
  4
ISO_A4_(297.00_x_210.00_MM)
  6

 40
0.0
 41
0.0
 42
0.0
 43
0.0
 44
297.0
 45
210.0
 46
0.0
 47
0.0
 48
0.0
 49
0.0
140
0.0
141
0.0
142
1.0
143
1.0
 70
0
 72
1
 73
0
 74
0
  7

 75
0
147
1.0
148
0.0
149
0.0
100
AcDbLayout
  1
Layout1
 70
0
 71
1
 10
0.0
 20
0.0
 11
297.0
 21
210.0
 12
0.0
 22
0.0
 32
0.0
 14
0.0
 24
0.0
 34
0.0
 15
0.0
 25
0.0
 35
0.0
146
0.0
 13
0.0
 23
0.0
 33
0.0
 16
1.0
 26
0.0
 36
0.0
 17
0.0
 27
1.0
 37
0.0
 76
0
330
20D
345
0
346
0
  0
ENDSEC
  0
EOF
