999
DXF file: VRM_M12_0_75t_7990312_M32422-P-1.dxf
999
Pro/ENGINEER 2011490 by Parametric Technology Corporation
  0
SECTION
  2
HEADER
  9
$ACADVER
  1
AC1015
  9
$DWGCODEPAGE
  3
ANSI_1252
  9
$EXTMAX
 10
297.0
 20
210.0
 30
0.0
  9
$EXTMIN
 10
0.0
 20
0.0
 30
0.0
  9
$LIMMIN
 10
0.0
 20
0.0
  9
$LIMMAX
 10
297.0
 20
210.0
  9
$VIEWCTR
 10
148.5
 20
105.0
  9
$VIEWSIZE
 40
210.0
  9
$CLAYER
  8
0
  9
$LTSCALE
 40
16.335
  9
$CELTYPE
  6
BYLAYER
  9
$DIMSCALE
 40
1.0
  9
$DIMASZ
 40
3.5
  9
$DIMEXO
 40
1.85625
  9
$DIMDLI
 40
11.286
  9
$DIMEXE
 40
5.346
  9
$DIMCEN
 40
2.673
  9
$DIMLFAC
 40
1.0
  9
$DIMBLK
  1
_FILLED
  9
$DIMTXT
 40
3.5
  9
$DIMTOL
 70
1
  9
$DIMLIM
 70
0
  9
$DIMTFAC
 40
1.0
  9
$DIMTP
 40
0.005
  9
$DIMTM
 40
0.005
  9
$PDMODE
 70
3
  9
$PDSIZE
 40
0.3125
  9
$HANDSEED
  5
4C4
  9
$TILEMODE
 70
1
  9
$MEASUREMENT
 70
1
  9
$INSUNITS
 70
4
  0
ENDSEC
  0
SECTION
  2
CLASSES
  0
CLASS
  1
ACDBDICTIONARYWDFLT
  2
AcDbDictionaryWithDefault
  3
AutoCAD 2000
 90
0
280
0
281
0
  0
CLASS
  1
ACDBPLACEHOLDER
  2
AcDbPlaceHolder
  3
AutoCAD 2000
 90
0
280
0
281
0
  0
CLASS
  1
LAYOUT
  2
AcDbLayout
  3
AutoCAD 2000
 90
0
280
0
281
0
  0
ENDSEC
  0
SECTION
  2
TABLES
  0
TABLE
  2
VPORT
  5
8
100
AcDbSymbolTable
 70
2
  0
VPORT
  5
1F4
100
AcDbSymbolTableRecord
100
AcDbViewportTableRecord
  2
*ACTIVE
 70
0
 10
0.0
 20
0.0
 11
1.0
 21
1.0
 12
148.5
 22
105.0
 13
0.0
 23
0.0
 14
1.0
 24
1.0
 15
0.0
 25
0.0
 16
0.0
 26
0.0
 36
1.0
 17
0.0
 27
0.0
 37
0.0
 40
210.0
 41
1.4142857143
 42
50.0
 43
0.0
 44
0.0
 50
0.0
 51
0.0
 71
0
 72
100
 73
1
 74
1
 75
0
 76
0
 77
0
 78
0
  0
ENDTAB
  0
TABLE
  2
LTYPE
  5
5
100
AcDbSymbolTable
 70
6
  0
LTYPE
  5
14
100
AcDbSymbolTableRecord
100
AcDbLinetypeTableRecord
  2
BYBLOCK
 70
0
  3

 72
65
 73
0
 40
0.0
  0
LTYPE
  5
15
100
AcDbSymbolTableRecord
100
AcDbLinetypeTableRecord
  2
BYLAYER
 70
0
  3

 72
65
 73
0
 40
0.0
  0
LTYPE
  5
16
100
AcDbSymbolTableRecord
100
AcDbLinetypeTableRecord
  2
CONTINUOUS
 70
64
  3
Solid line
 72
65
 73
0
 40
0.0
  0
LTYPE
  5
1F5
100
AcDbSymbolTableRecord
100
AcDbLinetypeTableRecord
  2
CENTER
 70
64
  3
____ _ ____ _ ____ _ ____ _ ____ _ ____ _ ____
 72
65
 73
4
 40
0.6
 49
0.375
 74
0
 49
-0.075
 74
0
 49
0.075
 74
0
 49
-0.075
 74
0
  0
LTYPE
  5
1F6
100
AcDbSymbolTableRecord
100
AcDbLinetypeTableRecord
  2
HIDDEN
 70
64
  3
- - - - - - - - - - - - - - - - - - - -
 72
65
 73
2
 40
0.2
 49
0.1
 74
0
 49
-0.1
 74
0
  0
LTYPE
  5
1F7
100
AcDbSymbolTableRecord
100
AcDbLinetypeTableRecord
  2
PHANTOM
 70
64
  3
_____ _ _ _____ _ _ _____ _ _ _____
 72
65
 73
6
 40
0.8
 49
0.45
 74
0
 49
-0.05
 74
0
 49
0.1
 74
0
 49
-0.05
 74
0
 49
0.1
 74
0
 49
-0.05
 74
0
  0
LTYPE
  5
1F8
100
AcDbSymbolTableRecord
100
AcDbLinetypeTableRecord
  2
DOT
 70
64
  3
. . . . . . . . . . . . . . . . . . . .
 72
65
 73
2
 40
0.2
 49
0.1
 74
0
 49
-0.1
 74
0
  0
LTYPE
  5
1F9
100
AcDbSymbolTableRecord
100
AcDbLinetypeTableRecord
  2
DASHED
 70
64
  3
- - - - - - - - - - - - - - - - - - - -
 72
65
 73
2
 40
0.2
 49
0.1
 74
0
 49
-0.1
 74
0
  0
ENDTAB
  0
TABLE
  2
LAYER
  5
2
100
AcDbSymbolTable
 70
36
  0
LAYER
  5
10
100
AcDbSymbolTableRecord
100
AcDbLayerTableRecord
  2
0
 70
0
 62
7
  6
CONTINUOUS
370
-3
390
F
  0
LAYER
  5
1FA
100
AcDbSymbolTableRecord
100
AcDbLayerTableRecord
  2
DEFAULT_1
 70
0
 62
7
  6
CENTER
370
-3
390
F
  0
LAYER
  5
1FB
100
AcDbSymbolTableRecord
100
AcDbLayerTableRecord
  2
DEFAULT_2
 70
0
 62
8
  6
HIDDEN
370
-3
390
F
  0
LAYER
  5
1FC
100
AcDbSymbolTableRecord
100
AcDbLayerTableRecord
  2
DEFAULT_3
 70
0
 62
7
  6
PHANTOM
370
-3
390
F
  0
LAYER
  5
1FD
100
AcDbSymbolTableRecord
100
AcDbLayerTableRecord
  2
BEZUGSACHSEN
 70
0
 62
7
  6
CONTINUOUS
370
-3
390
F
  0
LAYER
  5
1FE
100
AcDbSymbolTableRecord
100
AcDbLayerTableRecord
  2
BG_STARTBEZUEGE
 70
0
 62
7
  6
CONTINUOUS
370
-3
390
F
  0
LAYER
  5
1FF
100
AcDbSymbolTableRecord
100
AcDbLayerTableRecord
  2
BOHRUNGEN
 70
0
 62
7
  6
CONTINUOUS
370
-3
390
F
  0
LAYER
  5
200
100
AcDbSymbolTableRecord
100
AcDbLayerTableRecord
  2
FASEN
 70
0
 62
7
  6
CONTINUOUS
370
-3
390
F
  0
LAYER
  5
201
100
AcDbSymbolTableRecord
100
AcDbLayerTableRecord
  2
FLAECHEN
 70
0
 62
7
  6
CONTINUOUS
370
-3
390
F
  0
LAYER
  5
202
100
AcDbSymbolTableRecord
100
AcDbLayerTableRecord
  2
GEWINDE
 70
0
 62
7
  6
CONTINUOUS
370
-3
390
F
  0
LAYER
  5
203
100
AcDbSymbolTableRecord
100
AcDbLayerTableRecord
  2
HILFEN
 70
0
 62
7
  6
CONTINUOUS
370
-3
390
F
  0
LAYER
  5
204
100
AcDbSymbolTableRecord
100
AcDbLayerTableRecord
  2
KONSTRUKTIONSELEMENTE
 70
0
 62
7
  6
CONTINUOUS
370
-3
390
F
  0
LAYER
  5
205
100
AcDbSymbolTableRecord
100
AcDbLayerTableRecord
  2
KURVEN
 70
0
 62
7
  6
CONTINUOUS
370
-3
390
F
  0
LAYER
  5
206
100
AcDbSymbolTableRecord
100
AcDbLayerTableRecord
  2
NORM
 70
0
 62
7
  6
CONTINUOUS
370
-3
390
F
  0
LAYER
  5
207
100
AcDbSymbolTableRecord
100
AcDbLayerTableRecord
  2
PLATZIERUNG
 70
0
 62
7
  6
CONTINUOUS
370
-3
390
F
  0
LAYER
  5
208
100
AcDbSymbolTableRecord
100
AcDbLayerTableRecord
  2
RUNDUNGEN
 70
0
 62
7
  6
CONTINUOUS
370
-3
390
F
  0
LAYER
  5
209
100
AcDbSymbolTableRecord
100
AcDbLayerTableRecord
  2
TEIL_STARTBEZUEGE
 70
0
 62
7
  6
CONTINUOUS
370
-3
390
F
  0
LAYER
  5
20A
100
AcDbSymbolTableRecord
100
AcDbLayerTableRecord
  2
T_STARTBEZUEGE
 70
0
 62
7
  6
CONTINUOUS
370
-3
390
F
  0
ENDTAB
  0
TABLE
  2
STYLE
  5
3
100
AcDbSymbolTable
 70
1
  0
STYLE
  5
11
100
AcDbSymbolTableRecord
100
AcDbTextStyleTableRecord
  2
STANDARD
 70
0
 40
0.0
 41
0.7
 50
0.0
 71
0
 42
0.2
  3
txt
  4

  0
STYLE
  5
20B
100
AcDbSymbolTableRecord
100
AcDbTextStyleTableRecord
  2
TEXTSTYLE_1
 70
0
 40
0.0
 41
0.8
 50
0.0
 71
0
 42
0.2
  3
gdt
  4

  0
ENDTAB
  0
TABLE
  2
VIEW
  5
6
100
AcDbSymbolTable
 70
0
  0
ENDTAB
  0
TABLE
  2
UCS
  5
7
100
AcDbSymbolTable
 70
0
  0
ENDTAB
  0
TABLE
  2
APPID
  5
9
100
AcDbSymbolTable
 70
1
  0
APPID
  5
20C
100
AcDbSymbolTableRecord
100
AcDbRegAppTableRecord
  2
ACAD
 70
0
  0
ENDTAB
  0
TABLE
  2
BLOCK_RECORD
  5
1
100
AcDbSymbolTable
 70
0
  0
BLOCK_RECORD
  5
20D
100
AcDbSymbolTableRecord
100
AcDbBlockTableRecord
  2
*Model_Space
  0
BLOCK_RECORD
  5
20E
100
AcDbSymbolTableRecord
100
AcDbBlockTableRecord
  2
*Paper_Space
  0
ENDTAB
  0
TABLE
  2
DIMSTYLE
  5
A
100
AcDbSymbolTable
 70
1
100
AcDbDimStyleTable
 71
0
  0
DIMSTYLE
105
20F
100
AcDbSymbolTableRecord
100
AcDbDimStyleTableRecord
  2
STANDARD
 70
0
  3

  4

 40
1.0
 41
3.5
 42
0.0625
 43
0.38
 44
0.18
 45
0.0
 46
0.0
 47
0.005
 48
0.005
140
3.5
141
0.09
142
0.0
143
25.4
144
1.0
145
0.0
146
1.0
147
0.09
 71
1.0
 72
0.0
 73
0
 74
0
 75
0
 76
0
 77
1
 78
8
170
0
171
2
172
0
173
0
174
0
175
0
176
0
177
0
178
5
270
2
271
3
272
3
273
2
274
2
275
0
280
0
281
0
282
0
283
1
284
8
285
0
286
0
287
3
288
0
340
11
  0
ENDTAB
  0
ENDSEC
  0
SECTION
  2
BLOCKS
  0
BLOCK
  5
20
100
AcDbEntity
  8
0
100
AcDbBlockBegin
  2
*Model_Space
 70
0
 10
0.0
 20
0.0
 30
0.0
  3
*Model_Space
  1

  0
ENDBLK
  5
21
100
AcDbEntity
  8
0
100
AcDbBlockEnd
  0
BLOCK
  5
1C
100
AcDbEntity
  8
0
100
AcDbBlockBegin
  2
*Paper_Space
 70
0
 10
0.0
 20
0.0
 30
0.0
  3
*Paper_Space
  1

  0
ENDBLK
  5
1D
100
AcDbEntity
  8
0
100
AcDbBlockEnd
  0
ENDSEC
  0
SECTION
  2
ENTITIES
  0
MTEXT
  5
210
100
AcDbEntity
  8
0
100
AcDbMText
 62
5
  6
CONTINUOUS
  7
STANDARD
 71
1
 72
1
 10
175.0438253517
 20
131.9637163942
 30
0.0
 11
0.0
 21
1.0
 31
0.0
 44
0.9
  1
VRM 0,75t RUD
 40
3.5
 41
35.5
  0
MTEXT
  5
211
100
AcDbEntity
  8
0
100
AcDbMText
 62
5
  6
CONTINUOUS
  7
STANDARD
 71
1
 72
1
 10
85.3986662575
 20
74.9147756744
 30
0.0
 11
1.0
 21
0.0
 31
0.0
 44
0.9
  1
VRM 0,75t RUD
 40
3.5
 41
35.5
  0
LINE
  5
212
100
AcDbEntity
  8
0
100
AcDbLine
 62
7
  6
CONTINUOUS
 10
0.0
 20
0.0
 11
0.0
 21
210.0
  0
LINE
  5
213
100
AcDbEntity
  8
0
100
AcDbLine
 62
7
  6
CONTINUOUS
 10
0.0
 20
0.0
 11
297.0
 21
0.0
  0
LINE
  5
214
100
AcDbEntity
  8
0
100
AcDbLine
 62
7
  6
CONTINUOUS
 10
0.0
 20
210.0
 11
297.0
 21
210.0
  0
LINE
  5
215
100
AcDbEntity
  8
0
100
AcDbLine
 62
7
  6
CONTINUOUS
 10
297.0
 20
0.0
 11
297.0
 21
210.0
  0
LINE
  5
216
100
AcDbEntity
  8
0
100
AcDbLine
 62
7
  6
CONTINUOUS
 10
107.2512715703
 20
118.3111150938
 11
107.7721041089
 21
118.4174980692
  0
LINE
  5
217
100
AcDbEntity
  8
0
100
AcDbLine
 62
7
  6
CONTINUOUS
 10
112.9325208551
 20
114.0611150938
 11
93.1325208551
 21
114.0611150938
  0
LINE
  5
218
100
AcDbEntity
  8
BEZUGSACHSEN
100
AcDbLine
 62
7
  6
CONTINUOUS
 10
118.0323901251
 20
114.3111150938
 11
88.0326514654
 21
114.3111150938
  0
LINE
  5
219
100
AcDbEntity
  8
0
100
AcDbLine
 62
7
  6
CONTINUOUS
 10
98.5012712723
 20
117.6728172231
 11
99.022104705
 21
117.6728172231
  0
LINE
  5
21A
100
AcDbEntity
  8
0
100
AcDbLine
 62
7
  6
CONTINUOUS
 10
101.522104705
 20
118.3111150938
 11
102.147104705
 21
118.3111150938
  0
LINE
  5
21B
100
AcDbEntity
  8
0
100
AcDbLine
 62
7
  6
CONTINUOUS
 10
106.6262715703
 20
118.3111150938
 11
107.2512715703
 21
118.3111150938
  0
LINE
  5
21C
100
AcDbEntity
  8
0
100
AcDbLine
 62
7
  6
CONTINUOUS
 10
95.1679378396
 20
118.4174980692
 11
95.7929378396
 21
118.3111150938
  0
LINE
  5
21D
100
AcDbEntity
  8
0
100
AcDbLine
 62
7
  6
CONTINUOUS
 10
95.7929378396
 20
118.8430299986
 11
95.272104556
 21
118.9494129646
  0
LINE
  5
21E
100
AcDbEntity
  8
0
100
AcDbLine
 62
7
  6
CONTINUOUS
 10
107.6679378396
 20
118.9494129646
 11
107.2512715703
 21
118.8430299986
  0
LINE
  5
21F
100
AcDbEntity
  8
0
100
AcDbLine
 62
7
  6
CONTINUOUS
 10
106.2096041089
 20
120.8643065769
 11
106.6262715703
 21
120.9706895429
  0
LINE
  5
220
100
AcDbEntity
  8
0
100
AcDbLine
 62
7
  6
CONTINUOUS
 10
96.3137711233
 20
118.9494129646
 11
95.7929378396
 21
118.8430299986
  0
LINE
  5
221
100
AcDbEntity
  8
0
100
AcDbLine
 62
7
  6
CONTINUOUS
 10
106.6262715703
 20
121.5026043731
 11
106.1054378396
 21
121.3962214071
  0
LINE
  5
222
100
AcDbEntity
  8
0
100
AcDbLine
 62
7
  6
CONTINUOUS
 10
95.7929378396
 20
118.3111150938
 11
96.4179378396
 21
118.4174980692
  0
LINE
  5
223
100
AcDbEntity
  8
0
100
AcDbLine
 62
7
  6
CONTINUOUS
 10
107.2512715703
 20
118.8430299986
 11
106.6262715703
 21
118.8430299986
  0
LINE
  5
224
100
AcDbEntity
  8
0
100
AcDbLine
 62
7
  6
CONTINUOUS
 10
99.647104705
 20
118.8430299986
 11
99.1262709743
 21
118.8430299986
  0
LINE
  5
225
100
AcDbEntity
  8
0
100
AcDbLine
 62
7
  6
CONTINUOUS
 10
105.6887715703
 20
119.5877108354
 11
105.0637715703
 21
119.5877108354
  0
LINE
  5
226
100
AcDbEntity
  8
0
100
AcDbLine
 62
7
  6
CONTINUOUS
 10
105.0637715703
 20
120.5451576787
 11
105.7929378396
 21
120.5451576787
  0
LINE
  5
227
100
AcDbEntity
  8
0
100
AcDbLine
 62
7
  6
CONTINUOUS
 10
106.6262715703
 20
120.9706895429
 11
107.2512715703
 21
120.9706895429
  0
LINE
  5
228
100
AcDbEntity
  8
0
100
AcDbLine
 62
7
  6
CONTINUOUS
 10
109.6471041089
 20
121.289838441
 11
110.4804378396
 21
121.289838441
  0
LINE
  5
229
100
AcDbEntity
  8
0
100
AcDbLine
 62
7
  6
CONTINUOUS
 10
111.0012715703
 20
121.289838441
 11
112.1471041089
 21
121.289838441
  0
LINE
  5
22A
100
AcDbEntity
  8
0
100
AcDbLine
 62
7
  6
CONTINUOUS
 10
107.2512715703
 20
121.5026043731
 11
106.6262715703
 21
121.5026043731
  0
LINE
  5
22B
100
AcDbEntity
  8
0
100
AcDbLine
 62
7
  6
CONTINUOUS
 10
112.1471041089
 20
121.7153703052
 11
111.0012715703
 21
121.7153703052
  0
LINE
  5
22C
100
AcDbEntity
  8
0
100
AcDbLine
 62
7
  6
CONTINUOUS
 10
110.4804378396
 20
121.7153703052
 11
109.6471041089
 21
121.7153703052
  0
LINE
  5
22D
100
AcDbEntity
  8
0
100
AcDbLine
 62
7
  6
CONTINUOUS
 10
111.0012715703
 20
122.5664343316
 11
110.4804378396
 21
122.5664343316
  0
LINE
  5
22E
100
AcDbEntity
  8
0
100
AcDbLine
 62
7
  6
CONTINUOUS
 10
100.4804378396
 20
122.7792002636
 11
103.6054378396
 21
122.7792002636
  0
LINE
  5
22F
100
AcDbEntity
  8
0
100
AcDbLine
 62
7
  6
CONTINUOUS
 10
105.5846041089
 20
122.7792002636
 11
108.6054378396
 21
122.7792002636
  0
LINE
  5
230
100
AcDbEntity
  8
0
100
AcDbLine
 62
7
  6
CONTINUOUS
 10
81.0325208551
 20
122.8111150938
 11
81.7134215322
 21
122.8111150938
  0
LINE
  5
231
100
AcDbEntity
  8
0
100
AcDbLine
 62
7
  6
CONTINUOUS
 10
124.3516201779
 20
122.8111150938
 11
125.0325208551
 21
122.8111150938
  0
LINE
  5
232
100
AcDbEntity
  8
0
100
AcDbLine
 62
7
  6
CONTINUOUS
 10
108.6054378396
 20
123.3111150938
 11
105.0637715703
 21
123.3111150938
  0
LINE
  5
233
100
AcDbEntity
  8
0
100
AcDbLine
 62
7
  6
CONTINUOUS
 10
104.2304378396
 20
123.3111150938
 11
100.4804378396
 21
123.3111150938
  0
LINE
  5
234
100
AcDbEntity
  8
0
100
AcDbLine
 62
7
  6
CONTINUOUS
 10
111.3137715703
 20
118.4174980692
 11
111.9387715703
 21
118.3111150938
  0
LINE
  5
235
100
AcDbEntity
  8
0
100
AcDbLine
 62
7
  6
CONTINUOUS
 10
96.4179378396
 20
123.2047321278
 11
95.7929378396
 21
123.3111150938
  0
LINE
  5
236
100
AcDbEntity
  8
0
100
AcDbLine
 62
7
  6
CONTINUOUS
 10
106.1054378396
 20
118.4174980692
 11
106.6262715703
 21
118.3111150938
  0
LINE
  5
237
100
AcDbEntity
  8
0
100
AcDbLine
 62
7
  6
CONTINUOUS
 10
111.9387715703
 20
118.7366469953
 11
111.4179378396
 21
118.8430299986
  0
LINE
  5
238
100
AcDbEntity
  8
0
100
AcDbLine
 62
7
  6
CONTINUOUS
 10
95.7929378396
 20
122.7792002636
 11
96.3137711233
 21
122.6728172976
  0
LINE
  5
239
100
AcDbEntity
  8
0
100
AcDbLine
 62
7
  6
CONTINUOUS
 10
107.7721041089
 20
121.3962214071
 11
107.2512715703
 21
121.5026043731
  0
LINE
  5
23A
100
AcDbEntity
  8
0
100
AcDbLine
 62
7
  6
CONTINUOUS
 10
106.6262715703
 20
118.8430299986
 11
106.2096041089
 21
118.9494129646
  0
LINE
  5
23B
100
AcDbEntity
  8
0
100
AcDbLine
 62
7
  6
CONTINUOUS
 10
107.2512715703
 20
120.9706895429
 11
107.6679378396
 21
120.8643065769
  0
LINE
  5
23C
100
AcDbEntity
  8
0
100
AcDbLine
 62
7
  6
CONTINUOUS
 10
111.0012715703
 20
118.5238810446
 11
111.3137715703
 21
118.4174980692
  0
LINE
  5
23D
100
AcDbEntity
  8
0
100
AcDbLine
 62
7
  6
CONTINUOUS
 10
94.6471044814
 20
118.7366469953
 11
95.1679378396
 21
118.4174980692
  0
LINE
  5
23E
100
AcDbEntity
  8
0
100
AcDbLine
 62
7
  6
CONTINUOUS
 10
95.272104556
 20
118.9494129646
 11
94.9596044814
 21
119.1621788967
  0
LINE
  5
23F
100
AcDbEntity
  8
0
100
AcDbLine
 62
7
  6
CONTINUOUS
 10
95.272104556
 20
122.6728172976
 11
95.7929378396
 21
122.7792002636
  0
LINE
  5
240
100
AcDbEntity
  8
0
100
AcDbLine
 62
7
  6
CONTINUOUS
 10
95.7929378396
 20
123.3111150938
 11
95.1679378396
 21
123.2047321278
  0
LINE
  5
241
100
AcDbEntity
  8
0
100
AcDbLine
 62
7
  6
CONTINUOUS
 10
96.9387712723
 20
122.8855832297
 11
96.4179378396
 21
123.2047321278
  0
LINE
  5
242
100
AcDbEntity
  8
0
100
AcDbLine
 62
7
  6
CONTINUOUS
 10
105.5846041089
 20
118.7366469953
 11
106.1054378396
 21
118.4174980692
  0
LINE
  5
243
100
AcDbEntity
  8
0
100
AcDbLine
 62
7
  6
CONTINUOUS
 10
96.3137711233
 20
122.6728172976
 11
96.6262712723
 21
122.4600513655
  0
LINE
  5
244
100
AcDbEntity
  8
0
100
AcDbLine
 62
7
  6
CONTINUOUS
 10
106.2096041089
 20
118.9494129646
 11
105.8971041089
 21
119.1621788967
  0
LINE
  5
245
100
AcDbEntity
  8
0
100
AcDbLine
 62
7
  6
CONTINUOUS
 10
94.3346045187
 20
119.0557959306
 11
94.6471044814
 21
118.7366469953
  0
LINE
  5
246
100
AcDbEntity
  8
0
100
AcDbLine
 62
7
  6
CONTINUOUS
 10
96.0325208551
 20
131.0611150938
 11
110.0325208551
 21
131.0611150938
  0
LINE
  5
247
100
AcDbEntity
  8
0
100
AcDbLine
 62
7
  6
CONTINUOUS
 10
108.2929378396
 20
121.077072509
 11
107.7721041089
 21
121.3962214071
  0
LINE
  5
248
100
AcDbEntity
  8
0
100
AcDbLine
 62
7
  6
CONTINUOUS
 10
110.6887715703
 20
118.7366469953
 11
111.0012715703
 21
118.5238810446
  0
LINE
  5
249
100
AcDbEntity
  8
0
100
AcDbLine
 62
7
  6
CONTINUOUS
 10
107.6679378396
 20
120.8643065769
 11
107.9804378396
 21
120.6515406448
  0
LINE
  5
24A
100
AcDbEntity
  8
0
100
AcDbLine
 62
7
  6
CONTINUOUS
 10
111.4179378396
 20
118.8430299986
 11
111.1054378396
 21
119.0557959306
  0
LINE
  5
24B
100
AcDbEntity
  8
0
100
AcDbLine
 62
7
  6
CONTINUOUS
 10
97.2512712723
 20
122.5664343316
 11
96.9387712723
 21
122.8855832297
  0
LINE
  5
24C
100
AcDbEntity
  8
0
100
AcDbLine
 62
7
  6
CONTINUOUS
 10
94.9596044814
 20
119.1621788967
 11
94.5429378396
 21
119.8004767674
  0
LINE
  5
24D
100
AcDbEntity
  8
BEZUGSACHSEN
100
AcDbLine
 62
7
  6
CONTINUOUS
 10
83.4974537969
 20
120.1295316719
 11
82.6428189248
 21
122.1928027711
  0
LINE
  5
24E
100
AcDbEntity
  8
BEZUGSACHSEN
100
AcDbLine
 62
7
  6
CONTINUOUS
 10
79.4440163743
 20
129.9153952718
 11
75.026689309
 21
140.5797661822
  0
LINE
  5
24F
100
AcDbEntity
  8
0
100
AcDbLine
 62
7
  6
CONTINUOUS
 10
96.6262712723
 20
122.4600513655
 11
97.0429378396
 21
121.8217532712
  0
LINE
  5
250
100
AcDbEntity
  8
0
100
AcDbLine
 62
7
  6
CONTINUOUS
 10
94.1262711792
 20
119.4813278693
 11
94.3346045187
 21
119.0557959306
  0
LINE
  5
251
100
AcDbEntity
  8
RUNDUNGEN
100
AcDbLine
 62
7
  6
CONTINUOUS
 10
79.5325208551
 20
130.0588969179
 11
79.5325208551
 21
124.3111150938
  0
LINE
  5
252
100
AcDbEntity
  8
BEZUGSACHSEN
100
AcDbLine
 62
7
  6
CONTINUOUS
 10
79.5325208551
 20
124.3111150938
 11
79.5325208551
 21
130.0588938536
  0
LINE
  5
253
100
AcDbEntity
  8
0
100
AcDbLine
 62
7
  6
CONTINUOUS
 10
105.2721041089
 20
119.1621788967
 11
105.5846041089
 21
118.7366469953
  0
LINE
  5
254
100
AcDbEntity
  8
0
100
AcDbLine
 62
7
  6
CONTINUOUS
 10
108.6054378396
 20
120.6515406448
 11
108.2929378396
 21
121.077072509
  0
LINE
  5
255
100
AcDbEntity
  8
0
100
AcDbLine
 62
7
  6
CONTINUOUS
 10
97.4596044069
 20
122.1409024674
 11
97.2512712723
 21
122.5664343316
  0
LINE
  5
256
100
AcDbEntity
  8
0
100
AcDbLine
 62
7
  6
CONTINUOUS
 10
94.0221045094
 20
119.8004767674
 11
94.1262711792
 21
119.4813278693
  0
LINE
  5
257
100
AcDbEntity
  8
0
100
AcDbLine
 62
7
  6
CONTINUOUS
 10
88.1256321865
 20
157.112294879
 11
88.1275128631
 21
156.9336376756
  0
LINE
  5
258
100
AcDbEntity
  8
BEZUGSACHSEN
100
AcDbLine
 62
7
  6
CONTINUOUS
 10
75.0376029219
 20
142.2287143744
 11
75.551999907
 21
143.4705785524
  0
LINE
  5
259
100
AcDbEntity
  8
RUNDUNGEN
100
AcDbLine
 62
7
  6
CONTINUOUS
 10
75.551999907
 20
143.4705785524
 11
82.5888406033
 21
160.4590147976
  0
LINE
  5
25A
100
AcDbEntity
  8
0
100
AcDbLine
 62
7
  6
CONTINUOUS
 10
86.6455974588
 20
153.465805401
 11
84.1763655544
 21
154.6976004804
  0
LINE
  5
25B
100
AcDbEntity
  8
0
100
AcDbLine
 62
7
  6
CONTINUOUS
 10
83.9112005115
 20
154.4324354374
 11
86.7396276573
 21
153.0182218961
  0
LINE
  5
25C
100
AcDbEntity
  8
0
100
AcDbLine
 62
7
  6
CONTINUOUS
 10
86.0325208551
 20
156.553755781
 11
88.1538411986
 21
154.4324354374
  0
LINE
  5
25D
100
AcDbEntity
  8
0
100
AcDbLine
 62
7
  6
CONTINUOUS
 10
88.4190062416
 20
154.6976004804
 11
87.4711822448
 21
155.6454244771
  0
LINE
  5
25E
100
AcDbEntity
  8
0
100
AcDbLine
 62
7
  6
CONTINUOUS
 10
87.2003754247
 20
155.9162312972
 11
86.5233582481
 21
156.5932484738
  0
LINE
  5
25F
100
AcDbEntity
  8
0
100
AcDbLine
 62
7
  6
CONTINUOUS
 10
87.8990194981
 20
157.4272960837
 11
88.0344230345
 21
157.2918925472
  0
LINE
  5
260
100
AcDbEntity
  8
0
100
AcDbLine
 62
7
  6
CONTINUOUS
 10
88.3447225475
 20
157.5119231201
 11
88.164184541
 21
157.6924611266
  0
LINE
  5
261
100
AcDbEntity
  8
0
100
AcDbLine
 62
7
  6
CONTINUOUS
 10
107.9804378396
 20
120.6515406448
 11
108.1887715703
 21
120.3323917467
  0
LINE
  5
262
100
AcDbEntity
  8
0
100
AcDbLine
 62
7
  6
CONTINUOUS
 10
88.0344230345
 20
157.2918925472
 11
88.1256321865
 21
157.112294879
  0
LINE
  5
263
100
AcDbEntity
  8
0
100
AcDbLine
 62
7
  6
CONTINUOUS
 10
88.4359316994
 20
157.3323254519
 11
88.3447225475
 21
157.5119231201
  0
LINE
  5
264
100
AcDbEntity
  8
0
100
AcDbLine
 62
7
  6
CONTINUOUS
 10
87.0931810268
 20
153.3717752656
 11
85.6789674223
 21
156.2002023482
  0
LINE
  5
265
100
AcDbEntity
  8
0
100
AcDbLine
 62
7
  6
CONTINUOUS
 10
85.4138023794
 20
155.9350373053
 11
86.6455974588
 21
153.465805401
  0
LINE
  5
266
100
AcDbEntity
  8
0
100
AcDbLine
 62
7
  6
CONTINUOUS
 10
105.0637715703
 20
119.5877108354
 11
105.2721041089
 21
119.1621788967
  0
LINE
  5
267
100
AcDbEntity
  8
0
100
AcDbLine
 62
7
  6
CONTINUOUS
 10
105.8971041089
 20
119.1621788967
 11
105.6887715703
 21
119.5877108354
  0
LINE
  5
268
100
AcDbEntity
  8
0
100
AcDbLine
 62
7
  6
CONTINUOUS
 10
97.5637712723
 20
121.8217532712
 11
97.4596044069
 21
122.1409024674
  0
LINE
  5
269
100
AcDbEntity
  8
0
100
AcDbLine
 62
7
  6
CONTINUOUS
 10
93.9179378396
 20
120.3323917467
 11
94.0221045094
 21
119.8004767674
  0
LINE
  5
26A
100
AcDbEntity
  8
0
100
AcDbLine
 62
7
  6
CONTINUOUS
 10
94.5429378396
 20
119.8004767674
 11
94.4387711605
 21
120.4387747127
  0
LINE
  5
26B
100
AcDbEntity
  8
0
100
AcDbLine
 62
7
  6
CONTINUOUS
 10
88.483887058
 20
157.0192050504
 11
88.4359316994
 21
157.3323254519
  0
LINE
  5
26C
100
AcDbEntity
  8
0
100
AcDbLine
 62
7
  6
CONTINUOUS
 10
93.1325208551
 20
114.3111150938
 11
93.1325208551
 21
114.0611150938
  0
LINE
  5
26D
100
AcDbEntity
  8
0
100
AcDbLine
 62
7
  6
CONTINUOUS
 10
88.3973792185
 20
156.7521593308
 11
88.483887058
 21
157.0192050504
  0
LINE
  5
26E
100
AcDbEntity
  8
0
100
AcDbLine
 62
7
  6
CONTINUOUS
 10
88.1275128631
 20
156.9336376756
 11
88.0400648117
 21
156.7559206841
  0
LINE
  5
26F
100
AcDbEntity
  8
0
100
AcDbLine
 62
7
  6
CONTINUOUS
 10
89.8332197196
 20
156.1118139584
 11
88.3973792185
 21
156.7521593308
  0
LINE
  5
270
100
AcDbEntity
  8
0
100
AcDbLine
 62
7
  6
CONTINUOUS
 10
88.2224831155
 20
156.3967253478
 11
89.5238606715
 21
155.8024549103
  0
LINE
  5
271
100
AcDbEntity
  8
0
100
AcDbLine
 62
7
  6
CONTINUOUS
 10
88.7819624255
 20
158.4005079511
 11
91.070656671
 21
157.3492509098
  0
LINE
  5
272
100
AcDbEntity
  8
0
100
AcDbLine
 62
7
  6
CONTINUOUS
 10
91.021760816
 20
157.7516998182
 11
88.4632002468
 21
158.9844351727
  0
LINE
  5
273
100
AcDbEntity
  8
0
100
AcDbLine
 62
7
  6
CONTINUOUS
 10
87.7194218299
 20
157.5185052356
 11
87.8990194981
 21
157.4272960837
  0
LINE
  5
274
100
AcDbEntity
  8
0
100
AcDbLine
 62
7
  6
CONTINUOUS
 10
88.164184541
 20
157.6924611266
 11
87.9845868728
 21
157.7836702785
  0
LINE
  5
275
100
AcDbEntity
  8
0
100
AcDbLine
 62
7
  6
CONTINUOUS
 10
88.0654529353
 20
158.5866878612
 11
90.1867732788
 21
156.4653675176
  0
LINE
  5
276
100
AcDbEntity
  8
0
100
AcDbLine
 62
7
  6
CONTINUOUS
 10
90.4519380689
 20
156.7305323077
 11
88.7819624255
 21
158.4005079511
  0
LINE
  5
277
100
AcDbEntity
  8
0
100
AcDbLine
 62
7
  6
CONTINUOUS
 10
90.3729526831
 20
159.9914982088
 11
92.0429283266
 21
158.3215225653
  0
LINE
  5
278
100
AcDbEntity
  8
0
100
AcDbLine
 62
7
  6
CONTINUOUS
 10
92.3080933695
 20
158.5866876083
 11
90.1867730259
 21
160.7080079519
  0
LINE
  5
279
100
AcDbEntity
  8
0
100
AcDbLine
 62
7
  6
CONTINUOUS
 10
110.4804378396
 20
119.1621788967
 11
110.6887715703
 21
118.7366469953
  0
LINE
  5
27A
100
AcDbEntity
  8
0
100
AcDbLine
 62
7
  6
CONTINUOUS
 10
89.7890254615
 20
160.3102603874
 11
91.021760816
 21
157.7516998182
  0
LINE
  5
27B
100
AcDbEntity
  8
0
100
AcDbLine
 62
7
  6
CONTINUOUS
 10
91.4242102302
 20
157.702804469
 11
90.3729526831
 21
159.9914982088
  0
LINE
  5
27C
100
AcDbEntity
  8
0
100
AcDbLine
 62
7
  6
CONTINUOUS
 10
108.8137715703
 20
120.1196256656
 11
108.6054378396
 21
120.6515406448
  0
LINE
  5
27D
100
AcDbEntity
  8
0
100
AcDbLine
 62
7
  6
CONTINUOUS
 10
97.6679378396
 20
121.289838441
 11
97.5637712723
 21
121.8217532712
  0
LINE
  5
27E
100
AcDbEntity
  8
0
100
AcDbLine
 62
7
  6
CONTINUOUS
 10
97.0429378396
 20
121.8217532712
 11
97.1471044069
 21
121.183455475
  0
LINE
  5
27F
100
AcDbEntity
  8
0
100
AcDbLine
 62
7
  6
CONTINUOUS
 10
93.9179378396
 20
121.289838441
 11
93.9179378396
 21
120.3323917467
  0
LINE
  5
280
100
AcDbEntity
  8
0
100
AcDbLine
 62
7
  6
CONTINUOUS
 10
94.4387711605
 20
120.4387747127
 11
94.4387711605
 21
121.183455475
  0
LINE
  5
281
100
AcDbEntity
  8
0
100
AcDbLine
 62
7
  6
CONTINUOUS
 10
96.0325208551
 20
128.5161039676
 11
96.0325208551
 21
131.0611150938
  0
LINE
  5
282
100
AcDbEntity
  8
0
100
AcDbLine
 62
7
  6
CONTINUOUS
 10
97.1471044069
 20
121.183455475
 11
97.1471044069
 21
120.4387747127
  0
LINE
  5
283
100
AcDbEntity
  8
0
100
AcDbLine
 62
7
  6
CONTINUOUS
 10
97.6679378396
 20
120.3323917467
 11
97.6679378396
 21
121.289838441
  0
LINE
  5
284
100
AcDbEntity
  8
0
100
AcDbLine
 62
7
  6
CONTINUOUS
 10
90.1867730259
 20
160.7080079519
 11
89.7890254615
 21
160.3102603874
  0
LINE
  5
285
100
AcDbEntity
  8
0
100
AcDbLine
 62
7
  6
CONTINUOUS
 10
88.4632002468
 20
158.9844351727
 11
88.0654529353
 21
158.5866878612
  0
LINE
  5
286
100
AcDbEntity
  8
0
100
AcDbLine
 62
7
  6
CONTINUOUS
 10
87.0931810268
 20
157.6144159527
 11
86.0325208551
 21
156.553755781
  0
LINE
  5
287
100
AcDbEntity
  8
0
100
AcDbLine
 62
7
  6
CONTINUOUS
 10
85.6789674223
 20
156.2002023482
 11
85.4138023794
 21
155.9350373053
  0
LINE
  5
288
100
AcDbEntity
  8
0
100
AcDbLine
 62
7
  6
CONTINUOUS
 10
84.1763655544
 20
154.6976004804
 11
83.9112005115
 21
154.4324354374
  0
LINE
  5
289
100
AcDbEntity
  8
0
100
AcDbLine
 62
7
  6
CONTINUOUS
 10
86.5233582481
 20
156.5932484738
 11
87.363047635
 21
157.4329378608
  0
LINE
  5
28A
100
AcDbEntity
  8
0
100
AcDbLine
 62
7
  6
CONTINUOUS
 10
88.0400648117
 20
156.7559206841
 11
87.2003754247
 21
155.9162312972
  0
LINE
  5
28B
100
AcDbEntity
  8
0
100
AcDbLine
 62
7
  6
CONTINUOUS
 10
87.4711822448
 20
155.6454244771
 11
88.2224831155
 21
156.3967253478
  0
LINE
  5
28C
100
AcDbEntity
  8
RUNDUNGEN
100
AcDbLine
 62
7
  6
CONTINUOUS
 10
83.6712328036
 20
161.5414069979
 11
102.2671539903
 21
169.2440897583
  0
LINE
  5
28D
100
AcDbEntity
  8
0
100
AcDbLine
 62
7
  6
CONTINUOUS
 10
87.5407646265
 20
157.5203859123
 11
87.7194218299
 21
157.5185052356
  0
LINE
  5
28E
100
AcDbEntity
  8
0
100
AcDbLine
 62
7
  6
CONTINUOUS
 10
87.9845868728
 20
157.7836702785
 11
87.6714664713
 21
157.8316256371
  0
LINE
  5
28F
100
AcDbEntity
  8
0
100
AcDbLine
 62
7
  6
CONTINUOUS
 10
108.1887715703
 20
120.3323917467
 11
108.2929378396
 21
120.0132426995
  0
LINE
  5
290
100
AcDbEntity
  8
0
100
AcDbLine
 62
7
  6
CONTINUOUS
 10
111.1054378396
 20
119.0557959306
 11
111.0012715703
 21
119.3749449033
  0
LINE
  5
291
100
AcDbEntity
  8
0
100
AcDbLine
 62
7
  6
CONTINUOUS
 10
98.9700208551
 20
163.5611150938
 11
98.9700208551
 21
160.5611150938
  0
LINE
  5
292
100
AcDbEntity
  8
0
100
AcDbLine
 62
7
  6
CONTINUOUS
 10
99.3450208551
 20
160.5611150938
 11
99.3450208551
 21
161.9015406448
  0
LINE
  5
293
100
AcDbEntity
  8
0
100
AcDbLine
 62
7
  6
CONTINUOUS
 10
99.3450208551
 20
162.2845193225
 11
99.3450208551
 21
163.2419661957
  0
LINE
  5
294
100
AcDbEntity
  8
0
100
AcDbLine
 62
7
  6
CONTINUOUS
 10
100.4804378396
 20
123.3111150938
 11
100.4804378396
 21
122.7792002636
  0
LINE
  5
295
100
AcDbEntity
  8
0
100
AcDbLine
 62
7
  6
CONTINUOUS
 10
100.9075207955
 20
162.858987518
 11
100.9075207955
 21
162.6674980003
  0
LINE
  5
296
100
AcDbEntity
  8
0
100
AcDbLine
 62
7
  6
CONTINUOUS
 10
101.2825207955
 20
162.6036682207
 11
101.2825207955
 21
162.858987518
  0
LINE
  5
297
100
AcDbEntity
  8
0
100
AcDbLine
 62
7
  6
CONTINUOUS
 10
101.8450207955
 20
163.5611150938
 11
101.8450207955
 21
161.5823916573
  0
LINE
  5
298
100
AcDbEntity
  8
0
100
AcDbLine
 62
7
  6
CONTINUOUS
 10
102.2200209743
 20
161.5823916573
 11
102.2200209743
 21
163.5611150938
  0
LINE
  5
299
100
AcDbEntity
  8
0
100
AcDbLine
 62
7
  6
CONTINUOUS
 10
103.0325208551
 20
127.8114605904
 11
103.0325208551
 21
131.0611150938
  0
LINE
  5
29A
100
AcDbEntity
  8
0
100
AcDbLine
 62
7
  6
CONTINUOUS
 10
103.7200209743
 20
163.5611150938
 11
103.7200209743
 21
161.5823916573
  0
LINE
  5
29B
100
AcDbEntity
  8
0
100
AcDbLine
 62
7
  6
CONTINUOUS
 10
94.4387711605
 20
121.183455475
 11
94.5429378396
 21
121.8217532712
  0
LINE
  5
29C
100
AcDbEntity
  8
0
100
AcDbLine
 62
7
  6
CONTINUOUS
 10
94.0221045094
 20
121.8217532712
 11
93.9179378396
 21
121.289838441
  0
LINE
  5
29D
100
AcDbEntity
  8
0
100
AcDbLine
 62
7
  6
CONTINUOUS
 10
100.9075207955
 20
162.6674980003
 11
100.8450208551
 21
162.4760086614
  0
LINE
  5
29E
100
AcDbEntity
  8
0
100
AcDbLine
 62
7
  6
CONTINUOUS
 10
101.2200208551
 20
162.4121788818
 11
101.2825207955
 21
162.6036682207
  0
LINE
  5
29F
100
AcDbEntity
  8
0
100
AcDbLine
 62
7
  6
CONTINUOUS
 10
101.0325208551
 20
162.1568597633
 11
101.2200208551
 21
162.4121788818
  0
LINE
  5
2A0
100
AcDbEntity
  8
0
100
AcDbLine
 62
7
  6
CONTINUOUS
 10
100.8450208551
 20
162.4760086614
 11
100.7200207955
 21
162.3483491022
  0
LINE
  5
2A1
100
AcDbEntity
  8
0
100
AcDbLine
 62
7
  6
CONTINUOUS
 10
86.7396276573
 20
153.0182218961
 11
87.0931810268
 21
153.3717752656
  0
LINE
  5
2A2
100
AcDbEntity
  8
0
100
AcDbLine
 62
7
  6
CONTINUOUS
 10
88.1538411986
 20
154.4324354374
 11
88.4190062416
 21
154.6976004804
  0
LINE
  5
2A3
100
AcDbEntity
  8
0
100
AcDbLine
 62
7
  6
CONTINUOUS
 10
89.5238606715
 20
155.8024549103
 11
89.8332197196
 21
156.1118139584
  0
LINE
  5
2A4
100
AcDbEntity
  8
0
100
AcDbLine
 62
7
  6
CONTINUOUS
 10
90.1867732788
 20
156.4653675176
 11
90.4519380689
 21
156.7305323077
  0
LINE
  5
2A5
100
AcDbEntity
  8
0
100
AcDbLine
 62
7
  6
CONTINUOUS
 10
91.070656671
 20
157.3492509098
 11
91.4242102302
 21
157.702804469
  0
LINE
  5
2A6
100
AcDbEntity
  8
0
100
AcDbLine
 62
7
  6
CONTINUOUS
 10
92.0429283266
 20
158.3215225653
 11
92.3080933695
 21
158.5866876083
  0
LINE
  5
2A7
100
AcDbEntity
  8
0
100
AcDbLine
 62
7
  6
CONTINUOUS
 10
87.3592862817
 20
157.7902522676
 11
87.0931810268
 21
157.6144159527
  0
LINE
  5
2A8
100
AcDbEntity
  8
0
100
AcDbLine
 62
7
  6
CONTINUOUS
 10
87.363047635
 20
157.4329378608
 11
87.5407646265
 21
157.5203859123
  0
LINE
  5
2A9
100
AcDbEntity
  8
0
100
AcDbLine
 62
7
  6
CONTINUOUS
 10
106.3450206166
 20
161.0079235959
 11
106.0950208551
 21
160.9440938163
  0
LINE
  5
2AA
100
AcDbEntity
  8
0
100
AcDbLine
 62
7
  6
CONTINUOUS
 10
103.3450209743
 20
161.0079235959
 11
103.0950208551
 21
160.9440938163
  0
LINE
  5
2AB
100
AcDbEntity
  8
0
100
AcDbLine
 62
7
  6
CONTINUOUS
 10
106.0950208551
 20
160.5611150938
 11
106.4075210935
 21
160.6249448791
  0
LINE
  5
2AC
100
AcDbEntity
  8
0
100
AcDbLine
 62
7
  6
CONTINUOUS
 10
103.0950208551
 20
160.5611150938
 11
103.4075207358
 21
160.6249448791
  0
LINE
  5
2AD
100
AcDbEntity
  8
0
100
AcDbLine
 62
7
  6
CONTINUOUS
 10
87.6714664713
 20
157.8316256371
 11
87.3592862817
 21
157.7902522676
  0
LINE
  5
2AE
100
AcDbEntity
  8
0
100
AcDbLine
 62
7
  6
CONTINUOUS
 10
98.9700208551
 20
160.5611150938
 11
99.3450208551
 21
160.5611150938
  0
LINE
  5
2AF
100
AcDbEntity
  8
0
100
AcDbLine
 62
7
  6
CONTINUOUS
 10
100.9075207955
 20
160.5611150938
 11
101.3450209147
 21
160.5611150938
  0
LINE
  5
2B0
100
AcDbEntity
  8
0
100
AcDbLine
 62
7
  6
CONTINUOUS
 10
102.8450207358
 20
160.5611150938
 11
103.0950208551
 21
160.5611150938
  0
LINE
  5
2B1
100
AcDbEntity
  8
0
100
AcDbLine
 62
7
  6
CONTINUOUS
 10
104.5950208551
 20
160.5611150938
 11
106.0950208551
 21
160.5611150938
  0
LINE
  5
2B2
100
AcDbEntity
  8
0
100
AcDbLine
 62
7
  6
CONTINUOUS
 10
106.0950208551
 20
160.9440938163
 11
104.9700208551
 21
160.9440938163
  0
LINE
  5
2B3
100
AcDbEntity
  8
0
100
AcDbLine
 62
7
  6
CONTINUOUS
 10
103.0950208551
 20
160.9440938163
 11
102.8450207358
 21
160.9440938163
  0
LINE
  5
2B4
100
AcDbEntity
  8
0
100
AcDbLine
 62
7
  6
CONTINUOUS
 10
99.3450208551
 20
161.9015406448
 11
100.4075208253
 21
161.9015406448
  0
LINE
  5
2B5
100
AcDbEntity
  8
0
100
AcDbLine
 62
7
  6
CONTINUOUS
 10
100.5325207955
 20
162.2845193225
 11
99.3450208551
 21
162.2845193225
  0
LINE
  5
2B6
100
AcDbEntity
  8
0
100
AcDbLine
 62
7
  6
CONTINUOUS
 10
104.9700208551
 20
163.1781364161
 11
106.0950208551
 21
163.1781364161
  0
LINE
  5
2B7
100
AcDbEntity
  8
0
100
AcDbLine
 62
7
  6
CONTINUOUS
 10
99.3450208551
 20
163.2419661957
 11
100.5325207955
 21
163.2419661957
  0
LINE
  5
2B8
100
AcDbEntity
  8
0
100
AcDbLine
 62
7
  6
CONTINUOUS
 10
106.0950208551
 20
163.5611150938
 11
104.5950208551
 21
163.5611150938
  0
LINE
  5
2B9
100
AcDbEntity
  8
0
100
AcDbLine
 62
7
  6
CONTINUOUS
 10
104.0950209743
 20
163.5611150938
 11
103.7200209743
 21
163.5611150938
  0
LINE
  5
2BA
100
AcDbEntity
  8
0
100
AcDbLine
 62
7
  6
CONTINUOUS
 10
102.2200209743
 20
163.5611150938
 11
101.8450207955
 21
163.5611150938
  0
LINE
  5
2BB
100
AcDbEntity
  8
0
100
AcDbLine
 62
7
  6
CONTINUOUS
 10
100.4700208551
 20
163.5611150938
 11
98.9700208551
 21
163.5611150938
  0
LINE
  5
2BC
100
AcDbEntity
  8
0
100
AcDbLine
 62
7
  6
CONTINUOUS
 10
102.5325208551
 20
160.6249448791
 11
102.8450207358
 21
160.5611150938
  0
LINE
  5
2BD
100
AcDbEntity
  8
0
100
AcDbLine
 62
7
  6
CONTINUOUS
 10
100.7825209147
 20
163.4972853142
 11
100.4700208551
 21
163.5611150938
  0
LINE
  5
2BE
100
AcDbEntity
  8
0
100
AcDbLine
 62
7
  6
CONTINUOUS
 10
106.4075210935
 20
163.4972853142
 11
106.0950208551
 21
163.5611150938
  0
LINE
  5
2BF
100
AcDbEntity
  8
0
100
AcDbLine
 62
7
  6
CONTINUOUS
 10
102.8450207358
 20
160.9440938163
 11
102.5950209743
 21
161.0079235959
  0
LINE
  5
2C0
100
AcDbEntity
  8
0
100
AcDbLine
 62
7
  6
CONTINUOUS
 10
106.0950208551
 20
163.1781364161
 11
106.3450206166
 21
163.1143066365
  0
LINE
  5
2C1
100
AcDbEntity
  8
0
100
AcDbLine
 62
7
  6
CONTINUOUS
 10
100.5325207955
 20
163.2419661957
 11
100.7200207955
 21
163.1781364161
  0
LINE
  5
2C2
100
AcDbEntity
  8
0
100
AcDbLine
 62
7
  6
CONTINUOUS
 10
102.2825207358
 20
160.7526044551
 11
102.5325208551
 21
160.6249448791
  0
LINE
  5
2C3
100
AcDbEntity
  8
0
100
AcDbLine
 62
7
  6
CONTINUOUS
 10
102.5950209743
 20
161.0079235959
 11
102.4075209743
 21
161.1355831999
  0
LINE
  5
2C4
100
AcDbEntity
  8
0
100
AcDbLine
 62
7
  6
CONTINUOUS
 10
101.0325208551
 20
163.3057959753
 11
100.7825209147
 21
163.4972853142
  0
LINE
  5
2C5
100
AcDbEntity
  8
0
100
AcDbLine
 62
7
  6
CONTINUOUS
 10
102.0325209743
 20
161.0079235959
 11
102.2825207358
 21
160.7526044551
  0
LINE
  5
2C6
100
AcDbEntity
  8
0
100
AcDbLine
 62
7
  6
CONTINUOUS
 10
100.7200207955
 20
163.1781364161
 11
100.8450208551
 21
163.0504768568
  0
LINE
  5
2C7
100
AcDbEntity
  8
0
100
AcDbLine
 62
7
  6
CONTINUOUS
 10
101.2200208551
 20
163.0504768568
 11
101.0325208551
 21
163.3057959753
  0
LINE
  5
2C8
100
AcDbEntity
  8
0
100
AcDbLine
 62
7
  6
CONTINUOUS
 10
102.4075209743
 20
161.1355831999
 11
102.2825207358
 21
161.3270725388
  0
LINE
  5
2C9
100
AcDbEntity
  8
0
100
AcDbLine
 62
7
  6
CONTINUOUS
 10
101.9075209147
 20
161.2632427591
 11
102.0325209743
 21
161.0079235959
  0
LINE
  5
2CA
100
AcDbEntity
  8
0
100
AcDbLine
 62
7
  6
CONTINUOUS
 10
101.3450209147
 20
160.5611150938
 11
100.7825209147
 21
162.029200204
  0
LINE
  5
2CB
100
AcDbEntity
  8
0
100
AcDbLine
 62
7
  6
CONTINUOUS
 10
100.4075208253
 20
161.9015406448
 11
100.9075207955
 21
160.5611150938
  0
LINE
  5
2CC
100
AcDbEntity
  8
0
100
AcDbLine
 62
7
  6
CONTINUOUS
 10
100.8450208551
 20
163.0504768568
 11
100.9075207955
 21
162.858987518
  0
LINE
  5
2CD
100
AcDbEntity
  8
0
100
AcDbLine
 62
7
  6
CONTINUOUS
 10
101.2825207955
 20
162.858987518
 11
101.2200208551
 21
163.0504768568
  0
LINE
  5
2CE
100
AcDbEntity
  8
0
100
AcDbLine
 62
7
  6
CONTINUOUS
 10
102.2825207358
 20
161.3270725388
 11
102.2200209743
 21
161.5823916573
  0
LINE
  5
2CF
100
AcDbEntity
  8
0
100
AcDbLine
 62
7
  6
CONTINUOUS
 10
101.8450207955
 20
161.5823916573
 11
101.9075209147
 21
161.2632427591
  0
LINE
  5
2D0
100
AcDbEntity
  8
0
100
AcDbLine
 62
7
  6
CONTINUOUS
 10
104.0950209743
 20
161.5823916573
 11
104.0950209743
 21
163.5611150938
  0
LINE
  5
2D1
100
AcDbEntity
  8
0
100
AcDbLine
 62
7
  6
CONTINUOUS
 10
104.2304378396
 20
122.7792002636
 11
104.2304378396
 21
123.3111150938
  0
LINE
  5
2D2
100
AcDbEntity
  8
0
100
AcDbLine
 62
7
  6
CONTINUOUS
 10
104.5950208551
 20
163.5611150938
 11
104.5950208551
 21
160.5611150938
  0
LINE
  5
2D3
100
AcDbEntity
  8
0
100
AcDbLine
 62
7
  6
CONTINUOUS
 10
104.9700208551
 20
160.9440938163
 11
104.9700208551
 21
163.1781364161
  0
LINE
  5
2D4
100
AcDbEntity
  8
0
100
AcDbLine
 62
7
  6
CONTINUOUS
 10
105.0637715703
 20
123.3111150938
 11
105.0637715703
 21
120.5451576787
  0
LINE
  5
2D5
100
AcDbEntity
  8
0
100
AcDbLine
 62
7
  6
CONTINUOUS
 10
105.5846041089
 20
121.077072509
 11
105.5846041089
 21
122.7792002636
  0
LINE
  5
2D6
100
AcDbEntity
  8
0
100
AcDbLine
 62
7
  6
CONTINUOUS
 10
106.7200206166
 20
162.539838441
 11
106.7200206166
 21
161.5823916573
  0
LINE
  5
2D7
100
AcDbEntity
  8
0
100
AcDbLine
 62
7
  6
CONTINUOUS
 10
107.0950206166
 20
161.5823916573
 11
107.0950206166
 21
162.539838441
  0
LINE
  5
2D8
100
AcDbEntity
  8
0
100
AcDbLine
 62
7
  6
CONTINUOUS
 10
108.2929378396
 20
120.0132426995
 11
108.2929378396
 21
119.8004767674
  0
LINE
  5
2D9
100
AcDbEntity
  8
0
100
AcDbLine
 62
7
  6
CONTINUOUS
 10
108.6054378396
 20
122.7792002636
 11
108.6054378396
 21
123.3111150938
  0
LINE
  5
2DA
100
AcDbEntity
  8
0
100
AcDbLine
 62
7
  6
CONTINUOUS
 10
108.8137715703
 20
119.6940938014
 11
108.8137715703
 21
120.1196256656
  0
LINE
  5
2DB
100
AcDbEntity
  8
0
100
AcDbLine
 62
7
  6
CONTINUOUS
 10
97.1471044069
 20
120.4387747127
 11
97.0429378396
 21
119.8004767674
  0
LINE
  5
2DC
100
AcDbEntity
  8
0
100
AcDbLine
 62
7
  6
CONTINUOUS
 10
104.0325208551
 20
161.2632427591
 11
104.0950209743
 21
161.5823916573
  0
LINE
  5
2DD
100
AcDbEntity
  8
0
100
AcDbLine
 62
7
  6
CONTINUOUS
 10
97.5637712723
 20
119.8004767674
 11
97.6679378396
 21
120.3323917467
  0
LINE
  5
2DE
100
AcDbEntity
  8
0
100
AcDbLine
 62
7
  6
CONTINUOUS
 10
107.0325208551
 20
161.2632427591
 11
107.0950206166
 21
161.5823916573
  0
LINE
  5
2DF
100
AcDbEntity
  8
0
100
AcDbLine
 62
7
  6
CONTINUOUS
 10
103.7200209743
 20
161.5823916573
 11
103.6575208551
 21
161.3270725388
  0
LINE
  5
2E0
100
AcDbEntity
  8
0
100
AcDbLine
 62
7
  6
CONTINUOUS
 10
106.7200206166
 20
161.5823916573
 11
106.6575208551
 21
161.3270725388
  0
LINE
  5
2E1
100
AcDbEntity
  8
0
100
AcDbLine
 62
7
  6
CONTINUOUS
 10
94.1262711792
 20
122.1409024674
 11
94.0221045094
 21
121.8217532712
  0
LINE
  5
2E2
100
AcDbEntity
  8
0
100
AcDbLine
 62
7
  6
CONTINUOUS
 10
103.9075209743
 20
161.0079235959
 11
104.0325208551
 21
161.2632427591
  0
LINE
  5
2E3
100
AcDbEntity
  8
0
100
AcDbLine
 62
7
  6
CONTINUOUS
 10
106.9075206166
 20
161.0079235959
 11
107.0325208551
 21
161.2632427591
  0
LINE
  5
2E4
100
AcDbEntity
  8
0
100
AcDbLine
 62
7
  6
CONTINUOUS
 10
103.6575208551
 20
161.3270725388
 11
103.5325209743
 21
161.1355831999
  0
LINE
  5
2E5
100
AcDbEntity
  8
0
100
AcDbLine
 62
7
  6
CONTINUOUS
 10
106.6575208551
 20
161.3270725388
 11
106.5325206166
 21
161.1355831999
  0
LINE
  5
2E6
100
AcDbEntity
  8
0
100
AcDbLine
 62
7
  6
CONTINUOUS
 10
103.6575208551
 20
160.7526044551
 11
103.9075209743
 21
161.0079235959
  0
LINE
  5
2E7
100
AcDbEntity
  8
0
100
AcDbLine
 62
7
  6
CONTINUOUS
 10
106.6575208551
 20
160.7526044551
 11
106.9075206166
 21
161.0079235959
  0
LINE
  5
2E8
100
AcDbEntity
  8
0
100
AcDbLine
 62
7
  6
CONTINUOUS
 10
103.5325209743
 20
161.1355831999
 11
103.3450209743
 21
161.0079235959
  0
LINE
  5
2E9
100
AcDbEntity
  8
0
100
AcDbLine
 62
7
  6
CONTINUOUS
 10
106.5325206166
 20
161.1355831999
 11
106.3450206166
 21
161.0079235959
  0
LINE
  5
2EA
100
AcDbEntity
  8
0
100
AcDbLine
 62
7
  6
CONTINUOUS
 10
100.7825209147
 20
162.029200204
 11
101.0325208551
 21
162.1568597633
  0
LINE
  5
2EB
100
AcDbEntity
  8
0
100
AcDbLine
 62
7
  6
CONTINUOUS
 10
103.4075207358
 20
160.6249448791
 11
103.6575208551
 21
160.7526044551
  0
LINE
  5
2EC
100
AcDbEntity
  8
0
100
AcDbLine
 62
7
  6
CONTINUOUS
 10
106.4075210935
 20
160.6249448791
 11
106.6575208551
 21
160.7526044551
  0
LINE
  5
2ED
100
AcDbEntity
  8
0
100
AcDbLine
 62
7
  6
CONTINUOUS
 10
100.7200207955
 20
162.3483491022
 11
100.5325207955
 21
162.2845193225
  0
LINE
  5
2EE
100
AcDbEntity
  8
RUNDUNGEN
100
AcDbLine
 62
7
  6
CONTINUOUS
 10
103.7978877198
 20
169.2440897583
 11
122.3938089065
 21
161.5414069979
  0
LINE
  5
2EF
100
AcDbEntity
  8
0
100
AcDbLine
 62
7
  6
CONTINUOUS
 10
106.6575208551
 20
163.369625755
 11
106.4075210935
 21
163.4972853142
  0
LINE
  5
2F0
100
AcDbEntity
  8
0
100
AcDbLine
 62
7
  6
CONTINUOUS
 10
106.3450206166
 20
163.1143066365
 11
106.5325206166
 21
162.9866470772
  0
LINE
  5
2F1
100
AcDbEntity
  8
0
100
AcDbLine
 62
7
  6
CONTINUOUS
 10
106.9075206166
 20
163.1143066365
 11
106.6575208551
 21
163.369625755
  0
LINE
  5
2F2
100
AcDbEntity
  8
0
100
AcDbLine
 62
7
  6
CONTINUOUS
 10
106.5325206166
 20
162.9866470772
 11
106.6575208551
 21
162.7951575595
  0
LINE
  5
2F3
100
AcDbEntity
  8
0
100
AcDbLine
 62
7
  6
CONTINUOUS
 10
107.0325208551
 20
162.858987518
 11
106.9075206166
 21
163.1143066365
  0
LINE
  5
2F4
100
AcDbEntity
  8
0
100
AcDbLine
 62
7
  6
CONTINUOUS
 10
106.6575208551
 20
162.7951575595
 11
106.7200206166
 21
162.539838441
  0
LINE
  5
2F5
100
AcDbEntity
  8
0
100
AcDbLine
 62
7
  6
CONTINUOUS
 10
107.0950206166
 20
162.539838441
 11
107.0325208551
 21
162.858987518
  0
LINE
  5
2F6
100
AcDbEntity
  8
0
100
AcDbLine
 62
7
  6
CONTINUOUS
 10
109.6471041089
 20
121.7153703052
 11
109.6471041089
 21
121.289838441
  0
LINE
  5
2F7
100
AcDbEntity
  8
0
100
AcDbLine
 62
7
  6
CONTINUOUS
 10
110.0325208551
 20
128.5161036926
 11
110.0325208551
 21
131.0611150938
  0
LINE
  5
2F8
100
AcDbEntity
  8
0
100
AcDbLine
 62
7
  6
CONTINUOUS
 10
110.4804378396
 20
122.5664343316
 11
110.4804378396
 21
121.7153703052
  0
LINE
  5
2F9
100
AcDbEntity
  8
0
100
AcDbLine
 62
7
  6
CONTINUOUS
 10
110.4804378396
 20
121.289838441
 11
110.4804378396
 21
119.1621788967
  0
LINE
  5
2FA
100
AcDbEntity
  8
0
100
AcDbLine
 62
7
  6
CONTINUOUS
 10
111.0012715703
 20
119.3749449033
 11
111.0012715703
 21
121.289838441
  0
LINE
  5
2FB
100
AcDbEntity
  8
0
100
AcDbLine
 62
7
  6
CONTINUOUS
 10
111.0012715703
 20
121.7153703052
 11
111.0012715703
 21
122.5664343316
  0
LINE
  5
2FC
100
AcDbEntity
  8
0
100
AcDbLine
 62
7
  6
CONTINUOUS
 10
111.9387715703
 20
118.3111150938
 11
111.9387715703
 21
118.7366469953
  0
LINE
  5
2FD
100
AcDbEntity
  8
0
100
AcDbLine
 62
7
  6
CONTINUOUS
 10
112.1471041089
 20
121.289838441
 11
112.1471041089
 21
121.7153703052
  0
LINE
  5
2FE
100
AcDbEntity
  8
0
100
AcDbLine
 62
7
  6
CONTINUOUS
 10
112.9325208551
 20
114.3111150938
 11
112.9325208551
 21
114.0611150938
  0
LINE
  5
2FF
100
AcDbEntity
  8
0
100
AcDbLine
 62
7
  6
CONTINUOUS
 10
97.4596044069
 20
119.4813278693
 11
97.5637712723
 21
119.8004767674
  0
LINE
  5
300
100
AcDbEntity
  8
0
100
AcDbLine
 62
7
  6
CONTINUOUS
 10
94.3346045187
 20
122.5664343316
 11
94.1262711792
 21
122.1409024674
  0
LINE
  5
301
100
AcDbEntity
  8
0
100
AcDbLine
 62
7
  6
CONTINUOUS
 10
97.2512712723
 20
119.0557959306
 11
97.4596044069
 21
119.4813278693
  0
LINE
  5
302
100
AcDbEntity
  8
0
100
AcDbLine
 62
7
  6
CONTINUOUS
 10
94.5429378396
 20
121.8217532712
 11
94.9596044814
 21
122.4600513655
  0
LINE
  5
303
100
AcDbEntity
  8
0
100
AcDbLine
 62
7
  6
CONTINUOUS
 10
108.2929378396
 20
119.8004767674
 11
108.1887715703
 21
119.4813278693
  0
LINE
  5
304
100
AcDbEntity
  8
0
100
AcDbLine
 62
7
  6
CONTINUOUS
 10
103.6054378396
 20
122.7792002636
 11
101.522104705
 21
118.3111150938
  0
LINE
  5
305
100
AcDbEntity
  8
0
100
AcDbLine
 62
7
  6
CONTINUOUS
 10
102.147104705
 20
118.3111150938
 11
104.2304378396
 21
122.7792002636
  0
LINE
  5
306
100
AcDbEntity
  8
0
100
AcDbLine
 62
7
  6
CONTINUOUS
 10
99.1262709743
 20
118.8430299986
 11
98.5012712723
 21
117.6728172231
  0
LINE
  5
307
100
AcDbEntity
  8
0
100
AcDbLine
 62
7
  6
CONTINUOUS
 10
99.022104705
 20
117.6728172231
 11
99.647104705
 21
118.8430299986
  0
LINE
  5
308
100
AcDbEntity
  8
0
100
AcDbLine
 62
7
  6
CONTINUOUS
 10
97.0429378396
 20
119.8004767674
 11
96.6262712723
 21
119.1621788967
  0
LINE
  5
309
100
AcDbEntity
  8
RUNDUNGEN
100
AcDbLine
 62
7
  6
CONTINUOUS
 10
123.4762011068
 20
160.4590147976
 11
130.513041438
 21
143.4705794337
  0
LINE
  5
30A
100
AcDbEntity
  8
BEZUGSACHSEN
100
AcDbLine
 62
7
  6
CONTINUOUS
 10
130.513041438
 20
143.4705794337
 11
131.0274387882
 21
142.2287143744
  0
LINE
  5
30B
100
AcDbEntity
  8
BEZUGSACHSEN
100
AcDbLine
 62
7
  6
CONTINUOUS
 10
126.5325208551
 20
130.0588979878
 11
126.5325208551
 21
124.3111150938
  0
LINE
  5
30C
100
AcDbEntity
  8
RUNDUNGEN
100
AcDbLine
 62
7
  6
CONTINUOUS
 10
126.5325208551
 20
130.0588969349
 11
126.5325208551
 21
124.3111150938
  0
LINE
  5
30D
100
AcDbEntity
  8
0
100
AcDbLine
 62
7
  6
CONTINUOUS
 10
108.6054378396
 20
119.1621788967
 11
108.8137715703
 21
119.6940938014
  0
LINE
  5
30E
100
AcDbEntity
  8
0
100
AcDbLine
 62
7
  6
CONTINUOUS
 10
94.6471044814
 20
122.8855832297
 11
94.3346045187
 21
122.5664343316
  0
LINE
  5
30F
100
AcDbEntity
  8
0
100
AcDbLine
 62
7
  6
CONTINUOUS
 10
108.1887715703
 20
119.4813278693
 11
107.9804378396
 21
119.1621788967
  0
LINE
  5
310
100
AcDbEntity
  8
0
100
AcDbLine
 62
7
  6
CONTINUOUS
 10
108.2929378396
 20
118.7366469953
 11
108.6054378396
 21
119.1621788967
  0
LINE
  5
311
100
AcDbEntity
  8
0
100
AcDbLine
 62
7
  6
CONTINUOUS
 10
96.9387712723
 20
118.7366469953
 11
97.2512712723
 21
119.0557959306
  0
LINE
  5
312
100
AcDbEntity
  8
0
100
AcDbLine
 62
7
  6
CONTINUOUS
 10
94.9596044814
 20
122.4600513655
 11
95.272104556
 21
122.6728172976
  0
LINE
  5
313
100
AcDbEntity
  8
0
100
AcDbLine
 62
7
  6
CONTINUOUS
 10
95.1679378396
 20
123.2047321278
 11
94.6471044814
 21
122.8855832297
  0
LINE
  5
314
100
AcDbEntity
  8
BEZUGSACHSEN
100
AcDbLine
 62
7
  6
CONTINUOUS
 10
131.0383524017
 20
140.5797661837
 11
126.6210253358
 21
129.9153952718
  0
LINE
  5
315
100
AcDbEntity
  8
BEZUGSACHSEN
100
AcDbLine
 62
7
  6
CONTINUOUS
 10
123.4222227854
 20
122.1928027711
 11
122.5675879132
 21
120.1295316719
  0
LINE
  5
316
100
AcDbEntity
  8
0
100
AcDbLine
 62
7
  6
CONTINUOUS
 10
105.7929378396
 20
120.5451576787
 11
106.2096041089
 21
120.8643065769
  0
LINE
  5
317
100
AcDbEntity
  8
0
100
AcDbLine
 62
7
  6
CONTINUOUS
 10
96.6262712723
 20
119.1621788967
 11
96.3137711233
 21
118.9494129646
  0
LINE
  5
318
100
AcDbEntity
  8
0
100
AcDbLine
 62
7
  6
CONTINUOUS
 10
96.4179378396
 20
118.4174980692
 11
96.9387712723
 21
118.7366469953
  0
LINE
  5
319
100
AcDbEntity
  8
0
100
AcDbLine
 62
7
  6
CONTINUOUS
 10
107.9804378396
 20
119.1621788967
 11
107.6679378396
 21
118.9494129646
  0
LINE
  5
31A
100
AcDbEntity
  8
0
100
AcDbLine
 62
7
  6
CONTINUOUS
 10
106.1054378396
 20
121.3962214071
 11
105.5846041089
 21
121.077072509
  0
LINE
  5
31B
100
AcDbEntity
  8
0
100
AcDbLine
 62
7
  6
CONTINUOUS
 10
107.7721041089
 20
118.4174980692
 11
108.2929378396
 21
118.7366469953
  0
LINE
  5
31C
100
AcDbEntity
  8
0
100
AcDbLine
 62
7
  6
CONTINUOUS
 10
166.9300783145
 20
114.0611150938
 11
186.7300783145
 21
114.0611150938
  0
LINE
  5
31D
100
AcDbEntity
  8
BEZUGSACHSEN
100
AcDbLine
 62
7
  6
CONTINUOUS
 10
161.8300792058
 20
114.3111150938
 11
191.8300774231
 21
114.3111150938
  0
LINE
  5
31E
100
AcDbEntity
  8
0
100
AcDbLine
 62
7
  6
CONTINUOUS
 10
161.1155264685
 20
117.6728172231
 11
160.9819258011
 21
117.6728172231
  0
LINE
  5
31F
100
AcDbEntity
  8
0
100
AcDbLine
 62
7
  6
CONTINUOUS
 10
192.0483008811
 20
117.6728172231
 11
192.6782308279
 21
117.6728172231
  0
LINE
  5
320
100
AcDbEntity
  8
0
100
AcDbLine
 62
7
  6
CONTINUOUS
 10
162.9625605156
 20
118.3111150938
 11
162.3955994582
 21
118.3111150938
  0
LINE
  5
321
100
AcDbEntity
  8
0
100
AcDbLine
 62
7
  6
CONTINUOUS
 10
160.4866740917
 20
118.3111150938
 11
161.4033179145
 21
118.3111150938
  0
LINE
  5
322
100
AcDbEntity
  8
0
100
AcDbLine
 62
7
  6
CONTINUOUS
 10
191.3993916397
 20
118.3111150938
 11
191.9448436538
 21
118.3111150938
  0
LINE
  5
323
100
AcDbEntity
  8
0
100
AcDbLine
 62
7
  6
CONTINUOUS
 10
192.880064932
 20
118.3111150938
 11
193.1734825373
 21
118.3111150938
  0
LINE
  5
324
100
AcDbEntity
  8
0
100
AcDbLine
 62
7
  6
CONTINUOUS
 10
161.4923743844
 20
118.4174980692
 11
160.967627844
 21
118.4174980692
  0
LINE
  5
325
100
AcDbEntity
  8
0
100
AcDbLine
 62
7
  6
CONTINUOUS
 10
191.1832816878
 20
118.4174980692
 11
191.7357225882
 21
118.4174980692
  0
LINE
  5
326
100
AcDbEntity
  8
0
100
AcDbLine
 62
7
  6
CONTINUOUS
 10
162.8522344943
 20
118.7366469953
 11
162.286434706
 21
118.7366469953
  0
LINE
  5
327
100
AcDbEntity
  8
0
100
AcDbLine
 62
7
  6
CONTINUOUS
 10
161.5466390356
 20
118.7366469953
 11
161.0187684944
 21
118.7366469953
  0
LINE
  5
328
100
AcDbEntity
  8
0
100
AcDbLine
 62
7
  6
CONTINUOUS
 10
191.0438403634
 20
118.7366469953
 11
191.6022732079
 21
118.7366469953
  0
LINE
  5
329
100
AcDbEntity
  8
0
100
AcDbLine
 62
7
  6
CONTINUOUS
 10
162.5894484395
 20
118.8430299986
 11
162.0312558885
 21
118.8430299986
  0
LINE
  5
32A
100
AcDbEntity
  8
0
100
AcDbLine
 62
7
  6
CONTINUOUS
 10
160.7638505462
 20
118.8430299986
 11
160.6508555084
 21
118.8430299986
  0
LINE
  5
32B
100
AcDbEntity
  8
0
100
AcDbLine
 62
7
  6
CONTINUOUS
 10
192.4711743349
 20
118.8430299986
 11
193.0427961003
 21
118.8430299986
  0
LINE
  5
32C
100
AcDbEntity
  8
0
100
AcDbLine
 62
7
  6
CONTINUOUS
 10
160.8260307282
 20
118.9494129646
 11
160.562814452
 21
118.9494129646
  0
LINE
  5
32D
100
AcDbEntity
  8
0
100
AcDbLine
 62
7
  6
CONTINUOUS
 10
191.9063469806
 20
118.9494129646
 11
192.2739548432
 21
118.9494129646
  0
LINE
  5
32E
100
AcDbEntity
  8
0
100
AcDbLine
 62
7
  6
CONTINUOUS
 10
162.4037764181
 20
119.0557959306
 11
161.8500386309
 21
119.0557959306
  0
LINE
  5
32F
100
AcDbEntity
  8
0
100
AcDbLine
 62
7
  6
CONTINUOUS
 10
190.9861557063
 20
119.0557959306
 11
191.5481187172
 21
119.0557959306
  0
LINE
  5
330
100
AcDbEntity
  8
0
100
AcDbLine
 62
7
  6
CONTINUOUS
 10
161.5316693481
 20
119.1621788967
 11
161.0019488374
 21
119.1621788967
  0
LINE
  5
331
100
AcDbEntity
  8
0
100
AcDbLine
 62
7
  6
CONTINUOUS
 10
160.8481918113
 20
119.1621788967
 11
160.4735694948
 21
119.1621788967
  0
LINE
  5
332
100
AcDbEntity
  8
0
100
AcDbLine
 62
7
  6
CONTINUOUS
 10
191.8857615521
 20
119.1621788967
 11
192.4220316875
 21
119.1621788967
  0
LINE
  5
333
100
AcDbEntity
  8
0
100
AcDbLine
 62
7
  6
CONTINUOUS
 10
162.2821554184
 20
119.3749449033
 11
161.7302984422
 21
119.3749449033
  0
LINE
  5
334
100
AcDbEntity
  8
0
100
AcDbLine
 62
7
  6
CONTINUOUS
 10
191.0001759116
 20
119.4813278693
 11
191.5640250247
 21
119.4813278693
  0
LINE
  5
335
100
AcDbEntity
  8
0
100
AcDbLine
 62
7
  6
CONTINUOUS
 10
160.8097281913
 20
119.5877108354
 11
160.2897244877
 21
119.5877108354
  0
LINE
  5
336
100
AcDbEntity
  8
0
100
AcDbLine
 62
7
  6
CONTINUOUS
 10
161.466750548
 20
119.6940938014
 11
160.9359608475
 21
119.6940938014
  0
LINE
  5
337
100
AcDbEntity
  8
0
100
AcDbLine
 62
7
  6
CONTINUOUS
 10
191.0342713783
 20
119.8004767674
 11
191.5987937688
 21
119.8004767674
  0
LINE
  5
338
100
AcDbEntity
  8
0
100
AcDbLine
 62
7
  6
CONTINUOUS
 10
192.1591677487
 20
119.8004767674
 11
192.6914191882
 21
119.8004767674
  0
LINE
  5
339
100
AcDbEntity
  8
0
100
AcDbLine
 62
7
  6
CONTINUOUS
 10
161.3555606868
 20
120.1196256656
 11
160.838750736
 21
120.1196256656
  0
LINE
  5
33A
100
AcDbEntity
  8
0
100
AcDbLine
 62
7
  6
CONTINUOUS
 10
191.1233134765
 20
120.3323917467
 11
191.6879534816
 21
120.3323917467
  0
LINE
  5
33B
100
AcDbEntity
  8
0
100
AcDbLine
 62
7
  6
CONTINUOUS
 10
192.3354559716
 20
120.4387747127
 11
192.866376706
 21
120.4387747127
  0
LINE
  5
33C
100
AcDbEntity
  8
0
100
AcDbLine
 62
7
  6
CONTINUOUS
 10
160.0844468306
 20
120.5451576787
 11
160.5540410357
 21
120.5451576787
  0
LINE
  5
33D
100
AcDbEntity
  8
0
100
AcDbLine
 62
7
  6
CONTINUOUS
 10
161.1920728373
 20
120.6515406448
 11
160.6634902655
 21
120.6515406448
  0
LINE
  5
33E
100
AcDbEntity
  8
0
100
AcDbLine
 62
7
  6
CONTINUOUS
 10
160.3999093688
 20
120.8643065769
 11
160.147023022
 21
120.8643065769
  0
LINE
  5
33F
100
AcDbEntity
  8
0
100
AcDbLine
 62
7
  6
CONTINUOUS
 10
160.1860723903
 20
120.9706895429
 11
160.2941553797
 21
120.9706895429
  0
LINE
  5
340
100
AcDbEntity
  8
0
100
AcDbLine
 62
7
  6
CONTINUOUS
 10
161.0171563422
 20
121.077072509
 11
160.4908558519
 21
121.077072509
  0
LINE
  5
341
100
AcDbEntity
  8
0
100
AcDbLine
 62
7
  6
CONTINUOUS
 10
192.5062884262
 20
121.183455475
 11
193.0365963124
 21
121.183455475
  0
LINE
  5
342
100
AcDbEntity
  8
0
100
AcDbLine
 62
7
  6
CONTINUOUS
 10
160.8059159143
 20
121.289838441
 11
161.0753681175
 21
121.289838441
  0
LINE
  5
343
100
AcDbEntity
  8
0
100
AcDbLine
 62
7
  6
CONTINUOUS
 10
161.2625419013
 20
121.289838441
 11
162.2901925381
 21
121.289838441
  0
LINE
  5
344
100
AcDbEntity
  8
0
100
AcDbLine
 62
7
  6
CONTINUOUS
 10
191.3699641989
 20
121.289838441
 11
191.9322199553
 21
121.289838441
  0
LINE
  5
345
100
AcDbEntity
  8
0
100
AcDbLine
 62
7
  6
CONTINUOUS
 10
160.781150036
 20
121.3962214071
 11
160.3033517153
 21
121.3962214071
  0
LINE
  5
346
100
AcDbEntity
  8
0
100
AcDbLine
 62
7
  6
CONTINUOUS
 10
160.6974469705
 20
121.5026043731
 11
160.0700028649
 21
121.5026043731
  0
LINE
  5
347
100
AcDbEntity
  8
0
100
AcDbLine
 62
7
  6
CONTINUOUS
 10
162.1810828529
 20
121.7153703052
 11
161.1591484718
 21
121.7153703052
  0
LINE
  5
348
100
AcDbEntity
  8
0
100
AcDbLine
 62
7
  6
CONTINUOUS
 10
160.9737960746
 20
121.7153703052
 11
160.706896068
 21
121.7153703052
  0
LINE
  5
349
100
AcDbEntity
  8
0
100
AcDbLine
 62
7
  6
CONTINUOUS
 10
191.5525354894
 20
121.8217532712
 11
192.1121818193
 21
121.8217532712
  0
LINE
  5
34A
100
AcDbEntity
  8
0
100
AcDbLine
 62
7
  6
CONTINUOUS
 10
192.6241712727
 20
121.8217532712
 11
193.1546892913
 21
121.8217532712
  0
LINE
  5
34B
100
AcDbEntity
  8
0
100
AcDbLine
 62
7
  6
CONTINUOUS
 10
191.6789494407
 20
122.1409024674
 11
192.2365842672
 21
122.1409024674
  0
LINE
  5
34C
100
AcDbEntity
  8
0
100
AcDbLine
 62
7
  6
CONTINUOUS
 10
192.6535136524
 20
122.4600513655
 11
193.1864671798
 21
122.4600513655
  0
LINE
  5
34D
100
AcDbEntity
  8
0
100
AcDbLine
 62
7
  6
CONTINUOUS
 10
161.4993150718
 20
122.5664343316
 11
160.771130286
 21
122.5664343316
  0
LINE
  5
34E
100
AcDbEntity
  8
0
100
AcDbLine
 62
7
  6
CONTINUOUS
 10
191.8740484249
 20
122.5664343316
 11
192.4283202541
 21
122.5664343316
  0
LINE
  5
34F
100
AcDbEntity
  8
0
100
AcDbLine
 62
7
  6
CONTINUOUS
 10
192.8071997302
 20
122.6728172976
 11
193.1448572238
 21
122.6728172976
  0
LINE
  5
350
100
AcDbEntity
  8
0
100
AcDbLine
 62
7
  6
CONTINUOUS
 10
159.605656958
 20
122.7792002636
 11
159.549077784
 21
122.7792002636
  0
LINE
  5
351
100
AcDbEntity
  8
0
100
AcDbLine
 62
7
  6
CONTINUOUS
 10
159.5189662228
 20
122.7792002636
 11
159.5258477914
 21
122.7792002636
  0
LINE
  5
352
100
AcDbEntity
  8
0
100
AcDbLine
 62
7
  6
CONTINUOUS
 10
159.6559818675
 20
122.7792002636
 11
160.7088559382
 21
122.7792002636
  0
LINE
  5
353
100
AcDbEntity
  8
0
100
AcDbLine
 62
7
  6
CONTINUOUS
 10
193.4898192229
 20
122.7792002636
 11
194.1411904062
 21
122.7792002636
  0
LINE
  5
354
100
AcDbEntity
  8
0
100
AcDbLine
 62
7
  6
CONTINUOUS
 10
192.0794877996
 20
122.8855832297
 11
192.6296828492
 21
122.8855832297
  0
LINE
  5
355
100
AcDbEntity
  8
0
100
AcDbLine
 62
7
  6
CONTINUOUS
 10
192.353963961
 20
123.2047321278
 11
192.8983698408
 21
123.2047321278
  0
LINE
  5
356
100
AcDbEntity
  8
0
100
AcDbLine
 62
7
  6
CONTINUOUS
 10
160.5883825663
 20
123.3111150938
 11
159.4058991104
 21
123.3111150938
  0
LINE
  5
357
100
AcDbEntity
  8
0
100
AcDbLine
 62
7
  6
CONTINUOUS
 10
192.5948531901
 20
123.3111150938
 11
193.1335047088
 21
123.3111150938
  0
LINE
  5
358
100
AcDbEntity
  8
0
100
AcDbLine
 62
7
  6
CONTINUOUS
 10
193.6043682837
 20
123.3111150938
 11
194.2542575186
 21
123.3111150938
  0
LINE
  5
359
100
AcDbEntity
  8
0
100
AcDbLine
 62
7
  6
CONTINUOUS
 10
189.6756804864
 20
127.7088923278
 11
188.1152479827
 21
128.127008957
  0
LINE
  5
35A
100
AcDbEntity
  8
RUNDUNGEN
100
AcDbLine
 62
7
  6
CONTINUOUS
 10
192.5750605971
 20
126.9320057685
 11
187.0183775853
 21
128.4209144942
  0
LINE
  5
35B
100
AcDbEntity
  8
0
100
AcDbLine
 62
7
  6
CONTINUOUS
 10
160.730531223
 20
120.0132426995
 11
160.7785223598
 21
119.8004767674
  0
LINE
  5
35C
100
AcDbEntity
  8
0
100
AcDbLine
 62
7
  6
CONTINUOUS
 10
159.405898962
 20
123.3111150938
 11
159.5189609494
 21
122.7792002636
  0
LINE
  5
35D
100
AcDbEntity
  8
BEZUGSACHSEN
100
AcDbLine
 62
7
  6
CONTINUOUS
 10
159.6464389206
 20
124.5843307343
 11
159.9170692595
 21
123.3111150938
  0
LINE
  5
35E
100
AcDbEntity
  8
BEZUGSACHSEN
100
AcDbLine
 62
7
  6
CONTINUOUS
 10
160.5762209159
 20
120.2100503642
 11
160.7085032663
 21
119.5877108354
  0
LINE
  5
35F
100
AcDbEntity
  8
BEZUGSACHSEN
100
AcDbLine
 62
7
  6
CONTINUOUS
 10
160.9798520678
 20
118.3111150938
 11
161.8300783145
 21
114.3111150938
  0
LINE
  5
360
100
AcDbEntity
  8
0
100
AcDbLine
 62
7
  6
CONTINUOUS
 10
168.7471745458
 20
131.0611150938
 11
170.4869352562
 21
131.0611150938
  0
LINE
  5
361
100
AcDbEntity
  8
0
100
AcDbLine
 62
7
  6
CONTINUOUS
 10
183.174382663
 20
131.0611150938
 11
184.9129820831
 21
131.0611150938
  0
LINE
  5
362
100
AcDbEntity
  8
0
100
AcDbLine
 62
7
  6
CONTINUOUS
 10
163.9844761482
 20
127.7088923293
 11
165.5449086462
 21
128.127008957
  0
LINE
  5
363
100
AcDbEntity
  8
BEZUGSACHSEN
100
AcDbLine
 62
7
  6
CONTINUOUS
 10
161.0850960319
 20
126.9320057685
 11
166.6417790437
 21
128.4209144942
  0
LINE
  5
364
100
AcDbEntity
  8
0
100
AcDbLine
 62
7
  6
CONTINUOUS
 10
166.9300783145
 20
114.3111150938
 11
166.9300783145
 21
114.0611150938
  0
LINE
  5
365
100
AcDbEntity
  8
0
100
AcDbLine
 62
7
  6
CONTINUOUS
 10
168.7471745458
 20
129.3812926428
 11
168.7471745458
 21
131.0611150938
  0
LINE
  5
366
100
AcDbEntity
  8
BEZUGSACHSEN
100
AcDbLine
 62
7
  6
CONTINUOUS
 10
171.8300783145
 20
135.1824599571
 11
171.8300783145
 21
167.3963306933
  0
LINE
  5
367
100
AcDbEntity
  8
BEZUGSACHSEN
100
AcDbLine
 62
7
  6
CONTINUOUS
 10
172.3307298498
 20
127.3876877867
 11
172.3307338643
 21
127.3879234184
  0
LINE
  5
368
100
AcDbEntity
  8
RUNDUNGEN
100
AcDbLine
 62
7
  6
CONTINUOUS
 10
181.3294267792
 20
127.3876877867
 11
181.3294227647
 21
127.3879234184
  0
LINE
  5
369
100
AcDbEntity
  8
RUNDUNGEN
100
AcDbLine
 62
7
  6
CONTINUOUS
 10
181.8300783145
 20
135.1824599571
 11
181.8300783145
 21
167.3963306933
  0
LINE
  5
36A
100
AcDbEntity
  8
0
100
AcDbLine
 62
7
  6
CONTINUOUS
 10
182.3300783145
 20
163.5611150938
 11
182.3300783145
 21
160.5611150938
  0
LINE
  5
36B
100
AcDbEntity
  8
0
100
AcDbLine
 62
7
  6
CONTINUOUS
 10
181.8300783145
 20
160.5611150938
 11
182.3300783145
 21
160.5611150938
  0
LINE
  5
36C
100
AcDbEntity
  8
0
100
AcDbLine
 62
7
  6
CONTINUOUS
 10
184.9129820831
 20
129.3850291568
 11
184.9129820831
 21
131.0611150938
  0
LINE
  5
36D
100
AcDbEntity
  8
0
100
AcDbLine
 62
7
  6
CONTINUOUS
 10
186.7300783145
 20
114.3111150938
 11
186.7300783145
 21
114.0611150938
  0
LINE
  5
36E
100
AcDbEntity
  8
0
100
AcDbLine
 62
7
  6
CONTINUOUS
 10
181.8300783145
 20
163.5611150938
 11
182.3300783145
 21
163.5611150938
  0
LINE
  5
36F
100
AcDbEntity
  8
RUNDUNGEN
100
AcDbLine
 62
7
  6
CONTINUOUS
 10
179.8300783145
 20
169.3963306933
 11
173.8300783145
 21
169.3963306933
  0
LINE
  5
370
100
AcDbEntity
  8
0
100
AcDbLine
 62
7
  6
CONTINUOUS
 10
191.8300783145
 20
114.3111150938
 11
192.5458228496
 21
117.6784283845
  0
LINE
  5
371
100
AcDbEntity
  8
0
100
AcDbLine
 62
7
  6
CONTINUOUS
 10
193.3688519865
 20
121.550476043
 11
193.6300253821
 21
122.7792002636
  0
LINE
  5
372
100
AcDbEntity
  8
0
100
AcDbLine
 62
7
  6
CONTINUOUS
 10
193.7430873695
 20
123.3111150938
 11
194.0137177083
 21
124.5843307343
  0
LINE
  5
373
100
AcDbEntity
  8
0
100
AcDbLine
 62
7
  6
CONTINUOUS
 10
194.1411956795
 20
122.7792002636
 11
194.2542576669
 21
123.3111150938
  0
LWPOLYLINE
  5
374
100
AcDbEntity
  8
BEZUGSACHSEN
100
AcDbPolyline
 62
7
  6
CONTINUOUS
 90
6
 70
0
 10
75.4428365835
 20
76.5681990965
 10
75.337426986
 20
76.0522015837
 10
75.2145192444
 20
75.4032412918
 10
75.1018840662
 20
74.7528293489
 10
74.9994635071
 20
74.1018688744
 10
74.9071442223
 20
73.451296325
  0
LINE
  5
375
100
AcDbEntity
  8
BEZUGSACHSEN
100
AcDbLine
 62
7
  6
CONTINUOUS
 10
74.9071442223
 20
73.451296325
 11
74.8684002326
 21
73.1553340455
  0
LWPOLYLINE
  5
376
100
AcDbEntity
  8
BEZUGSACHSEN
100
AcDbPolyline
 62
7
  6
CONTINUOUS
 90
10
 70
0
 10
82.7352856827
 20
80.2486752338
 10
82.3794728012
 20
79.8731148153
 10
82.0515725079
 20
79.5357548588
 10
81.7495226954
 20
79.2362050337
 10
81.4722176501
 20
78.9742677628
 10
81.21851466
 20
78.7489897623
 10
80.990212122
 20
78.5613270432
 10
80.788557656
 20
78.4105838386
 10
80.6178128667
 20
78.2970747916
 10
80.4820574735
 20
78.2190449249
  0
LWPOLYLINE
  5
377
100
AcDbEntity
  8
BEZUGSACHSEN
100
AcDbPolyline
 62
7
  6
CONTINUOUS
 90
7
 70
0
 10
86.753231904
 20
84.3196891166
 10
86.2179421843
 20
83.8324053432
 10
85.5983272756
 20
83.2421458849
 10
85.0230557385
 20
82.6701910646
 10
84.4898714851
 20
82.1219168741
 10
83.9965864869
 20
81.6017887718
 10
82.7352856827
 20
80.2486752338
  0
LWPOLYLINE
  5
378
100
AcDbEntity
  8
RUNDUNGEN
100
AcDbPolyline
 62
7
  6
CONTINUOUS
 90
7
 70
0
 10
74.8684002326
 20
73.1553415726
 10
74.9071442223
 20
72.8593792932
 10
74.9994635071
 20
72.2088067438
 10
75.1018840662
 20
71.5578462693
 10
75.2145192444
 20
70.9074343264
 10
75.337426986
 20
70.2584740345
 10
75.4428365835
 20
69.7424765217
  0
LWPOLYLINE
  5
379
100
AcDbEntity
  8
BEZUGSACHSEN
100
AcDbPolyline
 62
7
  6
CONTINUOUS
 90
3
 70
0
 10
80.4820574735
 20
78.2190449249
 10
80.3851694387
 20
78.1726862715
 10
80.3626145516
 20
78.1635123507
  0
LINE
  5
37A
100
AcDbEntity
  8
0
100
AcDbLine
 62
7
  6
CONTINUOUS
 10
103.0325208551
 20
81.2382415777
 11
97.6927748929
 21
78.1553378091
  0
LWPOLYLINE
  5
37B
100
AcDbEntity
  8
RUNDUNGEN
100
AcDbPolyline
 62
7
  6
CONTINUOUS
 90
6
 70
0
 10
83.9909778743
 20
64.7148567534
 10
84.4835559775
 20
64.195346881
 10
85.0166985575
 20
63.6469240318
 10
85.5928211018
 20
63.073898706
 10
86.2145387052
 20
62.4814362018
 10
86.7532317304
 20
61.9909866563
  0
LINE
  5
37C
100
AcDbEntity
  8
RUNDUNGEN
100
AcDbLine
 62
7
  6
CONTINUOUS
 10
82.7332340365
 20
66.064185652
 11
83.9909778743
 21
64.7148567534
  0
LWPOLYLINE
  5
37D
100
AcDbEntity
  8
RUNDUNGEN
100
AcDbPolyline
 62
7
  6
CONTINUOUS
 90
25
 70
0
 10
86.7532419456
 20
61.9909596183
 10
87.7409331917
 20
61.1602195745
 10
88.9061603018
 20
60.2926907353
 10
90.1338871378
 20
59.4927353837
 10
91.418662016
 20
58.7651262099
 10
92.755088372
 20
58.1138980003
 10
94.1373517114
 20
57.5425181399
 10
95.5594288443
 20
57.0540631447
 10
97.0149583968
 20
56.651050201
 10
98.4975276495
 20
56.3355700563
 10
100.0003854608
 20
56.1092113682
 10
101.5167203263
 20
55.9731440042
 10
103.0398032694
 20
55.9279946583
 10
104.5628521936
 20
55.9740145943
 10
106.0790852525
 20
56.1109477338
 10
107.5817739884
 20
56.3381626291
 10
109.0641069156
 20
56.6544842139
 10
110.519333151
 20
57.0583184805
 10
111.9410426816
 20
57.5475695786
 10
113.3228764519
 20
58.1197151418
 10
114.6588148302
 20
58.7716733214
 10
115.9430483951
 20
59.4999731185
 10
117.1701865422
 20
60.3005758519
 10
118.334781778
 20
61.168703262
 10
119.3117993589
 20
61.9909592103
  0
LINE
  5
37E
100
AcDbEntity
  8
0
100
AcDbLine
 62
7
  6
CONTINUOUS
 10
95.1679378396
 20
57.1885324589
 11
95.1679378396
 21
57.0870462827
  0
LINE
  5
37F
100
AcDbEntity
  8
0
100
AcDbLine
 62
7
  6
CONTINUOUS
 10
95.7929378396
 20
56.9894082242
 11
95.7929378396
 21
56.8519114148
  0
LINE
  5
380
100
AcDbEntity
  8
0
100
AcDbLine
 62
7
  6
CONTINUOUS
 10
96.4179378396
 20
56.8163556816
 11
96.4179378396
 21
56.6865116601
  0
LINE
  5
381
100
AcDbEntity
  8
0
100
AcDbLine
 62
7
  6
CONTINUOUS
 10
96.9387712723
 20
56.672145202
 11
96.9387712723
 21
56.615245614
  0
LINE
  5
382
100
AcDbEntity
  8
0
100
AcDbLine
 62
7
  6
CONTINUOUS
 10
97.4596038705
 20
89.7542427972
 11
97.4596038705
 21
89.9238022065
  0
LINE
  5
383
100
AcDbEntity
  8
0
100
AcDbLine
 62
7
  6
CONTINUOUS
 10
98.9700208551
 20
68.1553378091
 11
98.9700208551
 21
67.6553378091
  0
LWPOLYLINE
  5
384
100
AcDbEntity
  8
RUNDUNGEN
100
AcDbPolyline
 62
7
  6
CONTINUOUS
 90
3
 70
0
 10
80.3392914034
 20
68.1553378091
 10
80.3849855942
 20
68.1380671707
 10
80.4819476635
 20
68.0916883481
  0
LWPOLYLINE
  5
385
100
AcDbEntity
  8
RUNDUNGEN
100
AcDbPolyline
 62
7
  6
CONTINUOUS
 90
10
 70
0
 10
80.4819476635
 20
68.0916883481
 10
80.6178827103
 20
68.0135575834
 10
80.7888739321
 20
67.8998683436
 10
80.9907489752
 20
67.7489268889
 10
81.2191375648
 20
67.5611526568
 10
81.4727594506
 20
67.3359107559
 10
81.7497445485
 20
67.0742555132
 10
82.0512545081
 20
66.7752424899
 10
82.3783896707
 20
66.4386912922
 10
82.7332340365
 20
66.064185652
  0
LINE
  5
386
100
AcDbEntity
  8
0
100
AcDbLine
 62
7
  6
CONTINUOUS
 10
100.4700208551
 20
68.1553378091
 11
100.4700208551
 21
67.6553378091
  0
LINE
  5
387
100
AcDbEntity
  8
0
100
AcDbLine
 62
7
  6
CONTINUOUS
 10
100.4804378396
 20
56.0661341672
 11
100.4804378396
 21
55.8667574134
  0
LINE
  5
388
100
AcDbEntity
  8
0
100
AcDbLine
 62
7
  6
CONTINUOUS
 10
100.7825209147
 20
68.1553378091
 11
100.7825209147
 21
67.6553378091
  0
LINE
  5
389
100
AcDbEntity
  8
0
100
AcDbLine
 62
7
  6
CONTINUOUS
 10
101.0012701398
 20
90.2912780128
 11
101.0012701398
 21
90.4937200414
  0
LINE
  5
38A
100
AcDbEntity
  8
0
100
AcDbLine
 62
7
  6
CONTINUOUS
 10
101.0325208551
 20
68.1553378091
 11
101.0325208551
 21
67.6553378091
  0
LINE
  5
38B
100
AcDbEntity
  8
0
100
AcDbLine
 62
7
  6
CONTINUOUS
 10
101.2200208551
 20
68.1553378091
 11
101.2200208551
 21
67.6553378091
  0
LINE
  5
38C
100
AcDbEntity
  8
0
100
AcDbLine
 62
7
  6
CONTINUOUS
 10
101.2825207955
 20
68.1553378091
 11
101.2825207955
 21
67.6553378091
  0
LINE
  5
38D
100
AcDbEntity
  8
0
100
AcDbLine
 62
7
  6
CONTINUOUS
 10
101.3450209147
 20
68.1553378091
 11
101.3450209147
 21
67.6553378091
  0
LINE
  5
38E
100
AcDbEntity
  8
0
100
AcDbLine
 62
7
  6
CONTINUOUS
 10
101.8346038705
 20
90.3469547607
 11
101.8346038705
 21
90.5497122645
  0
LINE
  5
38F
100
AcDbEntity
  8
0
100
AcDbLine
 62
7
  6
CONTINUOUS
 10
101.8450207955
 20
68.1553378091
 11
101.8450207955
 21
67.6553378091
  0
LINE
  5
390
100
AcDbEntity
  8
0
100
AcDbLine
 62
7
  6
CONTINUOUS
 10
102.2200209743
 20
68.1553378091
 11
102.2200209743
 21
67.6553378091
  0
LINE
  5
391
100
AcDbEntity
  8
0
100
AcDbLine
 62
7
  6
CONTINUOUS
 10
102.2825207358
 20
68.1553378091
 11
102.2825207358
 21
67.6553378091
  0
LINE
  5
392
100
AcDbEntity
  8
0
100
AcDbLine
 62
7
  6
CONTINUOUS
 10
102.4075209743
 20
68.1553378091
 11
102.4075209743
 21
67.6553378091
  0
LINE
  5
393
100
AcDbEntity
  8
0
100
AcDbLine
 62
7
  6
CONTINUOUS
 10
102.5950209743
 20
68.1553378091
 11
102.5950209743
 21
67.6553378091
  0
LINE
  5
394
100
AcDbEntity
  8
0
100
AcDbLine
 62
7
  6
CONTINUOUS
 10
102.8450207358
 20
68.1553378091
 11
102.8450207358
 21
67.6553378091
  0
LINE
  5
395
100
AcDbEntity
  8
0
100
AcDbLine
 62
7
  6
CONTINUOUS
 10
103.0950208551
 20
68.1553378091
 11
103.0950208551
 21
67.6553378091
  0
LINE
  5
396
100
AcDbEntity
  8
0
100
AcDbLine
 62
7
  6
CONTINUOUS
 10
103.3450209743
 20
68.1553378091
 11
103.3450209743
 21
67.6553378091
  0
LINE
  5
397
100
AcDbEntity
  8
0
100
AcDbLine
 62
7
  6
CONTINUOUS
 10
103.5325209743
 20
68.1553378091
 11
103.5325209743
 21
67.6553378091
  0
LINE
  5
398
100
AcDbEntity
  8
0
100
AcDbLine
 62
7
  6
CONTINUOUS
 10
103.0325208551
 20
65.0724340404
 11
108.3722668172
 21
68.1553378091
  0
LINE
  5
399
100
AcDbEntity
  8
0
100
AcDbLine
 62
7
  6
CONTINUOUS
 10
103.6575208551
 20
68.1553378091
 11
103.6575208551
 21
67.6553378091
  0
LINE
  5
39A
100
AcDbEntity
  8
0
100
AcDbLine
 62
7
  6
CONTINUOUS
 10
103.7200209743
 20
68.1553378091
 11
103.7200209743
 21
67.6553378091
  0
LINE
  5
39B
100
AcDbEntity
  8
0
100
AcDbLine
 62
7
  6
CONTINUOUS
 10
104.0950209743
 20
68.1553378091
 11
104.0950209743
 21
67.6553378091
  0
LINE
  5
39C
100
AcDbEntity
  8
0
100
AcDbLine
 62
7
  6
CONTINUOUS
 10
104.2304378396
 20
55.9639704736
 11
104.2304378396
 21
55.7609633537
  0
LINE
  5
39D
100
AcDbEntity
  8
0
100
AcDbLine
 62
7
  6
CONTINUOUS
 10
104.5950208551
 20
68.1553378091
 11
104.5950208551
 21
67.6553378091
  0
LINE
  5
39E
100
AcDbEntity
  8
0
100
AcDbLine
 62
7
  6
CONTINUOUS
 10
105.0637715703
 20
56.0192533276
 11
105.0637715703
 21
55.8169555768
  0
LINE
  5
39F
100
AcDbEntity
  8
0
100
AcDbLine
 62
7
  6
CONTINUOUS
 10
105.5846038705
 20
90.2443851932
 11
105.5846038705
 21
90.4439182047
  0
LINE
  5
3A0
100
AcDbEntity
  8
0
100
AcDbLine
 62
7
  6
CONTINUOUS
 10
106.0950208551
 20
68.1553378091
 11
106.0950208551
 21
67.6553378091
  0
LINE
  5
3A1
100
AcDbEntity
  8
0
100
AcDbLine
 62
7
  6
CONTINUOUS
 10
106.4075210935
 20
68.1553378091
 11
106.4075210935
 21
67.6553378091
  0
LINE
  5
3A2
100
AcDbEntity
  8
0
100
AcDbLine
 62
7
  6
CONTINUOUS
 10
106.6575208551
 20
68.1553378091
 11
106.6575208551
 21
67.6553378091
  0
LINE
  5
3A3
100
AcDbEntity
  8
0
100
AcDbLine
 62
7
  6
CONTINUOUS
 10
106.9075206166
 20
68.1553378091
 11
106.9075206166
 21
67.6553378091
  0
LINE
  5
3A4
100
AcDbEntity
  8
0
100
AcDbLine
 62
7
  6
CONTINUOUS
 10
107.0325208551
 20
68.1553378091
 11
107.0325208551
 21
67.6553378091
  0
LINE
  5
3A5
100
AcDbEntity
  8
0
100
AcDbLine
 62
7
  6
CONTINUOUS
 10
107.0950206166
 20
68.1553378091
 11
107.0950206166
 21
67.6553378091
  0
LINE
  5
3A6
100
AcDbEntity
  8
0
100
AcDbLine
 62
7
  6
CONTINUOUS
 10
107.0950206166
 20
67.6553378091
 11
104.5950208551
 21
67.6553378091
  0
LINE
  5
3A7
100
AcDbEntity
  8
0
100
AcDbLine
 62
7
  6
CONTINUOUS
 10
104.0950209743
 20
67.6553378091
 11
101.8450207955
 21
67.6553378091
  0
LINE
  5
3A8
100
AcDbEntity
  8
0
100
AcDbLine
 62
7
  6
CONTINUOUS
 10
101.3450209147
 20
67.6553378091
 11
98.9700208551
 21
67.6553378091
  0
LINE
  5
3A9
100
AcDbEntity
  8
RUNDUNGEN
100
AcDbLine
 62
7
  6
CONTINUOUS
 10
77.3997593106
 20
68.1553378091
 11
128.6652823607
 21
68.1553378091
  0
LINE
  5
3AA
100
AcDbEntity
  8
0
100
AcDbLine
 62
7
  6
CONTINUOUS
 10
97.6927748929
 20
68.1553378091
 11
103.0325208551
 21
65.0724340404
  0
LINE
  5
3AB
100
AcDbEntity
  8
0
100
AcDbLine
 62
7
  6
CONTINUOUS
 10
108.6054378396
 20
56.5566067895
 11
108.6054378396
 21
56.3868734117
  0
LINE
  5
3AC
100
AcDbEntity
  8
0
100
AcDbLine
 62
7
  6
CONTINUOUS
 10
109.1262704378
 20
89.638940643
 11
109.1262704378
 21
89.6954300042
  0
LINE
  5
3AD
100
AcDbEntity
  8
0
100
AcDbLine
 62
7
  6
CONTINUOUS
 10
109.6471038705
 20
89.4944061492
 11
109.6471038705
 21
89.6241639581
  0
LINE
  5
3AE
100
AcDbEntity
  8
0
100
AcDbLine
 62
7
  6
CONTINUOUS
 10
110.2721038705
 20
89.3209647897
 11
110.2721038705
 21
89.4587642034
  0
LINE
  5
3AF
100
AcDbEntity
  8
0
100
AcDbLine
 62
7
  6
CONTINUOUS
 10
110.8971038705
 20
89.122355379
 11
110.8971038705
 21
89.2236293354
  0
LWPOLYLINE
  5
3B0
100
AcDbEntity
  8
RUNDUNGEN
100
AcDbPolyline
 62
7
  6
CONTINUOUS
 90
3
 70
0
 10
125.5857852394
 20
68.0930979384
 10
125.6818449352
 20
68.1388219971
 10
125.7040572155
 20
68.1477947074
  0
LWPOLYLINE
  5
3B1
100
AcDbEntity
  8
RUNDUNGEN
100
AcDbPolyline
 62
7
  6
CONTINUOUS
 90
10
 70
0
 10
123.3394486106
 20
66.0723226461
 10
123.6938407578
 20
66.446191981
 10
124.0205364289
 20
66.7820680264
 10
124.3216054818
 20
67.0803679242
 10
124.5981309839
 20
67.341273575
 10
124.8512553052
 20
67.5657296724
 10
125.0790957012
 20
67.7526960039
 10
125.2803519599
 20
67.9028205875
 10
125.450644928
 20
68.015712441
 10
125.5857852394
 20
68.0930979384
  0
LWPOLYLINE
  5
3B2
100
AcDbEntity
  8
RUNDUNGEN
100
AcDbPolyline
 62
7
  6
CONTINUOUS
 90
7
 70
0
 10
119.3118085332
 20
61.9909857519
 10
119.8612021993
 20
62.49139451
 10
120.4826916401
 20
63.0841145127
 10
121.0584516442
 20
63.6571687157
 10
121.5911451505
 20
64.2054273258
 10
122.0832192694
 20
64.7246041043
 10
123.3394486106
 20
66.0723226461
  0
LINE
  5
3B3
100
AcDbEntity
  8
BEZUGSACHSEN
100
AcDbLine
 62
7
  6
CONTINUOUS
 10
77.3997593106
 20
78.1553378091
 11
128.6652823607
 21
78.1553378091
  0
LINE
  5
3B4
100
AcDbEntity
  8
0
100
AcDbLine
 62
7
  6
CONTINUOUS
 10
108.3722668172
 20
78.1553378091
 11
103.0325208551
 21
81.2382415777
  0
LWPOLYLINE
  5
3B5
100
AcDbEntity
  8
BEZUGSACHSEN
100
AcDbPolyline
 62
7
  6
CONTINUOUS
 90
3
 70
0
 10
125.7258127772
 20
78.1553378091
 10
125.6816616927
 20
78.1719307336
 10
125.585674586
 20
78.2176355278
  0
LWPOLYLINE
  5
3B6
100
AcDbEntity
  8
RUNDUNGEN
100
AcDbPolyline
 62
7
  6
CONTINUOUS
 90
6
 70
0
 10
130.6222048771
 20
69.7424756715
 10
130.7251994828
 20
70.2462654141
 10
130.8482429745
 20
70.8948668454
 10
130.9610397954
 20
71.545038544
 10
131.0636433278
 20
72.1958855053
 10
131.1561620001
 20
72.8464715157
  0
LINE
  5
3B7
100
AcDbEntity
  8
RUNDUNGEN
100
AcDbLine
 62
7
  6
CONTINUOUS
 10
130.6222108088
 20
69.7425049895
 11
130.6222046307
 21
69.7424756999
  0
LWPOLYLINE
  5
3B8
100
AcDbEntity
  8
BEZUGSACHSEN
100
AcDbPolyline
 62
7
  6
CONTINUOUS
 90
10
 70
0
 10
125.585674586
 20
78.2176355278
 10
125.4507133646
 20
78.2949209462
 10
125.2806674219
 20
78.4076327592
 10
125.079632852
 20
78.5575585914
 10
124.8518795332
 20
78.7444125336
 10
124.5986749634
 20
78.9689036261
 10
124.3218299409
 20
79.2300903285
 10
124.0202214472
 20
79.5289260162
 10
123.6927615984
 20
79.8656093701
 10
123.3374022621
 20
80.240531911
  0
LWPOLYLINE
  5
3B9
100
AcDbEntity
  8
BEZUGSACHSEN
100
AcDbPolyline
 62
7
  6
CONTINUOUS
 90
25
 70
0
 10
119.3117993589
 20
84.3197164079
 10
118.334781778
 20
85.1419723562
 10
117.1701865422
 20
86.0100997663
 10
115.9430483951
 20
86.8107024997
 10
114.6588148302
 20
87.5390022968
 10
113.3228764519
 20
88.1909604764
 10
111.9410426816
 20
88.7631060395
 10
110.519333151
 20
89.2523571377
 10
109.0641069156
 20
89.6561914043
 10
107.5817739884
 20
89.9725129891
 10
106.0790852525
 20
90.1997278843
 10
104.5628521936
 20
90.3366610238
 10
103.0398032694
 20
90.3826809599
 10
101.5167203263
 20
90.337531614
 10
100.0003854608
 20
90.20146425
 10
98.4975276495
 20
89.9751055619
 10
97.0149583968
 20
89.6596254172
 10
95.5594288443
 20
89.2566124735
 10
94.1373517114
 20
88.7681574782
 10
92.755088372
 20
88.1967776178
 10
91.418662016
 20
87.5455494083
 10
90.1338871378
 20
86.8179402344
 10
88.9061603018
 20
86.0179848829
 10
87.7409331917
 20
85.1504560437
 10
86.7532419456
 20
84.3197159998
  0
LWPOLYLINE
  5
3BA
100
AcDbEntity
  8
BEZUGSACHSEN
100
AcDbPolyline
 62
7
  6
CONTINUOUS
 90
6
 70
0
 10
122.0776136753
 20
81.5920399302
 10
121.5848242541
 20
82.1118451908
 10
121.0520810513
 20
82.6599639123
 10
120.4771676855
 20
83.2319514553
 10
119.8577854639
 20
83.8224620436
 10
119.3118083744
 20
84.3196900078
  0
LINE
  5
3BB
100
AcDbEntity
  8
BEZUGSACHSEN
100
AcDbLine
 62
7
  6
CONTINUOUS
 10
123.3374022621
 20
80.240531911
 11
122.0776136753
 21
81.5920399302
  0
LINE
  5
3BC
100
AcDbEntity
  8
RUNDUNGEN
100
AcDbLine
 62
7
  6
CONTINUOUS
 10
131.1561620001
 20
72.8464715157
 11
131.1966393967
 21
73.1553399602
  0
LWPOLYLINE
  5
3BD
100
AcDbEntity
  8
BEZUGSACHSEN
100
AcDbPolyline
 62
7
  6
CONTINUOUS
 90
7
 70
0
 10
131.1966393967
 20
73.155335658
 10
131.1561620001
 20
73.4642041025
 10
131.0636433278
 20
74.1147901129
 10
130.9610397954
 20
74.7656370742
 10
130.8482429745
 20
75.4158087728
 10
130.7251994828
 20
76.0644102041
 10
130.6222048771
 20
76.5681999466
  0
ARC
  5
3BE
100
AcDbEntity
  8
0
100
AcDbCircle
 62
7
  6
CONTINUOUS
 10
103.0325208551
 20
141.3111150938
 40
15.0
100
AcDbArc
 50
199.9063616
 51
219.5134330696
  0
ARC
  5
3BF
100
AcDbEntity
  8
0
100
AcDbCircle
 62
7
  6
CONTINUOUS
 10
103.0325208551
 20
141.3111150938
 40
15.0
100
AcDbArc
 50
320.4865762276
 51
340.0936384
  0
ARC
  5
3C0
100
AcDbEntity
  8
RUNDUNGEN
100
AcDbCircle
 62
7
  6
CONTINUOUS
 10
103.0325208551
 20
141.3111150938
 40
15.0
100
AcDbArc
 50
340.0936384
 51
199.9063616
  0
ARC
  5
3C1
100
AcDbEntity
  8
BEZUGSACHSEN
100
AcDbCircle
 62
7
  6
CONTINUOUS
 10
124.0325208551
 20
114.3111150938
 40
6.0
100
AcDbArc
 50
104.131931334
 51
179.9588229118
  0
ARC
  5
3C2
100
AcDbEntity
  8
BEZUGSACHSEN
100
AcDbCircle
 62
7
  6
CONTINUOUS
 10
82.0325208551
 20
114.3111150938
 40
6.0
100
AcDbArc
 50
0.0411774085
 51
75.868068666
  0
ARC
  5
3C3
100
AcDbEntity
  8
RUNDUNGEN
100
AcDbCircle
 62
7
  6
CONTINUOUS
 10
121.6284420418
 20
159.6936479329
 40
2.0
100
AcDbArc
 50
22.5
 51
67.5
  0
ARC
  5
3C4
100
AcDbEntity
  8
RUNDUNGEN
100
AcDbCircle
 62
7
  6
CONTINUOUS
 10
103.0325208551
 20
167.3963306933
 40
2.0
100
AcDbArc
 50
67.5
 51
112.5
  0
ARC
  5
3C5
100
AcDbEntity
  8
BEZUGSACHSEN
100
AcDbCircle
 62
7
  6
CONTINUOUS
 10
84.4365996683
 20
159.6936479329
 40
2.0
100
AcDbArc
 50
112.5
 51
157.5
  0
ARC
  5
3C6
100
AcDbEntity
  8
RUNDUNGEN
100
AcDbCircle
 62
7
  6
CONTINUOUS
 10
84.4365996683
 20
159.6936479329
 40
2.0
100
AcDbArc
 50
112.5
 51
157.5
  0
ARC
  5
3C7
100
AcDbEntity
  8
RUNDUNGEN
100
AcDbCircle
 62
7
  6
CONTINUOUS
 10
81.0325208551
 20
124.3111150938
 40
1.5
100
AcDbArc
 50
180.0
 51
270.0
  0
ARC
  5
3C8
100
AcDbEntity
  8
RUNDUNGEN
100
AcDbCircle
 62
7
  6
CONTINUOUS
 10
125.0325208551
 20
124.3111150938
 40
1.5
100
AcDbArc
 50
270.0
 51
360.0
  0
ARC
  5
3C9
100
AcDbEntity
  8
0
100
AcDbCircle
 62
7
  6
CONTINUOUS
 10
16.0907006467
 20
125.8274259636
 40
175.5880421022
100
AcDbArc
 50
357.789814979
 51
357.9287664543
  0
ARC
  5
3CA
100
AcDbEntity
  8
0
100
AcDbCircle
 62
7
  6
CONTINUOUS
 10
18.2229955588
 20
124.9609037475
 40
172.8640500581
100
AcDbArc
 50
358.0423714884
 51
358.1834905935
  0
ARC
  5
3CB
100
AcDbEntity
  8
0
100
AcDbCircle
 62
7
  6
CONTINUOUS
 10
41.5429375644
 20
138.2317228585
 40
152.6416408423
100
AcDbArc
 50
353.9488845611
 51
354.1094840993
  0
ARC
  5
3CC
100
AcDbEntity
  8
0
100
AcDbCircle
 62
7
  6
CONTINUOUS
 10
78.3870829783
 20
146.0924578593
 40
118.0717066059
100
AcDbArc
 50
348.0032278004
 51
348.5994469746
  0
ARC
  5
3CD
100
AcDbEntity
  8
0
100
AcDbCircle
 62
7
  6
CONTINUOUS
 10
86.0320714511
 20
144.4658645294
 40
110.255591823
100
AcDbArc
 50
347.2921917264
 51
348.0042703541
  0
ARC
  5
3CE
100
AcDbEntity
  8
0
100
AcDbCircle
 62
7
  6
CONTINUOUS
 10
88.1284653766
 20
143.9082614741
 40
107.5890580012
100
AcDbArc
 50
347.4332166529
 51
347.8420113524
  0
ARC
  5
3CF
100
AcDbEntity
  8
0
100
AcDbCircle
 62
7
  6
CONTINUOUS
 10
90.2434148972
 20
142.161098469
 40
105.657089357
100
AcDbArc
 50
346.9541867245
 51
348.0090342872
  0
ARC
  5
3D0
100
AcDbEntity
  8
0
100
AcDbCircle
 62
7
  6
CONTINUOUS
 10
93.0716383108
 20
142.8021681098
 40
102.5236377467
100
AcDbArc
 50
347.016301084
 51
347.2709230516
  0
ARC
  5
3D1
100
AcDbEntity
  8
0
100
AcDbCircle
 62
7
  6
CONTINUOUS
 10
93.7725861773
 20
142.7184147433
 40
102.3202818027
100
AcDbArc
 50
346.4765392317
 51
347.2932519771
  0
ARC
  5
3D2
100
AcDbEntity
  8
0
100
AcDbCircle
 62
7
  6
CONTINUOUS
 10
95.1812354947
 20
142.3161134769
 40
100.3587707152
100
AcDbArc
 50
346.8251667074
 51
347.0161052019
  0
ARC
  5
3D3
100
AcDbEntity
  8
0
100
AcDbCircle
 62
7
  6
CONTINUOUS
 10
97.3363701104
 20
141.8111910827
 40
98.1452776275
100
AcDbArc
 50
346.5622046378
 51
346.8254160916
  0
ARC
  5
3D4
100
AcDbEntity
  8
0
100
AcDbCircle
 62
7
  6
CONTINUOUS
 10
-85.0959694838
 20
196.2851490835
 40
288.1245189228
100
AcDbArc
 50
344.6058900355
 51
344.7375023781
  0
ARC
  5
3D5
100
AcDbEntity
  8
0
100
AcDbCircle
 62
7
  6
CONTINUOUS
 10
-71.8972608419
 20
193.0723552033
 40
274.0338768283
100
AcDbArc
 50
344.4914271323
 51
344.6298807078
  0
ARC
  5
3D6
100
AcDbEntity
  8
0
100
AcDbCircle
 62
7
  6
CONTINUOUS
 10
-48.5878027281
 20
186.4931289746
 40
250.4605208818
100
AcDbArc
 50
344.5569696531
 51
344.6831709372
  0
ARC
  5
3D7
100
AcDbEntity
  8
0
100
AcDbCircle
 62
7
  6
CONTINUOUS
 10
7.684708189
 20
179.4709089374
 40
193.4328259556
100
AcDbArc
 50
342.4623908508
 51
342.6605663046
  0
ARC
  5
3D8
100
AcDbEntity
  8
0
100
AcDbCircle
 62
7
  6
CONTINUOUS
 10
51.7476374355
 20
169.0146567103
 40
148.0857030745
100
AcDbArc
 50
341.1992331617
 51
341.4164959181
  0
ARC
  5
3D9
100
AcDbEntity
  8
0
100
AcDbCircle
 62
7
  6
CONTINUOUS
 10
59.6640205987
 20
166.7930948889
 40
139.3449027664
100
AcDbArc
 50
340.9404146261
 51
341.1716519111
  0
ARC
  5
3DA
100
AcDbEntity
  8
0
100
AcDbCircle
 62
7
  6
CONTINUOUS
 10
77.2039242311
 20
155.56153785
 40
121.0299398085
100
AcDbArc
 50
342.6558919335
 51
342.8141063972
  0
ARC
  5
3DB
100
AcDbEntity
  8
0
100
AcDbCircle
 62
7
  6
CONTINUOUS
 10
119.2408805985
 20
118.1492311727
 40
72.602549666
100
AcDbArc
 50
0.7994142463
 51
1.3032264339
  0
ARC
  5
3DC
100
AcDbEntity
  8
0
100
AcDbCircle
 62
7
  6
CONTINUOUS
 10
119.5594147725
 20
125.8056592167
 40
73.703025298
100
AcDbArc
 50
356.9014528661
 51
357.3982736743
  0
ARC
  5
3DD
100
AcDbEntity
  8
0
100
AcDbCircle
 62
7
  6
CONTINUOUS
 10
120.6845794747
 20
125.4483696955
 40
72.0309462298
100
AcDbArc
 50
357.1140500747
 51
357.5371754638
  0
ARC
  5
3DE
100
AcDbEntity
  8
0
100
AcDbCircle
 62
7
  6
CONTINUOUS
 10
165.0230892803
 20
121.9769291248
 40
28.3616407583
100
AcDbArc
 50
1.1909957239
 51
1.835964155
  0
ARC
  5
3DF
100
AcDbEntity
  8
0
100
AcDbCircle
 62
7
  6
CONTINUOUS
 10
165.9175377825
 20
114.542525567
 40
26.0249166843
100
AcDbArc
 50
9.2741123908
 51
9.9867904981
  0
ARC
  5
3E0
100
AcDbEntity
  8
0
100
AcDbCircle
 62
7
  6
CONTINUOUS
 10
166.1248492229
 20
114.397445055
 40
25.2939675207
100
AcDbArc
 50
9.8780017189
 51
10.6126552817
  0
ARC
  5
3E1
100
AcDbEntity
  8
0
100
AcDbCircle
 62
7
  6
CONTINUOUS
 10
174.4515201917
 20
121.3538619732
 40
14.3128719608
100
AcDbArc
 50
181.9601188497
 51
183.2390447243
  0
ARC
  5
3E2
100
AcDbEntity
  8
0
100
AcDbCircle
 62
7
  6
CONTINUOUS
 10
181.3952192214
 20
120.2645262701
 40
11.9939092402
100
AcDbArc
 50
10.5476587455
 51
11.5833256297
  0
ARC
  5
3E3
100
AcDbEntity
  8
0
100
AcDbCircle
 62
7
  6
CONTINUOUS
 10
180.8789862545
 20
115.4401656651
 40
11.5722729484
100
AcDbArc
 50
17.6526795844
 51
18.7616497534
  0
ARC
  5
3E4
100
AcDbEntity
  8
0
100
AcDbCircle
 62
7
  6
CONTINUOUS
 10
171.6996175276
 20
117.9243887434
 40
10.9217931009
100
AcDbArc
 50
173.4925653906
 51
174.614792611
  0
ARC
  5
3E5
100
AcDbEntity
  8
0
100
AcDbCircle
 62
7
  6
CONTINUOUS
 10
183.7246480436
 20
120.8992664395
 40
9.8479215082
100
AcDbArc
 50
11.6363347047
 51
13.53897933
  0
ARC
  5
3E6
100
AcDbEntity
  8
0
100
AcDbCircle
 62
7
  6
CONTINUOUS
 10
182.6622306227
 20
114.8109702109
 40
9.7639797029
100
AcDbArc
 50
21.6768109569
 51
23.7068371581
  0
ARC
  5
3E7
100
AcDbEntity
  8
0
100
AcDbCircle
 62
7
  6
CONTINUOUS
 10
182.317537288
 20
114.7339475877
 40
9.6005191481
100
AcDbArc
 50
22.5619680116
 51
24.6406209755
  0
ARC
  5
3E8
100
AcDbEntity
  8
0
100
AcDbCircle
 62
7
  6
CONTINUOUS
 10
169.0761176034
 20
121.3800090343
 40
9.0587006812
100
AcDbArc
 50
179.8974575867
 51
181.9164140373
  0
ARC
  5
3E9
100
AcDbEntity
  8
0
100
AcDbCircle
 62
7
  6
CONTINUOUS
 10
169.672619905
 20
117.1862758334
 40
8.7916320997
100
AcDbArc
 50
169.8429902004
 51
171.9495621736
  0
ARC
  5
3EA
100
AcDbEntity
  8
0
100
AcDbCircle
 62
7
  6
CONTINUOUS
 10
169.9900784249
 20
117.1368276107
 40
8.593665736
100
AcDbArc
 50
169.2710764002
 51
171.4295757764
  0
ARC
  5
3EB
100
AcDbEntity
  8
0
100
AcDbCircle
 62
7
  6
CONTINUOUS
 10
188.6858654673
 20
113.0714648177
 40
5.9006066895
100
AcDbArc
 50
62.621125847
 51
64.9602224801
  0
ARC
  5
3EC
100
AcDbEntity
  8
0
100
AcDbCircle
 62
7
  6
CONTINUOUS
 10
189.2708306288
 20
113.3134359752
 40
5.6680810007
100
AcDbArc
 50
61.8509486543
 51
64.2228255526
  0
ARC
  5
3ED
100
AcDbEntity
  8
0
100
AcDbCircle
 62
7
  6
CONTINUOUS
 10
189.3782777743
 20
114.8215644746
 40
4.8404821111
100
AcDbArc
 50
56.1808560847
 51
58.5149329165
  0
ARC
  5
3EE
100
AcDbEntity
  8
0
100
AcDbCircle
 62
7
  6
CONTINUOUS
 10
162.859124201
 20
120.7601845736
 40
2.9243686982
100
AcDbArc
 50
218.2578003968
 51
220.9635639737
  0
ARC
  5
3EF
100
AcDbEntity
  8
0
100
AcDbCircle
 62
7
  6
CONTINUOUS
 10
162.3440779591
 20
119.9544536564
 40
2.2775333643
100
AcDbArc
 50
222.4412142077
 51
226.1820318739
  0
ARC
  5
3F0
100
AcDbEntity
  8
0
100
AcDbCircle
 62
7
  6
CONTINUOUS
 10
162.6773384057
 20
117.7959716935
 40
2.1812305891
100
AcDbArc
 50
148.0753862661
 51
151.3125731833
  0
ARC
  5
3F1
100
AcDbEntity
  8
0
100
AcDbCircle
 62
7
  6
CONTINUOUS
 10
161.8529717694
 20
120.2984723185
 40
1.7973395719
100
AcDbArc
 50
158.0370595966
 51
161.6501928742
  0
ARC
  5
3F2
100
AcDbEntity
  8
0
100
AcDbCircle
 62
7
  6
CONTINUOUS
 10
161.2452301686
 20
120.8556593398
 40
1.3415278944
100
AcDbArc
 50
151.1678747583
 51
156.2375806538
  0
ARC
  5
3F3
100
AcDbEntity
  8
0
100
AcDbCircle
 62
7
  6
CONTINUOUS
 10
172.6067508513
 20
128.9686029892
 40
22.2962457946
100
AcDbArc
 50
332.6832468303
 51
333.6025481295
  0
ARC
  5
3F4
100
AcDbEntity
  8
0
100
AcDbCircle
 62
7
  6
CONTINUOUS
 10
181.309068719
 20
131.3597066736
 40
14.4107273856
100
AcDbArc
 50
321.8609874467
 51
322.9287900245
  0
ARC
  5
3F5
100
AcDbEntity
  8
0
100
AcDbCircle
 62
7
  6
CONTINUOUS
 10
172.5887544896
 20
128.0186317589
 40
13.9875817916
100
AcDbArc
 50
219.8493300439
 51
220.9941517563
  0
ARC
  5
3F6
100
AcDbEntity
  8
0
100
AcDbCircle
 62
7
  6
CONTINUOUS
 10
172.8597352007
 20
127.9928812218
 40
13.7549470215
100
AcDbArc
 50
220.5217060238
 51
221.6980079946
  0
ARC
  5
3F7
100
AcDbEntity
  8
0
100
AcDbCircle
 62
7
  6
CONTINUOUS
 10
172.4500751787
 20
127.2763505408
 40
13.6775864376
100
AcDbArc
 50
218.6350444955
 51
219.7853549281
  0
ARC
  5
3F8
100
AcDbEntity
  8
0
100
AcDbCircle
 62
7
  6
CONTINUOUS
 10
182.7086089399
 20
131.5106728918
 40
13.1460974892
100
AcDbArc
 50
318.9972643155
 51
320.815622455
  0
ARC
  5
3F9
100
AcDbEntity
  8
0
100
AcDbCircle
 62
7
  6
CONTINUOUS
 10
181.6243631959
 20
126.5190269273
 40
13.0657130613
100
AcDbArc
 50
324.5951990401
 51
325.7319586976
  0
ARC
  5
3FA
100
AcDbEntity
  8
0
100
AcDbCircle
 62
7
  6
CONTINUOUS
 10
182.3825283665
 20
131.5028174088
 40
12.972576735
100
AcDbArc
 50
318.3740046575
 51
320.2332595935
  0
ARC
  5
3FB
100
AcDbEntity
  8
0
100
AcDbCircle
 62
7
  6
CONTINUOUS
 10
181.3990737243
 20
126.4512285967
 40
12.7710949854
100
AcDbArc
 50
324.9367558131
 51
325.1977461715
  0
ARC
  5
3FC
100
AcDbEntity
  8
0
100
AcDbCircle
 62
7
  6
CONTINUOUS
 10
171.5586608161
 20
126.7417385475
 40
12.6119760716
100
AcDbArc
 50
207.7762489476
 51
208.8743272368
  0
ARC
  5
3FD
100
AcDbEntity
  8
0
100
AcDbCircle
 62
7
  6
CONTINUOUS
 10
171.2543198538
 20
123.5590792549
 40
11.6429081875
100
AcDbArc
 50
202.1879605963
 51
203.3233970508
  0
ARC
  5
3FE
100
AcDbEntity
  8
0
100
AcDbCircle
 62
7
  6
CONTINUOUS
 10
166.0605874347
 20
129.1880515749
 40
11.4777996184
100
AcDbArc
 50
249.7814839761
 51
251.3787361955
  0
ARC
  5
3FF
100
AcDbEntity
  8
0
100
AcDbCircle
 62
7
  6
CONTINUOUS
 10
183.1073022695
 20
125.3183816353
 40
11.4009663684
100
AcDbArc
 50
322.7503335681
 51
324.7394039228
  0
ARC
  5
400
100
AcDbEntity
  8
0
100
AcDbCircle
 62
7
  6
CONTINUOUS
 10
166.9373435967
 20
129.205392912
 40
11.2375601199
100
AcDbArc
 50
247.2377949217
 51
248.6832996573
  0
ARC
  5
401
100
AcDbEntity
  8
0
100
AcDbCircle
 62
7
  6
CONTINUOUS
 10
169.8917346784
 20
126.8148663351
 40
11.0135734756
100
AcDbArc
 50
209.4719222268
 51
211.3976593789
  0
ARC
  5
402
100
AcDbEntity
  8
0
100
AcDbCircle
 62
7
  6
CONTINUOUS
 10
166.3633006973
 20
128.8749829665
 40
10.9273369389
100
AcDbArc
 50
246.6441216804
 51
248.0937676775
  0
ARC
  5
403
100
AcDbEntity
  8
0
100
AcDbCircle
 62
7
  6
CONTINUOUS
 10
170.2622271628
 20
126.817151237
 40
10.882087956
100
AcDbArc
 50
211.3462035871
 51
211.8353150167
  0
ARC
  5
404
100
AcDbEntity
  8
0
100
AcDbCircle
 62
7
  6
CONTINUOUS
 10
170.2135542599
 20
126.7875026968
 40
10.8250959617
100
AcDbArc
 50
210.8543629318
 51
211.3461983202
  0
ARC
  5
405
100
AcDbEntity
  8
0
100
AcDbCircle
 62
7
  6
CONTINUOUS
 10
170.1731252926
 20
126.7633246811
 40
10.7779888778
100
AcDbArc
 50
210.5201073188
 51
210.8542465869
  0
ARC
  5
406
100
AcDbEntity
  8
0
100
AcDbCircle
 62
7
  6
CONTINUOUS
 10
169.3976948344
 20
122.341882829
 40
9.575488886
100
AcDbArc
 50
202.1174674735
 51
204.1945638047
  0
ARC
  5
407
100
AcDbEntity
  8
0
100
AcDbCircle
 62
7
  6
CONTINUOUS
 10
167.2621780988
 20
126.0773281967
 40
9.2403833839
100
AcDbArc
 50
234.8292154765
 51
235.991186986
  0
ARC
  5
408
100
AcDbEntity
  8
0
100
AcDbCircle
 62
7
  6
CONTINUOUS
 10
189.3196184804
 20
130.4015010296
 40
7.8102967371
100
AcDbArc
 50
292.8615570082
 51
294.7934501912
  0
ARC
  5
409
100
AcDbEntity
  8
0
100
AcDbCircle
 62
7
  6
CONTINUOUS
 10
189.8775293577
 20
130.1946462701
 40
7.6147473327
100
AcDbArc
 50
293.3726165199
 51
295.314592068
  0
ARC
  5
40A
100
AcDbEntity
  8
0
100
AcDbCircle
 62
7
  6
CONTINUOUS
 10
189.38495064
 20
129.3766729885
 40
7.5268499361
100
AcDbArc
 50
297.0438421707
 51
298.7740148807
  0
ARC
  5
40B
100
AcDbEntity
  8
0
100
AcDbCircle
 62
7
  6
CONTINUOUS
 10
189.0846386532
 20
125.020381311
 40
7.2934920181
100
AcDbArc
 50
293.0888753614
 51
295.1347111174
  0
ARC
  5
40C
100
AcDbEntity
  8
0
100
AcDbCircle
 62
7
  6
CONTINUOUS
 10
188.967836807
 20
124.9702609877
 40
6.8688446908
100
AcDbArc
 50
296.8702599937
 51
298.7717031663
  0
ARC
  5
40D
100
AcDbEntity
  8
RUNDUNGEN
100
AcDbCircle
 62
7
  6
CONTINUOUS
 10
176.8300783145
 20
127.3111150938
 40
4.5
100
AcDbArc
 50
179.0221117588
 51
0.9778882412
  0
ARC
  5
40E
100
AcDbEntity
  8
BEZUGSACHSEN
100
AcDbCircle
 62
7
  6
CONTINUOUS
 10
176.8300783145
 20
127.3111150938
 40
4.5
100
AcDbArc
 50
179.0242506579
 51
0.9757493421
  0
ARC
  5
40F
100
AcDbEntity
  8
0
100
AcDbCircle
 62
7
  6
CONTINUOUS
 10
162.9741066356
 20
123.5290400518
 40
3.7050365802
100
AcDbArc
 50
223.6701876262
 51
225.9900543777
  0
ARC
  5
410
100
AcDbEntity
  8
0
100
AcDbCircle
 62
7
  6
CONTINUOUS
 10
162.3639918882
 20
123.9737362089
 40
3.2999727992
100
AcDbArc
 50
228.4894761958
 51
231.3587886019
  0
ARC
  5
411
100
AcDbEntity
  8
0
100
AcDbCircle
 62
7
  6
CONTINUOUS
 10
162.7792884433
 20
123.8989422702
 40
3.1743502066
100
AcDbArc
 50
229.0172086754
 51
230.745394355
  0
ARC
  5
412
100
AcDbEntity
  8
BEZUGSACHSEN
100
AcDbCircle
 62
7
  6
CONTINUOUS
 10
161.6027341221
 20
125.000154116
 40
2.0
100
AcDbArc
 50
105.0
 51
192.0
  0
ARC
  5
413
100
AcDbEntity
  8
0
100
AcDbCircle
 62
7
  6
CONTINUOUS
 10
98.8560955023
 20
141.50404289
 40
97.0937439542
100
AcDbArc
 50
346.1800553232
 51
346.4717929231
  0
ARC
  5
414
100
AcDbEntity
  8
0
100
AcDbCircle
 62
7
  6
CONTINUOUS
 10
111.488070105
 20
153.4323700853
 40
86.5995293583
100
AcDbArc
 50
338.5911462287
 51
338.817775473
  0
ARC
  5
415
100
AcDbEntity
  8
0
100
AcDbCircle
 62
7
  6
CONTINUOUS
 10
115.119961302
 20
152.281056235
 40
82.278232443
100
AcDbArc
 50
338.2721216511
 51
338.5111658856
  0
ARC
  5
416
100
AcDbEntity
  8
0
100
AcDbCircle
 62
7
  6
CONTINUOUS
 10
131.7662366638
 20
141.1070831066
 40
64.6865852261
100
AcDbArc
 50
340.068631938
 51
340.4690552432
  0
ARC
  5
417
100
AcDbEntity
  8
0
100
AcDbCircle
 62
7
  6
CONTINUOUS
 10
132.2785224756
 20
137.1300014429
 40
63.4563376409
100
AcDbArc
 50
342.1441548432
 51
343.0644975222
  0
ARC
  5
418
100
AcDbEntity
  8
0
100
AcDbCircle
 62
7
  6
CONTINUOUS
 10
132.4822802523
 20
137.9723991117
 40
63.4263517479
100
AcDbArc
 50
342.2589243865
 51
342.4462893961
  0
ARC
  5
419
100
AcDbEntity
  8
0
100
AcDbCircle
 62
7
  6
CONTINUOUS
 10
134.2697865575
 20
137.397275143
 40
61.5486040219
100
AcDbArc
 50
341.497663995
 51
342.261802062
  0
ARC
  5
41A
100
AcDbEntity
  8
0
100
AcDbCircle
 62
7
  6
CONTINUOUS
 10
134.6217104727
 20
137.2957423529
 40
60.6868046491
100
AcDbArc
 50
341.9068219829
 51
342.1020355323
  0
ARC
  5
41B
100
AcDbEntity
  8
0
100
AcDbCircle
 62
7
  6
CONTINUOUS
 10
135.3333326138
 20
137.0632346191
 40
59.9381619319
100
AcDbArc
 50
341.7100356591
 51
341.9068288374
  0
ARC
  5
41C
100
AcDbEntity
  8
0
100
AcDbCircle
 62
7
  6
CONTINUOUS
 10
136.0089032734
 20
136.8184606912
 40
59.7156981765
100
AcDbArc
 50
341.2999849163
 51
341.4947844877
  0
ARC
  5
41D
100
AcDbEntity
  8
0
100
AcDbCircle
 62
7
  6
CONTINUOUS
 10
136.7374611565
 20
136.5973401028
 40
58.4587594572
100
AcDbArc
 50
341.1116930394
 51
341.7117072094
  0
ARC
  5
41E
100
AcDbEntity
  8
0
100
AcDbCircle
 62
7
  6
CONTINUOUS
 10
143.178900614
 20
144.5012571712
 40
53.9132802554
100
AcDbArc
 50
335.4966344394
 51
335.9926520571
  0
ARC
  5
41F
100
AcDbEntity
  8
0
100
AcDbCircle
 62
7
  6
CONTINUOUS
 10
144.830332041
 20
143.8776722291
 40
51.6457172661
100
AcDbArc
 50
335.1096948611
 51
335.6290346614
  0
ARC
  5
420
100
AcDbEntity
  8
0
100
AcDbCircle
 62
7
  6
CONTINUOUS
 10
155.0956866427
 20
135.2914003384
 40
40.6621177352
100
AcDbArc
 50
336.6301704675
 51
337.6064084595
  0
ARC
  5
421
100
AcDbEntity
  8
0
100
AcDbCircle
 62
7
  6
CONTINUOUS
 10
155.7844316071
 20
135.0028698349
 40
39.4237768909
100
AcDbArc
 50
336.4757638685
 51
337.3180849686
  0
ARC
  5
422
100
AcDbEntity
  8
0
100
AcDbCircle
 62
7
  6
CONTINUOUS
 10
158.1366981822
 20
139.1544888118
 40
38.3328974878
100
AcDbArc
 50
333.1174257839
 51
334.1821213048
  0
ARC
  5
423
100
AcDbEntity
  8
0
100
AcDbCircle
 62
7
  6
CONTINUOUS
 10
173.0763224929
 20
134.9994083119
 40
23.0017099223
100
AcDbArc
 50
327.2806898088
 51
328.2206875691
  0
ARC
  5
424
100
AcDbEntity
  8
0
100
AcDbCircle
 62
7
  6
CONTINUOUS
 10
173.1605511987
 20
134.8381979807
 40
22.3783636912
100
AcDbArc
 50
326.7443104105
 51
327.7161022757
  0
ARC
  5
425
100
AcDbEntity
  8
RUNDUNGEN
100
AcDbCircle
 62
7
  6
CONTINUOUS
 10
188.8300783145
 20
135.1824040097
 40
7.0
100
AcDbArc
 50
179.9995420657
 51
255.0002761328
  0
ARC
  5
426
100
AcDbEntity
  8
BEZUGSACHSEN
100
AcDbCircle
 62
7
  6
CONTINUOUS
 10
164.8300783145
 20
135.1824040097
 40
7.0
100
AcDbArc
 50
284.9997238672
 51
0.0004579343
  0
ARC
  5
427
100
AcDbEntity
  8
0
100
AcDbCircle
 62
7
  6
CONTINUOUS
 10
228.0272696924
 20
124.1263604172
 40
67.3622416724
100
AcDbArc
 50
183.9540270673
 51
184.2261765212
  0
ARC
  5
428
100
AcDbEntity
  8
0
100
AcDbCircle
 62
7
  6
CONTINUOUS
 10
211.7225116649
 20
120.953871403
 40
50.7521985294
100
AcDbArc
 50
182.0231193313
 51
182.50389243
  0
ARC
  5
429
100
AcDbEntity
  8
0
100
AcDbCircle
 62
7
  6
CONTINUOUS
 10
210.9900104374
 20
120.6888700166
 40
49.4818971978
100
AcDbArc
 50
181.8917884426
 51
182.2610931358
  0
ARC
  5
42A
100
AcDbEntity
  8
0
100
AcDbCircle
 62
7
  6
CONTINUOUS
 10
198.7951070143
 20
130.2722006773
 40
39.9691144098
100
AcDbArc
 50
196.2453278269
 51
196.7748582094
  0
ARC
  5
42B
100
AcDbEntity
  8
0
100
AcDbCircle
 62
7
  6
CONTINUOUS
 10
190.7065772185
 20
119.6783003064
 40
3.8616500871
100
AcDbArc
 50
50.845859087
 51
53.4174177762
  0
ARC
  5
42C
100
AcDbEntity
  8
0
100
AcDbCircle
 62
7
  6
CONTINUOUS
 10
191.1466729138
 20
120.0403029367
 40
3.8269717465
100
AcDbArc
 50
55.7791018224
 51
58.7237068222
  0
ARC
  5
42D
100
AcDbEntity
  8
RUNDUNGEN
100
AcDbCircle
 62
7
  6
CONTINUOUS
 10
192.0574225069
 20
125.000154116
 40
2.0
100
AcDbArc
 50
348.0
 51
75.0
  0
ARC
  5
42E
100
AcDbEntity
  8
0
100
AcDbCircle
 62
7
  6
CONTINUOUS
 10
281.0237074896
 20
145.8143418755
 40
123.6394076685
100
AcDbArc
 50
190.7468448045
 51
191.3168097157
  0
ARC
  5
42F
100
AcDbEntity
  8
0
100
AcDbCircle
 62
7
  6
CONTINUOUS
 10
275.3537099575
 20
146.1092974719
 40
118.154081985
100
AcDbArc
 50
191.3881652378
 51
191.9966320741
  0
ARC
  5
430
100
AcDbEntity
  8
0
100
AcDbCircle
 62
7
  6
CONTINUOUS
 10
273.9925018058
 20
144.4085857325
 40
116.4690519028
100
AcDbArc
 50
191.3174670641
 51
191.8320552286
  0
ARC
  5
431
100
AcDbEntity
  8
0
100
AcDbCircle
 62
7
  6
CONTINUOUS
 10
267.0597713951
 20
142.950579182
 40
109.3846510539
100
AcDbArc
 50
191.9990259418
 51
192.3426994763
  0
ARC
  5
432
100
AcDbEntity
  8
0
100
AcDbCircle
 62
7
  6
CONTINUOUS
 10
263.9316986707
 20
142.2669797776
 40
106.1827536274
100
AcDbArc
 50
192.3508152625
 51
192.580337801
  0
ARC
  5
433
100
AcDbEntity
  8
0
100
AcDbCircle
 62
7
  6
CONTINUOUS
 10
261.2741904166
 20
141.6729107582
 40
103.4596536676
100
AcDbArc
 50
192.641160275
 51
192.8254402461
  0
ARC
  5
434
100
AcDbEntity
  8
0
100
AcDbCircle
 62
7
  6
CONTINUOUS
 10
259.3622945299
 20
141.2374094483
 40
101.4987846719
100
AcDbArc
 50
192.825310128
 51
193.0544851925
  0
ARC
  5
435
100
AcDbEntity
  8
0
100
AcDbCircle
 62
7
  6
CONTINUOUS
 10
249.1304317816
 20
149.505649863
 40
93.0535295407
100
AcDbArc
 50
198.0640975663
 51
198.4089338287
  0
ARC
  5
436
100
AcDbEntity
  8
0
100
AcDbCircle
 62
7
  6
CONTINUOUS
 10
246.6778641652
 20
148.8200545146
 40
90.0071424533
100
AcDbArc
 50
198.2376233087
 51
198.4987131301
  0
ARC
  5
437
100
AcDbEntity
  8
0
100
AcDbCircle
 62
7
  6
CONTINUOUS
 10
244.3950241403
 20
150.2075460137
 40
88.2275816623
100
AcDbArc
 50
200.4546990941
 51
200.6760646093
  0
ARC
  5
438
100
AcDbEntity
  8
0
100
AcDbCircle
 62
7
  6
CONTINUOUS
 10
242.9024571929
 20
140.9879518171
 40
85.3395205348
100
AcDbArc
 50
194.572218055
 51
194.8181630384
  0
ARC
  5
439
100
AcDbEntity
  8
0
100
AcDbCircle
 62
7
  6
CONTINUOUS
 10
240.6497707485
 20
149.0564562744
 40
83.8002103208
100
AcDbArc
 50
200.7440397354
 51
200.9775553781
  0
ARC
  5
43A
100
AcDbEntity
  8
0
100
AcDbCircle
 62
7
  6
CONTINUOUS
 10
239.2178931068
 20
141.2231555476
 40
81.7762517617
100
AcDbArc
 50
195.3413323434
 51
195.5993299511
  0
ARC
  5
43B
100
AcDbEntity
  8
0
100
AcDbCircle
 62
7
  6
CONTINUOUS
 10
220.6740225792
 20
136.9053770572
 40
62.7139360552
100
AcDbArc
 50
197.3023141249
 51
197.8587373229
  0
ARC
  5
43C
100
AcDbEntity
  8
0
100
AcDbCircle
 62
7
  6
CONTINUOUS
 10
211.7039381058
 20
140.1370289763
 40
54.3302470864
100
AcDbArc
 50
202.7096934772
 51
203.1970406295
  0
ARC
  5
43D
100
AcDbEntity
  8
0
100
AcDbCircle
 62
7
  6
CONTINUOUS
 10
202.2100653816
 20
136.0515863117
 40
44.4485515826
100
AcDbArc
 50
200.3449542813
 51
200.710679466
  0
ARC
  5
43E
100
AcDbEntity
  8
0
100
AcDbCircle
 62
7
  6
CONTINUOUS
 10
194.5579357663
 20
134.649803126
 40
36.6713096344
100
AcDbArc
 50
201.7229265134
 51
202.321474444
  0
ARC
  5
43F
100
AcDbEntity
  8
0
100
AcDbCircle
 62
7
  6
CONTINUOUS
 10
193.9519706353
 20
134.3663375076
 40
35.514877963
100
AcDbArc
 50
201.9741766529
 51
202.7164232695
  0
ARC
  5
440
100
AcDbEntity
  8
0
100
AcDbCircle
 62
7
  6
CONTINUOUS
 10
282.5036705665
 20
157.0720242551
 40
127.2872764889
100
AcDbArc
 50
196.7762857573
 51
196.9263896956
  0
ARC
  5
441
100
AcDbEntity
  8
BEZUGSACHSEN
100
AcDbCircle
 62
7
  6
CONTINUOUS
 10
173.8300783145
 20
167.3963306933
 40
2.0
100
AcDbArc
 50
90.0
 51
180.0
  0
ARC
  5
442
100
AcDbEntity
  8
RUNDUNGEN
100
AcDbCircle
 62
7
  6
CONTINUOUS
 10
179.8300783145
 20
167.3963306933
 40
2.0
100
AcDbArc
 50
0.0
 51
90.0
  0
ARC
  5
443
100
AcDbEntity
  8
0
100
AcDbCircle
 62
7
  6
CONTINUOUS
 10
1093.2614005987
 20
347.937297952
 40
959.1615836324
100
AcDbArc
 50
193.6681167745
 51
193.7858667239
  0
ARC
  5
444
100
AcDbEntity
  8
0
100
AcDbCircle
 62
7
  6
CONTINUOUS
 10
1010.4550741046
 20
329.0879109629
 40
873.7143858986
100
AcDbArc
 50
193.7586747144
 51
193.8879936343
  0
ARC
  5
445
100
AcDbEntity
  8
0
100
AcDbCircle
 62
7
  6
CONTINUOUS
 10
103.0324253045
 20
66.4933917059
 40
24.0861232871
100
AcDbArc
 50
83.9174899624
 51
92.8505389697
  0
ARC
  5
446
100
AcDbEntity
  8
0
100
AcDbCircle
 62
7
  6
CONTINUOUS
 10
102.9983483786
 20
66.7936584548
 40
23.7840543369
100
AcDbArc
 50
94.8166321291
 51
103.4664757136
  0
ARC
  5
447
100
AcDbEntity
  8
0
100
AcDbCircle
 62
7
  6
CONTINUOUS
 10
102.5578805979
 20
68.0057730207
 40
22.7978084777
100
AcDbArc
 50
68.5437564025
 51
70.2220592161
  0
ARC
  5
448
100
AcDbEntity
  8
0
100
AcDbCircle
 62
7
  6
CONTINUOUS
 10
100.8979342233
 20
69.2017030169
 40
22.3799224114
100
AcDbArc
 50
61.9615282477
 51
63.461954323
  0
ARC
  5
449
100
AcDbEntity
  8
RUNDUNGEN
100
AcDbCircle
 62
7
  6
CONTINUOUS
 10
77.3997591229
 20
70.1553378106
 40
2.0000000015
100
AcDbArc
 50
191.9133609434
 51
270.0000474838
  0
ARC
  5
44A
100
AcDbEntity
  8
0
100
AcDbCircle
 62
7
  6
CONTINUOUS
 10
97.8288549955
 20
83.8057576802
 40
27.2050766487
100
AcDbArc
 50
268.1250873071
 51
268.7166279283
  0
ARC
  5
44B
100
AcDbEntity
  8
0
100
AcDbCircle
 62
7
  6
CONTINUOUS
 10
100.0763464569
 20
81.4844127201
 40
25.066309074
100
AcDbArc
 50
261.6077488948
 51
262.8093685932
  0
ARC
  5
44C
100
AcDbEntity
  8
0
100
AcDbCircle
 62
7
  6
CONTINUOUS
 10
102.131878805
 20
79.5414678235
 40
23.5583985573
100
AcDbArc
 50
254.3908573171
 51
255.9632800995
  0
ARC
  5
44D
100
AcDbEntity
  8
BEZUGSACHSEN
100
AcDbCircle
 62
7
  6
CONTINUOUS
 10
77.3997645897
 20
76.1553388176
 40
2.0000000097
100
AcDbArc
 50
90.0001091293
 51
168.0876372818
  0
ARC
  5
44E
100
AcDbEntity
  8
0
100
AcDbCircle
 62
7
  6
CONTINUOUS
 10
108.2362045364
 20
62.5055264776
 40
27.2044678517
100
AcDbArc
 50
88.1250828892
 51
88.7201444875
  0
ARC
  5
44F
100
AcDbEntity
  8
0
100
AcDbCircle
 62
7
  6
CONTINUOUS
 10
105.9886952532
 20
64.8262628981
 40
25.0663090739
100
AcDbArc
 50
81.6077488948
 51
82.8093685932
  0
ARC
  5
450
100
AcDbEntity
  8
0
100
AcDbCircle
 62
7
  6
CONTINUOUS
 10
103.9331629051
 20
66.7692077945
 40
23.5583985575
100
AcDbArc
 50
74.3908573172
 51
75.9632800995
  0
ARC
  5
451
100
AcDbEntity
  8
0
100
AcDbCircle
 62
7
  6
CONTINUOUS
 10
103.0325208551
 20
73.1553378091
 40
12.1
100
AcDbArc
 50
204.4080179691
 51
335.5919548844
  0
ARC
  5
452
100
AcDbEntity
  8
0
100
AcDbCircle
 62
7
  6
CONTINUOUS
 10
103.0325208551
 20
73.1553378091
 40
12.1
100
AcDbArc
 50
24.4080182461
 51
155.5919548351
  0
ARC
  5
453
100
AcDbEntity
  8
0
100
AcDbCircle
 62
7
  6
CONTINUOUS
 10
103.0325208551
 20
73.1553378091
 40
11.15
100
AcDbArc
 50
26.7208864915
 51
153.2791135085
  0
ARC
  5
454
100
AcDbEntity
  8
0
100
AcDbCircle
 62
7
  6
CONTINUOUS
 10
103.0325208551
 20
73.1553378091
 40
11.15
100
AcDbArc
 50
206.7208864915
 51
333.2791135085
  0
ARC
  5
455
100
AcDbEntity
  8
FASEN
100
AcDbCircle
 62
7
  6
CONTINUOUS
 10
103.0325208551
 20
73.1553378091
 40
6.1
100
AcDbArc
 50
55.2356656579
 51
124.7643475598
  0
ARC
  5
456
100
AcDbEntity
  8
FASEN
100
AcDbCircle
 62
7
  6
CONTINUOUS
 10
103.0325208551
 20
73.1553378091
 40
6.1
100
AcDbArc
 50
244.6108573265
 51
295.3891371551
  0
ARC
  5
457
100
AcDbEntity
  8
0
100
AcDbCircle
 62
2
  6
CONTINUOUS
 10
103.0325208551
 20
73.1553378091
 40
6.0
100
AcDbArc
 50
255.0
 51
293.5497217386
  0
ARC
  5
458
100
AcDbEntity
  8
0
100
AcDbCircle
 62
2
  6
CONTINUOUS
 10
103.0325208551
 20
73.1553378091
 40
6.0
100
AcDbArc
 50
56.4615840159
 51
123.5384159841
  0
ARC
  5
459
100
AcDbEntity
  8
FASEN
100
AcDbCircle
 62
7
  6
CONTINUOUS
 10
103.0325208551
 20
73.1553378091
 40
5.1
100
AcDbArc
 50
79.2747256605
 51
100.725235268
  0
ARC
  5
45A
100
AcDbEntity
  8
RUNDUNGEN
100
AcDbCircle
 62
7
  6
CONTINUOUS
 10
128.6652768746
 20
70.1553368083
 40
2.0000000097
100
AcDbArc
 50
270.0001558018
 51
348.0876451929
  0
ARC
  5
45B
100
AcDbEntity
  8
0
100
AcDbCircle
 62
7
  6
CONTINUOUS
 10
103.0326164057
 20
79.8172839123
 40
24.0861232871
100
AcDbArc
 50
263.9174899624
 51
272.8505389697
  0
ARC
  5
45C
100
AcDbEntity
  8
0
100
AcDbCircle
 62
7
  6
CONTINUOUS
 10
103.0666933315
 20
79.5170171634
 40
23.7840543369
100
AcDbArc
 50
274.8166321291
 51
283.4664757136
  0
ARC
  5
45D
100
AcDbEntity
  8
0
100
AcDbCircle
 62
7
  6
CONTINUOUS
 10
103.5071611122
 20
78.3049025975
 40
22.7978084777
100
AcDbArc
 50
248.5437564025
 51
250.2220592161
  0
ARC
  5
45E
100
AcDbEntity
  8
0
100
AcDbCircle
 62
7
  6
CONTINUOUS
 10
105.1671074868
 20
77.1089726013
 40
22.3799224114
100
AcDbArc
 50
241.9615282477
 51
243.461954323
  0
ARC
  5
45F
100
AcDbEntity
  8
BEZUGSACHSEN
100
AcDbCircle
 62
7
  6
CONTINUOUS
 10
128.6652823319
 20
76.1553378076
 40
2.0000000015
100
AcDbArc
 50
11.9133520123
 51
90.000000701
  0
SPLINE
  5
460
100
AcDbEntity
  8
0
100
AcDbSpline
 62
7
  6
CONTINUOUS
 70
0
 71
3
 72
9
 73
5
 74
0
 42
0.0000001
 43
0.0000001
 44
0.0000000001
 40
0.0
 40
0.0
 40
0.0
 40
0.0
 40
0.2404616426
 40
1.0
 40
1.0
 40
1.0
 40
1.0
 10
109.5600948278
 20
128.4209232257
 30
0.0
 10
109.3876844403
 20
128.3913248841
 30
0.0
 10
108.669544341
 20
128.2749293222
 30
0.0
 10
107.9473587926
 20
128.1839831468
 30
0.0
 10
107.3977497763
 20
128.127012649
 30
0.0
  0
SPLINE
  5
461
100
AcDbEntity
  8
0
100
AcDbSpline
 62
7
  6
CONTINUOUS
 70
0
 71
3
 72
9
 73
5
 74
0
 42
0.0000001
 43
0.0000001
 44
0.0000000001
 40
0.0
 40
0.0
 40
0.0
 40
0.0
 40
0.2589302473
 40
1.0
 40
1.0
 40
1.0
 40
1.0
 10
98.6673271615
 20
128.127008957
 30
0.0
 10
98.4799606015
 20
128.1464303142
 30
0.0
 10
97.75693545
 20
128.2269402423
 30
0.0
 10
97.036298214
 20
128.3297041382
 30
0.0
 10
96.5049468823
 20
128.4209232257
 30
0.0
  0
SPLINE
  5
462
100
AcDbEntity
  8
0
100
AcDbSpline
 62
7
  6
CONTINUOUS
 70
0
 71
3
 72
9
 73
5
 74
0
 42
0.0000001
 43
0.0000001
 44
0.0000000001
 40
0.0
 40
0.0
 40
0.0
 40
0.0
 40
0.2399267152
 40
1.0
 40
1.0
 40
1.0
 40
1.0
 10
111.551604221
 20
129.0676190906
 30
0.0
 10
111.4045967128
 20
128.9864062956
 30
0.0
 10
110.7721289069
 20
128.6831790071
 30
0.0
 10
110.084474625
 20
128.5109454836
 30
0.0
 10
109.5600948278
 20
128.4209232257
 30
0.0
  0
SPLINE
  5
463
100
AcDbEntity
  8
0
100
AcDbSpline
 62
7
  6
CONTINUOUS
 70
0
 71
3
 72
9
 73
5
 74
0
 42
0.0000001
 43
0.0000001
 44
0.0000000001
 40
0.0
 40
0.0
 40
0.0
 40
0.0
 40
0.2619542897
 40
1.0
 40
1.0
 40
1.0
 40
1.0
 10
96.5049468823
 20
128.4209232257
 30
0.0
 10
96.3243244627
 20
128.4519313578
 30
0.0
 10
95.6389095545
 20
128.5883816416
 30
0.0
 10
94.9653453331
 20
128.8179596822
 30
0.0
 10
94.513388694
 20
129.0676460199
 30
0.0
  0
SPLINE
  5
464
100
AcDbEntity
  8
BEZUGSACHSEN
100
AcDbSpline
 62
7
  6
CONTINUOUS
 70
0
 71
3
 72
9
 73
5
 74
0
 42
0.0000001
 43
0.0000001
 44
0.0000000001
 40
0.0
 40
0.0
 40
0.0
 40
0.0
 40
0.5001544563
 40
1.0
 40
1.0
 40
1.0
 40
1.0
 10
131.0274387877
 20
142.2287143756
 30
0.0
 10
131.1346960864
 20
141.969771527
 30
0.0
 10
131.252967149
 20
141.4062979104
 30
0.0
 10
131.1454932392
 20
140.8385703103
 30
0.0
 10
131.0383442863
 20
140.5797699595
 30
0.0
  0
SPLINE
  5
465
100
AcDbEntity
  8
BEZUGSACHSEN
100
AcDbSpline
 62
7
  6
CONTINUOUS
 70
0
 71
3
 72
9
 73
5
 74
0
 42
0.0000001
 43
0.0000001
 44
0.0000000001
 40
0.0
 40
0.0
 40
0.0
 40
0.0
 40
0.4998480291
 40
1.0
 40
1.0
 40
1.0
 40
1.0
 10
75.0266913982
 20
140.5797671643
 30
0.0
 10
74.9195422271
 20
140.8385693469
 30
0.0
 10
74.8120739484
 20
141.4062992007
 30
0.0
 10
74.9303459994
 20
141.9697724636
 30
0.0
 10
75.0376029222
 20
142.2287143752
 30
0.0
  0
SPLINE
  5
466
100
AcDbEntity
  8
0
100
AcDbSpline
 62
7
  6
CONTINUOUS
 70
0
 71
3
 72
10
 73
6
 74
0
 42
0.0000001
 43
0.0000001
 44
0.0000000001
 40
0.0
 40
0.0
 40
0.0
 40
0.0
 40
0.2212443746
 40
0.4660643889
 40
1.0
 40
1.0
 40
1.0
 40
1.0
 10
114.6040044676
 20
131.7665577354
 30
0.0
 10
114.5405831213
 20
131.6893784747
 30
0.0
 10
114.4107747611
 20
131.5237215447
 30
0.0
 10
114.1237815177
 20
131.1751157139
 30
0.0
 10
113.8813149164
 20
130.9193878699
 30
0.0
 10
113.7067439074
 20
130.7531239077
 30
0.0
  0
SPLINE
  5
467
100
AcDbEntity
  8
0
100
AcDbSpline
 62
7
  6
CONTINUOUS
 70
0
 71
3
 72
10
 73
6
 74
0
 42
0.0000001
 43
0.0000001
 44
0.0000000001
 40
0.0
 40
0.0
 40
0.0
 40
0.0
 40
0.2273392061
 40
0.4724691511
 40
1.0
 40
1.0
 40
1.0
 40
1.0
 10
113.7067439074
 20
130.7531239077
 30
0.0
 10
113.5562704148
 20
130.6098117831
 30
0.0
 10
113.2429300309
 20
130.312454206
 30
0.0
 10
112.5551200052
 20
129.7106399895
 30
0.0
 10
111.9736715812
 20
129.3007858551
 30
0.0
 10
111.5516047474
 20
129.0676193513
 30
0.0
  0
SPLINE
  5
468
100
AcDbEntity
  8
0
100
AcDbSpline
 62
7
  6
CONTINUOUS
 70
0
 71
3
 72
15
 73
11
 74
0
 42
0.0000001
 43
0.0000001
 44
0.0000000001
 40
0.0
 40
0.0
 40
0.0
 40
0.0
 40
0.1212747283
 40
0.2457258233
 40
0.3723214035
 40
0.4999996991
 40
0.6276780342
 40
0.7542737637
 40
0.8787250787
 40
1.0
 40
1.0
 40
1.0
 40
1.0
 10
107.3981371791
 20
128.127057869
 30
0.0
 10
107.045990218
 20
128.0905555808
 30
0.0
 10
106.33247146
 20
128.0166118072
 30
0.0
 10
105.2505449788
 20
127.9124215487
 30
0.0
 10
104.147676561
 20
127.8319182088
 30
0.0
 10
103.0325615569
 20
127.8005588459
 30
0.0
 10
101.917445961
 20
127.8319138813
 30
0.0
 10
100.8145762046
 20
127.9124154895
 30
0.0
 10
99.7326478896
 20
128.0166038276
 30
0.0
 10
99.0191279395
 20
128.0905478139
 30
0.0
 10
98.6669803434
 20
128.1270494393
 30
0.0
  0
SPLINE
  5
469
100
AcDbEntity
  8
0
100
AcDbSpline
 62
7
  6
CONTINUOUS
 70
0
 71
3
 72
10
 73
6
 74
0
 42
0.0000001
 43
0.0000001
 44
0.0000000001
 40
0.0
 40
0.0
 40
0.0
 40
0.0
 40
0.5275300288
 40
0.7726602296
 40
1.0
 40
1.0
 40
1.0
 40
1.0
 10
94.5133875502
 20
129.0676465864
 30
0.0
 10
94.0913372837
 20
129.3008109488
 30
0.0
 10
93.5099073241
 20
129.7106513892
 30
0.0
 10
92.8221193398
 20
130.3124484249
 30
0.0
 10
92.5087870303
 20
130.6097962949
 30
0.0
 10
92.3583174119
 20
130.753103995
 30
0.0
  0
SPLINE
  5
46A
100
AcDbEntity
  8
0
100
AcDbSpline
 62
7
  6
CONTINUOUS
 70
0
 71
3
 72
10
 73
6
 74
0
 42
0.0000001
 43
0.0000001
 44
0.0000000001
 40
0.0
 40
0.0
 40
0.0
 40
0.0
 40
0.5339373381
 40
0.7787565505
 40
1.0
 40
1.0
 40
1.0
 40
1.0
 10
92.3583174119
 20
130.753103995
 30
0.0
 10
92.1837407923
 20
130.9193722798
 30
0.0
 10
91.9412695036
 20
131.1751087876
 30
0.0
 10
91.6542655507
 20
131.5237209547
 30
0.0
 10
91.5244561052
 20
131.6893830736
 30
0.0
 10
91.461032159
 20
131.7665630167
 30
0.0
  0
SPLINE
  5
46B
100
AcDbEntity
  8
BEZUGSACHSEN
100
AcDbSpline
 62
7
  6
CONTINUOUS
 70
0
 71
3
 72
8
 73
4
 74
0
 42
0.0000001
 43
0.0000001
 44
0.0000000001
 40
0.0
 40
0.0
 40
0.0
 40
0.0
 40
1.0
 40
1.0
 40
1.0
 40
1.0
 10
126.6210251808
 20
129.9153953485
 30
0.0
 10
126.5631095172
 20
129.7752002284
 30
0.0
 10
126.5325208091
 20
129.6207112059
 30
0.0
 10
126.5325208709
 20
129.4690243713
 30
0.0
  0
SPLINE
  5
46C
100
AcDbEntity
  8
BEZUGSACHSEN
100
AcDbSpline
 62
7
  6
CONTINUOUS
 70
0
 71
3
 72
11
 73
7
 74
0
 42
0.0000001
 43
0.0000001
 44
0.0000000001
 40
0.0
 40
0.0
 40
0.0
 40
0.0
 40
0.2500132802
 40
0.5000137577
 40
0.7500060235
 40
1.0
 40
1.0
 40
1.0
 40
1.0
 10
124.3516201779
 20
122.8111192556
 30
0.0
 10
124.2533426674
 20
122.8111189639
 30
0.0
 10
124.0555932735
 20
122.7821259334
 30
0.0
 10
123.7850257018
 20
122.6550096456
 30
0.0
 10
123.5627910452
 20
122.4550062366
 30
0.0
 10
123.4598276009
 20
122.2835929434
 30
0.0
 10
123.4222225953
 20
122.1928028492
 30
0.0
  0
SPLINE
  5
46D
100
AcDbEntity
  8
BEZUGSACHSEN
100
AcDbSpline
 62
7
  6
CONTINUOUS
 70
0
 71
3
 72
8
 73
4
 74
0
 42
0.0000001
 43
0.0000001
 44
0.0000000001
 40
0.0
 40
0.0
 40
0.0
 40
0.0
 40
1.0
 40
1.0
 40
1.0
 40
1.0
 10
79.5325207815
 20
129.4690243713
 30
0.0
 10
79.5325209973
 20
129.6207111876
 30
0.0
 10
79.5019321503
 20
129.7752002184
 30
0.0
 10
79.4440163783
 20
129.9153952739
 30
0.0
  0
SPLINE
  5
46E
100
AcDbEntity
  8
BEZUGSACHSEN
100
AcDbSpline
 62
7
  6
CONTINUOUS
 70
0
 71
3
 72
11
 73
7
 74
0
 42
0.0000001
 43
0.0000001
 44
0.0000000001
 40
0.0
 40
0.0
 40
0.0
 40
0.0
 40
0.2499949368
 40
0.4999875538
 40
0.7499875162
 40
1.0
 40
1.0
 40
1.0
 40
1.0
 10
82.6428257922
 20
122.1928055925
 30
0.0
 10
82.605221039
 20
122.2835971792
 30
0.0
 10
82.5022574212
 20
122.4550132287
 30
0.0
 10
82.2800208844
 20
122.6550193344
 30
0.0
 10
82.0094506743
 20
122.7821359544
 30
0.0
 10
81.8116996345
 20
122.8111275621
 30
0.0
 10
81.7134215321
 20
122.8111268581
 30
0.0
  0
SPLINE
  5
46F
100
AcDbEntity
  8
BEZUGSACHSEN
100
AcDbSpline
 62
7
  6
CONTINUOUS
 70
0
 71
3
 72
28
 73
24
 74
0
 42
0.0000001
 43
0.0000001
 44
0.0000000001
 40
0.0
 40
0.0
 40
0.0
 40
0.0
 40
0.0132470995
 40
0.0353493344
 40
0.0660849378
 40
0.1051102843
 40
0.151958916
 40
0.2060654697
 40
0.266793739
 40
0.3334579288
 40
0.4053440782
 40
0.4817549726
 40
0.5620043855
 40
0.6454460982
 40
0.731484594
 40
0.7753063222
 40
0.8195791681
 40
0.8642465568
 40
0.9092539236
 40
0.9318728767
 40
0.9545571525
 40
0.9772904135
 40
1.0
 40
1.0
 40
1.0
 40
1.0
 10
83.4974537969
 20
120.1295316719
 30
0.0
 10
83.5676346466
 20
120.1118618751
 30
0.0
 10
83.7566305092
 20
120.0718585291
 30
0.0
 10
84.1099703429
 20
119.9979254133
 30
0.0
 10
84.6010702846
 20
119.8944451628
 30
0.0
 10
85.2232193439
 20
119.7574045957
 30
0.0
 10
85.9680581981
 20
119.5839816533
 30
0.0
 10
86.8253400378
 20
119.3710103895
 30
0.0
 10
87.7835567198
 20
119.1158366149
 30
0.0
 10
88.8302651876
 20
118.8161734154
 30
0.0
 10
89.9526877694
 20
118.4704742346
 30
0.0
 10
91.1378458869
 20
118.0772480149
 30
0.0
 10
92.3730705387
 20
117.6354776611
 30
0.0
 10
93.6457754489
 20
117.1435527549
 30
0.0
 10
94.7201787745
 20
116.6917262193
 30
0.0
 10
95.5865730156
 20
116.298696704
 30
0.0
 10
96.2401458314
 20
115.9839936892
 30
0.0
 10
96.8897099287
 20
115.6467778476
 30
0.0
 10
97.4220090509
 20
115.3409779425
 30
0.0
 10
97.8358146108
 20
115.072119782
 30
0.0
 10
98.1365556551
 20
114.8529762891
 30
0.0
 10
98.4180591965
 20
114.6094235096
 30
0.0
 10
98.5813207022
 20
114.4181443829
 30
0.0
 10
98.6440674463
 20
114.3111150938
 30
0.0
  0
SPLINE
  5
470
100
AcDbEntity
  8
BEZUGSACHSEN
100
AcDbSpline
 62
7
  6
CONTINUOUS
 70
0
 71
3
 72
28
 73
24
 74
0
 42
0.0000001
 43
0.0000001
 44
0.0000000001
 40
0.0
 40
0.0
 40
0.0
 40
0.0
 40
0.0227105162
 40
0.0454439647
 40
0.0681283833
 40
0.0907472566
 40
0.1357544054
 40
0.180421586
 40
0.2246942466
 40
0.26851582
 40
0.3545540843
 40
0.4379956161
 40
0.5182449156
 40
0.5946558173
 40
0.6665419462
 40
0.7332060948
 40
0.7939343571
 40
0.8480408719
 40
0.8948895094
 40
0.9339149054
 40
0.9646505425
 40
0.9867528473
 40
1.0
 40
1.0
 40
1.0
 40
1.0
 10
107.4209742638
 20
114.3111150938
 30
0.0
 10
107.4837235784
 20
114.4181487675
 30
0.0
 10
107.6469850737
 20
114.6094363473
 30
0.0
 10
107.9285017101
 20
114.8529851769
 30
0.0
 10
108.2292435004
 20
115.0721293707
 30
0.0
 10
108.6430480839
 20
115.3409877285
 30
0.0
 10
109.1753454836
 20
115.6467850534
 30
0.0
 10
109.8249068229
 20
115.9839989816
 30
0.0
 10
110.4784770137
 20
116.2987005817
 30
0.0
 10
111.3448684979
 20
116.6917286721
 30
0.0
 10
112.4192691642
 20
117.1435536065
 30
0.0
 10
113.6919714253
 20
117.6354774727
 30
0.0
 10
114.9271945155
 20
118.0772476254
 30
0.0
 10
116.112351923
 20
118.4704738923
 30
0.0
 10
117.234774325
 20
118.8161727534
 30
0.0
 10
118.2814825135
 20
119.1158356414
 30
0.0
 10
119.2396986381
 20
119.3710097556
 30
0.0
 10
120.0969803394
 20
119.5839807566
 30
0.0
 10
120.8418192305
 20
119.757404013
 30
0.0
 10
121.463968808
 20
119.8944445631
 30
0.0
 10
121.9550696017
 20
119.9979248838
 30
0.0
 10
122.3084101863
 20
120.0718586221
 30
0.0
 10
122.4974067795
 20
120.1118618036
 30
0.0
 10
122.5675879132
 20
120.1295316719
 30
0.0
  0
LINE
  5
471
100
AcDbEntity
  8
0
100
AcDbLine
 62
7
  6
CONTINUOUS
 10
160.771130286
 20
122.5664343316
 11
160.9737960746
 21
121.7153703052
  0
LINE
  5
472
100
AcDbEntity
  8
0
100
AcDbLine
 62
7
  6
CONTINUOUS
 10
160.706896068
 20
121.7153703052
 11
160.8059159143
 21
121.289838441
  0
SPLINE
  5
473
100
AcDbEntity
  8
0
100
AcDbSpline
 62
7
  6
CONTINUOUS
 70
0
 71
3
 72
8
 73
4
 74
0
 42
0.0000001
 43
0.0000001
 44
0.0000000001
 40
0.0
 40
0.0
 40
0.0
 40
0.0
 40
1.0
 40
1.0
 40
1.0
 40
1.0
 10
161.0753681175
 20
121.289838441
 30
0.0
 10
161.2448289996
 20
120.5804579756
 30
0.0
 10
161.4149361312
 20
119.8712315043
 30
0.0
 10
161.5857636317
 20
119.1621788967
 30
0.0
  0
LINE
  5
474
100
AcDbEntity
  8
0
100
AcDbLine
 62
7
  6
CONTINUOUS
 10
160.5145931806
 20
120.6515406448
 11
160.534372676
 21
120.598095596
  0
LINE
  5
475
100
AcDbEntity
  8
0
100
AcDbLine
 62
7
  6
CONTINUOUS
 10
160.7785223598
 20
119.8004767674
 11
160.8253703461
 21
119.4813278693
  0
LINE
  5
476
100
AcDbEntity
  8
0
100
AcDbLine
 62
7
  6
CONTINUOUS
 10
160.2897244877
 20
119.5877108354
 11
160.3081996521
 21
119.5165199507
  0
LINE
  5
477
100
AcDbEntity
  8
0
100
AcDbLine
 62
7
  6
CONTINUOUS
 10
160.4011274974
 20
119.1621788967
 11
160.4218526335
 21
119.0908119026
  0
LINE
  5
478
100
AcDbEntity
  8
0
100
AcDbLine
 62
7
  6
CONTINUOUS
 10
159.4916960822
 20
123.3111150938
 11
159.5908335353
 21
122.8483827086
  0
LINE
  5
479
100
AcDbEntity
  8
0
100
AcDbLine
 62
7
  6
CONTINUOUS
 10
159.5908335353
 20
122.8483827086
 11
159.6078653005
 21
122.7688904847
  0
LINE
  5
47A
100
AcDbEntity
  8
0
100
AcDbLine
 62
7
  6
CONTINUOUS
 10
159.6078653005
 20
122.7688904847
 11
159.8875983489
 21
121.4635081646
  0
LINE
  5
47B
100
AcDbEntity
  8
0
100
AcDbLine
 62
7
  6
CONTINUOUS
 10
159.8875983489
 20
121.4635081646
 11
159.9070887812
 21
121.3725707909
  0
LINE
  5
47C
100
AcDbEntity
  8
0
100
AcDbLine
 62
7
  6
CONTINUOUS
 10
159.9070887812
 20
121.3725707909
 11
159.9727120093
 21
121.0664045548
  0
LINE
  5
47D
100
AcDbEntity
  8
0
100
AcDbLine
 62
7
  6
CONTINUOUS
 10
159.9727120093
 20
121.0664045548
 11
159.9860005662
 21
121.0044094037
  0
LINE
  5
47E
100
AcDbEntity
  8
0
100
AcDbLine
 62
7
  6
CONTINUOUS
 10
159.9860005662
 20
121.0044094037
 11
160.0844468306
 21
120.5451576787
  0
LINE
  5
47F
100
AcDbEntity
  8
0
100
AcDbLine
 62
7
  6
CONTINUOUS
 10
160.322419458
 20
119.0313587499
 11
160.2982268124
 21
119.1394922684
  0
LINE
  5
480
100
AcDbEntity
  8
0
100
AcDbLine
 62
7
  6
CONTINUOUS
 10
160.206411627
 20
119.5548245387
 11
160.203377771
 21
119.5686838817
  0
LINE
  5
481
100
AcDbEntity
  8
0
100
AcDbLine
 62
7
  6
CONTINUOUS
 10
160.7979681385
 20
118.2534098648
 11
160.7800254941
 21
118.3110990999
  0
LINE
  5
482
100
AcDbEntity
  8
0
100
AcDbLine
 62
7
  6
CONTINUOUS
 10
194.1343088376
 20
122.7792002636
 11
194.1291482385
 21
122.7536012007
  0
LINE
  5
483
100
AcDbEntity
  8
0
100
AcDbLine
 62
7
  6
CONTINUOUS
 10
193.2873662012
 20
121.8217532712
 11
193.3340967871
 21
122.1409024674
  0
LINE
  5
484
100
AcDbEntity
  8
0
100
AcDbLine
 62
7
  6
CONTINUOUS
 10
193.1924430509
 20
121.289838441
 11
193.2873662012
 21
121.8217532712
  0
LINE
  5
485
100
AcDbEntity
  8
0
100
AcDbLine
 62
7
  6
CONTINUOUS
 10
192.9763282388
 20
120.3323917467
 11
193.1924430509
 21
121.289838441
  0
LINE
  5
486
100
AcDbEntity
  8
0
100
AcDbLine
 62
7
  6
CONTINUOUS
 10
191.9407577806
 20
120.4387747127
 11
192.1266527842
 21
121.183455475
  0
LINE
  5
487
100
AcDbEntity
  8
0
100
AcDbLine
 62
7
  6
CONTINUOUS
 10
191.8246501753
 20
119.8004767674
 11
191.9407577806
 21
120.4387747127
  0
LINE
  5
488
100
AcDbEntity
  8
0
100
AcDbLine
 62
7
  6
CONTINUOUS
 10
192.9829663247
 20
118.6454867409
 11
193.0354668305
 21
118.8187101805
  0
LINE
  5
489
100
AcDbEntity
  8
0
100
AcDbLine
 62
7
  6
CONTINUOUS
 10
193.0354668305
 20
118.8187101805
 11
193.0427961003
 21
118.8430299986
  0
SPLINE
  5
48A
100
AcDbEntity
  8
0
100
AcDbSpline
 62
7
  6
CONTINUOUS
 70
0
 71
3
 72
8
 73
4
 74
0
 42
0.0000001
 43
0.0000001
 44
0.0000000001
 40
0.0
 40
0.0
 40
0.0
 40
0.0
 40
1.0
 40
1.0
 40
1.0
 40
1.0
 10
191.3699641989
 20
121.289838441
 30
0.0
 10
191.2879992509
 20
120.9706247409
 30
0.0
 10
191.2057872069
 20
120.6514743736
 30
0.0
 10
191.1233134765
 20
120.3323917467
 30
0.0
  0
LINE
  5
48B
100
AcDbEntity
  8
0
100
AcDbLine
 62
7
  6
CONTINUOUS
 10
191.1233134765
 20
120.3323917467
 11
191.0342713783
 21
119.8004767674
  0
LINE
  5
48C
100
AcDbEntity
  8
0
100
AcDbLine
 62
7
  6
CONTINUOUS
 10
162.3955994582
 20
118.3111150938
 11
162.286434706
 21
118.7366469953
  0
LINE
  5
48D
100
AcDbEntity
  8
0
100
AcDbLine
 62
7
  6
CONTINUOUS
 10
191.0342713783
 20
119.8004767674
 11
191.0001759116
 21
119.4813278693
  0
LINE
  5
48E
100
AcDbEntity
  8
0
100
AcDbLine
 62
7
  6
CONTINUOUS
 10
160.4735694948
 20
119.1621788967
 11
160.4538113843
 21
119.2328217029
  0
LINE
  5
48F
100
AcDbEntity
  8
0
100
AcDbLine
 62
7
  6
CONTINUOUS
 10
192.6535136524
 20
122.4600513655
 11
192.6489916587
 21
122.3531162698
  0
LINE
  5
490
100
AcDbEntity
  8
0
100
AcDbLine
 62
7
  6
CONTINUOUS
 10
192.6241712727
 20
121.8217532712
 11
192.5062884262
 21
121.183455475
  0
LINE
  5
491
100
AcDbEntity
  8
0
100
AcDbLine
 62
7
  6
CONTINUOUS
 10
192.5062884262
 20
121.183455475
 11
192.3354559716
 21
120.4387747127
  0
SPLINE
  5
492
100
AcDbEntity
  8
0
100
AcDbSpline
 62
7
  6
CONTINUOUS
 70
0
 71
3
 72
9
 73
5
 74
0
 42
0.0000001
 43
0.0000001
 44
0.0000000001
 40
0.0
 40
0.0
 40
0.0
 40
0.0
 40
0.2448223191
 40
1.0
 40
1.0
 40
1.0
 40
1.0
 10
160.8814609512
 20
118.3111150938
 30
0.0
 10
160.8881594556
 20
118.3200582636
 30
0.0
 10
160.915878204
 20
118.3563185119
 30
0.0
 10
160.9449880602
 20
118.3915104555
 30
0.0
 10
160.967627844
 20
118.4174980692
 30
0.0
  0
SPLINE
  5
493
100
AcDbEntity
  8
0
100
AcDbSpline
 62
7
  6
CONTINUOUS
 70
0
 71
3
 72
8
 73
4
 74
0
 42
0.0000001
 43
0.0000001
 44
0.0000000001
 40
0.0
 40
0.0
 40
0.0
 40
0.0
 40
1.0
 40
1.0
 40
1.0
 40
1.0
 10
161.0019488374
 20
119.1621788967
 30
0.0
 10
160.9797770954
 20
119.339461974
 30
0.0
 10
160.9577829219
 20
119.5167673434
 30
0.0
 10
160.9359608475
 20
119.6940938014
 30
0.0
  0
LINE
  5
494
100
AcDbEntity
  8
0
100
AcDbLine
 62
7
  6
CONTINUOUS
 10
160.9359608475
 20
119.6940938014
 11
160.838750736
 21
120.1196256656
  0
LINE
  5
495
100
AcDbEntity
  8
0
100
AcDbLine
 62
7
  6
CONTINUOUS
 10
160.6634902655
 20
120.6515406448
 11
160.634501486
 21
120.7219333345
  0
LINE
  5
496
100
AcDbEntity
  8
0
100
AcDbLine
 62
7
  6
CONTINUOUS
 10
191.9317504942
 20
119.2673837724
 11
191.8857615521
 21
119.1621788967
  0
LINE
  5
497
100
AcDbEntity
  8
0
100
AcDbLine
 62
7
  6
CONTINUOUS
 10
160.0224836648
 20
121.077072509
 11
159.9615444612
 21
121.3600126127
  0
LINE
  5
498
100
AcDbEntity
  8
0
100
AcDbLine
 62
7
  6
CONTINUOUS
 10
159.9615444612
 20
121.3600126127
 11
159.9565691276
 21
121.3831144184
  0
LINE
  5
499
100
AcDbEntity
  8
0
100
AcDbLine
 62
7
  6
CONTINUOUS
 10
159.9565691276
 20
121.3831144184
 11
159.6559818675
 21
122.7792002636
  0
SPLINE
  5
49A
100
AcDbEntity
  8
BEZUGSACHSEN
100
AcDbSpline
 62
7
  6
CONTINUOUS
 70
0
 71
3
 72
20
 73
16
 74
0
 42
0.0000001
 43
0.0000001
 44
0.0000000001
 40
0.0
 40
0.0
 40
0.0
 40
0.0
 40
0.171640977
 40
0.3336985032
 40
0.4808594196
 40
0.5477405712
 40
0.609859755
 40
0.6672400151
 40
0.7200934822
 40
0.7688598704
 40
0.8142232307
 40
0.8571907741
 40
0.8992985118
 40
0.9434637712
 40
1.0
 40
1.0
 40
1.0
 40
1.0
 10
176.8300783145
 20
120.1295316719
 30
0.0
 10
175.8545986425
 20
120.1064558889
 30
0.0
 10
173.9584919952
 20
120.031815183
 30
0.0
 10
171.2334301011
 20
119.803566908
 30
0.0
 10
169.1160307121
 20
119.487649704
 30
0.0
 10
167.5845122383
 20
119.1390079937
 30
0.0
 10
166.5668838649
 20
118.841113217
 30
0.0
 10
165.6483598743
 20
118.4969811176
 30
0.0
 10
164.8325398941
 20
118.1044131898
 30
0.0
 10
164.1215752727
 20
117.6617452775
 30
0.0
 10
163.5167608502
 20
117.1660661369
 30
0.0
 10
163.0197058802
 20
116.6114103102
 30
0.0
 10
162.6312657838
 20
115.9822430505
 30
0.0
 10
162.3540534883
 20
115.2135576782
 30
0.0
 10
162.3029311264
 20
114.6312863296
 30
0.0
 10
162.3310058891
 20
114.3111150938
 30
0.0
  0
LINE
  5
49B
100
AcDbEntity
  8
0
100
AcDbLine
 62
7
  6
CONTINUOUS
 10
160.1817450551
 20
122.7792002636
 11
160.0616139171
 21
123.3111150938
  0
LINE
  5
49C
100
AcDbEntity
  8
0
100
AcDbLine
 62
7
  6
CONTINUOUS
 10
193.3688519716
 20
121.5504760454
 11
193.3078114272
 21
121.2651464182
  0
LINE
  5
49D
100
AcDbEntity
  8
0
100
AcDbLine
 62
7
  6
CONTINUOUS
 10
193.3078114272
 20
121.2651464182
 11
193.3043634842
 21
121.2491383924
  0
LINE
  5
49E
100
AcDbEntity
  8
0
100
AcDbLine
 62
7
  6
CONTINUOUS
 10
193.1400192314
 20
120.4993110797
 11
193.0965397796
 21
120.3051532597
  0
LINE
  5
49F
100
AcDbEntity
  8
0
100
AcDbLine
 62
7
  6
CONTINUOUS
 10
193.0965397796
 20
120.3051532597
 11
193.0755371225
 21
120.2119817608
  0
LINE
  5
4A0
100
AcDbEntity
  8
0
100
AcDbLine
 62
7
  6
CONTINUOUS
 10
192.7947041811
 20
119.0032543716
 11
192.7672486912
 21
118.8886584299
  0
LINE
  5
4A1
100
AcDbEntity
  8
0
100
AcDbLine
 62
7
  6
CONTINUOUS
 10
192.7672486912
 20
118.8886584299
 11
192.7562492706
 21
118.8429207986
  0
LINE
  5
4A2
100
AcDbEntity
  8
0
100
AcDbLine
 62
7
  6
CONTINUOUS
 10
192.388103311
 20
118.6964907429
 11
192.3715967918
 21
118.6453029842
  0
LINE
  5
4A3
100
AcDbEntity
  8
0
100
AcDbLine
 62
7
  6
CONTINUOUS
 10
159.549077784
 20
122.7792002636
 11
159.4381369979
 21
123.2996993497
  0
LINE
  5
4A4
100
AcDbEntity
  8
0
100
AcDbLine
 62
7
  6
CONTINUOUS
 10
159.4381369979
 20
123.2996993497
 11
159.4357038591
 21
123.3111150938
  0
LINE
  5
4A5
100
AcDbEntity
  8
0
100
AcDbLine
 62
7
  6
CONTINUOUS
 10
193.6043682837
 20
123.3111150938
 11
193.4898192229
 21
122.7792002636
  0
LINE
  5
4A6
100
AcDbEntity
  8
0
100
AcDbLine
 62
7
  6
CONTINUOUS
 10
160.5762211313
 20
120.2100504018
 11
160.5538605987
 21
120.3155050525
  0
LINE
  5
4A7
100
AcDbEntity
  8
0
100
AcDbLine
 62
7
  6
CONTINUOUS
 10
160.5538605987
 20
120.3155050525
 11
160.514826183
 21
120.5008352652
  0
LINE
  5
4A8
100
AcDbEntity
  8
0
100
AcDbLine
 62
7
  6
CONTINUOUS
 10
160.514826183
 20
120.5008352652
 11
160.5055454892
 21
120.545132727
  0
SPLINE
  5
4A9
100
AcDbEntity
  8
0
100
AcDbSpline
 62
7
  6
CONTINUOUS
 70
0
 71
3
 72
9
 73
5
 74
0
 42
0.0000001
 43
0.0000001
 44
0.0000000001
 40
0.0
 40
0.0
 40
0.0
 40
0.0
 40
0.2446451973
 40
1.0
 40
1.0
 40
1.0
 40
1.0
 10
161.4033179145
 20
118.3111150938
 30
0.0
 10
161.4102461031
 20
118.3200614892
 30
0.0
 10
161.4389253234
 20
118.3563508545
 30
0.0
 10
161.4690010729
 20
118.3915313648
 30
0.0
 10
161.4923743844
 20
118.4174980692
 30
0.0
  0
LINE
  5
4AA
100
AcDbEntity
  8
0
100
AcDbLine
 62
7
  6
CONTINUOUS
 10
161.5350829797
 20
119.0553766878
 11
161.5316693481
 21
119.1621788967
  0
LINE
  5
4AB
100
AcDbEntity
  8
0
100
AcDbLine
 62
7
  6
CONTINUOUS
 10
161.5316693481
 20
119.1621788967
 11
161.5153618721
 21
119.2949663601
  0
LINE
  5
4AC
100
AcDbEntity
  8
0
100
AcDbLine
 62
7
  6
CONTINUOUS
 10
161.5153618721
 20
119.2949663601
 11
161.4758872749
 21
119.6186971602
  0
LINE
  5
4AD
100
AcDbEntity
  8
0
100
AcDbLine
 62
7
  6
CONTINUOUS
 10
160.0650507933
 20
120.2100503948
 11
160.0035920025
 21
120.5010930336
  0
LINE
  5
4AE
100
AcDbEntity
  8
0
100
AcDbLine
 62
7
  6
CONTINUOUS
 10
160.0035920025
 20
120.5010930336
 11
160.0012829156
 21
120.5121025967
  0
LINE
  5
4AF
100
AcDbEntity
  8
0
100
AcDbLine
 62
7
  6
CONTINUOUS
 10
160.0012829156
 20
120.5121025967
 11
159.998088078
 21
120.5273443497
  0
LINE
  5
4B0
100
AcDbEntity
  8
0
100
AcDbLine
 62
7
  6
CONTINUOUS
 10
159.5528524598
 20
122.7593097364
 11
159.549077784
 21
122.7792002636
  0
LINE
  5
4B1
100
AcDbEntity
  8
0
100
AcDbLine
 62
7
  6
CONTINUOUS
 10
160.4453549399
 20
121.502604184
 11
160.1703374324
 21
122.7792002636
  0
LINE
  5
4B2
100
AcDbEntity
  8
0
100
AcDbLine
 62
7
  6
CONTINUOUS
 10
160.7088559382
 20
122.7792002636
 11
160.5883825663
 21
123.3111150938
  0
LINE
  5
4B3
100
AcDbEntity
  8
0
100
AcDbLine
 62
7
  6
CONTINUOUS
 10
162.2901925381
 20
121.289838441
 11
162.1810828529
 21
121.7153703052
  0
LINE
  5
4B4
100
AcDbEntity
  8
0
100
AcDbLine
 62
7
  6
CONTINUOUS
 10
161.7068875103
 20
121.7153703052
 11
161.7019834708
 21
121.7354383468
  0
LINE
  5
4B5
100
AcDbEntity
  8
0
100
AcDbLine
 62
7
  6
CONTINUOUS
 10
161.7019834708
 20
121.7354383468
 11
161.4993150718
 21
122.5664343316
  0
LINE
  5
4B6
100
AcDbEntity
  8
0
100
AcDbLine
 62
7
  6
CONTINUOUS
 10
162.9625605156
 20
118.3111150938
 11
162.8522344943
 21
118.7366469953
  0
LINE
  5
4B7
100
AcDbEntity
  8
0
100
AcDbLine
 62
7
  6
CONTINUOUS
 10
161.7279367785
 20
121.289838441
 11
161.6198385031
 21
121.7153703052
  0
LINE
  5
4B8
100
AcDbEntity
  8
0
100
AcDbLine
 62
7
  6
CONTINUOUS
 10
194.1186587101
 20
123.3111150938
 11
194.0041747871
 21
122.7792002636
  0
LINE
  5
4B9
100
AcDbEntity
  8
0
100
AcDbLine
 62
7
  6
CONTINUOUS
 10
161.1591484718
 20
121.7153703052
 11
160.9529311459
 21
122.5664343316
  0
SPLINE
  5
4BA
100
AcDbEntity
  8
0
100
AcDbSpline
 62
7
  6
CONTINUOUS
 70
0
 71
3
 72
8
 73
4
 74
0
 42
0.0000001
 43
0.0000001
 44
0.0000000001
 40
0.0
 40
0.0
 40
0.0
 40
0.0
 40
1.0
 40
1.0
 40
1.0
 40
1.0
 10
191.9322199553
 20
121.289838441
 30
0.0
 10
191.8510262131
 20
120.9706313559
 30
0.0
 10
191.7696082341
 20
120.6514812143
 30
0.0
 10
191.6879534816
 20
120.3323917467
 30
0.0
  0
SPLINE
  5
4BB
100
AcDbEntity
  8
BEZUGSACHSEN
100
AcDbSpline
 62
7
  6
CONTINUOUS
 70
0
 71
3
 72
20
 73
16
 74
0
 42
0.0000001
 43
0.0000001
 44
0.0000000001
 40
0.0
 40
0.0
 40
0.0
 40
0.0
 40
0.171640977
 40
0.3336985032
 40
0.4808594196
 40
0.5477405712
 40
0.609859755
 40
0.6672400151
 40
0.7200934822
 40
0.7688598704
 40
0.8142232307
 40
0.8571907741
 40
0.8992985118
 40
0.9434637712
 40
1.0
 40
1.0
 40
1.0
 40
1.0
 10
176.8300783145
 20
120.1295316719
 30
0.0
 10
177.8055579865
 20
120.1064558889
 30
0.0
 10
179.7016646338
 20
120.031815183
 30
0.0
 10
182.4267265278
 20
119.803566908
 30
0.0
 10
184.5441259168
 20
119.487649704
 30
0.0
 10
186.0756443907
 20
119.1390079937
 30
0.0
 10
187.093272764
 20
118.841113217
 30
0.0
 10
188.0117967546
 20
118.4969811176
 30
0.0
 10
188.8276167349
 20
118.1044131898
 30
0.0
 10
189.5385813562
 20
117.6617452775
 30
0.0
 10
190.1433957788
 20
117.1660661369
 30
0.0
 10
190.6404507487
 20
116.6114103102
 30
0.0
 10
191.0288908452
 20
115.9822430505
 30
0.0
 10
191.3061031407
 20
115.2135576782
 30
0.0
 10
191.3572255025
 20
114.6312863296
 30
0.0
 10
191.3291507399
 20
114.3111150938
 30
0.0
  0
LINE
  5
4BC
100
AcDbEntity
  8
0
100
AcDbLine
 62
7
  6
CONTINUOUS
 10
191.5987937688
 20
119.8004767674
 11
191.5640250247
 21
119.4813278693
  0
LINE
  5
4BD
100
AcDbEntity
  8
0
100
AcDbLine
 62
7
  6
CONTINUOUS
 10
191.6879534816
 20
120.3323917467
 11
191.5987937688
 21
119.8004767674
  0
LINE
  5
4BE
100
AcDbEntity
  8
0
100
AcDbLine
 62
7
  6
CONTINUOUS
 10
193.0365963124
 20
121.183455475
 11
192.866376706
 21
120.4387747127
  0
LINE
  5
4BF
100
AcDbEntity
  8
0
100
AcDbLine
 62
7
  6
CONTINUOUS
 10
193.1546892913
 20
121.8217532712
 11
193.0365963124
 21
121.183455475
  0
LINE
  5
4C0
100
AcDbEntity
  8
BEZUGSACHSEN
100
AcDbLine
 62
7
  6
CONTINUOUS
 10
74.8684009582
 20
73.1553376554
 11
75.0376029222
 21
73.1553378066
  0
LINE
  5
4C1
100
AcDbEntity
  8
BEZUGSACHSEN
100
AcDbLine
 62
7
  6
CONTINUOUS
 10
131.0274387877
 20
73.1553378057
 11
131.1966388627
 21
73.1553376326
  0
ENDSEC
  0
SECTION
  2
OBJECTS
  0
DICTIONARY
  5
C
100
AcDbDictionary
280
0
281
1
  3
ACAD_GROUP
350
D
  3
ACAD_MLINESTYLE
350
17
  3
ACAD_LAYOUT
350
1A
  3
ACAD_PLOTSETTINGS
350
19
  3
ACAD_PLOTSTYLENAME
350
E
  0
DICTIONARY
  5
D
102
{ACAD_REACTORS
330
C
102
}
100
AcDbDictionary
280
0
281
1
  0
ACDBDICTIONARYWDFLT
  5
E
102
{ACAD_REACTORS
330
C
102
}
100
AcDbDictionary
281
1
  3
Normal
350
F
100
AcDbDictionaryWithDefault
340
F
  0
DICTIONARY
  5
17
102
{ACAD_REACTORS
330
C
102
}
100
AcDbDictionary
280
0
281
1
  3
Standard
350
18
  0
DICTIONARY
  5
19
102
{ACAD_REACTORS
330
C
102
}
100
AcDbDictionary
281
1
  0
DICTIONARY
  5
1A
102
{ACAD_REACTORS
330
C
102
}
100
AcDbDictionary
281
1
  3
Model
350
4C2
  3
Layout1
350
4C3
  0
ACDBPLACEHOLDER
  5
F
102
{ACAD_REACTORS
330
E
102
}
  0
MLINESTYLE
  5
18
102
{ACAD_REACTORS
330
17
102
}
100
AcDbMlineStyle
  2
STANDARD
 70
0
  3

 62
256
 51
90.0
 52
90.0
 71
2
 49
0.5
 62
256
  6
BYLAYER
 49
-0.5
 62
256
  6
BYLAYER
  0
LAYOUT
  5
4C2
102
{ACAD_REACTORS
330
1A
102
}
100
AcDbPlotSettings
  1

  2
none_device
  4
ISO_A4_(297.00_x_210.00_MM)
  6

 40
0.0
 41
0.0
 42
0.0
 43
0.0
 44
297.0
 45
210.0
 46
0.0
 47
0.0
 48
0.0
 49
0.0
140
0.0
141
0.0
142
1.0
143
1.0
 70
1024
 72
1
 73
0
 74
0
  7

 75
0
147
1.0
148
0.0
149
0.0
100
AcDbLayout
  1
Model
 70
0
 71
0
 10
0.0
 20
0.0
 11
297.0
 21
210.0
 12
0.0
 22
0.0
 32
0.0
 14
0.0
 24
0.0
 34
0.0
 15
0.0
 25
0.0
 35
0.0
146
0.0
 13
0.0
 23
0.0
 33
0.0
 16
1.0
 26
0.0
 36
0.0
 17
0.0
 27
1.0
 37
0.0
 76
0
330
20D
345
0
346
0
  0
LAYOUT
  5
4C3
102
{ACAD_REACTORS
330
1A
102
}
100
AcDbPlotSettings
  1

  2
none_device
  4
ISO_A4_(297.00_x_210.00_MM)
  6

 40
0.0
 41
0.0
 42
0.0
 43
0.0
 44
297.0
 45
210.0
 46
0.0
 47
0.0
 48
0.0
 49
0.0
140
0.0
141
0.0
142
1.0
143
1.0
 70
0
 72
1
 73
0
 74
0
  7

 75
0
147
1.0
148
0.0
149
0.0
100
AcDbLayout
  1
Layout1
 70
0
 71
1
 10
0.0
 20
0.0
 11
297.0
 21
210.0
 12
0.0
 22
0.0
 32
0.0
 14
0.0
 24
0.0
 34
0.0
 15
0.0
 25
0.0
 35
0.0
146
0.0
 13
0.0
 23
0.0
 33
0.0
 16
1.0
 26
0.0
 36
0.0
 17
0.0
 27
1.0
 37
0.0
 76
0
330
20E
345
0
346
0
  0
ENDSEC
  0
EOF
