999
DXF file: VRM_M10_0_4t_7990311_M32421-P-1.dxf
999
Pro/ENGINEER 2011490 by Parametric Technology Corporation
  0
SECTION
  2
HEADER
  9
$ACADVER
  1
AC1015
  9
$DWGCODEPAGE
  3
ANSI_1252
  9
$EXTMAX
 10
297.0
 20
210.0
 30
0.0
  9
$EXTMIN
 10
0.0
 20
0.0
 30
0.0
  9
$LIMMIN
 10
0.0
 20
0.0
  9
$LIMMAX
 10
297.0
 20
210.0
  9
$VIEWCTR
 10
148.5
 20
105.0
  9
$VIEWSIZE
 40
210.0
  9
$CLAYER
  8
0
  9
$LTSCALE
 40
16.335
  9
$CELTYPE
  6
BYLAYER
  9
$DIMSCALE
 40
1.0
  9
$DIMASZ
 40
3.5
  9
$DIMEXO
 40
1.85625
  9
$DIMDLI
 40
11.286
  9
$DIMEXE
 40
5.346
  9
$DIMCEN
 40
2.673
  9
$DIMLFAC
 40
1.0
  9
$DIMBLK
  1
_FILLED
  9
$DIMTXT
 40
3.5
  9
$DIMTOL
 70
1
  9
$DIMLIM
 70
0
  9
$DIMTFAC
 40
1.0
  9
$DIMTP
 40
0.005
  9
$DIMTM
 40
0.005
  9
$PDMODE
 70
3
  9
$PDSIZE
 40
0.3125
  9
$HANDSEED
  5
44B
  9
$TILEMODE
 70
1
  9
$MEASUREMENT
 70
1
  9
$INSUNITS
 70
4
  0
ENDSEC
  0
SECTION
  2
CLASSES
  0
CLASS
  1
ACDBDICTIONARYWDFLT
  2
AcDbDictionaryWithDefault
  3
AutoCAD 2000
 90
0
280
0
281
0
  0
CLASS
  1
ACDBPLACEHOLDER
  2
AcDbPlaceHolder
  3
AutoCAD 2000
 90
0
280
0
281
0
  0
CLASS
  1
LAYOUT
  2
AcDbLayout
  3
AutoCAD 2000
 90
0
280
0
281
0
  0
ENDSEC
  0
SECTION
  2
TABLES
  0
TABLE
  2
VPORT
  5
8
100
AcDbSymbolTable
 70
2
  0
VPORT
  5
1F4
100
AcDbSymbolTableRecord
100
AcDbViewportTableRecord
  2
*ACTIVE
 70
0
 10
0.0
 20
0.0
 11
1.0
 21
1.0
 12
148.5
 22
105.0
 13
0.0
 23
0.0
 14
1.0
 24
1.0
 15
0.0
 25
0.0
 16
0.0
 26
0.0
 36
1.0
 17
0.0
 27
0.0
 37
0.0
 40
210.0
 41
1.4142857143
 42
50.0
 43
0.0
 44
0.0
 50
0.0
 51
0.0
 71
0
 72
100
 73
1
 74
1
 75
0
 76
0
 77
0
 78
0
  0
ENDTAB
  0
TABLE
  2
LTYPE
  5
5
100
AcDbSymbolTable
 70
6
  0
LTYPE
  5
14
100
AcDbSymbolTableRecord
100
AcDbLinetypeTableRecord
  2
BYBLOCK
 70
0
  3

 72
65
 73
0
 40
0.0
  0
LTYPE
  5
15
100
AcDbSymbolTableRecord
100
AcDbLinetypeTableRecord
  2
BYLAYER
 70
0
  3

 72
65
 73
0
 40
0.0
  0
LTYPE
  5
16
100
AcDbSymbolTableRecord
100
AcDbLinetypeTableRecord
  2
CONTINUOUS
 70
64
  3
Solid line
 72
65
 73
0
 40
0.0
  0
LTYPE
  5
1F5
100
AcDbSymbolTableRecord
100
AcDbLinetypeTableRecord
  2
CENTER
 70
64
  3
____ _ ____ _ ____ _ ____ _ ____ _ ____ _ ____
 72
65
 73
4
 40
0.6
 49
0.375
 74
0
 49
-0.075
 74
0
 49
0.075
 74
0
 49
-0.075
 74
0
  0
LTYPE
  5
1F6
100
AcDbSymbolTableRecord
100
AcDbLinetypeTableRecord
  2
HIDDEN
 70
64
  3
- - - - - - - - - - - - - - - - - - - -
 72
65
 73
2
 40
0.2
 49
0.1
 74
0
 49
-0.1
 74
0
  0
LTYPE
  5
1F7
100
AcDbSymbolTableRecord
100
AcDbLinetypeTableRecord
  2
PHANTOM
 70
64
  3
_____ _ _ _____ _ _ _____ _ _ _____
 72
65
 73
6
 40
0.8
 49
0.45
 74
0
 49
-0.05
 74
0
 49
0.1
 74
0
 49
-0.05
 74
0
 49
0.1
 74
0
 49
-0.05
 74
0
  0
LTYPE
  5
1F8
100
AcDbSymbolTableRecord
100
AcDbLinetypeTableRecord
  2
DOT
 70
64
  3
. . . . . . . . . . . . . . . . . . . .
 72
65
 73
2
 40
0.2
 49
0.1
 74
0
 49
-0.1
 74
0
  0
LTYPE
  5
1F9
100
AcDbSymbolTableRecord
100
AcDbLinetypeTableRecord
  2
DASHED
 70
64
  3
- - - - - - - - - - - - - - - - - - - -
 72
65
 73
2
 40
0.2
 49
0.1
 74
0
 49
-0.1
 74
0
  0
ENDTAB
  0
TABLE
  2
LAYER
  5
2
100
AcDbSymbolTable
 70
36
  0
LAYER
  5
10
100
AcDbSymbolTableRecord
100
AcDbLayerTableRecord
  2
0
 70
0
 62
7
  6
CONTINUOUS
370
-3
390
F
  0
LAYER
  5
1FA
100
AcDbSymbolTableRecord
100
AcDbLayerTableRecord
  2
DEFAULT_1
 70
0
 62
7
  6
CENTER
370
-3
390
F
  0
LAYER
  5
1FB
100
AcDbSymbolTableRecord
100
AcDbLayerTableRecord
  2
DEFAULT_2
 70
0
 62
8
  6
HIDDEN
370
-3
390
F
  0
LAYER
  5
1FC
100
AcDbSymbolTableRecord
100
AcDbLayerTableRecord
  2
DEFAULT_3
 70
0
 62
7
  6
PHANTOM
370
-3
390
F
  0
LAYER
  5
1FD
100
AcDbSymbolTableRecord
100
AcDbLayerTableRecord
  2
BEZUGSACHSEN
 70
0
 62
7
  6
CONTINUOUS
370
-3
390
F
  0
LAYER
  5
1FE
100
AcDbSymbolTableRecord
100
AcDbLayerTableRecord
  2
BG_STARTBEZUEGE
 70
0
 62
7
  6
CONTINUOUS
370
-3
390
F
  0
LAYER
  5
1FF
100
AcDbSymbolTableRecord
100
AcDbLayerTableRecord
  2
BOHRUNGEN
 70
0
 62
7
  6
CONTINUOUS
370
-3
390
F
  0
LAYER
  5
200
100
AcDbSymbolTableRecord
100
AcDbLayerTableRecord
  2
FASEN
 70
0
 62
7
  6
CONTINUOUS
370
-3
390
F
  0
LAYER
  5
201
100
AcDbSymbolTableRecord
100
AcDbLayerTableRecord
  2
FLAECHEN
 70
0
 62
7
  6
CONTINUOUS
370
-3
390
F
  0
LAYER
  5
202
100
AcDbSymbolTableRecord
100
AcDbLayerTableRecord
  2
GEWINDE
 70
0
 62
7
  6
CONTINUOUS
370
-3
390
F
  0
LAYER
  5
203
100
AcDbSymbolTableRecord
100
AcDbLayerTableRecord
  2
HILFEN
 70
0
 62
7
  6
CONTINUOUS
370
-3
390
F
  0
LAYER
  5
204
100
AcDbSymbolTableRecord
100
AcDbLayerTableRecord
  2
KONSTRUKTIONSELEMENTE
 70
0
 62
7
  6
CONTINUOUS
370
-3
390
F
  0
LAYER
  5
205
100
AcDbSymbolTableRecord
100
AcDbLayerTableRecord
  2
KURVEN
 70
0
 62
7
  6
CONTINUOUS
370
-3
390
F
  0
LAYER
  5
206
100
AcDbSymbolTableRecord
100
AcDbLayerTableRecord
  2
NORM
 70
0
 62
7
  6
CONTINUOUS
370
-3
390
F
  0
LAYER
  5
207
100
AcDbSymbolTableRecord
100
AcDbLayerTableRecord
  2
PLATZIERUNG
 70
0
 62
7
  6
CONTINUOUS
370
-3
390
F
  0
LAYER
  5
208
100
AcDbSymbolTableRecord
100
AcDbLayerTableRecord
  2
RUNDUNGEN
 70
0
 62
7
  6
CONTINUOUS
370
-3
390
F
  0
LAYER
  5
209
100
AcDbSymbolTableRecord
100
AcDbLayerTableRecord
  2
TEIL_STARTBEZUEGE
 70
0
 62
7
  6
CONTINUOUS
370
-3
390
F
  0
LAYER
  5
20A
100
AcDbSymbolTableRecord
100
AcDbLayerTableRecord
  2
T_STARTBEZUEGE
 70
0
 62
7
  6
CONTINUOUS
370
-3
390
F
  0
ENDTAB
  0
TABLE
  2
STYLE
  5
3
100
AcDbSymbolTable
 70
1
  0
STYLE
  5
11
100
AcDbSymbolTableRecord
100
AcDbTextStyleTableRecord
  2
STANDARD
 70
0
 40
0.0
 41
0.7
 50
0.0
 71
0
 42
0.2
  3
txt
  4

  0
STYLE
  5
20B
100
AcDbSymbolTableRecord
100
AcDbTextStyleTableRecord
  2
TEXTSTYLE_1
 70
0
 40
0.0
 41
0.8
 50
0.0
 71
0
 42
0.2
  3
gdt
  4

  0
ENDTAB
  0
TABLE
  2
VIEW
  5
6
100
AcDbSymbolTable
 70
0
  0
ENDTAB
  0
TABLE
  2
UCS
  5
7
100
AcDbSymbolTable
 70
0
  0
ENDTAB
  0
TABLE
  2
APPID
  5
9
100
AcDbSymbolTable
 70
1
  0
APPID
  5
20C
100
AcDbSymbolTableRecord
100
AcDbRegAppTableRecord
  2
ACAD
 70
0
  0
ENDTAB
  0
TABLE
  2
BLOCK_RECORD
  5
1
100
AcDbSymbolTable
 70
0
  0
BLOCK_RECORD
  5
20D
100
AcDbSymbolTableRecord
100
AcDbBlockTableRecord
  2
*Model_Space
  0
BLOCK_RECORD
  5
20E
100
AcDbSymbolTableRecord
100
AcDbBlockTableRecord
  2
*Paper_Space
  0
ENDTAB
  0
TABLE
  2
DIMSTYLE
  5
A
100
AcDbSymbolTable
 70
1
100
AcDbDimStyleTable
 71
0
  0
DIMSTYLE
105
20F
100
AcDbSymbolTableRecord
100
AcDbDimStyleTableRecord
  2
STANDARD
 70
0
  3

  4

 40
1.0
 41
3.5
 42
0.0625
 43
0.38
 44
0.18
 45
0.0
 46
0.0
 47
0.005
 48
0.005
140
3.5
141
0.09
142
0.0
143
25.4
144
1.0
145
0.0
146
1.0
147
0.09
 71
1.0
 72
0.0
 73
0
 74
0
 75
0
 76
0
 77
1
 78
8
170
0
171
2
172
0
173
0
174
0
175
0
176
0
177
0
178
5
270
2
271
3
272
3
273
2
274
2
275
0
280
0
281
0
282
0
283
1
284
8
285
0
286
0
287
3
288
0
340
11
  0
ENDTAB
  0
ENDSEC
  0
SECTION
  2
BLOCKS
  0
BLOCK
  5
20
100
AcDbEntity
  8
0
100
AcDbBlockBegin
  2
*Model_Space
 70
0
 10
0.0
 20
0.0
 30
0.0
  3
*Model_Space
  1

  0
ENDBLK
  5
21
100
AcDbEntity
  8
0
100
AcDbBlockEnd
  0
BLOCK
  5
1C
100
AcDbEntity
  8
0
100
AcDbBlockBegin
  2
*Paper_Space
 70
0
 10
0.0
 20
0.0
 30
0.0
  3
*Paper_Space
  1

  0
ENDBLK
  5
1D
100
AcDbEntity
  8
0
100
AcDbBlockEnd
  0
ENDSEC
  0
SECTION
  2
ENTITIES
  0
MTEXT
  5
210
100
AcDbEntity
  8
0
100
AcDbMText
 62
5
  6
CONTINUOUS
  7
STANDARD
 71
1
 72
1
 10
177.5562945671
 20
135.4092257271
 30
0.0
 11
0.0
 21
1.0
 31
0.0
 44
0.9
  1
VRM 0,4t RUD
 40
3.0
 41
28.2857142857
  0
MTEXT
  5
211
100
AcDbEntity
  8
0
100
AcDbMText
 62
5
  6
CONTINUOUS
  7
STANDARD
 71
1
 72
1
 10
89.382919377
 20
82.60057556
 30
0.0
 11
1.0
 21
0.0
 31
0.0
 44
0.9
  1
VRM 0,4t RUD
 40
3.0
 41
28.2857142857
  0
LINE
  5
212
100
AcDbEntity
  8
0
100
AcDbLine
 62
7
  6
CONTINUOUS
 10
0.0
 20
0.0
 11
0.0
 21
210.0
  0
LINE
  5
213
100
AcDbEntity
  8
0
100
AcDbLine
 62
7
  6
CONTINUOUS
 10
0.0
 20
0.0
 11
297.0
 21
0.0
  0
LINE
  5
214
100
AcDbEntity
  8
0
100
AcDbLine
 62
7
  6
CONTINUOUS
 10
0.0
 20
210.0
 11
297.0
 21
210.0
  0
LINE
  5
215
100
AcDbEntity
  8
0
100
AcDbLine
 62
7
  6
CONTINUOUS
 10
297.0
 20
0.0
 11
297.0
 21
210.0
  0
LINE
  5
216
100
AcDbEntity
  8
0
100
AcDbLine
 62
7
  6
CONTINUOUS
 10
111.8684526525
 20
120.0346735695
 11
95.5684526525
 21
120.0346735695
  0
LINE
  5
217
100
AcDbEntity
  8
BEZUGSACHSEN
100
AcDbLine
 62
7
  6
CONTINUOUS
 10
116.2184526525
 20
120.2846735695
 11
91.2184526525
 21
120.2846735695
  0
LINE
  5
218
100
AcDbEntity
  8
BEZUGSACHSEN
100
AcDbLine
 62
7
  6
CONTINUOUS
 10
87.3236091521
 20
125.1610071421
 11
87.1139507539
 21
125.6671672904
  0
LINE
  5
219
100
AcDbEntity
  8
BEZUGSACHSEN
100
AcDbLine
 62
7
  6
CONTINUOUS
 10
84.1388760769
 20
132.8496329247
 11
80.466490448
 21
141.7155561163
  0
LINE
  5
21A
100
AcDbEntity
  8
BEZUGSACHSEN
100
AcDbLine
 62
7
  6
CONTINUOUS
 10
80.4686702505
 20
142.8887522881
 11
80.765077412
 21
143.6043424775
  0
LINE
  5
21B
100
AcDbEntity
  8
RUNDUNGEN
100
AcDbLine
 62
7
  6
CONTINUOUS
 10
80.765077412
 20
143.6043424775
 11
86.8636742929
 21
158.3276577788
  0
LINE
  5
21C
100
AcDbEntity
  8
0
100
AcDbLine
 62
7
  6
CONTINUOUS
 10
100.0101192794
 20
123.7953118661
 11
99.5934526525
 21
123.7102054932
  0
LINE
  5
21D
100
AcDbEntity
  8
0
100
AcDbLine
 62
7
  6
CONTINUOUS
 10
99.5934526525
 20
123.2846735695
 11
100.0934526525
 21
123.3697799498
  0
LINE
  5
21E
100
AcDbEntity
  8
0
100
AcDbLine
 62
7
  6
CONTINUOUS
 10
101.7601193986
 20
122.7740352729
 11
102.1767861448
 21
122.7740352729
  0
LINE
  5
21F
100
AcDbEntity
  8
0
100
AcDbLine
 62
7
  6
CONTINUOUS
 10
105.3434526525
 20
123.2846735695
 11
105.8434526525
 21
123.2846735695
  0
LINE
  5
220
100
AcDbEntity
  8
0
100
AcDbLine
 62
7
  6
CONTINUOUS
 10
102.6767861448
 20
123.7102054932
 11
102.2601191602
 21
123.7102054932
  0
LINE
  5
221
100
AcDbEntity
  8
0
100
AcDbLine
 62
7
  6
CONTINUOUS
 10
103.3434526525
 20
124.4761629083
 11
105.3434526525
 21
124.4761629083
  0
LINE
  5
222
100
AcDbEntity
  8
0
100
AcDbLine
 62
7
  6
CONTINUOUS
 10
105.8434526525
 20
124.4761629083
 11
106.6767856679
 21
124.4761629083
  0
LINE
  5
223
100
AcDbEntity
  8
0
100
AcDbLine
 62
7
  6
CONTINUOUS
 10
106.6767856679
 20
124.9868012646
 11
105.8434526525
 21
124.9868012646
  0
LINE
  5
224
100
AcDbEntity
  8
0
100
AcDbLine
 62
7
  6
CONTINUOUS
 10
105.3434526525
 20
124.9868012646
 11
103.9267861448
 21
124.9868012646
  0
LINE
  5
225
100
AcDbEntity
  8
0
100
AcDbLine
 62
7
  6
CONTINUOUS
 10
99.0934526525
 20
123.3697799498
 11
99.5934526525
 21
123.2846735695
  0
LINE
  5
226
100
AcDbEntity
  8
0
100
AcDbLine
 62
7
  6
CONTINUOUS
 10
108.6767856679
 20
123.3697799498
 11
109.1767856679
 21
123.2846735695
  0
LINE
  5
227
100
AcDbEntity
  8
0
100
AcDbLine
 62
7
  6
CONTINUOUS
 10
99.5934526525
 20
123.7102054932
 11
99.1767860256
 21
123.7953118661
  0
LINE
  5
228
100
AcDbEntity
  8
0
100
AcDbLine
 62
7
  6
CONTINUOUS
 10
109.1767856679
 20
123.6250990906
 11
108.7601196371
 21
123.7102054932
  0
LINE
  5
229
100
AcDbEntity
  8
0
100
AcDbLine
 62
7
  6
CONTINUOUS
 10
98.676785966
 20
123.6250990906
 11
99.0934526525
 21
123.3697799498
  0
LINE
  5
22A
100
AcDbEntity
  8
0
100
AcDbLine
 62
7
  6
CONTINUOUS
 10
99.1767860256
 20
123.7953118661
 11
98.926785966
 21
123.9655246117
  0
LINE
  5
22B
100
AcDbEntity
  8
RUNDUNGEN
100
AcDbLine
 62
7
  6
CONTINUOUS
 10
84.2184526525
 20
132.9117487723
 11
84.2184526525
 21
127.2846735695
  0
LINE
  5
22C
100
AcDbEntity
  8
BEZUGSACHSEN
100
AcDbLine
 62
7
  6
CONTINUOUS
 10
84.2184526525
 20
127.2849541937
 11
84.2184526525
 21
132.9117442253
  0
LINE
  5
22D
100
AcDbEntity
  8
0
100
AcDbLine
 62
7
  6
CONTINUOUS
 10
92.9303294616
 20
158.5320842845
 11
92.5988731579
 21
158.2006279808
  0
LINE
  5
22E
100
AcDbEntity
  8
0
100
AcDbLine
 62
7
  6
CONTINUOUS
 10
91.4940188123
 20
157.0957736352
 11
91.1625627193
 21
156.7643175422
  0
LINE
  5
22F
100
AcDbEntity
  8
0
100
AcDbLine
 62
7
  6
CONTINUOUS
 10
90.352336129
 20
155.9540909519
 11
89.4684526525
 21
155.0702074754
  0
LINE
  5
230
100
AcDbEntity
  8
0
100
AcDbLine
 62
7
  6
CONTINUOUS
 10
89.1738247919
 20
154.7755796148
 11
88.9528539228
 21
154.5546087457
  0
LINE
  5
231
100
AcDbEntity
  8
0
100
AcDbLine
 62
7
  6
CONTINUOUS
 10
87.9216565687
 20
153.5234113916
 11
87.7006856995
 21
153.3024405224
  0
LINE
  5
232
100
AcDbEntity
  8
RUNDUNGEN
100
AcDbLine
 62
7
  6
CONTINUOUS
 10
87.6754684432
 20
159.139451929
 11
103.144427504
 21
165.5469045678
  0
LINE
  5
233
100
AcDbEntity
  8
0
100
AcDbLine
 62
7
  6
CONTINUOUS
 10
99.1767860256
 20
126.7740353325
 11
99.5934526525
 21
126.8591417053
  0
LINE
  5
234
100
AcDbEntity
  8
0
100
AcDbLine
 62
7
  6
CONTINUOUS
 10
99.5934526525
 20
127.2846735695
 11
99.0934526525
 21
127.1995671966
  0
LINE
  5
235
100
AcDbEntity
  8
0
100
AcDbLine
 62
7
  6
CONTINUOUS
 10
107.3434526525
 20
125.6676522472
 11
108.0101196371
 21
125.6676522472
  0
LINE
  5
236
100
AcDbEntity
  8
0
100
AcDbLine
 62
7
  6
CONTINUOUS
 10
108.4267856679
 20
125.6676522472
 11
109.3434526525
 21
125.6676522472
  0
LINE
  5
237
100
AcDbEntity
  8
0
100
AcDbLine
 62
7
  6
CONTINUOUS
 10
109.3434526525
 20
126.0080777386
 11
108.4267856679
 21
126.0080777386
  0
LINE
  5
238
100
AcDbEntity
  8
0
100
AcDbLine
 62
7
  6
CONTINUOUS
 10
108.0101196371
 20
126.0080777386
 11
107.3434526525
 21
126.0080777386
  0
LINE
  5
239
100
AcDbEntity
  8
0
100
AcDbLine
 62
7
  6
CONTINUOUS
 10
85.2184526525
 20
126.2846735695
 11
86.1889407733
 21
126.2846735695
  0
LINE
  5
23A
100
AcDbEntity
  8
0
100
AcDbLine
 62
7
  6
CONTINUOUS
 10
121.2479645317
 20
126.2846735695
 11
122.2184526525
 21
126.2846735695
  0
LINE
  5
23B
100
AcDbEntity
  8
0
100
AcDbLine
 62
7
  6
CONTINUOUS
 10
108.4267856679
 20
126.6889289596
 11
108.0101196371
 21
126.6889289596
  0
LINE
  5
23C
100
AcDbEntity
  8
0
100
AcDbLine
 62
7
  6
CONTINUOUS
 10
105.8434526525
 20
127.2846735695
 11
105.3434526525
 21
127.2846735695
  0
LINE
  5
23D
100
AcDbEntity
  8
0
100
AcDbLine
 62
7
  6
CONTINUOUS
 10
100.0934526525
 20
127.1995671966
 11
99.5934526525
 21
127.2846735695
  0
LINE
  5
23E
100
AcDbEntity
  8
0
100
AcDbLine
 62
7
  6
CONTINUOUS
 10
99.5934526525
 20
126.8591417053
 11
100.0101192794
 21
126.7740353325
  0
LINE
  5
23F
100
AcDbEntity
  8
0
100
AcDbLine
 62
7
  6
CONTINUOUS
 10
108.4267856679
 20
123.45488633
 11
108.6767856679
 21
123.3697799498
  0
LINE
  5
240
100
AcDbEntity
  8
0
100
AcDbLine
 62
7
  6
CONTINUOUS
 10
100.5101193986
 20
126.9442480781
 11
100.0934526525
 21
127.1995671966
  0
LINE
  5
241
100
AcDbEntity
  8
0
100
AcDbLine
 62
7
  6
CONTINUOUS
 10
100.0101192794
 20
126.7740353325
 11
100.2601193986
 21
126.6038225868
  0
LINE
  5
242
100
AcDbEntity
  8
0
100
AcDbLine
 62
7
  6
CONTINUOUS
 10
98.4267859958
 20
123.8804182389
 11
98.676785966
 21
123.6250990906
  0
LINE
  5
243
100
AcDbEntity
  8
0
100
AcDbLine
 62
7
  6
CONTINUOUS
 10
91.4391679553
 20
155.2355437669
 11
91.5112578216
 21
155.4580818666
  0
LINE
  5
244
100
AcDbEntity
  8
0
100
AcDbLine
 62
7
  6
CONTINUOUS
 10
91.2142793259
 20
155.386775721
 11
91.1414059497
 21
155.238678228
  0
LINE
  5
245
100
AcDbEntity
  8
0
100
AcDbLine
 62
7
  6
CONTINUOUS
 10
89.8774838134
 20
155.1031180528
 11
90.5772249691
 21
155.8028592086
  0
LINE
  5
246
100
AcDbEntity
  8
0
100
AcDbLine
 62
7
  6
CONTINUOUS
 10
91.1414059497
 20
155.238678228
 11
90.4416647939
 21
154.5389370723
  0
LINE
  5
247
100
AcDbEntity
  8
0
100
AcDbLine
 62
7
  6
CONTINUOUS
 10
90.667337144
 20
154.3132647222
 11
91.2934212029
 21
154.9393487811
  0
LINE
  5
248
100
AcDbEntity
  8
0
100
AcDbLine
 62
7
  6
CONTINUOUS
 10
90.0577083211
 20
152.123929238
 11
90.352336129
 21
152.418557046
  0
LINE
  5
249
100
AcDbEntity
  8
0
100
AcDbLine
 62
7
  6
CONTINUOUS
 10
91.2362196055
 20
153.3024405224
 11
91.4571904746
 21
153.5234113916
  0
LINE
  5
24A
100
AcDbEntity
  8
0
100
AcDbLine
 62
7
  6
CONTINUOUS
 10
92.3779024995
 20
154.4441234165
 11
92.6357017063
 21
154.7019226233
  0
LINE
  5
24B
100
AcDbEntity
  8
0
100
AcDbLine
 62
7
  6
CONTINUOUS
 10
92.9303296723
 20
154.9965505893
 11
93.1513003307
 21
155.2175212477
  0
LINE
  5
24C
100
AcDbEntity
  8
0
100
AcDbLine
 62
7
  6
CONTINUOUS
 10
93.6668991658
 20
155.7331200828
 11
93.9615271318
 21
156.0277480488
  0
LINE
  5
24D
100
AcDbEntity
  8
0
100
AcDbLine
 62
7
  6
CONTINUOUS
 10
94.4771255454
 20
156.5433464624
 11
94.6980964145
 21
156.7643173315
  0
LINE
  5
24E
100
AcDbEntity
  8
0
100
AcDbLine
 62
7
  6
CONTINUOUS
 10
90.574090508
 20
156.1006212142
 11
90.352336129
 21
155.9540909519
  0
LINE
  5
24F
100
AcDbEntity
  8
0
100
AcDbLine
 62
7
  6
CONTINUOUS
 10
101.843453338
 20
160.008077828
 11
102.0517866216
 21
160.114460794
  0
LINE
  5
250
100
AcDbEntity
  8
0
100
AcDbLine
 62
7
  6
CONTINUOUS
 10
90.5772249691
 20
155.8028592086
 11
90.725322462
 21
155.8757325848
  0
LINE
  5
251
100
AcDbEntity
  8
0
100
AcDbLine
 62
7
  6
CONTINUOUS
 10
101.7913699053
 20
160.2740352431
 11
101.6351199053
 21
160.22084376
  0
LINE
  5
252
100
AcDbEntity
  8
0
100
AcDbLine
 62
7
  6
CONTINUOUS
 10
108.1767856679
 20
123.6250990906
 11
108.4267856679
 21
123.45488633
  0
LINE
  5
253
100
AcDbEntity
  8
0
100
AcDbLine
 62
7
  6
CONTINUOUS
 10
108.7601196371
 20
123.7102054932
 11
108.5101196371
 21
123.8804182389
  0
LINE
  5
254
100
AcDbEntity
  8
0
100
AcDbLine
 62
7
  6
CONTINUOUS
 10
100.7601193986
 20
126.6889289596
 11
100.5101193986
 21
126.9442480781
  0
LINE
  5
255
100
AcDbEntity
  8
0
100
AcDbLine
 62
7
  6
CONTINUOUS
 10
98.926785966
 20
123.9655246117
 11
98.5934526525
 21
124.4761629083
  0
LINE
  5
256
100
AcDbEntity
  8
0
100
AcDbLine
 62
7
  6
CONTINUOUS
 10
98.2601193241
 20
124.2208437898
 11
98.4267859958
 21
123.8804182389
  0
LINE
  5
257
100
AcDbEntity
  8
0
100
AcDbLine
 62
7
  6
CONTINUOUS
 10
91.2127120953
 20
155.5356567238
 11
91.2142793259
 21
155.386775721
  0
LINE
  5
258
100
AcDbEntity
  8
0
100
AcDbLine
 62
7
  6
CONTINUOUS
 10
101.8955366216
 20
160.3804182091
 11
101.7913699053
 21
160.2740352431
  0
LINE
  5
259
100
AcDbEntity
  8
0
100
AcDbLine
 62
7
  6
CONTINUOUS
 10
104.1351200543
 20
159.2633969912
 11
103.9788700543
 21
159.1570139879
  0
LINE
  5
25A
100
AcDbEntity
  8
0
100
AcDbLine
 62
7
  6
CONTINUOUS
 10
104.0309531889
 20
158.8378650572
 11
104.2392866216
 21
158.9442480372
  0
LINE
  5
25B
100
AcDbEntity
  8
0
100
AcDbLine
 62
7
  6
CONTINUOUS
 10
97.7184526525
 20
134.0346735695
 11
109.7184526525
 21
134.0346735695
  0
LINE
  5
25C
100
AcDbEntity
  8
0
100
AcDbLine
 62
7
  6
CONTINUOUS
 10
100.2601193986
 20
126.6038225868
 11
100.5934526525
 21
126.0931841114
  0
LINE
  5
25D
100
AcDbEntity
  8
0
100
AcDbLine
 62
7
  6
CONTINUOUS
 10
98.1767859883
 20
124.4761629083
 11
98.2601193241
 21
124.2208437898
  0
LINE
  5
25E
100
AcDbEntity
  8
0
100
AcDbLine
 62
7
  6
CONTINUOUS
 10
102.0517866216
 20
160.114460794
 11
102.2080366216
 21
160.3272267261
  0
LINE
  5
25F
100
AcDbEntity
  8
0
100
AcDbLine
 62
7
  6
CONTINUOUS
 10
104.2392866216
 20
158.9442480372
 11
104.4476200543
 21
159.1570139879
  0
LINE
  5
260
100
AcDbEntity
  8
0
100
AcDbLine
 62
7
  6
CONTINUOUS
 10
106.6351197563
 20
159.2633969912
 11
106.4788697563
 21
159.1570139879
  0
LINE
  5
261
100
AcDbEntity
  8
0
100
AcDbLine
 62
7
  6
CONTINUOUS
 10
106.530953487
 20
158.8378650572
 11
106.7392866216
 21
158.9442480372
  0
LINE
  5
262
100
AcDbEntity
  8
0
100
AcDbLine
 62
7
  6
CONTINUOUS
 10
90.352336129
 20
152.418557046
 11
89.1738247919
 21
154.7755796148
  0
LINE
  5
263
100
AcDbEntity
  8
0
100
AcDbLine
 62
7
  6
CONTINUOUS
 10
88.9528539228
 20
154.5546087457
 11
89.9793498223
 21
152.4969154921
  0
LINE
  5
264
100
AcDbEntity
  8
0
100
AcDbLine
 62
7
  6
CONTINUOUS
 10
100.9267859064
 20
126.3485034683
 11
100.7601193986
 21
126.6889289596
  0
LINE
  5
265
100
AcDbEntity
  8
0
100
AcDbLine
 62
7
  6
CONTINUOUS
 10
101.0101193986
 20
126.0931841114
 11
100.9267859064
 21
126.3485034683
  0
LINE
  5
266
100
AcDbEntity
  8
0
100
AcDbLine
 62
7
  6
CONTINUOUS
 10
98.0934526525
 20
124.9016948917
 11
98.1767859883
 21
124.4761629083
  0
LINE
  5
267
100
AcDbEntity
  8
0
100
AcDbLine
 62
7
  6
CONTINUOUS
 10
98.5934526525
 20
124.4761629083
 11
98.5101193092
 21
124.9868012646
  0
LINE
  5
268
100
AcDbEntity
  8
0
100
AcDbLine
 62
7
  6
CONTINUOUS
 10
91.5112578216
 20
155.4580818666
 11
91.4712950228
 21
155.7190155345
  0
LINE
  5
269
100
AcDbEntity
  8
0
100
AcDbLine
 62
7
  6
CONTINUOUS
 10
95.5684526525
 20
120.2846735695
 11
95.5684526525
 21
120.0346735695
  0
LINE
  5
26A
100
AcDbEntity
  8
0
100
AcDbLine
 62
7
  6
CONTINUOUS
 10
97.7184526525
 20
131.8725557545
 11
97.7184526525
 21
134.0346735695
  0
LINE
  5
26B
100
AcDbEntity
  8
0
100
AcDbLine
 62
7
  6
CONTINUOUS
 10
98.0934526525
 20
125.6676522472
 11
98.0934526525
 21
124.9016948917
  0
LINE
  5
26C
100
AcDbEntity
  8
0
100
AcDbLine
 62
7
  6
CONTINUOUS
 10
101.9476199053
 20
160.5399926582
 11
101.8955366216
 21
160.3804182091
  0
LINE
  5
26D
100
AcDbEntity
  8
0
100
AcDbLine
 62
7
  6
CONTINUOUS
 10
102.2080366216
 20
160.3272267261
 11
102.2601199053
 21
160.4868011752
  0
LINE
  5
26E
100
AcDbEntity
  8
0
100
AcDbLine
 62
7
  6
CONTINUOUS
 10
104.4476200543
 20
159.1570139879
 11
104.5517866216
 21
159.3697799572
  0
LINE
  5
26F
100
AcDbEntity
  8
0
100
AcDbLine
 62
7
  6
CONTINUOUS
 10
104.2392866216
 20
159.4229714402
 11
104.1351200543
 21
159.2633969912
  0
LINE
  5
270
100
AcDbEntity
  8
0
100
AcDbLine
 62
7
  6
CONTINUOUS
 10
106.7392866216
 20
158.9442480372
 11
106.9476197563
 21
159.1570139879
  0
LINE
  5
271
100
AcDbEntity
  8
0
100
AcDbLine
 62
7
  6
CONTINUOUS
 10
91.1367044687
 20
155.6853214472
 11
91.2127120953
 21
155.5356567238
  0
LINE
  5
272
100
AcDbEntity
  8
0
100
AcDbLine
 62
7
  6
CONTINUOUS
 10
91.4712950228
 20
155.7190155345
 11
91.3952873962
 21
155.868680258
  0
LINE
  5
273
100
AcDbEntity
  8
0
100
AcDbLine
 62
7
  6
CONTINUOUS
 10
108.0101196371
 20
123.9655246117
 11
108.1767856679
 21
123.6250990906
  0
LINE
  5
274
100
AcDbEntity
  8
0
100
AcDbLine
 62
7
  6
CONTINUOUS
 10
101.0934526525
 20
125.6676522472
 11
101.0101193986
 21
126.0931841114
  0
LINE
  5
275
100
AcDbEntity
  8
0
100
AcDbLine
 62
7
  6
CONTINUOUS
 10
100.5934526525
 20
126.0931841114
 11
100.6767859064
 21
125.5825458744
  0
LINE
  5
276
100
AcDbEntity
  8
0
100
AcDbLine
 62
7
  6
CONTINUOUS
 10
98.5101193092
 20
124.9868012646
 11
98.5101193092
 21
125.5825458744
  0
LINE
  5
277
100
AcDbEntity
  8
0
100
AcDbLine
 62
7
  6
CONTINUOUS
 10
100.3330366216
 20
161.2846735695
 11
100.3330366216
 21
158.7846735695
  0
LINE
  5
278
100
AcDbEntity
  8
0
100
AcDbLine
 62
7
  6
CONTINUOUS
 10
100.6455366216
 20
158.7846735695
 11
100.6455366216
 21
159.9016948619
  0
LINE
  5
279
100
AcDbEntity
  8
0
100
AcDbLine
 62
7
  6
CONTINUOUS
 10
100.6455366216
 20
160.22084376
 11
100.6455366216
 21
161.0187161544
  0
LINE
  5
27A
100
AcDbEntity
  8
0
100
AcDbLine
 62
7
  6
CONTINUOUS
 10
100.6767859064
 20
125.5825458744
 11
100.6767859064
 21
124.9868012646
  0
LINE
  5
27B
100
AcDbEntity
  8
0
100
AcDbLine
 62
7
  6
CONTINUOUS
 10
101.0934526525
 20
124.9016948917
 11
101.0934526525
 21
125.6676522472
  0
LINE
  5
27C
100
AcDbEntity
  8
0
100
AcDbLine
 62
7
  6
CONTINUOUS
 10
104.2913700543
 20
159.6357373723
 11
104.2392866216
 21
159.4229714402
  0
LINE
  5
27D
100
AcDbEntity
  8
0
100
AcDbLine
 62
7
  6
CONTINUOUS
 10
106.9476197563
 20
159.1570139879
 11
107.0517866216
 21
159.3697799572
  0
LINE
  5
27E
100
AcDbEntity
  8
0
100
AcDbLine
 62
7
  6
CONTINUOUS
 10
106.7392866216
 20
159.4229714402
 11
106.6351197563
 21
159.2633969912
  0
LINE
  5
27F
100
AcDbEntity
  8
0
100
AcDbLine
 62
7
  6
CONTINUOUS
 10
89.4684526525
 20
155.0702074754
 11
91.2362196055
 21
153.3024405224
  0
LINE
  5
280
100
AcDbEntity
  8
0
100
AcDbLine
 62
7
  6
CONTINUOUS
 10
91.4571904746
 20
153.5234113916
 11
90.667337144
 21
154.3132647222
  0
LINE
  5
281
100
AcDbEntity
  8
0
100
AcDbLine
 62
7
  6
CONTINUOUS
 10
90.4416647939
 20
154.5389370723
 11
89.8774838134
 21
155.1031180528
  0
LINE
  5
282
100
AcDbEntity
  8
0
100
AcDbLine
 62
7
  6
CONTINUOUS
 10
92.5988731579
 20
158.2006279808
 11
93.62615262
 21
156.0684941731
  0
LINE
  5
283
100
AcDbEntity
  8
0
100
AcDbLine
 62
7
  6
CONTINUOUS
 10
93.9615271318
 20
156.0277480488
 11
93.0854791759
 21
157.9349928319
  0
LINE
  5
284
100
AcDbEntity
  8
0
100
AcDbLine
 62
7
  6
CONTINUOUS
 10
101.9476199053
 20
160.6995672562
 11
101.9476199053
 21
160.5399926582
  0
LINE
  5
285
100
AcDbEntity
  8
0
100
AcDbLine
 62
7
  6
CONTINUOUS
 10
102.2601199053
 20
160.4868011752
 11
102.2601199053
 21
160.6995672562
  0
LINE
  5
286
100
AcDbEntity
  8
0
100
AcDbLine
 62
7
  6
CONTINUOUS
 10
102.7288699053
 20
161.2846735695
 11
102.7288699053
 21
159.6357373723
  0
LINE
  5
287
100
AcDbEntity
  8
0
100
AcDbLine
 62
7
  6
CONTINUOUS
 10
103.0413700543
 20
159.6357373723
 11
103.0413700543
 21
161.2846735695
  0
LINE
  5
288
100
AcDbEntity
  8
0
100
AcDbLine
 62
7
  6
CONTINUOUS
 10
103.3434526525
 20
124.9868012646
 11
103.3434526525
 21
124.4761629083
  0
LINE
  5
289
100
AcDbEntity
  8
0
100
AcDbLine
 62
7
  6
CONTINUOUS
 10
103.7184526525
 20
131.2770670366
 11
103.7184526525
 21
134.0346735695
  0
LINE
  5
28A
100
AcDbEntity
  8
0
100
AcDbLine
 62
7
  6
CONTINUOUS
 10
98.5101193092
 20
125.5825458744
 11
98.5934526525
 21
126.0931841114
  0
LINE
  5
28B
100
AcDbEntity
  8
0
100
AcDbLine
 62
7
  6
CONTINUOUS
 10
100.6767859064
 20
124.9868012646
 11
100.5934526525
 21
124.4761629083
  0
LINE
  5
28C
100
AcDbEntity
  8
0
100
AcDbLine
 62
7
  6
CONTINUOUS
 10
104.5517866216
 20
159.3697799572
 11
104.6038700543
 21
159.6357373723
  0
LINE
  5
28D
100
AcDbEntity
  8
0
100
AcDbLine
 62
7
  6
CONTINUOUS
 10
98.1767859883
 20
126.0931841114
 11
98.0934526525
 21
125.6676522472
  0
LINE
  5
28E
100
AcDbEntity
  8
0
100
AcDbLine
 62
7
  6
CONTINUOUS
 10
106.7913697563
 20
159.6357373723
 11
106.7392866216
 21
159.4229714402
  0
LINE
  5
28F
100
AcDbEntity
  8
0
100
AcDbLine
 62
7
  6
CONTINUOUS
 10
87.7006856995
 20
153.3024405224
 11
90.0577083211
 21
152.123929238
  0
LINE
  5
290
100
AcDbEntity
  8
0
100
AcDbLine
 62
7
  6
CONTINUOUS
 10
91.0238681883
 20
155.7981577276
 11
91.1367044687
 21
155.6853214472
  0
LINE
  5
291
100
AcDbEntity
  8
0
100
AcDbLine
 62
7
  6
CONTINUOUS
 10
91.3952873962
 20
155.868680258
 11
91.2448390575
 21
156.0191285968
  0
LINE
  5
292
100
AcDbEntity
  8
0
100
AcDbLine
 62
7
  6
CONTINUOUS
 10
91.1625627193
 20
156.7643175422
 11
92.9303296723
 21
154.9965505893
  0
LINE
  5
293
100
AcDbEntity
  8
0
100
AcDbLine
 62
7
  6
CONTINUOUS
 10
93.1513003307
 20
155.2175212477
 11
91.7596539612
 21
156.6091676172
  0
LINE
  5
294
100
AcDbEntity
  8
0
100
AcDbLine
 62
7
  6
CONTINUOUS
 10
108.5101196371
 20
123.8804182389
 11
108.4267856679
 21
124.135737417
  0
LINE
  5
295
100
AcDbEntity
  8
0
100
AcDbLine
 62
7
  6
CONTINUOUS
 10
104.2913700543
 20
161.2846735695
 11
104.2913700543
 21
159.6357373723
  0
LINE
  5
296
100
AcDbEntity
  8
0
100
AcDbLine
 62
7
  6
CONTINUOUS
 10
104.6038700543
 20
159.6357373723
 11
104.6038700543
 21
161.2846735695
  0
LINE
  5
297
100
AcDbEntity
  8
0
100
AcDbLine
 62
7
  6
CONTINUOUS
 10
105.0205366216
 20
161.2846735695
 11
105.0205366216
 21
158.7846735695
  0
LINE
  5
298
100
AcDbEntity
  8
0
100
AcDbLine
 62
7
  6
CONTINUOUS
 10
105.3330366216
 20
159.1038225049
 11
105.3330366216
 21
160.9655246713
  0
LINE
  5
299
100
AcDbEntity
  8
0
100
AcDbLine
 62
7
  6
CONTINUOUS
 10
105.3434526525
 20
126.6038225868
 11
105.3434526525
 21
124.9868012646
  0
LINE
  5
29A
100
AcDbEntity
  8
0
100
AcDbLine
 62
7
  6
CONTINUOUS
 10
105.3434526525
 20
124.4761629083
 11
105.3434526525
 21
123.2846735695
  0
LINE
  5
29B
100
AcDbEntity
  8
0
100
AcDbLine
 62
7
  6
CONTINUOUS
 10
105.8434526525
 20
123.2846735695
 11
105.8434526525
 21
124.4761629083
  0
LINE
  5
29C
100
AcDbEntity
  8
0
100
AcDbLine
 62
7
  6
CONTINUOUS
 10
105.8434526525
 20
124.9868012646
 11
105.8434526525
 21
127.2846735695
  0
LINE
  5
29D
100
AcDbEntity
  8
0
100
AcDbLine
 62
7
  6
CONTINUOUS
 10
106.6767856679
 20
124.4761629083
 11
106.6767856679
 21
124.9868012646
  0
LINE
  5
29E
100
AcDbEntity
  8
0
100
AcDbLine
 62
7
  6
CONTINUOUS
 10
106.7913697563
 20
160.4336096921
 11
106.7913697563
 21
159.6357373723
  0
LINE
  5
29F
100
AcDbEntity
  8
0
100
AcDbLine
 62
7
  6
CONTINUOUS
 10
107.0517866216
 20
159.3697799572
 11
107.1038697563
 21
159.6357373723
  0
LINE
  5
2A0
100
AcDbEntity
  8
0
100
AcDbLine
 62
7
  6
CONTINUOUS
 10
101.0101193986
 20
124.4761629083
 11
101.0934526525
 21
124.9016948917
  0
LINE
  5
2A1
100
AcDbEntity
  8
0
100
AcDbLine
 62
7
  6
CONTINUOUS
 10
98.2601193241
 20
126.3485034683
 11
98.1767859883
 21
126.0931841114
  0
LINE
  5
2A2
100
AcDbEntity
  8
0
100
AcDbLine
 62
7
  6
CONTINUOUS
 10
89.9793498223
 20
152.4969154921
 11
87.9216565687
 21
153.5234113916
  0
LINE
  5
2A3
100
AcDbEntity
  8
0
100
AcDbLine
 62
7
  6
CONTINUOUS
 10
93.0854791759
 20
157.9349928319
 11
94.4771255454
 21
156.5433464624
  0
LINE
  5
2A4
100
AcDbEntity
  8
0
100
AcDbLine
 62
7
  6
CONTINUOUS
 10
94.6980964145
 20
156.7643173315
 11
92.9303294616
 21
158.5320842845
  0
LINE
  5
2A5
100
AcDbEntity
  8
0
100
AcDbLine
 62
7
  6
CONTINUOUS
 10
101.5309532635
 20
159.9016948619
 11
101.9476199053
 21
158.7846735695
  0
LINE
  5
2A6
100
AcDbEntity
  8
0
100
AcDbLine
 62
7
  6
CONTINUOUS
 10
101.8955366216
 20
160.8591417053
 11
101.9476199053
 21
160.6995672562
  0
LINE
  5
2A7
100
AcDbEntity
  8
0
100
AcDbLine
 62
7
  6
CONTINUOUS
 10
103.0934531889
 20
159.4229714402
 11
103.0413700543
 21
159.6357373723
  0
LINE
  5
2A8
100
AcDbEntity
  8
0
100
AcDbLine
 62
7
  6
CONTINUOUS
 10
102.7288699053
 20
159.6357373723
 11
102.780953338
 21
159.3697799572
  0
LINE
  5
2A9
100
AcDbEntity
  8
0
100
AcDbLine
 62
7
  6
CONTINUOUS
 10
107.1038697563
 20
159.6357373723
 11
107.1038697563
 21
160.4336096921
  0
LINE
  5
2AA
100
AcDbEntity
  8
0
100
AcDbLine
 62
7
  6
CONTINUOUS
 10
107.3434526525
 20
126.0080777386
 11
107.3434526525
 21
125.6676522472
  0
LINE
  5
2AB
100
AcDbEntity
  8
0
100
AcDbLine
 62
7
  6
CONTINUOUS
 10
108.0101196371
 20
126.6889289596
 11
108.0101196371
 21
126.0080777386
  0
LINE
  5
2AC
100
AcDbEntity
  8
0
100
AcDbLine
 62
7
  6
CONTINUOUS
 10
108.0101196371
 20
125.6676522472
 11
108.0101196371
 21
123.9655246117
  0
LINE
  5
2AD
100
AcDbEntity
  8
0
100
AcDbLine
 62
7
  6
CONTINUOUS
 10
108.4267856679
 20
124.135737417
 11
108.4267856679
 21
125.6676522472
  0
LINE
  5
2AE
100
AcDbEntity
  8
0
100
AcDbLine
 62
7
  6
CONTINUOUS
 10
108.4267856679
 20
126.0080777386
 11
108.4267856679
 21
126.6889289596
  0
LINE
  5
2AF
100
AcDbEntity
  8
0
100
AcDbLine
 62
7
  6
CONTINUOUS
 10
109.1767856679
 20
123.2846735695
 11
109.1767856679
 21
123.6250990906
  0
LINE
  5
2B0
100
AcDbEntity
  8
0
100
AcDbLine
 62
7
  6
CONTINUOUS
 10
109.3434526525
 20
125.6676522472
 11
109.3434526525
 21
126.0080777386
  0
LINE
  5
2B1
100
AcDbEntity
  8
0
100
AcDbLine
 62
7
  6
CONTINUOUS
 10
109.7184526525
 20
131.8725151673
 11
109.7184526525
 21
134.0346735695
  0
LINE
  5
2B2
100
AcDbEntity
  8
0
100
AcDbLine
 62
7
  6
CONTINUOUS
 10
100.9267859064
 20
124.2208437898
 11
101.0101193986
 21
124.4761629083
  0
LINE
  5
2B3
100
AcDbEntity
  8
0
100
AcDbLine
 62
7
  6
CONTINUOUS
 10
98.4267859958
 20
126.6889289596
 11
98.2601193241
 21
126.3485034683
  0
LINE
  5
2B4
100
AcDbEntity
  8
0
100
AcDbLine
 62
7
  6
CONTINUOUS
 10
98.5934526525
 20
126.0931841114
 11
98.926785966
 21
126.6038225868
  0
LINE
  5
2B5
100
AcDbEntity
  8
0
100
AcDbLine
 62
7
  6
CONTINUOUS
 10
92.6357017063
 20
154.7019226233
 11
91.4391679553
 21
155.2355437669
  0
LINE
  5
2B6
100
AcDbEntity
  8
0
100
AcDbLine
 62
7
  6
CONTINUOUS
 10
91.2934212029
 20
154.9393487811
 11
92.3779024995
 21
154.4441234165
  0
LINE
  5
2B7
100
AcDbEntity
  8
0
100
AcDbLine
 62
7
  6
CONTINUOUS
 10
91.7596539612
 20
156.6091676172
 11
93.6668991658
 21
155.7331200828
  0
LINE
  5
2B8
100
AcDbEntity
  8
0
100
AcDbLine
 62
7
  6
CONTINUOUS
 10
93.62615262
 20
156.0684941731
 11
91.4940188123
 21
157.0957736352
  0
LINE
  5
2B9
100
AcDbEntity
  8
0
100
AcDbLine
 62
7
  6
CONTINUOUS
 10
90.8742034649
 20
155.8741653542
 11
91.0238681883
 21
155.7981577276
  0
LINE
  5
2BA
100
AcDbEntity
  8
0
100
AcDbLine
 62
7
  6
CONTINUOUS
 10
91.2448390575
 20
156.0191285968
 11
91.095174334
 21
156.0951362234
  0
LINE
  5
2BB
100
AcDbEntity
  8
0
100
AcDbLine
 62
7
  6
CONTINUOUS
 10
102.780953338
 20
159.3697799572
 11
102.8851200543
 21
159.1570139879
  0
LINE
  5
2BC
100
AcDbEntity
  8
0
100
AcDbLine
 62
7
  6
CONTINUOUS
 10
102.312203338
 20
158.7846735695
 11
101.843453338
 21
160.008077828
  0
LINE
  5
2BD
100
AcDbEntity
  8
0
100
AcDbLine
 62
7
  6
CONTINUOUS
 10
102.2601199053
 20
160.6995672562
 11
102.2080366216
 21
160.8591417053
  0
LINE
  5
2BE
100
AcDbEntity
  8
0
100
AcDbLine
 62
7
  6
CONTINUOUS
 10
111.8684526525
 20
120.2846735695
 11
111.8684526525
 21
120.0346735695
  0
LINE
  5
2BF
100
AcDbEntity
  8
0
100
AcDbLine
 62
7
  6
CONTINUOUS
 10
100.7601193986
 20
123.8804182389
 11
100.9267859064
 21
124.2208437898
  0
LINE
  5
2C0
100
AcDbEntity
  8
0
100
AcDbLine
 62
7
  6
CONTINUOUS
 10
102.2601191602
 20
123.7102054932
 11
101.7601193986
 21
122.7740352729
  0
LINE
  5
2C1
100
AcDbEntity
  8
0
100
AcDbLine
 62
7
  6
CONTINUOUS
 10
100.5934526525
 20
124.4761629083
 11
100.2601193986
 21
123.9655246117
  0
LINE
  5
2C2
100
AcDbEntity
  8
0
100
AcDbLine
 62
7
  6
CONTINUOUS
 10
91.095174334
 20
156.0951362234
 11
90.834240666
 21
156.1350990222
  0
LINE
  5
2C3
100
AcDbEntity
  8
0
100
AcDbLine
 62
7
  6
CONTINUOUS
 10
102.2080366216
 20
160.8591417053
 11
102.0517866216
 21
161.0719076374
  0
LINE
  5
2C4
100
AcDbEntity
  8
0
100
AcDbLine
 62
7
  6
CONTINUOUS
 10
103.1976200543
 20
159.2633969912
 11
103.0934531889
 21
159.4229714402
  0
LINE
  5
2C5
100
AcDbEntity
  8
0
100
AcDbLine
 62
7
  6
CONTINUOUS
 10
106.7392866216
 20
160.6463756242
 11
106.7913697563
 21
160.4336096921
  0
LINE
  5
2C6
100
AcDbEntity
  8
0
100
AcDbLine
 62
7
  6
CONTINUOUS
 10
107.1038697563
 20
160.4336096921
 11
107.0517866216
 21
160.6995672562
  0
LINE
  5
2C7
100
AcDbEntity
  8
0
100
AcDbLine
 62
7
  6
CONTINUOUS
 10
102.1767861448
 20
122.7740352729
 11
102.6767861448
 21
123.7102054932
  0
LINE
  5
2C8
100
AcDbEntity
  8
0
100
AcDbLine
 62
7
  6
CONTINUOUS
 10
98.676785966
 20
126.9442480781
 11
98.4267859958
 21
126.6889289596
  0
LINE
  5
2C9
100
AcDbEntity
  8
0
100
AcDbLine
 62
7
  6
CONTINUOUS
 10
90.725322462
 20
155.8757325848
 11
90.8742034649
 21
155.8741653542
  0
LINE
  5
2CA
100
AcDbEntity
  8
0
100
AcDbLine
 62
7
  6
CONTINUOUS
 10
103.3538700543
 20
159.1570139879
 11
103.1976200543
 21
159.2633969912
  0
LINE
  5
2CB
100
AcDbEntity
  8
0
100
AcDbLine
 62
7
  6
CONTINUOUS
 10
102.0517866216
 20
161.0719076374
 11
101.843453338
 21
161.2314820865
  0
LINE
  5
2CC
100
AcDbEntity
  8
0
100
AcDbLine
 62
7
  6
CONTINUOUS
 10
102.8851200543
 20
159.1570139879
 11
103.0934531889
 21
158.9442480372
  0
LINE
  5
2CD
100
AcDbEntity
  8
0
100
AcDbLine
 62
7
  6
CONTINUOUS
 10
101.7913699053
 20
160.9655246713
 11
101.8955366216
 21
160.8591417053
  0
LINE
  5
2CE
100
AcDbEntity
  8
0
100
AcDbLine
 62
7
  6
CONTINUOUS
 10
106.6351197563
 20
160.8059502223
 11
106.7392866216
 21
160.6463756242
  0
LINE
  5
2CF
100
AcDbEntity
  8
0
100
AcDbLine
 62
7
  6
CONTINUOUS
 10
107.0517866216
 20
160.6995672562
 11
106.9476197563
 21
160.9123331883
  0
LINE
  5
2D0
100
AcDbEntity
  8
0
100
AcDbLine
 62
7
  6
CONTINUOUS
 10
105.3434526525
 20
127.2846735695
 11
103.3434526525
 21
124.9868012646
  0
LINE
  5
2D1
100
AcDbEntity
  8
0
100
AcDbLine
 62
7
  6
CONTINUOUS
 10
103.9267861448
 20
124.9868012646
 11
105.3434526525
 21
126.6038225868
  0
LINE
  5
2D2
100
AcDbEntity
  8
0
100
AcDbLine
 62
7
  6
CONTINUOUS
 10
100.5101193986
 20
123.6250990906
 11
100.7601193986
 21
123.8804182389
  0
LINE
  5
2D3
100
AcDbEntity
  8
0
100
AcDbLine
 62
7
  6
CONTINUOUS
 10
98.926785966
 20
126.6038225868
 11
99.1767860256
 21
126.7740353325
  0
LINE
  5
2D4
100
AcDbEntity
  8
0
100
AcDbLine
 62
7
  6
CONTINUOUS
 10
99.0934526525
 20
127.1995671966
 11
98.676785966
 21
126.9442480781
  0
LINE
  5
2D5
100
AcDbEntity
  8
0
100
AcDbLine
 62
7
  6
CONTINUOUS
 10
106.4788697563
 20
159.1570139879
 11
106.2705366216
 21
159.1038225049
  0
LINE
  5
2D6
100
AcDbEntity
  8
0
100
AcDbLine
 62
7
  6
CONTINUOUS
 10
103.9788700543
 20
159.1570139879
 11
103.7705366216
 21
159.1038225049
  0
LINE
  5
2D7
100
AcDbEntity
  8
0
100
AcDbLine
 62
7
  6
CONTINUOUS
 10
106.2705366216
 20
158.7846735695
 11
106.530953487
 21
158.8378650572
  0
LINE
  5
2D8
100
AcDbEntity
  8
0
100
AcDbLine
 62
7
  6
CONTINUOUS
 10
103.7705366216
 20
158.7846735695
 11
104.0309531889
 21
158.8378650572
  0
LINE
  5
2D9
100
AcDbEntity
  8
0
100
AcDbLine
 62
7
  6
CONTINUOUS
 10
90.834240666
 20
156.1350990222
 11
90.574090508
 21
156.1006212142
  0
LINE
  5
2DA
100
AcDbEntity
  8
0
100
AcDbLine
 62
7
  6
CONTINUOUS
 10
100.3330366216
 20
158.7846735695
 11
100.6455366216
 21
158.7846735695
  0
LINE
  5
2DB
100
AcDbEntity
  8
0
100
AcDbLine
 62
7
  6
CONTINUOUS
 10
101.9476199053
 20
158.7846735695
 11
102.312203338
 21
158.7846735695
  0
LINE
  5
2DC
100
AcDbEntity
  8
0
100
AcDbLine
 62
7
  6
CONTINUOUS
 10
103.5622031889
 20
158.7846735695
 11
103.7705366216
 21
158.7846735695
  0
LINE
  5
2DD
100
AcDbEntity
  8
0
100
AcDbLine
 62
7
  6
CONTINUOUS
 10
105.0205366216
 20
158.7846735695
 11
106.2705366216
 21
158.7846735695
  0
LINE
  5
2DE
100
AcDbEntity
  8
0
100
AcDbLine
 62
7
  6
CONTINUOUS
 10
106.2705366216
 20
159.1038225049
 11
105.3330366216
 21
159.1038225049
  0
LINE
  5
2DF
100
AcDbEntity
  8
0
100
AcDbLine
 62
7
  6
CONTINUOUS
 10
103.7705366216
 20
159.1038225049
 11
103.5622031889
 21
159.1038225049
  0
LINE
  5
2E0
100
AcDbEntity
  8
0
100
AcDbLine
 62
7
  6
CONTINUOUS
 10
100.6455366216
 20
159.9016948619
 11
101.5309532635
 21
159.9016948619
  0
LINE
  5
2E1
100
AcDbEntity
  8
0
100
AcDbLine
 62
7
  6
CONTINUOUS
 10
103.3017866216
 20
158.8378650572
 11
103.5622031889
 21
158.7846735695
  0
LINE
  5
2E2
100
AcDbEntity
  8
0
100
AcDbLine
 62
7
  6
CONTINUOUS
 10
103.5622031889
 20
159.1038225049
 11
103.3538700543
 21
159.1570139879
  0
LINE
  5
2E3
100
AcDbEntity
  8
0
100
AcDbLine
 62
7
  6
CONTINUOUS
 10
101.6351199053
 20
161.0187161544
 11
101.7913699053
 21
160.9655246713
  0
LINE
  5
2E4
100
AcDbEntity
  8
0
100
AcDbLine
 62
7
  6
CONTINUOUS
 10
103.0934531889
 20
158.9442480372
 11
103.3017866216
 21
158.8378650572
  0
LINE
  5
2E5
100
AcDbEntity
  8
0
100
AcDbLine
 62
7
  6
CONTINUOUS
 10
106.4788697563
 20
160.9123331883
 11
106.6351197563
 21
160.8059502223
  0
LINE
  5
2E6
100
AcDbEntity
  8
0
100
AcDbLine
 62
7
  6
CONTINUOUS
 10
106.9476197563
 20
160.9123331883
 11
106.7392866216
 21
161.1250991204
  0
LINE
  5
2E7
100
AcDbEntity
  8
0
100
AcDbLine
 62
7
  6
CONTINUOUS
 10
100.2601193986
 20
123.9655246117
 11
100.0101192794
 21
123.7953118661
  0
LINE
  5
2E8
100
AcDbEntity
  8
0
100
AcDbLine
 62
7
  6
CONTINUOUS
 10
100.0934526525
 20
123.3697799498
 11
100.5101193986
 21
123.6250990906
  0
LINE
  5
2E9
100
AcDbEntity
  8
0
100
AcDbLine
 62
7
  6
CONTINUOUS
 10
101.6351199053
 20
160.22084376
 11
100.6455366216
 21
160.22084376
  0
LINE
  5
2EA
100
AcDbEntity
  8
0
100
AcDbLine
 62
7
  6
CONTINUOUS
 10
105.3330366216
 20
160.9655246713
 11
106.2705366216
 21
160.9655246713
  0
LINE
  5
2EB
100
AcDbEntity
  8
0
100
AcDbLine
 62
7
  6
CONTINUOUS
 10
100.6455366216
 20
161.0187161544
 11
101.6351199053
 21
161.0187161544
  0
LINE
  5
2EC
100
AcDbEntity
  8
0
100
AcDbLine
 62
7
  6
CONTINUOUS
 10
106.2705366216
 20
161.2846735695
 11
105.0205366216
 21
161.2846735695
  0
LINE
  5
2ED
100
AcDbEntity
  8
0
100
AcDbLine
 62
7
  6
CONTINUOUS
 10
104.6038700543
 20
161.2846735695
 11
104.2913700543
 21
161.2846735695
  0
LINE
  5
2EE
100
AcDbEntity
  8
0
100
AcDbLine
 62
7
  6
CONTINUOUS
 10
103.0413700543
 20
161.2846735695
 11
102.7288699053
 21
161.2846735695
  0
LINE
  5
2EF
100
AcDbEntity
  8
0
100
AcDbLine
 62
7
  6
CONTINUOUS
 10
101.5830366216
 20
161.2846735695
 11
100.3330366216
 21
161.2846735695
  0
LINE
  5
2F0
100
AcDbEntity
  8
0
100
AcDbLine
 62
7
  6
CONTINUOUS
 10
101.843453338
 20
161.2314820865
 11
101.5830366216
 21
161.2846735695
  0
LINE
  5
2F1
100
AcDbEntity
  8
0
100
AcDbLine
 62
7
  6
CONTINUOUS
 10
106.530953487
 20
161.2314820865
 11
106.2705366216
 21
161.2846735695
  0
LINE
  5
2F2
100
AcDbEntity
  8
0
100
AcDbLine
 62
7
  6
CONTINUOUS
 10
106.2705366216
 20
160.9655246713
 11
106.4788697563
 21
160.9123331883
  0
LINE
  5
2F3
100
AcDbEntity
  8
0
100
AcDbLine
 62
7
  6
CONTINUOUS
 10
106.7392866216
 20
161.1250991204
 11
106.530953487
 21
161.2314820865
  0
LINE
  5
2F4
100
AcDbEntity
  8
BEZUGSACHSEN
100
AcDbLine
 62
7
  6
CONTINUOUS
 10
123.2184526525
 20
132.9117468236
 11
123.2184526525
 21
127.2849541555
  0
LINE
  5
2F5
100
AcDbEntity
  8
RUNDUNGEN
100
AcDbLine
 62
7
  6
CONTINUOUS
 10
123.2184526525
 20
132.9117488692
 11
123.2184526525
 21
127.2846735695
  0
LINE
  5
2F6
100
AcDbEntity
  8
RUNDUNGEN
100
AcDbLine
 62
7
  6
CONTINUOUS
 10
104.2924778011
 20
165.5469045678
 11
119.7614368618
 21
159.139451929
  0
LINE
  5
2F7
100
AcDbEntity
  8
BEZUGSACHSEN
100
AcDbLine
 62
7
  6
CONTINUOUS
 10
126.9704148582
 20
141.7155561191
 11
123.2980292281
 21
132.8496329247
  0
LINE
  5
2F8
100
AcDbEntity
  8
BEZUGSACHSEN
100
AcDbLine
 62
7
  6
CONTINUOUS
 10
120.3229545511
 20
125.6671672904
 11
120.1132961529
 21
125.1610071421
  0
LINE
  5
2F9
100
AcDbEntity
  8
RUNDUNGEN
100
AcDbLine
 62
7
  6
CONTINUOUS
 10
120.5732310121
 20
158.3276577788
 11
126.6718280106
 21
143.6043421936
  0
LINE
  5
2FA
100
AcDbEntity
  8
BEZUGSACHSEN
100
AcDbLine
 62
7
  6
CONTINUOUS
 10
126.6718280106
 20
143.6043421936
 11
126.9682350545
 21
142.8887522881
  0
LINE
  5
2FB
100
AcDbEntity
  8
0
100
AcDbLine
 62
7
  6
CONTINUOUS
 10
170.9053339515
 20
120.0346735695
 11
187.2028094515
 21
120.0346735695
  0
LINE
  5
2FC
100
AcDbEntity
  8
BEZUGSACHSEN
100
AcDbLine
 62
7
  6
CONTINUOUS
 10
166.5540716937
 20
120.2846735695
 11
191.5540717093
 21
120.2846735695
  0
LINE
  5
2FD
100
AcDbEntity
  8
0
100
AcDbLine
 62
7
  6
CONTINUOUS
 10
164.5937385591
 20
124.9864825515
 11
164.7497589314
 21
124.4761629083
  0
LINE
  5
2FE
100
AcDbEntity
  8
BEZUGSACHSEN
100
AcDbLine
 62
7
  6
CONTINUOUS
 10
164.0299662436
 20
128.5406505158
 11
164.4139569313
 21
127.2846735695
  0
LINE
  5
2FF
100
AcDbEntity
  8
BEZUGSACHSEN
100
AcDbLine
 62
7
  6
CONTINUOUS
 10
165.6368796571
 20
123.2846735695
 11
166.5540717015
 21
120.2846735695
  0
LINE
  5
300
100
AcDbEntity
  8
0
100
AcDbLine
 62
7
  6
CONTINUOUS
 10
165.7929974515
 20
122.7740352729
 11
165.3359044549
 21
122.7740352729
  0
LINE
  5
301
100
AcDbEntity
  8
0
100
AcDbLine
 62
7
  6
CONTINUOUS
 10
192.2056320493
 20
122.7740352729
 11
192.7722389482
 21
122.7740352729
  0
LINE
  5
302
100
AcDbEntity
  8
0
100
AcDbLine
 62
7
  6
CONTINUOUS
 10
166.5010389986
 20
123.2846735695
 11
165.9509061419
 21
123.2846735695
  0
LINE
  5
303
100
AcDbEntity
  8
0
100
AcDbLine
 62
7
  6
CONTINUOUS
 10
165.1862285741
 20
123.2846735695
 11
165.764316144
 21
123.2846735695
  0
LINE
  5
304
100
AcDbEntity
  8
0
100
AcDbLine
 62
7
  6
CONTINUOUS
 10
191.9846680553
 20
123.2846735695
 11
192.5224201775
 21
123.2846735695
  0
LINE
  5
305
100
AcDbEntity
  8
0
100
AcDbLine
 62
7
  6
CONTINUOUS
 10
191.8839509699
 20
123.3697799498
 11
192.4257347921
 21
123.3697799498
  0
LINE
  5
306
100
AcDbEntity
  8
0
100
AcDbLine
 62
7
  6
CONTINUOUS
 10
166.3894681393
 20
123.6250990906
 11
165.8398145606
 21
123.6250990906
  0
LINE
  5
307
100
AcDbEntity
  8
0
100
AcDbLine
 62
7
  6
CONTINUOUS
 10
191.8479898579
 20
123.6250990906
 11
192.393359359
 21
123.6250990906
  0
LINE
  5
308
100
AcDbEntity
  8
0
100
AcDbLine
 62
7
  6
CONTINUOUS
 10
166.2325768781
 20
123.7102054932
 11
165.6873046645
 21
123.7102054932
  0
LINE
  5
309
100
AcDbEntity
  8
0
100
AcDbLine
 62
7
  6
CONTINUOUS
 10
165.0554177061
 20
123.7102054932
 11
165.0132798752
 21
123.7102054932
  0
LINE
  5
30A
100
AcDbEntity
  8
0
100
AcDbLine
 62
7
  6
CONTINUOUS
 10
192.8581703158
 20
123.7102054932
 11
193.0948635278
 21
123.7102054932
  0
LINE
  5
30B
100
AcDbEntity
  8
0
100
AcDbLine
 62
7
  6
CONTINUOUS
 10
192.5833637894
 20
123.7953118661
 11
192.7748767664
 21
123.7953118661
  0
LINE
  5
30C
100
AcDbEntity
  8
0
100
AcDbLine
 62
7
  6
CONTINUOUS
 10
166.1058247015
 20
123.8804182389
 11
165.5630613679
 21
123.8804182389
  0
LINE
  5
30D
100
AcDbEntity
  8
0
100
AcDbLine
 62
7
  6
CONTINUOUS
 10
191.855019028
 20
123.8804182389
 11
192.4025759982
 21
123.8804182389
  0
LINE
  5
30E
100
AcDbEntity
  8
0
100
AcDbLine
 62
7
  6
CONTINUOUS
 10
192.5723947538
 20
123.9655246117
 11
192.8777026366
 21
123.9655246117
  0
LINE
  5
30F
100
AcDbEntity
  8
0
100
AcDbLine
 62
7
  6
CONTINUOUS
 10
166.0008202169
 20
124.135737417
 11
165.4590369313
 21
124.135737417
  0
LINE
  5
310
100
AcDbEntity
  8
0
100
AcDbLine
 62
7
  6
CONTINUOUS
 10
191.9136234669
 20
124.2208437898
 11
192.4624683467
 21
124.2208437898
  0
LINE
  5
311
100
AcDbEntity
  8
0
100
AcDbLine
 62
7
  6
CONTINUOUS
 10
164.7497604408
 20
124.4761629083
 11
164.8199900503
 21
124.4761629083
  0
LINE
  5
312
100
AcDbEntity
  8
0
100
AcDbLine
 62
7
  6
CONTINUOUS
 10
164.8700317793
 20
124.4761629083
 11
165.2467194521
 21
124.4761629083
  0
LINE
  5
313
100
AcDbEntity
  8
0
100
AcDbLine
 62
7
  6
CONTINUOUS
 10
191.9704185773
 20
124.4761629083
 11
192.5197999799
 21
124.4761629083
  0
LINE
  5
314
100
AcDbEntity
  8
0
100
AcDbLine
 62
7
  6
CONTINUOUS
 10
192.6442916025
 20
124.4761629083
 11
193.0970643018
 21
124.4761629083
  0
LINE
  5
315
100
AcDbEntity
  8
0
100
AcDbLine
 62
7
  6
CONTINUOUS
 10
193.1625416503
 20
124.4761629083
 11
193.354648438
 21
124.4761629083
  0
LINE
  5
316
100
AcDbEntity
  8
0
100
AcDbLine
 62
7
  6
CONTINUOUS
 10
192.0828362016
 20
124.9016948917
 11
192.6325223285
 21
124.9016948917
  0
LINE
  5
317
100
AcDbEntity
  8
0
100
AcDbLine
 62
7
  6
CONTINUOUS
 10
164.6630607136
 20
124.9868012646
 11
164.5947810224
 21
124.9868012646
  0
LINE
  5
318
100
AcDbEntity
  8
0
100
AcDbLine
 62
7
  6
CONTINUOUS
 10
165.0846856928
 20
124.9868012646
 11
164.7125205591
 21
124.9868012646
  0
LINE
  5
319
100
AcDbEntity
  8
0
100
AcDbLine
 62
7
  6
CONTINUOUS
 10
192.7853207929
 20
124.9868012646
 11
193.2699446471
 21
124.9868012646
  0
LINE
  5
31A
100
AcDbEntity
  8
0
100
AcDbLine
 62
7
  6
CONTINUOUS
 10
193.3327379883
 20
124.9868012646
 11
193.5108094251
 21
124.9868012646
  0
LINE
  5
31B
100
AcDbEntity
  8
0
100
AcDbLine
 62
7
  6
CONTINUOUS
 10
192.9776324617
 20
125.5825458744
 11
193.4553771109
 21
125.5825458744
  0
LINE
  5
31C
100
AcDbEntity
  8
0
100
AcDbLine
 62
7
  6
CONTINUOUS
 10
164.7286903418
 20
125.6676522472
 11
164.8688395274
 21
125.6676522472
  0
LINE
  5
31D
100
AcDbEntity
  8
0
100
AcDbLine
 62
7
  6
CONTINUOUS
 10
164.9692386535
 20
125.6676522472
 11
165.7746570026
 21
125.6676522472
  0
LINE
  5
31E
100
AcDbEntity
  8
0
100
AcDbLine
 62
7
  6
CONTINUOUS
 10
192.3334864004
 20
125.6676522472
 11
192.8821639477
 21
125.6676522472
  0
LINE
  5
31F
100
AcDbEntity
  8
0
100
AcDbLine
 62
7
  6
CONTINUOUS
 10
165.6634480187
 20
126.0080777386
 11
164.860590889
 21
126.0080777386
  0
LINE
  5
320
100
AcDbEntity
  8
0
100
AcDbLine
 62
7
  6
CONTINUOUS
 10
164.7610042023
 20
126.0080777386
 11
164.6219707705
 21
126.0080777386
  0
LINE
  5
321
100
AcDbEntity
  8
0
100
AcDbLine
 62
7
  6
CONTINUOUS
 10
192.4984541511
 20
126.0931841114
 11
193.0457809979
 21
126.0931841114
  0
LINE
  5
322
100
AcDbEntity
  8
0
100
AcDbLine
 62
7
  6
CONTINUOUS
 10
193.1653440222
 20
126.0931841114
 11
193.6008944522
 21
126.0931841114
  0
LINE
  5
323
100
AcDbEntity
  8
0
100
AcDbLine
 62
7
  6
CONTINUOUS
 10
192.606969611
 20
126.3485034683
 11
193.1532068519
 21
126.3485034683
  0
LINE
  5
324
100
AcDbEntity
  8
0
100
AcDbLine
 62
7
  6
CONTINUOUS
 10
193.4167106881
 20
126.6038225868
 11
193.7033406061
 21
126.6038225868
  0
LINE
  5
325
100
AcDbEntity
  8
0
100
AcDbLine
 62
7
  6
CONTINUOUS
 10
165.1830868749
 20
126.6889289596
 11
164.545497985
 21
126.6889289596
  0
LINE
  5
326
100
AcDbEntity
  8
0
100
AcDbLine
 62
7
  6
CONTINUOUS
 10
192.7665541949
 20
126.6889289596
 11
193.3109122244
 21
126.6889289596
  0
LINE
  5
327
100
AcDbEntity
  8
0
100
AcDbLine
 62
7
  6
CONTINUOUS
 10
193.5320494163
 20
126.7740353325
 11
193.7104016417
 21
126.7740353325
  0
LINE
  5
328
100
AcDbEntity
  8
0
100
AcDbLine
 62
7
  6
CONTINUOUS
 10
192.9190533664
 20
126.9442480781
 11
193.4610470276
 21
126.9442480781
  0
LINE
  5
329
100
AcDbEntity
  8
0
100
AcDbLine
 62
7
  6
CONTINUOUS
 10
193.1088429945
 20
127.1995671966
 11
193.6474305831
 21
127.1995671966
  0
LINE
  5
32A
100
AcDbEntity
  8
0
100
AcDbLine
 62
7
  6
CONTINUOUS
 10
164.5300807649
 20
127.2846735695
 11
163.9570847495
 21
127.2846735695
  0
LINE
  5
32B
100
AcDbEntity
  8
0
100
AcDbLine
 62
7
  6
CONTINUOUS
 10
193.2518695016
 20
127.2846735695
 11
194.1510586535
 21
127.2846735695
  0
LINE
  5
32C
100
AcDbEntity
  8
0
100
AcDbLine
 62
7
  6
CONTINUOUS
 10
170.9040717015
 20
120.2846735695
 11
170.9040717015
 21
120.0346735695
  0
LINE
  5
32D
100
AcDbEntity
  8
0
100
AcDbLine
 62
7
  6
CONTINUOUS
 10
172.1258684712
 20
132.9008428334
 11
172.1258684712
 21
134.0346735695
  0
LINE
  5
32E
100
AcDbEntity
  8
0
100
AcDbLine
 62
7
  6
CONTINUOUS
 10
172.1258684712
 20
134.0346735695
 11
173.2702133925
 21
134.0346735695
  0
LINE
  5
32F
100
AcDbEntity
  8
0
100
AcDbLine
 62
7
  6
CONTINUOUS
 10
184.8381773703
 20
134.0346735695
 11
185.9822749318
 21
134.0346735695
  0
LINE
  5
330
100
AcDbEntity
  8
RUNDUNGEN
100
AcDbLine
 62
7
  6
CONTINUOUS
 10
193.0319485931
 20
130.4280968123
 11
188.4923553244
 21
131.6444771626
  0
LINE
  5
331
100
AcDbEntity
  8
BEZUGSACHSEN
100
AcDbLine
 62
7
  6
CONTINUOUS
 10
174.8040717015
 20
138.4059687393
 11
174.8040717015
 21
164.161085269
  0
LINE
  5
332
100
AcDbEntity
  8
BEZUGSACHSEN
100
AcDbLine
 62
7
  6
CONTINUOUS
 10
175.0568151109
 20
130.4327941799
 11
175.0568272928
 21
130.433122674
  0
LINE
  5
333
100
AcDbEntity
  8
BEZUGSACHSEN
100
AcDbLine
 62
7
  6
CONTINUOUS
 10
165.0761948099
 20
130.4280968123
 11
169.6157880786
 21
131.6444771626
  0
LINE
  5
334
100
AcDbEntity
  8
RUNDUNGEN
100
AcDbLine
 62
7
  6
CONTINUOUS
 10
183.0513282921
 20
130.4327941799
 11
183.0513161103
 21
130.433122674
  0
LINE
  5
335
100
AcDbEntity
  8
RUNDUNGEN
100
AcDbLine
 62
7
  6
CONTINUOUS
 10
183.3040717015
 20
138.4059687393
 11
183.3040717015
 21
164.161085269
  0
LINE
  5
336
100
AcDbEntity
  8
0
100
AcDbLine
 62
7
  6
CONTINUOUS
 10
183.8040717015
 20
161.2846735695
 11
183.8040717015
 21
158.7846735695
  0
LINE
  5
337
100
AcDbEntity
  8
0
100
AcDbLine
 62
7
  6
CONTINUOUS
 10
185.9822749318
 20
132.899519641
 11
185.9822749318
 21
134.0346735695
  0
LINE
  5
338
100
AcDbEntity
  8
0
100
AcDbLine
 62
7
  6
CONTINUOUS
 10
187.2040717015
 20
120.2846735695
 11
187.2040717015
 21
120.0346735695
  0
LINE
  5
339
100
AcDbEntity
  8
0
100
AcDbLine
 62
7
  6
CONTINUOUS
 10
191.5540717015
 20
120.2846735695
 11
192.3151459515
 21
122.7740352729
  0
LINE
  5
33A
100
AcDbEntity
  8
0
100
AcDbLine
 62
7
  6
CONTINUOUS
 10
193.6941864717
 20
127.2846735695
 11
194.0781771594
 21
128.5406505158
  0
LINE
  5
33B
100
AcDbEntity
  8
0
100
AcDbLine
 62
7
  6
CONTINUOUS
 10
183.3040717015
 20
158.7846735695
 11
183.8040717015
 21
158.7846735695
  0
LINE
  5
33C
100
AcDbEntity
  8
0
100
AcDbLine
 62
7
  6
CONTINUOUS
 10
183.3040717015
 20
161.2846735695
 11
183.8040717015
 21
161.2846735695
  0
LINE
  5
33D
100
AcDbEntity
  8
RUNDUNGEN
100
AcDbLine
 62
7
  6
CONTINUOUS
 10
181.8040717015
 20
165.661085269
 11
176.3040717015
 21
165.661085269
  0
LWPOLYLINE
  5
33E
100
AcDbEntity
  8
RUNDUNGEN
100
AcDbPolyline
 62
7
  6
CONTINUOUS
 90
6
 70
0
 10
80.3509613597
 20
81.0821146138
 10
80.3732073934
 20
80.7702251629
 10
80.4191340567
 20
80.2143651805
 10
80.4734184281
 20
79.6562763765
 10
80.5361620574
 20
79.0967384368
 10
80.6074300364
 20
78.5365207665
  0
LWPOLYLINE
  5
33F
100
AcDbEntity
  8
BEZUGSACHSEN
100
AcDbPolyline
 62
7
  6
CONTINUOUS
 90
7
 70
0
 10
80.6667152545
 20
84.0493836908
 10
80.6074300364
 20
83.6277110846
 10
80.5361620574
 20
83.0674934143
 10
80.4734184281
 20
82.5079554746
 10
80.4191340567
 20
81.9498666707
 10
80.3732073934
 20
81.3940066883
 10
80.3509613597
 20
81.0821172374
  0
LINE
  5
340
100
AcDbEntity
  8
RUNDUNGEN
100
AcDbLine
 62
7
  6
CONTINUOUS
 10
80.6074300364
 20
78.5365207665
 11
80.6667152545
 21
78.1148481604
  0
LWPOLYLINE
  5
341
100
AcDbEntity
  8
BEZUGSACHSEN
100
AcDbPolyline
 62
7
  6
CONTINUOUS
 90
13
 70
0
 10
87.2124081149
 20
88.2754944832
 10
86.3395747323
 20
87.314831223
 10
85.9616671914
 20
86.9057012497
 10
85.6178652145
 20
86.5455169024
 10
85.305746037
 20
86.2346026041
 10
85.0238436385
 20
85.9726710261
 10
84.7714701295
 20
85.7586902011
 10
84.5490459744
 20
85.5911548991
 10
84.3595307457
 20
85.4687689538
 10
84.206781678
 20
85.3885275575
 10
84.0987398421
 20
85.3462735175
 10
84.0449382753
 20
85.332969916
 10
84.0405692061
 20
85.3321163407
  0
LWPOLYLINE
  5
342
100
AcDbEntity
  8
BEZUGSACHSEN
100
AcDbPolyline
 62
7
  6
CONTINUOUS
 90
6
 70
0
 10
90.2167238688
 20
91.2640021208
 10
89.5835814858
 20
90.6957585164
 10
88.8939172388
 20
90.0367442547
 10
88.2750163484
 20
89.4113021043
 10
87.7171159864
 20
88.8230958582
 10
87.2124081149
 20
88.2754944832
  0
LINE
  5
343
100
AcDbEntity
  8
0
100
AcDbLine
 62
7
  6
CONTINUOUS
 10
103.7184526525
 20
88.0103191558
 11
99.0796685847
 21
85.3321159256
  0
LWPOLYLINE
  5
344
100
AcDbEntity
  8
RUNDUNGEN
100
AcDbPolyline
 62
7
  6
CONTINUOUS
 90
21
 70
0
 10
90.2167472444
 20
70.9002161526
 10
91.191972084
 20
70.1076408726
 10
92.3604663544
 20
69.2870098805
 10
93.6056256342
 20
68.5434669955
 10
94.9190641639
 20
67.8847065651
 10
96.2927181046
 20
67.3168456915
 10
97.7172697416
 20
66.8452024768
 10
99.1830282852
 20
66.4741599483
 10
100.6799340191
 20
66.2069611704
 10
102.1976903476
 20
66.0459510723
 10
103.725890182
 20
65.9924688795
 10
105.254035665
 20
66.0470001419
 10
106.7716317993
 20
66.2090493173
 10
108.2682734906
 20
66.4772674855
 10
109.7336675634
 20
66.8493003516
 10
111.1577580009
 20
67.3218947065
 10
112.5308583594
 20
67.8906571242
 10
113.8436570377
 20
68.550259932
 10
115.0881061184
 20
69.2945821167
 10
116.2558326009
 20
70.1159223617
 10
117.2201567779
 20
70.9002149883
  0
LWPOLYLINE
  5
345
100
AcDbEntity
  8
RUNDUNGEN
100
AcDbPolyline
 62
7
  6
CONTINUOUS
 90
7
 70
0
 10
86.3483574894
 20
74.8397882831
 10
87.2218828436
 20
73.8783580488
 10
87.7255289682
 20
73.3321175346
 10
88.281318083
 20
72.7464099311
 10
88.8977015909
 20
72.1237597048
 10
89.5853377339
 20
71.4668481571
 10
90.2167240039
 20
70.9002296127
  0
LINE
  5
346
100
AcDbEntity
  8
0
100
AcDbLine
 62
7
  6
CONTINUOUS
 10
99.5934526525
 20
66.4008988959
 11
99.5934526525
 21
66.3491502553
  0
LINE
  5
347
100
AcDbEntity
  8
0
100
AcDbLine
 62
7
  6
CONTINUOUS
 10
100.0934526525
 20
66.311648527
 11
100.0934526525
 21
66.2767921495
  0
LINE
  5
348
100
AcDbEntity
  8
0
100
AcDbLine
 62
7
  6
CONTINUOUS
 10
100.3330366216
 20
76.8321159256
 11
100.3330366216
 21
76.3321159256
  0
LINE
  5
349
100
AcDbEntity
  8
0
100
AcDbLine
 62
7
  6
CONTINUOUS
 10
101.5830366216
 20
76.8321159256
 11
101.5830366216
 21
76.3321159256
  0
LINE
  5
34A
100
AcDbEntity
  8
0
100
AcDbLine
 62
7
  6
CONTINUOUS
 10
101.5934526525
 20
96.0541806537
 11
101.5934526525
 21
96.1321117525
  0
LINE
  5
34B
100
AcDbEntity
  8
0
100
AcDbLine
 62
7
  6
CONTINUOUS
 10
101.843453338
 20
76.8321159256
 11
101.843453338
 21
76.3321159256
  0
LINE
  5
34C
100
AcDbEntity
  8
0
100
AcDbLine
 62
7
  6
CONTINUOUS
 10
102.0517866216
 20
76.8321159256
 11
102.0517866216
 21
76.3321159256
  0
LINE
  5
34D
100
AcDbEntity
  8
0
100
AcDbLine
 62
7
  6
CONTINUOUS
 10
102.0934526525
 20
96.1072227973
 11
102.0934526525
 21
96.1791028776
  0
LINE
  5
34E
100
AcDbEntity
  8
0
100
AcDbLine
 62
7
  6
CONTINUOUS
 10
102.2080366216
 20
76.8321159256
 11
102.2080366216
 21
76.3321159256
  0
LINE
  5
34F
100
AcDbEntity
  8
0
100
AcDbLine
 62
7
  6
CONTINUOUS
 10
102.2601199053
 20
76.8321159256
 11
102.2601199053
 21
76.3321159256
  0
LINE
  5
350
100
AcDbEntity
  8
0
100
AcDbLine
 62
7
  6
CONTINUOUS
 10
102.312203338
 20
76.8321159256
 11
102.312203338
 21
76.3321159256
  0
LINE
  5
351
100
AcDbEntity
  8
0
100
AcDbLine
 62
7
  6
CONTINUOUS
 10
102.7288699053
 20
76.8321159256
 11
102.7288699053
 21
76.3321159256
  0
LINE
  5
352
100
AcDbEntity
  8
0
100
AcDbLine
 62
7
  6
CONTINUOUS
 10
103.0413700543
 20
76.8321159256
 11
103.0413700543
 21
76.3321159256
  0
LINE
  5
353
100
AcDbEntity
  8
0
100
AcDbLine
 62
7
  6
CONTINUOUS
 10
103.0934531889
 20
76.8321159256
 11
103.0934531889
 21
76.3321159256
  0
LINE
  5
354
100
AcDbEntity
  8
0
100
AcDbLine
 62
7
  6
CONTINUOUS
 10
103.1976200543
 20
76.8321159256
 11
103.1976200543
 21
76.3321159256
  0
LINE
  5
355
100
AcDbEntity
  8
0
100
AcDbLine
 62
7
  6
CONTINUOUS
 10
103.3538700543
 20
76.8321159256
 11
103.3538700543
 21
76.3321159256
  0
LINE
  5
356
100
AcDbEntity
  8
0
100
AcDbLine
 62
7
  6
CONTINUOUS
 10
103.5622031889
 20
76.8321159256
 11
103.5622031889
 21
76.3321159256
  0
LINE
  5
357
100
AcDbEntity
  8
0
100
AcDbLine
 62
7
  6
CONTINUOUS
 10
103.7705366216
 20
76.8321159256
 11
103.7705366216
 21
76.3321159256
  0
LINE
  5
358
100
AcDbEntity
  8
0
100
AcDbLine
 62
7
  6
CONTINUOUS
 10
103.9788700543
 20
76.8321159256
 11
103.9788700543
 21
76.3321159256
  0
LWPOLYLINE
  5
359
100
AcDbEntity
  8
RUNDUNGEN
100
AcDbPolyline
 62
7
  6
CONTINUOUS
 90
12
 70
0
 10
84.0405773737
 20
76.8321155089
 10
84.0449995967
 20
76.831252632
 10
84.0989746094
 20
76.8178851471
 10
84.2072605336
 20
76.7754854701
 10
84.3603280211
 20
76.6949957111
 10
84.5502447201
 20
76.5722372069
 10
84.7732763246
 20
76.4040928599
 10
85.0266698004
 20
76.1890441915
 10
85.3098828685
 20
75.9256371629
 10
85.6236158068
 20
75.6128228383
 10
85.9690550525
 20
75.250640004
 10
86.3483574894
 20
74.8397882831
  0
LINE
  5
35A
100
AcDbEntity
  8
0
100
AcDbLine
 62
7
  6
CONTINUOUS
 10
99.0796685847
 20
76.8321159256
 11
103.7184526525
 21
74.1539126953
  0
LINE
  5
35B
100
AcDbEntity
  8
0
100
AcDbLine
 62
7
  6
CONTINUOUS
 10
104.1351200543
 20
76.8321159256
 11
104.1351200543
 21
76.3321159256
  0
LINE
  5
35C
100
AcDbEntity
  8
0
100
AcDbLine
 62
7
  6
CONTINUOUS
 10
104.2392866216
 20
76.8321159256
 11
104.2392866216
 21
76.3321159256
  0
LINE
  5
35D
100
AcDbEntity
  8
0
100
AcDbLine
 62
7
  6
CONTINUOUS
 10
104.2913700543
 20
76.8321159256
 11
104.2913700543
 21
76.3321159256
  0
LINE
  5
35E
100
AcDbEntity
  8
0
100
AcDbLine
 62
7
  6
CONTINUOUS
 10
104.6038700543
 20
76.8321159256
 11
104.6038700543
 21
76.3321159256
  0
LINE
  5
35F
100
AcDbEntity
  8
0
100
AcDbLine
 62
7
  6
CONTINUOUS
 10
105.0205366216
 20
76.8321159256
 11
105.0205366216
 21
76.3321159256
  0
LINE
  5
360
100
AcDbEntity
  8
0
100
AcDbLine
 62
7
  6
CONTINUOUS
 10
105.3434526525
 20
66.0565481032
 11
105.3434526525
 21
65.9851289736
  0
LINE
  5
361
100
AcDbEntity
  8
0
100
AcDbLine
 62
7
  6
CONTINUOUS
 10
105.8434526525
 20
66.1099381889
 11
105.8434526525
 21
66.0321200986
  0
LINE
  5
362
100
AcDbEntity
  8
0
100
AcDbLine
 62
7
  6
CONTINUOUS
 10
106.2705366216
 20
76.8321159256
 11
106.2705366216
 21
76.3321159256
  0
LINE
  5
363
100
AcDbEntity
  8
0
100
AcDbLine
 62
7
  6
CONTINUOUS
 10
106.530953487
 20
76.8321159256
 11
106.530953487
 21
76.3321159256
  0
LINE
  5
364
100
AcDbEntity
  8
0
100
AcDbLine
 62
7
  6
CONTINUOUS
 10
106.7392866216
 20
76.8321159256
 11
106.7392866216
 21
76.3321159256
  0
LINE
  5
365
100
AcDbEntity
  8
0
100
AcDbLine
 62
7
  6
CONTINUOUS
 10
103.7184526525
 20
74.1539126953
 11
108.3572367203
 21
76.8321159256
  0
LINE
  5
366
100
AcDbEntity
  8
0
100
AcDbLine
 62
7
  6
CONTINUOUS
 10
107.1038697563
 20
76.3321159256
 11
105.0205366216
 21
76.3321159256
  0
LINE
  5
367
100
AcDbEntity
  8
0
100
AcDbLine
 62
7
  6
CONTINUOUS
 10
104.6038700543
 20
76.3321159256
 11
102.7288699053
 21
76.3321159256
  0
LINE
  5
368
100
AcDbEntity
  8
0
100
AcDbLine
 62
7
  6
CONTINUOUS
 10
102.312203338
 20
76.3321159256
 11
100.3330366216
 21
76.3321159256
  0
LINE
  5
369
100
AcDbEntity
  8
RUNDUNGEN
100
AcDbLine
 62
7
  6
CONTINUOUS
 10
82.1508970024
 20
76.8321159256
 11
125.2860086524
 21
76.8321159256
  0
LINE
  5
36A
100
AcDbEntity
  8
0
100
AcDbLine
 62
7
  6
CONTINUOUS
 10
106.9476197563
 20
76.8321159256
 11
106.9476197563
 21
76.3321159256
  0
LINE
  5
36B
100
AcDbEntity
  8
0
100
AcDbLine
 62
7
  6
CONTINUOUS
 10
107.0517866216
 20
76.8321159256
 11
107.0517866216
 21
76.3321159256
  0
LINE
  5
36C
100
AcDbEntity
  8
0
100
AcDbLine
 62
7
  6
CONTINUOUS
 10
107.1038697563
 20
76.8321159256
 11
107.1038697563
 21
76.3321159256
  0
LINE
  5
36D
100
AcDbEntity
  8
0
100
AcDbLine
 62
7
  6
CONTINUOUS
 10
107.3434526525
 20
95.8527046043
 11
107.3434526525
 21
95.8874397016
  0
LINE
  5
36E
100
AcDbEntity
  8
0
100
AcDbLine
 62
7
  6
CONTINUOUS
 10
107.8434526525
 20
95.7630979303
 11
107.8434526525
 21
95.8150815959
  0
LINE
  5
36F
100
AcDbEntity
  8
BEZUGSACHSEN
100
AcDbLine
 62
7
  6
CONTINUOUS
 10
82.1508970024
 20
85.3321159256
 11
125.2860087876
 21
85.3321159256
  0
LWPOLYLINE
  5
370
100
AcDbEntity
  8
RUNDUNGEN
100
AcDbPolyline
 62
7
  6
CONTINUOUS
 90
12
 70
0
 10
121.0941163264
 20
74.8458831947
 10
121.4730899381
 20
75.2562368236
 10
121.8182221969
 20
75.6178772012
 10
122.1316270575
 20
75.9300803947
 10
122.4144338437
 20
76.1927818863
 10
122.6673612064
 20
76.4070848875
 10
122.889846489
 20
76.5744670768
 10
123.0791743109
 20
76.6965158765
 10
123.2316297182
 20
76.7763910808
 10
123.339216628
 20
76.8182848171
 10
123.3923399991
 20
76.83131959
 10
123.3962998375
 20
76.8321154893
  0
LWPOLYLINE
  5
371
100
AcDbEntity
  8
RUNDUNGEN
100
AcDbPolyline
 62
7
  6
CONTINUOUS
 90
7
 70
0
 10
117.2201791434
 20
70.9002274886
 10
117.8613351809
 20
71.4758903451
 10
118.5480425034
 20
72.1324685758
 10
119.1635256308
 20
72.7546236301
 10
119.7185141666
 20
73.3397690544
 10
120.2215109935
 20
73.8854658524
 10
121.0941163264
 20
74.8458831947
  0
LINE
  5
372
100
AcDbEntity
  8
0
100
AcDbLine
 62
7
  6
CONTINUOUS
 10
108.3572367203
 20
85.3321159256
 11
103.7184526525
 21
88.0103191558
  0
LWPOLYLINE
  5
373
100
AcDbEntity
  8
BEZUGSACHSEN
100
AcDbPolyline
 62
7
  6
CONTINUOUS
 90
12
 70
0
 10
123.3963036981
 20
85.332116361
 10
123.3923749246
 20
85.3329070364
 10
123.3393716316
 20
85.3458990748
 10
123.2319589833
 20
85.3876909598
 10
123.0797640396
 20
85.4673714477
 10
122.8908123794
 20
85.5890897018
 10
122.6689292658
 20
85.755891451
 10
122.4170232287
 20
85.9691474046
 10
122.1355319745
 20
86.2303871458
 10
121.823739308
 20
86.540705958
 10
121.480241925
 20
86.900359922
 10
121.1026630563
 20
87.3089967346
  0
LWPOLYLINE
  5
374
100
AcDbEntity
  8
BEZUGSACHSEN
100
AcDbPolyline
 62
7
  6
CONTINUOUS
 90
21
 70
0
 10
117.2201567779
 20
91.2640168628
 10
116.2558326009
 20
92.0483094894
 10
115.0881061184
 20
92.8696497345
 10
113.8436570377
 20
93.6139719191
 10
112.5308583594
 20
94.2735747269
 10
111.1577580009
 20
94.8423371447
 10
109.7336675634
 20
95.3149314995
 10
108.2682734906
 20
95.6869643656
 10
106.7716317993
 20
95.9551825339
 10
105.254035665
 20
96.1172317092
 10
103.725890182
 20
96.1717629717
 10
102.1976903476
 20
96.1182807788
 10
100.6799340191
 20
95.9572706808
 10
99.1830282852
 20
95.6900719028
 10
97.7172697416
 20
95.3190293743
 10
96.2927181046
 20
94.8473861597
 10
94.9190641639
 20
94.279525286
 10
93.6056256342
 20
93.6207648557
 10
92.3604663544
 20
92.8772219707
 10
91.191972084
 20
92.0565909786
 10
90.2167472444
 20
91.2640156985
  0
LWPOLYLINE
  5
375
100
AcDbEntity
  8
BEZUGSACHSEN
100
AcDbPolyline
 62
7
  6
CONTINUOUS
 90
7
 70
0
 10
121.1026630563
 20
87.3089967346
 10
120.2307801533
 20
88.2686099117
 10
119.7267584196
 20
88.8156218478
 10
119.1697135343
 20
89.4032025391
 10
118.5517696368
 20
90.0280889685
 10
117.8630709811
 20
90.6867337481
 10
117.2201792684
 20
91.2640042537
  0
LWPOLYLINE
  5
376
100
AcDbEntity
  8
BEZUGSACHSEN
100
AcDbPolyline
 62
7
  6
CONTINUOUS
 90
6
 70
0
 10
127.0859419834
 20
81.0821169418
 10
127.062681794
 20
81.4074614596
 10
127.0165455173
 20
81.9634270318
 10
126.962067246
 20
82.5214715795
 10
126.8991485901
 20
83.080808052
 10
126.8277259137
 20
83.6406670962
  0
LWPOLYLINE
  5
377
100
AcDbEntity
  8
RUNDUNGEN
100
AcDbPolyline
 62
7
  6
CONTINUOUS
 90
6
 70
0
 10
126.8277259137
 20
78.523564755
 10
126.8991485901
 20
79.0834237991
 10
126.962067246
 20
79.6427602717
 10
127.0165455173
 20
80.2008048193
 10
127.062681794
 20
80.7567703915
 10
127.0859419834
 20
81.0821149094
  0
LINE
  5
378
100
AcDbEntity
  8
RUNDUNGEN
100
AcDbLine
 62
7
  6
CONTINUOUS
 10
126.7701908789
 20
78.1148502069
 11
126.8277259137
 21
78.523564755
  0
LINE
  5
379
100
AcDbEntity
  8
BEZUGSACHSEN
100
AcDbLine
 62
7
  6
CONTINUOUS
 10
126.8277259137
 20
83.6406670962
 11
126.7701908789
 21
84.0493816443
  0
ARC
  5
37A
100
AcDbEntity
  8
0
100
AcDbCircle
 62
7
  6
CONTINUOUS
 10
103.2471690634
 20
163.7384654009
 40
32.3879187368
100
AcDbArc
 50
262.2749590928
 51
265.2310846255
  0
ARC
  5
37B
100
AcDbEntity
  8
0
100
AcDbCircle
 62
7
  6
CONTINUOUS
 10
104.3001265688
 20
162.7299926383
 40
31.3737706478
100
AcDbArc
 50
274.7210080821
 51
277.7728328451
  0
ARC
  5
37C
100
AcDbEntity
  8
BEZUGSACHSEN
100
AcDbCircle
 62
7
  6
CONTINUOUS
 10
103.7184526525
 20
142.2846735695
 40
12.5
100
AcDbArc
 50
332.4520874094
 51
345.5083194415
  0
ARC
  5
37D
100
AcDbEntity
  8
BEZUGSACHSEN
100
AcDbCircle
 62
7
  6
CONTINUOUS
 10
103.7184526525
 20
142.2846735695
 40
12.5
100
AcDbArc
 50
194.4916805585
 51
207.5478133458
  0
ARC
  5
37E
100
AcDbEntity
  8
RUNDUNGEN
100
AcDbCircle
 62
7
  6
CONTINUOUS
 10
103.7184526525
 20
142.2846735695
 40
12.5
100
AcDbArc
 50
332.4520874094
 51
207.5478133458
  0
ARC
  5
37F
100
AcDbEntity
  8
BEZUGSACHSEN
100
AcDbCircle
 62
7
  6
CONTINUOUS
 10
121.2184526525
 20
120.2846735695
 40
5.0
100
AcDbArc
 50
102.7696134117
 51
180.0
  0
ARC
  5
380
100
AcDbEntity
  8
BEZUGSACHSEN
100
AcDbCircle
 62
7
  6
CONTINUOUS
 10
86.2184526525
 20
120.2846735695
 40
5.0
100
AcDbArc
 50
0.0
 51
77.2303865883
  0
ARC
  5
381
100
AcDbEntity
  8
0
100
AcDbCircle
 62
7
  6
CONTINUOUS
 10
110.3680972624
 20
138.8159235695
 40
5.0
100
AcDbArc
 50
316.228047059
 51
332.4530374354
  0
ARC
  5
382
100
AcDbEntity
  8
0
100
AcDbCircle
 62
7
  6
CONTINUOUS
 10
97.0688080426
 20
138.8159235695
 40
5.0
100
AcDbArc
 50
207.5467144619
 51
223.772025762
  0
ARC
  5
383
100
AcDbEntity
  8
RUNDUNGEN
100
AcDbCircle
 62
7
  6
CONTINUOUS
 10
119.1874117133
 20
157.7536326303
 40
1.5
100
AcDbArc
 50
22.5
 51
67.5
  0
ARC
  5
384
100
AcDbEntity
  8
RUNDUNGEN
100
AcDbCircle
 62
7
  6
CONTINUOUS
 10
103.7184526525
 20
164.161085269
 40
1.5
100
AcDbArc
 50
67.5
 51
112.5
  0
ARC
  5
385
100
AcDbEntity
  8
BEZUGSACHSEN
100
AcDbCircle
 62
7
  6
CONTINUOUS
 10
88.2494935917
 20
157.7536326303
 40
1.5
100
AcDbArc
 50
112.5
 51
157.5
  0
ARC
  5
386
100
AcDbEntity
  8
RUNDUNGEN
100
AcDbCircle
 62
7
  6
CONTINUOUS
 10
88.2494935917
 20
157.7536326303
 40
1.5
100
AcDbArc
 50
112.5
 51
157.5
  0
ARC
  5
387
100
AcDbEntity
  8
BEZUGSACHSEN
100
AcDbCircle
 62
7
  6
CONTINUOUS
 10
124.2706551163
 20
132.448486316
 40
1.0522027728
100
AcDbArc
 50
163.177116032
 51
179.9541538303
  0
ARC
  5
388
100
AcDbEntity
  8
BEZUGSACHSEN
100
AcDbCircle
 62
7
  6
CONTINUOUS
 10
83.1662747842
 20
132.4484880257
 40
1.0521780677
100
AcDbArc
 50
0.0457541479
 51
16.8231488082
  0
ARC
  5
389
100
AcDbEntity
  8
BEZUGSACHSEN
100
AcDbCircle
 62
7
  6
CONTINUOUS
 10
124.2661682294
 20
132.4490105721
 40
1.0477564826
100
AcDbArc
 50
157.5199020148
 51
163.1335464358
  0
ARC
  5
38A
100
AcDbEntity
  8
BEZUGSACHSEN
100
AcDbCircle
 62
7
  6
CONTINUOUS
 10
83.1707441008
 20
132.4490075072
 40
1.0477499811
100
AcDbArc
 50
16.8666916402
 51
22.4803985163
  0
ARC
  5
38B
100
AcDbEntity
  8
BEZUGSACHSEN
100
AcDbCircle
 62
7
  6
CONTINUOUS
 10
121.2475192653
 20
125.2837024457
 40
1.0009561567
100
AcDbArc
 50
89.9745130107
 51
157.4736844916
  0
ARC
  5
38C
100
AcDbEntity
  8
BEZUGSACHSEN
100
AcDbCircle
 62
7
  6
CONTINUOUS
 10
86.1893991889
 20
125.2837088046
 40
1.0009492955
100
AcDbArc
 50
22.5262672431
 51
90.0262398197
  0
ARC
  5
38D
100
AcDbEntity
  8
RUNDUNGEN
100
AcDbCircle
 62
7
  6
CONTINUOUS
 10
85.2184526525
 20
127.2846735695
 40
1.0
100
AcDbArc
 50
180.0
 51
270.0
  0
ARC
  5
38E
100
AcDbEntity
  8
RUNDUNGEN
100
AcDbCircle
 62
7
  6
CONTINUOUS
 10
122.2184526525
 20
127.2846735695
 40
1.0
100
AcDbArc
 50
270.0
 51
360.0
  0
ARC
  5
38F
100
AcDbEntity
  8
0
100
AcDbCircle
 62
7
  6
CONTINUOUS
 10
70.1266387446
 20
145.5683654061
 40
124.1844268964
100
AcDbArc
 50
349.9421134578
 51
350.1015901254
  0
ARC
  5
390
100
AcDbEntity
  8
0
100
AcDbCircle
 62
7
  6
CONTINUOUS
 10
72.3079928586
 20
144.6357592635
 40
121.3353849748
100
AcDbArc
 50
350.15068355
 51
350.3138005682
  0
ARC
  5
391
100
AcDbEntity
  8
0
100
AcDbCircle
 62
7
  6
CONTINUOUS
 10
83.7063523299
 20
152.7245445627
 40
113.1423144167
100
AcDbArc
 50
346.5484727372
 51
346.6962242783
  0
ARC
  5
392
100
AcDbEntity
  8
0
100
AcDbCircle
 62
7
  6
CONTINUOUS
 10
94.6541234484
 20
167.6418238503
 40
106.8045305195
100
AcDbArc
 50
337.1067324502
 51
337.2553297211
  0
ARC
  5
393
100
AcDbEntity
  8
0
100
AcDbCircle
 62
7
  6
CONTINUOUS
 10
99.0492631621
 20
165.9615429129
 40
101.5984120448
100
AcDbArc
 50
336.8953827976
 51
337.0518338451
  0
ARC
  5
394
100
AcDbEntity
  8
0
100
AcDbCircle
 62
7
  6
CONTINUOUS
 10
-56.9306443435
 20
217.7391114068
 40
266.3587418998
100
AcDbArc
 50
339.7579645675
 51
339.8749931919
  0
ARC
  5
395
100
AcDbEntity
  8
0
100
AcDbCircle
 62
7
  6
CONTINUOUS
 10
6.9376116257
 20
197.4075751295
 40
199.3037708459
100
AcDbArc
 50
338.9027111292
 51
339.0337741094
  0
ARC
  5
396
100
AcDbEntity
  8
0
100
AcDbCircle
 62
7
  6
CONTINUOUS
 10
17.2615639126
 20
193.7832731059
 40
187.8561041024
100
AcDbArc
 50
338.7403710483
 51
338.87956919
  0
ARC
  5
397
100
AcDbEntity
  8
0
100
AcDbCircle
 62
7
  6
CONTINUOUS
 10
136.3500829064
 20
137.8444752072
 40
58.4444031971
100
AcDbArc
 50
348.4005884642
 51
348.825709356
  0
ARC
  5
398
100
AcDbEntity
  8
0
100
AcDbCircle
 62
7
  6
CONTINUOUS
 10
135.3248701376
 20
132.2862419594
 40
57.8490571389
100
AcDbArc
 50
351.7301793453
 51
352.2409239625
  0
ARC
  5
399
100
AcDbEntity
  8
0
100
AcDbCircle
 62
7
  6
CONTINUOUS
 10
153.527205324
 20
141.1719725768
 40
42.9479196237
100
AcDbArc
 50
336.5050131779
 51
337.1235379418
  0
ARC
  5
39A
100
AcDbEntity
  8
0
100
AcDbCircle
 62
7
  6
CONTINUOUS
 10
164.4453013338
 20
134.3049258583
 40
30.5240226729
100
AcDbArc
 50
345.3679563318
 51
346.7034546665
  0
ARC
  5
39B
100
AcDbEntity
  8
0
100
AcDbCircle
 62
7
  6
CONTINUOUS
 10
170.918182155
 20
124.5281467815
 40
21.4941557424
100
AcDbArc
 50
357.5920870866
 51
358.2731244915
  0
ARC
  5
39C
100
AcDbEntity
  8
0
100
AcDbCircle
 62
7
  6
CONTINUOUS
 10
171.0787991553
 20
124.3246502746
 40
20.7809685602
100
AcDbArc
 50
358.0708837423
 51
358.7751023438
  0
ARC
  5
39D
100
AcDbEntity
  8
0
100
AcDbCircle
 62
7
  6
CONTINUOUS
 10
170.5255599806
 20
130.4676047356
 40
23.5913720212
100
AcDbArc
 50
350.783123747
 51
351.410776242
  0
ARC
  5
39E
100
AcDbEntity
  8
0
100
AcDbCircle
 62
7
  6
CONTINUOUS
 10
175.4802552098
 20
130.9888278196
 40
12.2016482683
100
AcDbArc
 50
215.6320573792
 51
216.5813021945
  0
ARC
  5
39F
100
AcDbEntity
  8
0
100
AcDbCircle
 62
7
  6
CONTINUOUS
 10
175.4074071057
 20
130.3945299736
 40
11.9513708684
100
AcDbArc
 50
214.5005810393
 51
215.4967451232
  0
ARC
  5
3A0
100
AcDbEntity
  8
0
100
AcDbCircle
 62
7
  6
CONTINUOUS
 10
175.7330280947
 20
130.9171987854
 40
11.9247358727
100
AcDbArc
 50
216.164068569
 51
217.1837664598
  0
ARC
  5
3A1
100
AcDbEntity
  8
0
100
AcDbCircle
 62
7
  6
CONTINUOUS
 10
169.6415756642
 20
127.8390643477
 40
5.9107665744
100
AcDbArc
 50
227.8787793167
 51
229.1238563076
  0
ARC
  5
3A2
100
AcDbEntity
  8
0
100
AcDbCircle
 62
7
  6
CONTINUOUS
 10
168.965840917
 20
128.5617354098
 40
5.5684894575
100
AcDbArc
 50
240.6038776891
 51
242.4404704035
  0
ARC
  5
3A3
100
AcDbEntity
  8
0
100
AcDbCircle
 62
7
  6
CONTINUOUS
 10
168.4179864118
 20
128.4243608675
 40
5.4479247148
100
AcDbArc
 50
239.9183662866
 51
241.7552299082
  0
ARC
  5
3A4
100
AcDbEntity
  8
0
100
AcDbCircle
 62
7
  6
CONTINUOUS
 10
168.1404922388
 20
128.078704855
 40
5.2703911849
100
AcDbArc
 50
243.3122988763
 51
245.4523168301
  0
ARC
  5
3A5
100
AcDbEntity
  8
BEZUGSACHSEN
100
AcDbCircle
 62
7
  6
CONTINUOUS
 10
165.4644233776
 20
128.9792080729
 40
1.5
100
AcDbArc
 50
105.0
 51
197.0
  0
ARC
  5
3A6
100
AcDbEntity
  8
0
100
AcDbCircle
 62
7
  6
CONTINUOUS
 10
183.6903850815
 20
123.3076806313
 40
8.906337885
100
AcDbArc
 50
3.138572747
 51
4.2358644758
  0
ARC
  5
3A7
100
AcDbEntity
  8
0
100
AcDbCircle
 62
7
  6
CONTINUOUS
 10
185.3473886989
 20
122.6019311171
 40
7.119871856
100
AcDbArc
 50
6.1911547215
 51
8.2623509992
  0
ARC
  5
3A8
100
AcDbEntity
  8
0
100
AcDbCircle
 62
7
  6
CONTINUOUS
 10
185.0248312964
 20
122.533880859
 40
6.9098661336
100
AcDbArc
 50
6.9481924506
 51
9.0862883605
  0
ARC
  5
3A9
100
AcDbEntity
  8
0
100
AcDbCircle
 62
7
  6
CONTINUOUS
 10
190.6053105146
 20
126.6733764759
 40
3.6043173412
100
AcDbArc
 50
304.7027096682
 51
305.0950358591
  0
ARC
  5
3AA
100
AcDbEntity
  8
0
100
AcDbCircle
 62
7
  6
CONTINUOUS
 10
190.7788442511
 20
126.4296204635
 40
3.30510629
100
AcDbArc
 50
305.0631122292
 51
307.1514426361
  0
ARC
  5
3AB
100
AcDbEntity
  8
0
100
AcDbCircle
 62
7
  6
CONTINUOUS
 10
190.8905902424
 20
126.0354636998
 40
3.1983926085
100
AcDbArc
 50
300.6773613932
 51
303.5457522517
  0
ARC
  5
3AC
100
AcDbEntity
  8
0
100
AcDbCircle
 62
7
  6
CONTINUOUS
 10
191.3689209428
 20
122.665371985
 40
1.6588054625
100
AcDbArc
 50
39.0406081363
 51
42.9356749031
  0
ARC
  5
3AD
100
AcDbEntity
  8
0
100
AcDbCircle
 62
7
  6
CONTINUOUS
 10
192.5106629097
 20
126.0246218968
 40
1.4145647821
100
AcDbArc
 50
31.9908448889
 51
36.153325455
  0
ARC
  5
3AE
100
AcDbEntity
  8
0
100
AcDbCircle
 62
7
  6
CONTINUOUS
 10
183.0346168818
 20
129.7955879553
 40
11.4401038354
100
AcDbArc
 50
328.3657537725
 51
329.3617252015
  0
ARC
  5
3AF
100
AcDbEntity
  8
0
100
AcDbCircle
 62
7
  6
CONTINUOUS
 10
184.5673246761
 20
128.5865641908
 40
9.6267523178
100
AcDbArc
 50
327.1865920506
 51
328.9183072348
  0
ARC
  5
3B0
100
AcDbEntity
  8
0
100
AcDbCircle
 62
7
  6
CONTINUOUS
 10
184.0910330611
 20
127.0878172109
 40
9.624484971
100
AcDbArc
 50
357.6244180301
 51
358.1316856094
  0
ARC
  5
3B1
100
AcDbEntity
  8
0
100
AcDbCircle
 62
7
  6
CONTINUOUS
 10
184.0959204189
 20
127.0876152437
 40
9.619593442
100
AcDbArc
 50
357.1172403411
 51
357.6244133446
  0
ARC
  5
3B2
100
AcDbEntity
  8
0
100
AcDbCircle
 62
7
  6
CONTINUOUS
 10
186.0906213323
 20
127.2864102568
 40
7.7692595167
100
AcDbArc
 50
357.4758480395
 51
359.3595471439
  0
ARC
  5
3B3
100
AcDbEntity
  8
RUNDUNGEN
100
AcDbCircle
 62
7
  6
CONTINUOUS
 10
179.0540717015
 20
130.2846735695
 40
4.0
100
AcDbArc
 50
177.8733436179
 51
2.1266563821
  0
ARC
  5
3B4
100
AcDbEntity
  8
BEZUGSACHSEN
100
AcDbCircle
 62
7
  6
CONTINUOUS
 10
179.0540717015
 20
130.2846735695
 40
4.0
100
AcDbArc
 50
177.8761464302
 51
2.1238535698
  0
ARC
  5
3B5
100
AcDbEntity
  8
0
100
AcDbCircle
 62
7
  6
CONTINUOUS
 10
191.3582707162
 20
129.9883458459
 40
3.8803486846
100
AcDbArc
 50
304.0697615208
 51
305.8948011027
  0
ARC
  5
3B6
100
AcDbEntity
  8
0
100
AcDbCircle
 62
7
  6
CONTINUOUS
 10
191.3208659626
 20
130.3671084613
 40
3.6373313747
100
AcDbArc
 50
299.4433560193
 51
302.0652492674
  0
ARC
  5
3B7
100
AcDbEntity
  8
0
100
AcDbCircle
 62
7
  6
CONTINUOUS
 10
191.5333568097
 20
129.7436084783
 40
3.579435811
100
AcDbArc
 50
305.9212589013
 51
306.3081588184
  0
ARC
  5
3B8
100
AcDbEntity
  8
0
100
AcDbCircle
 62
7
  6
CONTINUOUS
 10
191.8595138615
 20
130.2894872382
 40
3.5699092519
100
AcDbArc
 50
300.054910341
 51
302.6793010446
  0
ARC
  5
3B9
100
AcDbEntity
  8
RUNDUNGEN
100
AcDbCircle
 62
7
  6
CONTINUOUS
 10
192.6437200255
 20
128.9792080729
 40
1.5
100
AcDbArc
 50
343.0
 51
75.0
  0
ARC
  5
3BA
100
AcDbEntity
  8
0
100
AcDbCircle
 62
7
  6
CONTINUOUS
 10
193.6580592066
 20
134.303716881
 40
30.5190895275
100
AcDbArc
 50
193.3172585237
 51
194.6321158225
  0
ARC
  5
3BB
100
AcDbEntity
  8
0
100
AcDbCircle
 62
7
  6
CONTINUOUS
 10
164.9257915589
 20
134.1801096691
 40
30.027584703
100
AcDbArc
 50
344.7903053591
 51
345.177148312
  0
ARC
  5
3BC
100
AcDbEntity
  8
0
100
AcDbCircle
 62
7
  6
CONTINUOUS
 10
165.1534594365
 20
134.1181295077
 40
29.7916309014
100
AcDbArc
 50
344.2781407184
 51
344.7904590242
  0
ARC
  5
3BD
100
AcDbEntity
  8
0
100
AcDbCircle
 62
7
  6
CONTINUOUS
 10
192.8300791597
 20
134.0852033392
 40
29.6627551803
100
AcDbArc
 50
194.8197117439
 51
196.9899023614
  0
ARC
  5
3BE
100
AcDbEntity
  8
0
100
AcDbCircle
 62
7
  6
CONTINUOUS
 10
192.788960327
 20
133.3218119264
 40
29.4005463003
100
AcDbArc
 50
193.2087055105
 51
195.3983690035
  0
ARC
  5
3BF
100
AcDbEntity
  8
0
100
AcDbCircle
 62
7
  6
CONTINUOUS
 10
165.5826862101
 20
133.9962924354
 40
29.3454482758
100
AcDbArc
 50
343.0023248955
 51
344.2800392145
  0
ARC
  5
3C0
100
AcDbEntity
  8
0
100
AcDbCircle
 62
7
  6
CONTINUOUS
 10
166.0924764965
 20
133.8410982851
 40
28.8125590032
100
AcDbArc
 50
342.1029959385
 51
343.0011044549
  0
ARC
  5
3C1
100
AcDbEntity
  8
0
100
AcDbCircle
 62
7
  6
CONTINUOUS
 10
192.1325238676
 20
133.1417732828
 40
28.7198685517
100
AcDbArc
 50
195.3998191845
 51
196.4960231557
  0
ARC
  5
3C2
100
AcDbEntity
  8
0
100
AcDbCircle
 62
7
  6
CONTINUOUS
 10
173.8102009385
 20
138.3276954725
 40
22.7098794932
100
AcDbArc
 50
329.1696398599
 51
329.9169153979
  0
ARC
  5
3C3
100
AcDbEntity
  8
0
100
AcDbCircle
 62
7
  6
CONTINUOUS
 10
173.9299161975
 20
138.1130386371
 40
22.030188673
100
AcDbArc
 50
328.7638806269
 51
329.537347169
  0
ARC
  5
3C4
100
AcDbEntity
  8
0
100
AcDbCircle
 62
7
  6
CONTINUOUS
 10
173.3703776178
 20
133.0702826757
 40
21.6190915857
100
AcDbArc
 50
334.0943263941
 51
334.8442112996
  0
ARC
  5
3C5
100
AcDbEntity
  8
0
100
AcDbCircle
 62
7
  6
CONTINUOUS
 10
182.9855141169
 20
133.7963429938
 40
12.6705253132
100
AcDbArc
 50
325.4129536359
 51
326.3427260242
  0
ARC
  5
3C6
100
AcDbEntity
  8
0
100
AcDbCircle
 62
7
  6
CONTINUOUS
 10
184.436657022
 20
133.7289499077
 40
11.290340734
100
AcDbArc
 50
323.0634836169
 51
323.3007735781
  0
ARC
  5
3C7
100
AcDbEntity
  8
0
100
AcDbCircle
 62
7
  6
CONTINUOUS
 10
184.5399008033
 20
133.6525212976
 40
11.1618867276
100
AcDbArc
 50
323.2986138129
 51
324.6813004723
  0
ARC
  5
3C8
100
AcDbEntity
  8
0
100
AcDbCircle
 62
7
  6
CONTINUOUS
 10
184.2315667927
 20
133.6002275965
 40
10.9441530653
100
AcDbArc
 50
322.5422129442
 51
324.2077837156
  0
ARC
  5
3C9
100
AcDbEntity
  8
RUNDUNGEN
100
AcDbCircle
 62
7
  6
CONTINUOUS
 10
190.3040717015
 20
138.4059624853
 40
7.0
100
AcDbArc
 50
179.9999488102
 51
255.0001435354
  0
ARC
  5
3CA
100
AcDbEntity
  8
BEZUGSACHSEN
100
AcDbCircle
 62
7
  6
CONTINUOUS
 10
167.8040717015
 20
138.4059624853
 40
7.0
100
AcDbArc
 50
284.9998564646
 51
0.0000511898
  0
ARC
  5
3CB
100
AcDbEntity
  8
0
100
AcDbCircle
 62
7
  6
CONTINUOUS
 10
126.7684402029
 20
149.7167098253
 40
71.0356160057
100
AcDbArc
 50
338.6718471679
 51
338.9170871573
  0
ARC
  5
3CC
100
AcDbEntity
  8
0
100
AcDbCircle
 62
7
  6
CONTINUOUS
 10
129.0911118361
 20
145.2422115973
 40
67.52855826
100
AcDbArc
 50
340.7048380198
 51
341.2618024683
  0
ARC
  5
3CD
100
AcDbEntity
  8
0
100
AcDbCircle
 62
7
  6
CONTINUOUS
 10
131.1226416635
 20
145.3394199833
 40
65.6116047701
100
AcDbArc
 50
340.0273740344
 51
340.6062082728
  0
ARC
  5
3CE
100
AcDbEntity
  8
0
100
AcDbCircle
 62
7
  6
CONTINUOUS
 10
133.5880664341
 20
144.3644639618
 40
62.4673163312
100
AcDbArc
 50
339.7798884305
 51
340.2337442846
  0
ARC
  5
3CF
100
AcDbEntity
  8
0
100
AcDbCircle
 62
7
  6
CONTINUOUS
 10
137.2440117521
 20
152.4557161014
 40
61.7043324911
100
AcDbArc
 50
334.9694289884
 51
335.3178048395
  0
ARC
  5
3D0
100
AcDbEntity
  8
0
100
AcDbCircle
 62
7
  6
CONTINUOUS
 10
139.1541092554
 20
151.6137408685
 40
59.123096173
100
AcDbArc
 50
334.7015892611
 51
335.0659440464
  0
ARC
  5
3D1
100
AcDbEntity
  8
0
100
AcDbCircle
 62
7
  6
CONTINUOUS
 10
156.4315474204
 20
144.492131095
 40
41.0839757434
100
AcDbArc
 50
333.3949722665
 51
333.9229634569
  0
ARC
  5
3D2
100
AcDbEntity
  8
BEZUGSACHSEN
100
AcDbCircle
 62
7
  6
CONTINUOUS
 10
176.3040717015
 20
164.161085269
 40
1.5
100
AcDbArc
 50
90.0
 51
180.0
  0
ARC
  5
3D3
100
AcDbEntity
  8
RUNDUNGEN
100
AcDbCircle
 62
7
  6
CONTINUOUS
 10
181.8040717015
 20
164.161085269
 40
1.5
100
AcDbArc
 50
0.0
 51
90.0
  0
ARC
  5
3D4
100
AcDbEntity
  8
0
100
AcDbCircle
 62
7
  6
CONTINUOUS
 10
266.3785492232
 20
165.1044221818
 40
108.9182312223
100
AcDbArc
 50
202.0948922473
 51
202.2399211566
  0
ARC
  5
3D5
100
AcDbEntity
  8
0
100
AcDbCircle
 62
7
  6
CONTINUOUS
 10
261.9074335019
 20
163.4297601587
 40
103.6440962864
100
AcDbArc
 50
202.2794666342
 51
202.4320808782
  0
ARC
  5
3D6
100
AcDbEntity
  8
0
100
AcDbCircle
 62
7
  6
CONTINUOUS
 10
230.2483552483
 20
145.662411915
 40
68.8296042828
100
AcDbArc
 50
198.5985625557
 51
198.8751602141
  0
ARC
  5
3D7
100
AcDbEntity
  8
0
100
AcDbCircle
 62
7
  6
CONTINUOUS
 10
228.1148746152
 20
144.9289569835
 40
66.5735657029
100
AcDbArc
 50
199.0141458794
 51
199.4381179918
  0
ARC
  5
3D8
100
AcDbEntity
  8
0
100
AcDbCircle
 62
7
  6
CONTINUOUS
 10
222.3060796192
 20
148.6907701897
 40
62.0373120925
100
AcDbArc
 50
203.4878399921
 51
203.8310992182
  0
ARC
  5
3D9
100
AcDbEntity
  8
0
100
AcDbCircle
 62
7
  6
CONTINUOUS
 10
95.8314174231
 20
73.1202351365
 40
23.8940257536
100
AcDbArc
 50
74.2969811052
 51
74.8067580558
  0
ARC
  5
3DA
100
AcDbEntity
  8
0
100
AcDbCircle
 62
7
  6
CONTINUOUS
 10
103.7150322161
 20
76.2414260383
 40
20.0035116424
100
AcDbArc
 50
94.6497699055
 51
96.0882616283
  0
ARC
  5
3DB
100
AcDbEntity
  8
0
100
AcDbCircle
 62
7
  6
CONTINUOUS
 10
102.7770590532
 20
76.7046797894
 40
19.7705791849
100
AcDbArc
 50
73.6473038213
 51
75.1517861426
  0
ARC
  5
3DC
100
AcDbEntity
  8
RUNDUNGEN
100
AcDbCircle
 62
7
  6
CONTINUOUS
 10
82.1510115918
 20
78.3322487592
 40
1.5001492998
100
AcDbArc
 50
188.3327264083
 51
269.9956417433
  0
ARC
  5
3DD
100
AcDbEntity
  8
BEZUGSACHSEN
100
AcDbCircle
 62
7
  6
CONTINUOUS
 10
82.1510119231
 20
83.8319827086
 40
1.5001492998
100
AcDbArc
 50
90.00437091
 51
171.6672609384
  0
ARC
  5
3DE
100
AcDbEntity
  8
0
100
AcDbCircle
 62
7
  6
CONTINUOUS
 10
103.7184526525
 20
81.0821159256
 40
10.6
100
AcDbArc
 50
203.640511602
 51
336.3594978153
  0
ARC
  5
3DF
100
AcDbEntity
  8
0
100
AcDbCircle
 62
7
  6
CONTINUOUS
 10
103.7184526525
 20
81.0821159256
 40
10.6
100
AcDbArc
 50
23.6405004987
 51
156.3596121579
  0
ARC
  5
3E0
100
AcDbEntity
  8
KONSTRUKTIONSELEMENTE
100
AcDbCircle
 62
7
  6
CONTINUOUS
 10
103.7184526525
 20
81.0821159256
 40
10.5
100
AcDbArc
 50
203.9225753014
 51
336.0774246986
  0
ARC
  5
3E1
100
AcDbEntity
  8
KONSTRUKTIONSELEMENTE
100
AcDbCircle
 62
7
  6
CONTINUOUS
 10
103.7184526525
 20
81.0821159256
 40
10.5
100
AcDbArc
 50
23.9225753014
 51
156.0774246986
  0
ARC
  5
3E2
100
AcDbEntity
  8
0
100
AcDbCircle
 62
7
  6
CONTINUOUS
 10
103.7184526525
 20
81.0821159256
 40
9.4
100
AcDbArc
 50
26.9621255106
 51
153.0378744894
  0
ARC
  5
3E3
100
AcDbEntity
  8
0
100
AcDbCircle
 62
7
  6
CONTINUOUS
 10
103.7184526525
 20
81.0821159256
 40
9.4
100
AcDbArc
 50
206.9621255106
 51
333.0378744894
  0
ARC
  5
3E4
100
AcDbEntity
  8
FASEN
100
AcDbCircle
 62
7
  6
CONTINUOUS
 10
103.7184526525
 20
81.0821159256
 40
5.05
100
AcDbArc
 50
57.3287743228
 51
122.6712926615
  0
ARC
  5
3E5
100
AcDbEntity
  8
FASEN
100
AcDbCircle
 62
7
  6
CONTINUOUS
 10
103.7184526525
 20
81.0821159256
 40
5.05
100
AcDbArc
 50
250.5322679622
 51
289.467720068
  0
ARC
  5
3E6
100
AcDbEntity
  8
0
100
AcDbCircle
 62
2
  6
CONTINUOUS
 10
103.7184526525
 20
81.0821159256
 40
5.0
100
AcDbArc
 50
255.0
 51
288.1683909796
  0
ARC
  5
3E7
100
AcDbEntity
  8
0
100
AcDbCircle
 62
2
  6
CONTINUOUS
 10
103.7184526525
 20
81.0821159256
 40
5.0
100
AcDbArc
 50
58.2273991207
 51
121.7726008793
  0
ARC
  5
3E8
100
AcDbEntity
  8
0
100
AcDbCircle
 62
7
  6
CONTINUOUS
 10
99.9516960116
 20
86.9688880382
 40
20.6925814535
100
AcDbArc
 50
270.3925136546
 51
270.9006960238
  0
ARC
  5
3E9
100
AcDbEntity
  8
0
100
AcDbCircle
 62
7
  6
CONTINUOUS
 10
102.6733398789
 20
85.8677066243
 40
19.7600543536
100
AcDbArc
 50
261.0330732038
 51
262.4980037432
  0
ARC
  5
3EA
100
AcDbEntity
  8
0
100
AcDbCircle
 62
7
  6
CONTINUOUS
 10
107.4852102812
 20
75.1952429741
 40
20.6926822968
100
AcDbArc
 50
90.392514477
 51
90.8971049818
  0
ARC
  5
3EB
100
AcDbEntity
  8
0
100
AcDbCircle
 62
7
  6
CONTINUOUS
 10
104.7635654261
 20
76.2965252269
 40
19.7600543536
100
AcDbArc
 50
81.0330732038
 51
82.4980037432
  0
ARC
  5
3EC
100
AcDbEntity
  8
RUNDUNGEN
100
AcDbCircle
 62
7
  6
CONTINUOUS
 10
125.2858938095
 20
78.3322487597
 40
1.5001493006
100
AcDbArc
 50
270.0043807128
 51
351.6674237781
  0
ARC
  5
3ED
100
AcDbEntity
  8
0
100
AcDbCircle
 62
7
  6
CONTINUOUS
 10
111.6053696462
 20
89.043566364
 40
23.8935794581
100
AcDbArc
 50
254.2934137071
 51
254.8067612182
  0
ARC
  5
3EE
100
AcDbEntity
  8
0
100
AcDbCircle
 62
7
  6
CONTINUOUS
 10
103.7218730889
 20
85.9228058128
 40
20.0035116424
100
AcDbArc
 50
274.6497699055
 51
276.0882616283
  0
ARC
  5
3EF
100
AcDbEntity
  8
0
100
AcDbCircle
 62
7
  6
CONTINUOUS
 10
104.6598462518
 20
85.4595520617
 40
19.7705791849
100
AcDbArc
 50
253.6473038213
 51
255.1517861426
  0
ARC
  5
3F0
100
AcDbEntity
  8
BEZUGSACHSEN
100
AcDbCircle
 62
7
  6
CONTINUOUS
 10
125.2858934781
 20
83.8319827081
 40
1.5001493006
100
AcDbArc
 50
8.3325888754
 51
89.9956066337
  0
SPLINE
  5
3F1
100
AcDbEntity
  8
0
100
AcDbSpline
 62
7
  6
CONTINUOUS
 70
0
 71
3
 72
10
 73
6
 74
0
 42
0.0000001
 43
0.0000001
 44
0.0000000001
 40
0.0
 40
0.0
 40
0.0
 40
0.0
 40
0.4795709903
 40
0.7344580197
 40
1.0
 40
1.0
 40
1.0
 40
1.0
 10
111.1032220192
 20
132.4302802924
 30
0.0
 10
110.7330034375
 20
132.2109331393
 30
0.0
 10
110.1129767336
 20
131.9625927777
 30
0.0
 10
109.240719477
 20
131.7526115924
 30
0.0
 10
108.7793637389
 20
131.6768171204
 30
0.0
 10
108.5432968983
 20
131.6444817013
 30
0.0
  0
SPLINE
  5
3F2
100
AcDbEntity
  8
0
100
AcDbSpline
 62
7
  6
CONTINUOUS
 70
0
 71
3
 72
10
 73
6
 74
0
 42
0.0000001
 43
0.0000001
 44
0.0000000001
 40
0.0
 40
0.0
 40
0.0
 40
0.0
 40
0.2655391273
 40
0.5204359539
 40
1.0
 40
1.0
 40
1.0
 40
1.0
 10
98.8936084067
 20
131.6444817013
 30
0.0
 10
98.6575430483
 20
131.6768169173
 30
0.0
 10
98.1961790608
 20
131.7526121742
 30
0.0
 10
97.323917517
 20
131.962593522
 30
0.0
 10
96.7038874551
 20
132.2109402639
 30
0.0
 10
96.3336731967
 20
132.4302862592
 30
0.0
  0
SPLINE
  5
3F3
100
AcDbEntity
  8
BEZUGSACHSEN
100
AcDbSpline
 62
7
  6
CONTINUOUS
 70
0
 71
3
 72
9
 73
5
 74
0
 42
0.0000001
 43
0.0000001
 44
0.0000000001
 40
0.0
 40
0.0
 40
0.0
 40
0.0
 40
0.5000423996
 40
1.0
 40
1.0
 40
1.0
 40
1.0
 10
126.9682350542
 20
142.8887522888
 30
0.0
 10
127.0445325711
 20
142.7045528468
 30
0.0
 10
127.1262631702
 20
142.3025660816
 30
0.0
 10
127.0466851297
 20
141.8997303149
 30
0.0
 10
126.970410118
 20
141.7155581481
 30
0.0
  0
SPLINE
  5
3F4
100
AcDbEntity
  8
BEZUGSACHSEN
100
AcDbSpline
 62
7
  6
CONTINUOUS
 70
0
 71
3
 72
9
 73
5
 74
0
 42
0.0000001
 43
0.0000001
 44
0.0000000001
 40
0.0
 40
0.0
 40
0.0
 40
0.0
 40
0.4999585749
 40
1.0
 40
1.0
 40
1.0
 40
1.0
 10
80.4664906562
 20
141.7155562058
 30
0.0
 10
80.3902162621
 20
141.899729386
 30
0.0
 10
80.3106403031
 20
142.3025662477
 30
0.0
 10
80.3923724647
 20
142.7045531226
 30
0.0
 10
80.4686702793
 20
142.8887523576
 30
0.0
  0
SPLINE
  5
3F5
100
AcDbEntity
  8
0
100
AcDbSpline
 62
7
  6
CONTINUOUS
 70
0
 71
3
 72
9
 73
5
 74
0
 42
0.0000001
 43
0.0000001
 44
0.0000000001
 40
0.0
 40
0.0
 40
0.0
 40
0.0
 40
0.2254813851
 40
1.0
 40
1.0
 40
1.0
 40
1.0
 10
113.9786020513
 20
135.3569828555
 30
0.0
 10
113.9649932183
 20
135.3427777828
 30
0.0
 10
113.9061186193
 20
135.2783630809
 30
0.0
 10
113.8507709321
 20
135.2108629876
 30
0.0
 10
113.8080115954
 20
135.1585405432
 30
0.0
  0
SPLINE
  5
3F6
100
AcDbEntity
  8
0
100
AcDbSpline
 62
7
  6
CONTINUOUS
 70
0
 71
3
 72
13
 73
9
 74
0
 42
0.0000001
 43
0.0000001
 44
0.0000000001
 40
0.0
 40
0.0
 40
0.0
 40
0.0
 40
0.095679313
 40
0.2057525273
 40
0.3252066045
 40
0.4512920199
 40
0.7177470279
 40
1.0
 40
1.0
 40
1.0
 40
1.0
 10
113.8080115954
 20
135.1585405432
 30
0.0
 10
113.7299504283
 20
135.0630142583
 30
0.0
 10
113.5711003244
 20
134.8503906055
 30
0.0
 10
113.320804913
 20
134.5140491609
 30
0.0
 10
113.0382366449
 20
134.15281037
 30
0.0
 10
112.6101476439
 20
133.6500671376
 30
0.0
 10
111.9918355308
 20
133.0346959902
 30
0.0
 10
111.4163217353
 20
132.6157854887
 30
0.0
 10
111.1032253954
 20
132.4302821287
 30
0.0
  0
SPLINE
  5
3F7
100
AcDbEntity
  8
0
100
AcDbSpline
 62
7
  6
CONTINUOUS
 70
0
 71
3
 72
9
 73
5
 74
0
 42
0.0000001
 43
0.0000001
 44
0.0000000001
 40
0.0
 40
0.0
 40
0.0
 40
0.0
 40
0.5000004045
 40
1.0
 40
1.0
 40
1.0
 40
1.0
 10
106.882318614
 20
131.4626652312
 30
0.0
 10
105.8295601074
 20
131.374447585
 30
0.0
 10
103.7184161592
 20
131.1796317542
 30
0.0
 10
101.6072725878
 20
131.3744515602
 30
0.0
 10
100.554515965
 20
131.4626712135
 30
0.0
  0
SPLINE
  5
3F8
100
AcDbEntity
  8
0
100
AcDbSpline
 62
7
  6
CONTINUOUS
 70
0
 71
3
 72
13
 73
9
 74
0
 42
0.0000001
 43
0.0000001
 44
0.0000000001
 40
0.0
 40
0.0
 40
0.0
 40
0.0
 40
0.2822538816
 40
0.5487093105
 40
0.6747947741
 40
0.7942487178
 40
0.9043215019
 40
1.0
 40
1.0
 40
1.0
 40
1.0
 10
96.3336695808
 20
132.4302881845
 30
0.0
 10
96.0205715954
 20
132.6157937064
 30
0.0
 10
95.4450551527
 20
133.0347079813
 30
0.0
 10
94.8267413501
 20
133.6500845557
 30
0.0
 10
94.3986517718
 20
134.15283106
 30
0.0
 10
94.1160836094
 20
134.5140712344
 30
0.0
 10
93.8657887752
 20
134.8504128352
 30
0.0
 10
93.7069384896
 20
135.0630355426
 30
0.0
 10
93.6288779471
 20
135.1585615698
 30
0.0
  0
SPLINE
  5
3F9
100
AcDbEntity
  8
0
100
AcDbSpline
 62
7
  6
CONTINUOUS
 70
0
 71
3
 72
9
 73
5
 74
0
 42
0.0000001
 43
0.0000001
 44
0.0000000001
 40
0.0
 40
0.0
 40
0.0
 40
0.0
 40
0.2724392571
 40
1.0
 40
1.0
 40
1.0
 40
1.0
 10
93.6288779471
 20
135.1585615698
 30
0.0
 10
93.6138397367
 20
135.1769631769
 30
0.0
 10
93.5584514284
 20
135.244328498
 30
0.0
 10
93.5022036378
 20
135.3111572782
 30
0.0
 10
93.4582991501
 20
135.3569852231
 30
0.0
  0
SPLINE
  5
3FA
100
AcDbEntity
  8
BEZUGSACHSEN
100
AcDbSpline
 62
7
  6
CONTINUOUS
 70
0
 71
3
 72
34
 73
30
 74
0
 42
0.0000001
 43
0.0000001
 44
0.0000000001
 40
0.0
 40
0.0
 40
0.0
 40
0.0
 40
0.0108901624
 40
0.0220036539
 40
0.033323812
 40
0.0447356883
 40
0.0676490433
 40
0.0906012013
 40
0.1135279604
 40
0.1364042038
 40
0.159215441
 40
0.1819504318
 40
0.2271495833
 40
0.271927144
 40
0.3162062103
 40
0.3599069144
 40
0.4452296301
 40
0.5271913504
 40
0.6050504089
 40
0.6780233311
 40
0.7453315144
 40
0.8061923019
 40
0.8598671859
 40
0.9056761098
 40
0.9430148285
 40
0.971398992
 40
0.9904697634
 40
0.9964364011
 40
1.0
 40
1.0
 40
1.0
 40
1.0
 10
107.3159343505
 20
120.2846735695
 30
0.0
 10
107.3006179087
 20
120.3334329328
 30
0.0
 10
107.2870484152
 20
120.4384622587
 30
0.0
 10
107.3223582925
 20
120.5933830526
 30
0.0
 10
107.3971635716
 20
120.7348270775
 30
0.0
 10
107.5278175456
 20
120.9053249732
 30
0.0
 10
107.7243702895
 20
121.0906227393
 30
0.0
 10
107.9820728015
 20
121.2854369641
 30
0.0
 10
108.2521833651
 20
121.4623161419
 30
0.0
 10
108.5294706319
 20
121.6261698422
 30
0.0
 10
108.8113637939
 20
121.7800581586
 30
0.0
 10
109.1904883914
 20
121.974133344
 30
0.0
 10
109.6689575472
 20
122.1999947289
 30
0.0
 10
110.2468213205
 20
122.4512927223
 30
0.0
 10
110.824098171
 20
122.6858088928
 30
0.0
 10
111.5837361926
 20
122.9765192554
 30
0.0
 10
112.5177076204
 20
123.3059335619
 30
0.0
 10
113.6134962812
 20
123.6568580742
 30
0.0
 10
114.6621632357
 20
123.9636639837
 30
0.0
 10
115.6511109124
 20
124.2286304869
 30
0.0
 10
116.5677774435
 20
124.4542922672
 30
0.0
 10
117.4001051035
 20
124.642996019
 30
0.0
 10
118.1366281119
 20
124.7974256102
 30
0.0
 10
118.7668676319
 20
124.9204570404
 30
0.0
 10
119.281735586
 20
125.0147910375
 30
0.0
 10
119.6737037526
 20
125.083468851
 30
0.0
 10
119.9208747416
 20
125.1255339407
 30
0.0
 10
120.0530030517
 20
125.1491016378
 30
0.0
 10
120.096985544
 20
125.1573105583
 30
0.0
 10
120.1132961529
 20
125.1610071421
 30
0.0
  0
SPLINE
  5
3FB
100
AcDbEntity
  8
BEZUGSACHSEN
100
AcDbSpline
 62
7
  6
CONTINUOUS
 70
0
 71
3
 72
34
 73
30
 74
0
 42
0.0000001
 43
0.0000001
 44
0.0000000001
 40
0.0
 40
0.0
 40
0.0
 40
0.0
 40
0.0035633378
 40
0.0095294145
 40
0.0285983752
 40
0.0569796498
 40
0.0943157252
 40
0.1401215789
 40
0.1937930213
 40
0.2546503763
 40
0.3219547861
 40
0.3949239124
 40
0.4727791581
 40
0.5547370986
 40
0.6400560749
 40
0.6837549927
 40
0.7280323465
 40
0.7728082637
 40
0.818005865
 40
0.8407401449
 40
0.8635507275
 40
0.8864263378
 40
0.9093526073
 40
0.932304223
 40
0.9552200163
 40
0.9666305894
 40
0.9779667938
 40
0.9890948763
 40
1.0
 40
1.0
 40
1.0
 40
1.0
 10
87.3236091521
 20
125.1610071421
 30
0.0
 10
87.3399185053
 20
125.1573108429
 30
0.0
 10
87.3838968723
 20
125.1491018322
 30
0.0
 10
87.5160123597
 20
125.1255353458
 30
0.0
 10
87.7631586277
 20
125.0834777183
 30
0.0
 10
88.1550912004
 20
125.0148049402
 30
0.0
 10
88.669917602
 20
124.9204790227
 30
0.0
 10
89.3001130528
 20
124.7974585689
 30
0.0
 10
90.0365883181
 20
124.6430423251
 30
0.0
 10
90.8688649244
 20
124.4543537687
 30
0.0
 10
91.785479405
 20
124.2287112827
 30
0.0
 10
92.7743736912
 20
123.9637666539
 30
0.0
 10
93.8229882343
 20
123.6569864753
 30
0.0
 10
94.9187258752
 20
123.3060911226
 30
0.0
 10
95.852657174
 20
122.9767055681
 30
0.0
 10
96.6122658182
 20
122.6860220115
 30
0.0
 10
97.1895234354
 20
122.451528777
 30
0.0
 10
97.7673697806
 20
122.200254452
 30
0.0
 10
98.2458286327
 20
121.9744188556
 30
0.0
 10
98.6249495307
 20
121.7803704861
 30
0.0
 10
98.9068441953
 20
121.6265057918
 30
0.0
 10
99.1841323755
 20
121.4626768426
 30
0.0
 10
99.4542693677
 20
121.2858413071
 30
0.0
 10
99.7119454367
 20
121.0910222989
 30
0.0
 10
99.9087277618
 20
120.9058973546
 30
0.0
 10
100.0392527185
 20
120.7352693519
 30
0.0
 10
100.1147371254
 20
120.5939508305
 30
0.0
 10
100.1493787137
 20
120.43868803
 30
0.0
 10
100.1363083816
 20
120.3334997388
 30
0.0
 10
100.1209709545
 20
120.2846735695
 30
0.0
  0
LINE
  5
3FC
100
AcDbEntity
  8
0
100
AcDbLine
 62
7
  6
CONTINUOUS
 10
164.545497985
 20
126.6889289596
 11
164.5544150135
 21
126.6607438291
  0
LINE
  5
3FD
100
AcDbEntity
  8
0
100
AcDbLine
 62
7
  6
CONTINUOUS
 10
164.5544150135
 20
126.6607438291
 11
164.7610042023
 21
126.0080777386
  0
LINE
  5
3FE
100
AcDbEntity
  8
0
100
AcDbLine
 62
7
  6
CONTINUOUS
 10
164.6219707705
 20
126.0080777386
 11
164.6397740688
 21
125.9512783323
  0
LINE
  5
3FF
100
AcDbEntity
  8
0
100
AcDbLine
 62
7
  6
CONTINUOUS
 10
164.6397740688
 20
125.9512783323
 11
164.7286903418
 21
125.6676522472
  0
LINE
  5
400
100
AcDbEntity
  8
0
100
AcDbLine
 62
7
  6
CONTINUOUS
 10
164.8688395274
 20
125.6676522472
 11
164.8780013236
 21
125.6387375162
  0
SPLINE
  5
401
100
AcDbEntity
  8
0
100
AcDbSpline
 62
7
  6
CONTINUOUS
 70
0
 71
3
 72
8
 73
4
 74
0
 42
0.0000001
 43
0.0000001
 44
0.0000000001
 40
0.0
 40
0.0
 40
0.0
 40
0.0
 40
1.0
 40
1.0
 40
1.0
 40
1.0
 10
164.8780013236
 20
125.6387375162
 30
0.0
 10
165.0547491507
 20
125.0809318162
 30
0.0
 10
165.2317037017
 20
124.5231915671
 30
0.0
 10
165.408888803
 20
123.9655246117
 30
0.0
  0
LINE
  5
402
100
AcDbEntity
  8
0
100
AcDbLine
 62
7
  6
CONTINUOUS
 10
164.1662291158
 20
126.6038225868
 11
164.4978727731
 21
125.5243731766
  0
LINE
  5
403
100
AcDbEntity
  8
0
100
AcDbLine
 62
7
  6
CONTINUOUS
 10
164.4978727731
 20
125.5243731766
 11
164.6630607136
 21
124.9868012646
  0
LINE
  5
404
100
AcDbEntity
  8
0
100
AcDbLine
 62
7
  6
CONTINUOUS
 10
164.8199900503
 20
124.4761629083
 11
164.8243089527
 21
124.4621102768
  0
LINE
  5
405
100
AcDbEntity
  8
0
100
AcDbLine
 62
7
  6
CONTINUOUS
 10
164.8243089527
 20
124.4621102768
 11
164.8341216126
 21
124.430182491
  0
LINE
  5
406
100
AcDbEntity
  8
0
100
AcDbLine
 62
7
  6
CONTINUOUS
 10
164.8341216126
 20
124.430182491
 11
165.1862285741
 21
123.2846735695
  0
LINE
  5
407
100
AcDbEntity
  8
0
100
AcDbLine
 62
7
  6
CONTINUOUS
 10
163.9570847495
 20
127.2846735695
 11
163.9596422339
 21
127.2738623376
  0
LINE
  5
408
100
AcDbEntity
  8
0
100
AcDbLine
 62
7
  6
CONTINUOUS
 10
164.1287731277
 20
126.5942364019
 11
164.1540422074
 21
126.4981123554
  0
LINE
  5
409
100
AcDbEntity
  8
0
100
AcDbLine
 62
7
  6
CONTINUOUS
 10
165.1736847161
 20
123.2391837141
 11
165.1200147695
 21
123.3955375902
  0
LINE
  5
40A
100
AcDbEntity
  8
0
100
AcDbLine
 62
7
  6
CONTINUOUS
 10
193.2881533527
 20
124.4761629083
 11
193.2773122834
 21
124.440888855
  0
LINE
  5
40B
100
AcDbEntity
  8
0
100
AcDbLine
 62
7
  6
CONTINUOUS
 10
193.2773122834
 20
124.440888855
 11
193.226966208
 21
124.2770792983
  0
LINE
  5
40C
100
AcDbEntity
  8
0
100
AcDbLine
 62
7
  6
CONTINUOUS
 10
193.226966208
 20
124.2770792983
 11
193.1658380193
 21
124.0781963987
  0
LINE
  5
40D
100
AcDbEntity
  8
0
100
AcDbLine
 62
7
  6
CONTINUOUS
 10
193.1658380193
 20
124.0781963987
 11
193.1047687344
 21
123.8795141211
  0
LINE
  5
40E
100
AcDbEntity
  8
0
100
AcDbLine
 62
7
  6
CONTINUOUS
 10
193.1047687344
 20
123.8795141211
 11
193.0527258577
 21
123.7102054438
  0
LINE
  5
40F
100
AcDbEntity
  8
0
100
AcDbLine
 62
7
  6
CONTINUOUS
 10
193.9793702753
 20
126.5942364019
 11
193.9541011956
 21
126.4981123554
  0
LINE
  5
410
100
AcDbEntity
  8
0
100
AcDbLine
 62
7
  6
CONTINUOUS
 10
192.7722389482
 20
122.7740352729
 11
192.8265137696
 21
122.9284328711
  0
LINE
  5
411
100
AcDbEntity
  8
0
100
AcDbLine
 62
7
  6
CONTINUOUS
 10
193.0404082288
 20
123.5490405163
 11
193.0919837327
 21
123.701649698
  0
LINE
  5
412
100
AcDbEntity
  8
0
100
AcDbLine
 62
7
  6
CONTINUOUS
 10
193.0919837327
 20
123.701649698
 11
193.0948635278
 21
123.7102054932
  0
LINE
  5
413
100
AcDbEntity
  8
0
100
AcDbLine
 62
7
  6
CONTINUOUS
 10
193.333331618
 20
126.4324692509
 11
193.3750725361
 21
126.5180032616
  0
LINE
  5
414
100
AcDbEntity
  8
0
100
AcDbLine
 62
7
  6
CONTINUOUS
 10
193.3750725361
 20
126.5180032616
 11
193.4167106881
 21
126.6038225868
  0
LINE
  5
415
100
AcDbEntity
  8
0
100
AcDbLine
 62
7
  6
CONTINUOUS
 10
192.6442916025
 20
124.4761629083
 11
192.7853207929
 21
124.9868012646
  0
LINE
  5
416
100
AcDbEntity
  8
0
100
AcDbLine
 62
7
  6
CONTINUOUS
 10
192.7853207929
 20
124.9868012646
 11
192.9776324617
 21
125.5825458744
  0
LINE
  5
417
100
AcDbEntity
  8
0
100
AcDbLine
 62
7
  6
CONTINUOUS
 10
192.8119842297
 20
123.6166598623
 11
192.8170644317
 21
123.6250990906
  0
LINE
  5
418
100
AcDbEntity
  8
0
100
AcDbLine
 62
7
  6
CONTINUOUS
 10
193.0489927489
 20
124.1638803244
 11
193.0709262893
 21
124.2208437898
  0
LINE
  5
419
100
AcDbEntity
  8
0
100
AcDbLine
 62
7
  6
CONTINUOUS
 10
193.0709262893
 20
124.2208437898
 11
193.1625416503
 21
124.4761629083
  0
LINE
  5
41A
100
AcDbEntity
  8
0
100
AcDbLine
 62
7
  6
CONTINUOUS
 10
193.1625416503
 20
124.4761629083
 11
193.3063653372
 21
124.9016948917
  0
LINE
  5
41B
100
AcDbEntity
  8
0
100
AcDbLine
 62
7
  6
CONTINUOUS
 10
193.3063653372
 20
124.9016948917
 11
193.5436765364
 21
125.6676522472
  0
LINE
  5
41C
100
AcDbEntity
  8
0
100
AcDbLine
 62
7
  6
CONTINUOUS
 10
193.5436765364
 20
125.6676522472
 11
193.6639688918
 21
126.0931841114
  0
LINE
  5
41D
100
AcDbEntity
  8
0
100
AcDbLine
 62
7
  6
CONTINUOUS
 10
193.6639688918
 20
126.0931841114
 11
193.7312936124
 21
126.3485034683
  0
LINE
  5
41E
100
AcDbEntity
  8
0
100
AcDbLine
 62
7
  6
CONTINUOUS
 10
193.7312936124
 20
126.3485034683
 11
193.7448414695
 21
126.4050799132
  0
SPLINE
  5
41F
100
AcDbEntity
  8
0
100
AcDbSpline
 62
7
  6
CONTINUOUS
 70
0
 71
3
 72
9
 73
5
 74
0
 42
0.0000001
 43
0.0000001
 44
0.0000000001
 40
0.0
 40
0.0
 40
0.0
 40
0.0
 40
0.2433352316
 40
1.0
 40
1.0
 40
1.0
 40
1.0
 10
193.8593954776
 20
127.1995671966
 30
0.0
 10
193.8538498852
 20
127.2067349612
 30
0.0
 10
193.8307054274
 20
127.2359161997
 30
0.0
 10
193.8061961002
 20
127.2640073969
 30
0.0
 10
193.7870373718
 20
127.2846735695
 30
0.0
  0
SPLINE
  5
420
100
AcDbEntity
  8
BEZUGSACHSEN
100
AcDbSpline
 62
7
  6
CONTINUOUS
 70
0
 71
3
 72
22
 73
18
 74
0
 42
0.0000001
 43
0.0000001
 44
0.0000000001
 40
0.0
 40
0.0
 40
0.0
 40
0.0
 40
0.1728154604
 40
0.3364150173
 40
0.4127305876
 40
0.4845081851
 40
0.5512723416
 40
0.6127260952
 40
0.6687890146
 40
0.7196150986
 40
0.7656759354
 40
0.8078233715
 40
0.8474731447
 40
0.8869816296
 40
0.9312660485
 40
0.9598409377
 40
1.0
 40
1.0
 40
1.0
 40
1.0
 10
179.0540717015
 20
125.1610071421
 30
0.0
 10
179.9050519271
 20
125.1513355912
 30
0.0
 10
181.5614619752
 20
125.1084604418
 30
0.0
 10
183.5906934598
 20
124.9784536934
 30
0.0
 10
185.1169146116
 20
124.8126247415
 30
0.0
 10
186.1642041449
 20
124.659923506
 30
0.0
 10
187.1316827865
 20
124.4732863109
 30
0.0
 10
188.0118827583
 20
124.249795637
 30
0.0
 10
188.7991478777
 20
123.9870333954
 30
0.0
 10
189.489221486
 20
123.6817013368
 30
0.0
 10
190.0794531508
 20
123.3306100358
 30
0.0
 10
190.5673714888
 20
122.9278038316
 30
0.0
 10
190.94988122
 20
122.4631863188
 30
0.0
 10
191.2210298416
 20
121.9123573604
 30
0.0
 10
191.3255007712
 20
121.3608109209
 30
0.0
 10
191.3070936923
 20
120.8028235885
 30
0.0
 10
191.2276276722
 20
120.469116645
 30
0.0
 10
191.1562723885
 20
120.2846735695
 30
0.0
  0
SPLINE
  5
421
100
AcDbEntity
  8
0
100
AcDbSpline
 62
7
  6
CONTINUOUS
 70
0
 71
3
 72
8
 73
4
 74
0
 42
0.0000001
 43
0.0000001
 44
0.0000000001
 40
0.0
 40
0.0
 40
0.0
 40
0.0
 40
1.0
 40
1.0
 40
1.0
 40
1.0
 10
165.4590369313
 20
124.135737417
 30
0.0
 10
165.295543032
 20
124.6463028012
 30
0.0
 10
165.1322845101
 20
125.1569436069
 30
0.0
 10
164.9692386535
 20
125.6676522472
 30
0.0
  0
LINE
  5
422
100
AcDbEntity
  8
0
100
AcDbLine
 62
7
  6
CONTINUOUS
 10
165.2259794554
 20
125.6676522472
 11
165.1152004963
 21
126.0080777386
  0
LINE
  5
423
100
AcDbEntity
  8
0
100
AcDbLine
 62
7
  6
CONTINUOUS
 10
164.860590889
 20
126.0080777386
 11
164.6434976832
 21
126.6889289596
  0
LINE
  5
424
100
AcDbEntity
  8
0
100
AcDbLine
 62
7
  6
CONTINUOUS
 10
165.9509061419
 20
123.2846735695
 11
165.8398145606
 21
123.6250990906
  0
LINE
  5
425
100
AcDbEntity
  8
0
100
AcDbLine
 62
7
  6
CONTINUOUS
 10
165.2376791257
 20
123.2846735695
 11
164.879911877
 21
124.4441357355
  0
LINE
  5
426
100
AcDbEntity
  8
0
100
AcDbLine
 62
7
  6
CONTINUOUS
 10
164.879911877
 20
124.4441357355
 11
164.8700317793
 21
124.4761629083
  0
LINE
  5
427
100
AcDbEntity
  8
0
100
AcDbLine
 62
7
  6
CONTINUOUS
 10
164.9837273738
 20
124.4761629083
 11
164.8248775258
 21
124.9868012646
  0
LINE
  5
428
100
AcDbEntity
  8
0
100
AcDbLine
 62
7
  6
CONTINUOUS
 10
164.7125205591
 20
124.9868012646
 11
164.52218754
 21
125.6039737653
  0
LINE
  5
429
100
AcDbEntity
  8
0
100
AcDbLine
 62
7
  6
CONTINUOUS
 10
164.52218754
 20
125.6039737653
 11
164.0040758745
 21
127.2846735695
  0
LINE
  5
42A
100
AcDbEntity
  8
0
100
AcDbLine
 62
7
  6
CONTINUOUS
 10
192.3334864004
 20
125.6676522472
 11
192.0828362016
 21
124.9016948917
  0
LINE
  5
42B
100
AcDbEntity
  8
0
100
AcDbLine
 62
7
  6
CONTINUOUS
 10
192.0828362016
 20
124.9016948917
 11
191.9704185773
 21
124.4761629083
  0
LINE
  5
42C
100
AcDbEntity
  8
0
100
AcDbLine
 62
7
  6
CONTINUOUS
 10
191.9704185773
 20
124.4761629083
 11
191.9136234669
 21
124.2208437898
  0
LINE
  5
42D
100
AcDbEntity
  8
0
100
AcDbLine
 62
7
  6
CONTINUOUS
 10
192.3911930663
 20
123.2846615192
 11
192.3748150512
 21
123.2390338678
  0
SPLINE
  5
42E
100
AcDbEntity
  8
BEZUGSACHSEN
100
AcDbSpline
 62
7
  6
CONTINUOUS
 70
0
 71
3
 72
22
 73
18
 74
0
 42
0.0000001
 43
0.0000001
 44
0.0000000001
 40
0.0
 40
0.0
 40
0.0
 40
0.0
 40
0.1728154604
 40
0.3364150173
 40
0.4127305876
 40
0.4845081851
 40
0.5512723416
 40
0.6127260952
 40
0.6687890146
 40
0.7196150986
 40
0.7656759354
 40
0.8078233715
 40
0.8474731447
 40
0.8869816296
 40
0.9312660485
 40
0.9598409377
 40
1.0
 40
1.0
 40
1.0
 40
1.0
 10
179.0540717015
 20
125.1610071421
 30
0.0
 10
178.203091476
 20
125.1513355912
 30
0.0
 10
176.5466814279
 20
125.1084604418
 30
0.0
 10
174.5174499432
 20
124.9784536934
 30
0.0
 10
172.9912287914
 20
124.8126247415
 30
0.0
 10
171.9439392582
 20
124.6599235061
 30
0.0
 10
170.9764606165
 20
124.4732863109
 30
0.0
 10
170.0962606448
 20
124.249795637
 30
0.0
 10
169.3089955253
 20
123.9870333954
 30
0.0
 10
168.6189219171
 20
123.6817013368
 30
0.0
 10
168.0286902523
 20
123.3306100358
 30
0.0
 10
167.5407719143
 20
122.9278038316
 30
0.0
 10
167.158262183
 20
122.4631863188
 30
0.0
 10
166.8871135614
 20
121.9123573604
 30
0.0
 10
166.7826426318
 20
121.3608109209
 30
0.0
 10
166.8010497107
 20
120.8028235885
 30
0.0
 10
166.8805157308
 20
120.469116645
 30
0.0
 10
166.9518710145
 20
120.2846735695
 30
0.0
  0
LINE
  5
42F
100
AcDbEntity
  8
0
100
AcDbLine
 62
7
  6
CONTINUOUS
 10
165.764316144
 20
123.2846735695
 11
165.7411147466
 21
123.3598052579
  0
LINE
  5
430
100
AcDbEntity
  8
0
100
AcDbLine
 62
7
  6
CONTINUOUS
 10
165.7411147466
 20
123.3598052579
 11
165.7249335915
 21
123.4122052186
  0
LINE
  5
431
100
AcDbEntity
  8
0
100
AcDbLine
 62
7
  6
CONTINUOUS
 10
164.7137823468
 20
126.6889283996
 11
164.7076784
 21
126.7087214807
  0
LINE
  5
432
100
AcDbEntity
  8
0
100
AcDbLine
 62
7
  6
CONTINUOUS
 10
164.7076784
 20
126.7087214807
 11
164.6991677982
 21
126.7363187858
  0
LINE
  5
433
100
AcDbEntity
  8
0
100
AcDbLine
 62
7
  6
CONTINUOUS
 10
164.6991677982
 20
126.7363187858
 11
164.5300807649
 21
127.2846735695
  0
LINE
  5
434
100
AcDbEntity
  8
0
100
AcDbLine
 62
7
  6
CONTINUOUS
 10
193.5108094251
 20
124.9868012646
 11
193.4695235854
 21
124.8517986143
  0
LINE
  5
435
100
AcDbEntity
  8
0
100
AcDbLine
 62
7
  6
CONTINUOUS
 10
193.4695235854
 20
124.8517986143
 11
193.354648438
 21
124.4761629083
  0
SPLINE
  5
436
100
AcDbEntity
  8
0
100
AcDbSpline
 62
7
  6
CONTINUOUS
 70
0
 71
3
 72
8
 73
4
 74
0
 42
0.0000001
 43
0.0000001
 44
0.0000000001
 40
0.0
 40
0.0
 40
0.0
 40
0.0
 40
1.0
 40
1.0
 40
1.0
 40
1.0
 10
166.0008202169
 20
124.135737417
 30
0.0
 10
165.8368484429
 20
124.6462951382
 30
0.0
 10
165.6731363874
 20
125.1569363298
 30
0.0
 10
165.5096580066
 20
125.6676522472
 30
0.0
  0
LINE
  5
437
100
AcDbEntity
  8
0
100
AcDbLine
 62
7
  6
CONTINUOUS
 10
165.7746570026
 20
125.6676522472
 11
165.6634480187
 21
126.0080777386
  0
LINE
  5
438
100
AcDbEntity
  8
0
100
AcDbLine
 62
7
  6
CONTINUOUS
 10
193.0666577302
 20
123.7102054932
 11
193.0113549876
 21
123.5525008896
  0
LINE
  5
439
100
AcDbEntity
  8
0
100
AcDbLine
 62
7
  6
CONTINUOUS
 10
192.7880967932
 20
122.9283886784
 11
192.7317703469
 21
122.7740352729
  0
LINE
  5
43A
100
AcDbEntity
  8
0
100
AcDbLine
 62
7
  6
CONTINUOUS
 10
165.4007269023
 20
126.0080777386
 11
165.1830868749
 21
126.6889289596
  0
LINE
  5
43B
100
AcDbEntity
  8
0
100
AcDbLine
 62
7
  6
CONTINUOUS
 10
193.7033406061
 20
126.6038225868
 11
193.686509501
 21
126.5182909236
  0
LINE
  5
43C
100
AcDbEntity
  8
0
100
AcDbLine
 62
7
  6
CONTINUOUS
 10
193.6008944522
 20
126.0931841114
 11
193.4553771109
 21
125.5825458744
  0
LINE
  5
43D
100
AcDbEntity
  8
0
100
AcDbLine
 62
7
  6
CONTINUOUS
 10
193.4553771109
 20
125.5825458744
 11
193.2699446471
 21
124.9868012646
  0
LINE
  5
43E
100
AcDbEntity
  8
0
100
AcDbLine
 62
7
  6
CONTINUOUS
 10
166.5010389986
 20
123.2846735695
 11
166.3894681393
 21
123.6250990906
  0
LINE
  5
43F
100
AcDbEntity
  8
0
100
AcDbLine
 62
7
  6
CONTINUOUS
 10
193.2699446471
 20
124.9868012646
 11
193.0970643018
 21
124.4761629083
  0
SPLINE
  5
440
100
AcDbEntity
  8
0
100
AcDbSpline
 62
7
  6
CONTINUOUS
 70
0
 71
3
 72
9
 73
5
 74
0
 42
0.0000001
 43
0.0000001
 44
0.0000000001
 40
0.0
 40
0.0
 40
0.0
 40
0.0
 40
0.2578194183
 40
1.0
 40
1.0
 40
1.0
 40
1.0
 10
191.8839509699
 20
123.3697799498
 30
0.0
 10
191.8928649448
 20
123.3627807638
 30
0.0
 10
191.9272059742
 20
123.3353382923
 30
0.0
 10
191.960587479
 20
123.3066860124
 30
0.0
 10
191.9846680553
 20
123.2846735695
 30
0.0
  0
LINE
  5
441
100
AcDbEntity
  8
0
100
AcDbLine
 62
7
  6
CONTINUOUS
 10
192.9145259537
 20
124.0499758002
 11
192.8777026366
 21
123.9655246117
  0
LINE
  5
442
100
AcDbEntity
  8
0
100
AcDbLine
 62
7
  6
CONTINUOUS
 10
192.6325223285
 20
124.9016948917
 11
192.5197999799
 21
124.4761629083
  0
LINE
  5
443
100
AcDbEntity
  8
0
100
AcDbLine
 62
7
  6
CONTINUOUS
 10
192.5197999799
 20
124.4761629083
 11
192.4624683467
 21
124.2208437898
  0
SPLINE
  5
444
100
AcDbEntity
  8
0
100
AcDbSpline
 62
7
  6
CONTINUOUS
 70
0
 71
3
 72
9
 73
5
 74
0
 42
0.0000001
 43
0.0000001
 44
0.0000000001
 40
0.0
 40
0.0
 40
0.0
 40
0.0
 40
0.2576073511
 40
1.0
 40
1.0
 40
1.0
 40
1.0
 10
192.4257347921
 20
123.3697799498
 30
0.0
 10
192.4342981897
 20
123.3627774249
 30
0.0
 10
192.4673037415
 20
123.3353076582
 30
0.0
 10
192.4993373383
 20
123.3066614694
 30
0.0
 10
192.5224201775
 20
123.2846735695
 30
0.0
  0
LINE
  5
445
100
AcDbEntity
  8
0
100
AcDbLine
 62
7
  6
CONTINUOUS
 10
165.6873046645
 20
123.7102054932
 11
165.6821851886
 21
123.7170987044
  0
LINE
  5
446
100
AcDbEntity
  8
0
100
AcDbLine
 62
7
  6
CONTINUOUS
 10
192.8821639477
 20
125.6676522472
 11
192.6325223285
 21
124.9016948917
  0
LINE
  5
447
100
AcDbEntity
  8
BEZUGSACHSEN
100
AcDbLine
 62
7
  6
CONTINUOUS
 10
126.9682350542
 20
81.0821159215
 11
127.0859420405
 21
81.0821158426
  0
LINE
  5
448
100
AcDbEntity
  8
BEZUGSACHSEN
100
AcDbLine
 62
7
  6
CONTINUOUS
 10
80.3509612879
 20
81.0821158207
 11
80.4686702793
 21
81.0821155142
  0
ENDSEC
  0
SECTION
  2
OBJECTS
  0
DICTIONARY
  5
C
100
AcDbDictionary
280
0
281
1
  3
ACAD_GROUP
350
D
  3
ACAD_MLINESTYLE
350
17
  3
ACAD_LAYOUT
350
1A
  3
ACAD_PLOTSETTINGS
350
19
  3
ACAD_PLOTSTYLENAME
350
E
  0
DICTIONARY
  5
D
102
{ACAD_REACTORS
330
C
102
}
100
AcDbDictionary
280
0
281
1
  0
ACDBDICTIONARYWDFLT
  5
E
102
{ACAD_REACTORS
330
C
102
}
100
AcDbDictionary
281
1
  3
Normal
350
F
100
AcDbDictionaryWithDefault
340
F
  0
DICTIONARY
  5
17
102
{ACAD_REACTORS
330
C
102
}
100
AcDbDictionary
280
0
281
1
  3
Standard
350
18
  0
DICTIONARY
  5
19
102
{ACAD_REACTORS
330
C
102
}
100
AcDbDictionary
281
1
  0
DICTIONARY
  5
1A
102
{ACAD_REACTORS
330
C
102
}
100
AcDbDictionary
281
1
  3
Model
350
449
  3
Layout1
350
44A
  0
ACDBPLACEHOLDER
  5
F
102
{ACAD_REACTORS
330
E
102
}
  0
MLINESTYLE
  5
18
102
{ACAD_REACTORS
330
17
102
}
100
AcDbMlineStyle
  2
STANDARD
 70
0
  3

 62
256
 51
90.0
 52
90.0
 71
2
 49
0.5
 62
256
  6
BYLAYER
 49
-0.5
 62
256
  6
BYLAYER
  0
LAYOUT
  5
449
102
{ACAD_REACTORS
330
1A
102
}
100
AcDbPlotSettings
  1

  2
none_device
  4
ISO_A4_(297.00_x_210.00_MM)
  6

 40
0.0
 41
0.0
 42
0.0
 43
0.0
 44
297.0
 45
210.0
 46
0.0
 47
0.0
 48
0.0
 49
0.0
140
0.0
141
0.0
142
1.0
143
1.0
 70
1024
 72
1
 73
0
 74
0
  7

 75
0
147
1.0
148
0.0
149
0.0
100
AcDbLayout
  1
Model
 70
0
 71
0
 10
0.0
 20
0.0
 11
297.0
 21
210.0
 12
0.0
 22
0.0
 32
0.0
 14
0.0
 24
0.0
 34
0.0
 15
0.0
 25
0.0
 35
0.0
146
0.0
 13
0.0
 23
0.0
 33
0.0
 16
1.0
 26
0.0
 36
0.0
 17
0.0
 27
1.0
 37
0.0
 76
0
330
20D
345
0
346
0
  0
LAYOUT
  5
44A
102
{ACAD_REACTORS
330
1A
102
}
100
AcDbPlotSettings
  1

  2
none_device
  4
ISO_A4_(297.00_x_210.00_MM)
  6

 40
0.0
 41
0.0
 42
0.0
 43
0.0
 44
297.0
 45
210.0
 46
0.0
 47
0.0
 48
0.0
 49
0.0
140
0.0
141
0.0
142
1.0
143
1.0
 70
0
 72
1
 73
0
 74
0
  7

 75
0
147
1.0
148
0.0
149
0.0
100
AcDbLayout
  1
Layout1
 70
0
 71
1
 10
0.0
 20
0.0
 11
297.0
 21
210.0
 12
0.0
 22
0.0
 32
0.0
 14
0.0
 24
0.0
 34
0.0
 15
0.0
 25
0.0
 35
0.0
146
0.0
 13
0.0
 23
0.0
 33
0.0
 16
1.0
 26
0.0
 36
0.0
 17
0.0
 27
1.0
 37
0.0
 76
0
330
20E
345
0
346
0
  0
ENDSEC
  0
EOF
