999
DXF file: 001-m33721-p-6.dxf
999
Pro/ENGINEER 2011490 by Parametric Technology Corporation
  0
SECTION
  2
HEADER
  9
$ACADVER
  1
AC1015
  9
$DWGCODEPAGE
  3
ANSI_1252
  9
$EXTMAX
 10
594.0
 20
420.0
 30
0.0
  9
$EXTMIN
 10
0.0
 20
0.0
 30
0.0
  9
$LIMMIN
 10
0.0
 20
0.0
  9
$LIMMAX
 10
594.0
 20
420.0
  9
$VIEWCTR
 10
297.0
 20
210.0
  9
$VIEWSIZE
 40
420.0
  9
$CLAYER
  8
0
  9
$LTSCALE
 40
32.67
  9
$CELTYPE
  6
BYLAYER
  9
$DIMSCALE
 40
1.0
  9
$DIMASZ
 40
3.5
  9
$DIMEXO
 40
3.7125
  9
$DIMDLI
 40
22.572
  9
$DIMEXE
 40
10.692
  9
$DIMCEN
 40
5.346
  9
$DIMLFAC
 40
1.0
  9
$DIMBLK
  1
_FILLED
  9
$DIMTXT
 40
3.5
  9
$DIMTOL
 70
1
  9
$DIMLIM
 70
0
  9
$DIMTFAC
 40
1.0
  9
$DIMTP
 40
0.005
  9
$DIMTM
 40
0.005
  9
$PDMODE
 70
3
  9
$PDSIZE
 40
0.3125
  9
$HANDSEED
  5
501
  9
$TILEMODE
 70
1
  9
$MEASUREMENT
 70
1
  9
$INSUNITS
 70
4
  0
ENDSEC
  0
SECTION
  2
CLASSES
  0
CLASS
  1
ACDBDICTIONARYWDFLT
  2
AcDbDictionaryWithDefault
  3
AutoCAD 2000
 90
0
280
0
281
0
  0
CLASS
  1
ACDBPLACEHOLDER
  2
AcDbPlaceHolder
  3
AutoCAD 2000
 90
0
280
0
281
0
  0
CLASS
  1
LAYOUT
  2
AcDbLayout
  3
AutoCAD 2000
 90
0
280
0
281
0
  0
ENDSEC
  0
SECTION
  2
TABLES
  0
TABLE
  2
VPORT
  5
8
100
AcDbSymbolTable
 70
2
  0
VPORT
  5
1F4
100
AcDbSymbolTableRecord
100
AcDbViewportTableRecord
  2
*ACTIVE
 70
0
 10
0.0
 20
0.0
 11
1.0
 21
1.0
 12
297.0
 22
210.0
 13
0.0
 23
0.0
 14
1.0
 24
1.0
 15
0.0
 25
0.0
 16
0.0
 26
0.0
 36
1.0
 17
0.0
 27
0.0
 37
0.0
 40
420.0
 41
1.4142857143
 42
50.0
 43
0.0
 44
0.0
 50
0.0
 51
0.0
 71
0
 72
100
 73
1
 74
1
 75
0
 76
0
 77
0
 78
0
  0
ENDTAB
  0
TABLE
  2
LTYPE
  5
5
100
AcDbSymbolTable
 70
6
  0
LTYPE
  5
14
100
AcDbSymbolTableRecord
100
AcDbLinetypeTableRecord
  2
BYBLOCK
 70
0
  3

 72
65
 73
0
 40
0.0
  0
LTYPE
  5
15
100
AcDbSymbolTableRecord
100
AcDbLinetypeTableRecord
  2
BYLAYER
 70
0
  3

 72
65
 73
0
 40
0.0
  0
LTYPE
  5
16
100
AcDbSymbolTableRecord
100
AcDbLinetypeTableRecord
  2
CONTINUOUS
 70
64
  3
Solid line
 72
65
 73
0
 40
0.0
  0
LTYPE
  5
1F5
100
AcDbSymbolTableRecord
100
AcDbLinetypeTableRecord
  2
CENTER
 70
64
  3
____ _ ____ _ ____ _ ____ _ ____ _ ____ _ ____
 72
65
 73
4
 40
0.6
 49
0.375
 74
0
 49
-0.075
 74
0
 49
0.075
 74
0
 49
-0.075
 74
0
  0
LTYPE
  5
1F6
100
AcDbSymbolTableRecord
100
AcDbLinetypeTableRecord
  2
HIDDEN
 70
64
  3
- - - - - - - - - - - - - - - - - - - -
 72
65
 73
2
 40
0.2
 49
0.1
 74
0
 49
-0.1
 74
0
  0
LTYPE
  5
1F7
100
AcDbSymbolTableRecord
100
AcDbLinetypeTableRecord
  2
PHANTOM
 70
64
  3
_____ _ _ _____ _ _ _____ _ _ _____
 72
65
 73
6
 40
0.8
 49
0.45
 74
0
 49
-0.05
 74
0
 49
0.1
 74
0
 49
-0.05
 74
0
 49
0.1
 74
0
 49
-0.05
 74
0
  0
LTYPE
  5
1F8
100
AcDbSymbolTableRecord
100
AcDbLinetypeTableRecord
  2
DOT
 70
64
  3
. . . . . . . . . . . . . . . . . . . .
 72
65
 73
2
 40
0.2
 49
0.1
 74
0
 49
-0.1
 74
0
  0
LTYPE
  5
1F9
100
AcDbSymbolTableRecord
100
AcDbLinetypeTableRecord
  2
DASHED
 70
64
  3
- - - - - - - - - - - - - - - - - - - -
 72
65
 73
2
 40
0.2
 49
0.1
 74
0
 49
-0.1
 74
0
  0
ENDTAB
  0
TABLE
  2
LAYER
  5
2
100
AcDbSymbolTable
 70
36
  0
LAYER
  5
10
100
AcDbSymbolTableRecord
100
AcDbLayerTableRecord
  2
0
 70
0
 62
7
  6
CONTINUOUS
370
-3
390
F
  0
LAYER
  5
1FA
100
AcDbSymbolTableRecord
100
AcDbLayerTableRecord
  2
DEFAULT_1
 70
0
 62
7
  6
CENTER
370
-3
390
F
  0
LAYER
  5
1FB
100
AcDbSymbolTableRecord
100
AcDbLayerTableRecord
  2
DEFAULT_2
 70
0
 62
8
  6
HIDDEN
370
-3
390
F
  0
LAYER
  5
1FC
100
AcDbSymbolTableRecord
100
AcDbLayerTableRecord
  2
DEFAULT_3
 70
0
 62
7
  6
PHANTOM
370
-3
390
F
  0
LAYER
  5
1FD
100
AcDbSymbolTableRecord
100
AcDbLayerTableRecord
  2
BEZUGSACHSEN
 70
0
 62
7
  6
CONTINUOUS
370
-3
390
F
  0
LAYER
  5
1FE
100
AcDbSymbolTableRecord
100
AcDbLayerTableRecord
  2
BEZUGSEBENEN
 70
0
 62
7
  6
CONTINUOUS
370
-3
390
F
  0
LAYER
  5
1FF
100
AcDbSymbolTableRecord
100
AcDbLayerTableRecord
  2
BG_STARTBEZUEGE
 70
0
 62
7
  6
CONTINUOUS
370
-3
390
F
  0
LAYER
  5
200
100
AcDbSymbolTableRecord
100
AcDbLayerTableRecord
  2
FASEN
 70
0
 62
7
  6
CONTINUOUS
370
-3
390
F
  0
LAYER
  5
201
100
AcDbSymbolTableRecord
100
AcDbLayerTableRecord
  2
FLAECHEN
 70
0
 62
7
  6
CONTINUOUS
370
-3
390
F
  0
LAYER
  5
202
100
AcDbSymbolTableRecord
100
AcDbLayerTableRecord
  2
GEWINDE
 70
0
 62
7
  6
CONTINUOUS
370
-3
390
F
  0
LAYER
  5
203
100
AcDbSymbolTableRecord
100
AcDbLayerTableRecord
  2
HILFEN
 70
0
 62
7
  6
CONTINUOUS
370
-3
390
F
  0
LAYER
  5
204
100
AcDbSymbolTableRecord
100
AcDbLayerTableRecord
  2
KONSTRUKTIONSELEMENTE
 70
0
 62
7
  6
CONTINUOUS
370
-3
390
F
  0
LAYER
  5
205
100
AcDbSymbolTableRecord
100
AcDbLayerTableRecord
  2
KURVEN
 70
0
 62
7
  6
CONTINUOUS
370
-3
390
F
  0
LAYER
  5
206
100
AcDbSymbolTableRecord
100
AcDbLayerTableRecord
  2
NORM
 70
0
 62
7
  6
CONTINUOUS
370
-3
390
F
  0
LAYER
  5
207
100
AcDbSymbolTableRecord
100
AcDbLayerTableRecord
  2
PLATZIERUNG
 70
0
 62
7
  6
CONTINUOUS
370
-3
390
F
  0
LAYER
  5
208
100
AcDbSymbolTableRecord
100
AcDbLayerTableRecord
  2
RUNDUNGEN
 70
0
 62
7
  6
CONTINUOUS
370
-3
390
F
  0
LAYER
  5
209
100
AcDbSymbolTableRecord
100
AcDbLayerTableRecord
  2
TEIL_STARTBEZUEGE
 70
0
 62
7
  6
CONTINUOUS
370
-3
390
F
  0
LAYER
  5
20A
100
AcDbSymbolTableRecord
100
AcDbLayerTableRecord
  2
T_STARTBEZUEGE
 70
0
 62
7
  6
CONTINUOUS
370
-3
390
F
  0
LAYER
  5
20B
100
AcDbSymbolTableRecord
100
AcDbLayerTableRecord
  2
ZEICHNUNGSBEMASSUNGEN
 70
0
 62
7
  6
CONTINUOUS
370
-3
390
F
  0
ENDTAB
  0
TABLE
  2
STYLE
  5
3
100
AcDbSymbolTable
 70
1
  0
STYLE
  5
11
100
AcDbSymbolTableRecord
100
AcDbTextStyleTableRecord
  2
STANDARD
 70
0
 40
0.0
 41
0.7
 50
0.0
 71
0
 42
0.2
  3
txt
  4

  0
STYLE
  5
20C
100
AcDbSymbolTableRecord
100
AcDbTextStyleTableRecord
  2
TEXTSTYLE_1
 70
0
 40
0.0
 41
0.8
 50
0.0
 71
0
 42
0.2
  3
gdt
  4

  0
ENDTAB
  0
TABLE
  2
VIEW
  5
6
100
AcDbSymbolTable
 70
0
  0
ENDTAB
  0
TABLE
  2
UCS
  5
7
100
AcDbSymbolTable
 70
0
  0
ENDTAB
  0
TABLE
  2
APPID
  5
9
100
AcDbSymbolTable
 70
1
  0
APPID
  5
20D
100
AcDbSymbolTableRecord
100
AcDbRegAppTableRecord
  2
ACAD
 70
0
  0
ENDTAB
  0
TABLE
  2
BLOCK_RECORD
  5
1
100
AcDbSymbolTable
 70
0
  0
BLOCK_RECORD
  5
20E
100
AcDbSymbolTableRecord
100
AcDbBlockTableRecord
  2
*Model_Space
  0
BLOCK_RECORD
  5
20F
100
AcDbSymbolTableRecord
100
AcDbBlockTableRecord
  2
*Paper_Space
  0
ENDTAB
  0
TABLE
  2
DIMSTYLE
  5
A
100
AcDbSymbolTable
 70
1
100
AcDbDimStyleTable
 71
0
  0
DIMSTYLE
105
210
100
AcDbSymbolTableRecord
100
AcDbDimStyleTableRecord
  2
STANDARD
 70
0
  3

  4

 40
1.0
 41
3.5
 42
0.0625
 43
0.38
 44
0.18
 45
0.0
 46
0.0
 47
0.005
 48
0.005
140
3.5
141
0.09
142
0.0
143
25.4
144
1.0
145
0.0
146
1.0
147
0.09
 71
1.0
 72
0.0
 73
0
 74
0
 75
0
 76
0
 77
1
 78
8
170
0
171
2
172
0
173
0
174
0
175
0
176
0
177
0
178
5
270
2
271
3
272
3
273
2
274
2
275
0
280
0
281
0
282
0
283
1
284
8
285
0
286
0
287
3
288
0
340
11
  0
ENDTAB
  0
ENDSEC
  0
SECTION
  2
BLOCKS
  0
BLOCK
  5
20
100
AcDbEntity
  8
0
100
AcDbBlockBegin
  2
*Model_Space
 70
0
 10
0.0
 20
0.0
 30
0.0
  3
*Model_Space
  1

  0
ENDBLK
  5
21
100
AcDbEntity
  8
0
100
AcDbBlockEnd
  0
BLOCK
  5
1C
100
AcDbEntity
  8
0
100
AcDbBlockBegin
  2
*Paper_Space
 70
0
 10
0.0
 20
0.0
 30
0.0
  3
*Paper_Space
  1

  0
ENDBLK
  5
1D
100
AcDbEntity
  8
0
100
AcDbBlockEnd
  0
ENDSEC
  0
SECTION
  2
ENTITIES
  0
MTEXT
  5
211
100
AcDbEntity
  8
0
100
AcDbMText
 62
5
  6
CONTINUOUS
  7
STANDARD
 71
1
 72
1
 10
356.9639895075
 20
341.4331057306
 30
0.0
 11
0.0
 21
1.0
 31
0.0
 44
0.9
  1
VRS 4,5t RUD
 40
6.0
 41
55.7142857143
  0
MTEXT
  5
212
100
AcDbEntity
  8
0
100
AcDbMText
 62
5
  6
CONTINUOUS
  7
STANDARD
 71
1
 72
1
 10
142.6739507263
 20
45.7603795334
 30
0.0
 11
1.0
 21
0.0
 31
0.0
 44
0.9
  1
VRS 4,5t RUD
 40
6.0
 41
55.7142857143
  0
LINE
  5
213
100
AcDbEntity
  8
0
100
AcDbLine
 62
7
  6
CONTINUOUS
 10
0.0
 20
0.0
 11
0.0
 21
420.0
  0
LINE
  5
214
100
AcDbEntity
  8
0
100
AcDbLine
 62
7
  6
CONTINUOUS
 10
0.0
 20
0.0
 11
594.0
 21
0.0
  0
LINE
  5
215
100
AcDbEntity
  8
0
100
AcDbLine
 62
7
  6
CONTINUOUS
 10
0.0
 20
420.0
 11
594.0
 21
420.0
  0
LINE
  5
216
100
AcDbEntity
  8
0
100
AcDbLine
 62
7
  6
CONTINUOUS
 10
594.0
 20
0.0
 11
594.0
 21
420.0
  0
LINE
  5
217
100
AcDbEntity
  8
KONSTRUKTIONSELEMENTE
100
AcDbLine
 62
7
  6
CONTINUOUS
 10
158.2488543611
 20
109.0866542544
 11
183.2488543611
 21
109.0866542544
  0
LINE
  5
218
100
AcDbEntity
  8
KONSTRUKTIONSELEMENTE
100
AcDbLine
 62
7
  6
CONTINUOUS
 10
155.7488543611
 20
111.5866542544
 11
185.7488543611
 21
111.5866542544
  0
LINE
  5
219
100
AcDbEntity
  8
BEZUGSACHSEN
100
AcDbLine
 62
7
  6
CONTINUOUS
 10
186.9988543611
 20
124.0866542544
 11
154.4988543611
 21
124.0866542544
  0
LINE
  5
21A
100
AcDbEntity
  8
KONSTRUKTIONSELEMENTE
100
AcDbLine
 62
7
  6
CONTINUOUS
 10
142.7488543611
 20
154.0866542544
 11
198.7488543611
 21
154.0866542544
  0
LINE
  5
21B
100
AcDbEntity
  8
KONSTRUKTIONSELEMENTE
100
AcDbLine
 62
7
  6
CONTINUOUS
 10
142.7488543611
 20
159.0866542544
 11
198.7488543611
 21
159.0866542544
  0
LINE
  5
21C
100
AcDbEntity
  8
KONSTRUKTIONSELEMENTE
100
AcDbLine
 62
7
  6
CONTINUOUS
 10
158.2488543611
 20
109.0866542544
 11
155.7488543611
 21
111.5866542544
  0
LINE
  5
21D
100
AcDbEntity
  8
BEZUGSACHSEN
100
AcDbLine
 62
7
  6
CONTINUOUS
 10
144.1907419784
 20
134.3947666371
 11
154.4988543611
 21
124.0866542544
  0
LINE
  5
21E
100
AcDbEntity
  8
KONSTRUKTIONSELEMENTE
100
AcDbLine
 62
7
  6
CONTINUOUS
 10
193.7488543611
 20
154.0866542544
 11
197.3069667438
 21
152.0323771124
  0
LINE
  5
21F
100
AcDbEntity
  8
0
100
AcDbLine
 62
7
  6
CONTINUOUS
 10
144.1745992747
 20
392.032066645
 11
144.5596527562
 21
392.2215374231
  0
LINE
  5
220
100
AcDbEntity
  8
RUNDUNGEN
100
AcDbLine
 62
7
  6
CONTINUOUS
 10
132.0878085245
 20
397.1960692009
 11
168.9570146134
 21
411.3488314187
  0
LINE
  5
221
100
AcDbEntity
  8
0
100
AcDbLine
 62
7
  6
CONTINUOUS
 10
165.7384388369
 20
398.4089946057
 11
165.3321888369
 21
398.2706967499
  0
LINE
  5
222
100
AcDbEntity
  8
0
100
AcDbLine
 62
7
  6
CONTINUOUS
 10
146.6988389171
 20
391.2313997817
 11
146.12023931
 21
391.0439655814
  0
LINE
  5
223
100
AcDbEntity
  8
0
100
AcDbLine
 62
7
  6
CONTINUOUS
 10
143.4920963907
 20
392.5230599813
 11
143.0133269048
 21
392.0442904954
  0
LINE
  5
224
100
AcDbEntity
  8
0
100
AcDbLine
 62
7
  6
CONTINUOUS
 10
139.3746728946
 20
388.4056364853
 11
137.0765758558
 21
386.1075394465
  0
LINE
  5
225
100
AcDbEntity
  8
0
100
AcDbLine
 62
7
  6
CONTINUOUS
 10
136.3105434182
 20
385.3415070089
 11
135.7360191585
 21
384.7669827491
  0
LINE
  5
226
100
AcDbEntity
  8
0
100
AcDbLine
 62
7
  6
CONTINUOUS
 10
133.0549060378
 20
382.0858696285
 11
132.4803817781
 21
381.5113453687
  0
LINE
  5
227
100
AcDbEntity
  8
0
100
AcDbLine
 62
7
  6
CONTINUOUS
 10
138.140056874
 20
386.1931069477
 11
139.9593838791
 21
388.0124339527
  0
LINE
  5
228
100
AcDbEntity
  8
0
100
AcDbLine
 62
7
  6
CONTINUOUS
 10
143.600075015
 20
391.4575423853
 11
144.1745992747
 21
392.032066645
  0
LINE
  5
229
100
AcDbEntity
  8
0
100
AcDbLine
 62
7
  6
CONTINUOUS
 10
145.2380802929
 20
392.1176341462
 11
145.8126045526
 21
392.6921584059
  0
LINE
  5
22A
100
AcDbEntity
  8
0
100
AcDbLine
 62
7
  6
CONTINUOUS
 10
145.5436784724
 20
390.6629874472
 11
144.9691542127
 21
390.0884631875
  0
LINE
  5
22B
100
AcDbEntity
  8
0
100
AcDbLine
 62
7
  6
CONTINUOUS
 10
141.4262544285
 20
386.5455634033
 11
139.6069274234
 21
384.7262363983
  0
LINE
  5
22C
100
AcDbEntity
  8
0
100
AcDbLine
 62
7
  6
CONTINUOUS
 10
140.1936755336
 20
384.1394882881
 11
141.8214940868
 21
385.7673068413
  0
LINE
  5
22D
100
AcDbEntity
  8
0
100
AcDbLine
 62
7
  6
CONTINUOUS
 10
145.5559023229
 20
389.5017150773
 11
146.1304265826
 21
390.0762393371
  0
LINE
  5
22E
100
AcDbEntity
  8
0
100
AcDbLine
 62
7
  6
CONTINUOUS
 10
145.38069211
 20
387.7618429634
 11
144.8061683982
 21
387.1873192516
  0
LINE
  5
22F
100
AcDbEntity
  8
0
100
AcDbLine
 62
7
  6
CONTINUOUS
 10
147.5972970635
 20
388.6093688561
 11
146.831264352
 21
387.8433361446
  0
LINE
  5
230
100
AcDbEntity
  8
0
100
AcDbLine
 62
7
  6
CONTINUOUS
 10
138.608640594
 20
378.4472160293
 11
139.3746728946
 21
379.2132483299
  0
LINE
  5
231
100
AcDbEntity
  8
0
100
AcDbLine
 62
7
  6
CONTINUOUS
 10
141.6727699335
 20
381.5113453687
 11
142.2472941932
 21
382.0858696285
  0
LINE
  5
232
100
AcDbEntity
  8
0
100
AcDbLine
 62
7
  6
CONTINUOUS
 10
144.641145458
 20
384.4797208932
 11
145.3114233957
 21
385.149998831
  0
LINE
  5
233
100
AcDbEntity
  8
0
100
AcDbLine
 62
7
  6
CONTINUOUS
 10
147.4180125306
 20
387.2565879659
 11
148.1840452422
 21
388.0226206774
  0
LINE
  5
234
100
AcDbEntity
  8
0
100
AcDbLine
 62
7
  6
CONTINUOUS
 10
171.8321892243
 20
395.7813351508
 11
171.4259392243
 21
395.5047393422
  0
LINE
  5
235
100
AcDbEntity
  8
0
100
AcDbLine
 62
7
  6
CONTINUOUS
 10
144.0686583241
 20
392.9040392113
 11
143.4920963907
 21
392.5230599813
  0
LINE
  5
236
100
AcDbEntity
  8
0
100
AcDbLine
 62
7
  6
CONTINUOUS
 10
139.9512342801
 20
388.7866151674
 11
139.3746728946
 21
388.4056364853
  0
LINE
  5
237
100
AcDbEntity
  8
0
100
AcDbLine
 62
7
  6
CONTINUOUS
 10
146.12023931
 20
391.0439655814
 11
145.5436784724
 21
390.6629874472
  0
LINE
  5
238
100
AcDbEntity
  8
0
100
AcDbLine
 62
7
  6
CONTINUOUS
 10
146.8414505887
 20
386.8756087444
 11
147.4180125306
 21
387.2565879659
  0
LINE
  5
239
100
AcDbEntity
  8
0
100
AcDbLine
 62
7
  6
CONTINUOUS
 10
146.1304265826
 20
390.0762393371
 11
146.6112337422
 21
390.3614637932
  0
LINE
  5
23A
100
AcDbEntity
  8
0
100
AcDbLine
 62
7
  6
CONTINUOUS
 10
145.0750940675
 20
389.2164895253
 11
145.5559023229
 21
389.5017150773
  0
LINE
  5
23B
100
AcDbEntity
  8
0
100
AcDbLine
 62
7
  6
CONTINUOUS
 10
146.831264352
 20
387.8433361446
 11
146.3504571924
 21
387.5581116884
  0
LINE
  5
23C
100
AcDbEntity
  8
0
100
AcDbLine
 62
7
  6
CONTINUOUS
 10
165.8738557618
 20
397.7175053265
 11
166.4155222993
 21
397.9941010382
  0
LINE
  5
23D
100
AcDbEntity
  8
0
100
AcDbLine
 62
7
  6
CONTINUOUS
 10
171.5613553744
 20
394.6749521224
 11
172.1030222993
 21
394.9515478704
  0
LINE
  5
23E
100
AcDbEntity
  8
0
100
AcDbLine
 62
7
  6
CONTINUOUS
 10
178.0613561493
 20
394.6749521224
 11
178.6030222993
 21
394.9515478704
  0
LINE
  5
23F
100
AcDbEntity
  8
0
100
AcDbLine
 62
7
  6
CONTINUOUS
 10
139.9593838791
 20
388.0124339527
 11
140.3444373606
 21
388.2019047309
  0
LINE
  5
240
100
AcDbEntity
  8
0
100
AcDbLine
 62
7
  6
CONTINUOUS
 10
144.9691542127
 20
390.0884631875
 11
144.5841007311
 21
389.8989924094
  0
LINE
  5
241
100
AcDbEntity
  8
0
100
AcDbLine
 62
7
  6
CONTINUOUS
 10
144.4964955562
 20
389.0290564209
 11
145.0750940675
 21
389.2164895253
  0
LINE
  5
242
100
AcDbEntity
  8
BEZUGSACHSEN
100
AcDbLine
 62
7
  6
CONTINUOUS
 10
114.076635988
 20
357.7850958847
 11
114.4276625512
 21
358.6325489743
  0
LINE
  5
243
100
AcDbEntity
  8
RUNDUNGEN
100
AcDbLine
 62
7
  6
CONTINUOUS
 10
114.4276625512
 20
358.6325489743
 11
129.2602506097
 21
394.4415842302
  0
LINE
  5
244
100
AcDbEntity
  8
0
100
AcDbLine
 62
7
  6
CONTINUOUS
 10
143.4106042368
 20
391.0724889037
 11
143.600075015
 21
391.4575423853
  0
LINE
  5
245
100
AcDbEntity
  8
0
100
AcDbLine
 62
7
  6
CONTINUOUS
 10
141.6157252066
 20
386.9306168849
 11
141.4262544285
 21
386.5455634033
  0
LINE
  5
246
100
AcDbEntity
  8
0
100
AcDbLine
 62
7
  6
CONTINUOUS
 10
143.0133269048
 20
392.0442904954
 11
142.7281013528
 21
391.5634822401
  0
LINE
  5
247
100
AcDbEntity
  8
0
100
AcDbLine
 62
7
  6
CONTINUOUS
 10
147.8825215197
 20
389.0901760157
 11
147.5972970635
 21
388.6093688561
  0
LINE
  5
248
100
AcDbEntity
  8
0
100
AcDbLine
 62
7
  6
CONTINUOUS
 10
148.1840452422
 20
388.0226206774
 11
148.5650233678
 21
388.5991815236
  0
LINE
  5
249
100
AcDbEntity
  8
0
100
AcDbLine
 62
7
  6
CONTINUOUS
 10
166.4155222993
 20
397.9941010382
 11
166.8217722993
 21
398.5472924616
  0
LINE
  5
24A
100
AcDbEntity
  8
0
100
AcDbLine
 62
7
  6
CONTINUOUS
 10
166.0092722993
 20
398.6855903174
 11
165.7384388369
 21
398.4089946057
  0
LINE
  5
24B
100
AcDbEntity
  8
0
100
AcDbLine
 62
7
  6
CONTINUOUS
 10
172.1030222993
 20
394.9515478704
 11
172.6446892243
 21
395.5047393422
  0
LINE
  5
24C
100
AcDbEntity
  8
0
100
AcDbLine
 62
7
  6
CONTINUOUS
 10
178.3321884494
 20
395.7813351508
 11
177.9259384494
 21
395.5047393422
  0
LINE
  5
24D
100
AcDbEntity
  8
BEZUGSACHSEN
100
AcDbLine
 62
7
  6
CONTINUOUS
 10
120.7488543611
 20
323.2866542544
 11
120.7488543611
 21
335.2866542544
  0
LINE
  5
24E
100
AcDbEntity
  8
0
100
AcDbLine
 62
7
  6
CONTINUOUS
 10
142.7281013528
 20
391.5634822401
 11
142.5406682483
 21
390.9848837288
  0
LINE
  5
24F
100
AcDbEntity
  8
0
100
AcDbLine
 62
7
  6
CONTINUOUS
 10
142.2004356431
 20
386.5374138044
 11
142.3878692955
 21
387.1160128636
  0
LINE
  5
250
100
AcDbEntity
  8
0
100
AcDbLine
 62
7
  6
CONTINUOUS
 10
148.5650233678
 20
388.5991815236
 11
148.7524575424
 21
389.1777811564
  0
LINE
  5
251
100
AcDbEntity
  8
0
100
AcDbLine
 62
7
  6
CONTINUOUS
 10
172.1030222993
 20
396.1962287184
 11
171.8321892243
 21
395.7813351508
  0
LINE
  5
252
100
AcDbEntity
  8
0
100
AcDbLine
 62
7
  6
CONTINUOUS
 10
178.6030222993
 20
396.1962287184
 11
178.3321884494
 21
395.7813351508
  0
LINE
  5
253
100
AcDbEntity
  8
0
100
AcDbLine
 62
7
  6
CONTINUOUS
 10
178.6030222993
 20
394.9515478704
 11
179.1446884494
 21
395.5047393422
  0
LINE
  5
254
100
AcDbEntity
  8
0
100
AcDbLine
 62
7
  6
CONTINUOUS
 10
143.3189248103
 20
390.5896440704
 11
143.4106042368
 21
391.0724889037
  0
LINE
  5
255
100
AcDbEntity
  8
0
100
AcDbLine
 62
7
  6
CONTINUOUS
 10
147.9742008777
 20
389.5730209174
 11
147.8825215197
 21
389.0901760157
  0
LINE
  5
256
100
AcDbEntity
  8
0
100
AcDbLine
 62
7
  6
CONTINUOUS
 10
166.1446888369
 20
399.100483885
 11
166.0092722993
 21
398.6855903174
  0
LINE
  5
257
100
AcDbEntity
  8
0
100
AcDbLine
 62
7
  6
CONTINUOUS
 10
166.8217722993
 20
398.5472924616
 11
166.9571888369
 21
398.9621860292
  0
LINE
  5
258
100
AcDbEntity
  8
0
100
AcDbLine
 62
7
  6
CONTINUOUS
 10
172.6446892243
 20
395.5047393422
 11
172.9155222993
 21
396.0579308625
  0
LINE
  5
259
100
AcDbEntity
  8
0
100
AcDbLine
 62
7
  6
CONTINUOUS
 10
179.1446884494
 20
395.5047393422
 11
179.4155222993
 21
396.0579308625
  0
LINE
  5
25A
100
AcDbEntity
  8
0
100
AcDbLine
 62
7
  6
CONTINUOUS
 10
198.6959800119
 20
385.492486174
 11
199.3869723424
 21
386.1834785045
  0
LINE
  5
25B
100
AcDbEntity
  8
0
100
AcDbLine
 62
7
  6
CONTINUOUS
 10
202.5774268554
 20
389.3739330176
 11
203.2684191859
 21
390.064925348
  0
LINE
  5
25C
100
AcDbEntity
  8
0
100
AcDbLine
 62
7
  6
CONTINUOUS
 10
204.0790268005
 20
383.9889139138
 11
204.770019131
 21
384.6799062443
  0
LINE
  5
25D
100
AcDbEntity
  8
0
100
AcDbLine
 62
7
  6
CONTINUOUS
 10
202.6059800119
 20
381.582486174
 11
203.2969723424
 21
382.2734785045
  0
LINE
  5
25E
100
AcDbEntity
  8
0
100
AcDbLine
 62
7
  6
CONTINUOUS
 10
206.4874268554
 20
385.4639330176
 11
207.1784191859
 21
386.154925348
  0
LINE
  5
25F
100
AcDbEntity
  8
BEZUGSACHSEN
100
AcDbLine
 62
7
  6
CONTINUOUS
 10
129.5430512121
 20
316.6626703797
 11
128.3930181737
 21
319.4358508574
  0
LINE
  5
260
100
AcDbEntity
  8
BEZUGSACHSEN
100
AcDbLine
 62
7
  6
CONTINUOUS
 10
120.737825596
 20
337.8955210595
 11
114.0774278101
 21
353.9563510511
  0
LINE
  5
261
100
AcDbEntity
  8
0
100
AcDbLine
 62
7
  6
CONTINUOUS
 10
141.6116504072
 20
387.3177074922
 11
141.6157252066
 21
386.9306168849
  0
LINE
  5
262
100
AcDbEntity
  8
0
100
AcDbLine
 62
7
  6
CONTINUOUS
 10
142.5406682483
 20
390.9848837288
 11
142.5488178472
 21
390.2107025141
  0
LINE
  5
263
100
AcDbEntity
  8
0
100
AcDbLine
 62
7
  6
CONTINUOUS
 10
148.7524575424
 20
389.1777811564
 11
148.7443079093
 21
389.9519624053
  0
LINE
  5
264
100
AcDbEntity
  8
KONSTRUKTIONSELEMENTE
100
AcDbLine
 62
7
  6
CONTINUOUS
 10
142.7488543611
 20
154.0866542544
 11
142.7488543611
 21
159.0866542544
  0
LINE
  5
265
100
AcDbEntity
  8
KONSTRUKTIONSELEMENTE
100
AcDbLine
 62
7
  6
CONTINUOUS
 10
144.1907419784
 20
152.0323771124
 11
144.1907419784
 21
134.3947666371
  0
LINE
  5
266
100
AcDbEntity
  8
KONSTRUKTIONSELEMENTE
100
AcDbLine
 62
7
  6
CONTINUOUS
 10
148.7488543611
 20
299.2866542544
 11
148.7488543611
 21
299.0866542544
  0
LINE
  5
267
100
AcDbEntity
  8
0
100
AcDbLine
 62
7
  6
CONTINUOUS
 10
153.2488543611
 20
339.3366542544
 11
153.2488543611
 21
342.3366542544
  0
LINE
  5
268
100
AcDbEntity
  8
KONSTRUKTIONSELEMENTE
100
AcDbLine
 62
7
  6
CONTINUOUS
 10
155.7488543611
 20
299.0866542544
 11
155.7488543611
 21
159.0866542544
  0
LINE
  5
269
100
AcDbEntity
  8
KONSTRUKTIONSELEMENTE
100
AcDbLine
 62
7
  6
CONTINUOUS
 10
155.7488543611
 20
124.0866542544
 11
155.7488543611
 21
111.5866542544
  0
LINE
  5
26A
100
AcDbEntity
  8
0
100
AcDbLine
 62
7
  6
CONTINUOUS
 10
156.6863543611
 20
309.5419734921
 11
156.6863543611
 21
308.2653776016
  0
LINE
  5
26B
100
AcDbEntity
  8
KONSTRUKTIONSELEMENTE
100
AcDbLine
 62
7
  6
CONTINUOUS
 10
157.4697981698
 20
152.0323771124
 11
157.4697981698
 21
134.3947666371
  0
LINE
  5
26C
100
AcDbEntity
  8
0
100
AcDbLine
 62
7
  6
CONTINUOUS
 10
172.9155222993
 20
396.0579308625
 11
173.0509392243
 21
396.7494201418
  0
LINE
  5
26D
100
AcDbEntity
  8
0
100
AcDbLine
 62
7
  6
CONTINUOUS
 10
172.2384392243
 20
396.7494201418
 11
172.1030222993
 21
396.1962287184
  0
LINE
  5
26E
100
AcDbEntity
  8
0
100
AcDbLine
 62
7
  6
CONTINUOUS
 10
178.7384384494
 20
396.7494201418
 11
178.6030222993
 21
396.1962287184
  0
LINE
  5
26F
100
AcDbEntity
  8
0
100
AcDbLine
 62
7
  6
CONTINUOUS
 10
161.6863543611
 20
315.2866542544
 11
156.6863543611
 21
309.5419734921
  0
LINE
  5
270
100
AcDbEntity
  8
0
100
AcDbLine
 62
7
  6
CONTINUOUS
 10
142.3878692955
 20
387.1160128636
 11
142.2839660186
 21
387.7944404002
  0
LINE
  5
271
100
AcDbEntity
  8
0
100
AcDbLine
 62
7
  6
CONTINUOUS
 10
161.0493698387
 20
337.3366542544
 11
161.0493698387
 21
327.7482431841
  0
LINE
  5
272
100
AcDbEntity
  8
0
100
AcDbLine
 62
7
  6
CONTINUOUS
 10
161.6863543611
 20
313.5845267977
 11
161.6863543611
 21
309.5419734921
  0
LINE
  5
273
100
AcDbEntity
  8
0
100
AcDbLine
 62
7
  6
CONTINUOUS
 10
161.6863543611
 20
308.2653776016
 11
161.6863543611
 21
305.2866542544
  0
LINE
  5
274
100
AcDbEntity
  8
BEZUGSACHSEN
100
AcDbLine
 62
7
  6
CONTINUOUS
 10
161.8586915272
 20
337.3366542544
 11
161.8586915272
 21
327.6478937015
  0
LINE
  5
275
100
AcDbEntity
  8
0
100
AcDbLine
 62
7
  6
CONTINUOUS
 10
161.9467722993
 20
401.0366542544
 11
161.9467722993
 21
394.5366542544
  0
LINE
  5
276
100
AcDbEntity
  8
0
100
AcDbLine
 62
7
  6
CONTINUOUS
 10
162.7592722993
 20
394.5366542544
 11
162.7592722993
 21
397.4409096148
  0
LINE
  5
277
100
AcDbEntity
  8
0
100
AcDbLine
 62
7
  6
CONTINUOUS
 10
162.7592722993
 20
398.2706967499
 11
162.7592722993
 21
400.3451649751
  0
LINE
  5
278
100
AcDbEntity
  8
0
100
AcDbLine
 62
7
  6
CONTINUOUS
 10
162.9363543611
 20
305.2866542544
 11
162.9363543611
 21
308.2653776016
  0
LINE
  5
279
100
AcDbEntity
  8
0
100
AcDbLine
 62
7
  6
CONTINUOUS
 10
162.9363543611
 20
309.5419734921
 11
162.9363543611
 21
315.2866542544
  0
LINE
  5
27A
100
AcDbEntity
  8
0
100
AcDbLine
 62
7
  6
CONTINUOUS
 10
164.4988543611
 20
344.3366542544
 11
164.4988543611
 21
344.6366542544
  0
LINE
  5
27B
100
AcDbEntity
  8
0
100
AcDbLine
 62
7
  6
CONTINUOUS
 10
165.0196874958
 20
308.2653776016
 11
165.0196874958
 21
309.5419734921
  0
LINE
  5
27C
100
AcDbEntity
  8
BEZUGSACHSEN
100
AcDbLine
 62
7
  6
CONTINUOUS
 10
165.0897904115
 20
337.3366542544
 11
165.0897904115
 21
327.331566281
  0
LINE
  5
27D
100
AcDbEntity
  8
0
100
AcDbLine
 62
7
  6
CONTINUOUS
 10
165.8991120999
 20
337.3366542544
 11
165.8991120999
 21
327.2779787208
  0
LINE
  5
27E
100
AcDbEntity
  8
0
100
AcDbLine
 62
7
  6
CONTINUOUS
 10
166.1446888369
 20
399.51537784
 11
166.1446888369
 21
399.100483885
  0
LINE
  5
27F
100
AcDbEntity
  8
0
100
AcDbLine
 62
7
  6
CONTINUOUS
 10
166.9571888369
 20
398.9621860292
 11
166.9571888369
 21
399.51537784
  0
LINE
  5
280
100
AcDbEntity
  8
BEZUGSACHSEN
100
AcDbLine
 62
7
  6
CONTINUOUS
 10
167.5177554768
 20
337.3366542544
 11
167.5177554768
 21
327.1923820402
  0
LINE
  5
281
100
AcDbEntity
  8
0
100
AcDbLine
 62
7
  6
CONTINUOUS
 10
168.1759388369
 20
401.0366542544
 11
168.1759388369
 21
396.7494201418
  0
LINE
  5
282
100
AcDbEntity
  8
0
100
AcDbLine
 62
7
  6
CONTINUOUS
 10
168.9884392243
 20
396.7494201418
 11
168.9884392243
 21
401.0366542544
  0
LINE
  5
283
100
AcDbEntity
  8
0
100
AcDbLine
 62
7
  6
CONTINUOUS
 10
170.6446880918
 20
315.2866542544
 11
170.6446880918
 21
309.7547394242
  0
LINE
  5
284
100
AcDbEntity
  8
0
100
AcDbLine
 62
7
  6
CONTINUOUS
 10
170.7488543611
 20
344.3366542544
 11
170.7488543611
 21
344.6366542544
  0
LINE
  5
285
100
AcDbEntity
  8
0
100
AcDbLine
 62
7
  6
CONTINUOUS
 10
171.6863543611
 20
310.8185690846
 11
171.6863543611
 21
314.222824594
  0
LINE
  5
286
100
AcDbEntity
  8
0
100
AcDbLine
 62
7
  6
CONTINUOUS
 10
172.2384392243
 20
401.0366542544
 11
172.2384392243
 21
396.7494201418
  0
LINE
  5
287
100
AcDbEntity
  8
0
100
AcDbLine
 62
7
  6
CONTINUOUS
 10
179.4155222993
 20
396.0579308625
 11
179.5509384494
 21
396.7494201418
  0
LINE
  5
288
100
AcDbEntity
  8
0
100
AcDbLine
 62
7
  6
CONTINUOUS
 10
167.9363543611
 20
306.3504840638
 11
166.6863543611
 21
304.0100585129
  0
LINE
  5
289
100
AcDbEntity
  8
0
100
AcDbLine
 62
7
  6
CONTINUOUS
 10
167.7280206304
 20
304.0100585129
 11
168.9780206304
 21
306.3504840638
  0
LINE
  5
28A
100
AcDbEntity
  8
0
100
AcDbLine
 62
7
  6
CONTINUOUS
 10
158.1446876448
 20
309.5419734921
 11
161.6863543611
 21
313.5845267977
  0
LINE
  5
28B
100
AcDbEntity
  8
0
100
AcDbLine
 62
7
  6
CONTINUOUS
 10
172.1030206304
 20
309.7547394242
 11
172.9363543611
 21
310.3930372204
  0
LINE
  5
28C
100
AcDbEntity
  8
0
100
AcDbLine
 62
7
  6
CONTINUOUS
 10
176.4780206304
 20
306.9887818601
 11
175.8530206304
 21
306.5632499959
  0
LINE
  5
28D
100
AcDbEntity
  8
0
100
AcDbLine
 62
7
  6
CONTINUOUS
 10
172.7280206304
 20
311.4568668809
 11
171.6863543611
 21
310.8185690846
  0
LINE
  5
28E
100
AcDbEntity
  8
0
100
AcDbLine
 62
7
  6
CONTINUOUS
 10
176.0613543611
 20
305.4994202051
 11
177.1030218225
 21
306.1377180572
  0
LINE
  5
28F
100
AcDbEntity
  8
0
100
AcDbLine
 62
7
  6
CONTINUOUS
 10
175.8530206304
 20
306.5632499959
 11
175.0196880918
 21
306.3504840638
  0
LINE
  5
290
100
AcDbEntity
  8
0
100
AcDbLine
 62
7
  6
CONTINUOUS
 10
175.0196880918
 20
305.2866542544
 11
176.0613543611
 21
305.4994202051
  0
LINE
  5
291
100
AcDbEntity
  8
KONSTRUKTIONSELEMENTE
100
AcDbLine
 62
7
  6
CONTINUOUS
 10
148.7488543611
 20
299.0866542544
 11
192.7488543611
 21
299.0866542544
  0
LINE
  5
292
100
AcDbEntity
  8
BEZUGSACHSEN
100
AcDbLine
 62
7
  6
CONTINUOUS
 10
203.7487906785
 20
299.2866542544
 11
137.7489180454
 21
299.2866542544
  0
LINE
  5
293
100
AcDbEntity
  8
0
100
AcDbLine
 62
7
  6
CONTINUOUS
 10
166.6863543611
 20
304.0100585129
 11
167.7280206304
 21
304.0100585129
  0
LINE
  5
294
100
AcDbEntity
  8
0
100
AcDbLine
 62
7
  6
CONTINUOUS
 10
161.6863543611
 20
305.2866542544
 11
162.9363543611
 21
305.2866542544
  0
LINE
  5
295
100
AcDbEntity
  8
0
100
AcDbLine
 62
7
  6
CONTINUOUS
 10
173.7696880918
 20
305.2866542544
 11
175.0196880918
 21
305.2866542544
  0
LINE
  5
296
100
AcDbEntity
  8
0
100
AcDbLine
 62
7
  6
CONTINUOUS
 10
172.7280206304
 20
305.4994202051
 11
173.7696880918
 21
305.2866542544
  0
LINE
  5
297
100
AcDbEntity
  8
0
100
AcDbLine
 62
7
  6
CONTINUOUS
 10
171.0613543611
 20
306.9887818601
 11
171.6863543611
 21
306.1377180572
  0
LINE
  5
298
100
AcDbEntity
  8
0
100
AcDbLine
 62
7
  6
CONTINUOUS
 10
170.6446880918
 20
307.8398457374
 11
171.0613543611
 21
306.9887818601
  0
LINE
  5
299
100
AcDbEntity
  8
0
100
AcDbLine
 62
7
  6
CONTINUOUS
 10
147.8723352744
 20
390.0579034244
 11
147.9742008777
 21
389.5730209174
  0
LINE
  5
29A
100
AcDbEntity
  8
0
100
AcDbLine
 62
7
  6
CONTINUOUS
 10
173.0509392243
 20
396.7494201418
 11
173.0509392243
 21
401.0366542544
  0
LINE
  5
29B
100
AcDbEntity
  8
BEZUGSACHSEN
100
AcDbLine
 62
7
  6
CONTINUOUS
 10
173.9799532454
 20
337.3366542544
 11
173.9799532454
 21
327.1923825431
  0
LINE
  5
29C
100
AcDbEntity
  8
0
100
AcDbLine
 62
7
  6
CONTINUOUS
 10
174.1342722993
 20
401.0366542544
 11
174.1342722993
 21
394.5366542544
  0
LINE
  5
29D
100
AcDbEntity
  8
0
100
AcDbLine
 62
7
  6
CONTINUOUS
 10
174.9467722993
 20
395.3664414864
 11
174.9467722993
 21
400.2068671193
  0
LINE
  5
29E
100
AcDbEntity
  8
0
100
AcDbLine
 62
7
  6
CONTINUOUS
 10
175.5985966223
 20
337.3366542544
 11
175.5985966223
 21
327.2779787717
  0
LINE
  5
29F
100
AcDbEntity
  8
BEZUGSACHSEN
100
AcDbLine
 62
7
  6
CONTINUOUS
 10
176.4079183108
 20
337.3366542544
 11
176.4079183108
 21
327.3315673329
  0
LINE
  5
2A0
100
AcDbEntity
  8
0
100
AcDbLine
 62
7
  6
CONTINUOUS
 10
176.9988543611
 20
344.3366542544
 11
176.9988543611
 21
344.6366542544
  0
LINE
  5
2A1
100
AcDbEntity
  8
0
100
AcDbLine
 62
7
  6
CONTINUOUS
 10
177.1030218225
 20
308.6909094657
 11
177.1030218225
 21
308.2653776016
  0
LINE
  5
2A2
100
AcDbEntity
  8
0
100
AcDbLine
 62
7
  6
CONTINUOUS
 10
177.7280218225
 20
314.222824594
 11
177.7280218225
 21
315.2866542544
  0
LINE
  5
2A3
100
AcDbEntity
  8
0
100
AcDbLine
 62
7
  6
CONTINUOUS
 10
178.1446868997
 20
308.0526116695
 11
178.1446868997
 21
308.9036753978
  0
LINE
  5
2A4
100
AcDbEntity
  8
0
100
AcDbLine
 62
7
  6
CONTINUOUS
 10
178.7384384494
 20
398.8238881733
 11
178.7384384494
 21
396.7494201418
  0
LINE
  5
2A5
100
AcDbEntity
  8
0
100
AcDbLine
 62
7
  6
CONTINUOUS
 10
179.5509384494
 20
396.7494201418
 11
179.5509384494
 21
398.8238881733
  0
LINE
  5
2A6
100
AcDbEntity
  8
BEZUGSACHSEN
100
AcDbLine
 62
7
  6
CONTINUOUS
 10
179.639017195
 20
337.3366542544
 11
179.639017195
 21
327.6478938238
  0
LINE
  5
2A7
100
AcDbEntity
  8
0
100
AcDbLine
 62
7
  6
CONTINUOUS
 10
179.8113543611
 20
312.0951646771
 11
179.8113543611
 21
311.2441009488
  0
LINE
  5
2A8
100
AcDbEntity
  8
0
100
AcDbLine
 62
7
  6
CONTINUOUS
 10
180.4483388835
 20
337.3366542544
 11
180.4483388835
 21
327.7482439879
  0
LINE
  5
2A9
100
AcDbEntity
  8
0
100
AcDbLine
 62
7
  6
CONTINUOUS
 10
181.4780218225
 20
313.7972927298
 11
181.4780218225
 21
312.0951646771
  0
LINE
  5
2AA
100
AcDbEntity
  8
0
100
AcDbLine
 62
7
  6
CONTINUOUS
 10
181.4780218225
 20
311.2441009488
 11
181.4780218225
 21
306.9887818601
  0
LINE
  5
2AB
100
AcDbEntity
  8
0
100
AcDbLine
 62
7
  6
CONTINUOUS
 10
182.5196868997
 20
307.4143138733
 11
182.5196868997
 21
311.2441009488
  0
LINE
  5
2AC
100
AcDbEntity
  8
0
100
AcDbLine
 62
7
  6
CONTINUOUS
 10
182.5196868997
 20
312.0951646771
 11
182.5196868997
 21
313.7972927298
  0
LINE
  5
2AD
100
AcDbEntity
  8
KONSTRUKTIONSELEMENTE
100
AcDbLine
 62
7
  6
CONTINUOUS
 10
184.0279105525
 20
152.0323771124
 11
184.0279105525
 21
134.3947666371
  0
LINE
  5
2AE
100
AcDbEntity
  8
0
100
AcDbLine
 62
7
  6
CONTINUOUS
 10
184.3946868997
 20
305.2866542544
 11
184.3946868997
 21
306.1377180572
  0
LINE
  5
2AF
100
AcDbEntity
  8
0
100
AcDbLine
 62
7
  6
CONTINUOUS
 10
184.8113543611
 20
311.2441009488
 11
184.8113543611
 21
312.0951646771
  0
LINE
  5
2B0
100
AcDbEntity
  8
KONSTRUKTIONSELEMENTE
100
AcDbLine
 62
7
  6
CONTINUOUS
 10
185.7488543611
 20
299.0866542544
 11
185.7488543611
 21
159.0866542544
  0
LINE
  5
2B1
100
AcDbEntity
  8
KONSTRUKTIONSELEMENTE
100
AcDbLine
 62
7
  6
CONTINUOUS
 10
185.7488543611
 20
124.0866542544
 11
185.7488543611
 21
111.5866542544
  0
LINE
  5
2B2
100
AcDbEntity
  8
0
100
AcDbLine
 62
7
  6
CONTINUOUS
 10
177.1030218225
 20
308.2653776016
 11
176.8946868997
 21
307.6270798053
  0
LINE
  5
2B3
100
AcDbEntity
  8
0
100
AcDbLine
 62
7
  6
CONTINUOUS
 10
177.7280218225
 20
306.9887818601
 11
178.1446868997
 21
308.0526116695
  0
LINE
  5
2B4
100
AcDbEntity
  8
0
100
AcDbLine
 62
7
  6
CONTINUOUS
 10
176.8946868997
 20
307.6270798053
 11
176.4780206304
 21
306.9887818601
  0
LINE
  5
2B5
100
AcDbEntity
  8
0
100
AcDbLine
 62
7
  6
CONTINUOUS
 10
177.1030218225
 20
306.1377180572
 11
177.7280218225
 21
306.9887818601
  0
LINE
  5
2B6
100
AcDbEntity
  8
0
100
AcDbLine
 62
7
  6
CONTINUOUS
 10
172.9363543611
 20
310.3930372204
 11
173.7696880918
 21
310.6058031525
  0
LINE
  5
2B7
100
AcDbEntity
  8
0
100
AcDbLine
 62
7
  6
CONTINUOUS
 10
173.7696880918
 20
311.6696328129
 11
172.7280206304
 21
311.4568668809
  0
LINE
  5
2B8
100
AcDbEntity
  8
0
100
AcDbLine
 62
7
  6
CONTINUOUS
 10
175.0196880918
 20
306.3504840638
 11
173.7696880918
 21
306.3504840638
  0
LINE
  5
2B9
100
AcDbEntity
  8
0
100
AcDbLine
 62
7
  6
CONTINUOUS
 10
168.9780206304
 20
306.3504840638
 11
167.9363543611
 21
306.3504840638
  0
LINE
  5
2BA
100
AcDbEntity
  8
0
100
AcDbLine
 62
7
  6
CONTINUOUS
 10
171.8946880918
 20
307.8398457374
 11
170.6446880918
 21
307.8398457374
  0
LINE
  5
2BB
100
AcDbEntity
  8
0
100
AcDbLine
 62
7
  6
CONTINUOUS
 10
156.6863543611
 20
308.2653776016
 11
161.6863543611
 21
308.2653776016
  0
LINE
  5
2BC
100
AcDbEntity
  8
0
100
AcDbLine
 62
7
  6
CONTINUOUS
 10
162.9363543611
 20
308.2653776016
 11
165.0196874958
 21
308.2653776016
  0
LINE
  5
2BD
100
AcDbEntity
  8
0
100
AcDbLine
 62
7
  6
CONTINUOUS
 10
165.0196874958
 20
309.5419734921
 11
162.9363543611
 21
309.5419734921
  0
LINE
  5
2BE
100
AcDbEntity
  8
0
100
AcDbLine
 62
7
  6
CONTINUOUS
 10
161.6863543611
 20
309.5419734921
 11
158.1446876448
 21
309.5419734921
  0
LINE
  5
2BF
100
AcDbEntity
  8
0
100
AcDbLine
 62
7
  6
CONTINUOUS
 10
170.6446880918
 20
309.7547394242
 11
172.1030206304
 21
309.7547394242
  0
LINE
  5
2C0
100
AcDbEntity
  8
0
100
AcDbLine
 62
7
  6
CONTINUOUS
 10
173.7696880918
 20
310.6058031525
 11
175.0196880918
 21
310.6058031525
  0
LINE
  5
2C1
100
AcDbEntity
  8
0
100
AcDbLine
 62
7
  6
CONTINUOUS
 10
179.8113543611
 20
311.2441009488
 11
181.4780218225
 21
311.2441009488
  0
LINE
  5
2C2
100
AcDbEntity
  8
0
100
AcDbLine
 62
7
  6
CONTINUOUS
 10
182.5196868997
 20
311.2441009488
 11
184.8113543611
 21
311.2441009488
  0
LINE
  5
2C3
100
AcDbEntity
  8
0
100
AcDbLine
 62
7
  6
CONTINUOUS
 10
175.0196880918
 20
311.6696328129
 11
173.7696880918
 21
311.6696328129
  0
LINE
  5
2C4
100
AcDbEntity
  8
0
100
AcDbLine
 62
7
  6
CONTINUOUS
 10
184.8113543611
 20
312.0951646771
 11
182.5196868997
 21
312.0951646771
  0
LINE
  5
2C5
100
AcDbEntity
  8
0
100
AcDbLine
 62
7
  6
CONTINUOUS
 10
181.4780218225
 20
312.0951646771
 11
179.8113543611
 21
312.0951646771
  0
LINE
  5
2C6
100
AcDbEntity
  8
0
100
AcDbLine
 62
7
  6
CONTINUOUS
 10
182.5196868997
 20
313.7972927298
 11
181.4780218225
 21
313.7972927298
  0
LINE
  5
2C7
100
AcDbEntity
  8
0
100
AcDbLine
 62
7
  6
CONTINUOUS
 10
171.6863543611
 20
314.222824594
 11
177.7280218225
 21
314.222824594
  0
LINE
  5
2C8
100
AcDbEntity
  8
0
100
AcDbLine
 62
7
  6
CONTINUOUS
 10
177.7280218225
 20
315.2866542544
 11
170.6446880918
 21
315.2866542544
  0
LINE
  5
2C9
100
AcDbEntity
  8
0
100
AcDbLine
 62
7
  6
CONTINUOUS
 10
162.9363543611
 20
315.2866542544
 11
161.6863543611
 21
315.2866542544
  0
LINE
  5
2CA
100
AcDbEntity
  8
0
100
AcDbLine
 62
7
  6
CONTINUOUS
 10
122.7488543611
 20
321.2866542544
 11
125.6218546694
 21
321.2866542544
  0
LINE
  5
2CB
100
AcDbEntity
  8
0
100
AcDbLine
 62
7
  6
CONTINUOUS
 10
215.8758540528
 20
321.2866542544
 11
218.7488543611
 21
321.2866542544
  0
LINE
  5
2CC
100
AcDbEntity
  8
0
100
AcDbLine
 62
7
  6
CONTINUOUS
 10
183.1446868997
 20
305.4994202051
 11
184.3946868997
 21
305.2866542544
  0
LINE
  5
2CD
100
AcDbEntity
  8
0
100
AcDbLine
 62
7
  6
CONTINUOUS
 10
184.3946868997
 20
306.1377180572
 11
183.3530218225
 21
306.3504840638
  0
LINE
  5
2CE
100
AcDbEntity
  8
0
100
AcDbLine
 62
7
  6
CONTINUOUS
 10
176.0613543611
 20
311.4568668809
 11
175.0196880918
 21
311.6696328129
  0
LINE
  5
2CF
100
AcDbEntity
  8
0
100
AcDbLine
 62
7
  6
CONTINUOUS
 10
173.7696880918
 20
306.3504840638
 11
172.9363543611
 21
306.5632499959
  0
LINE
  5
2D0
100
AcDbEntity
  8
0
100
AcDbLine
 62
7
  6
CONTINUOUS
 10
175.0196880918
 20
310.6058031525
 11
175.8530206304
 21
310.3930372204
  0
LINE
  5
2D1
100
AcDbEntity
  8
0
100
AcDbLine
 62
7
  6
CONTINUOUS
 10
182.5196868997
 20
305.7121861558
 11
183.1446868997
 21
305.4994202051
  0
LINE
  5
2D2
100
AcDbEntity
  8
0
100
AcDbLine
 62
7
  6
CONTINUOUS
 10
171.6863543611
 20
306.1377180572
 11
172.7280206304
 21
305.4994202051
  0
LINE
  5
2D3
100
AcDbEntity
  8
0
100
AcDbLine
 62
7
  6
CONTINUOUS
 10
177.1030218225
 20
310.8185690846
 11
176.0613543611
 21
311.4568668809
  0
LINE
  5
2D4
100
AcDbEntity
  8
0
100
AcDbLine
 62
7
  6
CONTINUOUS
 10
172.9363543611
 20
306.5632499959
 11
172.3113543611
 21
306.9887818601
  0
LINE
  5
2D5
100
AcDbEntity
  8
0
100
AcDbLine
 62
7
  6
CONTINUOUS
 10
181.8946868997
 20
306.1377180572
 11
182.5196868997
 21
305.7121861558
  0
LINE
  5
2D6
100
AcDbEntity
  8
0
100
AcDbLine
 62
7
  6
CONTINUOUS
 10
175.8530206304
 20
310.3930372204
 11
176.4780206304
 21
309.9675053563
  0
LINE
  5
2D7
100
AcDbEntity
  8
0
100
AcDbLine
 62
7
  6
CONTINUOUS
 10
183.3530218225
 20
306.3504840638
 11
182.7280218225
 21
306.776015928
  0
LINE
  5
2D8
100
AcDbEntity
  8
0
100
AcDbLine
 62
7
  6
CONTINUOUS
 10
177.7280218225
 20
309.9675053563
 11
177.1030218225
 21
310.8185690846
  0
LINE
  5
2D9
100
AcDbEntity
  8
0
100
AcDbLine
 62
7
  6
CONTINUOUS
 10
176.4780206304
 20
309.9675053563
 11
176.8946868997
 21
309.32920756
  0
LINE
  5
2DA
100
AcDbEntity
  8
0
100
AcDbLine
 62
7
  6
CONTINUOUS
 10
141.414030578
 20
387.7068357732
 11
141.6116504072
 21
387.3177074922
  0
LINE
  5
2DB
100
AcDbEntity
  8
0
100
AcDbLine
 62
7
  6
CONTINUOUS
 10
142.2839660186
 20
387.7944404002
 11
142.0863461894
 21
388.1835686812
  0
LINE
  5
2DC
100
AcDbEntity
  8
0
100
AcDbLine
 62
7
  6
CONTINUOUS
 10
143.5165443656
 20
390.2005149676
 11
143.3189248103
 21
390.5896440704
  0
LINE
  5
2DD
100
AcDbEntity
  8
0
100
AcDbLine
 62
7
  6
CONTINUOUS
 10
139.3746728946
 20
379.2132483299
 11
136.3105434182
 21
385.3415070089
  0
LINE
  5
2DE
100
AcDbEntity
  8
0
100
AcDbLine
 62
7
  6
CONTINUOUS
 10
135.7360191585
 20
384.7669827491
 11
138.4049084972
 21
379.4169802898
  0
LINE
  5
2DF
100
AcDbEntity
  8
0
100
AcDbLine
 62
7
  6
CONTINUOUS
 10
172.3113543611
 20
306.9887818601
 11
171.8946880918
 21
307.8398457374
  0
LINE
  5
2E0
100
AcDbEntity
  8
0
100
AcDbLine
 62
7
  6
CONTINUOUS
 10
181.4780218225
 20
306.9887818601
 11
181.8946868997
 21
306.1377180572
  0
LINE
  5
2E1
100
AcDbEntity
  8
0
100
AcDbLine
 62
7
  6
CONTINUOUS
 10
178.1446868997
 20
308.9036753978
 11
177.7280218225
 21
309.9675053563
  0
LINE
  5
2E2
100
AcDbEntity
  8
0
100
AcDbLine
 62
7
  6
CONTINUOUS
 10
148.7443079093
 20
389.9519624053
 11
148.5446508858
 21
390.5346363324
  0
LINE
  5
2E3
100
AcDbEntity
  8
0
100
AcDbLine
 62
7
  6
CONTINUOUS
 10
176.8946868997
 20
309.32920756
 11
177.1030218225
 21
308.6909094657
  0
LINE
  5
2E4
100
AcDbEntity
  8
0
100
AcDbLine
 62
7
  6
CONTINUOUS
 10
182.7280218225
 20
306.776015928
 11
182.5196868997
 21
307.4143138733
  0
LINE
  5
2E5
100
AcDbEntity
  8
0
100
AcDbLine
 62
7
  6
CONTINUOUS
 10
168.1759388369
 20
396.7494201418
 11
168.3113557618
 21
396.0579308625
  0
LINE
  5
2E6
100
AcDbEntity
  8
KONSTRUKTIONSELEMENTE
100
AcDbLine
 62
7
  6
CONTINUOUS
 10
192.7488543611
 20
299.2866542544
 11
192.7488543611
 21
299.0866542544
  0
LINE
  5
2E7
100
AcDbEntity
  8
KONSTRUKTIONSELEMENTE
100
AcDbLine
 62
7
  6
CONTINUOUS
 10
197.3069667438
 20
152.0323771124
 11
197.3069667438
 21
134.3947666371
  0
LINE
  5
2E8
100
AcDbEntity
  8
KONSTRUKTIONSELEMENTE
100
AcDbLine
 62
7
  6
CONTINUOUS
 10
198.7488543611
 20
154.0866542544
 11
198.7488543611
 21
159.0866542544
  0
LINE
  5
2E9
100
AcDbEntity
  8
0
100
AcDbLine
 62
7
  6
CONTINUOUS
 10
142.5488178472
 20
390.2107025141
 11
142.8442284802
 21
389.7237823335
  0
LINE
  5
2EA
100
AcDbEntity
  8
0
100
AcDbLine
 62
7
  6
CONTINUOUS
 10
167.0926057618
 20
394.5366542544
 11
165.8738557618
 21
397.7175053265
  0
LINE
  5
2EB
100
AcDbEntity
  8
0
100
AcDbLine
 62
7
  6
CONTINUOUS
 10
165.0613555681
 20
397.4409096148
 11
166.1446888369
 21
394.5366542544
  0
LINE
  5
2EC
100
AcDbEntity
  8
0
100
AcDbLine
 62
7
  6
CONTINUOUS
 10
166.0092722993
 20
399.9302714076
 11
166.1446888369
 21
399.51537784
  0
LINE
  5
2ED
100
AcDbEntity
  8
0
100
AcDbLine
 62
7
  6
CONTINUOUS
 10
166.9571888369
 20
399.51537784
 11
166.8217722993
 21
399.9302714076
  0
LINE
  5
2EE
100
AcDbEntity
  8
0
100
AcDbLine
 62
7
  6
CONTINUOUS
 10
169.1238553744
 20
396.1962287184
 11
168.9884392243
 21
396.7494201418
  0
LINE
  5
2EF
100
AcDbEntity
  8
0
100
AcDbLine
 62
7
  6
CONTINUOUS
 10
178.6030222993
 20
399.3770795967
 11
178.7384384494
 21
398.8238881733
  0
LINE
  5
2F0
100
AcDbEntity
  8
0
100
AcDbLine
 62
7
  6
CONTINUOUS
 10
179.5509384494
 20
398.8238881733
 11
179.4155222993
 21
399.51537784
  0
LINE
  5
2F1
100
AcDbEntity
  8
BEZUGSACHSEN
100
AcDbLine
 62
7
  6
CONTINUOUS
 10
227.4202809122
 20
353.9563510511
 11
223.4310096678
 21
344.3366542544
  0
LINE
  5
2F2
100
AcDbEntity
  8
BEZUGSACHSEN
100
AcDbLine
 62
7
  6
CONTINUOUS
 10
213.1046905485
 20
319.4358508574
 11
211.9546575101
 21
316.6626703797
  0
LINE
  5
2F3
100
AcDbEntity
  8
RUNDUNGEN
100
AcDbLine
 62
7
  6
CONTINUOUS
 10
231.2488543611
 20
337.3366542544
 11
155.2491123424
 21
337.3366542544
  0
LINE
  5
2F4
100
AcDbEntity
  8
RUNDUNGEN
100
AcDbLine
 62
7
  6
CONTINUOUS
 10
155.2491123424
 20
344.3366542544
 11
231.2488543611
 21
344.3366542544
  0
LINE
  5
2F5
100
AcDbEntity
  8
0
100
AcDbLine
 62
7
  6
CONTINUOUS
 10
164.4988543611
 20
344.6366542544
 11
176.9988543611
 21
344.6366542544
  0
LINE
  5
2F6
100
AcDbEntity
  8
0
100
AcDbLine
 62
7
  6
CONTINUOUS
 10
137.0765758558
 20
386.1075394465
 11
141.6727699335
 21
381.5113453687
  0
LINE
  5
2F7
100
AcDbEntity
  8
0
100
AcDbLine
 62
7
  6
CONTINUOUS
 10
142.2472941932
 20
382.0858696285
 11
140.1936755336
 21
384.1394882881
  0
LINE
  5
2F8
100
AcDbEntity
  8
0
100
AcDbLine
 62
7
  6
CONTINUOUS
 10
139.6069274234
 20
384.7262363983
 11
138.140056874
 21
386.1931069477
  0
LINE
  5
2F9
100
AcDbEntity
  8
0
100
AcDbLine
 62
7
  6
CONTINUOUS
 10
141.120656249
 20
388.0002101023
 11
141.414030578
 21
387.7068357732
  0
LINE
  5
2FA
100
AcDbEntity
  8
0
100
AcDbLine
 62
7
  6
CONTINUOUS
 10
142.0863461894
 20
388.1835686812
 11
141.6951805087
 21
388.574734362
  0
LINE
  5
2FB
100
AcDbEntity
  8
0
100
AcDbLine
 62
7
  6
CONTINUOUS
 10
142.8442284802
 20
389.7237823335
 11
143.2353941609
 21
389.3326166528
  0
LINE
  5
2FC
100
AcDbEntity
  8
0
100
AcDbLine
 62
7
  6
CONTINUOUS
 10
143.712127069
 20
390.0049322642
 11
143.5165443656
 21
390.2005149676
  0
LINE
  5
2FD
100
AcDbEntity
  8
0
100
AcDbLine
 62
7
  6
CONTINUOUS
 10
147.5789612193
 20
390.3512774795
 11
147.8723352744
 21
390.0579034244
  0
LINE
  5
2FE
100
AcDbEntity
  8
0
100
AcDbLine
 62
7
  6
CONTINUOUS
 10
148.5446508858
 20
390.5346363324
 11
148.0556941273
 21
391.0235930909
  0
LINE
  5
2FF
100
AcDbEntity
  8
0
100
AcDbLine
 62
7
  6
CONTINUOUS
 10
168.3113557618
 20
396.0579308625
 11
168.5821892243
 21
395.5047393422
  0
LINE
  5
300
100
AcDbEntity
  8
BEZUGSACHSEN
100
AcDbLine
 62
7
  6
CONTINUOUS
 10
220.7488543611
 20
335.2866542544
 11
220.7488543611
 21
323.2866542544
  0
LINE
  5
301
100
AcDbEntity
  8
RUNDUNGEN
100
AcDbLine
 62
7
  6
CONTINUOUS
 10
233.2488543611
 20
342.3366542544
 11
233.2488543611
 21
339.3366542544
  0
LINE
  5
302
100
AcDbEntity
  8
0
100
AcDbLine
 62
7
  6
CONTINUOUS
 10
141.8214940868
 20
385.7673068413
 11
144.641145458
 21
384.4797208932
  0
LINE
  5
303
100
AcDbEntity
  8
0
100
AcDbLine
 62
7
  6
CONTINUOUS
 10
138.4049084972
 20
379.4169802898
 11
133.0549060378
 21
382.0858696285
  0
LINE
  5
304
100
AcDbEntity
  8
0
100
AcDbLine
 62
7
  6
CONTINUOUS
 10
132.4803817781
 20
381.5113453687
 11
138.608640594
 21
378.4472160293
  0
LINE
  5
305
100
AcDbEntity
  8
0
100
AcDbLine
 62
7
  6
CONTINUOUS
 10
140.7315279679
 20
388.1978299314
 11
141.120656249
 21
388.0002101023
  0
LINE
  5
306
100
AcDbEntity
  8
0
100
AcDbLine
 62
7
  6
CONTINUOUS
 10
141.6951805087
 20
388.574734362
 11
141.3060522277
 21
388.7723541912
  0
LINE
  5
307
100
AcDbEntity
  8
0
100
AcDbLine
 62
7
  6
CONTINUOUS
 10
144.8061683982
 20
387.1873192516
 11
145.293087483
 21
386.8919075228
  0
LINE
  5
308
100
AcDbEntity
  8
0
100
AcDbLine
 62
7
  6
CONTINUOUS
 10
143.2353941609
 20
389.3326166528
 11
143.7223143416
 21
389.0372060198
  0
LINE
  5
309
100
AcDbEntity
  8
0
100
AcDbLine
 62
7
  6
CONTINUOUS
 10
168.5821892243
 20
395.5047393422
 11
169.1238553744
 21
394.9515478704
  0
LINE
  5
30A
100
AcDbEntity
  8
0
100
AcDbLine
 62
7
  6
CONTINUOUS
 10
166.8217722993
 20
399.9302714076
 11
166.4155222993
 21
400.483462831
  0
LINE
  5
30B
100
AcDbEntity
  8
0
100
AcDbLine
 62
7
  6
CONTINUOUS
 10
169.3946892243
 20
395.7813351508
 11
169.1238553744
 21
396.1962287184
  0
LINE
  5
30C
100
AcDbEntity
  8
0
100
AcDbLine
 62
7
  6
CONTINUOUS
 10
178.3321884494
 20
399.7919735517
 11
178.6030222993
 21
399.3770795967
  0
LINE
  5
30D
100
AcDbEntity
  8
0
100
AcDbLine
 62
7
  6
CONTINUOUS
 10
179.4155222993
 20
399.51537784
 11
179.1446884494
 21
400.0685692634
  0
LINE
  5
30E
100
AcDbEntity
  8
0
100
AcDbLine
 62
7
  6
CONTINUOUS
 10
145.293087483
 20
386.8919075228
 11
146.069307022
 21
386.6902133393
  0
LINE
  5
30F
100
AcDbEntity
  8
0
100
AcDbLine
 62
7
  6
CONTINUOUS
 10
148.0556941273
 20
391.0235930909
 11
147.4730201317
 21
391.2232501828
  0
LINE
  5
310
100
AcDbEntity
  8
0
100
AcDbLine
 62
7
  6
CONTINUOUS
 10
144.9467428157
 20
392.2174620758
 11
145.2380802929
 21
392.1176341462
  0
LINE
  5
311
100
AcDbEntity
  8
0
100
AcDbLine
 62
7
  6
CONTINUOUS
 10
145.3114233957
 20
385.149998831
 11
142.2004356431
 21
386.5374138044
  0
LINE
  5
312
100
AcDbEntity
  8
0
100
AcDbLine
 62
7
  6
CONTINUOUS
 10
145.769820939
 20
387.5642236821
 11
145.38069211
 21
387.7618429634
  0
LINE
  5
313
100
AcDbEntity
  8
0
100
AcDbLine
 62
7
  6
CONTINUOUS
 10
144.1012558979
 20
389.8073129829
 11
143.712127069
 21
390.0049322642
  0
LINE
  5
314
100
AcDbEntity
  8
0
100
AcDbLine
 62
7
  6
CONTINUOUS
 10
145.8126045526
 20
392.6921584059
 11
145.4234757237
 21
392.8897776872
  0
LINE
  5
315
100
AcDbEntity
  8
0
100
AcDbLine
 62
7
  6
CONTINUOUS
 10
169.8009392243
 20
395.5047393422
 11
169.3946892243
 21
395.7813351508
  0
LINE
  5
316
100
AcDbEntity
  8
0
100
AcDbLine
 62
7
  6
CONTINUOUS
 10
166.4155222993
 20
400.483462831
 11
165.8738557618
 21
400.8983563985
  0
LINE
  5
317
100
AcDbEntity
  8
0
100
AcDbLine
 62
7
  6
CONTINUOUS
 10
165.7384388369
 20
400.2068671193
 11
166.0092722993
 21
399.9302714076
  0
LINE
  5
318
100
AcDbEntity
  8
0
100
AcDbLine
 62
7
  6
CONTINUOUS
 10
179.1446884494
 20
400.0685692634
 11
178.6030222993
 21
400.6217606868
  0
LINE
  5
319
100
AcDbEntity
  8
RUNDUNGEN
100
AcDbLine
 62
7
  6
CONTINUOUS
 10
212.2374581126
 20
394.4415842302
 11
227.070048919
 21
358.6325423402
  0
LINE
  5
31A
100
AcDbEntity
  8
BEZUGSACHSEN
100
AcDbLine
 62
7
  6
CONTINUOUS
 10
227.070048919
 20
358.6325423402
 11
227.4210727342
 21
357.7850958847
  0
LINE
  5
31B
100
AcDbEntity
  8
0
100
AcDbLine
 62
7
  6
CONTINUOUS
 10
177.9259384494
 20
395.5047393422
 11
177.3842722993
 21
395.3664414864
  0
LINE
  5
31C
100
AcDbEntity
  8
0
100
AcDbLine
 62
7
  6
CONTINUOUS
 10
171.4259392243
 20
395.5047393422
 11
170.8842722993
 21
395.3664414864
  0
LINE
  5
31D
100
AcDbEntity
  8
0
100
AcDbLine
 62
7
  6
CONTINUOUS
 10
146.069307022
 20
386.6902133393
 11
146.8414505887
 21
386.8756087444
  0
LINE
  5
31E
100
AcDbEntity
  8
0
100
AcDbLine
 62
7
  6
CONTINUOUS
 10
177.3842722993
 20
394.5366542544
 11
178.0613561493
 21
394.6749521224
  0
LINE
  5
31F
100
AcDbEntity
  8
0
100
AcDbLine
 62
7
  6
CONTINUOUS
 10
170.8842722993
 20
394.5366542544
 11
171.5613553744
 21
394.6749521224
  0
LINE
  5
320
100
AcDbEntity
  8
0
100
AcDbLine
 62
7
  6
CONTINUOUS
 10
144.5841007311
 20
389.8989924094
 11
144.1012558979
 21
389.8073129829
  0
LINE
  5
321
100
AcDbEntity
  8
0
100
AcDbLine
 62
7
  6
CONTINUOUS
 10
146.6112337422
 20
390.3614637932
 11
147.0940785754
 21
390.4531432197
  0
LINE
  5
322
100
AcDbEntity
  8
0
100
AcDbLine
 62
7
  6
CONTINUOUS
 10
140.627624691
 20
388.8762574681
 11
139.9512342801
 21
388.7866151674
  0
LINE
  5
323
100
AcDbEntity
  8
0
100
AcDbLine
 62
7
  6
CONTINUOUS
 10
144.745048187
 20
392.9936809641
 11
144.0686583241
 21
392.9040392113
  0
LINE
  5
324
100
AcDbEntity
  8
0
100
AcDbLine
 62
7
  6
CONTINUOUS
 10
161.9467722993
 20
394.5366542544
 11
162.7592722993
 21
394.5366542544
  0
LINE
  5
325
100
AcDbEntity
  8
0
100
AcDbLine
 62
7
  6
CONTINUOUS
 10
166.1446888369
 20
394.5366542544
 11
167.0926057618
 21
394.5366542544
  0
LINE
  5
326
100
AcDbEntity
  8
0
100
AcDbLine
 62
7
  6
CONTINUOUS
 10
170.3426053744
 20
394.5366542544
 11
170.8842722993
 21
394.5366542544
  0
LINE
  5
327
100
AcDbEntity
  8
0
100
AcDbLine
 62
7
  6
CONTINUOUS
 10
174.1342722993
 20
394.5366542544
 11
177.3842722993
 21
394.5366542544
  0
LINE
  5
328
100
AcDbEntity
  8
0
100
AcDbLine
 62
7
  6
CONTINUOUS
 10
177.3842722993
 20
395.3664414864
 11
174.9467722993
 21
395.3664414864
  0
LINE
  5
329
100
AcDbEntity
  8
0
100
AcDbLine
 62
7
  6
CONTINUOUS
 10
170.8842722993
 20
395.3664414864
 11
170.3426053744
 21
395.3664414864
  0
LINE
  5
32A
100
AcDbEntity
  8
0
100
AcDbLine
 62
7
  6
CONTINUOUS
 10
146.3504571924
 20
387.5581116884
 11
145.769820939
 21
387.5642236821
  0
LINE
  5
32B
100
AcDbEntity
  8
0
100
AcDbLine
 62
7
  6
CONTINUOUS
 10
140.3444373606
 20
388.2019047309
 11
140.7315279679
 21
388.1978299314
  0
LINE
  5
32C
100
AcDbEntity
  8
0
100
AcDbLine
 62
7
  6
CONTINUOUS
 10
143.7223143416
 20
389.0372060198
 11
144.4964955562
 21
389.0290564209
  0
LINE
  5
32D
100
AcDbEntity
  8
0
100
AcDbLine
 62
7
  6
CONTINUOUS
 10
147.4730201317
 20
391.2232501828
 11
146.6988389171
 21
391.2313997817
  0
LINE
  5
32E
100
AcDbEntity
  8
0
100
AcDbLine
 62
7
  6
CONTINUOUS
 10
144.5596527562
 20
392.2215374231
 11
144.9467428157
 21
392.2174620758
  0
LINE
  5
32F
100
AcDbEntity
  8
0
100
AcDbLine
 62
7
  6
CONTINUOUS
 10
141.3060522277
 20
388.7723541912
 11
140.627624691
 21
388.8762574681
  0
LINE
  5
330
100
AcDbEntity
  8
0
100
AcDbLine
 62
7
  6
CONTINUOUS
 10
145.4234757237
 20
392.8897776872
 11
144.745048187
 21
392.9936809641
  0
LINE
  5
331
100
AcDbEntity
  8
0
100
AcDbLine
 62
7
  6
CONTINUOUS
 10
169.6655222993
 20
394.6749521224
 11
170.3426053744
 21
394.5366542544
  0
LINE
  5
332
100
AcDbEntity
  8
0
100
AcDbLine
 62
7
  6
CONTINUOUS
 10
147.0940785754
 20
390.4531432197
 11
147.5789612193
 21
390.3512774795
  0
LINE
  5
333
100
AcDbEntity
  8
0
100
AcDbLine
 62
7
  6
CONTINUOUS
 10
170.3426053744
 20
395.3664414864
 11
169.8009392243
 21
395.5047393422
  0
LINE
  5
334
100
AcDbEntity
  8
0
100
AcDbLine
 62
7
  6
CONTINUOUS
 10
165.3321888369
 20
400.3451649751
 11
165.7384388369
 21
400.2068671193
  0
LINE
  5
335
100
AcDbEntity
  8
0
100
AcDbLine
 62
7
  6
CONTINUOUS
 10
169.1238553744
 20
394.9515478704
 11
169.6655222993
 21
394.6749521224
  0
LINE
  5
336
100
AcDbEntity
  8
0
100
AcDbLine
 62
7
  6
CONTINUOUS
 10
178.6030222993
 20
400.6217606868
 11
178.0613561493
 21
400.8983563985
  0
LINE
  5
337
100
AcDbEntity
  8
0
100
AcDbLine
 62
7
  6
CONTINUOUS
 10
177.9259384494
 20
400.0685692634
 11
178.3321884494
 21
399.7919735517
  0
LINE
  5
338
100
AcDbEntity
  8
0
100
AcDbLine
 62
7
  6
CONTINUOUS
 10
202.7378403619
 20
385.3301003524
 11
204.0790268005
 21
383.9889139138
  0
LINE
  5
339
100
AcDbEntity
  8
0
100
AcDbLine
 62
7
  6
CONTINUOUS
 10
204.770019131
 20
384.6799062443
 11
203.4283999709
 21
386.0215254044
  0
LINE
  5
33A
100
AcDbEntity
  8
0
100
AcDbLine
 62
7
  6
CONTINUOUS
 10
162.7592722993
 20
397.4409096148
 11
165.0613555681
 21
397.4409096148
  0
LINE
  5
33B
100
AcDbEntity
  8
0
100
AcDbLine
 62
7
  6
CONTINUOUS
 10
165.3321888369
 20
398.2706967499
 11
162.7592722993
 21
398.2706967499
  0
LINE
  5
33C
100
AcDbEntity
  8
0
100
AcDbLine
 62
7
  6
CONTINUOUS
 10
174.9467722993
 20
400.2068671193
 11
177.3842722993
 21
400.2068671193
  0
LINE
  5
33D
100
AcDbEntity
  8
0
100
AcDbLine
 62
7
  6
CONTINUOUS
 10
162.7592722993
 20
400.3451649751
 11
165.3321888369
 21
400.3451649751
  0
LINE
  5
33E
100
AcDbEntity
  8
0
100
AcDbLine
 62
7
  6
CONTINUOUS
 10
177.3842722993
 20
401.0366542544
 11
174.1342722993
 21
401.0366542544
  0
LINE
  5
33F
100
AcDbEntity
  8
0
100
AcDbLine
 62
7
  6
CONTINUOUS
 10
173.0509392243
 20
401.0366542544
 11
172.2384392243
 21
401.0366542544
  0
LINE
  5
340
100
AcDbEntity
  8
0
100
AcDbLine
 62
7
  6
CONTINUOUS
 10
168.9884392243
 20
401.0366542544
 11
168.1759388369
 21
401.0366542544
  0
LINE
  5
341
100
AcDbEntity
  8
0
100
AcDbLine
 62
7
  6
CONTINUOUS
 10
165.1967722993
 20
401.0366542544
 11
161.9467722993
 21
401.0366542544
  0
LINE
  5
342
100
AcDbEntity
  8
0
100
AcDbLine
 62
7
  6
CONTINUOUS
 10
165.8738557618
 20
400.8983563985
 11
165.1967722993
 21
401.0366542544
  0
LINE
  5
343
100
AcDbEntity
  8
0
100
AcDbLine
 62
7
  6
CONTINUOUS
 10
178.0613561493
 20
400.8983563985
 11
177.3842722993
 21
401.0366542544
  0
LINE
  5
344
100
AcDbEntity
  8
0
100
AcDbLine
 62
7
  6
CONTINUOUS
 10
177.3842722993
 20
400.2068671193
 11
177.9259384494
 21
400.0685692634
  0
LINE
  5
345
100
AcDbEntity
  8
RUNDUNGEN
100
AcDbLine
 62
7
  6
CONTINUOUS
 10
172.5406941088
 20
411.3488314187
 11
209.4099001977
 21
397.1960692009
  0
LINE
  5
346
100
AcDbEntity
  8
KONSTRUKTIONSELEMENTE
100
AcDbLine
 62
7
  6
CONTINUOUS
 10
147.7488543611
 20
154.0866542544
 11
144.1907419784
 21
152.0323771124
  0
LINE
  5
347
100
AcDbEntity
  8
BEZUGSACHSEN
100
AcDbLine
 62
7
  6
CONTINUOUS
 10
197.3069667438
 20
134.3947666371
 11
186.9988543611
 21
124.0866542544
  0
LINE
  5
348
100
AcDbEntity
  8
KONSTRUKTIONSELEMENTE
100
AcDbLine
 62
7
  6
CONTINUOUS
 10
185.7488543611
 20
111.5866542544
 11
183.2488543611
 21
109.0866542544
  0
LINE
  5
349
100
AcDbEntity
  8
KONSTRUKTIONSELEMENTE
100
AcDbLine
 62
7
  6
CONTINUOUS
 10
347.7223796764
 20
109.0866542544
 11
372.7220867465
 21
109.0866542544
  0
LINE
  5
34A
100
AcDbEntity
  8
KONSTRUKTIONSELEMENTE
100
AcDbLine
 62
7
  6
CONTINUOUS
 10
345.2222332114
 20
111.5866542544
 11
375.2222332114
 21
111.5866542544
  0
LINE
  5
34B
100
AcDbEntity
  8
BEZUGSACHSEN
100
AcDbLine
 62
7
  6
CONTINUOUS
 10
376.4722332114
 20
124.0866542544
 11
343.9722332114
 21
124.0866542544
  0
LINE
  5
34C
100
AcDbEntity
  8
KONSTRUKTIONSELEMENTE
100
AcDbLine
 62
7
  6
CONTINUOUS
 10
332.2222332114
 20
154.0866542544
 11
388.2222332114
 21
154.0866542544
  0
LINE
  5
34D
100
AcDbEntity
  8
KONSTRUKTIONSELEMENTE
100
AcDbLine
 62
7
  6
CONTINUOUS
 10
345.2222332114
 20
111.5866542544
 11
347.7222332114
 21
109.0866542544
  0
LINE
  5
34E
100
AcDbEntity
  8
BEZUGSACHSEN
100
AcDbLine
 62
7
  6
CONTINUOUS
 10
337.1798720418
 20
130.8790154241
 11
343.9722332114
 21
124.0866542544
  0
LINE
  5
34F
100
AcDbEntity
  8
KONSTRUKTIONSELEMENTE
100
AcDbLine
 62
7
  6
CONTINUOUS
 10
332.2222332114
 20
159.0866542544
 11
388.2222332114
 21
159.0866542544
  0
LINE
  5
350
100
AcDbEntity
  8
0
100
AcDbLine
 62
7
  6
CONTINUOUS
 10
323.3101579273
 20
315.2866542544
 11
323.5366731881
 21
314.2209837383
  0
LINE
  5
351
100
AcDbEntity
  8
0
100
AcDbLine
 62
7
  6
CONTINUOUS
 10
324.2602992469
 20
310.8165907939
 11
324.486002723
 21
309.7547394242
  0
LINE
  5
352
100
AcDbEntity
  8
0
100
AcDbLine
 62
7
  6
CONTINUOUS
 10
324.8930259411
 20
307.8398457374
 11
324.9382506146
 21
307.6270803768
  0
LINE
  5
353
100
AcDbEntity
  8
0
100
AcDbLine
 62
7
  6
CONTINUOUS
 10
330.7222332114
 20
339.3366542544
 11
330.7222332114
 21
342.3366542544
  0
LINE
  5
354
100
AcDbEntity
  8
KONSTRUKTIONSELEMENTE
100
AcDbLine
 62
7
  6
CONTINUOUS
 10
332.2222332114
 20
154.0866542544
 11
332.2222332114
 21
159.0866542544
  0
LINE
  5
355
100
AcDbEntity
  8
BEZUGSACHSEN
100
AcDbLine
 62
7
  6
CONTINUOUS
 10
337.2222332114
 20
134.3947666371
 11
337.2222332114
 21
130.8366324403
  0
LINE
  5
356
100
AcDbEntity
  8
KONSTRUKTIONSELEMENTE
100
AcDbLine
 62
7
  6
CONTINUOUS
 10
337.2222332114
 20
134.3947666371
 11
337.2222332114
 21
154.0866542545
  0
LINE
  5
357
100
AcDbEntity
  8
KONSTRUKTIONSELEMENTE
100
AcDbLine
 62
7
  6
CONTINUOUS
 10
338.2222332114
 20
299.2866542544
 11
338.2222332114
 21
299.0866542544
  0
LINE
  5
358
100
AcDbEntity
  8
BEZUGSACHSEN
100
AcDbLine
 62
7
  6
CONTINUOUS
 10
322.9752732066
 20
319.2670301667
 11
323.8213282247
 21
315.2866542544
  0
LINE
  5
359
100
AcDbEntity
  8
BEZUGSACHSEN
100
AcDbLine
 62
7
  6
CONTINUOUS
 10
325.9468938414
 20
305.2866542544
 11
327.2222332114
 21
299.2866542544
  0
LINE
  5
35A
100
AcDbEntity
  8
BEZUGSACHSEN
100
AcDbLine
 62
7
  6
CONTINUOUS
 10
352.2228461351
 20
329.1876270275
 11
352.2228434662
 21
329.1878427964
  0
LINE
  5
35B
100
AcDbEntity
  8
KONSTRUKTIONSELEMENTE
100
AcDbLine
 62
7
  6
CONTINUOUS
 10
345.2222332114
 20
299.0866542544
 11
345.2222332114
 21
159.0866542544
  0
LINE
  5
35C
100
AcDbEntity
  8
KONSTRUKTIONSELEMENTE
100
AcDbLine
 62
7
  6
CONTINUOUS
 10
345.2222332114
 20
124.0866542544
 11
345.2222332114
 21
111.5866542544
  0
LINE
  5
35D
100
AcDbEntity
  8
BEZUGSACHSEN
100
AcDbLine
 62
7
  6
CONTINUOUS
 10
348.2222332114
 20
344.2400322052
 11
348.2222332114
 21
406.6809292862
  0
LINE
  5
35E
100
AcDbEntity
  8
BEZUGSACHSEN
100
AcDbLine
 62
7
  6
CONTINUOUS
 10
326.1563183707
 20
325.0053180605
 11
337.6944005677
 21
329.2048365407
  0
LINE
  5
35F
100
AcDbEntity
  8
KONSTRUKTIONSELEMENTE
100
AcDbLine
 62
7
  6
CONTINUOUS
 10
360.2222332114
 20
152.0323771124
 11
360.2222332114
 21
134.3947666371
  0
LINE
  5
360
100
AcDbEntity
  8
RUNDUNGEN
100
AcDbLine
 62
7
  6
CONTINUOUS
 10
372.2222332114
 20
344.2400322052
 11
372.2222332114
 21
406.6809292862
  0
LINE
  5
361
100
AcDbEntity
  8
0
100
AcDbLine
 62
7
  6
CONTINUOUS
 10
372.7222332114
 20
401.0366542544
 11
372.7222332114
 21
394.5366542544
  0
LINE
  5
362
100
AcDbEntity
  8
0
100
AcDbLine
 62
7
  6
CONTINUOUS
 10
372.7222332114
 20
392.9936809641
 11
372.7222332114
 21
389.0372060198
  0
LINE
  5
363
100
AcDbEntity
  8
0
100
AcDbLine
 62
7
  6
CONTINUOUS
 10
372.7222332114
 20
389.0290564209
 11
372.7222332114
 21
378.4472160293
  0
LINE
  5
364
100
AcDbEntity
  8
KONSTRUKTIONSELEMENTE
100
AcDbLine
 62
7
  6
CONTINUOUS
 10
375.2222332114
 20
299.0866542544
 11
375.2222332114
 21
159.0866542544
  0
LINE
  5
365
100
AcDbEntity
  8
KONSTRUKTIONSELEMENTE
100
AcDbLine
 62
7
  6
CONTINUOUS
 10
375.2222332114
 20
124.0866542544
 11
375.2222332114
 21
111.5866542544
  0
LINE
  5
366
100
AcDbEntity
  8
KONSTRUKTIONSELEMENTE
100
AcDbLine
 62
7
  6
CONTINUOUS
 10
338.2223616223
 20
299.0866542544
 11
382.2221048005
 21
299.0866542544
  0
LINE
  5
367
100
AcDbEntity
  8
BEZUGSACHSEN
100
AcDbLine
 62
7
  6
CONTINUOUS
 10
327.2222332117
 20
299.2866542544
 11
393.2222332111
 21
299.2866542544
  0
LINE
  5
368
100
AcDbEntity
  8
0
100
AcDbLine
 62
7
  6
CONTINUOUS
 10
326.2182426429
 20
304.0100585129
 11
325.8237981747
 21
304.0100585129
  0
LINE
  5
369
100
AcDbEntity
  8
0
100
AcDbLine
 62
7
  6
CONTINUOUS
 10
394.0114909294
 20
304.0100585129
 11
394.6206682482
 21
304.0100585129
  0
LINE
  5
36A
100
AcDbEntity
  8
0
100
AcDbLine
 62
7
  6
CONTINUOUS
 10
328.4079987986
 20
305.2866542544
 11
327.8586067474
 21
305.2866542544
  0
LINE
  5
36B
100
AcDbEntity
  8
0
100
AcDbLine
 62
7
  6
CONTINUOUS
 10
325.5494633311
 20
305.2866542544
 11
326.1782384549
 21
305.2866542544
  0
LINE
  5
36C
100
AcDbEntity
  8
0
100
AcDbLine
 62
7
  6
CONTINUOUS
 10
393.4384847857
 20
305.2866542544
 11
394.2372348091
 21
305.2866542544
  0
LINE
  5
36D
100
AcDbEntity
  8
0
100
AcDbLine
 62
7
  6
CONTINUOUS
 10
326.2591174452
 20
305.4994202051
 11
325.7427858347
 21
305.4994202051
  0
LINE
  5
36E
100
AcDbEntity
  8
0
100
AcDbLine
 62
7
  6
CONTINUOUS
 10
394.9925204269
 20
305.4994202051
 11
395.0054528596
 21
305.4994202051
  0
LINE
  5
36F
100
AcDbEntity
  8
KONSTRUKTIONSELEMENTE
100
AcDbLine
 62
7
  6
CONTINUOUS
 10
382.2222332114
 20
299.2866542544
 11
382.2222332114
 21
299.0866542544
  0
LINE
  5
370
100
AcDbEntity
  8
KONSTRUKTIONSELEMENTE
100
AcDbLine
 62
7
  6
CONTINUOUS
 10
383.2222332114
 20
154.0866542545
 11
383.2222332114
 21
134.3947666371
  0
LINE
  5
371
100
AcDbEntity
  8
BEZUGSACHSEN
100
AcDbLine
 62
7
  6
CONTINUOUS
 10
383.2222332114
 20
130.8366324403
 11
383.2222332114
 21
134.3947666371
  0
LINE
  5
372
100
AcDbEntity
  8
KONSTRUKTIONSELEMENTE
100
AcDbLine
 62
7
  6
CONTINUOUS
 10
388.2222332114
 20
154.0866542544
 11
388.2222332114
 21
159.0866542544
  0
LINE
  5
373
100
AcDbEntity
  8
0
100
AcDbLine
 62
7
  6
CONTINUOUS
 10
389.7222332114
 20
339.3366542544
 11
389.7222332114
 21
342.3366542544
  0
LINE
  5
374
100
AcDbEntity
  8
0
100
AcDbLine
 62
7
  6
CONTINUOUS
 10
393.2222332114
 20
299.2866542544
 11
394.22622378
 21
304.0100585129
  0
LINE
  5
375
100
AcDbEntity
  8
0
100
AcDbLine
 62
7
  6
CONTINUOUS
 10
394.7236965879
 20
306.3504840638
 11
394.9950455109
 21
307.6270803768
  0
LINE
  5
376
100
AcDbEntity
  8
0
100
AcDbLine
 62
7
  6
CONTINUOUS
 10
395.0402701844
 20
307.8398457374
 11
395.1307197743
 21
308.2653776016
  0
LINE
  5
377
100
AcDbEntity
  8
0
100
AcDbLine
 62
7
  6
CONTINUOUS
 10
395.4020686074
 20
309.5419734921
 11
395.4472934024
 21
309.7547394242
  0
LINE
  5
378
100
AcDbEntity
  8
0
100
AcDbLine
 62
7
  6
CONTINUOUS
 10
396.6231381982
 20
315.2866542544
 11
397.4691932162
 21
319.2670301667
  0
LINE
  5
379
100
AcDbEntity
  8
0
100
AcDbLine
 62
7
  6
CONTINUOUS
 10
397.1341995728
 20
315.2866542544
 11
395.9583411153
 21
309.7547394242
  0
LINE
  5
37A
100
AcDbEntity
  8
0
100
AcDbLine
 62
7
  6
CONTINUOUS
 10
328.1860020728
 20
306.1377180572
 11
327.6377619999
 21
306.1377180572
  0
LINE
  5
37B
100
AcDbEntity
  8
0
100
AcDbLine
 62
7
  6
CONTINUOUS
 10
326.2724908787
 20
306.1377180572
 11
325.7540428013
 21
306.1377180572
  0
LINE
  5
37C
100
AcDbEntity
  8
0
100
AcDbLine
 62
7
  6
CONTINUOUS
 10
395.1460823301
 20
306.1377180572
 11
395.1789165733
 21
306.1377180572
  0
LINE
  5
37D
100
AcDbEntity
  8
0
100
AcDbLine
 62
7
  6
CONTINUOUS
 10
327.7635626049
 20
306.3504840638
 11
327.2215862082
 21
306.3504840638
  0
LINE
  5
37E
100
AcDbEntity
  8
0
100
AcDbLine
 62
7
  6
CONTINUOUS
 10
325.4327688321
 20
306.3504840638
 11
325.3209048763
 21
306.3504840638
  0
LINE
  5
37F
100
AcDbEntity
  8
0
100
AcDbLine
 62
7
  6
CONTINUOUS
 10
394.6258782606
 20
306.3504840638
 11
395.1967151686
 21
306.3504840638
  0
LINE
  5
380
100
AcDbEntity
  8
0
100
AcDbLine
 62
7
  6
CONTINUOUS
 10
325.482516997
 20
306.5632499959
 11
325.2223844532
 21
306.5632499959
  0
LINE
  5
381
100
AcDbEntity
  8
0
100
AcDbLine
 62
7
  6
CONTINUOUS
 10
327.4534686915
 20
306.776015928
 11
326.9151735784
 21
306.776015928
  0
LINE
  5
382
100
AcDbEntity
  8
0
100
AcDbLine
 62
7
  6
CONTINUOUS
 10
326.1870981663
 20
306.9887818601
 11
325.6673625463
 21
306.9887818601
  0
LINE
  5
383
100
AcDbEntity
  8
0
100
AcDbLine
 62
7
  6
CONTINUOUS
 10
325.4721145247
 20
306.9887818601
 11
325.1032286271
 21
306.9887818601
  0
LINE
  5
384
100
AcDbEntity
  8
0
100
AcDbLine
 62
7
  6
CONTINUOUS
 10
394.8581846521
 20
306.9887818601
 11
395.3693715386
 21
306.9887818601
  0
LINE
  5
385
100
AcDbEntity
  8
0
100
AcDbLine
 62
7
  6
CONTINUOUS
 10
327.2308229983
 20
307.4143138733
 11
326.6941359884
 21
307.4143138733
  0
LINE
  5
386
100
AcDbEntity
  8
0
100
AcDbLine
 62
7
  6
CONTINUOUS
 10
325.354497108
 20
307.8398457374
 11
324.908497288
 21
307.8398457374
  0
LINE
  5
387
100
AcDbEntity
  8
0
100
AcDbLine
 62
7
  6
CONTINUOUS
 10
324.8931535724
 20
307.8398457374
 11
324.8930262848
 21
307.8398457374
  0
LINE
  5
388
100
AcDbEntity
  8
0
100
AcDbLine
 62
7
  6
CONTINUOUS
 10
395.040140767
 20
307.8398457374
 11
395.5513128505
 21
307.8398457374
  0
LINE
  5
389
100
AcDbEntity
  8
0
100
AcDbLine
 62
7
  6
CONTINUOUS
 10
326.0217734697
 20
308.0526116695
 11
325.5013055087
 21
308.0526116695
  0
LINE
  5
38A
100
AcDbEntity
  8
0
100
AcDbLine
 62
7
  6
CONTINUOUS
 10
325.2810540147
 20
308.2653776016
 11
325.1907128699
 21
308.2653776016
  0
LINE
  5
38B
100
AcDbEntity
  8
0
100
AcDbLine
 62
7
  6
CONTINUOUS
 10
392.6596310019
 20
308.2653776016
 11
394.6579316102
 21
308.2653776016
  0
LINE
  5
38C
100
AcDbEntity
  8
0
100
AcDbLine
 62
7
  6
CONTINUOUS
 10
394.9145421592
 20
308.2653776016
 11
395.2537535529
 21
308.2653776016
  0
LINE
  5
38D
100
AcDbEntity
  8
0
100
AcDbLine
 62
7
  6
CONTINUOUS
 10
325.8296393721
 20
308.9036753978
 11
325.3094508278
 21
308.9036753978
  0
LINE
  5
38E
100
AcDbEntity
  8
0
100
AcDbLine
 62
7
  6
CONTINUOUS
 10
395.5349241186
 20
309.5419734921
 11
395.2040758295
 21
309.5419734921
  0
LINE
  5
38F
100
AcDbEntity
  8
0
100
AcDbLine
 62
7
  6
CONTINUOUS
 10
394.9537339325
 20
309.5419734921
 11
394.0226331962
 21
309.5419734921
  0
LINE
  5
390
100
AcDbEntity
  8
0
100
AcDbLine
 62
7
  6
CONTINUOUS
 10
324.9475315012
 20
309.5419734921
 11
324.9095423042
 21
309.5419734921
  0
LINE
  5
391
100
AcDbEntity
  8
0
100
AcDbLine
 62
7
  6
CONTINUOUS
 10
392.992290441
 20
309.5419734921
 11
393.5386164799
 21
309.5419734921
  0
LINE
  5
392
100
AcDbEntity
  8
0
100
AcDbLine
 62
7
  6
CONTINUOUS
 10
324.4860033844
 20
309.7547394242
 11
324.8813858337
 21
309.7547394242
  0
LINE
  5
393
100
AcDbEntity
  8
0
100
AcDbLine
 62
7
  6
CONTINUOUS
 10
395.4471691552
 20
309.7547394242
 11
395.9583411153
 21
309.7547394242
  0
LINE
  5
394
100
AcDbEntity
  8
0
100
AcDbLine
 62
7
  6
CONTINUOUS
 10
325.5189064024
 20
309.9675053563
 11
325.0000405139
 21
309.9675053563
  0
LINE
  5
395
100
AcDbEntity
  8
0
100
AcDbLine
 62
7
  6
CONTINUOUS
 10
324.6448473277
 20
310.3930372204
 11
324.4039362735
 21
310.3930372204
  0
LINE
  5
396
100
AcDbEntity
  8
0
100
AcDbLine
 62
7
  6
CONTINUOUS
 10
324.4071294585
 20
310.6058031525
 11
324.5098359282
 21
310.6058031525
  0
LINE
  5
397
100
AcDbEntity
  8
0
100
AcDbLine
 62
7
  6
CONTINUOUS
 10
325.2318257758
 20
310.8185690846
 11
324.7145091379
 21
310.8185690846
  0
LINE
  5
398
100
AcDbEntity
  8
0
100
AcDbLine
 62
7
  6
CONTINUOUS
 10
325.0972146185
 20
311.2441009488
 11
325.4807927484
 21
311.2441009488
  0
LINE
  5
399
100
AcDbEntity
  8
0
100
AcDbLine
 62
7
  6
CONTINUOUS
 10
325.7568209335
 20
311.2441009488
 11
327.0111122171
 21
311.2441009488
  0
LINE
  5
39A
100
AcDbEntity
  8
0
100
AcDbLine
 62
7
  6
CONTINUOUS
 10
324.9520175106
 20
311.4568668809
 11
324.436691967
 21
311.4568668809
  0
LINE
  5
39B
100
AcDbEntity
  8
0
100
AcDbLine
 62
7
  6
CONTINUOUS
 10
324.7931273339
 20
311.6696328129
 11
324.1787929771
 21
311.6696328129
  0
LINE
  5
39C
100
AcDbEntity
  8
0
100
AcDbLine
 62
7
  6
CONTINUOUS
 10
326.7915953355
 20
312.0951646771
 11
325.5497334312
 21
312.0951646771
  0
LINE
  5
39D
100
AcDbEntity
  8
0
100
AcDbLine
 62
7
  6
CONTINUOUS
 10
325.278168245
 20
312.0951646771
 11
324.9008196129
 21
312.0951646771
  0
LINE
  5
39E
100
AcDbEntity
  8
0
100
AcDbLine
 62
7
  6
CONTINUOUS
 10
325.668349199
 20
313.7972927298
 11
324.8739165263
 21
313.7972927298
  0
LINE
  5
39F
100
AcDbEntity
  8
0
100
AcDbLine
 62
7
  6
CONTINUOUS
 10
323.5453337334
 20
314.222824594
 11
324.5675588945
 21
314.222824594
  0
LINE
  5
3A0
100
AcDbEntity
  8
0
100
AcDbLine
 62
7
  6
CONTINUOUS
 10
324.3302625411
 20
315.2866542544
 11
323.3102006337
 21
315.2866542544
  0
LINE
  5
3A1
100
AcDbEntity
  8
0
100
AcDbLine
 62
7
  6
CONTINUOUS
 10
395.7559006293
 20
315.2866542544
 11
396.5020268173
 21
315.2866542544
  0
LINE
  5
3A2
100
AcDbEntity
  8
0
100
AcDbLine
 62
7
  6
CONTINUOUS
 10
396.6230279225
 20
315.2866542544
 11
397.1341995728
 21
315.2866542544
  0
LINE
  5
3A3
100
AcDbEntity
  8
RUNDUNGEN
100
AcDbLine
 62
7
  6
CONTINUOUS
 10
394.2881480522
 20
325.0053180605
 11
382.7500658552
 21
329.2048365407
  0
LINE
  5
3A4
100
AcDbEntity
  8
RUNDUNGEN
100
AcDbLine
 62
7
  6
CONTINUOUS
 10
387.7220191594
 20
337.3366542544
 11
373.7897448848
 21
337.3366542544
  0
LINE
  5
3A5
100
AcDbEntity
  8
RUNDUNGEN
100
AcDbLine
 62
7
  6
CONTINUOUS
 10
346.6529650162
 20
337.3366542544
 11
332.7224467089
 21
337.3366542544
  0
LINE
  5
3A6
100
AcDbEntity
  8
RUNDUNGEN
100
AcDbLine
 62
7
  6
CONTINUOUS
 10
332.7224467091
 20
344.3366542544
 11
348.2222332114
 21
344.3366542544
  0
LINE
  5
3A7
100
AcDbEntity
  8
RUNDUNGEN
100
AcDbLine
 62
7
  6
CONTINUOUS
 10
372.2222332114
 20
344.3366542544
 11
387.7220191598
 21
344.3366542544
  0
LINE
  5
3A8
100
AcDbEntity
  8
0
100
AcDbLine
 62
7
  6
CONTINUOUS
 10
372.2222332114
 20
378.4472160293
 11
372.7222332114
 21
378.4472160293
  0
LINE
  5
3A9
100
AcDbEntity
  8
0
100
AcDbLine
 62
7
  6
CONTINUOUS
 10
372.2222332114
 20
381.5113453687
 11
372.7222332114
 21
381.5113453687
  0
LINE
  5
3AA
100
AcDbEntity
  8
0
100
AcDbLine
 62
7
  6
CONTINUOUS
 10
372.2222332114
 20
382.0858696285
 11
372.7222332114
 21
382.0858696285
  0
LINE
  5
3AB
100
AcDbEntity
  8
0
100
AcDbLine
 62
7
  6
CONTINUOUS
 10
372.2222332114
 20
384.7669827491
 11
372.7222332114
 21
384.7669827491
  0
LINE
  5
3AC
100
AcDbEntity
  8
0
100
AcDbLine
 62
7
  6
CONTINUOUS
 10
372.2222332114
 20
385.3415070089
 11
372.7222332114
 21
385.3415070089
  0
LINE
  5
3AD
100
AcDbEntity
  8
0
100
AcDbLine
 62
7
  6
CONTINUOUS
 10
372.2222332114
 20
386.1075394465
 11
372.7222332114
 21
386.1075394465
  0
LINE
  5
3AE
100
AcDbEntity
  8
0
100
AcDbLine
 62
7
  6
CONTINUOUS
 10
372.2222332114
 20
388.4056364853
 11
372.7222332114
 21
388.4056364853
  0
LINE
  5
3AF
100
AcDbEntity
  8
0
100
AcDbLine
 62
7
  6
CONTINUOUS
 10
372.2222332114
 20
388.7866151674
 11
372.7222332114
 21
388.7866151674
  0
LINE
  5
3B0
100
AcDbEntity
  8
0
100
AcDbLine
 62
7
  6
CONTINUOUS
 10
372.2222332114
 20
388.8762574681
 11
372.7222332114
 21
388.8762574681
  0
LINE
  5
3B1
100
AcDbEntity
  8
0
100
AcDbLine
 62
7
  6
CONTINUOUS
 10
372.2222332114
 20
389.0290564209
 11
372.7222332114
 21
389.0290564209
  0
LINE
  5
3B2
100
AcDbEntity
  8
0
100
AcDbLine
 62
7
  6
CONTINUOUS
 10
372.2222332114
 20
389.0372060198
 11
372.7222332114
 21
389.0372060198
  0
LINE
  5
3B3
100
AcDbEntity
  8
0
100
AcDbLine
 62
7
  6
CONTINUOUS
 10
372.2222332114
 20
389.3326166528
 11
372.7222332114
 21
389.3326166528
  0
LINE
  5
3B4
100
AcDbEntity
  8
0
100
AcDbLine
 62
7
  6
CONTINUOUS
 10
372.2222332114
 20
389.7237823335
 11
372.7222332114
 21
389.7237823335
  0
LINE
  5
3B5
100
AcDbEntity
  8
0
100
AcDbLine
 62
7
  6
CONTINUOUS
 10
372.2222332114
 20
390.2107025141
 11
372.7222332114
 21
390.2107025141
  0
LINE
  5
3B6
100
AcDbEntity
  8
0
100
AcDbLine
 62
7
  6
CONTINUOUS
 10
372.2222332114
 20
390.9848837288
 11
372.7222332114
 21
390.9848837288
  0
LINE
  5
3B7
100
AcDbEntity
  8
0
100
AcDbLine
 62
7
  6
CONTINUOUS
 10
372.2222332114
 20
391.5634822401
 11
372.7222332114
 21
391.5634822401
  0
LINE
  5
3B8
100
AcDbEntity
  8
0
100
AcDbLine
 62
7
  6
CONTINUOUS
 10
372.2222332114
 20
392.0442904954
 11
372.7222332114
 21
392.0442904954
  0
LINE
  5
3B9
100
AcDbEntity
  8
0
100
AcDbLine
 62
7
  6
CONTINUOUS
 10
372.2222332114
 20
392.5230599813
 11
372.7222332114
 21
392.5230599813
  0
LINE
  5
3BA
100
AcDbEntity
  8
0
100
AcDbLine
 62
7
  6
CONTINUOUS
 10
372.2222332114
 20
392.9040392113
 11
372.7222332114
 21
392.9040392113
  0
LINE
  5
3BB
100
AcDbEntity
  8
0
100
AcDbLine
 62
7
  6
CONTINUOUS
 10
372.2222332114
 20
392.9936809641
 11
372.7222332114
 21
392.9936809641
  0
LINE
  5
3BC
100
AcDbEntity
  8
0
100
AcDbLine
 62
7
  6
CONTINUOUS
 10
372.2222332114
 20
394.5366542544
 11
372.7222332114
 21
394.5366542544
  0
LINE
  5
3BD
100
AcDbEntity
  8
0
100
AcDbLine
 62
7
  6
CONTINUOUS
 10
372.2222332114
 20
401.0366542544
 11
372.7222332114
 21
401.0366542544
  0
LINE
  5
3BE
100
AcDbEntity
  8
RUNDUNGEN
100
AcDbLine
 62
7
  6
CONTINUOUS
 10
367.2222332114
 20
411.6809292862
 11
353.2222332114
 21
411.6809292862
  0
LINE
  5
3BF
100
AcDbEntity
  8
BEZUGSACHSEN
100
AcDbLine
 62
7
  6
CONTINUOUS
 10
383.2645943811
 20
130.8790154241
 11
376.4722332114
 21
124.0866542544
  0
LINE
  5
3C0
100
AcDbEntity
  8
KONSTRUKTIONSELEMENTE
100
AcDbLine
 62
7
  6
CONTINUOUS
 10
375.2222332114
 20
111.5866542544
 11
372.7222332114
 21
109.0866542544
  0
LWPOLYLINE
  5
3C1
100
AcDbEntity
  8
RUNDUNGEN
100
AcDbPolyline
 62
7
  6
CONTINUOUS
 90
7
 70
0
 10
113.6960370314
 20
42.3088803358
 10
113.7043602346
 20
41.1957046887
 10
113.7347178455
 20
39.9077040425
 10
113.7877762754
 20
38.6084112263
 10
113.8639457587
 20
37.3002892695
 10
113.9634571287
 20
35.9857459885
 10
114.0719623247
 20
34.8104888999
  0
LWPOLYLINE
  5
3C2
100
AcDbEntity
  8
BEZUGSACHSEN
100
AcDbPolyline
 62
7
  6
CONTINUOUS
 90
7
 70
0
 10
114.0719623247
 20
49.8072717692
 10
113.9634571287
 20
48.6320146807
 10
113.8639457587
 20
47.3174713997
 10
113.7877762754
 20
46.0093494428
 10
113.7347178455
 20
44.7100566266
 10
113.7043602346
 20
43.4220559805
 10
113.6960370314
 20
42.3088803358
  0
LWPOLYLINE
  5
3C3
100
AcDbEntity
  8
BEZUGSACHSEN
100
AcDbPolyline
 62
7
  6
CONTINUOUS
 90
13
 70
0
 10
130.5329329123
 20
60.5535551067
 10
128.6125136697
 20
58.423257128
 10
128.0471534116
 20
57.8056455255
 10
127.5185901864
 20
57.2388889179
 10
127.0264884369
 20
56.7245787942
 10
126.5717551797
 20
56.2646976442
 10
126.1553475316
 20
55.8602101631
 10
125.7775765901
 20
55.5104038991
 10
125.4404063657
 20
55.2150400959
 10
125.1406675837
 20
54.9685931504
 10
124.8773663761
 20
54.7671886028
 10
124.6490754089
 20
54.606379468
 10
124.4548167226
 20
54.4819719417
  0
LWPOLYLINE
  5
3C4
100
AcDbEntity
  8
BEZUGSACHSEN
100
AcDbPolyline
 62
7
  6
CONTINUOUS
 90
8
 70
0
 10
136.5890646377
 20
66.7934067938
 10
135.6439210038
 20
65.900331703
 10
134.6412296513
 20
64.9165990471
 10
133.7076767533
 20
63.9683990333
 10
132.8355701722
 20
63.0566491074
 10
132.0191963577
 20
62.1828619838
 10
131.253365934
 20
61.3483612828
 10
130.5329329123
 20
60.5535551067
  0
LINE
  5
3C5
100
AcDbEntity
  8
BEZUGSACHSEN
100
AcDbLine
 62
7
  6
CONTINUOUS
 10
124.4548167226
 20
54.4819719417
 11
124.2966326458
 21
54.3913675176
  0
LWPOLYLINE
  5
3C6
100
AcDbEntity
  8
BEZUGSACHSEN
100
AcDbPolyline
 62
7
  6
CONTINUOUS
 90
3
 70
0
 10
124.2966326458
 20
54.3913675176
 10
124.1761569872
 20
54.3309952437
 10
124.1241650971
 20
54.3088803346
  0
LINE
  5
3C7
100
AcDbEntity
  8
0
100
AcDbLine
 62
7
  6
CONTINUOUS
 10
132.4803817781
 20
30.3088803346
 11
132.4803817781
 21
29.8088803346
  0
LINE
  5
3C8
100
AcDbEntity
  8
0
100
AcDbLine
 62
7
  6
CONTINUOUS
 10
133.0549060378
 20
30.3088803346
 11
133.0549060378
 21
29.8088803346
  0
LINE
  5
3C9
100
AcDbEntity
  8
0
100
AcDbLine
 62
7
  6
CONTINUOUS
 10
135.7360191585
 20
30.3088803346
 11
135.7360191585
 21
29.8088803346
  0
LINE
  5
3CA
100
AcDbEntity
  8
0
100
AcDbLine
 62
7
  6
CONTINUOUS
 10
136.3105434182
 20
30.3088803346
 11
136.3105434182
 21
29.8088803346
  0
LINE
  5
3CB
100
AcDbEntity
  8
0
100
AcDbLine
 62
7
  6
CONTINUOUS
 10
137.0765758558
 20
30.3088803346
 11
137.0765758558
 21
29.8088803346
  0
LINE
  5
3CC
100
AcDbEntity
  8
0
100
AcDbLine
 62
7
  6
CONTINUOUS
 10
139.3746728946
 20
30.3088803346
 11
139.3746728946
 21
29.8088803346
  0
LINE
  5
3CD
100
AcDbEntity
  8
0
100
AcDbLine
 62
7
  6
CONTINUOUS
 10
139.9512342801
 20
30.3088803346
 11
139.9512342801
 21
29.8088803346
  0
LINE
  5
3CE
100
AcDbEntity
  8
0
100
AcDbLine
 62
7
  6
CONTINUOUS
 10
140.627624691
 20
30.3088803346
 11
140.627624691
 21
29.8088803346
  0
LINE
  5
3CF
100
AcDbEntity
  8
0
100
AcDbLine
 62
7
  6
CONTINUOUS
 10
141.3060522277
 20
30.3088803346
 11
141.3060522277
 21
29.8088803346
  0
LINE
  5
3D0
100
AcDbEntity
  8
0
100
AcDbLine
 62
7
  6
CONTINUOUS
 10
141.6951805087
 20
30.3088803346
 11
141.6951805087
 21
29.8088803346
  0
LINE
  5
3D1
100
AcDbEntity
  8
0
100
AcDbLine
 62
7
  6
CONTINUOUS
 10
142.0863461894
 20
30.3088803346
 11
142.0863461894
 21
29.8088803346
  0
LINE
  5
3D2
100
AcDbEntity
  8
0
100
AcDbLine
 62
7
  6
CONTINUOUS
 10
142.2839660186
 20
30.3088803346
 11
142.2839660186
 21
29.8088803346
  0
LINE
  5
3D3
100
AcDbEntity
  8
0
100
AcDbLine
 62
7
  6
CONTINUOUS
 10
142.3878692955
 20
30.3088803346
 11
142.3878692955
 21
29.8088803346
  0
LINE
  5
3D4
100
AcDbEntity
  8
0
100
AcDbLine
 62
7
  6
CONTINUOUS
 10
142.5406682483
 20
30.3088803346
 11
142.5406682483
 21
29.8088803346
  0
LINE
  5
3D5
100
AcDbEntity
  8
0
100
AcDbLine
 62
7
  6
CONTINUOUS
 10
142.7281013528
 20
30.3088803346
 11
142.7281013528
 21
29.8088803346
  0
LINE
  5
3D6
100
AcDbEntity
  8
0
100
AcDbLine
 62
7
  6
CONTINUOUS
 10
143.0133269048
 20
30.3088803346
 11
143.0133269048
 21
29.8088803346
  0
LINE
  5
3D7
100
AcDbEntity
  8
0
100
AcDbLine
 62
7
  6
CONTINUOUS
 10
143.4920963907
 20
30.3088803346
 11
143.4920963907
 21
29.8088803346
  0
LINE
  5
3D8
100
AcDbEntity
  8
0
100
AcDbLine
 62
7
  6
CONTINUOUS
 10
144.0686583241
 20
30.3088803346
 11
144.0686583241
 21
29.8088803346
  0
LINE
  5
3D9
100
AcDbEntity
  8
0
100
AcDbLine
 62
7
  6
CONTINUOUS
 10
144.745048187
 20
30.3088803346
 11
144.745048187
 21
29.8088803346
  0
LINE
  5
3DA
100
AcDbEntity
  8
0
100
AcDbLine
 62
7
  6
CONTINUOUS
 10
145.4234757237
 20
30.3088803346
 11
145.4234757237
 21
29.8088803346
  0
LINE
  5
3DB
100
AcDbEntity
  8
0
100
AcDbLine
 62
7
  6
CONTINUOUS
 10
145.8126045526
 20
30.3088803346
 11
145.8126045526
 21
29.8088803346
  0
LWPOLYLINE
  5
3DC
100
AcDbEntity
  8
RUNDUNGEN
100
AcDbPolyline
 62
7
  6
CONTINUOUS
 90
32
 70
0
 10
136.5890786002
 20
17.8243270139
 10
138.0576200342
 20
16.5206711082
 10
139.6992772444
 20
15.1886139689
 10
141.3992451456
 20
13.9330966036
 10
143.1583501512
 20
12.7526836863
 10
144.9763590224
 20
11.6476129374
 10
146.8530954971
 20
10.6186451306
 10
148.7886691732
 20
9.6670116347
 10
150.7829478732
 20
8.794434241
 10
152.8376047005
 20
8.0024786704
 10
154.94742645
 20
7.2954518976
 10
157.1098018299
 20
6.6764100404
 10
159.316595545
 20
6.1492499599
 10
161.5606086217
 20
5.7167252318
 10
163.8343445063
 20
5.3806456299
 10
166.1302642717
 20
5.1418222223
 10
168.4397277142
 20
4.9993541557
 10
170.7561178685
 20
4.9520359892
 10
173.0724986828
 20
4.9999510486
 10
175.381916844
 20
5.1430200913
 10
177.6777423171
 20
5.3824552659
 10
179.9513395347
 20
5.7191500011
 10
182.1951740685
 20
6.1522844992
 10
184.4017531863
 20
6.6800458839
 10
186.5638810218
 20
7.299677113
 10
188.6734279644
 20
8.0072790271
 10
190.7277837257
 20
8.7997928746
 10
192.7217377526
 20
9.6729103648
 10
194.6569637484
 20
10.6250654018
 10
196.5333302449
 20
11.6545361611
 10
198.3509471802
 20
12.7600906029
 10
199.2951168338
 20
13.39405567
  0
LWPOLYLINE
  5
3DD
100
AcDbEntity
  8
RUNDUNGEN
100
AcDbPolyline
 62
7
  6
CONTINUOUS
 90
8
 70
0
 10
130.5851258938
 20
24.0063876521
 10
131.2950245633
 20
23.2236959648
 10
132.0437321733
 20
22.4083809788
 10
132.8410635219
 20
21.5552953391
 10
133.6945077322
 20
20.6629492033
 10
134.616416696
 20
19.7259691058
 10
135.6238817908
 20
18.7367271585
 10
136.5890640857
 20
17.8243543871
  0
LINE
  5
3DE
100
AcDbEntity
  8
RUNDUNGEN
100
AcDbLine
 62
7
  6
CONTINUOUS
 10
128.6788887692
 20
26.1214388055
 11
130.5851258938
 21
24.0063876521
  0
LINE
  5
3DF
100
AcDbEntity
  8
0
100
AcDbLine
 62
7
  6
CONTINUOUS
 10
146.12023931
 20
30.3088803346
 11
146.12023931
 21
29.8088803346
  0
LINE
  5
3E0
100
AcDbEntity
  8
0
100
AcDbLine
 62
7
  6
CONTINUOUS
 10
146.6988389171
 20
30.3088803346
 11
146.6988389171
 21
29.8088803346
  0
LINE
  5
3E1
100
AcDbEntity
  8
0
100
AcDbLine
 62
7
  6
CONTINUOUS
 10
147.4730201317
 20
30.3088803346
 11
147.4730201317
 21
29.8088803346
  0
LINE
  5
3E2
100
AcDbEntity
  8
0
100
AcDbLine
 62
7
  6
CONTINUOUS
 10
148.0556941273
 20
30.3088803346
 11
148.0556941273
 21
29.8088803346
  0
LINE
  5
3E3
100
AcDbEntity
  8
0
100
AcDbLine
 62
7
  6
CONTINUOUS
 10
148.5446508858
 20
30.3088803346
 11
148.5446508858
 21
29.8088803346
  0
LINE
  5
3E4
100
AcDbEntity
  8
0
100
AcDbLine
 62
7
  6
CONTINUOUS
 10
148.7443079093
 20
30.3088803346
 11
148.7443079093
 21
29.8088803346
  0
LINE
  5
3E5
100
AcDbEntity
  8
0
100
AcDbLine
 62
7
  6
CONTINUOUS
 10
148.7524575424
 20
30.3088803346
 11
148.7524575424
 21
29.8088803346
  0
LINE
  5
3E6
100
AcDbEntity
  8
RUNDUNGEN
100
AcDbLine
 62
7
  6
CONTINUOUS
 10
124.2905793736
 20
30.2296285416
 11
124.447209756
 21
30.1403880105
  0
LWPOLYLINE
  5
3E7
100
AcDbEntity
  8
RUNDUNGEN
100
AcDbPolyline
 62
7
  6
CONTINUOUS
 90
12
 70
0
 10
124.447209756
 20
30.1403880105
 10
124.6415571402
 20
30.0164260438
 10
124.872809235
 20
29.853916671
 10
125.1418064305
 20
29.6482637138
 10
125.4504557092
 20
29.394178286
 10
125.7985022342
 20
29.0884681362
 10
126.1881053971
 20
28.7263970393
 10
126.6161482407
 20
28.3089343511
 10
127.0808104024
 20
27.8371756183
 10
127.5805115258
 20
27.3131545104
 10
128.1128685624
 20
26.7408400857
 10
128.6788887692
 20
26.1214388055
  0
LINE
  5
3E8
100
AcDbEntity
  8
0
100
AcDbLine
 62
7
  6
CONTINUOUS
 10
161.9467722993
 20
30.3088803346
 11
161.9467722993
 21
29.8088803346
  0
LINE
  5
3E9
100
AcDbEntity
  8
0
100
AcDbLine
 62
7
  6
CONTINUOUS
 10
167.7280213457
 20
61.3088803346
 11
167.1702345203
 21
59.7138473739
  0
LINE
  5
3EA
100
AcDbEntity
  8
0
100
AcDbLine
 62
7
  6
CONTINUOUS
 10
167.9843468784
 20
60.093430841
 11
168.0405213457
 21
60.2450506742
  0
LINE
  5
3EB
100
AcDbEntity
  8
RUNDUNGEN
100
AcDbLine
 62
7
  6
CONTINUOUS
 10
197.7769824035
 20
13.1536067979
 11
231.5617232847
 21
18.5045840739
  0
LWPOLYLINE
  5
3EC
100
AcDbEntity
  8
RUNDUNGEN
100
AcDbPolyline
 62
7
  6
CONTINUOUS
 90
3
 70
0
 10
124.1241711524
 20
30.3088803346
 10
124.1723693536
 20
30.2885064987
 10
124.2905793736
 20
30.2296285416
  0
LINE
  5
3ED
100
AcDbEntity
  8
0
100
AcDbLine
 62
7
  6
CONTINUOUS
 10
163.6655213457
 20
61.3088803346
 11
163.6655213457
 21
58.3087011825
  0
LINE
  5
3EE
100
AcDbEntity
  8
0
100
AcDbLine
 62
7
  6
CONTINUOUS
 10
164.2905213457
 20
58.559676894
 11
164.2905213457
 21
60.2450506742
  0
LINE
  5
3EF
100
AcDbEntity
  8
0
100
AcDbLine
 62
7
  6
CONTINUOUS
 10
165.1967722993
 20
30.3088803346
 11
165.1967722993
 21
29.8088803346
  0
LINE
  5
3F0
100
AcDbEntity
  8
0
100
AcDbLine
 62
7
  6
CONTINUOUS
 10
165.8738557618
 20
30.3088803346
 11
165.8738557618
 21
29.8088803346
  0
LINE
  5
3F1
100
AcDbEntity
  8
0
100
AcDbLine
 62
7
  6
CONTINUOUS
 10
166.4155222993
 20
30.3088803346
 11
166.4155222993
 21
29.8088803346
  0
LINE
  5
3F2
100
AcDbEntity
  8
0
100
AcDbLine
 62
7
  6
CONTINUOUS
 10
166.8217722993
 20
30.3088803346
 11
166.8217722993
 21
29.8088803346
  0
LINE
  5
3F3
100
AcDbEntity
  8
0
100
AcDbLine
 62
7
  6
CONTINUOUS
 10
166.9571888369
 20
30.3088803346
 11
166.9571888369
 21
29.8088803346
  0
LINE
  5
3F4
100
AcDbEntity
  8
0
100
AcDbLine
 62
7
  6
CONTINUOUS
 10
167.0926057618
 20
30.3088803346
 11
167.0926057618
 21
29.8088803346
  0
LINE
  5
3F5
100
AcDbEntity
  8
0
100
AcDbLine
 62
7
  6
CONTINUOUS
 10
168.0405213457
 20
60.2450506742
 11
168.0405213457
 21
60.1196224334
  0
LINE
  5
3F6
100
AcDbEntity
  8
0
100
AcDbLine
 62
7
  6
CONTINUOUS
 10
168.1759388369
 20
30.3088803346
 11
168.1759388369
 21
29.8088803346
  0
LINE
  5
3F7
100
AcDbEntity
  8
0
100
AcDbLine
 62
7
  6
CONTINUOUS
 10
168.6655213457
 20
60.4314463039
 11
168.6655213457
 21
61.3088803346
  0
LINE
  5
3F8
100
AcDbEntity
  8
0
100
AcDbLine
 62
7
  6
CONTINUOUS
 10
168.9884392243
 20
30.3088803346
 11
168.9884392243
 21
29.8088803346
  0
LINE
  5
3F9
100
AcDbEntity
  8
0
100
AcDbLine
 62
7
  6
CONTINUOUS
 10
169.1238553744
 20
30.3088803346
 11
169.1238553744
 21
29.8088803346
  0
LINE
  5
3FA
100
AcDbEntity
  8
0
100
AcDbLine
 62
7
  6
CONTINUOUS
 10
169.3946892243
 20
30.3088803346
 11
169.3946892243
 21
29.8088803346
  0
LINE
  5
3FB
100
AcDbEntity
  8
0
100
AcDbLine
 62
7
  6
CONTINUOUS
 10
169.8009392243
 20
30.3088803346
 11
169.8009392243
 21
29.8088803346
  0
LINE
  5
3FC
100
AcDbEntity
  8
0
100
AcDbLine
 62
7
  6
CONTINUOUS
 10
170.3426053744
 20
30.3088803346
 11
170.3426053744
 21
29.8088803346
  0
LINE
  5
3FD
100
AcDbEntity
  8
0
100
AcDbLine
 62
7
  6
CONTINUOUS
 10
170.8842722993
 20
30.3088803346
 11
170.8842722993
 21
29.8088803346
  0
LINE
  5
3FE
100
AcDbEntity
  8
0
100
AcDbLine
 62
7
  6
CONTINUOUS
 10
171.4259392243
 20
30.3088803346
 11
171.4259392243
 21
29.8088803346
  0
LINE
  5
3FF
100
AcDbEntity
  8
0
100
AcDbLine
 62
7
  6
CONTINUOUS
 10
171.8321892243
 20
30.3088803346
 11
171.8321892243
 21
29.8088803346
  0
LINE
  5
400
100
AcDbEntity
  8
0
100
AcDbLine
 62
7
  6
CONTINUOUS
 10
172.1030222993
 20
30.3088803346
 11
172.1030222993
 21
29.8088803346
  0
LINE
  5
401
100
AcDbEntity
  8
0
100
AcDbLine
 62
7
  6
CONTINUOUS
 10
172.2384392243
 20
30.3088803346
 11
172.2384392243
 21
29.8088803346
  0
LINE
  5
402
100
AcDbEntity
  8
0
100
AcDbLine
 62
7
  6
CONTINUOUS
 10
173.0509392243
 20
30.3088803346
 11
173.0509392243
 21
29.8088803346
  0
LINE
  5
403
100
AcDbEntity
  8
0
100
AcDbLine
 62
7
  6
CONTINUOUS
 10
174.1342722993
 20
30.3088803346
 11
174.1342722993
 21
29.8088803346
  0
LINE
  5
404
100
AcDbEntity
  8
0
100
AcDbLine
 62
7
  6
CONTINUOUS
 10
177.3842722993
 20
30.3088803346
 11
177.3842722993
 21
29.8088803346
  0
LINE
  5
405
100
AcDbEntity
  8
0
100
AcDbLine
 62
7
  6
CONTINUOUS
 10
178.0613561493
 20
30.3088803346
 11
178.0613561493
 21
29.8088803346
  0
LINE
  5
406
100
AcDbEntity
  8
0
100
AcDbLine
 62
7
  6
CONTINUOUS
 10
178.6030222993
 20
30.3088803346
 11
178.6030222993
 21
29.8088803346
  0
LINE
  5
407
100
AcDbEntity
  8
0
100
AcDbLine
 62
7
  6
CONTINUOUS
 10
179.1446884494
 20
30.3088803346
 11
179.1446884494
 21
29.8088803346
  0
LINE
  5
408
100
AcDbEntity
  8
0
100
AcDbLine
 62
7
  6
CONTINUOUS
 10
179.4155222993
 20
30.3088803346
 11
179.4155222993
 21
29.8088803346
  0
LINE
  5
409
100
AcDbEntity
  8
0
100
AcDbLine
 62
7
  6
CONTINUOUS
 10
179.5509384494
 20
30.3088803346
 11
179.5509384494
 21
29.8088803346
  0
LINE
  5
40A
100
AcDbEntity
  8
RUNDUNGEN
100
AcDbLine
 62
7
  6
CONTINUOUS
 10
224.4488543611
 20
25.3088803346
 11
194.7488543611
 21
25.3088803346
  0
LINE
  5
40B
100
AcDbEntity
  8
0
100
AcDbLine
 62
7
  6
CONTINUOUS
 10
207.1784191859
 20
29.8088803346
 11
197.4988987796
 21
29.8088803346
  0
LINE
  5
40C
100
AcDbEntity
  8
0
100
AcDbLine
 62
7
  6
CONTINUOUS
 10
179.5509384494
 20
29.8088803346
 11
174.1342722993
 21
29.8088803346
  0
LINE
  5
40D
100
AcDbEntity
  8
0
100
AcDbLine
 62
7
  6
CONTINUOUS
 10
173.0509392243
 20
29.8088803346
 11
168.1759388369
 21
29.8088803346
  0
LINE
  5
40E
100
AcDbEntity
  8
0
100
AcDbLine
 62
7
  6
CONTINUOUS
 10
167.0926057618
 20
29.8088803346
 11
161.9467722993
 21
29.8088803346
  0
LINE
  5
40F
100
AcDbEntity
  8
0
100
AcDbLine
 62
7
  6
CONTINUOUS
 10
148.7524575424
 20
29.8088803346
 11
132.4803817781
 21
29.8088803346
  0
LINE
  5
410
100
AcDbEntity
  8
RUNDUNGEN
100
AcDbLine
 62
7
  6
CONTINUOUS
 10
119.0470589333
 20
30.3088803346
 11
222.4506515558
 21
30.3088803346
  0
LINE
  5
411
100
AcDbEntity
  8
0
100
AcDbLine
 62
7
  6
CONTINUOUS
 10
164.2905213457
 20
60.2450506742
 11
164.8345031052
 21
58.7767958582
  0
LINE
  5
412
100
AcDbEntity
  8
0
100
AcDbLine
 62
7
  6
CONTINUOUS
 10
165.4112544063
 20
58.9976777158
 11
164.6030213457
 21
61.3088803346
  0
LINE
  5
413
100
AcDbEntity
  8
RUNDUNGEN
100
AcDbLine
 62
7
  6
CONTINUOUS
 10
217.052919147
 20
30.141846574
 11
217.2090560433
 21
30.2306543154
  0
LWPOLYLINE
  5
414
100
AcDbEntity
  8
RUNDUNGEN
100
AcDbPolyline
 62
7
  6
CONTINUOUS
 90
3
 70
0
 10
217.2090560433
 20
30.2306543154
 10
217.3267083107
 20
30.2891329771
 10
217.3735443046
 20
30.3088803346
  0
LINE
  5
415
100
AcDbEntity
  8
RUNDUNGEN
100
AcDbLine
 62
7
  6
CONTINUOUS
 10
231.2488543611
 20
33.5588803346
 11
228.4488543611
 21
33.5588803346
  0
LINE
  5
416
100
AcDbEntity
  8
0
100
AcDbLine
 62
7
  6
CONTINUOUS
 10
197.4988543611
 20
30.3088803346
 11
197.4988543611
 21
29.8088803346
  0
LINE
  5
417
100
AcDbEntity
  8
0
100
AcDbLine
 62
7
  6
CONTINUOUS
 10
203.2684191859
 20
30.3088803346
 11
203.2684191859
 21
29.8088803346
  0
LWPOLYLINE
  5
418
100
AcDbEntity
  8
RUNDUNGEN
100
AcDbPolyline
 62
7
  6
CONTINUOUS
 90
13
 70
0
 10
212.0850916285
 20
25.3088803346
 10
212.8253710691
 20
26.1286543893
 10
213.3911576959
 20
26.7476988448
 10
213.9232462362
 20
27.3195831494
 10
214.4226194184
 20
27.8430838689
 10
214.8869135831
 20
28.314265042
 10
215.3145488171
 20
28.7311081182
 10
215.7037276597
 20
29.0925543589
 10
216.0513492082
 20
29.3976622503
 10
216.3595782332
 20
29.651180041
 10
216.6281768911
 20
29.8563188692
 10
216.8590176193
 20
30.0183446407
 10
217.052919147
 20
30.141846574
  0
LINE
  5
419
100
AcDbEntity
  8
RUNDUNGEN
100
AcDbLine
 62
7
  6
CONTINUOUS
 10
228.4488543611
 20
51.0588803346
 11
231.2488543611
 21
51.0588803346
  0
LINE
  5
41A
100
AcDbEntity
  8
BEZUGSACHSEN
100
AcDbLine
 62
7
  6
CONTINUOUS
 10
119.0470589333
 20
54.3088803346
 11
222.4506515558
 21
54.3088803346
  0
LINE
  5
41B
100
AcDbEntity
  8
0
100
AcDbLine
 62
7
  6
CONTINUOUS
 10
207.1784191859
 20
30.3088803346
 11
207.1784191859
 21
29.8088803346
  0
LINE
  5
41C
100
AcDbEntity
  8
RUNDUNGEN
100
AcDbLine
 62
7
  6
CONTINUOUS
 10
194.7488543611
 20
59.3088803346
 11
224.4488543611
 21
59.3088803346
  0
LINE
  5
41D
100
AcDbEntity
  8
0
100
AcDbLine
 62
7
  6
CONTINUOUS
 10
168.6655213457
 20
61.3088803346
 11
167.7280213457
 21
61.3088803346
  0
LINE
  5
41E
100
AcDbEntity
  8
0
100
AcDbLine
 62
7
  6
CONTINUOUS
 10
164.6030213457
 20
61.3088803346
 11
163.6655213457
 21
61.3088803346
  0
LINE
  5
41F
100
AcDbEntity
  8
RUNDUNGEN
100
AcDbLine
 62
7
  6
CONTINUOUS
 10
231.5617232912
 20
66.1131765942
 11
197.7769824036
 21
71.4641538712
  0
LWPOLYLINE
  5
420
100
AcDbEntity
  8
BEZUGSACHSEN
100
AcDbPolyline
 62
7
  6
CONTINUOUS
 90
3
 70
0
 10
217.3735572365
 20
54.3088803346
 10
217.3230044805
 20
54.3303261341
 10
217.2031159801
 20
54.39027509
  0
LINE
  5
421
100
AcDbEntity
  8
BEZUGSACHSEN
100
AcDbLine
 62
7
  6
CONTINUOUS
 10
217.2031159801
 20
54.39027509
 11
217.045449887
 21
54.4804229079
  0
LWPOLYLINE
  5
422
100
AcDbEntity
  8
BEZUGSACHSEN
100
AcDbPolyline
 62
7
  6
CONTINUOUS
 90
12
 70
0
 10
217.045449887
 20
54.4804229079
 10
216.8516607034
 20
54.6043459838
 10
216.6238089215
 20
54.7646439212
 10
216.3609362883
 20
54.9655039068
 10
216.0616468096
 20
55.2113524536
 10
215.7249333135
 20
55.5060787237
 10
215.3476253489
 20
55.8552152542
 10
214.9316679104
 20
56.2590303883
 10
214.4773489938
 20
56.7182732076
 10
213.9856207974
 20
57.2319997701
 10
213.4573648653
 20
57.7982688395
 10
212.8922733119
 20
58.4154712019
  0
LWPOLYLINE
  5
423
100
AcDbEntity
  8
BEZUGSACHSEN
100
AcDbPolyline
 62
7
  6
CONTINUOUS
 90
7
 70
0
 10
227.8016746714
 20
42.3088803353
 10
227.7931623423
 20
43.433876809
 10
227.762644985
 20
44.7209757209
 10
227.709404802
 20
46.0199016582
 10
227.6330415288
 20
47.3282561294
 10
227.5332744708
 20
48.6435614871
 10
227.4257525014
 20
49.8072425055
  0
LINE
  5
424
100
AcDbEntity
  8
RUNDUNGEN
100
AcDbLine
 62
7
  6
CONTINUOUS
 10
226.4488543611
 20
57.3088803346
 11
226.4488543611
 21
53.0588803346
  0
LINE
  5
425
100
AcDbEntity
  8
RUNDUNGEN
100
AcDbLine
 62
7
  6
CONTINUOUS
 10
226.4488543611
 20
31.5588803346
 11
226.4488543611
 21
27.3088803346
  0
LWPOLYLINE
  5
426
100
AcDbEntity
  8
RUNDUNGEN
100
AcDbPolyline
 62
7
  6
CONTINUOUS
 90
7
 70
0
 10
227.4257525014
 20
34.8105181637
 10
227.5332744708
 20
35.9741991818
 10
227.6330415287
 20
37.2895045394
 10
227.709404802
 20
38.5978590104
 10
227.762644985
 20
39.8967849476
 10
227.7931623423
 20
41.1838838594
 10
227.8016746714
 20
42.3088803353
  0
LWPOLYLINE
  5
427
100
AcDbEntity
  8
BEZUGSACHSEN
100
AcDbPolyline
 62
7
  6
CONTINUOUS
 90
32
 70
0
 10
199.2951168338
 20
71.2237049992
 10
198.3509471802
 20
71.8576700663
 10
196.5333302449
 20
72.963224508
 10
194.6569637484
 20
73.9926952674
 10
192.7217377526
 20
74.9448503044
 10
190.7277837257
 20
75.8179677945
 10
188.6734279644
 20
76.610481642
 10
186.5638810218
 20
77.3180835561
 10
184.4017531863
 20
77.9377147853
 10
182.1951740685
 20
78.4654761699
 10
179.9513395347
 20
78.8986106681
 10
177.6777423171
 20
79.2353054033
 10
175.381916844
 20
79.4747405778
 10
173.0724986828
 20
79.6178096205
 10
170.7561178685
 20
79.66572468
 10
168.4397277142
 20
79.6184065134
 10
166.1302642717
 20
79.4759384468
 10
163.8343445063
 20
79.2371150393
 10
161.5606086217
 20
78.9010354374
 10
159.316595545
 20
78.4685107093
 10
157.1098018299
 20
77.9413506287
 10
154.94742645
 20
77.3223087715
 10
152.8376047005
 20
76.6152819988
 10
150.7829478732
 20
75.8233264282
 10
148.7886691732
 20
74.9507490344
 10
146.8530954971
 20
73.9991155386
 10
144.9763590224
 20
72.9701477317
 10
143.1583501512
 20
71.8650769829
 10
141.3992451456
 20
70.6846640656
 10
139.6992772444
 20
69.4291467002
 10
138.0576200342
 20
68.0970895609
 10
136.5890786002
 20
66.7934336552
  0
LINE
  5
428
100
AcDbEntity
  8
BEZUGSACHSEN
100
AcDbLine
 62
7
  6
CONTINUOUS
 10
212.8922733119
 20
58.4154712019
 11
212.0851550288
 21
59.3088803346
  0
LINE
  5
429
100
AcDbEntity
  8
RUNDUNGEN
100
AcDbLine
 62
7
  6
CONTINUOUS
 10
233.2488543611
 20
20.4799607561
 11
233.2488543611
 21
31.5588803346
  0
LINE
  5
42A
100
AcDbEntity
  8
RUNDUNGEN
100
AcDbLine
 62
7
  6
CONTINUOUS
 10
233.2488543611
 20
53.0588803346
 11
233.2488543611
 21
64.137799913
  0
ARC
  5
42B
100
AcDbEntity
  8
BEZUGSACHSEN
100
AcDbCircle
 62
7
  6
CONTINUOUS
 10
115.2488543611
 20
299.2866542544
 40
22.5
100
AcDbArc
 50
0.0145306444
 51
50.5579367954
  0
ARC
  5
42C
100
AcDbEntity
  8
BEZUGSACHSEN
100
AcDbCircle
 62
7
  6
CONTINUOUS
 10
117.9666619952
 20
336.7463246641
 40
3.0000001343
100
AcDbArc
 50
343.0262170109
 51
22.5236942909
  0
ARC
  5
42D
100
AcDbEntity
  8
BEZUGSACHSEN
100
AcDbCircle
 62
7
  6
CONTINUOUS
 10
125.6218555232
 20
318.2866557456
 40
2.9999995933
100
AcDbArc
 50
22.5236785986
 51
90.0000163054
  0
ARC
  5
42E
100
AcDbEntity
  8
RUNDUNGEN
100
AcDbCircle
 62
7
  6
CONTINUOUS
 10
155.2488543611
 20
339.3366542544
 40
2.0
100
AcDbArc
 50
180.0
 51
270.0
  0
ARC
  5
42F
100
AcDbEntity
  8
RUNDUNGEN
100
AcDbCircle
 62
7
  6
CONTINUOUS
 10
155.2488543611
 20
342.3366542544
 40
2.0
100
AcDbArc
 50
90.0
 51
180.0
  0
ARC
  5
430
100
AcDbEntity
  8
BEZUGSACHSEN
100
AcDbCircle
 62
7
  6
CONTINUOUS
 10
122.7488543611
 20
335.2866542544
 40
2.0
100
AcDbArc
 50
163.0262202659
 51
180.0
  0
ARC
  5
431
100
AcDbEntity
  8
RUNDUNGEN
100
AcDbCircle
 62
7
  6
CONTINUOUS
 10
122.7488543611
 20
335.2866542544
 40
2.0
100
AcDbArc
 50
163.0262202659
 51
180.0
  0
ARC
  5
432
100
AcDbEntity
  8
BEZUGSACHSEN
100
AcDbCircle
 62
7
  6
CONTINUOUS
 10
122.7488543611
 20
323.2866542544
 40
2.0
100
AcDbArc
 50
180.0
 51
270.0
  0
ARC
  5
433
100
AcDbEntity
  8
0
100
AcDbCircle
 62
7
  6
CONTINUOUS
 10
170.7488543611
 20
355.7866542544
 40
30.0
100
AcDbArc
 50
337.8234335984
 51
341.8158316324
  0
ARC
  5
434
100
AcDbEntity
  8
0
100
AcDbCircle
 62
7
  6
CONTINUOUS
 10
170.7488543611
 20
355.7866542544
 40
30.0
100
AcDbArc
 50
198.1841683676
 51
202.1765674265
  0
ARC
  5
435
100
AcDbEntity
  8
RUNDUNGEN
100
AcDbCircle
 62
7
  6
CONTINUOUS
 10
170.7488543611
 20
355.7866542544
 40
30.0
100
AcDbArc
 50
341.8158316324
 51
198.1841683676
  0
ARC
  5
436
100
AcDbEntity
  8
RUNDUNGEN
100
AcDbCircle
 62
7
  6
CONTINUOUS
 10
170.7488543611
 20
406.6809292862
 40
5.0
100
AcDbArc
 50
69.0
 51
111.0
  0
ARC
  5
437
100
AcDbEntity
  8
RUNDUNGEN
100
AcDbCircle
 62
7
  6
CONTINUOUS
 10
133.8796482722
 20
392.5281670684
 40
5.0
100
AcDbArc
 50
111.0
 51
157.5
  0
ARC
  5
438
100
AcDbEntity
  8
BEZUGSACHSEN
100
AcDbCircle
 62
7
  6
CONTINUOUS
 10
118.6960366706
 20
355.8716860138
 40
5.0
100
AcDbArc
 50
157.5000904318
 51
202.5237625788
  0
ARC
  5
439
100
AcDbEntity
  8
BEZUGSACHSEN
100
AcDbCircle
 62
7
  6
CONTINUOUS
 10
226.2488543611
 20
299.2866542544
 40
22.5
100
AcDbArc
 50
129.4420632046
 51
179.9854693595
  0
ARC
  5
43A
100
AcDbEntity
  8
BEZUGSACHSEN
100
AcDbCircle
 62
7
  6
CONTINUOUS
 10
223.5310467521
 20
336.7463247178
 40
3.000000169
100
AcDbArc
 50
168.6438068855
 51
196.9737838313
  0
ARC
  5
43B
100
AcDbEntity
  8
BEZUGSACHSEN
100
AcDbCircle
 62
7
  6
CONTINUOUS
 10
215.8758534454
 20
318.2866553292
 40
2.9999997069
100
AcDbArc
 50
89.9999883995
 51
157.4763158572
  0
ARC
  5
43C
100
AcDbEntity
  8
RUNDUNGEN
100
AcDbCircle
 62
7
  6
CONTINUOUS
 10
231.2488543611
 20
339.3366542544
 40
2.0
100
AcDbArc
 50
270.0
 51
360.0
  0
ARC
  5
43D
100
AcDbEntity
  8
RUNDUNGEN
100
AcDbCircle
 62
7
  6
CONTINUOUS
 10
231.2488543611
 20
342.3366542544
 40
2.0
100
AcDbArc
 50
0.0
 51
90.0
  0
ARC
  5
43E
100
AcDbEntity
  8
BEZUGSACHSEN
100
AcDbCircle
 62
7
  6
CONTINUOUS
 10
218.7488543611
 20
335.2866542544
 40
2.0
100
AcDbArc
 50
0.0
 51
16.9737797341
  0
ARC
  5
43F
100
AcDbEntity
  8
BEZUGSACHSEN
100
AcDbCircle
 62
7
  6
CONTINUOUS
 10
218.7488543611
 20
323.2866542544
 40
2.0
100
AcDbArc
 50
270.0
 51
360.0
  0
ARC
  5
440
100
AcDbEntity
  8
RUNDUNGEN
100
AcDbCircle
 62
7
  6
CONTINUOUS
 10
218.7488543611
 20
335.2866542544
 40
2.0
100
AcDbArc
 50
0.0
 51
16.9737797341
  0
ARC
  5
441
100
AcDbEntity
  8
BEZUGSACHSEN
100
AcDbCircle
 62
7
  6
CONTINUOUS
 10
222.8016747883
 20
355.871679407
 40
5.0
100
AcDbArc
 50
337.476295342
 51
22.4999915146
  0
ARC
  5
442
100
AcDbEntity
  8
RUNDUNGEN
100
AcDbCircle
 62
7
  6
CONTINUOUS
 10
207.61806045
 20
392.5281670684
 40
5.0
100
AcDbArc
 50
22.5
 51
69.0
  0
ARC
  5
443
100
AcDbEntity
  8
0
100
AcDbCircle
 62
7
  6
CONTINUOUS
 10
204.6588543611
 20
384.1020509988
 40
3.25
100
AcDbArc
 50
39.1722311796
 51
230.8277688204
  0
ARC
  5
444
100
AcDbEntity
  8
0
100
AcDbCircle
 62
7
  6
CONTINUOUS
 10
200.7488543611
 20
388.0120509988
 40
3.25
100
AcDbArc
 50
39.1722311796
 51
230.8277688204
  0
ARC
  5
445
100
AcDbEntity
  8
0
100
AcDbCircle
 62
7
  6
CONTINUOUS
 10
204.6588543611
 20
384.1020509988
 40
2.28
100
AcDbArc
 50
147.4103810592
 51
233.3220405992
  0
ARC
  5
446
100
AcDbEntity
  8
0
100
AcDbCircle
 62
7
  6
CONTINUOUS
 10
204.6588543611
 20
384.1020509988
 40
2.28
100
AcDbArc
 50
36.6779594008
 51
122.6613798279
  0
ARC
  5
447
100
AcDbEntity
  8
0
100
AcDbCircle
 62
7
  6
CONTINUOUS
 10
200.7488543611
 20
388.0120509988
 40
2.28
100
AcDbArc
 50
36.6779594008
 51
233.3220405992
  0
ARC
  5
448
100
AcDbEntity
  8
KONSTRUKTIONSELEMENTE
100
AcDbCircle
 62
7
  6
CONTINUOUS
 10
348.877439322
 20
122.2018743068
 40
31.8914807744
100
AcDbArc
 50
96.3719208703
 51
96.5919479528
  0
ARC
  5
449
100
AcDbEntity
  8
KONSTRUKTIONSELEMENTE
100
AcDbCircle
 62
7
  6
CONTINUOUS
 10
371.567079102
 20
122.202316588
 40
31.8910354551
100
AcDbArc
 50
83.4080564252
 51
83.6294635294
  0
ARC
  5
44A
100
AcDbEntity
  8
KONSTRUKTIONSELEMENTE
100
AcDbCircle
 62
7
  6
CONTINUOUS
 10
348.7448764587
 20
123.4996600383
 40
30.5870025974
100
AcDbArc
 50
90.0424154831
 51
96.3949365488
  0
ARC
  5
44B
100
AcDbEntity
  8
KONSTRUKTIONSELEMENTE
100
AcDbCircle
 62
7
  6
CONTINUOUS
 10
371.6996053127
 20
123.4999824474
 40
30.5866801771
100
AcDbArc
 50
83.6064633316
 51
89.9576128126
  0
ARC
  5
44C
100
AcDbEntity
  8
0
100
AcDbCircle
 62
7
  6
CONTINUOUS
 10
214.5256630147
 20
346.0935279993
 40
185.0233176745
100
AcDbArc
 50
347.798501045
 51
348.0006531781
  0
ARC
  5
44D
100
AcDbEntity
  8
0
100
AcDbCircle
 62
7
  6
CONTINUOUS
 10
270.3599095129
 20
335.8352138318
 40
128.2714959472
100
AcDbArc
 50
345.6344317986
 51
346.7050320422
  0
ARC
  5
44E
100
AcDbEntity
  8
0
100
AcDbCircle
 62
7
  6
CONTINUOUS
 10
275.9674271621
 20
336.228118311
 40
122.3621716272
100
AcDbArc
 50
345.3390529977
 51
345.8669879058
  0
ARC
  5
44F
100
AcDbEntity
  8
0
100
AcDbCircle
 62
7
  6
CONTINUOUS
 10
278.1397967813
 20
335.7242405041
 40
120.6295883147
100
AcDbArc
 50
344.7692433376
 51
345.9065730937
  0
ARC
  5
450
100
AcDbEntity
  8
0
100
AcDbCircle
 62
7
  6
CONTINUOUS
 10
282.7277229401
 20
334.4578242023
 40
115.3739288287
100
AcDbArc
 50
344.6980974892
 51
345.3398638878
  0
ARC
  5
451
100
AcDbEntity
  8
0
100
AcDbCircle
 62
7
  6
CONTINUOUS
 10
317.0422580516
 20
324.0687784333
 40
80.1677178804
100
AcDbArc
 50
347.2819407013
 51
347.6986564938
  0
ARC
  5
452
100
AcDbEntity
  8
0
100
AcDbCircle
 62
7
  6
CONTINUOUS
 10
352.4643547825
 20
314.5865982294
 40
28.3720468214
100
AcDbArc
 50
188.4998069936
 51
189.805465506
  0
ARC
  5
453
100
AcDbEntity
  8
0
100
AcDbCircle
 62
7
  6
CONTINUOUS
 10
345.4301875383
 20
319.7850325267
 40
22.6283064943
100
AcDbArc
 50
215.092639323
 51
216.4204001414
  0
ARC
  5
454
100
AcDbEntity
  8
0
100
AcDbCircle
 62
7
  6
CONTINUOUS
 10
345.7143399145
 20
319.7573404377
 40
22.4047808257
100
AcDbArc
 50
215.4083356347
 51
216.7548668569
  0
ARC
  5
455
100
AcDbEntity
  8
0
100
AcDbCircle
 62
7
  6
CONTINUOUS
 10
345.1832678469
 20
318.4063694082
 40
22.0827651077
100
AcDbArc
 50
213.7503881721
 51
215.0888293642
  0
ARC
  5
456
100
AcDbEntity
  8
0
100
AcDbCircle
 62
7
  6
CONTINUOUS
 10
344.5930009508
 20
318.1630651362
 40
21.4079930583
100
AcDbArc
 50
201.2814674478
 51
202.5089097057
  0
ARC
  5
457
100
AcDbEntity
  8
0
100
AcDbCircle
 62
7
  6
CONTINUOUS
 10
346.7855133814
 20
307.2969121366
 40
21.3156260778
100
AcDbArc
 50
180.8282740203
 51
181.9724519584
  0
ARC
  5
458
100
AcDbEntity
  8
0
100
AcDbCircle
 62
7
  6
CONTINUOUS
 10
344.7054934913
 20
312.2482853469
 40
20.2955947125
100
AcDbArc
 50
195.019340189
 51
196.2668767574
  0
ARC
  5
459
100
AcDbEntity
  8
0
100
AcDbCircle
 62
7
  6
CONTINUOUS
 10
341.3208636779
 20
318.4260427338
 40
18.2659428016
100
AcDbArc
 50
202.4290658722
 51
204.6128083602
  0
ARC
  5
45A
100
AcDbEntity
  8
0
100
AcDbCircle
 62
7
  6
CONTINUOUS
 10
342.2317380614
 20
314.0304549829
 40
18.2470377272
100
AcDbArc
 50
188.1081131744
 51
190.1381562464
  0
ARC
  5
45B
100
AcDbEntity
  8
0
100
AcDbCircle
 62
7
  6
CONTINUOUS
 10
341.6192960673
 20
318.3828223041
 40
18.0490196223
100
AcDbArc
 50
203.3058324921
 51
204.777461932
  0
ARC
  5
45C
100
AcDbEntity
  8
0
100
AcDbCircle
 62
7
  6
CONTINUOUS
 10
341.6069182497
 20
318.3774079498
 40
18.0355096293
100
AcDbArc
 50
202.5641424855
 51
203.3055928676
  0
ARC
  5
45D
100
AcDbEntity
  8
0
100
AcDbCircle
 62
7
  6
CONTINUOUS
 10
342.4874325083
 20
305.5233612313
 40
16.7446637886
100
AcDbArc
 50
177.8973626577
 51
180.0819198427
  0
ARC
  5
45E
100
AcDbEntity
  8
0
100
AcDbCircle
 62
7
  6
CONTINUOUS
 10
342.7749229114
 20
305.4726748091
 40
16.5158271218
100
AcDbArc
 50
177.6922453971
 51
179.9072163343
  0
ARC
  5
45F
100
AcDbEntity
  8
0
100
AcDbCircle
 62
7
  6
CONTINUOUS
 10
341.0939664806
 20
310.0965266598
 40
16.3159718864
100
AcDbArc
 50
194.0420501515
 51
196.3649758063
  0
ARC
  5
460
100
AcDbEntity
  8
0
100
AcDbCircle
 62
7
  6
CONTINUOUS
 10
379.3504999423
 20
310.0965266598
 40
16.3159718864
100
AcDbArc
 50
343.6350241937
 51
345.9579498485
  0
ARC
  5
461
100
AcDbEntity
  8
BEZUGSACHSEN
100
AcDbCircle
 62
7
  6
CONTINUOUS
 10
332.2222332114
 20
344.2399748658
 40
16.0
100
AcDbArc
 50
289.9994095659
 51
0.0002053317
  0
ARC
  5
462
100
AcDbEntity
  8
0
100
AcDbCircle
 62
7
  6
CONTINUOUS
 10
333.0263903633
 20
317.9070223397
 40
13.63743664
100
AcDbArc
 50
245.4803827184
 51
247.7319000094
  0
ARC
  5
463
100
AcDbEntity
  8
0
100
AcDbCircle
 62
7
  6
CONTINUOUS
 10
334.1075726337
 20
318.4205417922
 40
13.6357162193
100
AcDbArc
 50
242.2736301361
 51
244.2612036715
  0
ARC
  5
464
100
AcDbEntity
  8
0
100
AcDbCircle
 62
7
  6
CONTINUOUS
 10
333.5492250683
 20
318.2141004417
 40
13.4456092129
100
AcDbArc
 50
241.9260963376
 51
243.91796902
  0
ARC
  5
465
100
AcDbEntity
  8
0
100
AcDbCircle
 62
7
  6
CONTINUOUS
 10
335.367387744
 20
315.2699096514
 40
12.6282241025
100
AcDbArc
 50
229.1876438568
 51
230.6875507571
  0
ARC
  5
466
100
AcDbEntity
  8
BEZUGSACHSEN
100
AcDbCircle
 62
7
  6
CONTINUOUS
 10
360.2222332114
 20
329.2866542544
 40
8.0
100
AcDbArc
 50
180.7083999235
 51
359.2916000765
  0
ARC
  5
467
100
AcDbEntity
  8
BEZUGSACHSEN
100
AcDbCircle
 62
7
  6
CONTINUOUS
 10
327.8655289891
 20
320.3065309873
 40
5.0
100
AcDbArc
 50
110.0
 51
192.0005028743
  0
ARC
  5
468
100
AcDbEntity
  8
0
100
AcDbCircle
 62
7
  6
CONTINUOUS
 10
328.296931482
 20
312.8596995168
 40
4.4070558829
100
AcDbArc
 50
210.7590644149
 51
214.0355728654
  0
ARC
  5
469
100
AcDbEntity
  8
0
100
AcDbCircle
 62
7
  6
CONTINUOUS
 10
328.4221773469
 20
307.9157087254
 40
3.4738766785
100
AcDbArc
 50
202.9123566812
 51
206.7802613004
  0
ARC
  5
46A
100
AcDbEntity
  8
0
100
AcDbCircle
 62
7
  6
CONTINUOUS
 10
327.352966566
 20
310.4551851871
 40
2.949685074
100
AcDbArc
 50
177.0730677707
 51
181.207274543
  0
ARC
  5
46B
100
AcDbEntity
  8
0
100
AcDbCircle
 62
7
  6
CONTINUOUS
 10
328.3209481724
 20
305.7873792939
 40
2.9425612795
100
AcDbArc
 50
164.7119486222
 51
168.9675148748
  0
ARC
  5
46C
100
AcDbEntity
  8
RUNDUNGEN
100
AcDbCircle
 62
7
  6
CONTINUOUS
 10
332.7222332114
 20
339.3366542544
 40
2.0
100
AcDbArc
 50
180.0
 51
270.0
  0
ARC
  5
46D
100
AcDbEntity
  8
RUNDUNGEN
100
AcDbCircle
 62
7
  6
CONTINUOUS
 10
332.7222332114
 20
342.3366542544
 40
2.0
100
AcDbArc
 50
90.0
 51
180.0
  0
ARC
  5
46E
100
AcDbEntity
  8
0
100
AcDbCircle
 62
7
  6
CONTINUOUS
 10
326.0957285778
 20
311.4576091671
 40
1.9286254493
100
AcDbArc
 50
173.6884251927
 51
180.0220519085
  0
ARC
  5
46F
100
AcDbEntity
  8
BEZUGSACHSEN
100
AcDbCircle
 62
7
  6
CONTINUOUS
 10
353.2222332114
 20
406.6809292862
 40
5.0
100
AcDbArc
 50
90.0
 51
180.0
  0
ARC
  5
470
100
AcDbEntity
  8
RUNDUNGEN
100
AcDbCircle
 62
7
  6
CONTINUOUS
 10
367.2222332114
 20
406.6809292862
 40
5.0
100
AcDbArc
 50
0.0
 51
90.0
  0
ARC
  5
471
100
AcDbEntity
  8
0
100
AcDbCircle
 62
7
  6
CONTINUOUS
 10
554.7525123883
 20
370.9799474591
 40
237.866462392
100
AcDbArc
 50
195.0215390541
 51
195.1807876158
  0
ARC
  5
472
100
AcDbEntity
  8
0
100
AcDbCircle
 62
7
  6
CONTINUOUS
 10
505.9188034082
 20
346.0935279993
 40
185.0233176745
100
AcDbArc
 50
191.9993468219
 51
192.201498955
  0
ARC
  5
473
100
AcDbEntity
  8
0
100
AcDbCircle
 62
7
  6
CONTINUOUS
 10
489.3765658029
 20
357.1987921043
 40
171.0275899203
100
AcDbArc
 50
196.031261704
 51
196.4024228173
  0
ARC
  5
474
100
AcDbEntity
  8
0
100
AcDbCircle
 62
7
  6
CONTINUOUS
 10
489.6910404972
 20
345.0958157477
 40
168.9416877147
100
AcDbArc
 50
192.7399069069
 51
193.0360007052
  0
ARC
  5
475
100
AcDbEntity
  8
0
100
AcDbCircle
 62
7
  6
CONTINUOUS
 10
486.6932472478
 20
356.4674526523
 40
167.748064804
100
AcDbArc
 50
196.093228117
 51
196.4717719828
  0
ARC
  5
476
100
AcDbEntity
  8
0
100
AcDbCircle
 62
7
  6
CONTINUOUS
 10
474.0060187161
 20
358.0698468247
 40
155.7779631763
100
AcDbArc
 50
198.9763463582
 51
199.2247932479
  0
ARC
  5
477
100
AcDbEntity
  8
0
100
AcDbCircle
 62
7
  6
CONTINUOUS
 10
470.8202224461
 20
357.1419746487
 40
151.9564275705
100
AcDbArc
 50
199.1019144355
 51
199.3568085551
  0
ARC
  5
478
100
AcDbEntity
  8
0
100
AcDbCircle
 62
7
  6
CONTINUOUS
 10
466.651851842
 20
325.1920077038
 40
142.3484304799
100
AcDbArc
 50
187.0880149423
 51
187.346984466
  0
ARC
  5
479
100
AcDbEntity
  8
0
100
AcDbCircle
 62
7
  6
CONTINUOUS
 10
446.6639272233
 20
334.9764645263
 40
124.7447597692
100
AcDbArc
 50
193.7862309327
 51
194.3732783145
  0
ARC
  5
47A
100
AcDbEntity
  8
0
100
AcDbCircle
 62
7
  6
CONTINUOUS
 10
433.0272801842
 20
317.4933685619
 40
107.8726019756
100
AcDbArc
 50
185.5882938362
 51
186.0426701271
  0
ARC
  5
47B
100
AcDbEntity
  8
0
100
AcDbCircle
 62
7
  6
CONTINUOUS
 10
432.3232787769
 20
317.2082925072
 40
106.6270473777
100
AcDbArc
 50
185.4998710082
 51
185.9594854968
  0
ARC
  5
47C
100
AcDbEntity
  8
0
100
AcDbCircle
 62
7
  6
CONTINUOUS
 10
416.6404176894
 20
340.7029535039
 40
96.2396343684
100
AcDbArc
 50
200.5065730398
 51
201.0484954691
  0
ARC
  5
47D
100
AcDbEntity
  8
0
100
AcDbCircle
 62
7
  6
CONTINUOUS
 10
403.3460326596
 20
334.0322668412
 40
82.1346420404
100
AcDbArc
 50
197.0371448654
 51
197.5034349175
  0
ARC
  5
47E
100
AcDbEntity
  8
0
100
AcDbCircle
 62
7
  6
CONTINUOUS
 10
403.0949884587
 20
324.0009093571
 40
79.8530918333
100
AcDbArc
 50
192.3007288641
 51
192.8229344936
  0
ARC
  5
47F
100
AcDbEntity
  8
0
100
AcDbCircle
 62
7
  6
CONTINUOUS
 10
388.0781247963
 20
331.6035948855
 40
66.6855688051
100
AcDbArc
 50
198.1609272186
 51
198.9322174399
  0
ARC
  5
480
100
AcDbEntity
  8
0
100
AcDbCircle
 62
7
  6
CONTINUOUS
 10
387.5548342815
 20
331.3674015311
 40
65.6232573415
100
AcDbArc
 50
198.2481644291
 51
199.0323718195
  0
ARC
  5
481
100
AcDbEntity
  8
RUNDUNGEN
100
AcDbCircle
 62
7
  6
CONTINUOUS
 10
388.2222332114
 20
344.2399748658
 40
16.0
100
AcDbArc
 50
179.9997946683
 51
250.0005904341
  0
ARC
  5
482
100
AcDbEntity
  8
RUNDUNGEN
100
AcDbCircle
 62
7
  6
CONTINUOUS
 10
392.5789374337
 20
320.3065309873
 40
5.0
100
AcDbArc
 50
347.9994971257
 51
70.0
  0
ARC
  5
483
100
AcDbEntity
  8
0
100
AcDbCircle
 62
7
  6
CONTINUOUS
 10
392.9876517722
 20
306.4156650012
 40
2.2160834268
100
AcDbArc
 50
333.9598444361
 51
335.5781116266
  0
ARC
  5
484
100
AcDbEntity
  8
RUNDUNGEN
100
AcDbCircle
 62
7
  6
CONTINUOUS
 10
387.7222332114
 20
339.3366542544
 40
2.0
100
AcDbArc
 50
270.0
 51
360.0
  0
ARC
  5
485
100
AcDbEntity
  8
RUNDUNGEN
100
AcDbCircle
 62
7
  6
CONTINUOUS
 10
387.7222332114
 20
342.3366542544
 40
2.0
100
AcDbArc
 50
0.0
 51
90.0
  0
ARC
  5
486
100
AcDbEntity
  8
0
100
AcDbCircle
 62
7
  6
CONTINUOUS
 10
2390.6703149176
 20
803.2939948275
 40
2122.9980830287
100
AcDbArc
 50
193.4013743864
 51
193.5194613083
  0
ARC
  5
487
100
AcDbEntity
  8
0
100
AcDbCircle
 62
7
  6
CONTINUOUS
 10
2024.008187166
 20
724.8502955056
 40
1747.8923842978
100
AcDbArc
 50
193.6878068259
 51
193.8170521891
  0
ARC
  5
488
100
AcDbEntity
  8
0
100
AcDbCircle
 62
7
  6
CONTINUOUS
 10
1939.0244194688
 20
705.2757547266
 40
1660.1723777191
100
AcDbArc
 50
193.7312706301
 51
193.8659241954
  0
ARC
  5
489
100
AcDbEntity
  8
RUNDUNGEN
100
AcDbCircle
 62
7
  6
CONTINUOUS
 10
155.7488543611
 20
-0.6474928829
 40
28.0
100
AcDbArc
 50
47.7563277221
 51
70.7512329275
  0
ARC
  5
48A
100
AcDbEntity
  8
RUNDUNGEN
100
AcDbCircle
 62
7
  6
CONTINUOUS
 10
119.0470872519
 20
35.308909818
 40
5.0000294835
100
AcDbArc
 50
185.7209696525
 51
269.9995705839
  0
ARC
  5
48B
100
AcDbEntity
  8
BEZUGSACHSEN
100
AcDbCircle
 62
7
  6
CONTINUOUS
 10
119.0470872519
 20
49.3088508512
 40
5.0000294835
100
AcDbArc
 50
90.0004294161
 51
174.2790303475
  0
ARC
  5
48C
100
AcDbEntity
  8
0
100
AcDbCircle
 62
7
  6
CONTINUOUS
 10
170.7488543611
 20
42.3088803346
 40
28.25
100
AcDbArc
 50
323.2762661217
 51
334.8657049324
  0
ARC
  5
48D
100
AcDbEntity
  8
0
100
AcDbCircle
 62
7
  6
CONTINUOUS
 10
170.7488543611
 20
42.3088803346
 40
28.25
100
AcDbArc
 50
206.2659450483
 51
290.5921334594
  0
ARC
  5
48E
100
AcDbEntity
  8
0
100
AcDbCircle
 62
7
  6
CONTINUOUS
 10
170.7488543611
 20
42.3088803346
 40
28.25
100
AcDbArc
 50
25.1343102986
 51
36.7237346537
  0
ARC
  5
48F
100
AcDbEntity
  8
0
100
AcDbCircle
 62
7
  6
CONTINUOUS
 10
170.7488543611
 20
42.3088803346
 40
28.25
100
AcDbArc
 50
69.4078633634
 51
154.8657150149
  0
ARC
  5
490
100
AcDbEntity
  8
RUNDUNGEN
100
AcDbCircle
 62
7
  6
CONTINUOUS
 10
170.7488543611
 20
42.3088803346
 40
28.0
100
AcDbArc
 50
25.3877101392
 51
36.9946994936
  0
ARC
  5
491
100
AcDbEntity
  8
RUNDUNGEN
100
AcDbCircle
 62
7
  6
CONTINUOUS
 10
170.7488543611
 20
42.3088803346
 40
28.0
100
AcDbArc
 50
69.8773149868
 51
154.6122898607
  0
ARC
  5
492
100
AcDbEntity
  8
RUNDUNGEN
100
AcDbCircle
 62
7
  6
CONTINUOUS
 10
170.7488543611
 20
42.3088803346
 40
28.0
100
AcDbArc
 50
206.5167782527
 51
290.1226850133
  0
ARC
  5
493
100
AcDbEntity
  8
RUNDUNGEN
100
AcDbCircle
 62
7
  6
CONTINUOUS
 10
170.7488543611
 20
42.3088803346
 40
28.0
100
AcDbArc
 50
323.0053005064
 51
334.6122898607
  0
ARC
  5
494
100
AcDbEntity
  8
RUNDUNGEN
100
AcDbCircle
 62
7
  6
CONTINUOUS
 10
170.7488543611
 20
42.3088803346
 40
17.5
100
AcDbArc
 50
223.3175015152
 51
250.7512329275
  0
ARC
  5
495
100
AcDbEntity
  8
RUNDUNGEN
100
AcDbCircle
 62
7
  6
CONTINUOUS
 10
170.7488543611
 20
42.3088803346
 40
17.5
100
AcDbArc
 50
109.2487670725
 51
136.6824984558
  0
ARC
  5
496
100
AcDbEntity
  8
RUNDUNGEN
100
AcDbCircle
 62
7
  6
CONTINUOUS
 10
155.7488543611
 20
85.2652535521
 40
28.0
100
AcDbArc
 50
289.2487670725
 51
312.2436722779
  0
ARC
  5
497
100
AcDbEntity
  8
RUNDUNGEN
100
AcDbCircle
 62
7
  6
CONTINUOUS
 10
193.3968173824
 20
40.8088803346
 40
28.0
100
AcDbArc
 50
227.7563277221
 51
279.0
  0
ARC
  5
498
100
AcDbEntity
  8
RUNDUNGEN
100
AcDbCircle
 62
7
  6
CONTINUOUS
 10
194.7488543611
 20
34.3088803346
 40
9.0
100
AcDbArc
 50
206.4102927865
 51
270.0
  0
ARC
  5
499
100
AcDbEntity
  8
RUNDUNGEN
100
AcDbCircle
 62
7
  6
CONTINUOUS
 10
222.4506246254
 20
35.3089098182
 40
5.0000294837
100
AcDbArc
 50
270.0003318997
 51
354.2793508018
  0
ARC
  5
49A
100
AcDbEntity
  8
RUNDUNGEN
100
AcDbCircle
 62
7
  6
CONTINUOUS
 10
231.2488543611
 20
20.4799607561
 40
2.0
100
AcDbArc
 50
279.0
 51
360.0
  0
ARC
  5
49B
100
AcDbEntity
  8
RUNDUNGEN
100
AcDbCircle
 62
7
  6
CONTINUOUS
 10
228.4488543611
 20
31.5588803346
 40
2.0
100
AcDbArc
 50
90.0
 51
180.0
  0
ARC
  5
49C
100
AcDbEntity
  8
RUNDUNGEN
100
AcDbCircle
 62
7
  6
CONTINUOUS
 10
231.2488543611
 20
31.5588803346
 40
2.0
100
AcDbArc
 50
0.0
 51
90.0
  0
ARC
  5
49D
100
AcDbEntity
  8
RUNDUNGEN
100
AcDbCircle
 62
7
  6
CONTINUOUS
 10
224.4488543611
 20
27.3088803346
 40
2.0
100
AcDbArc
 50
270.0
 51
360.0
  0
ARC
  5
49E
100
AcDbEntity
  8
RUNDUNGEN
100
AcDbCircle
 62
7
  6
CONTINUOUS
 10
193.3968173824
 20
43.8088803346
 40
28.0
100
AcDbArc
 50
81.0
 51
132.2436722779
  0
ARC
  5
49F
100
AcDbEntity
  8
RUNDUNGEN
100
AcDbCircle
 62
7
  6
CONTINUOUS
 10
194.7488543611
 20
50.3088803346
 40
9.0
100
AcDbArc
 50
90.0
 51
153.589707198
  0
ARC
  5
4A0
100
AcDbEntity
  8
BEZUGSACHSEN
100
AcDbCircle
 62
7
  6
CONTINUOUS
 10
222.4506246254
 20
49.308850851
 40
5.0000294837
100
AcDbArc
 50
5.7206491982
 51
89.9996681003
  0
ARC
  5
4A1
100
AcDbEntity
  8
RUNDUNGEN
100
AcDbCircle
 62
7
  6
CONTINUOUS
 10
231.2488543611
 20
64.137799913
 40
2.0
100
AcDbArc
 50
0.0
 51
81.0
  0
ARC
  5
4A2
100
AcDbEntity
  8
RUNDUNGEN
100
AcDbCircle
 62
7
  6
CONTINUOUS
 10
228.4488543611
 20
53.0588803346
 40
2.0
100
AcDbArc
 50
180.0
 51
270.0
  0
ARC
  5
4A3
100
AcDbEntity
  8
RUNDUNGEN
100
AcDbCircle
 62
7
  6
CONTINUOUS
 10
231.2488543611
 20
53.0588803346
 40
2.0
100
AcDbArc
 50
270.0
 51
360.0
  0
ARC
  5
4A4
100
AcDbEntity
  8
RUNDUNGEN
100
AcDbCircle
 62
7
  6
CONTINUOUS
 10
224.4488543611
 20
57.3088803346
 40
2.0
100
AcDbArc
 50
0.0
 51
90.0
  0
SPLINE
  5
4A5
100
AcDbEntity
  8
KONSTRUKTIONSELEMENTE
100
AcDbSpline
 62
7
  6
CONTINUOUS
 70
0
 71
3
 72
11
 73
7
 74
0
 42
0.0000001
 43
0.0000001
 44
0.0000000001
 40
0.0
 40
0.0
 40
0.0
 40
0.0
 40
0.2404052908
 40
0.4855030404
 40
0.7383571263
 40
1.0
 40
1.0
 40
1.0
 40
1.0
 10
150.8302700754
 20
154.0866542545
 30
0.0
 10
150.2671539283
 20
154.0866542545
 30
0.0
 10
149.1278206075
 20
153.9884775479
 30
0.0
 10
147.4449074706
 20
153.5643901634
 30
0.0
 10
145.7892667375
 20
152.9015560238
 30
0.0
 10
144.721496254
 20
152.3388082363
 30
0.0
 10
144.1907419784
 20
152.0323771124
 30
0.0
  0
SPLINE
  5
4A6
100
AcDbEntity
  8
KONSTRUKTIONSELEMENTE
100
AcDbSpline
 62
7
  6
CONTINUOUS
 70
0
 71
3
 72
11
 73
7
 74
0
 42
0.0000001
 43
0.0000001
 44
0.0000000001
 40
0.0
 40
0.0
 40
0.0
 40
0.0
 40
0.2616428802
 40
0.5144969823
 40
0.7595947272
 40
1.0
 40
1.0
 40
1.0
 40
1.0
 10
197.3069667438
 20
152.0323771124
 30
0.0
 10
196.7762124553
 20
152.3388082438
 30
0.0
 10
195.7084419218
 20
152.9015560469
 30
0.0
 10
194.0528011499
 20
153.5643902055
 30
0.0
 10
192.3698880171
 20
153.9884775326
 30
0.0
 10
191.2305547537
 20
154.0866542545
 30
0.0
 10
190.6674386492
 20
154.0866542545
 30
0.0
  0
SPLINE
  5
4A7
100
AcDbEntity
  8
BEZUGSACHSEN
100
AcDbSpline
 62
7
  6
CONTINUOUS
 70
0
 71
3
 72
17
 73
13
 74
0
 42
0.0000001
 43
0.0000001
 44
0.0000000001
 40
0.0
 40
0.0
 40
0.0
 40
0.0
 40
0.1379636555
 40
0.2669140272
 40
0.3865442262
 40
0.4437301455
 40
0.5000000617
 40
0.5562699813
 40
0.6134558775
 40
0.7330860301
 40
0.8620363493
 40
1.0
 40
1.0
 40
1.0
 40
1.0
 10
197.3069667438
 20
134.3947666371
 30
0.0
 10
196.8048037211
 20
133.8926036144
 30
0.0
 10
195.7915465597
 20
132.9604205977
 30
0.0
 10
194.163341477
 20
131.80477295
 30
0.0
 10
192.7156871534
 20
131.1478011824
 30
0.0
 10
191.5419106839
 20
130.8812503684
 30
0.0
 10
190.6674376817
 20
130.8146924651
 30
0.0
 10
189.7929647192
 20
130.8812501329
 30
0.0
 10
188.6191888966
 20
131.1478022522
 30
0.0
 10
187.1715351032
 20
131.8047733123
 30
0.0
 10
185.5433305097
 20
132.9604208596
 30
0.0
 10
184.5300735576
 20
133.892603632
 30
0.0
 10
184.0279105525
 20
134.3947666371
 30
0.0
  0
SPLINE
  5
4A8
100
AcDbEntity
  8
KONSTRUKTIONSELEMENTE
100
AcDbSpline
 62
7
  6
CONTINUOUS
 70
0
 71
3
 72
11
 73
7
 74
0
 42
0.0000001
 43
0.0000001
 44
0.0000000001
 40
0.0
 40
0.0
 40
0.0
 40
0.0
 40
0.2404052908
 40
0.4855030404
 40
0.7383571263
 40
1.0
 40
1.0
 40
1.0
 40
1.0
 10
190.6674386492
 20
154.0866542545
 30
0.0
 10
190.1043225021
 20
154.0866542545
 30
0.0
 10
188.9649891814
 20
153.9884775479
 30
0.0
 10
187.2820760446
 20
153.5643901634
 30
0.0
 10
185.6264353115
 20
152.9015560237
 30
0.0
 10
184.5586648281
 20
152.3388082363
 30
0.0
 10
184.0279105525
 20
152.0323771124
 30
0.0
  0
SPLINE
  5
4A9
100
AcDbEntity
  8
KONSTRUKTIONSELEMENTE
100
AcDbSpline
 62
7
  6
CONTINUOUS
 70
0
 71
3
 72
10
 73
6
 74
0
 42
0.0000001
 43
0.0000001
 44
0.0000000001
 40
0.0
 40
0.0
 40
0.0
 40
0.0
 40
0.4999007835
 40
0.7499513908
 40
1.0
 40
1.0
 40
1.0
 40
1.0
 10
184.0279105525
 20
152.0323771124
 30
0.0
 10
181.8703611634
 20
152.6552079727
 30
0.0
 10
178.5811156135
 20
153.4338309608
 30
0.0
 10
174.1198502431
 20
153.9907935197
 30
0.0
 10
171.8721198739
 20
154.0866542545
 30
0.0
 10
170.7488543611
 20
154.0866542545
 30
0.0
  0
SPLINE
  5
4AA
100
AcDbEntity
  8
BEZUGSACHSEN
100
AcDbSpline
 62
7
  6
CONTINUOUS
 70
0
 71
3
 72
15
 73
11
 74
0
 42
0.0000001
 43
0.0000001
 44
0.0000000001
 40
0.0
 40
0.0
 40
0.0
 40
0.0
 40
0.1250196637
 40
0.2500285919
 40
0.3750218188
 40
0.5000000697
 40
0.6249782901
 40
0.7499714641
 40
0.8749803406
 40
1.0
 40
1.0
 40
1.0
 40
1.0
 10
184.0279105525
 20
134.3947666371
 30
0.0
 10
182.9941853698
 20
133.8779040458
 30
0.0
 10
180.8895682277
 20
132.9156116133
 30
0.0
 10
177.611797579
 20
131.7675563983
 30
0.0
 10
174.2180501327
 20
131.0135295181
 30
0.0
 10
170.7488527064
 20
130.748378351
 30
0.0
 10
167.2796558481
 20
131.0135301954
 30
0.0
 10
163.8859096716
 20
131.7675569293
 30
0.0
 10
160.6081399867
 20
132.9156118456
 30
0.0
 10
158.503523317
 20
133.8779040635
 30
0.0
 10
157.4697981698
 20
134.3947666371
 30
0.0
  0
SPLINE
  5
4AB
100
AcDbEntity
  8
KONSTRUKTIONSELEMENTE
100
AcDbSpline
 62
7
  6
CONTINUOUS
 70
0
 71
3
 72
10
 73
6
 74
0
 42
0.0000001
 43
0.0000001
 44
0.0000000001
 40
0.0
 40
0.0
 40
0.0
 40
0.0
 40
0.2500490075
 40
0.5000997294
 40
1.0
 40
1.0
 40
1.0
 40
1.0
 10
170.7488543611
 20
154.0866542545
 30
0.0
 10
169.6255870562
 20
154.0866542545
 30
0.0
 10
167.3778543447
 20
153.9907937585
 30
0.0
 10
162.9165891084
 20
153.4338298636
 30
0.0
 10
159.6273453511
 20
152.6552073354
 30
0.0
 10
157.4697981698
 20
152.0323771124
 30
0.0
  0
SPLINE
  5
4AC
100
AcDbEntity
  8
KONSTRUKTIONSELEMENTE
100
AcDbSpline
 62
7
  6
CONTINUOUS
 70
0
 71
3
 72
11
 73
7
 74
0
 42
0.0000001
 43
0.0000001
 44
0.0000000001
 40
0.0
 40
0.0
 40
0.0
 40
0.0
 40
0.2616428802
 40
0.5144969823
 40
0.7595947272
 40
1.0
 40
1.0
 40
1.0
 40
1.0
 10
157.4697981698
 20
152.0323771124
 30
0.0
 10
156.9390438813
 20
152.3388082438
 30
0.0
 10
155.8712733478
 20
152.9015560468
 30
0.0
 10
154.2156325759
 20
153.5643902054
 30
0.0
 10
152.5327194432
 20
153.9884775326
 30
0.0
 10
151.3933861799
 20
154.0866542544
 30
0.0
 10
150.8302700754
 20
154.0866542545
 30
0.0
  0
SPLINE
  5
4AD
100
AcDbEntity
  8
BEZUGSACHSEN
100
AcDbSpline
 62
7
  6
CONTINUOUS
 70
0
 71
3
 72
17
 73
13
 74
0
 42
0.0000001
 43
0.0000001
 44
0.0000000001
 40
0.0
 40
0.0
 40
0.0
 40
0.0
 40
0.1379636555
 40
0.2669140272
 40
0.3865442262
 40
0.4437301455
 40
0.5000000617
 40
0.5562699813
 40
0.6134558775
 40
0.7330860301
 40
0.8620363493
 40
1.0
 40
1.0
 40
1.0
 40
1.0
 10
157.4697981698
 20
134.3947666371
 30
0.0
 10
156.9676351471
 20
133.8926036144
 30
0.0
 10
155.9543779856
 20
132.9604205977
 30
0.0
 10
154.326172903
 20
131.80477295
 30
0.0
 10
152.8785185793
 20
131.1478011824
 30
0.0
 10
151.7047421098
 20
130.8812503684
 30
0.0
 10
150.8302691076
 20
130.8146924651
 30
0.0
 10
149.9557961451
 20
130.8812501329
 30
0.0
 10
148.7820203225
 20
131.1478022522
 30
0.0
 10
147.3343665291
 20
131.8047733123
 30
0.0
 10
145.7061619356
 20
132.9604208596
 30
0.0
 10
144.6929049835
 20
133.892603632
 30
0.0
 10
144.1907419784
 20
134.3947666371
 30
0.0
  0
SPLINE
  5
4AE
100
AcDbEntity
  8
0
100
AcDbSpline
 62
7
  6
CONTINUOUS
 70
0
 71
3
 72
11
 73
7
 74
0
 42
0.0000001
 43
0.0000001
 44
0.0000000001
 40
0.0
 40
0.0
 40
0.0
 40
0.0
 40
0.2468635005
 40
0.4920245707
 40
0.7416331173
 40
1.0
 40
1.0
 40
1.0
 40
1.0
 10
193.1549674808
 20
332.4298696575
 30
0.0
 10
192.8188483373
 20
332.0297833568
 30
0.0
 10
192.0784957262
 20
331.288252293
 30
0.0
 10
190.7858315232
 20
330.3848562549
 30
0.0
 10
189.3457826695
 20
329.6880357835
 30
0.0
 10
188.322114147
 20
329.3501020021
 30
0.0
 10
187.7948579144
 20
329.2048929332
 30
0.0
  0
SPLINE
  5
4AF
100
AcDbEntity
  8
0
100
AcDbSpline
 62
7
  6
CONTINUOUS
 70
0
 71
3
 72
11
 73
7
 74
0
 42
0.0000001
 43
0.0000001
 44
0.0000000001
 40
0.0
 40
0.0
 40
0.0
 40
0.0
 40
0.2583668807
 40
0.5079754023
 40
0.7531364945
 40
1.0
 40
1.0
 40
1.0
 40
1.0
 10
153.7028508078
 20
329.2048929332
 30
0.0
 10
153.1755944659
 20
329.3501020322
 30
0.0
 10
152.1519257273
 20
329.6880358158
 30
0.0
 10
150.7118768184
 20
330.3848567427
 30
0.0
 10
149.4192116978
 20
331.2882523486
 30
0.0
 10
148.6788603537
 20
332.0297849937
 30
0.0
 10
148.3427407327
 20
332.4298710541
 30
0.0
  0
SPLINE
  5
4B0
100
AcDbEntity
  8
0
100
AcDbSpline
 62
7
  6
CONTINUOUS
 70
0
 71
3
 72
9
 73
5
 74
0
 42
0.0000001
 43
0.0000001
 44
0.0000000001
 40
0.0
 40
0.0
 40
0.0
 40
0.0
 40
0.2370136223
 40
1.0
 40
1.0
 40
1.0
 40
1.0
 10
198.5296017479
 20
344.4627865015
 30
0.0
 10
198.5256205858
 20
344.4530195448
 30
0.0
 10
198.509140978
 20
344.4116816582
 30
0.0
 10
198.4937811473
 20
344.3699035704
 30
0.0
 10
198.4824768732
 20
344.3378874894
 30
0.0
  0
SPLINE
  5
4B1
100
AcDbEntity
  8
0
100
AcDbSpline
 62
7
  6
CONTINUOUS
 70
0
 71
3
 72
9
 73
5
 74
0
 42
0.0000001
 43
0.0000001
 44
0.0000000001
 40
0.0
 40
0.0
 40
0.0
 40
0.0
 40
0.2534611787
 40
1.0
 40
1.0
 40
1.0
 40
1.0
 10
196.2685737932
 20
337.336026408
 30
0.0
 10
196.1912430898
 20
337.1583678264
 30
0.0
 10
195.8728033285
 20
336.463263371
 30
0.0
 10
195.50303618
 20
335.7921258437
 30
0.0
 10
195.2050097303
 20
335.3054311991
 30
0.0
  0
SPLINE
  5
4B2
100
AcDbEntity
  8
0
100
AcDbSpline
 62
7
  6
CONTINUOUS
 70
0
 71
3
 72
9
 73
5
 74
0
 42
0.0000001
 43
0.0000001
 44
0.0000000001
 40
0.0
 40
0.0
 40
0.0
 40
0.0
 40
0.2469522583
 40
1.0
 40
1.0
 40
1.0
 40
1.0
 10
195.2050097303
 20
335.3054311991
 30
0.0
 10
195.0531366035
 20
335.0574202667
 30
0.0
 10
194.4230351155
 20
334.0626345875
 30
0.0
 10
193.7256251395
 20
333.1091097504
 30
0.0
 10
193.1551900801
 20
332.4301146481
 30
0.0
  0
SPLINE
  5
4B3
100
AcDbEntity
  8
0
100
AcDbSpline
 62
7
  6
CONTINUOUS
 70
0
 71
3
 72
9
 73
5
 74
0
 42
0.0000001
 43
0.0000001
 44
0.0000000001
 40
0.0
 40
0.0
 40
0.0
 40
0.0
 40
0.2529330398
 40
1.0
 40
1.0
 40
1.0
 40
1.0
 10
148.3425375972
 20
332.4300946194
 30
0.0
 10
148.1509244679
 20
332.658173366
 30
0.0
 10
147.4139537985
 20
333.5771904057
 30
0.0
 10
146.7521763517
 20
334.5551005863
 30
0.0
 10
146.2926987435
 20
335.305430589
 30
0.0
  0
SPLINE
  5
4B4
100
AcDbEntity
  8
0
100
AcDbSpline
 62
7
  6
CONTINUOUS
 70
0
 71
3
 72
9
 73
5
 74
0
 42
0.0000001
 43
0.0000001
 44
0.0000000001
 40
0.0
 40
0.0
 40
0.0
 40
0.0
 40
0.2475281029
 40
1.0
 40
1.0
 40
1.0
 40
1.0
 10
146.2926987435
 20
335.305430589
 30
0.0
 10
146.190412355
 20
335.472470057
 30
0.0
 10
145.7876191218
 20
336.1535842389
 30
0.0
 10
145.4318479796
 20
336.8629280246
 30
0.0
 10
145.1971107868
 20
337.4101362176
 30
0.0
  0
SPLINE
  5
4B5
100
AcDbEntity
  8
0
100
AcDbSpline
 62
7
  6
CONTINUOUS
 70
0
 71
3
 72
16
 73
12
 74
0
 42
0.0000001
 43
0.0000001
 44
0.0000000001
 40
0.0
 40
0.0
 40
0.0
 40
0.0
 40
0.264587687
 40
0.3971271947
 40
0.5291549368
 40
0.6595939803
 40
0.786259798
 40
0.8468269974
 40
0.9041665717
 40
0.9563401135
 40
1.0
 40
1.0
 40
1.0
 40
1.0
 10
145.1971107868
 20
337.4101362176
 30
0.0
 10
144.9397039138
 20
338.0102081326
 30
0.0
 10
144.5890156588
 20
338.9265190045
 30
0.0
 10
144.1806188889
 20
340.1669458665
 30
0.0
 10
143.9011424318
 20
341.1009498438
 30
0.0
 10
143.645975101
 20
342.0267799196
 30
0.0
 10
143.4485716311
 20
342.7854869454
 30
0.0
 10
143.296562388
 20
343.3695742913
 30
0.0
 10
143.188091499
 20
343.7750857691
 30
0.0
 10
143.0833906705
 20
344.138226902
 30
0.0
 10
143.0087766112
 20
344.363012052
 30
0.0
 10
142.9681073105
 20
344.4627857535
 30
0.0
  0
SPLINE
  5
4B6
100
AcDbEntity
  8
BEZUGSACHSEN
100
AcDbSpline
 62
7
  6
CONTINUOUS
 70
0
 71
3
 72
33
 73
29
 74
0
 42
0.0000001
 43
0.0000001
 44
0.0000000001
 40
0.0
 40
0.0
 40
0.0
 40
0.0
 40
0.0102427477
 40
0.0206038262
 40
0.0311755287
 40
0.04209172
 40
0.0534047593
 40
0.0649889147
 40
0.0766843481
 40
0.0884031446
 40
0.1117767501
 40
0.135034125
 40
0.1581604971
 40
0.1811564146
 40
0.2267571229
 40
0.2718339703
 40
0.3163554802
 40
0.3602763063
 40
0.4035392933
 40
0.4460774698
 40
0.5286716835
 40
0.607376045
 40
0.6814057652
 40
0.7499003594
 40
0.8119462906
 40
0.9129980436
 40
0.9775663229
 40
1.0
 40
1.0
 40
1.0
 40
1.0
 10
186.0639934005
 20
299.2866542544
 30
0.0
 10
185.9695383707
 20
299.3498184213
 30
0.0
 10
185.7860818533
 20
299.487301093
 30
0.0
 10
185.5424867346
 20
299.7353134423
 30
0.0
 10
185.3527553839
 20
300.0379497558
 30
0.0
 10
185.2541506508
 20
300.3943305788
 30
0.0
 10
185.2677484604
 20
300.7742104815
 30
0.0
 10
185.373540603
 20
301.1457462232
 30
0.0
 10
185.5408603957
 20
301.4974208324
 30
0.0
 10
185.8166447014
 20
301.9380354586
 30
0.0
 10
186.2246941095
 20
302.4429857387
 30
0.0
 10
186.7637321638
 20
302.9988652862
 30
0.0
 10
187.3315543847
 20
303.5189694704
 30
0.0
 10
188.1101407497
 20
304.1743817002
 30
0.0
 10
189.1118307839
 20
304.9414381526
 30
0.0
 10
190.3375823497
 20
305.8061372007
 30
0.0
 10
191.5721019389
 20
306.6249311471
 30
0.0
 10
192.8076528134
 20
307.4049671344
 30
0.0
 10
194.0388460056
 20
308.1501747823
 30
0.0
 10
195.6528176624
 20
309.0910035501
 30
0.0
 10
197.6311995415
 20
310.1868139247
 30
0.0
 10
199.9465485043
 20
311.3933803244
 30
0.0
 10
202.148412161
 20
312.4777753499
 30
0.0
 10
204.2045122744
 20
313.4386906535
 30
0.0
 10
206.5516293895
 20
314.483817464
 30
0.0
 10
208.8811527571
 20
315.4604869633
 30
0.0
 10
210.8218577707
 20
316.2260430188
 30
0.0
 10
211.722327547
 20
316.5734620223
 30
0.0
 10
211.9546575101
 20
316.6626703797
 30
0.0
  0
SPLINE
  5
4B7
100
AcDbEntity
  8
BEZUGSACHSEN
100
AcDbSpline
 62
7
  6
CONTINUOUS
 70
0
 71
3
 72
33
 73
29
 74
0
 42
0.0000001
 43
0.0000001
 44
0.0000000001
 40
0.0
 40
0.0
 40
0.0
 40
0.0
 40
0.0224330485
 40
0.0869986759
 40
0.1880474684
 40
0.2500924606
 40
0.3185861185
 40
0.3926151542
 40
0.4713184914
 40
0.5539114529
 40
0.5964488908
 40
0.6397111942
 40
0.6836312583
 40
0.7281520135
 40
0.7732281552
 40
0.8188282925
 40
0.8418240743
 40
0.8649505491
 40
0.8882082948
 40
0.911583369
 40
0.9233036016
 40
0.9350006395
 40
0.9465873307
 40
0.9579057352
 40
0.9688261465
 40
0.9793979511
 40
0.9897578949
 40
1.0
 40
1.0
 40
1.0
 40
1.0
 10
129.5430512121
 20
316.6626703797
 30
0.0
 10
129.775374547
 20
316.5734643941
 30
0.0
 10
130.6758100248
 20
316.2260582985
 30
0.0
 10
132.6164506988
 20
315.4605293524
 30
0.0
 10
134.9459077477
 20
314.4838912974
 30
0.0
 10
137.2929759771
 20
313.4387884021
 30
0.0
 10
139.3490555547
 20
312.4778975073
 30
0.0
 10
141.5508893744
 20
311.3935097683
 30
0.0
 10
143.8662148304
 20
310.1869709131
 30
0.0
 10
145.8445683942
 20
309.0911798325
 30
0.0
 10
147.4585221537
 20
308.1503801592
 30
0.0
 10
148.6896939382
 20
307.4051847877
 30
0.0
 10
149.925235466
 20
306.6251803603
 30
0.0
 10
151.1597325803
 20
305.8063978384
 30
0.0
 10
152.3854805615
 20
304.9417339512
 30
0.0
 10
153.3871700909
 20
304.174702784
 30
0.0
 10
154.1657640304
 20
303.5193111696
 30
0.0
 10
154.7336164335
 20
302.9992339602
 30
0.0
 10
155.2726696723
 20
302.4433400414
 30
0.0
 10
155.6808006888
 20
301.938413343
 30
0.0
 10
155.9566747243
 20
301.4977940208
 30
0.0
 10
156.1240517926
 20
301.1460807368
 30
0.0
 10
156.2299510537
 20
300.7744615503
 30
0.0
 10
156.2435385093
 20
300.3944434897
 30
0.0
 10
156.1449459989
 20
300.037947251
 30
0.0
 10
155.955187954
 20
299.7352817985
 30
0.0
 10
155.711605002
 20
299.4872856281
 30
0.0
 10
155.5281644019
 20
299.3498144426
 30
0.0
 10
155.4337153217
 20
299.2866542544
 30
0.0
  0
SPLINE
  5
4B8
100
AcDbEntity
  8
KONSTRUKTIONSELEMENTE
100
AcDbSpline
 62
7
  6
CONTINUOUS
 70
0
 71
3
 72
9
 73
5
 74
0
 42
0.0000001
 43
0.0000001
 44
0.0000000001
 40
0.0
 40
0.0
 40
0.0
 40
0.0
 40
0.4985288553
 40
1.0
 40
1.0
 40
1.0
 40
1.0
 10
345.2163755914
 20
153.8825175823
 30
0.0
 10
343.8600219087
 20
153.7257771987
 30
0.0
 10
341.1580116824
 20
153.2346844157
 30
0.0
 10
338.5251913891
 20
152.466696505
 30
0.0
 10
337.2222332114
 20
152.0323771124
 30
0.0
  0
SPLINE
  5
4B9
100
AcDbEntity
  8
KONSTRUKTIONSELEMENTE
100
AcDbSpline
 62
7
  6
CONTINUOUS
 70
0
 71
3
 72
9
 73
5
 74
0
 42
0.0000001
 43
0.0000001
 44
0.0000000001
 40
0.0
 40
0.0
 40
0.0
 40
0.0
 40
0.5014711553
 40
1.0
 40
1.0
 40
1.0
 40
1.0
 10
383.2222332114
 20
152.0323771124
 30
0.0
 10
381.9192747603
 20
152.4666965961
 30
0.0
 10
379.2864539543
 20
153.2346845811
 30
0.0
 10
376.5844432144
 20
153.7257774853
 30
0.0
 10
375.2280892904
 20
153.8825177679
 30
0.0
  0
SPLINE
  5
4BA
100
AcDbEntity
  8
BEZUGSACHSEN
100
AcDbSpline
 62
7
  6
CONTINUOUS
 70
0
 71
3
 72
15
 73
11
 74
0
 42
0.0000001
 43
0.0000001
 44
0.0000000001
 40
0.0
 40
0.0
 40
0.0
 40
0.0
 40
0.1268025562
 40
0.2523168182
 40
0.3765731315
 40
0.5000000689
 40
0.6234269767
 40
0.747683238
 40
0.8731974482
 40
1.0
 40
1.0
 40
1.0
 40
1.0
 10
383.2222332114
 20
134.3947666371
 30
0.0
 10
382.3311938203
 20
133.8803248048
 30
0.0
 10
380.5185254666
 20
132.9223250728
 30
0.0
 10
377.6804046949
 20
131.7724181015
 30
0.0
 10
374.7368340529
 20
131.015014961
 30
0.0
 10
371.7222317702
 20
130.7479287832
 30
0.0
 10
368.7076300017
 20
131.0150156398
 30
0.0
 10
365.7640604645
 20
131.7724186288
 30
0.0
 10
362.9259405212
 20
132.9223253029
 30
0.0
 10
361.1132725719
 20
133.8803248225
 30
0.0
 10
360.2222332114
 20
134.3947666371
 30
0.0
  0
SPLINE
  5
4BB
100
AcDbEntity
  8
KONSTRUKTIONSELEMENTE
100
AcDbSpline
 62
7
  6
CONTINUOUS
 70
0
 71
3
 72
10
 73
6
 74
0
 42
0.0000001
 43
0.0000001
 44
0.0000000001
 40
0.0
 40
0.0
 40
0.0
 40
0.0
 40
0.248923845
 40
0.4983967579
 40
1.0
 40
1.0
 40
1.0
 40
1.0
 10
371.7222332137
 20
154.0866542545
 30
0.0
 10
370.7491719709
 20
154.0866542545
 30
0.0
 10
368.7995409952
 20
153.9905351667
 30
0.0
 10
364.9262920539
 20
153.4315759004
 30
0.0
 10
362.0824144673
 20
152.652437531
 30
0.0
 10
360.2222332114
 20
152.0323771124
 30
0.0
  0
SPLINE
  5
4BC
100
AcDbEntity
  8
KONSTRUKTIONSELEMENTE
100
AcDbSpline
 62
7
  6
CONTINUOUS
 70
0
 71
3
 72
10
 73
6
 74
0
 42
0.0000001
 43
0.0000001
 44
0.0000000001
 40
0.0
 40
0.0
 40
0.0
 40
0.0
 40
0.5016032649
 40
0.7510761738
 40
1.0
 40
1.0
 40
1.0
 40
1.0
 10
360.2222332114
 20
152.0323771124
 30
0.0
 10
358.3620518723
 20
152.6524375588
 30
0.0
 10
355.5181742141
 20
153.4315759528
 30
0.0
 10
351.6449252665
 20
153.9905351513
 30
0.0
 10
349.6952943828
 20
154.0866542544
 30
0.0
 10
348.7222332137
 20
154.0866542545
 30
0.0
  0
SPLINE
  5
4BD
100
AcDbEntity
  8
BEZUGSACHSEN
100
AcDbSpline
 62
7
  6
CONTINUOUS
 70
0
 71
3
 72
15
 73
11
 74
0
 42
0.0000001
 43
0.0000001
 44
0.0000000001
 40
0.0
 40
0.0
 40
0.0
 40
0.0
 40
0.1268025562
 40
0.2523168182
 40
0.3765731315
 40
0.5000000689
 40
0.6234269767
 40
0.747683238
 40
0.8731974482
 40
1.0
 40
1.0
 40
1.0
 40
1.0
 10
360.2222332114
 20
134.3947666371
 30
0.0
 10
359.3311938203
 20
133.8803248048
 30
0.0
 10
357.5185254666
 20
132.9223250728
 30
0.0
 10
354.6804046949
 20
131.7724181015
 30
0.0
 10
351.7368340529
 20
131.015014961
 30
0.0
 10
348.7222317702
 20
130.7479287832
 30
0.0
 10
345.7076300017
 20
131.0150156398
 30
0.0
 10
342.7640604645
 20
131.7724186288
 30
0.0
 10
339.9259405212
 20
132.9223253029
 30
0.0
 10
338.1132725719
 20
133.8803248225
 30
0.0
 10
337.2222332114
 20
134.3947666371
 30
0.0
  0
LINE
  5
4BE
100
AcDbEntity
  8
0
100
AcDbLine
 62
7
  6
CONTINUOUS
 10
395.040140767
 20
307.8398457374
 11
394.9950455138
 21
307.6270803763
  0
SPLINE
  5
4BF
100
AcDbEntity
  8
0
100
AcDbSpline
 62
7
  6
CONTINUOUS
 70
0
 71
3
 72
8
 73
4
 74
0
 42
0.0000001
 43
0.0000001
 44
0.0000000001
 40
0.0
 40
0.0
 40
0.0
 40
0.0
 40
1.0
 40
1.0
 40
1.0
 40
1.0
 10
324.8739165263
 20
313.7972927298
 30
0.0
 10
325.0084630184
 20
313.2298682823
 30
0.0
 10
325.1432098349
 20
312.6624912936
 30
0.0
 10
325.278168245
 20
312.0951646771
 30
0.0
  0
LINE
  5
4C0
100
AcDbEntity
  8
0
100
AcDbLine
 62
7
  6
CONTINUOUS
 10
324.9008196129
 20
312.0951646771
 11
325.0972146185
 21
311.2441009488
  0
LINE
  5
4C1
100
AcDbEntity
  8
0
100
AcDbLine
 62
7
  6
CONTINUOUS
 10
325.1865530722
 20
308.6909094657
 11
325.2810540147
 21
308.2653776016
  0
LINE
  5
4C2
100
AcDbEntity
  8
0
100
AcDbLine
 62
7
  6
CONTINUOUS
 10
325.2810540147
 20
308.2653776016
 11
325.3912806694
 21
307.6270798053
  0
LINE
  5
4C3
100
AcDbEntity
  8
0
100
AcDbLine
 62
7
  6
CONTINUOUS
 10
324.8931535724
 20
307.8398457374
 11
324.9382506116
 21
307.6270803763
  0
LINE
  5
4C4
100
AcDbEntity
  8
0
100
AcDbLine
 62
7
  6
CONTINUOUS
 10
325.2333852858
 20
306.2784087808
 11
325.2655498495
 21
306.1377180572
  0
SPLINE
  5
4C5
100
AcDbEntity
  8
0
100
AcDbSpline
 62
7
  6
CONTINUOUS
 70
0
 71
3
 72
9
 73
5
 74
0
 42
0.0000001
 43
0.0000001
 44
0.0000000001
 40
0.0
 40
0.0
 40
0.0
 40
0.0
 40
0.245368643
 40
1.0
 40
1.0
 40
1.0
 40
1.0
 10
325.4390135633
 20
305.4994202051
 30
0.0
 10
325.4471207248
 20
305.4815623136
 30
0.0
 10
325.4811429539
 20
305.4092305465
 30
0.0
 10
325.5190181381
 20
305.3387233854
 30
0.0
 10
325.5494633311
 20
305.2866542544
 30
0.0
  0
LINE
  5
4C6
100
AcDbEntity
  8
0
100
AcDbLine
 62
7
  6
CONTINUOUS
 10
325.5128674891
 20
305.2497792897
 11
325.5064022823
 21
305.2761340456
  0
LINE
  5
4C7
100
AcDbEntity
  8
0
100
AcDbLine
 62
7
  6
CONTINUOUS
 10
325.5064022823
 20
305.2761340456
 11
325.4656574045
 21
305.4427795879
  0
LINE
  5
4C8
100
AcDbEntity
  8
0
100
AcDbLine
 62
7
  6
CONTINUOUS
 10
325.1907128699
 20
308.2653776016
 11
325.1011103881
 21
308.6720868947
  0
LINE
  5
4C9
100
AcDbEntity
  8
0
100
AcDbLine
 62
7
  6
CONTINUOUS
 10
325.1011103881
 20
308.6720868947
 11
325.0971203309
 21
308.6902003819
  0
LINE
  5
4CA
100
AcDbEntity
  8
0
100
AcDbLine
 62
7
  6
CONTINUOUS
 10
325.0971203309
 20
308.6902003819
 11
324.9590671313
 21
309.3170420637
  0
LINE
  5
4CB
100
AcDbEntity
  8
0
100
AcDbLine
 62
7
  6
CONTINUOUS
 10
324.9590671313
 20
309.3170420637
 11
324.9564860109
 21
309.3287641966
  0
LINE
  5
4CC
100
AcDbEntity
  8
0
100
AcDbLine
 62
7
  6
CONTINUOUS
 10
324.9564860109
 20
309.3287641966
 11
324.9095423042
 21
309.5419734921
  0
LINE
  5
4CD
100
AcDbEntity
  8
0
100
AcDbLine
 62
7
  6
CONTINUOUS
 10
395.563081348
 20
309.7547392596
 11
395.5529256796
 21
309.7219397062
  0
LINE
  5
4CE
100
AcDbEntity
  8
0
100
AcDbLine
 62
7
  6
CONTINUOUS
 10
395.5529256796
 20
309.7219397062
 11
395.5297021345
 21
309.6471163092
  0
LINE
  5
4CF
100
AcDbEntity
  8
0
100
AcDbLine
 62
7
  6
CONTINUOUS
 10
395.5297021345
 20
309.6471163092
 11
395.4965914963
 21
309.5408715152
  0
LINE
  5
4D0
100
AcDbEntity
  8
0
100
AcDbLine
 62
7
  6
CONTINUOUS
 10
395.1634124082
 20
308.2653776016
 11
395.1082787096
 21
307.9458422008
  0
LINE
  5
4D1
100
AcDbEntity
  8
0
100
AcDbLine
 62
7
  6
CONTINUOUS
 10
395.1082787096
 20
307.9458422008
 11
395.0885281656
 21
307.831505085
  0
LINE
  5
4D2
100
AcDbEntity
  8
0
100
AcDbLine
 62
7
  6
CONTINUOUS
 10
395.5513128505
 20
307.8398457374
 11
395.5062158112
 21
307.6270803763
  0
LINE
  5
4D3
100
AcDbEntity
  8
0
100
AcDbLine
 62
7
  6
CONTINUOUS
 10
395.2430771063
 20
306.419560623
 11
395.2110811371
 21
306.2784087808
  0
LINE
  5
4D4
100
AcDbEntity
  8
0
100
AcDbLine
 62
7
  6
CONTINUOUS
 10
395.2110811371
 20
306.2784087808
 11
395.1789165733
 21
306.1377180572
  0
LINE
  5
4D5
100
AcDbEntity
  8
0
100
AcDbLine
 62
7
  6
CONTINUOUS
 10
395.1936105001
 20
306.3373533943
 11
395.1967151686
 21
306.3504840638
  0
SPLINE
  5
4D6
100
AcDbEntity
  8
0
100
AcDbSpline
 62
7
  6
CONTINUOUS
 70
0
 71
3
 72
9
 73
5
 74
0
 42
0.0000001
 43
0.0000001
 44
0.0000000001
 40
0.0
 40
0.0
 40
0.0
 40
0.0
 40
0.2516905664
 40
1.0
 40
1.0
 40
1.0
 40
1.0
 10
394.0226331962
 20
309.5419734921
 30
0.0
 10
394.1954803975
 20
309.8731428559
 30
0.0
 10
394.8653864445
 20
311.1976713415
 30
0.0
 10
395.4695884792
 20
312.5552064033
 30
0.0
 10
395.8867791295
 20
313.5845267977
 30
0.0
  0
SPLINE
  5
4D7
100
AcDbEntity
  8
0
100
AcDbSpline
 62
7
  6
CONTINUOUS
 70
0
 71
3
 72
8
 73
4
 74
0
 42
0.0000001
 43
0.0000001
 44
0.0000000001
 40
0.0
 40
0.0
 40
0.0
 40
0.0
 40
1.0
 40
1.0
 40
1.0
 40
1.0
 10
394.2372348091
 20
305.2866542544
 30
0.0
 10
394.4634052985
 20
306.2794706866
 30
0.0
 10
394.6891618832
 20
307.272381484
 30
0.0
 10
394.9145421592
 20
308.2653776016
 30
0.0
  0
LINE
  5
4D8
100
AcDbEntity
  8
0
100
AcDbLine
 62
7
  6
CONTINUOUS
 10
395.2537535529
 20
308.2653776016
 11
395.5349241186
 21
309.5419734921
  0
SPLINE
  5
4D9
100
AcDbEntity
  8
0
100
AcDbSpline
 62
7
  6
CONTINUOUS
 70
0
 71
3
 72
8
 73
4
 74
0
 42
0.0000001
 43
0.0000001
 44
0.0000000001
 40
0.0
 40
0.0
 40
0.0
 40
0.0
 40
1.0
 40
1.0
 40
1.0
 40
1.0
 10
395.2040758295
 20
309.5419734921
 30
0.0
 10
395.6379928372
 20
311.4565804463
 30
0.0
 10
396.0705697908
 20
313.3714914433
 30
0.0
 10
396.5020268173
 20
315.2866542544
 30
0.0
  0
LINE
  5
4DA
100
AcDbEntity
  8
0
100
AcDbLine
 62
7
  6
CONTINUOUS
 10
396.6230279225
 20
315.2866542544
 11
396.6177972612
 21
315.2620462062
  0
LINE
  5
4DB
100
AcDbEntity
  8
0
100
AcDbLine
 62
7
  6
CONTINUOUS
 10
396.6177972612
 20
315.2620462062
 11
395.4471691552
 21
309.7547394242
  0
LINE
  5
4DC
100
AcDbEntity
  8
0
100
AcDbLine
 62
7
  6
CONTINUOUS
 10
394.7844766167
 20
311.0759965011
 11
394.4290661833
 21
309.5419734921
  0
SPLINE
  5
4DD
100
AcDbEntity
  8
0
100
AcDbSpline
 62
7
  6
CONTINUOUS
 70
0
 71
3
 72
9
 73
5
 74
0
 42
0.0000001
 43
0.0000001
 44
0.0000000001
 40
0.0
 40
0.0
 40
0.0
 40
0.0
 40
0.2464519919
 40
1.0
 40
1.0
 40
1.0
 40
1.0
 10
325.6637306532
 20
305.2866542544
 30
0.0
 10
325.6692280295
 20
305.3044775529
 30
0.0
 10
325.6925800611
 20
305.3764717806
 30
0.0
 10
325.7200498334
 20
305.4471186891
 30
0.0
 10
325.7427858347
 20
305.4994202051
 30
0.0
  0
SPLINE
  5
4DE
100
AcDbEntity
  8
0
100
AcDbSpline
 62
7
  6
CONTINUOUS
 70
0
 71
3
 72
8
 73
4
 74
0
 42
0.0000001
 43
0.0000001
 44
0.0000000001
 40
0.0
 40
0.0
 40
0.0
 40
0.0
 40
1.0
 40
1.0
 40
1.0
 40
1.0
 10
325.6673625463
 20
306.9887818601
 30
0.0
 10
325.6117330253
 20
307.3433484203
 30
0.0
 10
325.5563886937
 20
307.6979598234
 30
0.0
 10
325.5013055087
 20
308.0526116695
 30
0.0
  0
LINE
  5
4DF
100
AcDbEntity
  8
0
100
AcDbLine
 62
7
  6
CONTINUOUS
 10
325.5013055087
 20
308.0526116695
 11
325.3094508278
 21
308.9036753978
  0
SPLINE
  5
4E0
100
AcDbEntity
  8
0
100
AcDbSpline
 62
7
  6
CONTINUOUS
 70
0
 71
3
 72
9
 73
5
 74
0
 42
0.0000001
 43
0.0000001
 44
0.0000000001
 40
0.0
 40
0.0
 40
0.0
 40
0.0
 40
0.2551720116
 40
1.0
 40
1.0
 40
1.0
 40
1.0
 10
324.436691967
 20
311.4568668809
 30
0.0
 10
324.4226228114
 20
311.4744423751
 30
0.0
 10
324.3681269494
 20
311.5438282056
 30
0.0
 10
324.3162445801
 20
311.6152759385
 30
0.0
 10
324.2793167812
 20
311.6696328129
 30
0.0
  0
LINE
  5
4E1
100
AcDbEntity
  8
0
100
AcDbLine
 62
7
  6
CONTINUOUS
 10
324.2696063729
 20
310.8185690846
 11
324.1491456673
 21
311.3847503808
  0
LINE
  5
4E2
100
AcDbEntity
  8
0
100
AcDbLine
 62
7
  6
CONTINUOUS
 10
324.1491456673
 20
311.3847503808
 11
324.135244374
 21
311.4500886463
  0
LINE
  5
4E3
100
AcDbEntity
  8
0
100
AcDbLine
 62
7
  6
CONTINUOUS
 10
324.135244374
 20
311.4500886463
 11
324.0967964798
 21
311.6308001631
  0
LINE
  5
4E4
100
AcDbEntity
  8
0
100
AcDbLine
 62
7
  6
CONTINUOUS
 10
324.0967964798
 20
311.6308001631
 11
324.0924432263
 21
311.6512612148
  0
LINE
  5
4E5
100
AcDbEntity
  8
0
100
AcDbLine
 62
7
  6
CONTINUOUS
 10
324.0924432263
 20
311.6512612148
 11
323.5453337334
 21
314.222824594
  0
LINE
  5
4E6
100
AcDbEntity
  8
0
100
AcDbLine
 62
7
  6
CONTINUOUS
 10
324.0497787285
 20
314.222824594
 11
323.8127282326
 21
315.2866542544
  0
SPLINE
  5
4E7
100
AcDbEntity
  8
BEZUGSACHSEN
100
AcDbSpline
 62
7
  6
CONTINUOUS
 70
0
 71
3
 72
27
 73
23
 74
0
 42
0.0000001
 43
0.0000001
 44
0.0000000001
 40
0.0
 40
0.0
 40
0.0
 40
0.0
 40
0.1571962506
 40
0.3070653012
 40
0.3775236104
 40
0.4444010881
 40
0.5075175927
 40
0.5669075788
 40
0.6228224714
 40
0.6757101353
 40
0.7261961817
 40
0.7750870176
 40
0.7992714329
 40
0.8235067183
 40
0.8480512649
 40
0.8733107676
 40
0.9000391539
 40
0.9299635756
 40
0.9473666623
 40
0.9667990405
 40
0.985080734
 40
1.0
 40
1.0
 40
1.0
 40
1.0
 10
360.2222332114
 20
316.6626703797
 30
0.0
 10
358.1592774367
 20
316.6626703797
 30
0.0
 10
354.1277775485
 20
316.4900000998
 30
0.0
 10
349.2070107961
 20
315.8459917627
 30
0.0
 10
345.5199384078
 20
315.054634201
 30
0.0
 10
342.9845949386
 20
314.3460208278
 30
0.0
 10
340.6413136461
 20
313.5107971552
 30
0.0
 10
338.5033798633
 20
312.5488336313
 30
0.0
 10
336.5788337777
 20
311.4609482049
 30
0.0
 10
334.8715022203
 20
310.2475403662
 30
0.0
 10
333.382355929
 20
308.9082036753
 30
0.0
 10
332.3185050042
 20
307.6776295572
 30
0.0
 10
331.5867990406
 20
306.629876441
 30
0.0
 10
331.0963175843
 20
305.8064133144
 30
0.0
 10
330.6653425721
 20
304.9344047497
 30
0.0
 10
330.2994806225
 20
303.9974030994
 30
0.0
 10
330.012711533
 20
302.9593864623
 30
0.0
 10
329.882009894
 20
301.9908619143
 30
0.0
 10
329.9059725441
 20
301.1127217694
 30
0.0
 10
330.0469302854
 20
300.3977240954
 30
0.0
 10
330.34085404
 20
299.7638503212
 30
0.0
 10
330.620107701
 20
299.423939652
 30
0.0
 10
330.7597045155
 20
299.2866542544
 30
0.0
  0
SPLINE
  5
4E8
100
AcDbEntity
  8
0
100
AcDbSpline
 62
7
  6
CONTINUOUS
 70
0
 71
3
 72
9
 73
5
 74
0
 42
0.0000001
 43
0.0000001
 44
0.0000000001
 40
0.0
 40
0.0
 40
0.0
 40
0.0
 40
0.2463357092
 40
1.0
 40
1.0
 40
1.0
 40
1.0
 10
326.1782384549
 20
305.2866542544
 30
0.0
 10
326.183872894
 20
305.3044808543
 30
0.0
 10
326.2078036389
 20
305.3765108844
 30
0.0
 10
326.2358957771
 20
305.4471460417
 30
0.0
 10
326.2591174452
 20
305.4994202051
 30
0.0
  0
SPLINE
  5
4E9
100
AcDbEntity
  8
0
100
AcDbSpline
 62
7
  6
CONTINUOUS
 70
0
 71
3
 72
8
 73
4
 74
0
 42
0.0000001
 43
0.0000001
 44
0.0000000001
 40
0.0
 40
0.0
 40
0.0
 40
0.0
 40
1.0
 40
1.0
 40
1.0
 40
1.0
 10
326.1870981663
 20
306.9887818601
 30
0.0
 10
326.1317120321
 20
307.3433484976
 30
0.0
 10
326.0766119247
 20
307.6979599133
 30
0.0
 10
326.0217734697
 20
308.0526116695
 30
0.0
  0
LINE
  5
4EA
100
AcDbEntity
  8
0
100
AcDbLine
 62
7
  6
CONTINUOUS
 10
326.0217734697
 20
308.0526116695
 11
325.8296393721
 21
308.9036753978
  0
SPLINE
  5
4EB
100
AcDbEntity
  8
0
100
AcDbSpline
 62
7
  6
CONTINUOUS
 70
0
 71
3
 72
9
 73
5
 74
0
 42
0.0000001
 43
0.0000001
 44
0.0000000001
 40
0.0
 40
0.0
 40
0.0
 40
0.0
 40
0.255258777
 40
1.0
 40
1.0
 40
1.0
 40
1.0
 10
324.9520175106
 20
311.4568668809
 30
0.0
 10
324.9378099465
 20
311.4744396142
 30
0.0
 10
324.8827945392
 20
311.5437994263
 30
0.0
 10
324.830409409
 20
311.615255175
 30
0.0
 10
324.7931273339
 20
311.6696328129
 30
0.0
  0
LINE
  5
4EC
100
AcDbEntity
  8
0
100
AcDbLine
 62
7
  6
CONTINUOUS
 10
324.5998301636
 20
311.6696327821
 11
324.0566180098
 21
314.222824594
  0
LINE
  5
4ED
100
AcDbEntity
  8
0
100
AcDbLine
 62
7
  6
CONTINUOUS
 10
324.5675588945
 20
314.222824594
 11
324.3302625411
 21
315.2866542544
  0
LINE
  5
4EE
100
AcDbEntity
  8
0
100
AcDbLine
 62
7
  6
CONTINUOUS
 10
326.3002416876
 20
311.2033627208
 11
326.2902866251
 21
311.2441009488
  0
LINE
  5
4EF
100
AcDbEntity
  8
0
100
AcDbLine
 62
7
  6
CONTINUOUS
 10
327.0111122171
 20
311.2441009488
 11
326.7915953355
 21
312.0951646771
  0
SPLINE
  5
4F0
100
AcDbEntity
  8
0
100
AcDbSpline
 62
7
  6
CONTINUOUS
 70
0
 71
3
 72
8
 73
4
 74
0
 42
0.0000001
 43
0.0000001
 44
0.0000000001
 40
0.0
 40
0.0
 40
0.0
 40
0.0
 40
1.0
 40
1.0
 40
1.0
 40
1.0
 10
326.0825460684
 20
312.0951646771
 30
0.0
 10
325.9442136348
 20
312.6624757024
 30
0.0
 10
325.806153001
 20
313.2298530645
 30
0.0
 10
325.668349199
 20
313.7972927298
 30
0.0
  0
SPLINE
  5
4F1
100
AcDbEntity
  8
BEZUGSACHSEN
100
AcDbSpline
 62
7
  6
CONTINUOUS
 70
0
 71
3
 72
27
 73
23
 74
0
 42
0.0000001
 43
0.0000001
 44
0.0000000001
 40
0.0
 40
0.0
 40
0.0
 40
0.0
 40
0.1571962506
 40
0.3070653012
 40
0.3775236104
 40
0.4444010881
 40
0.5075175927
 40
0.5669075788
 40
0.6228224714
 40
0.6757101353
 40
0.7261961817
 40
0.7750870176
 40
0.7992714329
 40
0.8235067183
 40
0.8480512649
 40
0.8733107676
 40
0.9000391539
 40
0.9299635756
 40
0.9473666623
 40
0.9667990405
 40
0.985080734
 40
1.0
 40
1.0
 40
1.0
 40
1.0
 10
360.2222332114
 20
316.6626703797
 30
0.0
 10
362.2851889861
 20
316.6626703797
 30
0.0
 10
366.3166888743
 20
316.4900000998
 30
0.0
 10
371.2374556267
 20
315.8459917627
 30
0.0
 10
374.9245280151
 20
315.054634201
 30
0.0
 10
377.4598714842
 20
314.3460208278
 30
0.0
 10
379.8031527767
 20
313.5107971552
 30
0.0
 10
381.9410865596
 20
312.5488336313
 30
0.0
 10
383.8656326451
 20
311.4609482049
 30
0.0
 10
385.5729642026
 20
310.2475403662
 30
0.0
 10
387.0621104939
 20
308.9082036753
 30
0.0
 10
388.1259614186
 20
307.6776295572
 30
0.0
 10
388.8576673823
 20
306.629876441
 30
0.0
 10
389.3481488385
 20
305.8064133144
 30
0.0
 10
389.7791238508
 20
304.9344047497
 30
0.0
 10
390.1449858004
 20
303.9974030994
 30
0.0
 10
390.4317548899
 20
302.9593864623
 30
0.0
 10
390.5624565289
 20
301.9908619143
 30
0.0
 10
390.5384938788
 20
301.1127217694
 30
0.0
 10
390.3975361374
 20
300.3977240954
 30
0.0
 10
390.1036123828
 20
299.7638503212
 30
0.0
 10
389.8243587219
 20
299.423939652
 30
0.0
 10
389.6847619074
 20
299.2866542544
 30
0.0
  0
LINE
  5
4F2
100
AcDbEntity
  8
0
100
AcDbLine
 62
7
  6
CONTINUOUS
 10
394.5323445076
 20
304.0339831565
 11
394.5258228502
 21
304.0100585129
  0
LINE
  5
4F3
100
AcDbEntity
  8
0
100
AcDbLine
 62
7
  6
CONTINUOUS
 10
328.4079987986
 20
305.2866542544
 11
328.1860020728
 21
306.1377180572
  0
SPLINE
  5
4F4
100
AcDbEntity
  8
0
100
AcDbSpline
 62
7
  6
CONTINUOUS
 70
0
 71
3
 72
8
 73
4
 74
0
 42
0.0000001
 43
0.0000001
 44
0.0000000001
 40
0.0
 40
0.0
 40
0.0
 40
0.0
 40
1.0
 40
1.0
 40
1.0
 40
1.0
 10
395.8867791295
 20
313.5845267977
 30
0.0
 10
395.5765960257
 20
312.2368172779
 30
0.0
 10
395.2656173658
 20
310.8892905415
 30
0.0
 10
394.9537339325
 20
309.5419734921
 30
0.0
  0
SPLINE
  5
4F5
100
AcDbEntity
  8
0
100
AcDbSpline
 62
7
  6
CONTINUOUS
 70
0
 71
3
 72
9
 73
5
 74
0
 42
0.0000001
 43
0.0000001
 44
0.0000000001
 40
0.0
 40
0.0
 40
0.0
 40
0.0
 40
0.2477922933
 40
1.0
 40
1.0
 40
1.0
 40
1.0
 10
395.7559006293
 20
315.2866542544
 30
0.0
 10
395.5599873979
 20
314.79766366
 30
0.0
 10
394.7386468965
 20
312.8368209662
 30
0.0
 10
393.7864302722
 20
310.9299484564
 30
0.0
 10
392.992290441
 20
309.5419734921
 30
0.0
  0
SPLINE
  5
4F6
100
AcDbEntity
  8
0
100
AcDbSpline
 62
7
  6
CONTINUOUS
 70
0
 71
3
 72
8
 73
4
 74
0
 42
0.0000001
 43
0.0000001
 44
0.0000000001
 40
0.0
 40
0.0
 40
0.0
 40
0.0
 40
1.0
 40
1.0
 40
1.0
 40
1.0
 10
392.992290441
 20
309.5419734921
 30
0.0
 10
392.8816582634
 20
309.1163753429
 30
0.0
 10
392.7707757126
 20
308.6908421907
 30
0.0
 10
392.6596310019
 20
308.2653776016
 30
0.0
  0
LINE
  5
4F7
100
AcDbEntity
  8
0
100
AcDbLine
 62
7
  6
CONTINUOUS
 10
326.4668249692
 20
311.2441009488
 11
326.2482766298
 21
312.0951646771
  0
SPLINE
  5
4F8
100
AcDbEntity
  8
0
100
AcDbSpline
 62
7
  6
CONTINUOUS
 70
0
 71
3
 72
8
 73
4
 74
0
 42
0.0000001
 43
0.0000001
 44
0.0000000001
 40
0.0
 40
0.0
 40
0.0
 40
0.0
 40
1.0
 40
1.0
 40
1.0
 40
1.0
 10
325.5497334312
 20
312.0951646771
 30
0.0
 10
325.4118284455
 20
312.6624789938
 30
0.0
 10
325.274182195
 20
313.2298562608
 30
0.0
 10
325.1367806935
 20
313.7972927298
 30
0.0
  0
SPLINE
  5
4F9
100
AcDbEntity
  8
0
100
AcDbSpline
 62
7
  6
CONTINUOUS
 70
0
 71
3
 72
8
 73
4
 74
0
 42
0.0000001
 43
0.0000001
 44
0.0000000001
 40
0.0
 40
0.0
 40
0.0
 40
0.0
 40
1.0
 40
1.0
 40
1.0
 40
1.0
 10
393.5386164799
 20
309.5419734921
 30
0.0
 10
393.4285126955
 20
309.1163790002
 30
0.0
 10
393.3181711576
 20
308.690845939
 30
0.0
 10
393.2075808836
 20
308.2653776016
 30
0.0
  0
SPLINE
  5
4FA
100
AcDbEntity
  8
0
100
AcDbSpline
 62
7
  6
CONTINUOUS
 70
0
 71
3
 72
8
 73
4
 74
0
 42
0.0000001
 43
0.0000001
 44
0.0000000001
 40
0.0
 40
0.0
 40
0.0
 40
0.0
 40
1.0
 40
1.0
 40
1.0
 40
1.0
 10
394.6579316102
 20
308.2653776016
 30
0.0
 10
394.4276060923
 20
307.2723467078
 30
0.0
 10
394.1967678322
 20
306.2794345715
 30
0.0
 10
393.9653646296
 20
305.2866542544
 30
0.0
  0
SPLINE
  5
4FB
100
AcDbEntity
  8
0
100
AcDbSpline
 62
7
  6
CONTINUOUS
 70
0
 71
3
 72
8
 73
4
 74
0
 42
0.0000001
 43
0.0000001
 44
0.0000000001
 40
0.0
 40
0.0
 40
0.0
 40
0.0
 40
1.0
 40
1.0
 40
1.0
 40
1.0
 10
394.1326377959
 20
308.2653776016
 30
0.0
 10
393.901811729
 20
307.2723398871
 30
0.0
 10
393.6704460869
 20
306.2794274059
 30
0.0
 10
393.4384847857
 20
305.2866542544
 30
0.0
  0
LINE
  5
4FC
100
AcDbEntity
  8
0
100
AcDbLine
 62
7
  6
CONTINUOUS
 10
327.8586067474
 20
305.2866542544
 11
327.6377619999
 21
306.1377180572
  0
SPLINE
  5
4FD
100
AcDbEntity
  8
0
100
AcDbSpline
 62
7
  6
CONTINUOUS
 70
0
 71
3
 72
9
 73
5
 74
0
 42
0.0000001
 43
0.0000001
 44
0.0000000001
 40
0.0
 40
0.0
 40
0.0
 40
0.0
 40
0.2478432117
 40
1.0
 40
1.0
 40
1.0
 40
1.0
 10
396.2780952602
 20
315.2866542544
 30
0.0
 10
396.0835757836
 20
314.7979265916
 30
0.0
 10
395.2685360166
 20
312.838254814
 30
0.0
 10
394.3249223317
 20
310.9312465277
 30
0.0
 10
393.5386164799
 20
309.5419734921
 30
0.0
  0
ELLIPSE
  5
4FE
100
AcDbEntity
  8
0
100
AcDbEllipse
 62
7
  6
CONTINUOUS
 10
170.7488543611
 20
337.4042970656
 30
0.0
 11
28.25
 21
0.0
 31
0.0
 40
0.3639702343
 41
-2.2185521818
 42
-0.9230404718
  0
ENDSEC
  0
SECTION
  2
OBJECTS
  0
DICTIONARY
  5
C
100
AcDbDictionary
280
0
281
1
  3
ACAD_GROUP
350
D
  3
ACAD_MLINESTYLE
350
17
  3
ACAD_LAYOUT
350
1A
  3
ACAD_PLOTSETTINGS
350
19
  3
ACAD_PLOTSTYLENAME
350
E
  0
DICTIONARY
  5
D
102
{ACAD_REACTORS
330
C
102
}
100
AcDbDictionary
280
0
281
1
  0
ACDBDICTIONARYWDFLT
  5
E
102
{ACAD_REACTORS
330
C
102
}
100
AcDbDictionary
281
1
  3
Normal
350
F
100
AcDbDictionaryWithDefault
340
F
  0
DICTIONARY
  5
17
102
{ACAD_REACTORS
330
C
102
}
100
AcDbDictionary
280
0
281
1
  3
Standard
350
18
  0
DICTIONARY
  5
19
102
{ACAD_REACTORS
330
C
102
}
100
AcDbDictionary
281
1
  0
DICTIONARY
  5
1A
102
{ACAD_REACTORS
330
C
102
}
100
AcDbDictionary
281
1
  3
Model
350
4FF
  3
Layout1
350
500
  0
ACDBPLACEHOLDER
  5
F
102
{ACAD_REACTORS
330
E
102
}
  0
MLINESTYLE
  5
18
102
{ACAD_REACTORS
330
17
102
}
100
AcDbMlineStyle
  2
STANDARD
 70
0
  3

 62
256
 51
90.0
 52
90.0
 71
2
 49
0.5
 62
256
  6
BYLAYER
 49
-0.5
 62
256
  6
BYLAYER
  0
LAYOUT
  5
4FF
102
{ACAD_REACTORS
330
1A
102
}
100
AcDbPlotSettings
  1

  2
none_device
  4
ISO_A2_(594.00_x_420.00_MM)
  6

 40
0.0
 41
0.0
 42
0.0
 43
0.0
 44
594.0
 45
420.0
 46
0.0
 47
0.0
 48
0.0
 49
0.0
140
0.0
141
0.0
142
1.0
143
1.0
 70
1024
 72
1
 73
0
 74
0
  7

 75
0
147
1.0
148
0.0
149
0.0
100
AcDbLayout
  1
Model
 70
0
 71
0
 10
0.0
 20
0.0
 11
594.0
 21
420.0
 12
0.0
 22
0.0
 32
0.0
 14
0.0
 24
0.0
 34
0.0
 15
0.0
 25
0.0
 35
0.0
146
0.0
 13
0.0
 23
0.0
 33
0.0
 16
1.0
 26
0.0
 36
0.0
 17
0.0
 27
1.0
 37
0.0
 76
0
330
20E
345
0
346
0
  0
LAYOUT
  5
500
102
{ACAD_REACTORS
330
1A
102
}
100
AcDbPlotSettings
  1

  2
none_device
  4
ISO_A2_(594.00_x_420.00_MM)
  6

 40
0.0
 41
0.0
 42
0.0
 43
0.0
 44
594.0
 45
420.0
 46
0.0
 47
0.0
 48
0.0
 49
0.0
140
0.0
141
0.0
142
1.0
143
1.0
 70
0
 72
1
 73
0
 74
0
  7

 75
0
147
1.0
148
0.0
149
0.0
100
AcDbLayout
  1
Layout1
 70
0
 71
1
 10
0.0
 20
0.0
 11
594.0
 21
420.0
 12
0.0
 22
0.0
 32
0.0
 14
0.0
 24
0.0
 34
0.0
 15
0.0
 25
0.0
 35
0.0
146
0.0
 13
0.0
 23
0.0
 33
0.0
 16
1.0
 26
0.0
 36
0.0
 17
0.0
 27
1.0
 37
0.0
 76
0
330
20F
345
0
346
0
  0
ENDSEC
  0
EOF
