999
DXF file: VRS-F_2_3t_M20_MAX_8600273_M33721-P-4.dxf
999
Pro/ENGINEER 2011490 by Parametric Technology Corporation
  0
SECTION
  2
HEADER
  9
$ACADVER
  1
AC1015
  9
$DWGCODEPAGE
  3
ANSI_1252
  9
$EXTMAX
 10
594.0
 20
420.0
 30
0.0
  9
$EXTMIN
 10
0.0
 20
0.0
 30
0.0
  9
$LIMMIN
 10
0.0
 20
0.0
  9
$LIMMAX
 10
594.0
 20
420.0
  9
$VIEWCTR
 10
297.0
 20
210.0
  9
$VIEWSIZE
 40
420.0
  9
$CLAYER
  8
0
  9
$LTSCALE
 40
32.67
  9
$CELTYPE
  6
BYLAYER
  9
$DIMSCALE
 40
1.0
  9
$DIMASZ
 40
3.5
  9
$DIMEXO
 40
3.7125
  9
$DIMDLI
 40
22.572
  9
$DIMEXE
 40
10.692
  9
$DIMCEN
 40
5.346
  9
$DIMLFAC
 40
1.0
  9
$DIMBLK
  1
_FILLED
  9
$DIMTXT
 40
3.5
  9
$DIMTOL
 70
1
  9
$DIMLIM
 70
0
  9
$DIMTFAC
 40
1.0
  9
$DIMTP
 40
0.005
  9
$DIMTM
 40
0.005
  9
$PDMODE
 70
3
  9
$PDSIZE
 40
0.3125
  9
$HANDSEED
  5
581
  9
$TILEMODE
 70
1
  9
$MEASUREMENT
 70
1
  9
$INSUNITS
 70
4
  0
ENDSEC
  0
SECTION
  2
CLASSES
  0
CLASS
  1
ACDBDICTIONARYWDFLT
  2
AcDbDictionaryWithDefault
  3
AutoCAD 2000
 90
0
280
0
281
0
  0
CLASS
  1
ACDBPLACEHOLDER
  2
AcDbPlaceHolder
  3
AutoCAD 2000
 90
0
280
0
281
0
  0
CLASS
  1
LAYOUT
  2
AcDbLayout
  3
AutoCAD 2000
 90
0
280
0
281
0
  0
ENDSEC
  0
SECTION
  2
TABLES
  0
TABLE
  2
VPORT
  5
8
100
AcDbSymbolTable
 70
2
  0
VPORT
  5
1F4
100
AcDbSymbolTableRecord
100
AcDbViewportTableRecord
  2
*ACTIVE
 70
0
 10
0.0
 20
0.0
 11
1.0
 21
1.0
 12
297.0
 22
210.0
 13
0.0
 23
0.0
 14
1.0
 24
1.0
 15
0.0
 25
0.0
 16
0.0
 26
0.0
 36
1.0
 17
0.0
 27
0.0
 37
0.0
 40
420.0
 41
1.4142857143
 42
50.0
 43
0.0
 44
0.0
 50
0.0
 51
0.0
 71
0
 72
100
 73
1
 74
1
 75
0
 76
0
 77
0
 78
0
  0
ENDTAB
  0
TABLE
  2
LTYPE
  5
5
100
AcDbSymbolTable
 70
6
  0
LTYPE
  5
14
100
AcDbSymbolTableRecord
100
AcDbLinetypeTableRecord
  2
BYBLOCK
 70
0
  3

 72
65
 73
0
 40
0.0
  0
LTYPE
  5
15
100
AcDbSymbolTableRecord
100
AcDbLinetypeTableRecord
  2
BYLAYER
 70
0
  3

 72
65
 73
0
 40
0.0
  0
LTYPE
  5
16
100
AcDbSymbolTableRecord
100
AcDbLinetypeTableRecord
  2
CONTINUOUS
 70
64
  3
Solid line
 72
65
 73
0
 40
0.0
  0
LTYPE
  5
1F5
100
AcDbSymbolTableRecord
100
AcDbLinetypeTableRecord
  2
CENTER
 70
64
  3
____ _ ____ _ ____ _ ____ _ ____ _ ____ _ ____
 72
65
 73
4
 40
0.6
 49
0.375
 74
0
 49
-0.075
 74
0
 49
0.075
 74
0
 49
-0.075
 74
0
  0
LTYPE
  5
1F6
100
AcDbSymbolTableRecord
100
AcDbLinetypeTableRecord
  2
HIDDEN
 70
64
  3
- - - - - - - - - - - - - - - - - - - -
 72
65
 73
2
 40
0.2
 49
0.1
 74
0
 49
-0.1
 74
0
  0
LTYPE
  5
1F7
100
AcDbSymbolTableRecord
100
AcDbLinetypeTableRecord
  2
PHANTOM
 70
64
  3
_____ _ _ _____ _ _ _____ _ _ _____
 72
65
 73
6
 40
0.8
 49
0.45
 74
0
 49
-0.05
 74
0
 49
0.1
 74
0
 49
-0.05
 74
0
 49
0.1
 74
0
 49
-0.05
 74
0
  0
LTYPE
  5
1F8
100
AcDbSymbolTableRecord
100
AcDbLinetypeTableRecord
  2
DOT
 70
64
  3
. . . . . . . . . . . . . . . . . . . .
 72
65
 73
2
 40
0.2
 49
0.1
 74
0
 49
-0.1
 74
0
  0
LTYPE
  5
1F9
100
AcDbSymbolTableRecord
100
AcDbLinetypeTableRecord
  2
DASHED
 70
64
  3
- - - - - - - - - - - - - - - - - - - -
 72
65
 73
2
 40
0.2
 49
0.1
 74
0
 49
-0.1
 74
0
  0
ENDTAB
  0
TABLE
  2
LAYER
  5
2
100
AcDbSymbolTable
 70
36
  0
LAYER
  5
10
100
AcDbSymbolTableRecord
100
AcDbLayerTableRecord
  2
0
 70
0
 62
7
  6
CONTINUOUS
370
-3
390
F
  0
LAYER
  5
1FA
100
AcDbSymbolTableRecord
100
AcDbLayerTableRecord
  2
DEFAULT_1
 70
0
 62
7
  6
CENTER
370
-3
390
F
  0
LAYER
  5
1FB
100
AcDbSymbolTableRecord
100
AcDbLayerTableRecord
  2
DEFAULT_2
 70
0
 62
8
  6
HIDDEN
370
-3
390
F
  0
LAYER
  5
1FC
100
AcDbSymbolTableRecord
100
AcDbLayerTableRecord
  2
DEFAULT_3
 70
0
 62
7
  6
PHANTOM
370
-3
390
F
  0
LAYER
  5
1FD
100
AcDbSymbolTableRecord
100
AcDbLayerTableRecord
  2
BEZUGSACHSEN
 70
0
 62
7
  6
CONTINUOUS
370
-3
390
F
  0
LAYER
  5
1FE
100
AcDbSymbolTableRecord
100
AcDbLayerTableRecord
  2
BEZUGSEBENEN
 70
0
 62
7
  6
CONTINUOUS
370
-3
390
F
  0
LAYER
  5
1FF
100
AcDbSymbolTableRecord
100
AcDbLayerTableRecord
  2
BG_STARTBEZUEGE
 70
0
 62
7
  6
CONTINUOUS
370
-3
390
F
  0
LAYER
  5
200
100
AcDbSymbolTableRecord
100
AcDbLayerTableRecord
  2
FASEN
 70
0
 62
7
  6
CONTINUOUS
370
-3
390
F
  0
LAYER
  5
201
100
AcDbSymbolTableRecord
100
AcDbLayerTableRecord
  2
FLAECHEN
 70
0
 62
7
  6
CONTINUOUS
370
-3
390
F
  0
LAYER
  5
202
100
AcDbSymbolTableRecord
100
AcDbLayerTableRecord
  2
GEWINDE
 70
0
 62
7
  6
CONTINUOUS
370
-3
390
F
  0
LAYER
  5
203
100
AcDbSymbolTableRecord
100
AcDbLayerTableRecord
  2
HILFEN
 70
0
 62
7
  6
CONTINUOUS
370
-3
390
F
  0
LAYER
  5
204
100
AcDbSymbolTableRecord
100
AcDbLayerTableRecord
  2
KONSTRUKTIONSELEMENTE
 70
0
 62
7
  6
CONTINUOUS
370
-3
390
F
  0
LAYER
  5
205
100
AcDbSymbolTableRecord
100
AcDbLayerTableRecord
  2
KURVEN
 70
0
 62
7
  6
CONTINUOUS
370
-3
390
F
  0
LAYER
  5
206
100
AcDbSymbolTableRecord
100
AcDbLayerTableRecord
  2
NORM
 70
0
 62
7
  6
CONTINUOUS
370
-3
390
F
  0
LAYER
  5
207
100
AcDbSymbolTableRecord
100
AcDbLayerTableRecord
  2
PLATZIERUNG
 70
0
 62
7
  6
CONTINUOUS
370
-3
390
F
  0
LAYER
  5
208
100
AcDbSymbolTableRecord
100
AcDbLayerTableRecord
  2
RUNDUNGEN
 70
0
 62
7
  6
CONTINUOUS
370
-3
390
F
  0
LAYER
  5
209
100
AcDbSymbolTableRecord
100
AcDbLayerTableRecord
  2
TEIL_STARTBEZUEGE
 70
0
 62
7
  6
CONTINUOUS
370
-3
390
F
  0
LAYER
  5
20A
100
AcDbSymbolTableRecord
100
AcDbLayerTableRecord
  2
T_STARTBEZUEGE
 70
0
 62
7
  6
CONTINUOUS
370
-3
390
F
  0
LAYER
  5
20B
100
AcDbSymbolTableRecord
100
AcDbLayerTableRecord
  2
ZEICHNUNGSBEMASSUNGEN
 70
0
 62
7
  6
CONTINUOUS
370
-3
390
F
  0
ENDTAB
  0
TABLE
  2
STYLE
  5
3
100
AcDbSymbolTable
 70
1
  0
STYLE
  5
11
100
AcDbSymbolTableRecord
100
AcDbTextStyleTableRecord
  2
STANDARD
 70
0
 40
0.0
 41
0.7
 50
0.0
 71
0
 42
0.2
  3
txt
  4

  0
STYLE
  5
20C
100
AcDbSymbolTableRecord
100
AcDbTextStyleTableRecord
  2
TEXTSTYLE_1
 70
0
 40
0.0
 41
0.8
 50
0.0
 71
0
 42
0.2
  3
gdt
  4

  0
ENDTAB
  0
TABLE
  2
VIEW
  5
6
100
AcDbSymbolTable
 70
0
  0
ENDTAB
  0
TABLE
  2
UCS
  5
7
100
AcDbSymbolTable
 70
0
  0
ENDTAB
  0
TABLE
  2
APPID
  5
9
100
AcDbSymbolTable
 70
1
  0
APPID
  5
20D
100
AcDbSymbolTableRecord
100
AcDbRegAppTableRecord
  2
ACAD
 70
0
  0
ENDTAB
  0
TABLE
  2
BLOCK_RECORD
  5
1
100
AcDbSymbolTable
 70
0
  0
BLOCK_RECORD
  5
20E
100
AcDbSymbolTableRecord
100
AcDbBlockTableRecord
  2
*Model_Space
  0
BLOCK_RECORD
  5
20F
100
AcDbSymbolTableRecord
100
AcDbBlockTableRecord
  2
*Paper_Space
  0
ENDTAB
  0
TABLE
  2
DIMSTYLE
  5
A
100
AcDbSymbolTable
 70
1
100
AcDbDimStyleTable
 71
0
  0
DIMSTYLE
105
210
100
AcDbSymbolTableRecord
100
AcDbDimStyleTableRecord
  2
STANDARD
 70
0
  3

  4

 40
1.0
 41
3.5
 42
0.0625
 43
0.38
 44
0.18
 45
0.0
 46
0.0
 47
0.005
 48
0.005
140
3.5
141
0.09
142
0.0
143
25.4
144
1.0
145
0.0
146
1.0
147
0.09
 71
1.0
 72
0.0
 73
0
 74
0
 75
0
 76
0
 77
1
 78
8
170
0
171
2
172
0
173
0
174
0
175
0
176
0
177
0
178
5
270
2
271
3
272
3
273
2
274
2
275
0
280
0
281
0
282
0
283
1
284
8
285
0
286
0
287
3
288
0
340
11
  0
ENDTAB
  0
ENDSEC
  0
SECTION
  2
BLOCKS
  0
BLOCK
  5
20
100
AcDbEntity
  8
0
100
AcDbBlockBegin
  2
*Model_Space
 70
0
 10
0.0
 20
0.0
 30
0.0
  3
*Model_Space
  1

  0
ENDBLK
  5
21
100
AcDbEntity
  8
0
100
AcDbBlockEnd
  0
BLOCK
  5
1C
100
AcDbEntity
  8
0
100
AcDbBlockBegin
  2
*Paper_Space
 70
0
 10
0.0
 20
0.0
 30
0.0
  3
*Paper_Space
  1

  0
ENDBLK
  5
1D
100
AcDbEntity
  8
0
100
AcDbBlockEnd
  0
ENDSEC
  0
SECTION
  2
ENTITIES
  0
MTEXT
  5
211
100
AcDbEntity
  8
0
100
AcDbMText
 62
5
  6
CONTINUOUS
  7
STANDARD
 71
1
 72
1
 10
304.2405135414
 20
330.4922314859
 30
0.0
 11
0.0
 21
1.0
 31
0.0
 44
0.9
  1
VRS 2,3t RUD
 40
4.5
 41
41.7857142857
  0
MTEXT
  5
212
100
AcDbEntity
  8
0
100
AcDbMText
 62
5
  6
CONTINUOUS
  7
STANDARD
 71
1
 72
1
 10
145.1303065814
 20
72.0069457448
 30
0.0
 11
1.0
 21
0.0
 31
0.0
 44
0.9
  1
VRS 2,3t RUD
 40
4.5
 41
41.7857142857
  0
LINE
  5
213
100
AcDbEntity
  8
0
100
AcDbLine
 62
7
  6
CONTINUOUS
 10
0.0
 20
0.0
 11
0.0
 21
420.0
  0
LINE
  5
214
100
AcDbEntity
  8
0
100
AcDbLine
 62
7
  6
CONTINUOUS
 10
0.0
 20
0.0
 11
594.0
 21
0.0
  0
LINE
  5
215
100
AcDbEntity
  8
0
100
AcDbLine
 62
7
  6
CONTINUOUS
 10
0.0
 20
420.0
 11
594.0
 21
420.0
  0
LINE
  5
216
100
AcDbEntity
  8
0
100
AcDbLine
 62
7
  6
CONTINUOUS
 10
594.0
 20
0.0
 11
594.0
 21
420.0
  0
LINE
  5
217
100
AcDbEntity
  8
KONSTRUKTIONSELEMENTE
100
AcDbLine
 62
7
  6
CONTINUOUS
 10
157.3940197658
 20
144.9506813098
 11
173.8940197658
 21
144.9506813098
  0
LINE
  5
218
100
AcDbEntity
  8
KONSTRUKTIONSELEMENTE
100
AcDbLine
 62
7
  6
CONTINUOUS
 10
155.6440197658
 20
146.7006813098
 11
175.6440197658
 21
146.7006813098
  0
LINE
  5
219
100
AcDbEntity
  8
BEZUGSACHSEN
100
AcDbLine
 62
7
  6
CONTINUOUS
 10
176.8940197658
 20
154.9506813098
 11
154.3940197658
 21
154.9506813098
  0
LINE
  5
21A
100
AcDbEntity
  8
RUNDUNGEN
100
AcDbLine
 62
7
  6
CONTINUOUS
 10
139.6568473348
 20
368.8864420412
 11
164.4959694687
 21
379.1751433065
  0
LINE
  5
21B
100
AcDbEntity
  8
KONSTRUKTIONSELEMENTE
100
AcDbLine
 62
7
  6
CONTINUOUS
 10
147.1440197658
 20
174.9506813098
 11
184.1440197658
 21
174.9506813098
  0
LINE
  5
21C
100
AcDbEntity
  8
KONSTRUKTIONSELEMENTE
100
AcDbLine
 62
7
  6
CONTINUOUS
 10
147.1440197658
 20
178.9506813098
 11
184.1440197658
 21
178.9506813098
  0
LINE
  5
21D
100
AcDbEntity
  8
KONSTRUKTIONSELEMENTE
100
AcDbLine
 62
7
  6
CONTINUOUS
 10
155.6440197658
 20
146.7006813098
 11
157.3940197658
 21
144.9506813098
  0
LINE
  5
21E
100
AcDbEntity
  8
0
100
AcDbLine
 62
7
  6
CONTINUOUS
 10
147.7024398205
 20
367.0151496491
 11
147.3476324769
 21
366.7807008922
  0
LINE
  5
21F
100
AcDbEntity
  8
0
100
AcDbLine
 62
7
  6
CONTINUOUS
 10
145.1686404089
 20
364.4813502374
 11
144.8138334024
 21
364.2469018177
  0
LINE
  5
220
100
AcDbEntity
  8
0
100
AcDbLine
 62
7
  6
CONTINUOUS
 10
148.9712202873
 20
365.2749651111
 11
149.2671016163
 21
365.4504878533
  0
LINE
  5
221
100
AcDbEntity
  8
0
100
AcDbLine
 62
7
  6
CONTINUOUS
 10
148.3217848934
 20
364.7458883039
 11
148.6176668967
 21
364.9214117205
  0
LINE
  5
222
100
AcDbEntity
  8
0
100
AcDbLine
 62
7
  6
CONTINUOUS
 10
162.6440185737
 20
370.6081281234
 11
162.9773518275
 21
370.7783408691
  0
LINE
  5
223
100
AcDbEntity
  8
0
100
AcDbLine
 62
7
  6
CONTINUOUS
 10
147.7676342517
 20
366.4785511467
 11
148.0045902403
 21
366.5951485487
  0
LINE
  5
224
100
AcDbEntity
  8
0
100
AcDbLine
 62
7
  6
CONTINUOUS
 10
145.1736555467
 20
364.0049310284
 11
145.4106115353
 21
364.1215284304
  0
LINE
  5
225
100
AcDbEntity
  8
0
100
AcDbLine
 62
7
  6
CONTINUOUS
 10
148.2565911366
 20
365.2824874806
 11
148.019635148
 21
365.1658900786
  0
LINE
  5
226
100
AcDbEntity
  8
0
100
AcDbLine
 62
7
  6
CONTINUOUS
 10
162.5606850814
 20
371.0336599876
 11
162.3106850814
 21
370.9485536147
  0
LINE
  5
227
100
AcDbEntity
  8
0
100
AcDbLine
 62
7
  6
CONTINUOUS
 10
149.3210124932
 20
365.985833077
 11
148.9649511965
 21
365.8704889538
  0
LINE
  5
228
100
AcDbEntity
  8
0
100
AcDbLine
 62
7
  6
CONTINUOUS
 10
147.9657242711
 20
364.630544855
 11
148.3217848934
 21
364.7458883039
  0
LINE
  5
229
100
AcDbEntity
  8
BEZUGSACHSEN
100
AcDbLine
 62
7
  6
CONTINUOUS
 10
148.3235116901
 20
161.0211893855
 11
154.3940197658
 21
154.9506813098
  0
LINE
  5
22A
100
AcDbEntity
  8
0
100
AcDbLine
 62
7
  6
CONTINUOUS
 10
147.3476324769
 20
366.7807008922
 11
147.053005101
 21
366.4860735162
  0
LINE
  5
22B
100
AcDbEntity
  8
0
100
AcDbLine
 62
7
  6
CONTINUOUS
 10
144.8138334024
 20
364.2469018177
 11
143.3996198401
 21
362.8326882553
  0
LINE
  5
22C
100
AcDbEntity
  8
0
100
AcDbLine
 62
7
  6
CONTINUOUS
 10
142.9282152631
 20
362.3612836783
 11
142.5746618725
 21
362.0077302877
  0
LINE
  5
22D
100
AcDbEntity
  8
0
100
AcDbLine
 62
7
  6
CONTINUOUS
 10
140.9247461059
 20
360.3578145212
 11
140.5711927153
 21
360.0042611306
  0
LINE
  5
22E
100
AcDbEntity
  8
0
100
AcDbLine
 62
7
  6
CONTINUOUS
 10
144.0540696974
 20
362.8853451791
 11
145.1736555467
 21
364.0049310284
  0
LINE
  5
22F
100
AcDbEntity
  8
0
100
AcDbLine
 62
7
  6
CONTINUOUS
 10
147.4140808611
 20
366.1249977561
 11
147.7676342517
 21
366.4785511467
  0
LINE
  5
230
100
AcDbEntity
  8
0
100
AcDbLine
 62
7
  6
CONTINUOUS
 10
148.422084109
 20
366.5312080705
 11
148.7756374996
 21
366.8847614611
  0
LINE
  5
231
100
AcDbEntity
  8
0
100
AcDbLine
 62
7
  6
CONTINUOUS
 10
166.3106853198
 20
369.4166387845
 11
166.0606853198
 21
369.2464259793
  0
LINE
  5
232
100
AcDbEntity
  8
0
100
AcDbLine
 62
7
  6
CONTINUOUS
 10
148.9649511965
 20
365.8704889538
 11
148.6101445272
 21
365.6360408712
  0
LINE
  5
233
100
AcDbEntity
  8
0
100
AcDbLine
 62
7
  6
CONTINUOUS
 10
149.4087735218
 20
363.3053462848
 11
149.7635808707
 21
363.5397950365
  0
LINE
  5
234
100
AcDbEntity
  8
0
100
AcDbLine
 62
7
  6
CONTINUOUS
 10
149.4025050685
 20
363.9008708388
 11
149.1066237395
 21
363.7253480965
  0
LINE
  5
235
100
AcDbEntity
  8
0
100
AcDbLine
 62
7
  6
CONTINUOUS
 10
166.1440183352
 20
368.7357876901
 11
166.4773518275
 21
368.9060004581
  0
LINE
  5
236
100
AcDbEntity
  8
0
100
AcDbLine
 62
7
  6
CONTINUOUS
 10
170.1440188121
 20
368.7357876901
 11
170.4773518275
 21
368.9060004581
  0
LINE
  5
237
100
AcDbEntity
  8
KONSTRUKTIONSELEMENTE
100
AcDbLine
 62
7
  6
CONTINUOUS
 10
180.6440197658
 20
174.9506813098
 11
182.9645278414
 21
173.6109353477
  0
LINE
  5
238
100
AcDbEntity
  8
0
100
AcDbLine
 62
7
  6
CONTINUOUS
 10
162.7273518275
 20
371.2038727332
 11
162.5606850814
 21
371.0336599876
  0
LINE
  5
239
100
AcDbEntity
  8
0
100
AcDbLine
 62
7
  6
CONTINUOUS
 10
148.6101445272
 20
365.6360408712
 11
148.2565911366
 21
365.2824874806
  0
LINE
  5
23A
100
AcDbEntity
  8
0
100
AcDbLine
 62
7
  6
CONTINUOUS
 10
146.0763451156
 20
363.1022414595
 11
144.9567592663
 21
361.9826556103
  0
LINE
  5
23B
100
AcDbEntity
  8
0
100
AcDbLine
 62
7
  6
CONTINUOUS
 10
145.3178350264
 20
361.6215798502
 11
146.3195695207
 21
362.6233143444
  0
LINE
  5
23C
100
AcDbEntity
  8
0
100
AcDbLine
 62
7
  6
CONTINUOUS
 10
148.6176668967
 20
364.9214117205
 11
148.9712202873
 21
365.2749651111
  0
LINE
  5
23D
100
AcDbEntity
  8
0
100
AcDbLine
 62
7
  6
CONTINUOUS
 10
148.5098452273
 20
363.8507211888
 11
148.1562921739
 21
363.4971681354
  0
LINE
  5
23E
100
AcDbEntity
  8
0
100
AcDbLine
 62
7
  6
CONTINUOUS
 10
149.873909814
 20
364.3722755843
 11
149.4025050685
 21
363.9008708388
  0
LINE
  5
23F
100
AcDbEntity
  8
0
100
AcDbLine
 62
7
  6
CONTINUOUS
 10
144.3424289097
 20
358.1186430755
 11
144.8138334024
 21
358.5900475682
  0
LINE
  5
240
100
AcDbEntity
  8
0
100
AcDbLine
 62
7
  6
CONTINUOUS
 10
146.2280469648
 20
360.0042611306
 11
146.5816003554
 21
360.3578145212
  0
LINE
  5
241
100
AcDbEntity
  8
0
100
AcDbLine
 62
7
  6
CONTINUOUS
 10
148.0547395953
 20
361.830953761
 11
148.4672183262
 21
362.2434324919
  0
LINE
  5
242
100
AcDbEntity
  8
0
100
AcDbLine
 62
7
  6
CONTINUOUS
 10
149.7635808707
 20
363.5397950365
 11
150.2349856163
 21
364.0111997821
  0
LINE
  5
243
100
AcDbEntity
  8
0
100
AcDbLine
 62
7
  6
CONTINUOUS
 10
170.310684843
 20
369.4166387845
 11
170.060684843
 21
369.2464259793
  0
LINE
  5
244
100
AcDbEntity
  8
BEZUGSACHSEN
100
AcDbLine
 62
7
  6
CONTINUOUS
 10
127.8878252987
 20
342.76961002
 11
128.1432540939
 21
343.3862696816
  0
LINE
  5
245
100
AcDbEntity
  8
RUNDUNGEN
100
AcDbLine
 62
7
  6
CONTINUOUS
 10
128.1432540939
 20
343.3862696816
 11
138.0332590344
 21
367.2628537408
  0
LINE
  5
246
100
AcDbEntity
  8
0
100
AcDbLine
 62
7
  6
CONTINUOUS
 10
147.053005101
 20
366.4860735162
 11
146.8774816844
 21
366.1901915129
  0
LINE
  5
247
100
AcDbEntity
  8
0
100
AcDbLine
 62
7
  6
CONTINUOUS
 10
150.0494325563
 20
364.6681569133
 11
149.873909814
 21
364.3722755843
  0
LINE
  5
248
100
AcDbEntity
  8
0
100
AcDbLine
 62
7
  6
CONTINUOUS
 10
150.2349856163
 20
364.0111997821
 11
150.4694336936
 21
364.3660064566
  0
LINE
  5
249
100
AcDbEntity
  8
0
100
AcDbLine
 62
7
  6
CONTINUOUS
 10
162.9773518275
 20
370.7783408691
 11
163.2273518275
 21
371.1187663604
  0
LINE
  5
24A
100
AcDbEntity
  8
0
100
AcDbLine
 62
7
  6
CONTINUOUS
 10
166.4773518275
 20
368.9060004581
 11
166.8106853198
 21
369.2464259793
  0
LINE
  5
24B
100
AcDbEntity
  8
0
100
AcDbLine
 62
7
  6
CONTINUOUS
 10
170.4773518275
 20
368.9060004581
 11
170.810684843
 21
369.2464259793
  0
LINE
  5
24C
100
AcDbEntity
  8
0
100
AcDbLine
 62
7
  6
CONTINUOUS
 10
147.2974834591
 20
365.8880417675
 11
147.4140808611
 21
366.1249977561
  0
LINE
  5
24D
100
AcDbEntity
  8
0
100
AcDbLine
 62
7
  6
CONTINUOUS
 10
146.1929425175
 20
363.3391974482
 11
146.0763451156
 21
363.1022414595
  0
LINE
  5
24E
100
AcDbEntity
  8
0
100
AcDbLine
 62
7
  6
CONTINUOUS
 10
166.4773518275
 20
369.671957903
 11
166.3106853198
 21
369.4166387845
  0
LINE
  5
24F
100
AcDbEntity
  8
0
100
AcDbLine
 62
7
  6
CONTINUOUS
 10
170.4773518275
 20
369.671957903
 11
170.310684843
 21
369.4166387845
  0
LINE
  5
250
100
AcDbEntity
  8
0
100
AcDbLine
 62
7
  6
CONTINUOUS
 10
184.8505690564
 20
361.5724390612
 11
185.2851641864
 21
362.0070341912
  0
LINE
  5
251
100
AcDbEntity
  8
0
100
AcDbLine
 62
7
  6
CONTINUOUS
 10
187.2998601932
 20
364.021730198
 11
187.7344553232
 21
364.456325328
  0
LINE
  5
252
100
AcDbEntity
  8
0
100
AcDbLine
 62
7
  6
CONTINUOUS
 10
146.8774816844
 20
366.1901915129
 11
146.7621382355
 21
365.8341308906
  0
LINE
  5
253
100
AcDbEntity
  8
0
100
AcDbLine
 62
7
  6
CONTINUOUS
 10
146.5527643246
 20
363.0972263217
 11
146.6681081107
 21
363.4532872812
  0
LINE
  5
254
100
AcDbEntity
  8
0
100
AcDbLine
 62
7
  6
CONTINUOUS
 10
150.4694336936
 20
364.3660064566
 11
150.5847778011
 21
364.7220677691
  0
LINE
  5
255
100
AcDbEntity
  8
0
100
AcDbLine
 62
7
  6
CONTINUOUS
 10
166.8106853198
 20
369.2464259793
 11
166.9773518275
 21
369.5868515302
  0
LINE
  5
256
100
AcDbEntity
  8
0
100
AcDbLine
 62
7
  6
CONTINUOUS
 10
188.2363242395
 20
360.6321639405
 11
188.6709193695
 21
361.0667590705
  0
LINE
  5
257
100
AcDbEntity
  8
0
100
AcDbLine
 62
7
  6
CONTINUOUS
 10
187.3105690564
 20
359.1124390612
 11
187.7451641864
 21
359.5470341912
  0
LINE
  5
258
100
AcDbEntity
  8
0
100
AcDbLine
 62
7
  6
CONTINUOUS
 10
189.7598601932
 20
361.561730198
 11
190.1944553232
 21
361.996325328
  0
LINE
  5
259
100
AcDbEntity
  8
0
100
AcDbLine
 62
7
  6
CONTINUOUS
 10
157.2586034517
 20
316.9591920902
 11
157.6961034517
 21
317.2570643951
  0
LINE
  5
25A
100
AcDbEntity
  8
0
100
AcDbLine
 62
7
  6
CONTINUOUS
 10
157.5502700489
 20
318.0017451574
 11
156.9669367503
 21
317.7038728524
  0
LINE
  5
25B
100
AcDbEntity
  8
0
100
AcDbLine
 62
7
  6
CONTINUOUS
 10
166.7377703618
 20
318.0017451574
 11
166.1544367503
 21
317.7038728524
  0
LINE
  5
25C
100
AcDbEntity
  8
BEZUGSACHSEN
100
AcDbLine
 62
7
  6
CONTINUOUS
 10
131.6440197658
 20
321.1506813098
 11
131.6440197658
 21
329.1506813098
  0
LINE
  5
25D
100
AcDbEntity
  8
0
100
AcDbLine
 62
7
  6
CONTINUOUS
 10
147.2410653506
 20
365.5909064855
 11
147.2974834591
 21
365.8880417675
  0
LINE
  5
25E
100
AcDbEntity
  8
0
100
AcDbLine
 62
7
  6
CONTINUOUS
 10
150.1058506228
 20
364.9652922375
 11
150.0494325563
 21
364.6681569133
  0
LINE
  5
25F
100
AcDbEntity
  8
0
100
AcDbLine
 62
7
  6
CONTINUOUS
 10
162.8106850814
 20
371.4591918517
 11
162.7273518275
 21
371.2038727332
  0
LINE
  5
260
100
AcDbEntity
  8
0
100
AcDbLine
 62
7
  6
CONTINUOUS
 10
163.2273518275
 20
371.1187663604
 11
163.3106850814
 21
371.3740854789
  0
LINE
  5
261
100
AcDbEntity
  8
0
100
AcDbLine
 62
7
  6
CONTINUOUS
 10
170.810684843
 20
369.2464259793
 11
170.9773518275
 21
369.5868515302
  0
LINE
  5
262
100
AcDbEntity
  8
0
100
AcDbLine
 62
7
  6
CONTINUOUS
 10
156.9669367503
 20
316.5123836328
 11
157.2586034517
 21
316.9591920902
  0
LINE
  5
263
100
AcDbEntity
  8
0
100
AcDbLine
 62
7
  6
CONTINUOUS
 10
156.9669367503
 20
317.7038728524
 11
156.3836034257
 21
317.1081282426
  0
LINE
  5
264
100
AcDbEntity
  8
0
100
AcDbLine
 62
7
  6
CONTINUOUS
 10
166.1544367503
 20
317.7038728524
 11
165.5711031388
 21
317.1081282426
  0
LINE
  5
265
100
AcDbEntity
  8
0
100
AcDbLine
 62
7
  6
CONTINUOUS
 10
160.1752699446
 20
315.6187663008
 11
156.0919367503
 21
311.8953621764
  0
LINE
  5
266
100
AcDbEntity
  8
0
100
AcDbLine
 62
7
  6
CONTINUOUS
 10
157.2586034517
 20
311.8953621764
 11
160.9044367503
 21
315.1719578434
  0
LINE
  5
267
100
AcDbEntity
  8
0
100
AcDbLine
 62
7
  6
CONTINUOUS
 10
169.3627703618
 20
314.725149386
 11
169.9461031388
 21
315.1719578434
  0
LINE
  5
268
100
AcDbEntity
  8
0
100
AcDbLine
 62
7
  6
CONTINUOUS
 10
166.4461031388
 20
316.9591920902
 11
166.8836031388
 21
317.2570643951
  0
LINE
  5
269
100
AcDbEntity
  8
0
100
AcDbLine
 62
7
  6
CONTINUOUS
 10
169.6544367503
 20
311.5974898193
 11
170.0919367503
 21
311.8953621764
  0
LINE
  5
26A
100
AcDbEntity
  8
0
100
AcDbLine
 62
7
  6
CONTINUOUS
 10
169.3627703618
 20
312.1932344813
 11
169.0711031388
 21
312.0442983289
  0
LINE
  5
26B
100
AcDbEntity
  8
0
100
AcDbLine
 62
7
  6
CONTINUOUS
 10
169.0711031388
 20
311.2996174753
 11
169.6544367503
 21
311.5974898193
  0
LINE
  5
26C
100
AcDbEntity
  8
0
100
AcDbLine
 62
7
  6
CONTINUOUS
 10
169.0711031388
 20
315.3208939959
 11
168.1961031388
 21
315.023021691
  0
LINE
  5
26D
100
AcDbEntity
  8
0
100
AcDbLine
 62
7
  6
CONTINUOUS
 10
146.1904349486
 20
363.5774070527
 11
146.1929425175
 21
363.3391974482
  0
LINE
  5
26E
100
AcDbEntity
  8
KONSTRUKTIONSELEMENTE
100
AcDbLine
 62
7
  6
CONTINUOUS
 10
147.1440197658
 20
174.9506813098
 11
147.1440197658
 21
178.9506813098
  0
LINE
  5
26F
100
AcDbEntity
  8
0
100
AcDbLine
 62
7
  6
CONTINUOUS
 10
166.5606853198
 20
370.0123833944
 11
166.4773518275
 21
369.671957903
  0
LINE
  5
270
100
AcDbEntity
  8
0
100
AcDbLine
 62
7
  6
CONTINUOUS
 10
156.3836034257
 20
317.1081282426
 11
156.237770088
 21
316.5123836328
  0
LINE
  5
271
100
AcDbEntity
  8
0
100
AcDbLine
 62
7
  6
CONTINUOUS
 10
160.4669367503
 20
316.2145109106
 11
160.1752699446
 21
315.6187663008
  0
LINE
  5
272
100
AcDbEntity
  8
0
100
AcDbLine
 62
7
  6
CONTINUOUS
 10
163.3836031388
 20
311.8953621764
 11
162.5086035561
 21
310.2570642908
  0
LINE
  5
273
100
AcDbEntity
  8
0
100
AcDbLine
 62
7
  6
CONTINUOUS
 10
163.2377703618
 20
310.2570642908
 11
164.1127703618
 21
311.8953621764
  0
LINE
  5
274
100
AcDbEntity
  8
0
100
AcDbLine
 62
7
  6
CONTINUOUS
 10
160.9044367503
 20
315.1719578434
 11
161.1961035561
 21
315.6187663008
  0
LINE
  5
275
100
AcDbEntity
  8
0
100
AcDbLine
 62
7
  6
CONTINUOUS
 10
166.1544367503
 20
316.5123836328
 11
166.4461031388
 21
316.9591920902
  0
LINE
  5
276
100
AcDbEntity
  8
0
100
AcDbLine
 62
7
  6
CONTINUOUS
 10
169.9461031388
 20
315.1719578434
 11
170.2377695273
 21
315.6187663008
  0
LINE
  5
277
100
AcDbEntity
  8
0
100
AcDbLine
 62
7
  6
CONTINUOUS
 10
169.3627703618
 20
315.6187663008
 11
169.0711031388
 21
315.3208939959
  0
LINE
  5
278
100
AcDbEntity
  8
0
100
AcDbLine
 62
7
  6
CONTINUOUS
 10
169.6544367503
 20
312.4911068906
 11
169.3627703618
 21
312.1932344813
  0
LINE
  5
279
100
AcDbEntity
  8
0
100
AcDbLine
 62
7
  6
CONTINUOUS
 10
146.7621382355
 20
365.8341308906
 11
146.7671533733
 21
365.3577116816
  0
LINE
  5
27A
100
AcDbEntity
  8
0
100
AcDbLine
 62
7
  6
CONTINUOUS
 10
150.5847778011
 20
364.7220677691
 11
150.5797626422
 21
365.1984869992
  0
LINE
  5
27B
100
AcDbEntity
  8
KONSTRUKTIONSELEMENTE
100
AcDbLine
 62
7
  6
CONTINUOUS
 10
148.3235116901
 20
173.6109353477
 11
148.3235116901
 21
161.0211893855
  0
LINE
  5
27C
100
AcDbEntity
  8
KONSTRUKTIONSELEMENTE
100
AcDbLine
 62
7
  6
CONTINUOUS
 10
150.9940197658
 20
305.1506813098
 11
150.9940197658
 21
304.9506813098
  0
LINE
  5
27D
100
AcDbEntity
  8
0
100
AcDbLine
 62
7
  6
CONTINUOUS
 10
153.6440197658
 20
330.9506813098
 11
153.6440197658
 21
333.9506813098
  0
LINE
  5
27E
100
AcDbEntity
  8
KONSTRUKTIONSELEMENTE
100
AcDbLine
 62
7
  6
CONTINUOUS
 10
155.6440197658
 20
304.9506813098
 11
155.6440197658
 21
178.9506813098
  0
LINE
  5
27F
100
AcDbEntity
  8
KONSTRUKTIONSELEMENTE
100
AcDbLine
 62
7
  6
CONTINUOUS
 10
155.6440197658
 20
154.9506813098
 11
155.6440197658
 21
146.7006813098
  0
LINE
  5
280
100
AcDbEntity
  8
0
100
AcDbLine
 62
7
  6
CONTINUOUS
 10
156.0919367503
 20
311.8953621764
 11
156.0919367503
 21
311.1506813098
  0
LINE
  5
281
100
AcDbEntity
  8
KONSTRUKTIONSELEMENTE
100
AcDbLine
 62
7
  6
CONTINUOUS
 10
156.9837657279
 20
173.6109353477
 11
156.9837657279
 21
161.0211893855
  0
LINE
  5
282
100
AcDbEntity
  8
0
100
AcDbLine
 62
7
  6
CONTINUOUS
 10
166.9773518275
 20
369.5868515302
 11
167.0606853198
 21
370.0123833944
  0
LINE
  5
283
100
AcDbEntity
  8
0
100
AcDbLine
 62
7
  6
CONTINUOUS
 10
170.9773518275
 20
369.5868515302
 11
171.060684843
 21
370.0123833944
  0
LINE
  5
284
100
AcDbEntity
  8
0
100
AcDbLine
 62
7
  6
CONTINUOUS
 10
170.560684843
 20
370.0123833944
 11
170.4773518275
 21
369.671957903
  0
LINE
  5
285
100
AcDbEntity
  8
0
100
AcDbLine
 62
7
  6
CONTINUOUS
 10
161.1961035561
 20
315.6187663008
 11
161.3419367503
 21
316.2145109106
  0
LINE
  5
286
100
AcDbEntity
  8
0
100
AcDbLine
 62
7
  6
CONTINUOUS
 10
165.5711031388
 20
317.1081282426
 11
165.4252703618
 21
316.5123836328
  0
LINE
  5
287
100
AcDbEntity
  8
0
100
AcDbLine
 62
7
  6
CONTINUOUS
 10
169.6544367503
 20
316.2145109106
 11
169.3627703618
 21
315.6187663008
  0
LINE
  5
288
100
AcDbEntity
  8
0
100
AcDbLine
 62
7
  6
CONTINUOUS
 10
169.8002703618
 20
312.7889791955
 11
169.6544367503
 21
312.4911068906
  0
LINE
  5
289
100
AcDbEntity
  8
0
100
AcDbLine
 62
7
  6
CONTINUOUS
 10
170.0919367503
 20
311.8953621764
 11
170.3836039733
 21
312.3421706338
  0
LINE
  5
28A
100
AcDbEntity
  8
BEZUGSACHSEN
100
AcDbLine
 62
7
  6
CONTINUOUS
 10
131.578345988
 20
331.5638043256
 11
127.8878252987
 21
340.4735094258
  0
LINE
  5
28B
100
AcDbEntity
  8
0
100
AcDbLine
 62
7
  6
CONTINUOUS
 10
158.8312865893
 20
329.9506813098
 11
158.8312865893
 21
324.8587192431
  0
LINE
  5
28C
100
AcDbEntity
  8
BEZUGSACHSEN
100
AcDbLine
 62
7
  6
CONTINUOUS
 10
159.4299337817
 20
329.9506813098
 11
159.4299337817
 21
324.7799413459
  0
LINE
  5
28D
100
AcDbEntity
  8
0
100
AcDbLine
 62
7
  6
CONTINUOUS
 10
160.2273518275
 20
372.6506813098
 11
160.2273518275
 21
368.6506813098
  0
LINE
  5
28E
100
AcDbEntity
  8
0
100
AcDbLine
 62
7
  6
CONTINUOUS
 10
160.4669367503
 20
316.5123836328
 11
160.4669367503
 21
316.2145109106
  0
LINE
  5
28F
100
AcDbEntity
  8
0
100
AcDbLine
 62
7
  6
CONTINUOUS
 10
160.7273518275
 20
368.6506813098
 11
160.7273518275
 21
370.4379153777
  0
LINE
  5
290
100
AcDbEntity
  8
0
100
AcDbLine
 62
7
  6
CONTINUOUS
 10
160.7273518275
 20
370.9485536147
 11
160.7273518275
 21
372.2251494457
  0
LINE
  5
291
100
AcDbEntity
  8
0
100
AcDbLine
 62
7
  6
CONTINUOUS
 10
161.3419367503
 20
311.1506813098
 11
161.3419367503
 21
311.8953621764
  0
LINE
  5
292
100
AcDbEntity
  8
0
100
AcDbLine
 62
7
  6
CONTINUOUS
 10
161.3419367503
 20
316.2145109106
 11
161.3419367503
 21
316.5123836328
  0
LINE
  5
293
100
AcDbEntity
  8
0
100
AcDbLine
 62
7
  6
CONTINUOUS
 10
161.3940197658
 20
334.9506813098
 11
161.3940197658
 21
335.2506813098
  0
LINE
  5
294
100
AcDbEntity
  8
BEZUGSACHSEN
100
AcDbLine
 62
7
  6
CONTINUOUS
 10
161.6390059851
 20
329.9506813098
 11
161.6390059851
 21
324.5548061803
  0
LINE
  5
295
100
AcDbEntity
  8
0
100
AcDbLine
 62
7
  6
CONTINUOUS
 10
162.2376531775
 20
329.9506813098
 11
162.2376531775
 21
324.510770509
  0
LINE
  5
296
100
AcDbEntity
  8
0
100
AcDbLine
 62
7
  6
CONTINUOUS
 10
162.8106850814
 20
371.7145112087
 11
162.8106850814
 21
371.4591918517
  0
LINE
  5
297
100
AcDbEntity
  8
0
100
AcDbLine
 62
7
  6
CONTINUOUS
 10
163.3106850814
 20
371.3740854789
 11
163.3106850814
 21
371.7145112087
  0
LINE
  5
298
100
AcDbEntity
  8
BEZUGSACHSEN
100
AcDbLine
 62
7
  6
CONTINUOUS
 10
163.4349475623
 20
329.9506813098
 11
163.4349475623
 21
324.4440335225
  0
LINE
  5
299
100
AcDbEntity
  8
0
100
AcDbLine
 62
7
  6
CONTINUOUS
 10
164.0606850814
 20
372.6506813098
 11
164.0606850814
 21
370.0123833944
  0
LINE
  5
29A
100
AcDbEntity
  8
0
100
AcDbLine
 62
7
  6
CONTINUOUS
 10
164.5606853198
 20
370.0123833944
 11
164.5606853198
 21
372.6506813098
  0
LINE
  5
29B
100
AcDbEntity
  8
0
100
AcDbLine
 62
7
  6
CONTINUOUS
 10
165.6440197658
 20
334.9506813098
 11
165.6440197658
 21
335.2506813098
  0
LINE
  5
29C
100
AcDbEntity
  8
0
100
AcDbLine
 62
7
  6
CONTINUOUS
 10
166.5606853198
 20
372.6506813098
 11
166.5606853198
 21
370.0123833944
  0
LINE
  5
29D
100
AcDbEntity
  8
0
100
AcDbLine
 62
7
  6
CONTINUOUS
 10
170.2377695273
 20
315.6187663008
 11
170.3836039733
 21
316.2145109106
  0
LINE
  5
29E
100
AcDbEntity
  8
0
100
AcDbLine
 62
7
  6
CONTINUOUS
 10
170.3836039733
 20
312.3421706338
 11
170.5294367503
 21
312.7889791955
  0
LINE
  5
29F
100
AcDbEntity
  8
0
100
AcDbLine
 62
7
  6
CONTINUOUS
 10
146.6681081107
 20
363.4532872812
 11
146.6041676326
 21
363.8707811499
  0
LINE
  5
2A0
100
AcDbEntity
  8
0
100
AcDbLine
 62
7
  6
CONTINUOUS
 10
167.0606853198
 20
370.0123833944
 11
167.0606853198
 21
372.6506813098
  0
LINE
  5
2A1
100
AcDbEntity
  8
0
100
AcDbLine
 62
7
  6
CONTINUOUS
 10
167.6127703618
 20
315.023021691
 11
167.6127703618
 21
314.4272770811
  0
LINE
  5
2A2
100
AcDbEntity
  8
0
100
AcDbLine
 62
7
  6
CONTINUOUS
 10
167.7273518275
 20
372.6506813098
 11
167.7273518275
 21
368.6506813098
  0
LINE
  5
2A3
100
AcDbEntity
  8
BEZUGSACHSEN
100
AcDbLine
 62
7
  6
CONTINUOUS
 10
167.8530919692
 20
329.9506813098
 11
167.8530919692
 21
324.4440474495
  0
LINE
  5
2A4
100
AcDbEntity
  8
0
100
AcDbLine
 62
7
  6
CONTINUOUS
 10
168.2273518275
 20
369.1613196064
 11
168.2273518275
 21
372.1400430728
  0
LINE
  5
2A5
100
AcDbEntity
  8
0
100
AcDbLine
 62
7
  6
CONTINUOUS
 10
169.050386354
 20
329.9506813098
 11
169.050386354
 21
324.51074991
  0
LINE
  5
2A6
100
AcDbEntity
  8
BEZUGSACHSEN
100
AcDbLine
 62
7
  6
CONTINUOUS
 10
169.6490335464
 20
329.9506813098
 11
169.6490335464
 21
324.5548164237
  0
LINE
  5
2A7
100
AcDbEntity
  8
0
100
AcDbLine
 62
7
  6
CONTINUOUS
 10
169.6544367503
 20
316.5123836328
 11
169.6544367503
 21
316.2145109106
  0
LINE
  5
2A8
100
AcDbEntity
  8
0
100
AcDbLine
 62
7
  6
CONTINUOUS
 10
169.8002703618
 20
313.3847238053
 11
169.8002703618
 21
312.7889791955
  0
LINE
  5
2A9
100
AcDbEntity
  8
0
100
AcDbLine
 62
7
  6
CONTINUOUS
 10
169.8940197658
 20
334.9506813098
 11
169.8940197658
 21
335.2506813098
  0
LINE
  5
2AA
100
AcDbEntity
  8
0
100
AcDbLine
 62
7
  6
CONTINUOUS
 10
170.3836039733
 20
316.2145109106
 11
170.3836039733
 21
316.5123836328
  0
LINE
  5
2AB
100
AcDbEntity
  8
0
100
AcDbLine
 62
7
  6
CONTINUOUS
 10
170.5294367503
 20
312.7889791955
 11
170.5294367503
 21
313.3847238053
  0
LINE
  5
2AC
100
AcDbEntity
  8
0
100
AcDbLine
 62
7
  6
CONTINUOUS
 10
170.560684843
 20
371.2889791061
 11
170.560684843
 21
370.0123833944
  0
LINE
  5
2AD
100
AcDbEntity
  8
0
100
AcDbLine
 62
7
  6
CONTINUOUS
 10
171.060684843
 20
370.0123833944
 11
171.060684843
 21
371.2889791061
  0
LINE
  5
2AE
100
AcDbEntity
  8
0
100
AcDbLine
 62
7
  6
CONTINUOUS
 10
171.6961039733
 20
315.9166386057
 11
171.6961039733
 21
315.3208939959
  0
LINE
  5
2AF
100
AcDbEntity
  8
BEZUGSACHSEN
100
AcDbLine
 62
7
  6
CONTINUOUS
 10
171.8581057498
 20
329.9506813098
 11
171.8581057498
 21
324.779936929
  0
LINE
  5
2B0
100
AcDbEntity
  8
0
100
AcDbLine
 62
7
  6
CONTINUOUS
 10
172.4567529422
 20
329.9506813098
 11
172.4567529422
 21
324.8587365466
  0
LINE
  5
2B1
100
AcDbEntity
  8
0
100
AcDbLine
 62
7
  6
CONTINUOUS
 10
172.8627695273
 20
317.1081282426
 11
172.8627695273
 21
315.9166386057
  0
LINE
  5
2B2
100
AcDbEntity
  8
0
100
AcDbLine
 62
7
  6
CONTINUOUS
 10
172.8627695273
 20
315.3208939959
 11
172.8627695273
 21
312.3421706338
  0
LINE
  5
2B3
100
AcDbEntity
  8
0
100
AcDbLine
 62
7
  6
CONTINUOUS
 10
173.5919367503
 20
312.640043043
 11
173.5919367503
 21
315.3208939959
  0
LINE
  5
2B4
100
AcDbEntity
  8
0
100
AcDbLine
 62
7
  6
CONTINUOUS
 10
173.5919367503
 20
315.9166386057
 11
173.5919367503
 21
317.1081282426
  0
LINE
  5
2B5
100
AcDbEntity
  8
KONSTRUKTIONSELEMENTE
100
AcDbLine
 62
7
  6
CONTINUOUS
 10
174.3042738036
 20
173.6109353477
 11
174.3042738036
 21
161.0211893855
  0
LINE
  5
2B6
100
AcDbEntity
  8
0
100
AcDbLine
 62
7
  6
CONTINUOUS
 10
174.9044367503
 20
311.1506813098
 11
174.9044367503
 21
311.7464259718
  0
LINE
  5
2B7
100
AcDbEntity
  8
0
100
AcDbLine
 62
7
  6
CONTINUOUS
 10
175.1961039733
 20
315.3208939959
 11
175.1961039733
 21
315.9166386057
  0
LINE
  5
2B8
100
AcDbEntity
  8
KONSTRUKTIONSELEMENTE
100
AcDbLine
 62
7
  6
CONTINUOUS
 10
175.6440197658
 20
304.9506813098
 11
175.6440197658
 21
178.9506813098
  0
LINE
  5
2B9
100
AcDbEntity
  8
KONSTRUKTIONSELEMENTE
100
AcDbLine
 62
7
  6
CONTINUOUS
 10
175.6440197658
 20
154.9506813098
 11
175.6440197658
 21
146.7006813098
  0
LINE
  5
2BA
100
AcDbEntity
  8
BEZUGSACHSEN
100
AcDbLine
 62
7
  6
CONTINUOUS
 10
203.4002142328
 20
340.4735094258
 11
201.1125839245
 21
334.9506813098
  0
LINE
  5
2BB
100
AcDbEntity
  8
0
100
AcDbLine
 62
7
  6
CONTINUOUS
 10
161.3419367503
 20
316.5123836328
 11
161.1961035561
 21
317.1081282426
  0
LINE
  5
2BC
100
AcDbEntity
  8
0
100
AcDbLine
 62
7
  6
CONTINUOUS
 10
150.0431640977
 20
365.2636814725
 11
150.1058506228
 21
364.9652922375
  0
LINE
  5
2BD
100
AcDbEntity
  8
KONSTRUKTIONSELEMENTE
100
AcDbLine
 62
7
  6
CONTINUOUS
 10
180.2940197658
 20
305.1506813098
 11
180.2940197658
 21
304.9506813098
  0
LINE
  5
2BE
100
AcDbEntity
  8
KONSTRUKTIONSELEMENTE
100
AcDbLine
 62
7
  6
CONTINUOUS
 10
182.9645278414
 20
173.6109353477
 11
182.9645278414
 21
161.0211893855
  0
LINE
  5
2BF
100
AcDbEntity
  8
KONSTRUKTIONSELEMENTE
100
AcDbLine
 62
7
  6
CONTINUOUS
 10
184.1440197658
 20
174.9506813098
 11
184.1440197658
 21
178.9506813098
  0
LINE
  5
2C0
100
AcDbEntity
  8
0
100
AcDbLine
 62
7
  6
CONTINUOUS
 10
160.1752699446
 20
316.9591920902
 11
160.4669367503
 21
316.5123836328
  0
LINE
  5
2C1
100
AcDbEntity
  8
0
100
AcDbLine
 62
7
  6
CONTINUOUS
 10
165.4252703618
 20
312.3421706338
 11
165.7169367503
 21
311.8953621764
  0
LINE
  5
2C2
100
AcDbEntity
  8
0
100
AcDbLine
 62
7
  6
CONTINUOUS
 10
144.8138334024
 20
358.5900475682
 11
142.9282152631
 21
362.3612836783
  0
LINE
  5
2C3
100
AcDbEntity
  8
0
100
AcDbLine
 62
7
  6
CONTINUOUS
 10
142.5746618725
 20
362.0077302877
 11
144.2170553117
 21
358.715421082
  0
LINE
  5
2C4
100
AcDbEntity
  8
0
100
AcDbLine
 62
7
  6
CONTINUOUS
 10
166.1544367503
 20
312.4911068906
 11
166.0086031388
 21
312.7889791955
  0
LINE
  5
2C5
100
AcDbEntity
  8
0
100
AcDbLine
 62
7
  6
CONTINUOUS
 10
169.5086031388
 20
313.9804686238
 11
169.8002703618
 21
313.3847238053
  0
LINE
  5
2C6
100
AcDbEntity
  8
0
100
AcDbLine
 62
7
  6
CONTINUOUS
 10
150.5797626422
 20
365.1984869992
 11
150.4568967816
 21
365.5570555697
  0
LINE
  5
2C7
100
AcDbEntity
  8
0
100
AcDbLine
 62
7
  6
CONTINUOUS
 10
165.2794367503
 20
312.7889791955
 11
165.4252703618
 21
312.3421706338
  0
LINE
  5
2C8
100
AcDbEntity
  8
0
100
AcDbLine
 62
7
  6
CONTINUOUS
 10
173.7377695273
 20
312.1932344813
 11
173.5919367503
 21
312.640043043
  0
LINE
  5
2C9
100
AcDbEntity
  8
0
100
AcDbLine
 62
7
  6
CONTINUOUS
 10
170.5294367503
 20
313.3847238053
 11
170.3836039733
 21
313.9804686238
  0
LINE
  5
2CA
100
AcDbEntity
  8
0
100
AcDbLine
 62
7
  6
CONTINUOUS
 10
170.3836039733
 20
316.5123836328
 11
170.2377695273
 21
317.1081282426
  0
LINE
  5
2CB
100
AcDbEntity
  8
0
100
AcDbLine
 62
7
  6
CONTINUOUS
 10
164.0606850814
 20
370.0123833944
 11
164.1440185737
 21
369.5868515302
  0
LINE
  5
2CC
100
AcDbEntity
  8
KONSTRUKTIONSELEMENTE
100
AcDbLine
 62
7
  6
CONTINUOUS
 10
150.9940197658
 20
304.9506813098
 11
180.2940197658
 21
304.9506813098
  0
LINE
  5
2CD
100
AcDbEntity
  8
BEZUGSACHSEN
100
AcDbLine
 62
7
  6
CONTINUOUS
 10
186.1440197658
 20
305.1506813098
 11
145.1440197658
 21
305.1506813098
  0
LINE
  5
2CE
100
AcDbEntity
  8
0
100
AcDbLine
 62
7
  6
CONTINUOUS
 10
161.1961035561
 20
317.1081282426
 11
160.6127699446
 21
317.7038728524
  0
LINE
  5
2CF
100
AcDbEntity
  8
0
100
AcDbLine
 62
7
  6
CONTINUOUS
 10
166.4461031388
 20
312.1932344813
 11
166.1544367503
 21
312.4911068906
  0
LINE
  5
2D0
100
AcDbEntity
  8
0
100
AcDbLine
 62
7
  6
CONTINUOUS
 10
170.3836039733
 20
313.9804686238
 11
170.0919367503
 21
314.4272770811
  0
LINE
  5
2D1
100
AcDbEntity
  8
0
100
AcDbLine
 62
7
  6
CONTINUOUS
 10
169.3627703618
 20
316.9591920902
 11
169.6544367503
 21
316.5123836328
  0
LINE
  5
2D2
100
AcDbEntity
  8
0
100
AcDbLine
 62
7
  6
CONTINUOUS
 10
146.068822746
 20
363.8168706103
 11
146.1904349486
 21
363.5774070527
  0
LINE
  5
2D3
100
AcDbEntity
  8
0
100
AcDbLine
 62
7
  6
CONTINUOUS
 10
146.6041676326
 20
363.8707811499
 11
146.48255543
 21
364.1102447075
  0
LINE
  5
2D4
100
AcDbEntity
  8
0
100
AcDbLine
 62
7
  6
CONTINUOUS
 10
147.3626773845
 20
365.3514424222
 11
147.2410653506
 21
365.5909064855
  0
LINE
  5
2D5
100
AcDbEntity
  8
0
100
AcDbLine
 62
7
  6
CONTINUOUS
 10
172.8627695273
 20
312.3421706338
 11
173.1544367503
 21
311.7464259718
  0
LINE
  5
2D6
100
AcDbEntity
  8
0
100
AcDbLine
 62
7
  6
CONTINUOUS
 10
162.1440184545
 20
370.4379153777
 11
162.8106850814
 21
368.6506813098
  0
LINE
  5
2D7
100
AcDbEntity
  8
0
100
AcDbLine
 62
7
  6
CONTINUOUS
 10
162.7273518275
 20
371.9698303272
 11
162.8106850814
 21
371.7145112087
  0
LINE
  5
2D8
100
AcDbEntity
  8
0
100
AcDbLine
 62
7
  6
CONTINUOUS
 10
163.3106850814
 20
371.7145112087
 11
163.2273518275
 21
371.9698303272
  0
LINE
  5
2D9
100
AcDbEntity
  8
0
100
AcDbLine
 62
7
  6
CONTINUOUS
 10
164.6440183352
 20
369.671957903
 11
164.5606853198
 21
370.0123833944
  0
LINE
  5
2DA
100
AcDbEntity
  8
0
100
AcDbLine
 62
7
  6
CONTINUOUS
 10
170.4773518275
 20
371.6294045974
 11
170.560684843
 21
371.2889791061
  0
LINE
  5
2DB
100
AcDbEntity
  8
0
100
AcDbLine
 62
7
  6
CONTINUOUS
 10
171.060684843
 20
371.2889791061
 11
170.9773518275
 21
371.7145112087
  0
LINE
  5
2DC
100
AcDbEntity
  8
BEZUGSACHSEN
100
AcDbLine
 62
7
  6
CONTINUOUS
 10
199.6440197658
 20
329.1506813098
 11
199.6440197658
 21
321.1506813098
  0
LINE
  5
2DD
100
AcDbEntity
  8
0
100
AcDbLine
 62
7
  6
CONTINUOUS
 10
168.4877703618
 20
311.1506813098
 11
169.0711031388
 21
311.2996174753
  0
LINE
  5
2DE
100
AcDbEntity
  8
0
100
AcDbLine
 62
7
  6
CONTINUOUS
 10
169.0711031388
 20
312.0442983289
 11
168.3419367503
 21
311.8953621764
  0
LINE
  5
2DF
100
AcDbEntity
  8
0
100
AcDbLine
 62
7
  6
CONTINUOUS
 10
162.5086035561
 20
310.2570642908
 11
163.2377703618
 21
310.2570642908
  0
LINE
  5
2E0
100
AcDbEntity
  8
0
100
AcDbLine
 62
7
  6
CONTINUOUS
 10
156.0919367503
 20
311.1506813098
 11
161.3419367503
 21
311.1506813098
  0
LINE
  5
2E1
100
AcDbEntity
  8
0
100
AcDbLine
 62
7
  6
CONTINUOUS
 10
167.3211031388
 20
311.1506813098
 11
168.4877703618
 21
311.1506813098
  0
LINE
  5
2E2
100
AcDbEntity
  8
0
100
AcDbLine
 62
7
  6
CONTINUOUS
 10
168.3419367503
 20
311.8953621764
 11
167.4669367503
 21
311.8953621764
  0
LINE
  5
2E3
100
AcDbEntity
  8
0
100
AcDbLine
 62
7
  6
CONTINUOUS
 10
164.1127703618
 20
311.8953621764
 11
163.3836031388
 21
311.8953621764
  0
LINE
  5
2E4
100
AcDbEntity
  8
0
100
AcDbLine
 62
7
  6
CONTINUOUS
 10
161.3419367503
 20
311.8953621764
 11
157.2586034517
 21
311.8953621764
  0
LINE
  5
2E5
100
AcDbEntity
  8
0
100
AcDbLine
 62
7
  6
CONTINUOUS
 10
166.0086031388
 20
312.7889791955
 11
165.2794367503
 21
312.7889791955
  0
LINE
  5
2E6
100
AcDbEntity
  8
0
100
AcDbLine
 62
7
  6
CONTINUOUS
 10
167.6127703618
 20
314.4272770811
 11
168.1961031388
 21
314.4272770811
  0
LINE
  5
2E7
100
AcDbEntity
  8
0
100
AcDbLine
 62
7
  6
CONTINUOUS
 10
168.1961031388
 20
315.023021691
 11
167.6127703618
 21
315.023021691
  0
LINE
  5
2E8
100
AcDbEntity
  8
0
100
AcDbLine
 62
7
  6
CONTINUOUS
 10
174.0294367503
 20
311.2996174753
 11
174.9044367503
 21
311.1506813098
  0
LINE
  5
2E9
100
AcDbEntity
  8
0
100
AcDbLine
 62
7
  6
CONTINUOUS
 10
168.1961031388
 20
314.4272770811
 11
169.0711031388
 21
314.2783409287
  0
LINE
  5
2EA
100
AcDbEntity
  8
0
100
AcDbLine
 62
7
  6
CONTINUOUS
 10
167.4669367503
 20
311.8953621764
 11
166.7377703618
 21
312.0442983289
  0
LINE
  5
2EB
100
AcDbEntity
  8
0
100
AcDbLine
 62
7
  6
CONTINUOUS
 10
174.9044367503
 20
311.7464259718
 11
174.1752695273
 21
311.8953621764
  0
LINE
  5
2EC
100
AcDbEntity
  8
0
100
AcDbLine
 62
7
  6
CONTINUOUS
 10
166.7377703618
 20
311.2996174753
 11
167.3211031388
 21
311.1506813098
  0
LINE
  5
2ED
100
AcDbEntity
  8
0
100
AcDbLine
 62
7
  6
CONTINUOUS
 10
173.5919367503
 20
311.4485536408
 11
174.0294367503
 21
311.2996174753
  0
LINE
  5
2EE
100
AcDbEntity
  8
0
100
AcDbLine
 62
7
  6
CONTINUOUS
 10
170.0919367503
 20
314.4272770811
 11
169.3627703618
 21
314.725149386
  0
LINE
  5
2EF
100
AcDbEntity
  8
0
100
AcDbLine
 62
7
  6
CONTINUOUS
 10
166.1544367503
 20
311.5974898193
 11
166.7377703618
 21
311.2996174753
  0
LINE
  5
2F0
100
AcDbEntity
  8
0
100
AcDbLine
 62
7
  6
CONTINUOUS
 10
166.7377703618
 20
312.0442983289
 11
166.4461031388
 21
312.1932344813
  0
LINE
  5
2F1
100
AcDbEntity
  8
0
100
AcDbLine
 62
7
  6
CONTINUOUS
 10
160.6127699446
 20
317.7038728524
 11
160.0294367503
 21
318.0017451574
  0
LINE
  5
2F2
100
AcDbEntity
  8
0
100
AcDbLine
 62
7
  6
CONTINUOUS
 10
169.6544367503
 20
317.7038728524
 11
169.0711031388
 21
318.0017451574
  0
LINE
  5
2F3
100
AcDbEntity
  8
0
100
AcDbLine
 62
7
  6
CONTINUOUS
 10
165.7169367503
 20
311.8953621764
 11
166.1544367503
 21
311.5974898193
  0
LINE
  5
2F4
100
AcDbEntity
  8
0
100
AcDbLine
 62
7
  6
CONTINUOUS
 10
159.7377699446
 20
317.2570643951
 11
160.1752699446
 21
316.9591920902
  0
LINE
  5
2F5
100
AcDbEntity
  8
0
100
AcDbLine
 62
7
  6
CONTINUOUS
 10
169.0711031388
 20
314.2783409287
 11
169.5086031388
 21
313.9804686238
  0
LINE
  5
2F6
100
AcDbEntity
  8
0
100
AcDbLine
 62
7
  6
CONTINUOUS
 10
173.1544367503
 20
311.7464259718
 11
173.5919367503
 21
311.4485536408
  0
LINE
  5
2F7
100
AcDbEntity
  8
0
100
AcDbLine
 62
7
  6
CONTINUOUS
 10
174.1752695273
 20
311.8953621764
 11
173.7377695273
 21
312.1932344813
  0
LINE
  5
2F8
100
AcDbEntity
  8
0
100
AcDbLine
 62
7
  6
CONTINUOUS
 10
168.9252703618
 20
317.2570643951
 11
169.3627703618
 21
316.9591920902
  0
LINE
  5
2F9
100
AcDbEntity
  8
0
100
AcDbLine
 62
7
  6
CONTINUOUS
 10
170.2377695273
 20
317.1081282426
 11
169.6544367503
 21
317.7038728524
  0
LINE
  5
2FA
100
AcDbEntity
  8
0
100
AcDbLine
 62
7
  6
CONTINUOUS
 10
146.7671533733
 20
365.3577116816
 11
146.948944532
 21
365.0580684935
  0
LINE
  5
2FB
100
AcDbEntity
  8
0
100
AcDbLine
 62
7
  6
CONTINUOUS
 10
163.3940185737
 20
368.6506813098
 11
162.6440185737
 21
370.6081281234
  0
LINE
  5
2FC
100
AcDbEntity
  8
RUNDUNGEN
100
AcDbLine
 62
7
  6
CONTINUOUS
 10
208.6440197658
 20
333.9506813098
 11
208.6440197658
 21
330.9506813098
  0
LINE
  5
2FD
100
AcDbEntity
  8
0
100
AcDbLine
 62
7
  6
CONTINUOUS
 10
166.8836031388
 20
317.2570643951
 11
167.6127703618
 21
317.4060005475
  0
LINE
  5
2FE
100
AcDbEntity
  8
0
100
AcDbLine
 62
7
  6
CONTINUOUS
 10
157.6961034517
 20
317.2570643951
 11
158.4252701532
 21
317.4060005475
  0
LINE
  5
2FF
100
AcDbEntity
  8
0
100
AcDbLine
 62
7
  6
CONTINUOUS
 10
167.7586031388
 20
318.1506813098
 11
166.7377703618
 21
318.0017451574
  0
LINE
  5
300
100
AcDbEntity
  8
0
100
AcDbLine
 62
7
  6
CONTINUOUS
 10
158.5711033474
 20
318.1506813098
 11
157.5502700489
 21
318.0017451574
  0
LINE
  5
301
100
AcDbEntity
  8
0
100
AcDbLine
 62
7
  6
CONTINUOUS
 10
171.6961039733
 20
315.3208939959
 11
172.8627695273
 21
315.3208939959
  0
LINE
  5
302
100
AcDbEntity
  8
0
100
AcDbLine
 62
7
  6
CONTINUOUS
 10
173.5919367503
 20
315.3208939959
 11
175.1961039733
 21
315.3208939959
  0
LINE
  5
303
100
AcDbEntity
  8
0
100
AcDbLine
 62
7
  6
CONTINUOUS
 10
175.1961039733
 20
315.9166386057
 11
173.5919367503
 21
315.9166386057
  0
LINE
  5
304
100
AcDbEntity
  8
0
100
AcDbLine
 62
7
  6
CONTINUOUS
 10
172.8627695273
 20
315.9166386057
 11
171.6961039733
 21
315.9166386057
  0
LINE
  5
305
100
AcDbEntity
  8
0
100
AcDbLine
 62
7
  6
CONTINUOUS
 10
156.237770088
 20
316.5123836328
 11
156.9669367503
 21
316.5123836328
  0
LINE
  5
306
100
AcDbEntity
  8
0
100
AcDbLine
 62
7
  6
CONTINUOUS
 10
165.4252703618
 20
316.5123836328
 11
166.1544367503
 21
316.5123836328
  0
LINE
  5
307
100
AcDbEntity
  8
0
100
AcDbLine
 62
7
  6
CONTINUOUS
 10
173.5919367503
 20
317.1081282426
 11
172.8627695273
 21
317.1081282426
  0
LINE
  5
308
100
AcDbEntity
  8
0
100
AcDbLine
 62
7
  6
CONTINUOUS
 10
158.4252701532
 20
317.4060005475
 11
159.0086033474
 21
317.4060005475
  0
LINE
  5
309
100
AcDbEntity
  8
0
100
AcDbLine
 62
7
  6
CONTINUOUS
 10
167.6127703618
 20
317.4060005475
 11
168.1961031388
 21
317.4060005475
  0
LINE
  5
30A
100
AcDbEntity
  8
0
100
AcDbLine
 62
7
  6
CONTINUOUS
 10
168.0502703618
 20
318.1506813098
 11
167.7586031388
 21
318.1506813098
  0
LINE
  5
30B
100
AcDbEntity
  8
0
100
AcDbLine
 62
7
  6
CONTINUOUS
 10
159.1544367503
 20
318.1506813098
 11
158.5711033474
 21
318.1506813098
  0
LINE
  5
30C
100
AcDbEntity
  8
0
100
AcDbLine
 62
7
  6
CONTINUOUS
 10
133.6440197658
 20
319.1506813098
 11
134.7154939788
 21
319.1506813098
  0
LINE
  5
30D
100
AcDbEntity
  8
0
100
AcDbLine
 62
7
  6
CONTINUOUS
 10
196.5725455527
 20
319.1506813098
 11
197.6440197658
 21
319.1506813098
  0
LINE
  5
30E
100
AcDbEntity
  8
0
100
AcDbLine
 62
7
  6
CONTINUOUS
 10
169.0711031388
 20
318.0017451574
 11
168.0502703618
 21
318.1506813098
  0
LINE
  5
30F
100
AcDbEntity
  8
0
100
AcDbLine
 62
7
  6
CONTINUOUS
 10
160.0294367503
 20
318.0017451574
 11
159.1544367503
 21
318.1506813098
  0
LINE
  5
310
100
AcDbEntity
  8
0
100
AcDbLine
 62
7
  6
CONTINUOUS
 10
159.0086033474
 20
317.4060005475
 11
159.7377699446
 21
317.2570643951
  0
LINE
  5
311
100
AcDbEntity
  8
0
100
AcDbLine
 62
7
  6
CONTINUOUS
 10
168.1961031388
 20
317.4060005475
 11
168.9252703618
 21
317.2570643951
  0
LINE
  5
312
100
AcDbEntity
  8
0
100
AcDbLine
 62
7
  6
CONTINUOUS
 10
143.3996198401
 20
362.8326882553
 11
146.2280469648
 21
360.0042611306
  0
LINE
  5
313
100
AcDbEntity
  8
0
100
AcDbLine
 62
7
  6
CONTINUOUS
 10
146.5816003554
 20
360.3578145212
 11
145.3178350264
 21
361.6215798502
  0
LINE
  5
314
100
AcDbEntity
  8
0
100
AcDbLine
 62
7
  6
CONTINUOUS
 10
144.9567592663
 20
361.9826556103
 11
144.0540696974
 21
362.8853451791
  0
LINE
  5
315
100
AcDbEntity
  8
0
100
AcDbLine
 62
7
  6
CONTINUOUS
 10
145.8882846974
 20
363.9974086589
 11
146.068822746
 21
363.8168706103
  0
LINE
  5
316
100
AcDbEntity
  8
0
100
AcDbLine
 62
7
  6
CONTINUOUS
 10
146.48255543
 20
364.1102447075
 11
146.241838088
 21
364.3509620495
  0
LINE
  5
317
100
AcDbEntity
  8
0
100
AcDbLine
 62
7
  6
CONTINUOUS
 10
164.1440185737
 20
369.5868515302
 11
164.3106853198
 21
369.2464259793
  0
LINE
  5
318
100
AcDbEntity
  8
0
100
AcDbLine
 62
7
  6
CONTINUOUS
 10
170.9773518275
 20
371.7145112087
 11
170.810684843
 21
372.0549367
  0
LINE
  5
319
100
AcDbEntity
  8
RUNDUNGEN
100
AcDbLine
 62
7
  6
CONTINUOUS
 10
207.6440197658
 20
329.9506813098
 11
154.6440197658
 21
329.9506813098
  0
LINE
  5
31A
100
AcDbEntity
  8
0
100
AcDbLine
 62
7
  6
CONTINUOUS
 10
146.948944532
 20
365.0580684935
 11
147.189661874
 21
364.8173511515
  0
LINE
  5
31B
100
AcDbEntity
  8
0
100
AcDbLine
 62
7
  6
CONTINUOUS
 10
147.4830359712
 20
365.2310838354
 11
147.3626773845
 21
365.3514424222
  0
LINE
  5
31C
100
AcDbEntity
  8
0
100
AcDbLine
 62
7
  6
CONTINUOUS
 10
149.8626262176
 20
365.4442193526
 11
150.0431640977
 21
365.2636814725
  0
LINE
  5
31D
100
AcDbEntity
  8
0
100
AcDbLine
 62
7
  6
CONTINUOUS
 10
150.4568967816
 20
365.5570555697
 11
150.1560003149
 21
365.8579520365
  0
LINE
  5
31E
100
AcDbEntity
  8
0
100
AcDbLine
 62
7
  6
CONTINUOUS
 10
163.2273518275
 20
371.9698303272
 11
162.9773518275
 21
372.3102558185
  0
LINE
  5
31F
100
AcDbEntity
  8
0
100
AcDbLine
 62
7
  6
CONTINUOUS
 10
164.8106853198
 20
369.4166387845
 11
164.6440183352
 21
369.671957903
  0
LINE
  5
320
100
AcDbEntity
  8
0
100
AcDbLine
 62
7
  6
CONTINUOUS
 10
170.310684843
 20
371.8847239543
 11
170.4773518275
 21
371.6294045974
  0
LINE
  5
321
100
AcDbEntity
  8
RUNDUNGEN
100
AcDbLine
 62
7
  6
CONTINUOUS
 10
154.6440197658
 20
334.9506813098
 11
207.6440197658
 21
334.9506813098
  0
LINE
  5
322
100
AcDbEntity
  8
0
100
AcDbLine
 62
7
  6
CONTINUOUS
 10
161.3940197658
 20
335.2506813098
 11
169.8940197658
 21
335.2506813098
  0
LINE
  5
323
100
AcDbEntity
  8
0
100
AcDbLine
 62
7
  6
CONTINUOUS
 10
144.2170553117
 20
358.715421082
 11
140.9247461059
 21
360.3578145212
  0
LINE
  5
324
100
AcDbEntity
  8
0
100
AcDbLine
 62
7
  6
CONTINUOUS
 10
140.5711927153
 20
360.0042611306
 11
144.3424289097
 21
358.1186430755
  0
LINE
  5
325
100
AcDbEntity
  8
0
100
AcDbLine
 62
7
  6
CONTINUOUS
 10
148.1562921739
 20
363.4971681354
 11
148.4559346876
 21
363.3153763023
  0
LINE
  5
326
100
AcDbEntity
  8
0
100
AcDbLine
 62
7
  6
CONTINUOUS
 10
147.189661874
 20
364.8173511515
 11
147.4893050621
 21
364.6355599928
  0
LINE
  5
327
100
AcDbEntity
  8
0
100
AcDbLine
 62
7
  6
CONTINUOUS
 10
164.3106853198
 20
369.2464259793
 11
164.6440183352
 21
368.9060004581
  0
LINE
  5
328
100
AcDbEntity
  8
0
100
AcDbLine
 62
7
  6
CONTINUOUS
 10
162.5606850814
 20
372.1400430728
 11
162.7273518275
 21
371.9698303272
  0
LINE
  5
329
100
AcDbEntity
  8
RUNDUNGEN
100
AcDbLine
 62
7
  6
CONTINUOUS
 10
193.2547804971
 20
367.2628537408
 11
203.1447794143
 21
343.3862842231
  0
LINE
  5
32A
100
AcDbEntity
  8
BEZUGSACHSEN
100
AcDbLine
 62
7
  6
CONTINUOUS
 10
203.1447794143
 20
343.3862842231
 11
203.4002142328
 21
342.76961002
  0
LINE
  5
32B
100
AcDbEntity
  8
0
100
AcDbLine
 62
7
  6
CONTINUOUS
 10
148.4672183262
 20
362.2434324919
 11
146.5527643246
 21
363.0972263217
  0
LINE
  5
32C
100
AcDbEntity
  8
0
100
AcDbLine
 62
7
  6
CONTINUOUS
 10
146.3195695207
 20
362.6233143444
 11
148.0547395953
 21
361.830953761
  0
LINE
  5
32D
100
AcDbEntity
  8
0
100
AcDbLine
 62
7
  6
CONTINUOUS
 10
145.6488211398
 20
364.1190208615
 11
145.8882846974
 21
363.9974086589
  0
LINE
  5
32E
100
AcDbEntity
  8
0
100
AcDbLine
 62
7
  6
CONTINUOUS
 10
146.241838088
 20
364.3509620495
 11
146.0023745304
 21
364.4725742521
  0
LINE
  5
32F
100
AcDbEntity
  8
0
100
AcDbLine
 62
7
  6
CONTINUOUS
 10
148.749309122
 20
363.7291093234
 11
148.5098452273
 21
363.8507211888
  0
LINE
  5
330
100
AcDbEntity
  8
0
100
AcDbLine
 62
7
  6
CONTINUOUS
 10
147.722499866
 20
365.1094719701
 11
147.4830359712
 21
365.2310838354
  0
LINE
  5
331
100
AcDbEntity
  8
0
100
AcDbLine
 62
7
  6
CONTINUOUS
 10
148.7756374996
 20
366.8847614611
 11
148.5361736049
 21
367.0063733265
  0
LINE
  5
332
100
AcDbEntity
  8
0
100
AcDbLine
 62
7
  6
CONTINUOUS
 10
165.0606853198
 20
369.2464259793
 11
164.8106853198
 21
369.4166387845
  0
LINE
  5
333
100
AcDbEntity
  8
0
100
AcDbLine
 62
7
  6
CONTINUOUS
 10
162.9773518275
 20
372.3102558185
 11
162.6440185737
 21
372.565574937
  0
LINE
  5
334
100
AcDbEntity
  8
0
100
AcDbLine
 62
7
  6
CONTINUOUS
 10
187.1157673685
 20
359.293353804
 11
187.3105690564
 21
359.1124390612
  0
LINE
  5
335
100
AcDbEntity
  8
0
100
AcDbLine
 62
7
  6
CONTINUOUS
 10
184.6557673685
 20
361.753353804
 11
184.8505690564
 21
361.5724390612
  0
LINE
  5
336
100
AcDbEntity
  8
0
100
AcDbLine
 62
7
  6
CONTINUOUS
 10
187.3904575735
 20
361.4780306065
 11
188.2363242395
 21
360.6321639405
  0
LINE
  5
337
100
AcDbEntity
  8
0
100
AcDbLine
 62
7
  6
CONTINUOUS
 10
188.6709193695
 20
361.0667590705
 11
187.8242202169
 21
361.9134582232
  0
LINE
  5
338
100
AcDbEntity
  8
0
100
AcDbLine
 62
7
  6
CONTINUOUS
 10
170.810684843
 20
372.0549367
 11
170.4773518275
 21
372.3953621913
  0
LINE
  5
339
100
AcDbEntity
  8
KONSTRUKTIONSELEMENTE
100
AcDbLine
 62
7
  6
CONTINUOUS
 10
150.6440197658
 20
174.9506813098
 11
148.3235116901
 21
173.6109353477
  0
LINE
  5
33A
100
AcDbEntity
  8
0
100
AcDbLine
 62
7
  6
CONTINUOUS
 10
146.0023745304
 20
364.4725742521
 11
145.5848806617
 21
364.5365147302
  0
LINE
  5
33B
100
AcDbEntity
  8
0
100
AcDbLine
 62
7
  6
CONTINUOUS
 10
148.5361736049
 20
367.0063733265
 11
148.1186797362
 21
367.0703138046
  0
LINE
  5
33C
100
AcDbEntity
  8
0
100
AcDbLine
 62
7
  6
CONTINUOUS
 10
149.5642368983
 20
365.5069059619
 11
149.8626262176
 21
365.4442193526
  0
LINE
  5
33D
100
AcDbEntity
  8
0
100
AcDbLine
 62
7
  6
CONTINUOUS
 10
148.4559346876
 20
363.3153763023
 11
148.93360825
 21
363.1912568048
  0
LINE
  5
33E
100
AcDbEntity
  8
0
100
AcDbLine
 62
7
  6
CONTINUOUS
 10
150.1560003149
 20
365.8579520365
 11
149.7974317022
 21
365.9808179392
  0
LINE
  5
33F
100
AcDbEntity
  8
0
100
AcDbLine
 62
7
  6
CONTINUOUS
 10
148.2427995077
 20
366.5926406426
 11
148.422084109
 21
366.5312080705
  0
LINE
  5
340
100
AcDbEntity
  8
0
100
AcDbLine
 62
7
  6
CONTINUOUS
 10
164.6440183352
 20
368.9060004581
 11
164.9773518275
 21
368.7357876901
  0
LINE
  5
341
100
AcDbEntity
  8
0
100
AcDbLine
 62
7
  6
CONTINUOUS
 10
170.060684843
 20
372.0549367
 11
170.310684843
 21
371.8847239543
  0
LINE
  5
342
100
AcDbEntity
  8
BEZUGSACHSEN
100
AcDbLine
 62
7
  6
CONTINUOUS
 10
182.9645278414
 20
161.0211893855
 11
176.8940197658
 21
154.9506813098
  0
LINE
  5
343
100
AcDbEntity
  8
KONSTRUKTIONSELEMENTE
100
AcDbLine
 62
7
  6
CONTINUOUS
 10
175.6440197658
 20
146.7006813098
 11
173.8940197658
 21
144.9506813098
  0
LINE
  5
344
100
AcDbEntity
  8
0
100
AcDbLine
 62
7
  6
CONTINUOUS
 10
170.060684843
 20
369.2464259793
 11
169.7273518275
 21
369.1613196064
  0
LINE
  5
345
100
AcDbEntity
  8
0
100
AcDbLine
 62
7
  6
CONTINUOUS
 10
166.0606853198
 20
369.2464259793
 11
165.7273518275
 21
369.1613196064
  0
LINE
  5
346
100
AcDbEntity
  8
0
100
AcDbLine
 62
7
  6
CONTINUOUS
 10
148.93360825
 20
363.1912568048
 11
149.4087735218
 21
363.3053462848
  0
LINE
  5
347
100
AcDbEntity
  8
0
100
AcDbLine
 62
7
  6
CONTINUOUS
 10
169.7273518275
 20
368.6506813098
 11
170.1440188121
 21
368.7357876901
  0
LINE
  5
348
100
AcDbEntity
  8
0
100
AcDbLine
 62
7
  6
CONTINUOUS
 10
165.7273518275
 20
368.6506813098
 11
166.1440183352
 21
368.7357876901
  0
LINE
  5
349
100
AcDbEntity
  8
0
100
AcDbLine
 62
7
  6
CONTINUOUS
 10
148.019635148
 20
365.1658900786
 11
147.722499866
 21
365.1094719701
  0
LINE
  5
34A
100
AcDbEntity
  8
0
100
AcDbLine
 62
7
  6
CONTINUOUS
 10
149.2671016163
 20
365.4504878533
 11
149.5642368983
 21
365.5069059619
  0
LINE
  5
34B
100
AcDbEntity
  8
0
100
AcDbLine
 62
7
  6
CONTINUOUS
 10
145.5848806617
 20
364.5365147302
 11
145.1686404089
 21
364.4813502374
  0
LINE
  5
34C
100
AcDbEntity
  8
0
100
AcDbLine
 62
7
  6
CONTINUOUS
 10
148.1186797362
 20
367.0703138046
 11
147.7024398205
 21
367.0151496491
  0
LINE
  5
34D
100
AcDbEntity
  8
0
100
AcDbLine
 62
7
  6
CONTINUOUS
 10
160.2273518275
 20
368.6506813098
 11
160.7273518275
 21
368.6506813098
  0
LINE
  5
34E
100
AcDbEntity
  8
0
100
AcDbLine
 62
7
  6
CONTINUOUS
 10
162.8106850814
 20
368.6506813098
 11
163.3940185737
 21
368.6506813098
  0
LINE
  5
34F
100
AcDbEntity
  8
0
100
AcDbLine
 62
7
  6
CONTINUOUS
 10
165.3940183352
 20
368.6506813098
 11
165.7273518275
 21
368.6506813098
  0
LINE
  5
350
100
AcDbEntity
  8
0
100
AcDbLine
 62
7
  6
CONTINUOUS
 10
167.7273518275
 20
368.6506813098
 11
169.7273518275
 21
368.6506813098
  0
LINE
  5
351
100
AcDbEntity
  8
0
100
AcDbLine
 62
7
  6
CONTINUOUS
 10
169.7273518275
 20
369.1613196064
 11
168.2273518275
 21
369.1613196064
  0
LINE
  5
352
100
AcDbEntity
  8
0
100
AcDbLine
 62
7
  6
CONTINUOUS
 10
165.7273518275
 20
369.1613196064
 11
165.3940183352
 21
369.1613196064
  0
LINE
  5
353
100
AcDbEntity
  8
0
100
AcDbLine
 62
7
  6
CONTINUOUS
 10
160.7273518275
 20
370.4379153777
 11
162.1440184545
 21
370.4379153777
  0
LINE
  5
354
100
AcDbEntity
  8
0
100
AcDbLine
 62
7
  6
CONTINUOUS
 10
162.3106850814
 20
370.9485536147
 11
160.7273518275
 21
370.9485536147
  0
LINE
  5
355
100
AcDbEntity
  8
0
100
AcDbLine
 62
7
  6
CONTINUOUS
 10
168.2273518275
 20
372.1400430728
 11
169.7273518275
 21
372.1400430728
  0
LINE
  5
356
100
AcDbEntity
  8
0
100
AcDbLine
 62
7
  6
CONTINUOUS
 10
160.7273518275
 20
372.2251494457
 11
162.3106850814
 21
372.2251494457
  0
LINE
  5
357
100
AcDbEntity
  8
0
100
AcDbLine
 62
7
  6
CONTINUOUS
 10
169.7273518275
 20
372.6506813098
 11
167.7273518275
 21
372.6506813098
  0
LINE
  5
358
100
AcDbEntity
  8
0
100
AcDbLine
 62
7
  6
CONTINUOUS
 10
167.0606853198
 20
372.6506813098
 11
166.5606853198
 21
372.6506813098
  0
LINE
  5
359
100
AcDbEntity
  8
0
100
AcDbLine
 62
7
  6
CONTINUOUS
 10
164.5606853198
 20
372.6506813098
 11
164.0606850814
 21
372.6506813098
  0
LINE
  5
35A
100
AcDbEntity
  8
0
100
AcDbLine
 62
7
  6
CONTINUOUS
 10
162.2273518275
 20
372.6506813098
 11
160.2273518275
 21
372.6506813098
  0
LINE
  5
35B
100
AcDbEntity
  8
0
100
AcDbLine
 62
7
  6
CONTINUOUS
 10
149.1066237395
 20
363.7253480965
 11
148.749309122
 21
363.7291093234
  0
LINE
  5
35C
100
AcDbEntity
  8
0
100
AcDbLine
 62
7
  6
CONTINUOUS
 10
145.4106115353
 20
364.1215284304
 11
145.6488211398
 21
364.1190208615
  0
LINE
  5
35D
100
AcDbEntity
  8
0
100
AcDbLine
 62
7
  6
CONTINUOUS
 10
147.4893050621
 20
364.6355599928
 11
147.9657242711
 21
364.630544855
  0
LINE
  5
35E
100
AcDbEntity
  8
0
100
AcDbLine
 62
7
  6
CONTINUOUS
 10
149.7974317022
 20
365.9808179392
 11
149.3210124932
 21
365.985833077
  0
LINE
  5
35F
100
AcDbEntity
  8
0
100
AcDbLine
 62
7
  6
CONTINUOUS
 10
148.0045902403
 20
366.5951485487
 11
148.2427995077
 21
366.5926406426
  0
LINE
  5
360
100
AcDbEntity
  8
0
100
AcDbLine
 62
7
  6
CONTINUOUS
 10
164.9773518275
 20
368.7357876901
 11
165.3940183352
 21
368.6506813098
  0
LINE
  5
361
100
AcDbEntity
  8
0
100
AcDbLine
 62
7
  6
CONTINUOUS
 10
162.6440185737
 20
372.565574937
 11
162.2273518275
 21
372.6506813098
  0
LINE
  5
362
100
AcDbEntity
  8
0
100
AcDbLine
 62
7
  6
CONTINUOUS
 10
170.1440188121
 20
372.565574937
 11
169.7273518275
 21
372.6506813098
  0
LINE
  5
363
100
AcDbEntity
  8
0
100
AcDbLine
 62
7
  6
CONTINUOUS
 10
165.3940183352
 20
369.1613196064
 11
165.0606853198
 21
369.2464259793
  0
LINE
  5
364
100
AcDbEntity
  8
0
100
AcDbLine
 62
7
  6
CONTINUOUS
 10
169.7273518275
 20
372.1400430728
 11
170.060684843
 21
372.0549367
  0
LINE
  5
365
100
AcDbEntity
  8
0
100
AcDbLine
 62
7
  6
CONTINUOUS
 10
162.3106850814
 20
372.2251494457
 11
162.5606850814
 21
372.1400430728
  0
LINE
  5
366
100
AcDbEntity
  8
RUNDUNGEN
100
AcDbLine
 62
7
  6
CONTINUOUS
 10
166.7920700628
 20
379.1751433065
 11
191.6311921967
 21
368.8864420412
  0
LINE
  5
367
100
AcDbEntity
  8
0
100
AcDbLine
 62
7
  6
CONTINUOUS
 10
170.4773518275
 20
372.3953621913
 11
170.1440188121
 21
372.565574937
  0
LINE
  5
368
100
AcDbEntity
  8
KONSTRUKTIONSELEMENTE
100
AcDbLine
 62
7
  6
CONTINUOUS
 10
298.2629467637
 20
144.9506813098
 11
314.7629467637
 21
144.9506813098
  0
LINE
  5
369
100
AcDbEntity
  8
KONSTRUKTIONSELEMENTE
100
AcDbLine
 62
7
  6
CONTINUOUS
 10
296.5129467637
 20
146.7006813098
 11
316.5129467637
 21
146.7006813098
  0
LINE
  5
36A
100
AcDbEntity
  8
BEZUGSACHSEN
100
AcDbLine
 62
7
  6
CONTINUOUS
 10
317.7624412759
 20
154.9506813098
 11
295.2634522514
 21
154.9506813098
  0
LINE
  5
36B
100
AcDbEntity
  8
KONSTRUKTIONSELEMENTE
100
AcDbLine
 62
7
  6
CONTINUOUS
 10
288.0129467637
 20
174.9506813098
 11
325.0129467637
 21
174.9506813098
  0
LINE
  5
36C
100
AcDbEntity
  8
KONSTRUKTIONSELEMENTE
100
AcDbLine
 62
7
  6
CONTINUOUS
 10
296.5129467637
 20
146.7006813098
 11
298.2629467637
 21
144.9506813098
  0
LINE
  5
36D
100
AcDbEntity
  8
BEZUGSACHSEN
100
AcDbLine
 62
7
  6
CONTINUOUS
 10
291.4671100938
 20
158.7465179797
 11
295.2629467637
 21
154.9506813098
  0
LINE
  5
36E
100
AcDbEntity
  8
KONSTRUKTIONSELEMENTE
100
AcDbLine
 62
7
  6
CONTINUOUS
 10
288.0129467637
 20
178.9506813098
 11
325.0129467637
 21
178.9506813098
  0
LINE
  5
36F
100
AcDbEntity
  8
0
100
AcDbLine
 62
7
  6
CONTINUOUS
 10
287.6923202297
 20
324.4622953354
 11
287.5546497631
 21
324.4121873834
  0
LINE
  5
370
100
AcDbEntity
  8
BEZUGSACHSEN
100
AcDbLine
 62
7
  6
CONTINUOUS
 10
283.5438685576
 20
322.9523824084
 11
293.2490638102
 21
326.4847845981
  0
LINE
  5
371
100
AcDbEntity
  8
0
100
AcDbLine
 62
7
  6
CONTINUOUS
 10
285.0129467637
 20
330.9506813098
 11
285.0129467637
 21
333.9506813098
  0
LINE
  5
372
100
AcDbEntity
  8
KONSTRUKTIONSELEMENTE
100
AcDbLine
 62
7
  6
CONTINUOUS
 10
288.0129467637
 20
174.9506813098
 11
288.0129467637
 21
178.9506813098
  0
LINE
  5
373
100
AcDbEntity
  8
BEZUGSACHSEN
100
AcDbLine
 62
7
  6
CONTINUOUS
 10
291.5129467637
 20
161.0211893855
 11
291.5129467637
 21
158.7006134539
  0
LINE
  5
374
100
AcDbEntity
  8
KONSTRUKTIONSELEMENTE
100
AcDbLine
 62
7
  6
CONTINUOUS
 10
291.5129467637
 20
161.0211893855
 11
291.5129467637
 21
174.9506813098
  0
LINE
  5
375
100
AcDbEntity
  8
KONSTRUKTIONSELEMENTE
100
AcDbLine
 62
7
  6
CONTINUOUS
 10
291.8629467637
 20
305.1506813098
 11
291.8629467637
 21
304.9506813098
  0
LINE
  5
376
100
AcDbEntity
  8
KONSTRUKTIONSELEMENTE
100
AcDbLine
 62
7
  6
CONTINUOUS
 10
296.5129467637
 20
304.9506813098
 11
296.5129467637
 21
178.9506813098
  0
LINE
  5
377
100
AcDbEntity
  8
KONSTRUKTIONSELEMENTE
100
AcDbLine
 62
7
  6
CONTINUOUS
 10
296.5129467637
 20
154.9506813098
 11
296.5129467637
 21
146.7006813098
  0
LINE
  5
378
100
AcDbEntity
  8
BEZUGSACHSEN
100
AcDbLine
 62
7
  6
CONTINUOUS
 10
298.5129467637
 20
334.0023416155
 11
298.5129467637
 21
376.4035047089
  0
LINE
  5
379
100
AcDbEntity
  8
0
100
AcDbLine
 62
7
  6
CONTINUOUS
 10
281.8115748179
 20
317.1825961622
 11
281.8970444549
 21
316.9030393438
  0
LINE
  5
37A
100
AcDbEntity
  8
BEZUGSACHSEN
100
AcDbLine
 62
7
  6
CONTINUOUS
 10
281.7005237488
 20
319.2559814199
 11
282.0384479047
 21
318.1506813098
  0
LINE
  5
37B
100
AcDbEntity
  8
BEZUGSACHSEN
100
AcDbLine
 62
7
  6
CONTINUOUS
 10
284.1785626749
 20
311.1506813098
 11
286.0129467637
 21
305.1506813098
  0
LINE
  5
37C
100
AcDbEntity
  8
KONSTRUKTIONSELEMENTE
100
AcDbLine
 62
7
  6
CONTINUOUS
 10
306.5129467637
 20
173.6109353477
 11
306.5129467637
 21
161.0211893855
  0
LINE
  5
37D
100
AcDbEntity
  8
RUNDUNGEN
100
AcDbLine
 62
7
  6
CONTINUOUS
 10
314.5129467637
 20
334.0023416155
 11
314.5129467637
 21
376.4035047089
  0
LINE
  5
37E
100
AcDbEntity
  8
0
100
AcDbLine
 62
7
  6
CONTINUOUS
 10
315.0129467637
 20
372.6506813098
 11
315.0129467637
 21
368.6506813098
  0
LINE
  5
37F
100
AcDbEntity
  8
0
100
AcDbLine
 62
7
  6
CONTINUOUS
 10
315.0129467637
 20
367.0703138046
 11
315.0129467637
 21
364.6355599928
  0
LINE
  5
380
100
AcDbEntity
  8
0
100
AcDbLine
 62
7
  6
CONTINUOUS
 10
315.0129467637
 20
364.630544855
 11
315.0129467637
 21
358.1186430755
  0
LINE
  5
381
100
AcDbEntity
  8
KONSTRUKTIONSELEMENTE
100
AcDbLine
 62
7
  6
CONTINUOUS
 10
316.5129467637
 20
304.9506813098
 11
316.5129467637
 21
178.9506813098
  0
LINE
  5
382
100
AcDbEntity
  8
KONSTRUKTIONSELEMENTE
100
AcDbLine
 62
7
  6
CONTINUOUS
 10
316.5129467637
 20
154.9506813098
 11
316.5129467637
 21
146.7006813098
  0
LINE
  5
383
100
AcDbEntity
  8
0
100
AcDbLine
 62
7
  6
CONTINUOUS
 10
327.0129467637
 20
305.1506813098
 11
328.5741247122
 21
310.2570642908
  0
LINE
  5
384
100
AcDbEntity
  8
0
100
AcDbLine
 62
7
  6
CONTINUOUS
 10
329.0750026412
 20
311.8953621764
 11
329.1091535862
 21
312.0070648843
  0
LINE
  5
385
100
AcDbEntity
  8
0
100
AcDbLine
 62
7
  6
CONTINUOUS
 10
329.3482087814
 20
312.7889791955
 11
329.7886314006
 21
314.2295366725
  0
LINE
  5
386
100
AcDbEntity
  8
0
100
AcDbLine
 62
7
  6
CONTINUOUS
 10
330.9637162794
 20
318.0730661255
 11
331.3253697785
 21
319.2559814199
  0
LINE
  5
387
100
AcDbEntity
  8
0
100
AcDbLine
 62
7
  6
CONTINUOUS
 10
331.2143187095
 20
317.1825961622
 11
331.191475046
 21
317.1081282426
  0
LINE
  5
388
100
AcDbEntity
  8
KONSTRUKTIONSELEMENTE
100
AcDbLine
 62
7
  6
CONTINUOUS
 10
321.1629467637
 20
305.1506813098
 11
321.1629467637
 21
304.9506813098
  0
LINE
  5
389
100
AcDbEntity
  8
KONSTRUKTIONSELEMENTE
100
AcDbLine
 62
7
  6
CONTINUOUS
 10
321.5129467637
 20
174.9506813098
 11
321.5129467637
 21
161.0211893855
  0
LINE
  5
38A
100
AcDbEntity
  8
BEZUGSACHSEN
100
AcDbLine
 62
7
  6
CONTINUOUS
 10
321.5129467637
 20
158.7006134539
 11
321.5129467637
 21
161.0211893855
  0
LINE
  5
38B
100
AcDbEntity
  8
KONSTRUKTIONSELEMENTE
100
AcDbLine
 62
7
  6
CONTINUOUS
 10
325.0129467637
 20
174.9506813098
 11
325.0129467637
 21
178.9506813098
  0
LINE
  5
38C
100
AcDbEntity
  8
0
100
AcDbLine
 62
7
  6
CONTINUOUS
 10
328.0129467637
 20
330.9506813098
 11
328.0129467637
 21
333.9506813098
  0
LINE
  5
38D
100
AcDbEntity
  8
KONSTRUKTIONSELEMENTE
100
AcDbLine
 62
7
  6
CONTINUOUS
 10
291.8629467637
 20
304.9506813098
 11
321.1629467637
 21
304.9506813098
  0
LINE
  5
38E
100
AcDbEntity
  8
BEZUGSACHSEN
100
AcDbLine
 62
7
  6
CONTINUOUS
 10
286.0130901645
 20
305.1506813098
 11
327.0128033628
 21
305.1506813098
  0
LINE
  5
38F
100
AcDbEntity
  8
0
100
AcDbLine
 62
7
  6
CONTINUOUS
 10
284.4517688151
 20
310.2570642908
 11
284.0257106915
 21
310.2570642908
  0
LINE
  5
390
100
AcDbEntity
  8
0
100
AcDbLine
 62
7
  6
CONTINUOUS
 10
328.4061510091
 20
310.2570642908
 11
329.0001828358
 21
310.2570642908
  0
LINE
  5
391
100
AcDbEntity
  8
0
100
AcDbLine
 62
7
  6
CONTINUOUS
 10
285.6686276891
 20
311.1506813098
 11
285.1153575643
 21
311.1506813098
  0
LINE
  5
392
100
AcDbEntity
  8
0
100
AcDbLine
 62
7
  6
CONTINUOUS
 10
283.7017122508
 20
311.1506813098
 11
284.3138280522
 21
311.1506813098
  0
LINE
  5
393
100
AcDbEntity
  8
0
100
AcDbLine
 62
7
  6
CONTINUOUS
 10
327.2577859957
 20
311.1506813098
 11
329.06482179
 21
311.1506813098
  0
LINE
  5
394
100
AcDbEntity
  8
0
100
AcDbLine
 62
7
  6
CONTINUOUS
 10
329.3092031097
 20
311.1506813098
 11
329.3241812765
 21
311.1506813098
  0
LINE
  5
395
100
AcDbEntity
  8
0
100
AcDbLine
 62
7
  6
CONTINUOUS
 10
284.3292315175
 20
311.2996174753
 11
283.8026460687
 21
311.2996174753
  0
LINE
  5
396
100
AcDbEntity
  8
0
100
AcDbLine
 62
7
  6
CONTINUOUS
 10
329.3598839249
 20
311.2996174753
 11
329.396237528
 21
311.2996174753
  0
LINE
  5
397
100
AcDbEntity
  8
0
100
AcDbLine
 62
7
  6
CONTINUOUS
 10
284.3094776592
 20
311.5974898193
 11
283.7815433499
 21
311.5974898193
  0
LINE
  5
398
100
AcDbEntity
  8
0
100
AcDbLine
 62
7
  6
CONTINUOUS
 10
329.4604893328
 20
311.5974898193
 11
329.5025714897
 21
311.5974898193
  0
LINE
  5
399
100
AcDbEntity
  8
0
100
AcDbLine
 62
7
  6
CONTINUOUS
 10
285.4666539724
 20
311.7464259718
 11
284.9141496421
 21
311.7464259718
  0
LINE
  5
39A
100
AcDbEntity
  8
0
100
AcDbLine
 62
7
  6
CONTINUOUS
 10
285.1869957091
 20
311.8953621764
 11
284.6395790388
 21
311.8953621764
  0
LINE
  5
39B
100
AcDbEntity
  8
0
100
AcDbLine
 62
7
  6
CONTINUOUS
 10
283.5454614361
 20
311.8953621764
 11
283.4815116424
 21
311.8953621764
  0
LINE
  5
39C
100
AcDbEntity
  8
0
100
AcDbLine
 62
7
  6
CONTINUOUS
 10
284.2784122882
 20
311.8953621764
 11
283.7493523963
 21
311.8953621764
  0
LINE
  5
39D
100
AcDbEntity
  8
0
100
AcDbLine
 62
7
  6
CONTINUOUS
 10
327.5118831853
 20
311.8953621764
 11
328.0663257934
 21
311.8953621764
  0
LINE
  5
39E
100
AcDbEntity
  8
0
100
AcDbLine
 62
7
  6
CONTINUOUS
 10
328.4286834774
 20
311.8953621764
 11
329.5977632626
 21
311.8953621764
  0
LINE
  5
39F
100
AcDbEntity
  8
0
100
AcDbLine
 62
7
  6
CONTINUOUS
 10
283.571838404
 20
312.0442983289
 11
283.4016621049
 21
312.0442983289
  0
LINE
  5
3A0
100
AcDbEntity
  8
0
100
AcDbLine
 62
7
  6
CONTINUOUS
 10
284.9612816121
 20
312.1932344813
 11
284.4168103919
 21
312.1932344813
  0
LINE
  5
3A1
100
AcDbEntity
  8
0
100
AcDbLine
 62
7
  6
CONTINUOUS
 10
283.5594252356
 20
312.1932344813
 11
283.3472353611
 21
312.1932344813
  0
LINE
  5
3A2
100
AcDbEntity
  8
0
100
AcDbLine
 62
7
  6
CONTINUOUS
 10
284.1424512833
 20
312.3421706338
 11
283.6532064841
 21
312.3421706338
  0
LINE
  5
3A3
100
AcDbEntity
  8
0
100
AcDbLine
 62
7
  6
CONTINUOUS
 10
329.2108315489
 20
312.3421706338
 11
329.7336918004
 21
312.3421706338
  0
LINE
  5
3A4
100
AcDbEntity
  8
0
100
AcDbLine
 62
7
  6
CONTINUOUS
 10
283.5032453178
 20
312.4911068906
 11
283.2500323116
 21
312.4911068906
  0
LINE
  5
3A5
100
AcDbEntity
  8
0
100
AcDbLine
 62
7
  6
CONTINUOUS
 10
284.7737356679
 20
312.640043043
 11
284.2304866987
 21
312.640043043
  0
LINE
  5
3A6
100
AcDbEntity
  8
0
100
AcDbLine
 62
7
  6
CONTINUOUS
 10
283.9976460216
 20
312.7889791955
 11
283.5357552017
 21
312.7889791955
  0
LINE
  5
3A7
100
AcDbEntity
  8
0
100
AcDbLine
 62
7
  6
CONTINUOUS
 10
283.4296146939
 20
312.7889791955
 11
283.1569288419
 21
312.7889791955
  0
LINE
  5
3A8
100
AcDbEntity
  8
0
100
AcDbLine
 62
7
  6
CONTINUOUS
 10
329.3460796392
 20
312.7889791955
 11
329.8689646895
 21
312.7889791955
  0
LINE
  5
3A9
100
AcDbEntity
  8
0
100
AcDbLine
 62
7
  6
CONTINUOUS
 10
283.8047447266
 20
313.3847238053
 11
283.3487379396
 21
313.3847238053
  0
LINE
  5
3AA
100
AcDbEntity
  8
0
100
AcDbLine
 62
7
  6
CONTINUOUS
 10
329.530346187
 20
313.3847238053
 11
329.781945093
 21
313.3847238053
  0
LINE
  5
3AB
100
AcDbEntity
  8
0
100
AcDbLine
 62
7
  6
CONTINUOUS
 10
283.6120520204
 20
313.9804686238
 11
283.1397290703
 21
313.9804686238
  0
LINE
  5
3AC
100
AcDbEntity
  8
0
100
AcDbLine
 62
7
  6
CONTINUOUS
 10
329.7124836563
 20
313.9804686238
 11
330.0041044346
 21
313.9804686238
  0
LINE
  5
3AD
100
AcDbEntity
  8
0
100
AcDbLine
 62
7
  6
CONTINUOUS
 10
329.8138270931
 20
314.2783409287
 11
330.1460512136
 21
314.2783409287
  0
LINE
  5
3AE
100
AcDbEntity
  8
0
100
AcDbLine
 62
7
  6
CONTINUOUS
 10
283.4676520772
 20
314.4272770811
 11
282.9581221898
 21
314.4272770811
  0
LINE
  5
3AF
100
AcDbEntity
  8
0
100
AcDbLine
 62
7
  6
CONTINUOUS
 10
282.7129779355
 20
314.4272770811
 11
282.753324055
 21
314.4272770811
  0
LINE
  5
3B0
100
AcDbEntity
  8
0
100
AcDbLine
 62
7
  6
CONTINUOUS
 10
329.8907168933
 20
314.4272770811
 11
330.3129155918
 21
314.4272770811
  0
LINE
  5
3B1
100
AcDbEntity
  8
0
100
AcDbLine
 62
7
  6
CONTINUOUS
 10
283.3001473166
 20
314.725149386
 11
282.7734684611
 21
314.725149386
  0
LINE
  5
3B2
100
AcDbEntity
  8
0
100
AcDbLine
 62
7
  6
CONTINUOUS
 10
282.5699193751
 20
315.023021691
 11
282.5300849165
 21
315.023021691
  0
LINE
  5
3B3
100
AcDbEntity
  8
0
100
AcDbLine
 62
7
  6
CONTINUOUS
 10
330.1863731032
 20
315.023021691
 11
330.4958086108
 21
315.023021691
  0
LINE
  5
3B4
100
AcDbEntity
  8
0
100
AcDbLine
 62
7
  6
CONTINUOUS
 10
283.2340763029
 20
315.1719578434
 11
282.7061574242
 21
315.1719578434
  0
LINE
  5
3B5
100
AcDbEntity
  8
0
100
AcDbLine
 62
7
  6
CONTINUOUS
 10
282.9379250911
 20
315.3208939959
 11
283.1791700477
 21
315.3208939959
  0
LINE
  5
3B6
100
AcDbEntity
  8
0
100
AcDbLine
 62
7
  6
CONTINUOUS
 10
283.3534492576
 20
315.3208939959
 11
284.3534380418
 21
315.3208939959
  0
LINE
  5
3B7
100
AcDbEntity
  8
0
100
AcDbLine
 62
7
  6
CONTINUOUS
 10
330.319751104
 20
315.3208939959
 11
330.4687760278
 21
315.3208939959
  0
LINE
  5
3B8
100
AcDbEntity
  8
0
100
AcDbLine
 62
7
  6
CONTINUOUS
 10
282.8433653862
 20
315.6187663008
 11
282.6062155398
 21
315.6187663008
  0
LINE
  5
3B9
100
AcDbEntity
  8
0
100
AcDbLine
 62
7
  6
CONTINUOUS
 10
329.7545636635
 20
315.6187663008
 11
330.2855930496
 21
315.6187663008
  0
LINE
  5
3BA
100
AcDbEntity
  8
0
100
AcDbLine
 62
7
  6
CONTINUOUS
 10
330.4396639102
 20
315.6187663008
 11
330.5296062854
 21
315.6187663008
  0
LINE
  5
3BB
100
AcDbEntity
  8
0
100
AcDbLine
 62
7
  6
CONTINUOUS
 10
284.1528794255
 20
315.9166386057
 11
283.1591956777
 21
315.9166386057
  0
LINE
  5
3BC
100
AcDbEntity
  8
0
100
AcDbLine
 62
7
  6
CONTINUOUS
 10
282.9870875597
 20
315.9166386057
 11
282.7488371287
 21
315.9166386057
  0
LINE
  5
3BD
100
AcDbEntity
  8
0
100
AcDbLine
 62
7
  6
CONTINUOUS
 10
282.8911163751
 20
316.2145109106
 11
282.4405244653
 21
316.2145109106
  0
LINE
  5
3BE
100
AcDbEntity
  8
0
100
AcDbLine
 62
7
  6
CONTINUOUS
 10
329.990191284
 20
316.2145109106
 11
330.5201678423
 21
316.2145109106
  0
LINE
  5
3BF
100
AcDbEntity
  8
0
100
AcDbLine
 62
7
  6
CONTINUOUS
 10
330.6445863971
 20
316.2145109106
 11
330.6807692025
 21
316.2145109106
  0
LINE
  5
3C0
100
AcDbEntity
  8
0
100
AcDbLine
 62
7
  6
CONTINUOUS
 10
282.7951844415
 20
316.5123836328
 11
282.3473783847
 21
316.5123836328
  0
LINE
  5
3C1
100
AcDbEntity
  8
0
100
AcDbLine
 62
7
  6
CONTINUOUS
 10
282.2525688242
 20
316.5123836328
 11
282.0202560944
 21
316.5123836328
  0
LINE
  5
3C2
100
AcDbEntity
  8
0
100
AcDbLine
 62
7
  6
CONTINUOUS
 10
329.1177468399
 20
316.5123836328
 11
329.8726004121
 21
316.5123836328
  0
LINE
  5
3C3
100
AcDbEntity
  8
0
100
AcDbLine
 62
7
  6
CONTINUOUS
 10
330.0838241834
 20
316.5123836328
 11
330.6137168786
 21
316.5123836328
  0
LINE
  5
3C4
100
AcDbEntity
  8
0
100
AcDbLine
 62
7
  6
CONTINUOUS
 10
330.7373660848
 20
316.5123836328
 11
331.0087205704
 21
316.5123836328
  0
LINE
  5
3C5
100
AcDbEntity
  8
0
100
AcDbLine
 62
7
  6
CONTINUOUS
 10
282.0807118123
 20
316.9591920902
 11
281.8891200545
 21
316.9591920902
  0
LINE
  5
3C6
100
AcDbEntity
  8
0
100
AcDbLine
 62
7
  6
CONTINUOUS
 10
330.1772886546
 20
316.9591920902
 11
330.7078937212
 21
316.9591920902
  0
LINE
  5
3C7
100
AcDbEntity
  8
0
100
AcDbLine
 62
7
  6
CONTINUOUS
 10
283.3112144037
 20
317.1081282426
 11
282.1411153887
 21
317.1081282426
  0
LINE
  5
3C8
100
AcDbEntity
  8
0
100
AcDbLine
 62
7
  6
CONTINUOUS
 10
329.3602301121
 20
317.1081282426
 11
329.9068664248
 21
317.1081282426
  0
LINE
  5
3C9
100
AcDbEntity
  8
0
100
AcDbLine
 62
7
  6
CONTINUOUS
 10
330.9041533656
 20
317.1081282426
 11
331.191475046
 21
317.1081282426
  0
LINE
  5
3CA
100
AcDbEntity
  8
0
100
AcDbLine
 62
7
  6
CONTINUOUS
 10
281.9438968719
 20
317.2570643951
 11
281.8107741154
 21
317.2570643951
  0
LINE
  5
3CB
100
AcDbEntity
  8
0
100
AcDbLine
 62
7
  6
CONTINUOUS
 10
330.302971751
 20
317.2570643951
 11
330.727961895
 21
317.2570643951
  0
LINE
  5
3CC
100
AcDbEntity
  8
0
100
AcDbLine
 62
7
  6
CONTINUOUS
 10
281.7986447592
 20
317.4060005475
 11
281.8365218038
 21
317.4060005475
  0
LINE
  5
3CD
100
AcDbEntity
  8
0
100
AcDbLine
 62
7
  6
CONTINUOUS
 10
330.5182375787
 20
317.4060005475
 11
330.6391965383
 21
317.4060005475
  0
LINE
  5
3CE
100
AcDbEntity
  8
0
100
AcDbLine
 62
7
  6
CONTINUOUS
 10
282.4092937746
 20
317.7038728524
 11
281.8824768981
 21
317.7038728524
  0
LINE
  5
3CF
100
AcDbEntity
  8
0
100
AcDbLine
 62
7
  6
CONTINUOUS
 10
329.7216529935
 20
317.7038728524
 11
330.2646304747
 21
317.7038728524
  0
LINE
  5
3D0
100
AcDbEntity
  8
0
100
AcDbLine
 62
7
  6
CONTINUOUS
 10
331.0094182881
 20
317.7038728524
 11
331.3700075933
 21
317.7038728524
  0
LINE
  5
3D1
100
AcDbEntity
  8
0
100
AcDbLine
 62
7
  6
CONTINUOUS
 10
282.2534999495
 20
318.0017451574
 11
281.7278078638
 21
318.0017451574
  0
LINE
  5
3D2
100
AcDbEntity
  8
0
100
AcDbLine
 62
7
  6
CONTINUOUS
 10
329.9698838493
 20
318.0017451574
 11
330.5098277017
 21
318.0017451574
  0
LINE
  5
3D3
100
AcDbEntity
  8
0
100
AcDbLine
 62
7
  6
CONTINUOUS
 10
331.0124698526
 20
318.0017451574
 11
331.4479318409
 21
318.0017451574
  0
LINE
  5
3D4
100
AcDbEntity
  8
0
100
AcDbLine
 62
7
  6
CONTINUOUS
 10
282.1213918325
 20
318.1506813098
 11
281.5971649628
 21
318.1506813098
  0
LINE
  5
3D5
100
AcDbEntity
  8
0
100
AcDbLine
 62
7
  6
CONTINUOUS
 10
330.2527838629
 20
318.1506813098
 11
330.9047745996
 21
318.1506813098
  0
LINE
  5
3D6
100
AcDbEntity
  8
0
100
AcDbLine
 62
7
  6
CONTINUOUS
 10
330.9874456226
 20
318.1506813098
 11
331.4473738642
 21
318.1506813098
  0
LINE
  5
3D7
100
AcDbEntity
  8
RUNDUNGEN
100
AcDbLine
 62
7
  6
CONTINUOUS
 10
327.0128736656
 20
329.9506813098
 11
315.6166560302
 21
329.9506813098
  0
LINE
  5
3D8
100
AcDbEntity
  8
RUNDUNGEN
100
AcDbLine
 62
7
  6
CONTINUOUS
 10
297.4100429622
 20
329.9506813098
 11
286.0130196172
 21
329.9506813098
  0
LINE
  5
3D9
100
AcDbEntity
  8
0
100
AcDbLine
 62
7
  6
CONTINUOUS
 10
325.4712437643
 20
324.4121873833
 11
325.3330264162
 21
324.4624943839
  0
LINE
  5
3DA
100
AcDbEntity
  8
RUNDUNGEN
100
AcDbLine
 62
7
  6
CONTINUOUS
 10
329.4820249698
 20
322.9523824084
 11
319.7768297171
 21
326.4847845981
  0
LINE
  5
3DB
100
AcDbEntity
  8
RUNDUNGEN
100
AcDbLine
 62
7
  6
CONTINUOUS
 10
286.0130196174
 20
334.9506813098
 11
298.5129467637
 21
334.9506813098
  0
LINE
  5
3DC
100
AcDbEntity
  8
RUNDUNGEN
100
AcDbLine
 62
7
  6
CONTINUOUS
 10
314.5129467637
 20
334.9506813098
 11
327.0128736665
 21
334.9506813098
  0
LINE
  5
3DD
100
AcDbEntity
  8
BEZUGSACHSEN
100
AcDbLine
 62
7
  6
CONTINUOUS
 10
321.5587834335
 20
158.7465179797
 11
317.7629467637
 21
154.9506813098
  0
LINE
  5
3DE
100
AcDbEntity
  8
KONSTRUKTIONSELEMENTE
100
AcDbLine
 62
7
  6
CONTINUOUS
 10
316.5129467637
 20
146.7006813098
 11
314.7629467637
 21
144.9506813098
  0
LINE
  5
3DF
100
AcDbEntity
  8
0
100
AcDbLine
 62
7
  6
CONTINUOUS
 10
314.5129467637
 20
358.1186430755
 11
315.0129467637
 21
358.1186430755
  0
LINE
  5
3E0
100
AcDbEntity
  8
0
100
AcDbLine
 62
7
  6
CONTINUOUS
 10
314.5129467637
 20
360.0042611306
 11
315.0129467637
 21
360.0042611306
  0
LINE
  5
3E1
100
AcDbEntity
  8
0
100
AcDbLine
 62
7
  6
CONTINUOUS
 10
314.5129467637
 20
360.3578145212
 11
315.0129467637
 21
360.3578145212
  0
LINE
  5
3E2
100
AcDbEntity
  8
0
100
AcDbLine
 62
7
  6
CONTINUOUS
 10
314.5129467637
 20
362.0077302877
 11
315.0129467637
 21
362.0077302877
  0
LINE
  5
3E3
100
AcDbEntity
  8
0
100
AcDbLine
 62
7
  6
CONTINUOUS
 10
314.5129467637
 20
362.3612836783
 11
315.0129467637
 21
362.3612836783
  0
LINE
  5
3E4
100
AcDbEntity
  8
0
100
AcDbLine
 62
7
  6
CONTINUOUS
 10
314.5129467637
 20
362.8326882553
 11
315.0129467637
 21
362.8326882553
  0
LINE
  5
3E5
100
AcDbEntity
  8
0
100
AcDbLine
 62
7
  6
CONTINUOUS
 10
314.5129467637
 20
364.2469018177
 11
315.0129467637
 21
364.2469018177
  0
LINE
  5
3E6
100
AcDbEntity
  8
0
100
AcDbLine
 62
7
  6
CONTINUOUS
 10
314.5129467637
 20
364.4813502374
 11
315.0129467637
 21
364.4813502374
  0
LINE
  5
3E7
100
AcDbEntity
  8
0
100
AcDbLine
 62
7
  6
CONTINUOUS
 10
314.5129467637
 20
364.5365147302
 11
315.0129467637
 21
364.5365147302
  0
LINE
  5
3E8
100
AcDbEntity
  8
0
100
AcDbLine
 62
7
  6
CONTINUOUS
 10
314.5129467637
 20
364.6355599928
 11
315.0129467637
 21
364.6355599928
  0
LINE
  5
3E9
100
AcDbEntity
  8
0
100
AcDbLine
 62
7
  6
CONTINUOUS
 10
314.5129467637
 20
364.8173511515
 11
315.0129467637
 21
364.8173511515
  0
LINE
  5
3EA
100
AcDbEntity
  8
0
100
AcDbLine
 62
7
  6
CONTINUOUS
 10
314.5129467637
 20
365.0580684935
 11
315.0129467637
 21
365.0580684935
  0
LINE
  5
3EB
100
AcDbEntity
  8
0
100
AcDbLine
 62
7
  6
CONTINUOUS
 10
314.5129467637
 20
365.3577116816
 11
315.0129467637
 21
365.3577116816
  0
LINE
  5
3EC
100
AcDbEntity
  8
0
100
AcDbLine
 62
7
  6
CONTINUOUS
 10
314.5129467637
 20
365.8341308906
 11
315.0129467637
 21
365.8341308906
  0
LINE
  5
3ED
100
AcDbEntity
  8
0
100
AcDbLine
 62
7
  6
CONTINUOUS
 10
314.5129467637
 20
366.1901915129
 11
315.0129467637
 21
366.1901915129
  0
LINE
  5
3EE
100
AcDbEntity
  8
0
100
AcDbLine
 62
7
  6
CONTINUOUS
 10
314.5129467637
 20
366.4860735162
 11
315.0129467637
 21
366.4860735162
  0
LINE
  5
3EF
100
AcDbEntity
  8
0
100
AcDbLine
 62
7
  6
CONTINUOUS
 10
314.5129467637
 20
366.7807008922
 11
315.0129467637
 21
366.7807008922
  0
LINE
  5
3F0
100
AcDbEntity
  8
0
100
AcDbLine
 62
7
  6
CONTINUOUS
 10
314.5129467637
 20
367.0151496491
 11
315.0129467637
 21
367.0151496491
  0
LINE
  5
3F1
100
AcDbEntity
  8
0
100
AcDbLine
 62
7
  6
CONTINUOUS
 10
314.5129467637
 20
367.0703138046
 11
315.0129467637
 21
367.0703138046
  0
LINE
  5
3F2
100
AcDbEntity
  8
0
100
AcDbLine
 62
7
  6
CONTINUOUS
 10
314.5129467637
 20
368.6506813098
 11
315.0129467637
 21
368.6506813098
  0
LINE
  5
3F3
100
AcDbEntity
  8
0
100
AcDbLine
 62
7
  6
CONTINUOUS
 10
314.5129467637
 20
372.6506813098
 11
315.0129467637
 21
372.6506813098
  0
LINE
  5
3F4
100
AcDbEntity
  8
RUNDUNGEN
100
AcDbLine
 62
7
  6
CONTINUOUS
 10
311.5129467637
 20
379.4035047089
 11
301.5129467637
 21
379.4035047089
  0
LWPOLYLINE
  5
3F5
100
AcDbEntity
  8
RUNDUNGEN
100
AcDbPolyline
 62
7
  6
CONTINUOUS
 90
7
 70
0
 10
127.6594662795
 20
69.8249740471
 10
127.6649326103
 20
69.074133833
 10
127.6865914533
 20
68.1505526248
 10
127.7251399174
 20
67.2172096014
 10
127.780954426
 20
66.2760078658
 10
127.8542436153
 20
65.3288589091
 10
127.9303555003
 20
64.5207795257
  0
LWPOLYLINE
  5
3F6
100
AcDbEntity
  8
BEZUGSACHSEN
100
AcDbPolyline
 62
7
  6
CONTINUOUS
 90
7
 70
0
 10
127.9303555003
 20
75.1291685685
 10
127.8542436153
 20
74.321089185
 10
127.780954426
 20
73.3739402283
 10
127.7251399174
 20
72.4327384927
 10
127.6865914533
 20
71.4993954693
 10
127.6649326103
 20
70.575814261
 10
127.6594662795
 20
69.824974047
  0
LWPOLYLINE
  5
3F7
100
AcDbEntity
  8
BEZUGSACHSEN
100
AcDbPolyline
 62
7
  6
CONTINUOUS
 90
10
 70
0
 10
137.030955866
 20
80.6525663134
 10
136.6413109623
 20
80.1960474039
 10
136.2792176036
 20
79.7789799554
 10
135.9431834014
 20
79.4016206671
 10
135.6331147298
 20
79.0651614061
 10
135.3488984652
 20
78.7699981786
 10
135.0910340508
 20
78.5163509752
 10
134.8604496304
 20
78.3039511737
 10
134.6582977849
 20
78.1317870936
 10
134.4864985011
 20
77.998505626
  0
LWPOLYLINE
  5
3F8
100
AcDbEntity
  8
BEZUGSACHSEN
100
AcDbPolyline
 62
7
  6
CONTINUOUS
 90
5
 70
0
 10
139.9849323703
 20
84.0777198001
 10
139.482830389
 20
83.517361663
 10
138.9112481714
 20
82.8647451052
 10
138.3854284915
 20
82.2528760228
 10
137.030955866
 20
80.6525663134
  0
LINE
  5
3F9
100
AcDbEntity
  8
BEZUGSACHSEN
100
AcDbLine
 62
7
  6
CONTINUOUS
 10
139.9849323703
 20
84.0777198001
 11
139.9849780302
 21
84.0777701755
  0
LINE
  5
3FA
100
AcDbEntity
  8
BEZUGSACHSEN
100
AcDbLine
 62
7
  6
CONTINUOUS
 10
134.4864985011
 20
77.998505626
 11
134.3469560517
 21
77.9016518076
  0
LINE
  5
3FB
100
AcDbEntity
  8
BEZUGSACHSEN
100
AcDbLine
 62
7
  6
CONTINUOUS
 10
134.3469560517
 20
77.9016518076
 11
134.2901240993
 21
77.8659936893
  0
LINE
  5
3FC
100
AcDbEntity
  8
0
100
AcDbLine
 62
7
  6
CONTINUOUS
 10
140.5711927153
 20
61.8249740471
 11
140.5711927153
 21
61.3249740471
  0
LINE
  5
3FD
100
AcDbEntity
  8
0
100
AcDbLine
 62
7
  6
CONTINUOUS
 10
140.9247461059
 20
61.8249740471
 11
140.9247461059
 21
61.3249740471
  0
LINE
  5
3FE
100
AcDbEntity
  8
0
100
AcDbLine
 62
7
  6
CONTINUOUS
 10
142.5746618725
 20
61.8249740471
 11
142.5746618725
 21
61.3249740471
  0
LINE
  5
3FF
100
AcDbEntity
  8
0
100
AcDbLine
 62
7
  6
CONTINUOUS
 10
142.9282152631
 20
61.8249740471
 11
142.9282152631
 21
61.3249740471
  0
LINE
  5
400
100
AcDbEntity
  8
0
100
AcDbLine
 62
7
  6
CONTINUOUS
 10
143.3996198401
 20
61.8249740471
 11
143.3996198401
 21
61.3249740471
  0
LINE
  5
401
100
AcDbEntity
  8
0
100
AcDbLine
 62
7
  6
CONTINUOUS
 10
144.8138334024
 20
61.8249740471
 11
144.8138334024
 21
61.3249740471
  0
LINE
  5
402
100
AcDbEntity
  8
0
100
AcDbLine
 62
7
  6
CONTINUOUS
 10
145.1686404089
 20
61.8249740471
 11
145.1686404089
 21
61.3249740471
  0
LINE
  5
403
100
AcDbEntity
  8
0
100
AcDbLine
 62
7
  6
CONTINUOUS
 10
145.5848806617
 20
61.8249740471
 11
145.5848806617
 21
61.3249740471
  0
LINE
  5
404
100
AcDbEntity
  8
0
100
AcDbLine
 62
7
  6
CONTINUOUS
 10
146.0023745304
 20
61.8249740471
 11
146.0023745304
 21
61.3249740471
  0
LINE
  5
405
100
AcDbEntity
  8
0
100
AcDbLine
 62
7
  6
CONTINUOUS
 10
146.241838088
 20
61.8249740471
 11
146.241838088
 21
61.3249740471
  0
LWPOLYLINE
  5
406
100
AcDbEntity
  8
RUNDUNGEN
100
AcDbPolyline
 62
7
  6
CONTINUOUS
 90
25
 70
0
 10
139.984975441
 20
55.5721755702
 10
141.0593345636
 20
54.4486271357
 10
142.3320573931
 20
53.2575476517
 10
143.7038033758
 20
52.1159650354
 10
145.1699497879
 20
51.0336247448
 10
146.7259012811
 20
50.018844844
 10
148.3660098841
 20
49.0792898459
 10
150.083816981
 20
48.2220421233
 10
151.8720795518
 20
47.4532659024
 10
153.7229850678
 20
46.7783489631
 10
155.628101729
 20
46.2016795538
 10
157.5786021164
 20
45.7268365344
 10
159.5655064871
 20
45.3563902195
 10
161.5796588454
 20
45.0919401337
 10
163.611361623
 20
44.933621127
 10
165.6518209131
 20
44.8810574652
 10
167.6922511003
 20
44.9344301842
 10
169.7238553259
 20
45.093558518
 10
171.7378335678
 20
45.3588204729
 10
173.724492449
 20
45.7300721541
 10
175.6746799913
 20
46.2057041832
 10
177.5794211234
 20
46.7831410584
 10
179.4298906499
 20
47.4587978908
 10
181.2176613843
 20
48.2282811815
 10
181.4811551145
 20
48.3599182642
  0
LINE
  5
407
100
AcDbEntity
  8
RUNDUNGEN
100
AcDbLine
 62
7
  6
CONTINUOUS
 10
139.9849325328
 20
55.5722281147
 11
139.9849780302
 21
55.5721779186
  0
LWPOLYLINE
  5
408
100
AcDbEntity
  8
RUNDUNGEN
100
AcDbPolyline
 62
7
  6
CONTINUOUS
 90
4
 70
0
 10
138.3881359983
 20
57.3938984179
 10
138.9129835642
 20
56.7832002274
 10
139.4836788305
 20
56.1316289026
 10
139.9849325328
 20
55.5722281147
  0
LINE
  5
409
100
AcDbEntity
  8
RUNDUNGEN
100
AcDbLine
 62
7
  6
CONTINUOUS
 10
137.0356647347
 20
58.9918323299
 11
138.3881359983
 21
57.3938984179
  0
LINE
  5
40A
100
AcDbEntity
  8
0
100
AcDbLine
 62
7
  6
CONTINUOUS
 10
146.48255543
 20
61.8249740471
 11
146.48255543
 21
61.3249740471
  0
LINE
  5
40B
100
AcDbEntity
  8
0
100
AcDbLine
 62
7
  6
CONTINUOUS
 10
146.6041676326
 20
61.8249740471
 11
146.6041676326
 21
61.3249740471
  0
LINE
  5
40C
100
AcDbEntity
  8
0
100
AcDbLine
 62
7
  6
CONTINUOUS
 10
146.6681081107
 20
61.8249740471
 11
146.6681081107
 21
61.3249740471
  0
LINE
  5
40D
100
AcDbEntity
  8
0
100
AcDbLine
 62
7
  6
CONTINUOUS
 10
146.7621382355
 20
61.8249740471
 11
146.7621382355
 21
61.3249740471
  0
LINE
  5
40E
100
AcDbEntity
  8
0
100
AcDbLine
 62
7
  6
CONTINUOUS
 10
146.8774816844
 20
61.8249740471
 11
146.8774816844
 21
61.3249740471
  0
LINE
  5
40F
100
AcDbEntity
  8
0
100
AcDbLine
 62
7
  6
CONTINUOUS
 10
147.053005101
 20
61.8249740471
 11
147.053005101
 21
61.3249740471
  0
LINE
  5
410
100
AcDbEntity
  8
0
100
AcDbLine
 62
7
  6
CONTINUOUS
 10
147.3476324769
 20
61.8249740471
 11
147.3476324769
 21
61.3249740471
  0
LINE
  5
411
100
AcDbEntity
  8
0
100
AcDbLine
 62
7
  6
CONTINUOUS
 10
147.7024398205
 20
61.8249740471
 11
147.7024398205
 21
61.3249740471
  0
LINE
  5
412
100
AcDbEntity
  8
0
100
AcDbLine
 62
7
  6
CONTINUOUS
 10
148.1186797362
 20
61.8249740471
 11
148.1186797362
 21
61.3249740471
  0
LINE
  5
413
100
AcDbEntity
  8
0
100
AcDbLine
 62
7
  6
CONTINUOUS
 10
148.5361736049
 20
61.8249740471
 11
148.5361736049
 21
61.3249740471
  0
LINE
  5
414
100
AcDbEntity
  8
0
100
AcDbLine
 62
7
  6
CONTINUOUS
 10
148.7756374996
 20
61.8249740471
 11
148.7756374996
 21
61.3249740471
  0
LINE
  5
415
100
AcDbEntity
  8
0
100
AcDbLine
 62
7
  6
CONTINUOUS
 10
148.9649511965
 20
61.8249740471
 11
148.9649511965
 21
61.3249740471
  0
LINE
  5
416
100
AcDbEntity
  8
0
100
AcDbLine
 62
7
  6
CONTINUOUS
 10
149.3210124932
 20
61.8249740471
 11
149.3210124932
 21
61.3249740471
  0
LINE
  5
417
100
AcDbEntity
  8
0
100
AcDbLine
 62
7
  6
CONTINUOUS
 10
149.7974317022
 20
61.8249740471
 11
149.7974317022
 21
61.3249740471
  0
LINE
  5
418
100
AcDbEntity
  8
0
100
AcDbLine
 62
7
  6
CONTINUOUS
 10
150.1560003149
 20
61.8249740471
 11
150.1560003149
 21
61.3249740471
  0
LINE
  5
419
100
AcDbEntity
  8
0
100
AcDbLine
 62
7
  6
CONTINUOUS
 10
150.4568967816
 20
61.8249740471
 11
150.4568967816
 21
61.3249740471
  0
LINE
  5
41A
100
AcDbEntity
  8
0
100
AcDbLine
 62
7
  6
CONTINUOUS
 10
150.5797626422
 20
61.8249740471
 11
150.5797626422
 21
61.3249740471
  0
LINE
  5
41B
100
AcDbEntity
  8
0
100
AcDbLine
 62
7
  6
CONTINUOUS
 10
150.5847778011
 20
61.8249740471
 11
150.5847778011
 21
61.3249740471
  0
LWPOLYLINE
  5
41C
100
AcDbEntity
  8
RUNDUNGEN
100
AcDbPolyline
 62
7
  6
CONTINUOUS
 90
10
 70
0
 10
134.4870432291
 20
61.6510422768
 10
134.6591769411
 20
61.5174454762
 10
134.8618253614
 20
61.3447766876
 10
135.0930150344
 20
61.1317086735
 10
135.3515685411
 20
60.8772471788
 10
135.6364833447
 20
60.5812052717
 10
135.9471888439
 20
60.243899405
 10
136.2837186632
 20
59.8658417754
 10
136.6460548622
 20
59.4483823541
 10
137.0356647347
 20
58.9918323299
  0
LINE
  5
41D
100
AcDbEntity
  8
RUNDUNGEN
100
AcDbLine
 62
7
  6
CONTINUOUS
 10
183.9433351414
 20
48.6136267398
 11
207.4044920323
 21
52.7504616983
  0
LINE
  5
41E
100
AcDbEntity
  8
RUNDUNGEN
100
AcDbLine
 62
7
  6
CONTINUOUS
 10
134.2165978015
 20
61.8249740471
 11
134.2423436756
 21
61.8117471697
  0
LINE
  5
41F
100
AcDbEntity
  8
RUNDUNGEN
100
AcDbLine
 62
7
  6
CONTINUOUS
 10
134.2423436756
 20
61.8117471697
 11
134.347271737
 21
61.7480913095
  0
LINE
  5
420
100
AcDbEntity
  8
RUNDUNGEN
100
AcDbLine
 62
7
  6
CONTINUOUS
 10
134.347271737
 20
61.7480913095
 11
134.4870432291
 21
61.6510422768
  0
LINE
  5
421
100
AcDbEntity
  8
0
100
AcDbLine
 62
7
  6
CONTINUOUS
 10
160.2273518275
 20
61.8249740471
 11
160.2273518275
 21
61.3249740471
  0
LINE
  5
422
100
AcDbEntity
  8
0
100
AcDbLine
 62
7
  6
CONTINUOUS
 10
160.6856867503
 20
82.3249740471
 11
160.6856867503
 21
80.7575002382
  0
LINE
  5
423
100
AcDbEntity
  8
0
100
AcDbLine
 62
7
  6
CONTINUOUS
 10
161.1231867503
 20
80.9788755141
 11
161.1231867503
 21
81.5802932848
  0
LINE
  5
424
100
AcDbEntity
  8
0
100
AcDbLine
 62
7
  6
CONTINUOUS
 10
162.2273518275
 20
61.8249740471
 11
162.2273518275
 21
61.3249740471
  0
LINE
  5
425
100
AcDbEntity
  8
0
100
AcDbLine
 62
7
  6
CONTINUOUS
 10
162.6440185737
 20
61.8249740471
 11
162.6440185737
 21
61.3249740471
  0
LINE
  5
426
100
AcDbEntity
  8
0
100
AcDbLine
 62
7
  6
CONTINUOUS
 10
162.9773518275
 20
61.8249740471
 11
162.9773518275
 21
61.3249740471
  0
LINE
  5
427
100
AcDbEntity
  8
0
100
AcDbLine
 62
7
  6
CONTINUOUS
 10
163.2273518275
 20
61.8249740471
 11
163.2273518275
 21
61.3249740471
  0
LINE
  5
428
100
AcDbEntity
  8
0
100
AcDbLine
 62
7
  6
CONTINUOUS
 10
163.2377691697
 20
94.6872150385
 11
163.2377691697
 21
94.740755848
  0
LINE
  5
429
100
AcDbEntity
  8
0
100
AcDbLine
 62
7
  6
CONTINUOUS
 10
163.3106850814
 20
61.8249740471
 11
163.3106850814
 21
61.3249740471
  0
LINE
  5
42A
100
AcDbEntity
  8
0
100
AcDbLine
 62
7
  6
CONTINUOUS
 10
163.3940185737
 20
61.8249740471
 11
163.3940185737
 21
61.3249740471
  0
LINE
  5
42B
100
AcDbEntity
  8
0
100
AcDbLine
 62
7
  6
CONTINUOUS
 10
163.5294363927
 20
94.7099430013
 11
163.5294363927
 21
94.7594011476
  0
LINE
  5
42C
100
AcDbEntity
  8
0
100
AcDbLine
 62
7
  6
CONTINUOUS
 10
164.0606850814
 20
61.8249740471
 11
164.0606850814
 21
61.3249740471
  0
LINE
  5
42D
100
AcDbEntity
  8
0
100
AcDbLine
 62
7
  6
CONTINUOUS
 10
164.5606853198
 20
61.8249740471
 11
164.5606853198
 21
61.3249740471
  0
LINE
  5
42E
100
AcDbEntity
  8
0
100
AcDbLine
 62
7
  6
CONTINUOUS
 10
164.6440183352
 20
61.8249740471
 11
164.6440183352
 21
61.3249740471
  0
LINE
  5
42F
100
AcDbEntity
  8
0
100
AcDbLine
 62
7
  6
CONTINUOUS
 10
164.8106853198
 20
61.8249740471
 11
164.8106853198
 21
61.3249740471
  0
LINE
  5
430
100
AcDbEntity
  8
0
100
AcDbLine
 62
7
  6
CONTINUOUS
 10
165.0606853198
 20
61.8249740471
 11
165.0606853198
 21
61.3249740471
  0
LINE
  5
431
100
AcDbEntity
  8
0
100
AcDbLine
 62
7
  6
CONTINUOUS
 10
165.3940183352
 20
61.8249740471
 11
165.3940183352
 21
61.3249740471
  0
LINE
  5
432
100
AcDbEntity
  8
0
100
AcDbLine
 62
7
  6
CONTINUOUS
 10
165.7273518275
 20
61.8249740471
 11
165.7273518275
 21
61.3249740471
  0
LINE
  5
433
100
AcDbEntity
  8
0
100
AcDbLine
 62
7
  6
CONTINUOUS
 10
166.0606853198
 20
61.8249740471
 11
166.0606853198
 21
61.3249740471
  0
LINE
  5
434
100
AcDbEntity
  8
0
100
AcDbLine
 62
7
  6
CONTINUOUS
 10
166.3106853198
 20
61.8249740471
 11
166.3106853198
 21
61.3249740471
  0
LINE
  5
435
100
AcDbEntity
  8
0
100
AcDbLine
 62
7
  6
CONTINUOUS
 10
166.4773518275
 20
61.8249740471
 11
166.4773518275
 21
61.3249740471
  0
LINE
  5
436
100
AcDbEntity
  8
0
100
AcDbLine
 62
7
  6
CONTINUOUS
 10
166.5606853198
 20
61.8249740471
 11
166.5606853198
 21
61.3249740471
  0
LINE
  5
437
100
AcDbEntity
  8
0
100
AcDbLine
 62
7
  6
CONTINUOUS
 10
167.0606853198
 20
61.8249740471
 11
167.0606853198
 21
61.3249740471
  0
LINE
  5
438
100
AcDbEntity
  8
0
100
AcDbLine
 62
7
  6
CONTINUOUS
 10
167.7273518275
 20
61.8249740471
 11
167.7273518275
 21
61.3249740471
  0
LINE
  5
439
100
AcDbEntity
  8
0
100
AcDbLine
 62
7
  6
CONTINUOUS
 10
167.7586031388
 20
44.9396273034
 11
167.7586031388
 21
44.8905469465
  0
LINE
  5
43A
100
AcDbEntity
  8
0
100
AcDbLine
 62
7
  6
CONTINUOUS
 10
168.0502703618
 20
44.9624725597
 11
168.0502703618
 21
44.9091922462
  0
LINE
  5
43B
100
AcDbEntity
  8
0
100
AcDbLine
 62
7
  6
CONTINUOUS
 10
169.7273518275
 20
61.8249740471
 11
169.7273518275
 21
61.3249740471
  0
LINE
  5
43C
100
AcDbEntity
  8
0
100
AcDbLine
 62
7
  6
CONTINUOUS
 10
170.1440188121
 20
61.8249740471
 11
170.1440188121
 21
61.3249740471
  0
LINE
  5
43D
100
AcDbEntity
  8
0
100
AcDbLine
 62
7
  6
CONTINUOUS
 10
170.4773518275
 20
61.8249740471
 11
170.4773518275
 21
61.3249740471
  0
LINE
  5
43E
100
AcDbEntity
  8
0
100
AcDbLine
 62
7
  6
CONTINUOUS
 10
170.810684843
 20
61.8249740471
 11
170.810684843
 21
61.3249740471
  0
LINE
  5
43F
100
AcDbEntity
  8
0
100
AcDbLine
 62
7
  6
CONTINUOUS
 10
170.9773518275
 20
61.8249740471
 11
170.9773518275
 21
61.3249740471
  0
LINE
  5
440
100
AcDbEntity
  8
0
100
AcDbLine
 62
7
  6
CONTINUOUS
 10
171.060684843
 20
61.8249740471
 11
171.060684843
 21
61.3249740471
  0
LINE
  5
441
100
AcDbEntity
  8
RUNDUNGEN
100
AcDbLine
 62
7
  6
CONTINUOUS
 10
202.1440197658
 20
57.8249740471
 11
181.6440197658
 21
57.8249740471
  0
LINE
  5
442
100
AcDbEntity
  8
0
100
AcDbLine
 62
7
  6
CONTINUOUS
 10
190.1944553232
 20
61.3249740471
 11
184.0942253724
 21
61.3249740471
  0
LINE
  5
443
100
AcDbEntity
  8
0
100
AcDbLine
 62
7
  6
CONTINUOUS
 10
171.060684843
 20
61.3249740471
 11
167.7273518275
 21
61.3249740471
  0
LINE
  5
444
100
AcDbEntity
  8
0
100
AcDbLine
 62
7
  6
CONTINUOUS
 10
167.0606853198
 20
61.3249740471
 11
164.0606850814
 21
61.3249740471
  0
LINE
  5
445
100
AcDbEntity
  8
0
100
AcDbLine
 62
7
  6
CONTINUOUS
 10
163.3940185737
 20
61.3249740471
 11
160.2273518275
 21
61.3249740471
  0
LINE
  5
446
100
AcDbEntity
  8
0
100
AcDbLine
 62
7
  6
CONTINUOUS
 10
150.5797626422
 20
61.3249740471
 11
140.5711927153
 21
61.3249740471
  0
LINE
  5
447
100
AcDbEntity
  8
RUNDUNGEN
100
AcDbLine
 62
7
  6
CONTINUOUS
 10
130.914894287
 20
61.8249740471
 11
200.3731408174
 21
61.8249740471
  0
LINE
  5
448
100
AcDbEntity
  8
0
100
AcDbLine
 62
7
  6
CONTINUOUS
 10
161.1231867503
 20
81.5802932848
 11
161.3108313927
 21
81.0738238214
  0
LINE
  5
449
100
AcDbEntity
  8
0
100
AcDbLine
 62
7
  6
CONTINUOUS
 10
161.7088036291
 20
81.2758908898
 11
161.3419367503
 21
82.3249740471
  0
LINE
  5
44A
100
AcDbEntity
  8
RUNDUNGEN
100
AcDbLine
 62
7
  6
CONTINUOUS
 10
207.1440197658
 20
63.8249740471
 11
205.1440197658
 21
63.8249740471
  0
LINE
  5
44B
100
AcDbEntity
  8
RUNDUNGEN
100
AcDbLine
 62
7
  6
CONTINUOUS
 10
196.803678956
 20
61.6530116898
 11
196.9428432105
 21
61.7494375071
  0
LINE
  5
44C
100
AcDbEntity
  8
RUNDUNGEN
100
AcDbLine
 62
7
  6
CONTINUOUS
 10
196.9428432105
 20
61.7494375071
 11
196.9994428206
 21
61.784876251
  0
LINE
  5
44D
100
AcDbEntity
  8
0
100
AcDbLine
 62
7
  6
CONTINUOUS
 10
184.0940197658
 20
61.8249740471
 11
184.0940197658
 21
61.3249740471
  0
LINE
  5
44E
100
AcDbEntity
  8
RUNDUNGEN
100
AcDbLine
 62
7
  6
CONTINUOUS
 10
193.2658557928
 20
57.8249740471
 11
194.2584485293
 21
58.9989901314
  0
LWPOLYLINE
  5
44F
100
AcDbEntity
  8
RUNDUNGEN
100
AcDbPolyline
 62
7
  6
CONTINUOUS
 90
10
 70
0
 10
194.2584485293
 20
58.9989901314
 10
194.6476699059
 20
59.4549954112
 10
195.0096684697
 20
59.8719321257
 10
195.3458991815
 20
60.2494800183
 10
195.6563134203
 20
60.586262567
 10
195.940921976
 20
60.8817517825
 10
196.1991329359
 20
61.1356241084
 10
196.4299173347
 20
61.3480598769
 10
196.6320954184
 20
61.5200749606
 10
196.803678956
 20
61.6530116898
  0
LINE
  5
450
100
AcDbEntity
  8
RUNDUNGEN
100
AcDbLine
 62
7
  6
CONTINUOUS
 10
205.1440197658
 20
75.8249740471
 11
207.1440197658
 21
75.8249740471
  0
LINE
  5
451
100
AcDbEntity
  8
0
100
AcDbLine
 62
7
  6
CONTINUOUS
 10
187.7344553232
 20
61.8249740471
 11
187.7344553232
 21
61.3249740471
  0
LINE
  5
452
100
AcDbEntity
  8
0
100
AcDbLine
 62
7
  6
CONTINUOUS
 10
190.1944553232
 20
61.8249740471
 11
190.1944553232
 21
61.3249740471
  0
LINE
  5
453
100
AcDbEntity
  8
BEZUGSACHSEN
100
AcDbLine
 62
7
  6
CONTINUOUS
 10
130.914894287
 20
77.8249740471
 11
200.3731408174
 21
77.8249740471
  0
LINE
  5
454
100
AcDbEntity
  8
RUNDUNGEN
100
AcDbLine
 62
7
  6
CONTINUOUS
 10
181.6440197658
 20
81.8249740471
 11
202.1440197658
 21
81.8249740471
  0
LINE
  5
455
100
AcDbEntity
  8
0
100
AcDbLine
 62
7
  6
CONTINUOUS
 10
161.3419367503
 20
82.3249740471
 11
160.6856867503
 21
82.3249740471
  0
LINE
  5
456
100
AcDbEntity
  8
BEZUGSACHSEN
100
AcDbLine
 62
7
  6
CONTINUOUS
 10
197.0713914496
 20
77.8249740471
 11
197.0472844156
 21
77.8373171266
  0
LINE
  5
457
100
AcDbEntity
  8
BEZUGSACHSEN
100
AcDbLine
 62
7
  6
CONTINUOUS
 10
197.0472844156
 20
77.8373171266
 11
196.9431575269
 21
77.9003069699
  0
LINE
  5
458
100
AcDbEntity
  8
BEZUGSACHSEN
100
AcDbLine
 62
7
  6
CONTINUOUS
 10
196.9431575269
 20
77.9003069699
 11
196.8042223173
 21
77.9965379852
  0
LWPOLYLINE
  5
459
100
AcDbEntity
  8
BEZUGSACHSEN
100
AcDbPolyline
 62
7
  6
CONTINUOUS
 90
7
 70
0
 10
203.6285737077
 20
69.8249740471
 10
203.6229147316
 20
70.588929511
 10
203.6010248401
 20
71.5123760145
 10
203.5622467448
 20
72.4456272936
 10
203.5062203415
 20
73.3867862486
 10
203.4326910395
 20
74.3338827301
 10
203.35767794
 20
75.1291760975
  0
LINE
  5
45A
100
AcDbEntity
  8
RUNDUNGEN
100
AcDbLine
 62
7
  6
CONTINUOUS
 10
203.6440197658
 20
80.3249740471
 11
203.6440197658
 21
77.3249740471
  0
LINE
  5
45B
100
AcDbEntity
  8
RUNDUNGEN
100
AcDbLine
 62
7
  6
CONTINUOUS
 10
203.6440197658
 20
62.3249740471
 11
203.6440197658
 21
59.3249740471
  0
LWPOLYLINE
  5
45C
100
AcDbEntity
  8
RUNDUNGEN
100
AcDbPolyline
 62
7
  6
CONTINUOUS
 90
7
 70
0
 10
203.35767794
 20
64.5207719966
 10
203.4326910396
 20
65.3160653641
 10
203.5062203415
 20
66.2631618456
 10
203.5622467448
 20
67.2043208007
 10
203.6010248401
 20
68.1375720798
 10
203.6229147316
 20
69.0610185834
 10
203.6285737077
 20
69.824974047
  0
LINE
  5
45D
100
AcDbEntity
  8
RUNDUNGEN
100
AcDbLine
 62
7
  6
CONTINUOUS
 10
207.4044920323
 20
86.8994863958
 11
183.9433351414
 21
91.0363213543
  0
LWPOLYLINE
  5
45E
100
AcDbEntity
  8
BEZUGSACHSEN
100
AcDbPolyline
 62
7
  6
CONTINUOUS
 90
25
 70
0
 10
181.4811551145
 20
91.2900298299
 10
181.2176613843
 20
91.4216669127
 10
179.4298906499
 20
92.1911502033
 10
177.5794211234
 20
92.8668070358
 10
175.6746799913
 20
93.4442439109
 10
173.724492449
 20
93.9198759401
 10
171.7378335678
 20
94.2911276212
 10
169.7238553259
 20
94.5563895761
 10
167.6922511003
 20
94.7155179099
 10
165.6518209131
 20
94.7688906289
 10
163.611361623
 20
94.7163269671
 10
161.5796588454
 20
94.5580079604
 10
159.5655064871
 20
94.2935578746
 10
157.5786021164
 20
93.9231115597
 10
155.628101729
 20
93.4482685403
 10
153.7229850678
 20
92.871599131
 10
151.8720795518
 20
92.1966821917
 10
150.083816981
 20
91.4279059708
 10
148.3660098841
 20
90.5706582482
 10
146.7259012811
 20
89.6311032501
 10
145.1699497879
 20
88.6163233494
 10
143.7038033758
 20
87.5339830587
 10
142.3320573931
 20
86.3924004424
 10
141.0593345636
 20
85.2013209584
 10
139.984975441
 20
84.0777725239
  0
LWPOLYLINE
  5
45F
100
AcDbEntity
  8
BEZUGSACHSEN
100
AcDbPolyline
 62
7
  6
CONTINUOUS
 90
10
 70
0
 10
196.8042223173
 20
77.9965379852
 10
196.6329730688
 20
78.1291599933
 10
196.4312909345
 20
78.3006715116
 10
196.201110837
 20
78.5124405663
 10
195.943587633
 20
78.7655004577
 10
195.6596761915
 20
79.060112839
 10
195.3498975105
 20
79.3960502917
 10
195.0141616921
 20
79.7729005142
 10
194.652406274
 20
80.1894445352
 10
194.263151443
 20
80.6454162952
  0
LINE
  5
460
100
AcDbEntity
  8
BEZUGSACHSEN
100
AcDbLine
 62
7
  6
CONTINUOUS
 10
194.263151443
 20
80.6454162952
 11
193.2658489792
 21
81.8249740471
  0
LINE
  5
461
100
AcDbEntity
  8
RUNDUNGEN
100
AcDbLine
 62
7
  6
CONTINUOUS
 10
208.6440197658
 20
54.2276733278
 11
208.6440197658
 21
62.3249740471
  0
LINE
  5
462
100
AcDbEntity
  8
RUNDUNGEN
100
AcDbLine
 62
7
  6
CONTINUOUS
 10
208.6440197658
 20
77.3249740471
 11
208.6440197658
 21
85.4222747663
  0
ARC
  5
463
100
AcDbEntity
  8
BEZUGSACHSEN
100
AcDbCircle
 62
7
  6
CONTINUOUS
 10
131.6440197658
 20
305.1506813098
 40
13.5
100
AcDbArc
 50
0.0
 51
64.4073910042
  0
ARC
  5
464
100
AcDbEntity
  8
BEZUGSACHSEN
100
AcDbCircle
 62
7
  6
CONTINUOUS
 10
128.8067073292
 20
330.4157541539
 40
3.0000000841
100
AcDbArc
 50
345.3440286443
 51
22.499997341
  0
ARC
  5
465
100
AcDbEntity
  8
BEZUGSACHSEN
100
AcDbCircle
 62
7
  6
CONTINUOUS
 10
134.7154947768
 20
316.1506824021
 40
2.9999996359
100
AcDbArc
 50
23.0684284378
 51
90.0000152418
  0
ARC
  5
466
100
AcDbEntity
  8
BEZUGSACHSEN
100
AcDbCircle
 62
7
  6
CONTINUOUS
 10
133.6440197658
 20
329.1506813098
 40
2.0
100
AcDbArc
 50
165.3440306643
 51
180.0
  0
ARC
  5
467
100
AcDbEntity
  8
RUNDUNGEN
100
AcDbCircle
 62
7
  6
CONTINUOUS
 10
133.6440197658
 20
329.1506813098
 40
2.0
100
AcDbArc
 50
165.3440306643
 51
180.0
  0
ARC
  5
468
100
AcDbEntity
  8
BEZUGSACHSEN
100
AcDbCircle
 62
7
  6
CONTINUOUS
 10
133.6440197658
 20
321.1506813098
 40
2.0
100
AcDbArc
 50
180.0
 51
270.0
  0
ARC
  5
469
100
AcDbEntity
  8
RUNDUNGEN
100
AcDbCircle
 62
7
  6
CONTINUOUS
 10
154.6440197658
 20
330.9506813098
 40
1.0
100
AcDbArc
 50
180.0
 51
270.0
  0
ARC
  5
46A
100
AcDbEntity
  8
RUNDUNGEN
100
AcDbCircle
 62
7
  6
CONTINUOUS
 10
154.6440197658
 20
333.9506813098
 40
1.0
100
AcDbArc
 50
90.0
 51
180.0
  0
ARC
  5
46B
100
AcDbEntity
  8
0
100
AcDbCircle
 62
7
  6
CONTINUOUS
 10
165.6439772909
 20
374.7941322881
 40
50.3991928151
100
AcDbArc
 50
267.0335063777
 51
272.9620303869
  0
ARC
  5
46C
100
AcDbEntity
  8
0
100
AcDbCircle
 62
7
  6
CONTINUOUS
 10
165.6440197658
 20
342.6506813098
 40
20.0
100
AcDbArc
 50
339.73209521
 51
339.7612041514
  0
ARC
  5
46D
100
AcDbEntity
  8
0
100
AcDbCircle
 62
7
  6
CONTINUOUS
 10
165.6440197658
 20
342.6506813098
 40
20.0
100
AcDbArc
 50
200.2387958486
 51
200.2679057594
  0
ARC
  5
46E
100
AcDbEntity
  8
RUNDUNGEN
100
AcDbCircle
 62
7
  6
CONTINUOUS
 10
165.6440197658
 20
342.6506813098
 40
20.0
100
AcDbArc
 50
339.7612041514
 51
200.2387958487
  0
ARC
  5
46F
100
AcDbEntity
  8
RUNDUNGEN
100
AcDbCircle
 62
7
  6
CONTINUOUS
 10
165.6440197658
 20
376.4035047089
 40
3.0
100
AcDbArc
 50
67.5
 51
112.5
  0
ARC
  5
470
100
AcDbEntity
  8
RUNDUNGEN
100
AcDbCircle
 62
7
  6
CONTINUOUS
 10
140.8048976319
 20
366.1148034437
 40
3.0
100
AcDbArc
 50
112.5
 51
157.5
  0
ARC
  5
471
100
AcDbEntity
  8
BEZUGSACHSEN
100
AcDbCircle
 62
7
  6
CONTINUOUS
 10
130.6594658781
 20
341.6215645076
 40
3.0
100
AcDbArc
 50
157.5000989097
 51
202.5000699396
  0
ARC
  5
472
100
AcDbEntity
  8
BEZUGSACHSEN
100
AcDbCircle
 62
7
  6
CONTINUOUS
 10
199.6440197658
 20
305.1506813098
 40
13.5
100
AcDbArc
 50
115.5926142366
 51
180.0
  0
ARC
  5
473
100
AcDbEntity
  8
0
100
AcDbCircle
 62
7
  6
CONTINUOUS
 10
173.9273898565
 20
334.757964994
 40
9.9623995676
100
AcDbArc
 50
328.8430368109
 51
331.1468913119
  0
ARC
  5
474
100
AcDbEntity
  8
BEZUGSACHSEN
100
AcDbCircle
 62
7
  6
CONTINUOUS
 10
202.4813328113
 20
330.4157553955
 40
3.00000092
100
AcDbArc
 50
188.9200984386
 51
194.6559913541
  0
ARC
  5
475
100
AcDbEntity
  8
BEZUGSACHSEN
100
AcDbCircle
 62
7
  6
CONTINUOUS
 10
196.5725435769
 20
316.1506837254
 40
2.9999991948
100
AcDbArc
 50
89.9999622637
 51
156.9316037065
  0
ARC
  5
476
100
AcDbEntity
  8
BEZUGSACHSEN
100
AcDbCircle
 62
7
  6
CONTINUOUS
 10
197.6440197658
 20
329.1506813098
 40
2.0
100
AcDbArc
 50
0.0
 51
14.6559693357
  0
ARC
  5
477
100
AcDbEntity
  8
BEZUGSACHSEN
100
AcDbCircle
 62
7
  6
CONTINUOUS
 10
197.6440197658
 20
321.1506813098
 40
2.0
100
AcDbArc
 50
270.0
 51
360.0
  0
ARC
  5
478
100
AcDbEntity
  8
RUNDUNGEN
100
AcDbCircle
 62
7
  6
CONTINUOUS
 10
197.6440197658
 20
329.1506813098
 40
2.0
100
AcDbArc
 50
0.0
 51
14.6559693357
  0
ARC
  5
479
100
AcDbEntity
  8
RUNDUNGEN
100
AcDbCircle
 62
7
  6
CONTINUOUS
 10
207.6440197658
 20
330.9506813098
 40
1.0
100
AcDbArc
 50
270.0
 51
360.0
  0
ARC
  5
47A
100
AcDbEntity
  8
RUNDUNGEN
100
AcDbCircle
 62
7
  6
CONTINUOUS
 10
207.6440197658
 20
333.9506813098
 40
1.0
100
AcDbArc
 50
0.0
 51
90.0
  0
ARC
  5
47B
100
AcDbEntity
  8
BEZUGSACHSEN
100
AcDbCircle
 62
7
  6
CONTINUOUS
 10
200.628574222
 20
341.6215631347
 40
3.0
100
AcDbArc
 50
337.499950129
 51
22.4999294716
  0
ARC
  5
47C
100
AcDbEntity
  8
RUNDUNGEN
100
AcDbCircle
 62
7
  6
CONTINUOUS
 10
190.4831418996
 20
366.1148034437
 40
3.0
100
AcDbArc
 50
22.5
 51
67.5
  0
ARC
  5
47D
100
AcDbEntity
  8
0
100
AcDbCircle
 62
7
  6
CONTINUOUS
 10
188.6040197658
 20
360.7028746186
 40
2.05
100
AcDbArc
 50
39.1203622595
 51
223.4436746537
  0
ARC
  5
47E
100
AcDbEntity
  8
0
100
AcDbCircle
 62
7
  6
CONTINUOUS
 10
186.1440197658
 20
363.1628746186
 40
2.05
100
AcDbArc
 50
39.1203622595
 51
223.4436746537
  0
ARC
  5
47F
100
AcDbEntity
  8
0
100
AcDbCircle
 62
7
  6
CONTINUOUS
 10
188.6040197658
 20
360.7028746186
 40
1.44
100
AcDbArc
 50
147.4318244213
 51
233.3855386471
  0
ARC
  5
480
100
AcDbEntity
  8
0
100
AcDbCircle
 62
7
  6
CONTINUOUS
 10
188.6040197658
 20
360.7028746186
 40
1.44
100
AcDbArc
 50
36.6144613529
 51
122.7876806276
  0
ARC
  5
481
100
AcDbEntity
  8
0
100
AcDbCircle
 62
7
  6
CONTINUOUS
 10
186.1440197658
 20
363.1628746186
 40
1.44
100
AcDbArc
 50
36.6144613529
 51
233.3855386471
  0
ARC
  5
482
100
AcDbEntity
  8
BEZUGSACHSEN
100
AcDbCircle
 62
7
  6
CONTINUOUS
 10
306.5012361384
 20
245.7343054512
 40
71.5918682835
100
AcDbArc
 50
89.5169368893
 51
89.9906278545
  0
ARC
  5
483
100
AcDbEntity
  8
BEZUGSACHSEN
100
AcDbCircle
 62
7
  6
CONTINUOUS
 10
306.5246573884
 20
245.7343055856
 40
71.5918681491
100
AcDbArc
 50
90.0093721451
 51
90.4830631111
  0
ARC
  5
484
100
AcDbEntity
  8
KONSTRUKTIONSELEMENTE
100
AcDbCircle
 62
7
  6
CONTINUOUS
 10
299.0345584474
 20
154.8683437615
 40
20.0823491835
100
AcDbArc
 50
90.0616594192
 51
97.2429972934
  0
ARC
  5
485
100
AcDbEntity
  8
KONSTRUKTIONSELEMENTE
100
AcDbCircle
 62
7
  6
CONTINUOUS
 10
313.9913359119
 20
154.8683599038
 40
20.0823330397
100
AcDbArc
 50
82.7570076702
 51
89.9383436411
  0
ARC
  5
486
100
AcDbEntity
  8
0
100
AcDbCircle
 62
7
  6
CONTINUOUS
 10
218.7290311247
 20
340.3284054794
 40
114.3913711905
100
AcDbArc
 50
347.9832455119
 51
348.211958092
  0
ARC
  5
487
100
AcDbEntity
  8
0
100
AcDbCircle
 62
7
  6
CONTINUOUS
 10
220.0592237599
 20
339.7605560479
 40
112.4539471028
100
AcDbArc
 50
348.0689138663
 51
348.2432257043
  0
ARC
  5
488
100
AcDbEntity
  8
0
100
AcDbCircle
 62
7
  6
CONTINUOUS
 10
225.7701681394
 20
346.4447839393
 40
109.3893175099
100
AcDbArc
 50
341.1319475063
 51
341.5811149461
  0
ARC
  5
489
100
AcDbEntity
  8
0
100
AcDbCircle
 62
7
  6
CONTINUOUS
 10
230.5872091082
 20
344.7983822373
 40
104.2986866811
100
AcDbArc
 50
340.6597746118
 51
341.1320307601
  0
ARC
  5
48A
100
AcDbEntity
  8
0
100
AcDbCircle
 62
7
  6
CONTINUOUS
 10
230.984372878
 20
346.040860028
 40
104.2799382823
100
AcDbArc
 50
340.4181059695
 51
340.8864891067
  0
ARC
  5
48B
100
AcDbEntity
  8
0
100
AcDbCircle
 62
7
  6
CONTINUOUS
 10
235.4702438204
 20
344.4445464296
 40
99.5185033641
100
AcDbArc
 50
339.921362122
 51
340.4050534449
  0
ARC
  5
48C
100
AcDbEntity
  8
0
100
AcDbCircle
 62
7
  6
CONTINUOUS
 10
236.9155759414
 20
343.8387450086
 40
97.4589893548
100
AcDbArc
 50
339.844302547
 51
340.4029228353
  0
ARC
  5
48D
100
AcDbEntity
  8
0
100
AcDbCircle
 62
7
  6
CONTINUOUS
 10
135.8092566291
 20
395.2971722867
 40
209.2544115113
100
AcDbArc
 50
337.8827990428
 51
338.0587663485
  0
ARC
  5
48E
100
AcDbEntity
  8
0
100
AcDbCircle
 62
7
  6
CONTINUOUS
 10
141.8779030345
 20
393.0710031302
 40
202.2868787826
100
AcDbArc
 50
337.7613309382
 51
337.9435119016
  0
ARC
  5
48F
100
AcDbEntity
  8
0
100
AcDbCircle
 62
7
  6
CONTINUOUS
 10
222.2763557931
 20
353.8139537782
 40
114.8563205353
100
AcDbArc
 50
339.390410912
 51
339.7075883244
  0
ARC
  5
490
100
AcDbEntity
  8
0
100
AcDbCircle
 62
7
  6
CONTINUOUS
 10
227.4729449068
 20
356.4453616421
 40
110.6221112856
100
AcDbArc
 50
338.3421209422
 51
338.6737402748
  0
ARC
  5
491
100
AcDbEntity
  8
0
100
AcDbCircle
 62
7
  6
CONTINUOUS
 10
229.3688889341
 20
355.6675611709
 40
108.0795524668
100
AcDbArc
 50
338.2505063414
 51
338.5901318844
  0
ARC
  5
492
100
AcDbEntity
  8
0
100
AcDbCircle
 62
7
  6
CONTINUOUS
 10
287.7195599913
 20
325.0457897308
 40
43.9080354241
100
AcDbArc
 50
349.5848481037
 51
350.3742861667
  0
ARC
  5
493
100
AcDbEntity
  8
0
100
AcDbCircle
 62
7
  6
CONTINUOUS
 10
299.8343262969
 20
323.4912377218
 40
19.1139915743
100
AcDbArc
 50
216.2340763701
 51
217.3490731413
  0
ARC
  5
494
100
AcDbEntity
  8
0
100
AcDbCircle
 62
7
  6
CONTINUOUS
 10
300.0874985995
 20
323.420740268
 40
18.8377102255
100
AcDbArc
 50
216.584825772
 51
217.7215643936
  0
ARC
  5
495
100
AcDbEntity
  8
0
100
AcDbCircle
 62
7
  6
CONTINUOUS
 10
299.1016502836
 20
324.9573905166
 40
18.8064756006
100
AcDbArc
 50
204.1703383897
 51
205.168995324
  0
ARC
  5
496
100
AcDbEntity
  8
0
100
AcDbCircle
 62
7
  6
CONTINUOUS
 10
299.7216698783
 20
322.4858829343
 40
18.7036174173
100
AcDbArc
 50
215.0430276818
 51
216.1653367154
  0
ARC
  5
497
100
AcDbEntity
  8
0
100
AcDbCircle
 62
7
  6
CONTINUOUS
 10
299.5489670701
 20
321.7632894645
 40
18.3016270587
100
AcDbArc
 50
194.3571126185
 51
194.8972394344
  0
ARC
  5
498
100
AcDbEntity
  8
0
100
AcDbCircle
 62
7
  6
CONTINUOUS
 10
299.5425894123
 20
321.7615979161
 40
18.29502889
100
AcDbArc
 50
194.8972548272
 51
195.2183277436
  0
ARC
  5
499
100
AcDbEntity
  8
0
100
AcDbCircle
 62
7
  6
CONTINUOUS
 10
299.0881989874
 20
321.8194435643
 40
17.8767741783
100
AcDbArc
 50
204.9506824971
 51
206.0082480919
  0
ARC
  5
49A
100
AcDbEntity
  8
0
100
AcDbCircle
 62
7
  6
CONTINUOUS
 10
299.2145436605
 20
316.7759935477
 40
16.523662139
100
AcDbArc
 50
197.1798608357
 51
197.5422728917
  0
ARC
  5
49B
100
AcDbEntity
  8
0
100
AcDbCircle
 62
7
  6
CONTINUOUS
 10
299.1832833289
 20
316.766080168
 40
16.490867589
100
AcDbArc
 50
197.5421679671
 51
198.2655397523
  0
ARC
  5
49C
100
AcDbEntity
  8
0
100
AcDbCircle
 62
7
  6
CONTINUOUS
 10
299.4380197235
 20
313.4401549425
 40
15.7645382804
100
AcDbArc
 50
185.6235311631
 51
186.7124599832
  0
ARC
  5
49D
100
AcDbEntity
  8
0
100
AcDbCircle
 62
7
  6
CONTINUOUS
 10
299.6657253711
 20
313.3495357749
 40
15.4558732169
100
AcDbArc
 50
185.6766469808
 51
186.2317584763
  0
ARC
  5
49E
100
AcDbEntity
  8
0
100
AcDbCircle
 62
7
  6
CONTINUOUS
 10
292.1937314794
 20
323.2470434373
 40
11.7067805639
100
AcDbArc
 50
206.6190545882
 51
208.2617855316
  0
ARC
  5
49F
100
AcDbEntity
  8
0
100
AcDbCircle
 62
7
  6
CONTINUOUS
 10
292.5545934995
 20
323.1997676957
 40
11.5382826554
100
AcDbArc
 50
206.7759136953
 51
208.4452172649
  0
ARC
  5
4A0
100
AcDbEntity
  8
0
100
AcDbCircle
 62
7
  6
CONTINUOUS
 10
291.6211445066
 20
320.4699417761
 40
10.3420266731
100
AcDbArc
 50
193.8072864556
 51
195.5131229955
  0
ARC
  5
4A1
100
AcDbEntity
  8
0
100
AcDbCircle
 62
7
  6
CONTINUOUS
 10
291.0230961592
 20
318.7021418042
 40
9.6741764921
100
AcDbArc
 50
228.5720772804
 51
229.923357475
  0
ARC
  5
4A2
100
AcDbEntity
  8
0
100
AcDbCircle
 62
7
  6
CONTINUOUS
 10
292.3918788576
 20
315.4140667832
 40
9.6010070668
100
AcDbArc
 50
199.6010098244
 51
200.5473125796
  0
ARC
  5
4A3
100
AcDbEntity
  8
0
100
AcDbCircle
 62
7
  6
CONTINUOUS
 10
292.450970246
 20
314.6165508298
 40
9.4243106866
100
AcDbArc
 50
198.6839841399
 51
200.6069389214
  0
ARC
  5
4A4
100
AcDbEntity
  8
0
100
AcDbCircle
 62
7
  6
CONTINUOUS
 10
289.7150054871
 20
320.0606030263
 40
9.3367034164
100
AcDbArc
 50
240.9895722279
 51
242.9340220128
  0
ARC
  5
4A5
100
AcDbEntity
  8
0
100
AcDbCircle
 62
7
  6
CONTINUOUS
 10
289.1630162653
 20
319.9069627587
 40
9.2003928303
100
AcDbArc
 50
240.5504525501
 51
242.4958015263
  0
ARC
  5
4A6
100
AcDbEntity
  8
0
100
AcDbCircle
 62
7
  6
CONTINUOUS
 10
288.7435631111
 20
319.3805478715
 40
8.9941413772
100
AcDbArc
 50
243.9571591457
 51
246.2093147089
  0
ARC
  5
4A7
100
AcDbEntity
  8
0
100
AcDbCircle
 62
7
  6
CONTINUOUS
 10
292.1193950147
 20
312.831684667
 40
8.5837463417
100
AcDbArc
 50
184.2655400666
 51
185.2631357655
  0
ARC
  5
4A8
100
AcDbEntity
  8
0
100
AcDbCircle
 62
7
  6
CONTINUOUS
 10
292.2150361393
 20
312.0452755916
 40
8.4453722669
100
AcDbArc
 50
183.0393297545
 51
185.0653499893
  0
ARC
  5
4A9
100
AcDbEntity
  8
0
100
AcDbCircle
 62
7
  6
CONTINUOUS
 10
292.5788077993
 20
311.9962918711
 40
8.2789409977
100
AcDbArc
 50
182.7610440096
 51
184.82715883
  0
ARC
  5
4AA
100
AcDbEntity
  8
0
100
AcDbCircle
 62
7
  6
CONTINUOUS
 10
289.6693396561
 20
318.7937917324
 40
8.0066778429
100
AcDbArc
 50
210.5410876863
 51
213.0492069309
  0
ARC
  5
4AB
100
AcDbEntity
  8
0
100
AcDbCircle
 62
7
  6
CONTINUOUS
 10
290.0349472007
 20
318.7331747151
 40
7.8372059127
100
AcDbArc
 50
210.757793603
 51
212.8229717738
  0
ARC
  5
4AC
100
AcDbEntity
  8
0
100
AcDbCircle
 62
7
  6
CONTINUOUS
 10
286.4933497879
 20
315.3408530749
 40
3.9362828904
100
AcDbArc
 50
180.290521775
 51
184.6313344598
  0
ARC
  5
4AD
100
AcDbEntity
  8
BEZUGSACHSEN
100
AcDbCircle
 62
7
  6
CONTINUOUS
 10
284.5691135666
 20
320.1330077571
 40
3.0
100
AcDbArc
 50
110.0
 51
197.0001902585
  0
ARC
  5
4AE
100
AcDbEntity
  8
0
100
AcDbCircle
 62
7
  6
CONTINUOUS
 10
286.0766444519
 20
312.3915871283
 40
2.6795802302
100
AcDbArc
 50
204.0488383573
 51
207.5871386179
  0
ARC
  5
4AF
100
AcDbEntity
  8
0
100
AcDbCircle
 62
7
  6
CONTINUOUS
 10
283.9663948649
 20
318.8283521398
 40
2.5611410169
100
AcDbArc
 50
213.7354151937
 51
217.843793885
  0
ARC
  5
4B0
100
AcDbEntity
  8
0
100
AcDbCircle
 62
7
  6
CONTINUOUS
 10
285.822249174
 20
311.0313523462
 40
2.0373421123
100
AcDbArc
 50
172.4336588274
 51
176.6422128446
  0
ARC
  5
4B1
100
AcDbEntity
  8
0
100
AcDbCircle
 62
7
  6
CONTINUOUS
 10
286.3122551235
 20
311.0192620682
 40
2.0027435623
100
AcDbArc
 50
171.9529827431
 51
176.2375701453
  0
ARC
  5
4B2
100
AcDbEntity
  8
0
100
AcDbCircle
 62
7
  6
CONTINUOUS
 10
285.1518498349
 20
312.8891174314
 40
1.9435995432
100
AcDbArc
 50
209.0673099011
 51
210.7502142651
  0
ARC
  5
4B3
100
AcDbEntity
  8
0
100
AcDbCircle
 62
7
  6
CONTINUOUS
 10
285.0965332015
 20
312.8581909887
 40
1.8802248675
100
AcDbArc
 50
208.2014105683
 51
209.0625442821
  0
ARC
  5
4B4
100
AcDbEntity
  8
0
100
AcDbCircle
 62
7
  6
CONTINUOUS
 10
285.0277488618
 20
312.8217378077
 40
1.8023790623
100
AcDbArc
 50
205.5526756017
 51
208.2134806691
  0
ARC
  5
4B5
100
AcDbEntity
  8
0
100
AcDbCircle
 62
7
  6
CONTINUOUS
 10
283.2782694735
 20
317.4515391601
 40
1.4803253224
100
AcDbArc
 50
181.7628435895
 51
187.5489394041
  0
ARC
  5
4B6
100
AcDbEntity
  8
0
100
AcDbCircle
 62
7
  6
CONTINUOUS
 10
284.8972052883
 20
311.7327687247
 40
1.3614874485
100
AcDbArc
 50
166.7726472084
 51
173.1411738224
  0
ARC
  5
4B7
100
AcDbEntity
  8
0
100
AcDbCircle
 62
7
  6
CONTINUOUS
 10
282.335382298
 20
318.0736231624
 40
0.7608235212
100
AcDbArc
 50
181.670887578
 51
185.4210433224
  0
ARC
  5
4B8
100
AcDbEntity
  8
0
100
AcDbCircle
 62
7
  6
CONTINUOUS
 10
282.3329332838
 20
318.0733429992
 40
0.7583674079
100
AcDbArc
 50
174.1468007002
 51
181.6551249064
  0
ARC
  5
4B9
100
AcDbEntity
  8
0
100
AcDbCircle
 62
7
  6
CONTINUOUS
 10
248.6841705363
 20
336.7547522507
 40
84.6463173347
100
AcDbArc
 50
343.0003544234
 51
343.2373967916
  0
ARC
  5
4BA
100
AcDbEntity
  8
0
100
AcDbCircle
 62
7
  6
CONTINUOUS
 10
249.6621247477
 20
336.2959013336
 40
83.0769400507
100
AcDbArc
 50
343.0003679008
 51
343.2418852811
  0
ARC
  5
4BB
100
AcDbEntity
  8
0
100
AcDbCircle
 62
7
  6
CONTINUOUS
 10
264.0744308565
 20
342.1620057844
 40
71.476483689
100
AcDbArc
 50
337.814443028
 51
338.2007144649
  0
ARC
  5
4BC
100
AcDbEntity
  8
0
100
AcDbCircle
 62
7
  6
CONTINUOUS
 10
274.8697852047
 20
344.3507815859
 40
61.646460412
100
AcDbArc
 50
333.1548065328
 51
333.6192937753
  0
ARC
  5
4BD
100
AcDbEntity
  8
0
100
AcDbCircle
 62
7
  6
CONTINUOUS
 10
290.8928711148
 20
329.5092675906
 40
42.1635615481
100
AcDbArc
 50
343.001081389
 51
343.7403650286
  0
ARC
  5
4BE
100
AcDbEntity
  8
0
100
AcDbCircle
 62
7
  6
CONTINUOUS
 10
300.0790559882
 20
335.4259971046
 40
35.0034654726
100
AcDbArc
 50
328.4450627478
 51
329.5825600149
  0
ARC
  5
4BF
100
AcDbEntity
  8
0
100
AcDbCircle
 62
7
  6
CONTINUOUS
 10
300.1932300119
 20
335.2104998115
 40
34.3279733055
100
AcDbArc
 50
328.1743738008
 51
329.3374109839
  0
ARC
  5
4C0
100
AcDbEntity
  8
BEZUGSACHSEN
100
AcDbCircle
 62
7
  6
CONTINUOUS
 10
290.5129467637
 20
334.0023416155
 40
8.0
100
AcDbArc
 50
289.9996638865
 51
0.0009874729
  0
ARC
  5
4C1
100
AcDbEntity
  8
RUNDUNGEN
100
AcDbCircle
 62
7
  6
CONTINUOUS
 10
286.0129467637
 20
330.9506813098
 40
1.0
100
AcDbArc
 50
180.0
 51
270.0
  0
ARC
  5
4C2
100
AcDbEntity
  8
RUNDUNGEN
100
AcDbCircle
 62
7
  6
CONTINUOUS
 10
286.0129467637
 20
333.9506813098
 40
1.0
100
AcDbArc
 50
90.0
 51
180.0
  0
ARC
  5
4C3
100
AcDbEntity
  8
0
100
AcDbCircle
 62
7
  6
CONTINUOUS
 10
323.5987972539
 20
323.8574045257
 40
41.9200606999
100
AcDbArc
 50
191.3342394487
 51
191.7497709951
  0
ARC
  5
4C4
100
AcDbEntity
  8
0
100
AcDbCircle
 62
7
  6
CONTINUOUS
 10
322.2487667885
 20
319.644431821
 40
39.400323496
100
AcDbArc
 50
190.4603460844
 51
190.9011487677
  0
ARC
  5
4C5
100
AcDbEntity
  8
0
100
AcDbCircle
 62
7
  6
CONTINUOUS
 10
318.4682390167
 20
323.8188726772
 40
36.9951396975
100
AcDbArc
 50
197.8301358423
 51
198.3154051472
  0
ARC
  5
4C6
100
AcDbEntity
  8
0
100
AcDbCircle
 62
7
  6
CONTINUOUS
 10
305.1311042761
 20
327.0605833394
 40
27.7985814308
100
AcDbArc
 50
326.9384686185
 51
334.6802028023
  0
ARC
  5
4C7
100
AcDbEntity
  8
0
100
AcDbCircle
 62
7
  6
CONTINUOUS
 10
304.4049952728
 20
318.2123814678
 40
21.9108133075
100
AcDbArc
 50
187.976308198
 51
189.1578967562
  0
ARC
  5
4C8
100
AcDbEntity
  8
0
100
AcDbCircle
 62
7
  6
CONTINUOUS
 10
304.5400153158
 20
318.0942269981
 40
21.5054104025
100
AcDbArc
 50
187.9099886135
 51
189.0131914668
  0
ARC
  5
4C9
100
AcDbEntity
  8
0
100
AcDbCircle
 62
7
  6
CONTINUOUS
 10
313.9376945389
 20
321.8194435648
 40
17.8767741794
100
AcDbArc
 50
333.9917519082
 51
335.0493175028
  0
ARC
  5
4CA
100
AcDbEntity
  8
0
100
AcDbCircle
 62
7
  6
CONTINUOUS
 10
313.3479098239
 20
318.2783764769
 40
17.4100341287
100
AcDbArc
 50
355.6544479045
 51
356.6369689182
  0
ARC
  5
4CB
100
AcDbEntity
  8
0
100
AcDbCircle
 62
7
  6
CONTINUOUS
 10
313.1370629307
 20
318.1853687147
 40
17.0842852305
100
AcDbArc
 50
355.8842174886
 51
356.3135953201
  0
ARC
  5
4CC
100
AcDbEntity
  8
0
100
AcDbCircle
 62
7
  6
CONTINUOUS
 10
313.8113498822
 20
316.7759935429
 40
16.5236621229
100
AcDbArc
 50
342.4577271081
 51
342.8201391644
  0
ARC
  5
4CD
100
AcDbEntity
  8
0
100
AcDbCircle
 62
7
  6
CONTINUOUS
 10
313.8328499221
 20
316.7691984139
 40
16.5011138304
100
AcDbArc
 50
342.0957862308
 51
342.4577229652
  0
ARC
  5
4CE
100
AcDbEntity
  8
0
100
AcDbCircle
 62
7
  6
CONTINUOUS
 10
313.8525983843
 20
316.7628194557
 40
16.4803606894
100
AcDbArc
 50
341.7343417219
 51
342.0957821775
  0
ARC
  5
4CF
100
AcDbEntity
  8
0
100
AcDbCircle
 62
7
  6
CONTINUOUS
 10
319.2254864458
 20
327.040733827
 40
14.458204375
100
AcDbArc
 50
319.7756008825
 51
321.3045568581
  0
ARC
  5
4D0
100
AcDbEntity
  8
0
100
AcDbCircle
 62
7
  6
CONTINUOUS
 10
318.8453068358
 20
327.0200056461
 40
14.3207973232
100
AcDbArc
 50
319.418297349
 51
320.9696670862
  0
ARC
  5
4D1
100
AcDbEntity
  8
0
100
AcDbCircle
 62
7
  6
CONTINUOUS
 10
321.4047490208
 20
320.4699417761
 40
10.3420266731
100
AcDbArc
 50
344.4868770045
 51
346.1927135444
  0
ARC
  5
4D2
100
AcDbEntity
  8
0
100
AcDbCircle
 62
7
  6
CONTINUOUS
 10
321.5200862887
 20
317.9500384706
 40
9.4925243906
100
AcDbArc
 50
358.5140062084
 51
0.312097125
  0
ARC
  5
4D3
100
AcDbEntity
  8
0
100
AcDbCircle
 62
7
  6
CONTINUOUS
 10
320.5749232811
 20
314.6165508299
 40
9.4243106869
100
AcDbArc
 50
339.3930610786
 51
341.31601586
  0
ARC
  5
4D4
100
AcDbEntity
  8
0
100
AcDbCircle
 62
7
  6
CONTINUOUS
 10
326.6932939784
 20
322.7043714261
 40
6.5347477008
100
AcDbArc
 50
303.5305901678
 51
305.8258709301
  0
ARC
  5
4D5
100
AcDbEntity
  8
BEZUGSACHSEN
100
AcDbCircle
 62
7
  6
CONTINUOUS
 10
306.5129467637
 20
325.1506813098
 40
6.0
100
AcDbArc
 50
198.716394963
 51
341.283605037
  0
ARC
  5
4D6
100
AcDbEntity
  8
0
100
AcDbCircle
 62
7
  6
CONTINUOUS
 10
326.5325437394
 20
315.3408530749
 40
3.9362828904
100
AcDbArc
 50
355.3686655402
 51
359.709478225
  0
ARC
  5
4D7
100
AcDbEntity
  8
RUNDUNGEN
100
AcDbCircle
 62
7
  6
CONTINUOUS
 10
328.4567799607
 20
320.1330077571
 40
3.0
100
AcDbArc
 50
342.9998097415
 51
70.0
  0
ARC
  5
4D8
100
AcDbEntity
  8
0
100
AcDbCircle
 62
7
  6
CONTINUOUS
 10
326.9492490755
 20
312.3915871282
 40
2.6795802301
100
AcDbArc
 50
332.4128613821
 51
335.9511616427
  0
ARC
  5
4D9
100
AcDbEntity
  8
0
100
AcDbCircle
 62
7
  6
CONTINUOUS
 10
328.7936262868
 20
316.2051280148
 40
2.2018683869
100
AcDbArc
 50
28.5383689172
 51
33.0511802248
  0
ARC
  5
4DA
100
AcDbEntity
  8
0
100
AcDbCircle
 62
7
  6
CONTINUOUS
 10
328.5379564613
 20
315.7779598464
 40
2.1988236925
100
AcDbArc
 50
316.999117625
 51
318.7362659235
  0
ARC
  5
4DB
100
AcDbEntity
  8
0
100
AcDbCircle
 62
7
  6
CONTINUOUS
 10
328.6557648707
 20
315.6746115249
 40
2.0421083559
100
AcDbArc
 50
318.735910581
 51
320.5637784288
  0
ARC
  5
4DC
100
AcDbEntity
  8
0
100
AcDbCircle
 62
7
  6
CONTINUOUS
 10
328.7669589917
 20
315.5831704396
 40
1.8981444559
100
AcDbArc
 50
320.5634851238
 51
322.4856841084
  0
ARC
  5
4DD
100
AcDbEntity
  8
0
100
AcDbCircle
 62
7
  6
CONTINUOUS
 10
330.6909152974
 20
318.0733781805
 40
0.7603981438
100
AcDbArc
 50
354.5944570333
 51
5.8348485145
  0
ARC
  5
4DE
100
AcDbEntity
  8
0
100
AcDbCircle
 62
7
  6
CONTINUOUS
 10
353.1885997628
 20
344.0531349904
 40
76.0947663816
100
AcDbArc
 50
200.8581335537
 51
201.2185876249
  0
ARC
  5
4DF
100
AcDbEntity
  8
0
100
AcDbCircle
 62
7
  6
CONTINUOUS
 10
347.6212683176
 20
340.4495303212
 40
69.7027985869
100
AcDbArc
 50
201.9212293928
 51
202.3176860745
  0
ARC
  5
4E0
100
AcDbEntity
  8
0
100
AcDbCircle
 62
7
  6
CONTINUOUS
 10
322.2757467432
 20
329.5514319522
 40
42.3123829249
100
AcDbArc
 50
196.2603343095
 51
196.7022930274
  0
ARC
  5
4E1
100
AcDbEntity
  8
0
100
AcDbCircle
 62
7
  6
CONTINUOUS
 10
321.9311857333
 20
329.4482031752
 40
41.9526907407
100
AcDbArc
 50
196.7174116279
 51
196.9654499627
  0
ARC
  5
4E2
100
AcDbEntity
  8
0
100
AcDbCircle
 62
7
  6
CONTINUOUS
 10
316.757912901
 20
332.4907919895
 40
37.8807208743
100
AcDbArc
 50
202.9765744687
 51
203.9589235435
  0
ARC
  5
4E3
100
AcDbEntity
  8
0
100
AcDbCircle
 62
7
  6
CONTINUOUS
 10
316.6908927398
 20
332.3128727126
 40
37.2646065929
100
AcDbArc
 50
203.0811319923
 51
203.9151573942
  0
ARC
  5
4E4
100
AcDbEntity
  8
0
100
AcDbCircle
 62
7
  6
CONTINUOUS
 10
303.6880089681
 20
328.8810369053
 40
29.7206880903
100
AcDbArc
 50
332.7102163727
 51
333.4979221591
  0
ARC
  5
4E5
100
AcDbEntity
  8
0
100
AcDbCircle
 62
7
  6
CONTINUOUS
 10
304.6756860338
 20
328.3578320309
 40
28.6030582643
100
AcDbArc
 50
324.8618916625
 51
332.7345154111
  0
ARC
  5
4E6
100
AcDbEntity
  8
0
100
AcDbCircle
 62
7
  6
CONTINUOUS
 10
313.5874509191
 20
328.6245866961
 40
20.2145788961
100
AcDbArc
 50
324.7546936451
 51
325.7820287296
  0
ARC
  5
4E7
100
AcDbEntity
  8
RUNDUNGEN
100
AcDbCircle
 62
7
  6
CONTINUOUS
 10
322.5129467637
 20
334.0023416155
 40
8.0
100
AcDbArc
 50
179.9990125271
 51
250.0003361135
  0
ARC
  5
4E8
100
AcDbEntity
  8
RUNDUNGEN
100
AcDbCircle
 62
7
  6
CONTINUOUS
 10
327.0129467637
 20
330.9506813098
 40
1.0
100
AcDbArc
 50
270.0
 51
360.0
  0
ARC
  5
4E9
100
AcDbEntity
  8
RUNDUNGEN
100
AcDbCircle
 62
7
  6
CONTINUOUS
 10
327.0129467637
 20
333.9506813098
 40
1.0
100
AcDbArc
 50
0.0
 51
90.0
  0
ARC
  5
4EA
100
AcDbEntity
  8
BEZUGSACHSEN
100
AcDbCircle
 62
7
  6
CONTINUOUS
 10
301.5129467637
 20
376.4035047089
 40
3.0
100
AcDbArc
 50
90.0
 51
180.0
  0
ARC
  5
4EB
100
AcDbEntity
  8
RUNDUNGEN
100
AcDbCircle
 62
7
  6
CONTINUOUS
 10
311.5129467637
 20
376.4035047089
 40
3.0
100
AcDbArc
 50
0.0
 51
90.0
  0
ARC
  5
4EC
100
AcDbEntity
  8
0
100
AcDbCircle
 62
7
  6
CONTINUOUS
 10
577.6812950668
 20
416.9817864127
 40
312.0320585547
100
AcDbArc
 50
199.274754791
 51
199.3906833087
  0
ARC
  5
4ED
100
AcDbEntity
  8
0
100
AcDbCircle
 62
7
  6
CONTINUOUS
 10
488.7131221331
 20
368.2608191889
 40
212.8299056167
100
AcDbArc
 50
194.1548959958
 51
194.3203583463
  0
ARC
  5
4EE
100
AcDbEntity
  8
0
100
AcDbCircle
 62
7
  6
CONTINUOUS
 10
420.576035981
 20
369.2352636056
 40
147.624956561
100
AcDbArc
 50
202.5426863439
 51
202.7305745885
  0
ARC
  5
4EF
100
AcDbEntity
  8
0
100
AcDbCircle
 62
7
  6
CONTINUOUS
 10
422.5183657815
 20
356.1845383801
 40
145.9615862576
100
AcDbArc
 50
197.2959917809
 51
197.4184971355
  0
ARC
  5
4F0
100
AcDbEntity
  8
0
100
AcDbCircle
 62
7
  6
CONTINUOUS
 10
416.6793342836
 20
367.7440774543
 40
142.9529347533
100
AcDbArc
 50
202.6729070484
 51
202.8671249814
  0
ARC
  5
4F1
100
AcDbEntity
  8
0
100
AcDbCircle
 62
7
  6
CONTINUOUS
 10
390.7495377342
 20
353.8139537782
 40
114.8563205353
100
AcDbArc
 50
200.2924116756
 51
200.609589088
  0
ARC
  5
4F2
100
AcDbEntity
  8
0
100
AcDbCircle
 62
7
  6
CONTINUOUS
 10
388.3705910336
 20
339.0415053439
 40
108.326948761
100
AcDbArc
 50
192.487266895
 51
192.7294306839
  0
ARC
  5
4F3
100
AcDbEntity
  8
0
100
AcDbCircle
 62
7
  6
CONTINUOUS
 10
382.4386844232
 20
344.7983822387
 40
104.2986866854
100
AcDbArc
 50
198.8679692399
 51
199.3402253882
  0
ARC
  5
4F4
100
AcDbEntity
  8
0
100
AcDbCircle
 62
7
  6
CONTINUOUS
 10
383.7882876511
 20
333.6558625415
 40
102.3782591328
100
AcDbArc
 50
192.016052139
 51
192.2718315533
  0
ARC
  5
4F5
100
AcDbEntity
  8
0
100
AcDbCircle
 62
7
  6
CONTINUOUS
 10
382.3678081104
 20
333.0737963443
 40
100.3496668981
100
AcDbArc
 50
192.0250284645
 51
192.1836799638
  0
ARC
  5
4F6
100
AcDbEntity
  8
0
100
AcDbCircle
 62
7
  6
CONTINUOUS
 10
373.740840431
 20
343.6744504899
 40
95.6579503596
100
AcDbArc
 50
196.2492734768
 51
196.4960901744
  0
ARC
  5
4F7
100
AcDbEntity
  8
0
100
AcDbCircle
 62
7
  6
CONTINUOUS
 10
365.2720640894
 20
348.2327548563
 40
88.7138552307
100
AcDbArc
 50
203.8639154387
 51
204.2853347569
  0
ARC
  5
4F8
100
AcDbEntity
  8
0
100
AcDbCircle
 62
7
  6
CONTINUOUS
 10
164.0592382719
 20
59.2934221059
 40
35.4699359941
100
AcDbArc
 50
89.2067959536
 51
90.8558386039
  0
ARC
  5
4F9
100
AcDbEntity
  8
0
100
AcDbCircle
 62
7
  6
CONTINUOUS
 10
165.6212698841
 20
59.7463960063
 40
35.075437223
100
AcDbArc
 50
93.4190419588
 51
93.8964547057
  0
ARC
  5
4FA
100
AcDbEntity
  8
0
100
AcDbCircle
 62
7
  6
CONTINUOUS
 10
167.1319364739
 20
60.2583832814
 40
34.7015641839
100
AcDbArc
 50
96.4432345547
 51
98.1425411585
  0
ARC
  5
4FB
100
AcDbEntity
  8
RUNDUNGEN
100
AcDbCircle
 62
7
  6
CONTINUOUS
 10
152.5678244386
 20
41.7178020839
 40
19.0
100
AcDbArc
 50
42.3666890629
 51
65.0509128657
  0
ARC
  5
4FC
100
AcDbEntity
  8
RUNDUNGEN
100
AcDbCircle
 62
7
  6
CONTINUOUS
 10
130.9149181571
 20
64.8250010482
 40
3.0000301707
100
AcDbArc
 50
185.8202393526
 51
269.9997106303
  0
ARC
  5
4FD
100
AcDbEntity
  8
BEZUGSACHSEN
100
AcDbCircle
 62
7
  6
CONTINUOUS
 10
130.9149180177
 20
74.8249472003
 40
3.0000301707
100
AcDbArc
 50
90.0002867067
 51
174.1797633104
  0
ARC
  5
4FE
100
AcDbEntity
  8
0
100
AcDbCircle
 62
7
  6
CONTINUOUS
 10
167.2288012596
 20
80.3565259882
 40
35.4699359941
100
AcDbArc
 50
269.2067959536
 51
270.8558386039
  0
ARC
  5
4FF
100
AcDbEntity
  8
0
100
AcDbCircle
 62
7
  6
CONTINUOUS
 10
165.6667696474
 20
79.9035520878
 40
35.075437223
100
AcDbArc
 50
273.4190419588
 51
273.8964547057
  0
ARC
  5
500
100
AcDbEntity
  8
0
100
AcDbCircle
 62
7
  6
CONTINUOUS
 10
164.1561030577
 20
79.3915648127
 40
34.7015641839
100
AcDbArc
 50
276.4432345547
 51
278.1425411585
  0
ARC
  5
501
100
AcDbEntity
  8
0
100
AcDbCircle
 62
7
  6
CONTINUOUS
 10
165.6440197658
 20
69.8249740471
 40
19.0
100
AcDbArc
 50
321.3085478757
 51
335.1001719134
  0
ARC
  5
502
100
AcDbEntity
  8
0
100
AcDbCircle
 62
7
  6
CONTINUOUS
 10
165.6440197658
 20
69.8249740471
 40
19.0
100
AcDbArc
 50
206.5757024207
 51
284.1359360484
  0
ARC
  5
503
100
AcDbEntity
  8
0
100
AcDbCircle
 62
7
  6
CONTINUOUS
 10
165.6440197658
 20
69.8249740471
 40
19.0
100
AcDbArc
 50
24.9007492778
 51
38.6914255566
  0
ARC
  5
504
100
AcDbEntity
  8
0
100
AcDbCircle
 62
7
  6
CONTINUOUS
 10
165.6440197658
 20
69.8249740471
 40
19.0
100
AcDbArc
 50
75.8640625949
 51
155.0992493449
  0
ARC
  5
505
100
AcDbEntity
  8
RUNDUNGEN
100
AcDbCircle
 62
7
  6
CONTINUOUS
 10
165.6440197658
 20
69.8249740471
 40
18.75
100
AcDbArc
 50
25.2612077053
 51
39.0782858554
  0
ARC
  5
506
100
AcDbEntity
  8
RUNDUNGEN
100
AcDbCircle
 62
7
  6
CONTINUOUS
 10
165.6440197658
 20
69.8249740471
 40
18.75
100
AcDbArc
 50
76.54431271
 51
154.7387922947
  0
ARC
  5
507
100
AcDbEntity
  8
RUNDUNGEN
100
AcDbCircle
 62
7
  6
CONTINUOUS
 10
165.6440197658
 20
69.8249740471
 40
18.75
100
AcDbArc
 50
207.0048024035
 51
283.45568729
  0
ARC
  5
508
100
AcDbEntity
  8
RUNDUNGEN
100
AcDbCircle
 62
7
  6
CONTINUOUS
 10
165.6440197658
 20
69.8249740471
 40
18.75
100
AcDbArc
 50
320.9217141448
 51
334.7387922947
  0
ARC
  5
509
100
AcDbEntity
  8
RUNDUNGEN
100
AcDbCircle
 62
7
  6
CONTINUOUS
 10
165.6440197658
 20
69.8249740471
 40
12.0
100
AcDbArc
 50
221.855764694
 51
245.0509128657
  0
ARC
  5
50A
100
AcDbEntity
  8
RUNDUNGEN
100
AcDbCircle
 62
7
  6
CONTINUOUS
 10
165.6440197658
 20
69.8249740471
 40
12.0
100
AcDbArc
 50
114.9490871343
 51
138.1442359083
  0
ARC
  5
50B
100
AcDbEntity
  8
RUNDUNGEN
100
AcDbCircle
 62
7
  6
CONTINUOUS
 10
152.5678244386
 20
97.9321460102
 40
19.0
100
AcDbArc
 50
294.9490871343
 51
317.6333109371
  0
ARC
  5
50C
100
AcDbEntity
  8
RUNDUNGEN
100
AcDbCircle
 62
7
  6
CONTINUOUS
 10
180.6440197658
 20
67.3249740471
 40
19.0
100
AcDbArc
 50
222.3666890629
 51
280.0
  0
ARC
  5
50D
100
AcDbEntity
  8
RUNDUNGEN
100
AcDbCircle
 62
7
  6
CONTINUOUS
 10
181.6440197658
 20
63.8249740471
 40
6.0
100
AcDbArc
 50
199.4752286779
 51
270.0
  0
ARC
  5
50E
100
AcDbEntity
  8
RUNDUNGEN
100
AcDbCircle
 62
7
  6
CONTINUOUS
 10
200.3731164114
 20
64.825001048
 40
3.0000301706
100
AcDbArc
 50
270.0004655927
 51
354.1796397503
  0
ARC
  5
50F
100
AcDbEntity
  8
RUNDUNGEN
100
AcDbCircle
 62
7
  6
CONTINUOUS
 10
207.1440197658
 20
54.2276733278
 40
1.5
100
AcDbArc
 50
280.0
 51
360.0
  0
ARC
  5
510
100
AcDbEntity
  8
RUNDUNGEN
100
AcDbCircle
 62
7
  6
CONTINUOUS
 10
205.1440197658
 20
62.3249740471
 40
1.5
100
AcDbArc
 50
90.0
 51
180.0
  0
ARC
  5
511
100
AcDbEntity
  8
RUNDUNGEN
100
AcDbCircle
 62
7
  6
CONTINUOUS
 10
207.1440197658
 20
62.3249740471
 40
1.5
100
AcDbArc
 50
0.0
 51
90.0
  0
ARC
  5
512
100
AcDbEntity
  8
RUNDUNGEN
100
AcDbCircle
 62
7
  6
CONTINUOUS
 10
202.1440197658
 20
59.3249740471
 40
1.5
100
AcDbArc
 50
270.0
 51
360.0
  0
ARC
  5
513
100
AcDbEntity
  8
RUNDUNGEN
100
AcDbCircle
 62
7
  6
CONTINUOUS
 10
180.6440197658
 20
72.3249740471
 40
19.0
100
AcDbArc
 50
80.0
 51
137.6333109371
  0
ARC
  5
514
100
AcDbEntity
  8
RUNDUNGEN
100
AcDbCircle
 62
7
  6
CONTINUOUS
 10
181.6440197658
 20
75.8249740471
 40
6.0
100
AcDbArc
 50
90.0
 51
160.5247713076
  0
ARC
  5
515
100
AcDbEntity
  8
BEZUGSACHSEN
100
AcDbCircle
 62
7
  6
CONTINUOUS
 10
200.3731165509
 20
74.8249472005
 40
3.0000301706
100
AcDbArc
 50
5.8203575864
 51
89.9995370706
  0
ARC
  5
516
100
AcDbEntity
  8
RUNDUNGEN
100
AcDbCircle
 62
7
  6
CONTINUOUS
 10
207.1440197658
 20
85.4222747663
 40
1.5
100
AcDbArc
 50
0.0
 51
80.0
  0
ARC
  5
517
100
AcDbEntity
  8
RUNDUNGEN
100
AcDbCircle
 62
7
  6
CONTINUOUS
 10
205.1440197658
 20
77.3249740471
 40
1.5
100
AcDbArc
 50
180.0
 51
270.0
  0
ARC
  5
518
100
AcDbEntity
  8
RUNDUNGEN
100
AcDbCircle
 62
7
  6
CONTINUOUS
 10
207.1440197658
 20
77.3249740471
 40
1.5
100
AcDbArc
 50
270.0
 51
360.0
  0
ARC
  5
519
100
AcDbEntity
  8
RUNDUNGEN
100
AcDbCircle
 62
7
  6
CONTINUOUS
 10
202.1440197658
 20
80.3249740471
 40
1.5
100
AcDbArc
 50
0.0
 51
90.0
  0
SPLINE
  5
51A
100
AcDbEntity
  8
KONSTRUKTIONSELEMENTE
100
AcDbSpline
 62
7
  6
CONTINUOUS
 70
0
 71
3
 72
11
 73
7
 74
0
 42
0.0000001
 43
0.0000001
 44
0.0000000001
 40
0.0
 40
0.0
 40
0.0
 40
0.0
 40
0.2404100529
 40
0.4855109823
 40
0.7383644672
 40
1.0
 40
1.0
 40
1.0
 40
1.0
 10
152.6536386354
 20
174.9506813158
 30
0.0
 10
152.2863814957
 20
174.9506813158
 30
0.0
 10
151.5433246835
 20
174.8866611045
 30
0.0
 10
150.4457615679
 20
174.6100736577
 30
0.0
 10
149.3660061136
 20
174.1777832644
 30
0.0
 10
148.6696462633
 20
173.8107762367
 30
0.0
 10
148.3235116901
 20
173.6109353477
 30
0.0
  0
SPLINE
  5
51B
100
AcDbEntity
  8
KONSTRUKTIONSELEMENTE
100
AcDbSpline
 62
7
  6
CONTINUOUS
 70
0
 71
3
 72
11
 73
7
 74
0
 42
0.0000001
 43
0.0000001
 44
0.0000000001
 40
0.0
 40
0.0
 40
0.0
 40
0.0
 40
0.261635542
 40
0.5144890695
 40
0.7595899798
 40
1.0
 40
1.0
 40
1.0
 40
1.0
 10
182.9645278414
 20
173.6109353477
 30
0.0
 10
182.6183932455
 20
173.8107762498
 30
0.0
 10
181.9220333081
 20
174.177783335
 30
0.0
 10
180.8422777596
 20
174.6100737262
 30
0.0
 10
179.7447146153
 20
174.886661146
 30
0.0
 10
179.0016578582
 20
174.9506813151
 30
0.0
 10
178.6344007573
 20
174.9506813151
 30
0.0
  0
SPLINE
  5
51C
100
AcDbEntity
  8
KONSTRUKTIONSELEMENTE
100
AcDbSpline
 62
7
  6
CONTINUOUS
 70
0
 71
3
 72
11
 73
7
 74
0
 42
0.0000001
 43
0.0000001
 44
0.0000000001
 40
0.0
 40
0.0
 40
0.0
 40
0.0
 40
0.2404100529
 40
0.4855109823
 40
0.7383644672
 40
1.0
 40
1.0
 40
1.0
 40
1.0
 10
178.6344007573
 20
174.9506813151
 30
0.0
 10
178.267143617
 20
174.9506813151
 30
0.0
 10
177.5240868033
 20
174.8866611064
 30
0.0
 10
176.4265236855
 20
174.6100736589
 30
0.0
 10
175.3467682291
 20
174.1777832655
 30
0.0
 10
174.6504083775
 20
173.8107762371
 30
0.0
 10
174.3042738036
 20
173.6109353477
 30
0.0
  0
SPLINE
  5
51D
100
AcDbEntity
  8
KONSTRUKTIONSELEMENTE
100
AcDbSpline
 62
7
  6
CONTINUOUS
 70
0
 71
3
 72
10
 73
6
 74
0
 42
0.0000001
 43
0.0000001
 44
0.0000000001
 40
0.0
 40
0.0
 40
0.0
 40
0.0
 40
0.4998915772
 40
0.7499458269
 40
1.0
 40
1.0
 40
1.0
 40
1.0
 10
174.3042738036
 20
173.6109353477
 30
0.0
 10
172.8972020344
 20
174.01712198
 30
0.0
 10
170.7520606068
 20
174.5249269434
 30
0.0
 10
167.8425393773
 20
174.8881709811
 30
0.0
 10
166.376600663
 20
174.9506813097
 30
0.0
 10
165.6440197649
 20
174.9506813098
 30
0.0
  0
SPLINE
  5
51E
100
AcDbEntity
  8
BEZUGSACHSEN
100
AcDbSpline
 62
7
  6
CONTINUOUS
 70
0
 71
3
 72
17
 73
13
 74
0
 42
0.0000001
 43
0.0000001
 44
0.0000000001
 40
0.0
 40
0.0
 40
0.0
 40
0.0
 40
0.1379493374
 40
0.2669046225
 40
0.3865345207
 40
0.4437238645
 40
0.5000000688
 40
0.5562762816
 40
0.6134655876
 40
0.7330954213
 40
0.8620506152
 40
1.0
 40
1.0
 40
1.0
 40
1.0
 10
182.9645278414
 20
161.0211893855
 30
0.0
 10
182.6370653874
 20
160.6937269314
 30
0.0
 10
181.9763219298
 20
160.085764882
 30
0.0
 10
180.9144691391
 20
159.332049666
 30
0.0
 10
179.9702573215
 20
158.9038506312
 30
0.0
 10
179.2047805851
 20
158.7296715411
 30
0.0
 10
178.6344000465
 20
158.6866052264
 30
0.0
 10
178.0640197572
 20
158.7296721563
 30
0.0
 10
177.2985430525
 20
158.9038500256
 30
0.0
 10
176.3543323976
 20
159.3320503427
 30
0.0
 10
175.2924796173
 20
160.0857646686
 30
0.0
 10
174.6317363701
 20
160.693726819
 30
0.0
 10
174.3042738036
 20
161.0211893855
 30
0.0
  0
SPLINE
  5
51F
100
AcDbEntity
  8
BEZUGSACHSEN
100
AcDbSpline
 62
7
  6
CONTINUOUS
 70
0
 71
3
 72
15
 73
11
 74
0
 42
0.0000001
 43
0.0000001
 44
0.0000000001
 40
0.0
 40
0.0
 40
0.0
 40
0.0
 40
0.1250035726
 40
0.2500177617
 40
0.3750129322
 40
0.5000000785
 40
0.6249871996
 40
0.7499822809
 40
0.8749963857
 40
1.0
 40
1.0
 40
1.0
 40
1.0
 10
174.3042738036
 20
161.0211893855
 30
0.0
 10
173.630193216
 20
160.6841490917
 30
0.0
 10
172.2577205062
 20
160.0565057074
 30
0.0
 10
170.1200777651
 20
159.3078297493
 30
0.0
 10
167.906651891
 20
158.8161592559
 30
0.0
 10
165.6440184808
 20
158.6432476288
 30
0.0
 10
163.3813854984
 20
158.8161588537
 30
0.0
 10
161.1679610849
 20
159.307830337
 30
0.0
 10
159.0303189628
 20
160.056505536
 30
0.0
 10
157.6578465407
 20
160.6841489791
 30
0.0
 10
156.9837657279
 20
161.0211893855
 30
0.0
  0
SPLINE
  5
520
100
AcDbEntity
  8
KONSTRUKTIONSELEMENTE
100
AcDbSpline
 62
7
  6
CONTINUOUS
 70
0
 71
3
 72
10
 73
6
 74
0
 42
0.0000001
 43
0.0000001
 44
0.0000000001
 40
0.0
 40
0.0
 40
0.0
 40
0.0
 40
0.2500541975
 40
0.5001084613
 40
1.0
 40
1.0
 40
1.0
 40
1.0
 10
165.6440197649
 20
174.9506813098
 30
0.0
 10
164.9114387957
 20
174.9506813098
 30
0.0
 10
163.4454999688
 20
174.8881709666
 30
0.0
 10
160.5359787435
 20
174.5249268997
 30
0.0
 10
158.3908373885
 20
174.0171219487
 30
0.0
 10
156.9837657279
 20
173.6109353477
 30
0.0
  0
SPLINE
  5
521
100
AcDbEntity
  8
KONSTRUKTIONSELEMENTE
100
AcDbSpline
 62
7
  6
CONTINUOUS
 70
0
 71
3
 72
11
 73
7
 74
0
 42
0.0000001
 43
0.0000001
 44
0.0000000001
 40
0.0
 40
0.0
 40
0.0
 40
0.0
 40
0.261635542
 40
0.5144890695
 40
0.7595899798
 40
1.0
 40
1.0
 40
1.0
 40
1.0
 10
156.9837657279
 20
173.6109353477
 30
0.0
 10
156.6376311313
 20
173.8107762502
 30
0.0
 10
155.9412711926
 20
174.177783336
 30
0.0
 10
154.861515642
 20
174.6100737277
 30
0.0
 10
153.7639524954
 20
174.8866611471
 30
0.0
 10
153.020895737
 20
174.9506813158
 30
0.0
 10
152.6536386354
 20
174.9506813158
 30
0.0
  0
SPLINE
  5
522
100
AcDbEntity
  8
BEZUGSACHSEN
100
AcDbSpline
 62
7
  6
CONTINUOUS
 70
0
 71
3
 72
17
 73
13
 74
0
 42
0.0000001
 43
0.0000001
 44
0.0000000001
 40
0.0
 40
0.0
 40
0.0
 40
0.0
 40
0.1379493374
 40
0.2669046225
 40
0.3865345207
 40
0.4437238645
 40
0.5000000688
 40
0.5562762816
 40
0.6134655876
 40
0.7330954213
 40
0.8620506152
 40
1.0
 40
1.0
 40
1.0
 40
1.0
 10
156.9837657279
 20
161.0211893855
 30
0.0
 10
156.6563032738
 20
160.6937269314
 30
0.0
 10
155.9955598163
 20
160.085764882
 30
0.0
 10
154.9337070255
 20
159.332049666
 30
0.0
 10
153.989495208
 20
158.9038506312
 30
0.0
 10
153.2240184716
 20
158.7296715411
 30
0.0
 10
152.6536379329
 20
158.6866052264
 30
0.0
 10
152.0832576436
 20
158.7296721563
 30
0.0
 10
151.317780939
 20
158.9038500256
 30
0.0
 10
150.3735702841
 20
159.3320503427
 30
0.0
 10
149.3117175038
 20
160.0857646686
 30
0.0
 10
148.6509742566
 20
160.693726819
 30
0.0
 10
148.3235116901
 20
161.0211893855
 30
0.0
  0
SPLINE
  5
523
100
AcDbEntity
  8
0
100
AcDbSpline
 62
7
  6
CONTINUOUS
 70
0
 71
3
 72
11
 73
7
 74
0
 42
0.0000001
 43
0.0000001
 44
0.0000000001
 40
0.0
 40
0.0
 40
0.0
 40
0.0
 40
0.2764843604
 40
0.5392140509
 40
0.7819732146
 40
1.0
 40
1.0
 40
1.0
 40
1.0
 10
163.0354571192
 20
324.4624943839
 30
0.0
 10
162.0028632627
 20
324.5145815217
 30
0.0
 10
159.99149624
 20
324.6771634619
 30
0.0
 10
157.0960325755
 20
325.1017124493
 30
0.0
 10
154.4519616155
 20
325.6865845389
 30
0.0
 10
152.8037742615
 20
326.1996620945
 30
0.0
 10
152.0399549735
 20
326.4848006492
 30
0.0
  0
SPLINE
  5
524
100
AcDbEntity
  8
0
100
AcDbSpline
 62
7
  6
CONTINUOUS
 70
0
 71
3
 72
11
 73
7
 74
0
 42
0.0000001
 43
0.0000001
 44
0.0000000001
 40
0.0
 40
0.0
 40
0.0
 40
0.0
 40
0.218022384
 40
0.4607826241
 40
0.7235153349
 40
1.0
 40
1.0
 40
1.0
 40
1.0
 10
179.248084558
 20
326.4848006492
 30
0.0
 10
178.4840116659
 20
326.1995674225
 30
0.0
 10
176.8352448909
 20
325.6863416981
 30
0.0
 10
174.1902203395
 20
325.1013647916
 30
0.0
 10
171.2936963626
 20
324.6768222087
 30
0.0
 10
169.2815965712
 20
324.5143195284
 30
0.0
 10
168.2486337805
 20
324.4622953354
 30
0.0
  0
SPLINE
  5
525
100
AcDbEntity
  8
0
100
AcDbSpline
 62
7
  6
CONTINUOUS
 70
0
 71
3
 72
9
 73
5
 74
0
 42
0.0000001
 43
0.0000001
 44
0.0000000001
 40
0.0
 40
0.0
 40
0.0
 40
0.0
 40
0.5021548641
 40
1.0
 40
1.0
 40
1.0
 40
1.0
 10
181.2188613668
 20
327.853432551
 30
0.0
 10
180.9583776068
 20
327.5431468055
 30
0.0
 10
180.3538915004
 20
326.9910379556
 30
0.0
 10
179.6243716094
 20
326.6252709773
 30
0.0
 10
179.248084558
 20
326.4848006492
 30
0.0
  0
SPLINE
  5
526
100
AcDbEntity
  8
0
100
AcDbSpline
 62
7
  6
CONTINUOUS
 70
0
 71
3
 72
9
 73
5
 74
0
 42
0.0000001
 43
0.0000001
 44
0.0000000001
 40
0.0
 40
0.0
 40
0.0
 40
0.0
 40
0.4978451447
 40
1.0
 40
1.0
 40
1.0
 40
1.0
 10
152.0399549735
 20
326.4848006492
 30
0.0
 10
151.6636670411
 20
326.6252713062
 30
0.0
 10
150.9341455184
 20
326.9910393626
 30
0.0
 10
150.3296584758
 20
327.5431500927
 30
0.0
 10
150.0691745071
 20
327.8534368828
 30
0.0
  0
SPLINE
  5
527
100
AcDbEntity
  8
0
100
AcDbSpline
 62
7
  6
CONTINUOUS
 70
0
 71
3
 72
9
 73
5
 74
0
 42
0.0000001
 43
0.0000001
 44
0.0000000001
 40
0.0
 40
0.0
 40
0.0
 40
0.0
 40
0.2325563739
 40
1.0
 40
1.0
 40
1.0
 40
1.0
 10
184.4056824146
 20
335.7224769324
 30
0.0
 10
184.4031264319
 20
335.7155552999
 30
0.0
 10
184.392428546
 20
335.6856838329
 30
0.0
 10
184.3827275994
 20
335.6554629041
 30
0.0
 10
184.3756174528
 20
335.6321748942
 30
0.0
  0
SPLINE
  5
528
100
AcDbEntity
  8
0
100
AcDbSpline
 62
7
  6
CONTINUOUS
 70
0
 71
3
 72
9
 73
5
 74
0
 42
0.0000001
 43
0.0000001
 44
0.0000000001
 40
0.0
 40
0.0
 40
0.0
 40
0.0
 40
0.4596861321
 40
1.0
 40
1.0
 40
1.0
 40
1.0
 10
184.3756174528
 20
335.6321748942
 30
0.0
 10
184.3442608393
 20
335.5294719303
 30
0.0
 10
184.2881546245
 20
335.3024895025
 30
0.0
 10
184.2378044151
 20
335.0744328483
 30
0.0
 10
184.2111431746
 20
334.9510629875
 30
0.0
  0
SPLINE
  5
529
100
AcDbEntity
  8
0
100
AcDbSpline
 62
7
  6
CONTINUOUS
 70
0
 71
3
 72
9
 73
5
 74
0
 42
0.0000001
 43
0.0000001
 44
0.0000000001
 40
0.0
 40
0.0
 40
0.0
 40
0.0
 40
0.2470192285
 40
1.0
 40
1.0
 40
1.0
 40
1.0
 10
182.4527444344
 20
329.6035751693
 30
0.0
 10
182.3615285231
 20
329.4525805337
 30
0.0
 10
181.9834026605
 20
328.846861563
 30
0.0
 10
181.5646167658
 20
328.2652922645
 30
0.0
 10
181.2188693609
 20
327.8534412865
 30
0.0
  0
SPLINE
  5
52A
100
AcDbEntity
  8
0
100
AcDbSpline
 62
7
  6
CONTINUOUS
 70
0
 71
3
 72
9
 73
5
 74
0
 42
0.0000001
 43
0.0000001
 44
0.0000000001
 40
0.0
 40
0.0
 40
0.0
 40
0.0
 40
0.2525983873
 40
1.0
 40
1.0
 40
1.0
 40
1.0
 10
150.0691658611
 20
327.8534463304
 30
0.0
 10
149.9531681594
 20
327.9916220296
 30
0.0
 10
149.5078474703
 20
328.5503121216
 30
0.0
 10
149.1113118955
 20
329.1466650002
 30
0.0
 10
148.8352932983
 20
329.6035734506
 30
0.0
  0
SPLINE
  5
52B
100
AcDbEntity
  8
0
100
AcDbSpline
 62
7
  6
CONTINUOUS
 70
0
 71
3
 72
9
 73
5
 74
0
 42
0.0000001
 43
0.0000001
 44
0.0000000001
 40
0.0
 40
0.0
 40
0.0
 40
0.0
 40
0.2447062818
 40
1.0
 40
1.0
 40
1.0
 40
1.0
 10
148.8352932983
 20
329.6035734506
 30
0.0
 10
148.7679664234
 20
329.7150371341
 30
0.0
 10
148.5011833137
 20
330.1754582333
 30
0.0
 10
148.2739458733
 20
330.6593640227
 30
0.0
 10
148.1315385249
 20
331.0352158735
 30
0.0
  0
SPLINE
  5
52C
100
AcDbEntity
  8
0
100
AcDbSpline
 62
7
  6
CONTINUOUS
 70
0
 71
3
 72
14
 73
10
 74
0
 42
0.0000001
 43
0.0000001
 44
0.0000000001
 40
0.0
 40
0.0
 40
0.0
 40
0.0
 40
0.2579702802
 40
0.5194287618
 40
0.6497641962
 40
0.7774883933
 40
0.8981133283
 40
0.952684785
 40
1.0
 40
1.0
 40
1.0
 40
1.0
 10
148.1315385249
 20
331.0352158735
 30
0.0
 10
147.9866295412
 20
331.4176826835
 30
0.0
 10
147.7264596259
 20
332.1999662078
 30
0.0
 10
147.4639241869
 20
333.1965753088
 30
0.0
 10
147.2801548504
 20
333.9995133863
 30
0.0
 10
147.1544113625
 20
334.5865811686
 30
0.0
 10
147.0553809773
 20
335.0565546254
 30
0.0
 10
146.9761297375
 20
335.4003071626
 30
0.0
 10
146.9353386366
 20
335.5567027134
 30
0.0
 10
146.9135463514
 20
335.6284833474
 30
0.0
  0
SPLINE
  5
52D
100
AcDbEntity
  8
0
100
AcDbSpline
 62
7
  6
CONTINUOUS
 70
0
 71
3
 72
9
 73
5
 74
0
 42
0.0000001
 43
0.0000001
 44
0.0000000001
 40
0.0
 40
0.0
 40
0.0
 40
0.0
 40
0.267328585
 40
1.0
 40
1.0
 40
1.0
 40
1.0
 10
146.9135463514
 20
335.6284833474
 30
0.0
 10
146.9109825445
 20
335.6369281564
 30
0.0
 10
146.9012210974
 20
335.6684643013
 30
0.0
 10
146.8907361574
 20
335.6997863491
 30
0.0
 10
146.8823572078
 20
335.722476646
 30
0.0
  0
SPLINE
  5
52E
100
AcDbEntity
  8
BEZUGSACHSEN
100
AcDbSpline
 62
7
  6
CONTINUOUS
 70
0
 71
3
 72
28
 73
24
 74
0
 42
0.0000001
 43
0.0000001
 44
0.0000000001
 40
0.0
 40
0.0
 40
0.0
 40
0.0
 40
0.0967514727
 40
0.2015335142
 40
0.2650418241
 40
0.3346304303
 40
0.4093005906
 40
0.4880970085
 40
0.5701359802
 40
0.6121213045
 40
0.6546265118
 40
0.6975664561
 40
0.7408606383
 40
0.7844309189
 40
0.8281962764
 40
0.8720536088
 40
0.8939757619
 40
0.9158351631
 40
0.9375339992
 40
0.958859131
 40
0.9693390186
 40
0.9796844554
 40
1.0
 40
1.0
 40
1.0
 40
1.0
 10
137.4851830769
 20
317.3236292865
 30
0.0
 10
138.3052075512
 20
317.1096443776
 30
0.0
 10
140.0081910823
 20
316.643745116
 30
0.0
 10
142.2269443251
 20
315.9586992269
 30
0.0
 10
144.2002582479
 20
315.2891433191
 30
0.0
 10
145.9099778559
 20
314.6649467649
 30
0.0
 10
147.727599921
 20
313.9475476491
 30
0.0
 10
149.6238908572
 20
313.1346122018
 30
0.0
 10
151.233291627
 20
312.3812453376
 30
0.0
 10
152.5363254408
 20
311.7253846035
 30
0.0
 10
153.5225746278
 20
311.2024521837
 30
0.0
 10
154.5060122803
 20
310.6503684369
 30
0.0
 10
155.4815333214
 20
310.0659642503
 30
0.0
 10
156.4424078472
 20
309.444059117
 30
0.0
 10
157.3775729904
 20
308.775501685
 30
0.0
 10
158.1203068937
 20
308.1655535402
 30
0.0
 10
158.6686626594
 20
307.6275065826
 30
0.0
 10
159.0422353145
 20
307.1907299424
 30
0.0
 10
159.3519488616
 20
306.7117218735
 30
0.0
 10
159.5114553123
 20
306.2615428661
 30
0.0
 10
159.5271416753
 20
305.8896892138
 30
0.0
 10
159.4606999419
 20
305.5325997452
 30
0.0
 10
159.3251448802
 20
305.291419979
 30
0.0
 10
159.2162435696
 20
305.1506813098
 30
0.0
  0
LINE
  5
52F
100
AcDbEntity
  8
BEZUGSACHSEN
100
AcDbLine
 62
7
  6
CONTINUOUS
 10
137.4756068169
 20
317.3261727769
 11
137.4851830769
 21
317.3236292865
  0
SPLINE
  5
530
100
AcDbEntity
  8
BEZUGSACHSEN
100
AcDbSpline
 62
7
  6
CONTINUOUS
 70
0
 71
3
 72
28
 73
24
 74
0
 42
0.0000001
 43
0.0000001
 44
0.0000000001
 40
0.0
 40
0.0
 40
0.0
 40
0.0
 40
0.0202885345
 40
0.0306066832
 40
0.0410779503
 40
0.0623891596
 40
0.0840871659
 40
0.1059465015
 40
0.1278692639
 40
0.1717283521
 40
0.2154960275
 40
0.2590688116
 40
0.302365654
 40
0.3453083313
 40
0.3878162828
 40
0.4298044508
 40
0.5118490777
 40
0.5906509309
 40
0.6653266324
 40
0.7349206045
 40
0.7984341595
 40
0.9032272946
 40
1.0
 40
1.0
 40
1.0
 40
1.0
 10
172.0717959619
 20
305.1506813098
 30
0.0
 10
171.9630392442
 20
305.2912331142
 30
0.0
 10
171.8274658821
 20
305.5318409705
 30
0.0
 10
171.7610050643
 20
305.8883542511
 30
0.0
 10
171.7761333179
 20
306.2597800993
 30
0.0
 10
171.9352037599
 20
306.7099321896
 30
0.0
 10
172.2445156622
 20
307.1890442845
 30
0.0
 10
172.6179239094
 20
307.6259696106
 30
0.0
 10
173.1661590305
 20
308.1641704238
 30
0.0
 10
173.9088311128
 20
308.7742673468
 30
0.0
 10
174.8439852891
 20
309.4429432665
 30
0.0
 10
175.8048728641
 20
310.0649534374
 30
0.0
 10
176.7804300192
 20
310.6494360994
 30
0.0
 10
177.7639042965
 20
311.2016044333
 30
0.0
 10
178.7502043151
 20
311.7246010595
 30
0.0
 10
180.0533054789
 20
312.3805527354
 30
0.0
 10
181.662800563
 20
313.1340143858
 30
0.0
 10
183.5592153975
 20
313.9470399698
 30
0.0
 10
185.3769591398
 20
314.6645302623
 30
0.0
 10
187.08680537
 20
315.2888023525
 30
0.0
 10
189.0602948068
 20
315.9584443639
 30
0.0
 10
191.2793602403
 20
316.6436094667
 30
0.0
 10
192.9826190415
 20
317.1095882129
 30
0.0
 10
193.8028248086
 20
317.3236209763
 30
0.0
  0
LINE
  5
531
100
AcDbEntity
  8
BEZUGSACHSEN
100
AcDbLine
 62
7
  6
CONTINUOUS
 10
193.8028248086
 20
317.3236209763
 11
193.8124316026
 21
317.3261722447
  0
SPLINE
  5
532
100
AcDbEntity
  8
KONSTRUKTIONSELEMENTE
100
AcDbSpline
 62
7
  6
CONTINUOUS
 70
0
 71
3
 72
9
 73
5
 74
0
 42
0.0000001
 43
0.0000001
 44
0.0000000001
 40
0.0
 40
0.0
 40
0.0
 40
0.0
 40
0.2491345028
 40
1.0
 40
1.0
 40
1.0
 40
1.0
 10
296.5026215484
 20
174.7904431555
 30
0.0
 10
296.0797885605
 20
174.7369448476
 30
0.0
 10
294.3890093789
 20
174.470790592
 30
0.0
 10
292.7315630935
 20
174.0171407909
 30
0.0
 10
291.5129467637
 20
173.6109353477
 30
0.0
  0
SPLINE
  5
533
100
AcDbEntity
  8
KONSTRUKTIONSELEMENTE
100
AcDbSpline
 62
7
  6
CONTINUOUS
 70
0
 71
3
 72
9
 73
5
 74
0
 42
0.0000001
 43
0.0000001
 44
0.0000000001
 40
0.0
 40
0.0
 40
0.0
 40
0.0
 40
0.2512164057
 40
1.0
 40
1.0
 40
1.0
 40
1.0
 10
321.5129467637
 20
173.6109353477
 30
0.0
 10
321.1052966274
 20
173.7468187264
 30
0.0
 10
319.4733147067
 20
174.2580394995
 30
0.0
 10
317.793919415
 20
174.6296766353
 30
0.0
 10
316.5232690496
 20
174.7904435023
 30
0.0
  0
SPLINE
  5
534
100
AcDbEntity
  8
BEZUGSACHSEN
100
AcDbSpline
 62
7
  6
CONTINUOUS
 70
0
 71
3
 72
15
 73
11
 74
0
 42
0.0000001
 43
0.0000001
 44
0.0000000001
 40
0.0
 40
0.0
 40
0.0
 40
0.0
 40
0.12678678
 40
0.2523062995
 40
0.3765643151
 40
0.5000000768
 40
0.6234358136
 40
0.7476937433
 40
0.8732131774
 40
1.0
 40
1.0
 40
1.0
 40
1.0
 10
321.5129467637
 20
161.0211893855
 30
0.0
 10
320.931907842
 20
160.6857264077
 30
0.0
 10
319.7498304126
 20
160.0608871806
 30
0.0
 10
317.8989077667
 20
159.3110001011
 30
0.0
 10
315.979086522
 20
158.81712743
 30
0.0
 10
314.0129456562
 20
158.6429546335
 30
0.0
 10
312.0468051216
 20
158.8171270354
 30
0.0
 10
310.1269852127
 20
159.3110006785
 30
0.0
 10
308.2760630488
 20
160.0608870109
 30
0.0
 10
307.0939858803
 20
160.6857262951
 30
0.0
 10
306.5129467637
 20
161.0211893855
 30
0.0
  0
SPLINE
  5
535
100
AcDbEntity
  8
KONSTRUKTIONSELEMENTE
100
AcDbSpline
 62
7
  6
CONTINUOUS
 70
0
 71
3
 72
10
 73
6
 74
0
 42
0.0000001
 43
0.0000001
 44
0.0000000001
 40
0.0
 40
0.0
 40
0.0
 40
0.0
 40
0.2489289318
 40
0.4984050404
 40
1.0
 40
1.0
 40
1.0
 40
1.0
 10
314.0129466362
 20
174.9506813158
 30
0.0
 10
313.3783283679
 20
174.9506813158
 30
0.0
 10
312.1068080654
 20
174.8880030367
 30
0.0
 10
309.5807757902
 20
174.523456897
 30
0.0
 10
307.7260886909
 20
174.0153159901
 30
0.0
 10
306.5129467637
 20
173.6109353477
 30
0.0
  0
SPLINE
  5
536
100
AcDbEntity
  8
KONSTRUKTIONSELEMENTE
100
AcDbSpline
 62
7
  6
CONTINUOUS
 70
0
 71
3
 72
10
 73
6
 74
0
 42
0.0000001
 43
0.0000001
 44
0.0000000001
 40
0.0
 40
0.0
 40
0.0
 40
0.0
 40
0.5015950115
 40
0.7510711018
 40
1.0
 40
1.0
 40
1.0
 40
1.0
 10
306.5129467637
 20
173.6109353477
 30
0.0
 10
305.2998046701
 20
174.0153160455
 30
0.0
 10
303.4451174189
 20
174.5234569771
 30
0.0
 10
300.9190850506
 20
174.8880030776
 30
0.0
 10
299.647564837
 20
174.9506813161
 30
0.0
 10
299.0129466331
 20
174.950681316
 30
0.0
  0
SPLINE
  5
537
100
AcDbEntity
  8
BEZUGSACHSEN
100
AcDbSpline
 62
7
  6
CONTINUOUS
 70
0
 71
3
 72
15
 73
11
 74
0
 42
0.0000001
 43
0.0000001
 44
0.0000000001
 40
0.0
 40
0.0
 40
0.0
 40
0.0
 40
0.12678678
 40
0.2523062995
 40
0.3765643151
 40
0.5000000768
 40
0.6234358136
 40
0.7476937433
 40
0.8732131774
 40
1.0
 40
1.0
 40
1.0
 40
1.0
 10
306.5129467637
 20
161.0211893855
 30
0.0
 10
305.931907842
 20
160.6857264077
 30
0.0
 10
304.7498304126
 20
160.0608871806
 30
0.0
 10
302.8989077667
 20
159.3110001011
 30
0.0
 10
300.979086522
 20
158.81712743
 30
0.0
 10
299.0129456562
 20
158.6429546335
 30
0.0
 10
297.0468051216
 20
158.8171270354
 30
0.0
 10
295.1269852127
 20
159.3110006785
 30
0.0
 10
293.2760630488
 20
160.0608870109
 30
0.0
 10
292.0939858803
 20
160.6857262951
 30
0.0
 10
291.5129467637
 20
161.0211893855
 30
0.0
  0
LINE
  5
538
100
AcDbEntity
  8
0
100
AcDbLine
 62
7
  6
CONTINUOUS
 10
283.3938940619
 20
312.0070648841
 11
283.4281302647
 21
311.8953621764
  0
LINE
  5
539
100
AcDbEntity
  8
0
100
AcDbLine
 62
7
  6
CONTINUOUS
 10
329.6319994654
 20
312.0070648841
 11
329.5977632626
 21
311.8953621764
  0
LINE
  5
53A
100
AcDbEntity
  8
0
100
AcDbLine
 62
7
  6
CONTINUOUS
 10
282.6034560544
 20
317.1081282426
 11
282.9870875597
 21
315.9166386057
  0
LINE
  5
53B
100
AcDbEntity
  8
0
100
AcDbLine
 62
7
  6
CONTINUOUS
 10
282.7488371287
 20
315.9166386057
 11
282.7803944684
 21
315.8171858845
  0
LINE
  5
53C
100
AcDbEntity
  8
0
100
AcDbLine
 62
7
  6
CONTINUOUS
 10
282.7803944684
 20
315.8171858845
 11
282.9379250911
 21
315.3208939959
  0
SPLINE
  5
53D
100
AcDbEntity
  8
0
100
AcDbSpline
 62
7
  6
CONTINUOUS
 70
0
 71
3
 72
8
 73
4
 74
0
 42
0.0000001
 43
0.0000001
 44
0.0000000001
 40
0.0
 40
0.0
 40
0.0
 40
0.0
 40
1.0
 40
1.0
 40
1.0
 40
1.0
 10
283.1791700477
 20
315.3208939959
 30
0.0
 10
283.4995356487
 20
314.3277510308
 30
0.0
 10
283.8205958332
 20
313.3348317727
 30
0.0
 10
284.1424512833
 20
312.3421706338
 30
0.0
  0
LINE
  5
53E
100
AcDbEntity
  8
0
100
AcDbLine
 62
7
  6
CONTINUOUS
 10
281.7484812099
 20
317.3909016524
 11
281.7516202409
 21
317.3804454202
  0
LINE
  5
53F
100
AcDbEntity
  8
0
100
AcDbLine
 62
7
  6
CONTINUOUS
 10
281.8042389359
 20
317.2066182652
 11
281.8115753174
 21
317.1825962402
  0
LINE
  5
540
100
AcDbEntity
  8
0
100
AcDbLine
 62
7
  6
CONTINUOUS
 10
282.2525688242
 20
316.5123836328
 11
282.3451243248
 21
316.2145109106
  0
LINE
  5
541
100
AcDbEntity
  8
0
100
AcDbLine
 62
7
  6
CONTINUOUS
 10
282.5300849165
 20
315.023021691
 11
282.5605929106
 21
314.9236437087
  0
LINE
  5
542
100
AcDbEntity
  8
0
100
AcDbLine
 62
7
  6
CONTINUOUS
 10
282.5605929106
 20
314.9236437087
 11
282.7129779355
 21
314.4272770811
  0
SPLINE
  5
543
100
AcDbEntity
  8
0
100
AcDbSpline
 62
7
  6
CONTINUOUS
 70
0
 71
3
 72
9
 73
5
 74
0
 42
0.0000001
 43
0.0000001
 44
0.0000000001
 40
0.0
 40
0.0
 40
0.0
 40
0.0
 40
0.242853169
 40
1.0
 40
1.0
 40
1.0
 40
1.0
 10
282.753324055
 20
314.4272770811
 30
0.0
 10
282.7629569913
 20
314.414724382
 30
0.0
 10
282.803292156
 20
314.3635512977
 30
0.0
 10
282.84620467
 20
314.314425276
 30
0.0
 10
282.8798423137
 20
314.2783409287
 30
0.0
  0
LINE
  5
544
100
AcDbEntity
  8
0
100
AcDbLine
 62
7
  6
CONTINUOUS
 10
283.2439484343
 20
313.3847238053
 11
283.4296146939
 21
312.7889791955
  0
LINE
  5
545
100
AcDbEntity
  8
0
100
AcDbLine
 62
7
  6
CONTINUOUS
 10
283.4296146939
 20
312.7889791955
 11
283.5032453178
 21
312.4911068906
  0
LINE
  5
546
100
AcDbEntity
  8
0
100
AcDbLine
 62
7
  6
CONTINUOUS
 10
283.7443526529
 20
311.0693899515
 11
283.7166117506
 21
311.1506604446
  0
LINE
  5
547
100
AcDbEntity
  8
0
100
AcDbLine
 62
7
  6
CONTINUOUS
 10
330.7733247032
 20
316.5123836328
 11
330.7424587253
 21
316.4130424853
  0
LINE
  5
548
100
AcDbEntity
  8
0
100
AcDbLine
 62
7
  6
CONTINUOUS
 10
330.7424587253
 20
316.4130424853
 11
330.7116068929
 21
316.3137515771
  0
LINE
  5
549
100
AcDbEntity
  8
0
100
AcDbLine
 62
7
  6
CONTINUOUS
 10
330.7116068929
 20
316.3137515771
 11
330.6807692025
 21
316.2145109106
  0
LINE
  5
54A
100
AcDbEntity
  8
0
100
AcDbLine
 62
7
  6
CONTINUOUS
 10
330.6807692025
 20
316.2145109106
 11
330.655612506
 21
316.1148656745
  0
LINE
  5
54B
100
AcDbEntity
  8
0
100
AcDbLine
 62
7
  6
CONTINUOUS
 10
330.655612506
 20
316.1148656745
 11
330.6304409912
 21
316.0153620371
  0
LINE
  5
54C
100
AcDbEntity
  8
0
100
AcDbLine
 62
7
  6
CONTINUOUS
 10
330.6304409912
 20
316.0153620371
 11
330.5800532823
 21
315.8167796041
  0
LINE
  5
54D
100
AcDbEntity
  8
0
100
AcDbLine
 62
7
  6
CONTINUOUS
 10
330.5800532823
 20
315.8167796041
 11
330.5296062854
 21
315.6187663008
  0
LINE
  5
54E
100
AcDbEntity
  8
0
100
AcDbLine
 62
7
  6
CONTINUOUS
 10
330.5296062854
 20
315.6187663008
 11
330.509520782
 21
315.5191867388
  0
LINE
  5
54F
100
AcDbEntity
  8
0
100
AcDbLine
 62
7
  6
CONTINUOUS
 10
330.509520782
 20
315.5191867388
 11
330.4892435241
 21
315.4198953018
  0
LINE
  5
550
100
AcDbEntity
  8
0
100
AcDbLine
 62
7
  6
CONTINUOUS
 10
330.4892435241
 20
315.4198953018
 11
330.4687760278
 21
315.3208939959
  0
LINE
  5
551
100
AcDbEntity
  8
0
100
AcDbLine
 62
7
  6
CONTINUOUS
 10
330.4958086108
 20
315.023021691
 11
330.3129155918
 21
314.4272770811
  0
LINE
  5
552
100
AcDbEntity
  8
0
100
AcDbLine
 62
7
  6
CONTINUOUS
 10
329.781945093
 20
313.3847238053
 11
329.5962788334
 21
312.7889791955
  0
LINE
  5
553
100
AcDbEntity
  8
0
100
AcDbLine
 62
7
  6
CONTINUOUS
 10
329.5556809593
 20
311.8819409721
 11
329.5601500376
 21
311.8953621764
  0
LINE
  5
554
100
AcDbEntity
  8
0
100
AcDbLine
 62
7
  6
CONTINUOUS
 10
329.06482179
 20
311.1506813098
 11
329.297458429
 21
311.8953621764
  0
SPLINE
  5
555
100
AcDbEntity
  8
0
100
AcDbSpline
 62
7
  6
CONTINUOUS
 70
0
 71
3
 72
8
 73
4
 74
0
 42
0.0000001
 43
0.0000001
 44
0.0000000001
 40
0.0
 40
0.0
 40
0.0
 40
0.0
 40
1.0
 40
1.0
 40
1.0
 40
1.0
 10
330.4396639102
 20
315.6187663008
 30
0.0
 10
330.508152136
 20
315.8172855784
 30
0.0
 10
330.5764577557
 20
316.0158679423
 30
0.0
 10
330.6445863971
 20
316.2145109106
 30
0.0
  0
LINE
  5
556
100
AcDbEntity
  8
0
100
AcDbLine
 62
7
  6
CONTINUOUS
 10
330.6445863971
 20
316.2145109106
 11
330.7373660848
 21
316.5123836328
  0
LINE
  5
557
100
AcDbEntity
  8
0
100
AcDbLine
 62
7
  6
CONTINUOUS
 10
330.7373660848
 20
316.5123836328
 11
330.9041533656
 21
317.1081282426
  0
SPLINE
  5
558
100
AcDbEntity
  8
0
100
AcDbSpline
 62
7
  6
CONTINUOUS
 70
0
 71
3
 72
9
 73
5
 74
0
 42
0.0000001
 43
0.0000001
 44
0.0000000001
 40
0.0
 40
0.0
 40
0.0
 40
0.0
 40
0.2435723473
 40
1.0
 40
1.0
 40
1.0
 40
1.0
 10
331.0124698526
 20
318.0017451574
 30
0.0
 10
331.0043664827
 20
318.0142799442
 30
0.0
 10
330.9703996937
 20
318.0652893696
 30
0.0
 10
330.9337342235
 20
318.1144875202
 30
0.0
 10
330.9047745996
 20
318.1506813098
 30
0.0
  0
LINE
  5
559
100
AcDbEntity
  8
0
100
AcDbLine
 62
7
  6
CONTINUOUS
 10
282.6062155398
 20
315.6187663008
 11
282.4405244653
 21
316.2145109106
  0
LINE
  5
55A
100
AcDbEntity
  8
0
100
AcDbLine
 62
7
  6
CONTINUOUS
 10
282.4405244653
 20
316.2145109106
 11
282.3473783847
 21
316.5123836328
  0
SPLINE
  5
55B
100
AcDbEntity
  8
0
100
AcDbSpline
 62
7
  6
CONTINUOUS
 70
0
 71
3
 72
8
 73
4
 74
0
 42
0.0000001
 43
0.0000001
 44
0.0000000001
 40
0.0
 40
0.0
 40
0.0
 40
0.0
 40
1.0
 40
1.0
 40
1.0
 40
1.0
 10
282.3473783847
 20
316.5123836328
 30
0.0
 10
282.2784409559
 20
316.7109016817
 30
0.0
 10
282.2096884987
 20
316.9094840546
 30
0.0
 10
282.1411153887
 20
317.1081282426
 30
0.0
  0
SPLINE
  5
55C
100
AcDbEntity
  8
0
100
AcDbSpline
 62
7
  6
CONTINUOUS
 70
0
 71
3
 72
9
 73
5
 74
0
 42
0.0000001
 43
0.0000001
 44
0.0000000001
 40
0.0
 40
0.0
 40
0.0
 40
0.0
 40
0.2594093265
 40
1.0
 40
1.0
 40
1.0
 40
1.0
 10
281.7278078638
 20
318.0017451574
 30
0.0
 10
281.7158078117
 20
318.0139783918
 30
0.0
 10
281.6701727922
 20
318.0617403605
 30
0.0
 10
281.6271165803
 20
318.111998918
 30
0.0
 10
281.5971649628
 20
318.1506813098
 30
0.0
  0
LINE
  5
55D
100
AcDbEntity
  8
0
100
AcDbLine
 62
7
  6
CONTINUOUS
 10
281.9040997023
 20
316.9077450646
 11
281.8891200545
 21
316.9591920902
  0
LINE
  5
55E
100
AcDbEntity
  8
0
100
AcDbLine
 62
7
  6
CONTINUOUS
 10
281.8189173827
 20
317.2251300272
 11
281.8107741154
 21
317.2570643951
  0
LINE
  5
55F
100
AcDbEntity
  8
0
100
AcDbLine
 62
7
  6
CONTINUOUS
 10
329.3460796392
 20
312.7889791955
 11
329.2108315489
 21
312.3421706338
  0
LINE
  5
560
100
AcDbEntity
  8
0
100
AcDbLine
 62
7
  6
CONTINUOUS
 10
330.1772886546
 20
316.9591920902
 11
330.1739565269
 21
316.9431066106
  0
LINE
  5
561
100
AcDbEntity
  8
0
100
AcDbLine
 62
7
  6
CONTINUOUS
 10
330.1739565269
 20
316.9431066106
 11
330.1540431735
 21
316.8472202521
  0
LINE
  5
562
100
AcDbEntity
  8
0
100
AcDbLine
 62
7
  6
CONTINUOUS
 10
330.0838241834
 20
316.5123836328
 11
329.990191284
 21
316.2145109106
  0
SPLINE
  5
563
100
AcDbEntity
  8
BEZUGSACHSEN
100
AcDbSpline
 62
7
  6
CONTINUOUS
 70
0
 71
3
 72
22
 73
18
 74
0
 42
0.0000001
 43
0.0000001
 44
0.0000000001
 40
0.0
 40
0.0
 40
0.0
 40
0.0
 40
0.167358683
 40
0.3240742871
 40
0.3961360396
 40
0.4631847659
 40
0.5249676472
 40
0.5815605132
 40
0.6333969377
 40
0.6812883523
 40
0.7264223406
 40
0.7703509529
 40
0.8150470415
 40
0.8633727952
 40
0.9216677496
 40
0.9599074436
 40
1.0
 40
1.0
 40
1.0
 40
1.0
 10
305.9210705074
 20
317.3236292865
 30
0.0
 10
304.4046092952
 20
317.3110984983
 30
0.0
 10
301.4681895663
 20
317.1961569728
 30
0.0
 10
297.8952036252
 20
316.8056016574
 30
0.0
 10
295.258710852
 20
316.3141411325
 30
0.0
 10
293.4915084971
 20
315.871575135
 30
0.0
 10
291.8951710238
 20
315.3410764607
 30
0.0
 10
290.4810510883
 20
314.718353793
 30
0.0
 10
289.2562982381
 20
313.9990470958
 30
0.0
 10
288.2251364292
 20
313.1785044909
 30
0.0
 10
287.3903953278
 20
312.2515726616
 30
0.0
 10
286.7545315453
 20
311.211179292
 30
0.0
 10
286.3205903633
 20
310.0401791827
 30
0.0
 10
286.0999866909
 20
308.6787816948
 30
0.0
 10
286.1480849648
 20
307.3568035517
 30
0.0
 10
286.3973060845
 20
306.1412569279
 30
0.0
 10
286.6522610835
 20
305.4725259203
 30
0.0
 10
286.8207860006
 20
305.1506813098
 30
0.0
  0
SPLINE
  5
564
100
AcDbEntity
  8
0
100
AcDbSpline
 62
7
  6
CONTINUOUS
 70
0
 71
3
 72
9
 73
5
 74
0
 42
0.0000001
 43
0.0000001
 44
0.0000000001
 40
0.0
 40
0.0
 40
0.0
 40
0.0
 40
0.2461293992
 40
1.0
 40
1.0
 40
1.0
 40
1.0
 10
329.7545636635
 20
315.6187663008
 30
0.0
 10
329.5943852618
 20
315.2999309659
 30
0.0
 10
328.9200756448
 20
314.016532525
 30
0.0
 10
328.1475802215
 20
312.7843287113
 30
0.0
 10
327.5118831853
 20
311.8953621764
 30
0.0
  0
LINE
  5
565
100
AcDbEntity
  8
0
100
AcDbLine
 62
7
  6
CONTINUOUS
 10
327.5118831853
 20
311.8953621764
 11
327.2577859957
 21
311.1506813098
  0
LINE
  5
566
100
AcDbEntity
  8
0
100
AcDbLine
 62
7
  6
CONTINUOUS
 10
282.6693358964
 20
317.1081282426
 11
282.6255739386
 21
317.2064184797
  0
SPLINE
  5
567
100
AcDbEntity
  8
0
100
AcDbSpline
 62
7
  6
CONTINUOUS
 70
0
 71
3
 72
9
 73
5
 74
0
 42
0.0000001
 43
0.0000001
 44
0.0000000001
 40
0.0
 40
0.0
 40
0.0
 40
0.0
 40
0.2595881412
 40
1.0
 40
1.0
 40
1.0
 40
1.0
 10
282.2534999495
 20
318.0017451574
 30
0.0
 10
282.2413600032
 20
318.0139749258
 30
0.0
 10
282.1952213407
 20
318.0617014462
 30
0.0
 10
282.1516760514
 20
318.1119692144
 30
0.0
 10
282.1213918325
 20
318.1506813098
 30
0.0
  0
LINE
  5
568
100
AcDbEntity
  8
0
100
AcDbLine
 62
7
  6
CONTINUOUS
 10
284.3094776592
 20
311.5974898193
 11
284.3011817081
 21
311.6717947558
  0
LINE
  5
569
100
AcDbEntity
  8
0
100
AcDbLine
 62
7
  6
CONTINUOUS
 10
284.2856482393
 20
311.8207309084
 11
284.2784122882
 21
311.8953621764
  0
SPLINE
  5
56A
100
AcDbEntity
  8
0
100
AcDbSpline
 62
7
  6
CONTINUOUS
 70
0
 71
3
 72
8
 73
4
 74
0
 42
0.0000001
 43
0.0000001
 44
0.0000000001
 40
0.0
 40
0.0
 40
0.0
 40
0.0
 40
1.0
 40
1.0
 40
1.0
 40
1.0
 10
284.7737356679
 20
312.640043043
 30
0.0
 10
284.4798859034
 20
313.5333982916
 30
0.0
 10
284.186865836
 20
314.4270267803
 30
0.0
 10
283.8945771341
 20
315.3208939959
 30
0.0
  0
LINE
  5
56B
100
AcDbEntity
  8
0
100
AcDbLine
 62
7
  6
CONTINUOUS
 10
284.3534380418
 20
315.3208939959
 11
284.1528794255
 21
315.9166386057
  0
LINE
  5
56C
100
AcDbEntity
  8
0
100
AcDbLine
 62
7
  6
CONTINUOUS
 10
283.6998915184
 20
315.9166386057
 11
283.690583073
 21
315.9451408367
  0
LINE
  5
56D
100
AcDbEntity
  8
0
100
AcDbLine
 62
7
  6
CONTINUOUS
 10
283.690583073
 20
315.9451408367
 11
283.3112144037
 21
317.1081282426
  0
LINE
  5
56E
100
AcDbEntity
  8
0
100
AcDbLine
 62
7
  6
CONTINUOUS
 10
331.191475046
 20
317.1081282426
 11
331.1609691556
 21
317.0085429363
  0
LINE
  5
56F
100
AcDbEntity
  8
0
100
AcDbLine
 62
7
  6
CONTINUOUS
 10
331.1609691556
 20
317.0085429363
 11
331.0087205704
 21
316.5123836328
  0
LINE
  5
570
100
AcDbEntity
  8
0
100
AcDbLine
 62
7
  6
CONTINUOUS
 10
285.6686276891
 20
311.1506813098
 11
285.4666539724
 21
311.7464259718
  0
SPLINE
  5
571
100
AcDbEntity
  8
BEZUGSACHSEN
100
AcDbSpline
 62
7
  6
CONTINUOUS
 70
0
 71
3
 72
22
 73
18
 74
0
 42
0.0000001
 43
0.0000001
 44
0.0000000001
 40
0.0
 40
0.0
 40
0.0
 40
0.0
 40
0.167358683
 40
0.3240742871
 40
0.3961360396
 40
0.4631847659
 40
0.5249676472
 40
0.5815605132
 40
0.6333969377
 40
0.6812883523
 40
0.7264223406
 40
0.7703509529
 40
0.8150470415
 40
0.8633727952
 40
0.9216677496
 40
0.9599074436
 40
1.0
 40
1.0
 40
1.0
 40
1.0
 10
307.1048230199
 20
317.3236292865
 30
0.0
 10
308.6212842322
 20
317.3110984983
 30
0.0
 10
311.557703961
 20
317.1961569728
 30
0.0
 10
315.1306899021
 20
316.8056016574
 30
0.0
 10
317.7671826754
 20
316.3141411325
 30
0.0
 10
319.5343850303
 20
315.871575135
 30
0.0
 10
321.1307225035
 20
315.3410764607
 30
0.0
 10
322.544842439
 20
314.718353793
 30
0.0
 10
323.7695952892
 20
313.9990470958
 30
0.0
 10
324.8007570981
 20
313.1785044909
 30
0.0
 10
325.6354981995
 20
312.2515726616
 30
0.0
 10
326.271361982
 20
311.211179292
 30
0.0
 10
326.705303164
 20
310.0401791827
 30
0.0
 10
326.9259068365
 20
308.6787816948
 30
0.0
 10
326.8778085625
 20
307.3568035517
 30
0.0
 10
326.6285874428
 20
306.1412569279
 30
0.0
 10
326.3736324438
 20
305.4725259203
 30
0.0
 10
326.2051075267
 20
305.1506813098
 30
0.0
  0
SPLINE
  5
572
100
AcDbEntity
  8
0
100
AcDbSpline
 62
7
  6
CONTINUOUS
 70
0
 71
3
 72
8
 73
4
 74
0
 42
0.0000001
 43
0.0000001
 44
0.0000000001
 40
0.0
 40
0.0
 40
0.0
 40
0.0
 40
1.0
 40
1.0
 40
1.0
 40
1.0
 10
284.2304866987
 20
312.640043043
 30
0.0
 10
283.9373904306
 20
313.533414168
 30
0.0
 10
283.6450747596
 20
314.4270416837
 30
0.0
 10
283.3534492576
 20
315.3208939959
 30
0.0
  0
LINE
  5
573
100
AcDbEntity
  8
0
100
AcDbLine
 62
7
  6
CONTINUOUS
 10
329.8689646895
 20
312.7889791955
 11
329.7336918004
 21
312.3421706338
  0
LINE
  5
574
100
AcDbEntity
  8
0
100
AcDbLine
 62
7
  6
CONTINUOUS
 10
283.8031995083
 20
315.3208939959
 11
283.6032950341
 21
315.9166386057
  0
LINE
  5
575
100
AcDbEntity
  8
0
100
AcDbLine
 62
7
  6
CONTINUOUS
 10
283.1591956777
 20
315.9166386057
 11
282.7713437464
 21
317.1081282426
  0
LINE
  5
576
100
AcDbEntity
  8
0
100
AcDbLine
 62
7
  6
CONTINUOUS
 10
329.2331152696
 20
311.0910367575
 11
329.225335652
 21
311.069177256
  0
LINE
  5
577
100
AcDbEntity
  8
0
100
AcDbLine
 62
7
  6
CONTINUOUS
 10
328.9402431028
 20
310.2788948775
 11
328.9322597315
 21
310.2570642908
  0
SPLINE
  5
578
100
AcDbEntity
  8
0
100
AcDbSpline
 62
7
  6
CONTINUOUS
 70
0
 71
3
 72
9
 73
5
 74
0
 42
0.0000001
 43
0.0000001
 44
0.0000000001
 40
0.0
 40
0.0
 40
0.0
 40
0.0
 40
0.2414883781
 40
1.0
 40
1.0
 40
1.0
 40
1.0
 10
330.2527838629
 20
318.1506813098
 30
0.0
 10
330.2303486989
 20
318.1380693081
 30
0.0
 10
330.1370664389
 20
318.0865177574
 30
0.0
 10
330.042345103
 20
318.0375845206
 30
0.0
 10
329.9698838493
 20
318.0017451574
 30
0.0
  0
LINE
  5
579
100
AcDbEntity
  8
0
100
AcDbLine
 62
7
  6
CONTINUOUS
 10
285.1153575643
 20
311.1506813098
 11
284.9141496421
 21
311.7464259718
  0
LINE
  5
57A
100
AcDbEntity
  8
0
100
AcDbLine
 62
7
  6
CONTINUOUS
 10
328.0663257934
 20
311.8953621764
 11
327.8132544811
 21
311.1506813098
  0
LINE
  5
57B
100
AcDbEntity
  8
0
100
AcDbLine
 62
7
  6
CONTINUOUS
 10
330.6137168786
 20
316.5123836328
 11
330.5201678423
 21
316.2145109106
  0
LINE
  5
57C
100
AcDbEntity
  8
0
100
AcDbLine
 62
7
  6
CONTINUOUS
 10
283.6532064841
 20
312.3421706338
 11
283.5357552017
 21
312.7889791955
  0
LINE
  5
57D
100
AcDbEntity
  8
0
100
AcDbLine
 62
7
  6
CONTINUOUS
 10
283.5357552017
 20
312.7889791955
 11
283.3487379396
 21
313.3847238053
  0
SPLINE
  5
57E
100
AcDbEntity
  8
0
100
AcDbSpline
 62
7
  6
CONTINUOUS
 70
0
 71
3
 72
9
 73
5
 74
0
 42
0.0000001
 43
0.0000001
 44
0.0000000001
 40
0.0
 40
0.0
 40
0.0
 40
0.0
 40
0.2415831689
 40
1.0
 40
1.0
 40
1.0
 40
1.0
 10
330.7883545607
 20
318.1506813098
 30
0.0
 10
330.7662632714
 20
318.1380729325
 30
0.0
 10
330.6744406383
 20
318.0865471687
 30
0.0
 10
330.5811771102
 20
318.0376030828
 30
0.0
 10
330.5098277017
 20
318.0017451574
 30
0.0
  0
ENDSEC
  0
SECTION
  2
OBJECTS
  0
DICTIONARY
  5
C
100
AcDbDictionary
280
0
281
1
  3
ACAD_GROUP
350
D
  3
ACAD_MLINESTYLE
350
17
  3
ACAD_LAYOUT
350
1A
  3
ACAD_PLOTSETTINGS
350
19
  3
ACAD_PLOTSTYLENAME
350
E
  0
DICTIONARY
  5
D
102
{ACAD_REACTORS
330
C
102
}
100
AcDbDictionary
280
0
281
1
  0
ACDBDICTIONARYWDFLT
  5
E
102
{ACAD_REACTORS
330
C
102
}
100
AcDbDictionary
281
1
  3
Normal
350
F
100
AcDbDictionaryWithDefault
340
F
  0
DICTIONARY
  5
17
102
{ACAD_REACTORS
330
C
102
}
100
AcDbDictionary
280
0
281
1
  3
Standard
350
18
  0
DICTIONARY
  5
19
102
{ACAD_REACTORS
330
C
102
}
100
AcDbDictionary
281
1
  0
DICTIONARY
  5
1A
102
{ACAD_REACTORS
330
C
102
}
100
AcDbDictionary
281
1
  3
Model
350
57F
  3
Layout1
350
580
  0
ACDBPLACEHOLDER
  5
F
102
{ACAD_REACTORS
330
E
102
}
  0
MLINESTYLE
  5
18
102
{ACAD_REACTORS
330
17
102
}
100
AcDbMlineStyle
  2
STANDARD
 70
0
  3

 62
256
 51
90.0
 52
90.0
 71
2
 49
0.5
 62
256
  6
BYLAYER
 49
-0.5
 62
256
  6
BYLAYER
  0
LAYOUT
  5
57F
102
{ACAD_REACTORS
330
1A
102
}
100
AcDbPlotSettings
  1

  2
none_device
  4
ISO_A2_(594.00_x_420.00_MM)
  6

 40
0.0
 41
0.0
 42
0.0
 43
0.0
 44
594.0
 45
420.0
 46
0.0
 47
0.0
 48
0.0
 49
0.0
140
0.0
141
0.0
142
1.0
143
1.0
 70
1024
 72
1
 73
0
 74
0
  7

 75
0
147
1.0
148
0.0
149
0.0
100
AcDbLayout
  1
Model
 70
0
 71
0
 10
0.0
 20
0.0
 11
594.0
 21
420.0
 12
0.0
 22
0.0
 32
0.0
 14
0.0
 24
0.0
 34
0.0
 15
0.0
 25
0.0
 35
0.0
146
0.0
 13
0.0
 23
0.0
 33
0.0
 16
1.0
 26
0.0
 36
0.0
 17
0.0
 27
1.0
 37
0.0
 76
0
330
20E
345
0
346
0
  0
LAYOUT
  5
580
102
{ACAD_REACTORS
330
1A
102
}
100
AcDbPlotSettings
  1

  2
none_device
  4
ISO_A2_(594.00_x_420.00_MM)
  6

 40
0.0
 41
0.0
 42
0.0
 43
0.0
 44
594.0
 45
420.0
 46
0.0
 47
0.0
 48
0.0
 49
0.0
140
0.0
141
0.0
142
1.0
143
1.0
 70
0
 72
1
 73
0
 74
0
  7

 75
0
147
1.0
148
0.0
149
0.0
100
AcDbLayout
  1
Layout1
 70
0
 71
1
 10
0.0
 20
0.0
 11
594.0
 21
420.0
 12
0.0
 22
0.0
 32
0.0
 14
0.0
 24
0.0
 34
0.0
 15
0.0
 25
0.0
 35
0.0
146
0.0
 13
0.0
 23
0.0
 33
0.0
 16
1.0
 26
0.0
 36
0.0
 17
0.0
 27
1.0
 37
0.0
 76
0
330
20F
345
0
346
0
  0
ENDSEC
  0
EOF
