999
DXF file: VRS-F_1_5t_M16_MAX_8600272_M33721-P-3.dxf
999
Pro/ENGINEER 2011490 by Parametric Technology Corporation
  0
SECTION
  2
HEADER
  9
$ACADVER
  1
AC1015
  9
$DWGCODEPAGE
  3
ANSI_1252
  9
$EXTMAX
 10
420.0
 20
297.0
 30
0.0
  9
$EXTMIN
 10
0.0
 20
0.0
 30
0.0
  9
$LIMMIN
 10
0.0
 20
0.0
  9
$LIMMAX
 10
420.0
 20
297.0
  9
$VIEWCTR
 10
210.0
 20
148.5
  9
$VIEWSIZE
 40
297.0
  9
$CLAYER
  8
0
  9
$LTSCALE
 40
23.1
  9
$CELTYPE
  6
BYLAYER
  9
$DIMSCALE
 40
1.0
  9
$DIMASZ
 40
3.5
  9
$DIMEXO
 40
2.625
  9
$DIMDLI
 40
15.96
  9
$DIMEXE
 40
7.56
  9
$DIMCEN
 40
3.78
  9
$DIMLFAC
 40
1.0
  9
$DIMBLK
  1
_FILLED
  9
$DIMTXT
 40
3.5
  9
$DIMTOL
 70
1
  9
$DIMLIM
 70
0
  9
$DIMTFAC
 40
1.0
  9
$DIMTP
 40
0.005
  9
$DIMTM
 40
0.005
  9
$PDMODE
 70
3
  9
$PDSIZE
 40
0.3125
  9
$HANDSEED
  5
505
  9
$TILEMODE
 70
1
  9
$MEASUREMENT
 70
1
  9
$INSUNITS
 70
4
  0
ENDSEC
  0
SECTION
  2
CLASSES
  0
CLASS
  1
ACDBDICTIONARYWDFLT
  2
AcDbDictionaryWithDefault
  3
AutoCAD 2000
 90
0
280
0
281
0
  0
CLASS
  1
ACDBPLACEHOLDER
  2
AcDbPlaceHolder
  3
AutoCAD 2000
 90
0
280
0
281
0
  0
CLASS
  1
LAYOUT
  2
AcDbLayout
  3
AutoCAD 2000
 90
0
280
0
281
0
  0
ENDSEC
  0
SECTION
  2
TABLES
  0
TABLE
  2
VPORT
  5
8
100
AcDbSymbolTable
 70
2
  0
VPORT
  5
1F4
100
AcDbSymbolTableRecord
100
AcDbViewportTableRecord
  2
*ACTIVE
 70
0
 10
0.0
 20
0.0
 11
1.0
 21
1.0
 12
210.0
 22
148.5
 13
0.0
 23
0.0
 14
1.0
 24
1.0
 15
0.0
 25
0.0
 16
0.0
 26
0.0
 36
1.0
 17
0.0
 27
0.0
 37
0.0
 40
297.0
 41
1.4141414141
 42
50.0
 43
0.0
 44
0.0
 50
0.0
 51
0.0
 71
0
 72
100
 73
1
 74
1
 75
0
 76
0
 77
0
 78
0
  0
ENDTAB
  0
TABLE
  2
LTYPE
  5
5
100
AcDbSymbolTable
 70
6
  0
LTYPE
  5
14
100
AcDbSymbolTableRecord
100
AcDbLinetypeTableRecord
  2
BYBLOCK
 70
0
  3

 72
65
 73
0
 40
0.0
  0
LTYPE
  5
15
100
AcDbSymbolTableRecord
100
AcDbLinetypeTableRecord
  2
BYLAYER
 70
0
  3

 72
65
 73
0
 40
0.0
  0
LTYPE
  5
16
100
AcDbSymbolTableRecord
100
AcDbLinetypeTableRecord
  2
CONTINUOUS
 70
64
  3
Solid line
 72
65
 73
0
 40
0.0
  0
LTYPE
  5
1F5
100
AcDbSymbolTableRecord
100
AcDbLinetypeTableRecord
  2
CENTER
 70
64
  3
____ _ ____ _ ____ _ ____ _ ____ _ ____ _ ____
 72
65
 73
4
 40
0.6
 49
0.375
 74
0
 49
-0.075
 74
0
 49
0.075
 74
0
 49
-0.075
 74
0
  0
LTYPE
  5
1F6
100
AcDbSymbolTableRecord
100
AcDbLinetypeTableRecord
  2
HIDDEN
 70
64
  3
- - - - - - - - - - - - - - - - - - - -
 72
65
 73
2
 40
0.2
 49
0.1
 74
0
 49
-0.1
 74
0
  0
LTYPE
  5
1F7
100
AcDbSymbolTableRecord
100
AcDbLinetypeTableRecord
  2
PHANTOM
 70
64
  3
_____ _ _ _____ _ _ _____ _ _ _____
 72
65
 73
6
 40
0.8
 49
0.45
 74
0
 49
-0.05
 74
0
 49
0.1
 74
0
 49
-0.05
 74
0
 49
0.1
 74
0
 49
-0.05
 74
0
  0
LTYPE
  5
1F8
100
AcDbSymbolTableRecord
100
AcDbLinetypeTableRecord
  2
DOT
 70
64
  3
. . . . . . . . . . . . . . . . . . . .
 72
65
 73
2
 40
0.2
 49
0.1
 74
0
 49
-0.1
 74
0
  0
LTYPE
  5
1F9
100
AcDbSymbolTableRecord
100
AcDbLinetypeTableRecord
  2
DASHED
 70
64
  3
- - - - - - - - - - - - - - - - - - - -
 72
65
 73
2
 40
0.2
 49
0.1
 74
0
 49
-0.1
 74
0
  0
ENDTAB
  0
TABLE
  2
LAYER
  5
2
100
AcDbSymbolTable
 70
36
  0
LAYER
  5
10
100
AcDbSymbolTableRecord
100
AcDbLayerTableRecord
  2
0
 70
0
 62
7
  6
CONTINUOUS
370
-3
390
F
  0
LAYER
  5
1FA
100
AcDbSymbolTableRecord
100
AcDbLayerTableRecord
  2
DEFAULT_1
 70
0
 62
7
  6
CENTER
370
-3
390
F
  0
LAYER
  5
1FB
100
AcDbSymbolTableRecord
100
AcDbLayerTableRecord
  2
DEFAULT_2
 70
0
 62
8
  6
HIDDEN
370
-3
390
F
  0
LAYER
  5
1FC
100
AcDbSymbolTableRecord
100
AcDbLayerTableRecord
  2
DEFAULT_3
 70
0
 62
7
  6
PHANTOM
370
-3
390
F
  0
LAYER
  5
1FD
100
AcDbSymbolTableRecord
100
AcDbLayerTableRecord
  2
BEZUGSACHSEN
 70
0
 62
7
  6
CONTINUOUS
370
-3
390
F
  0
LAYER
  5
1FE
100
AcDbSymbolTableRecord
100
AcDbLayerTableRecord
  2
BEZUGSEBENEN
 70
0
 62
7
  6
CONTINUOUS
370
-3
390
F
  0
LAYER
  5
1FF
100
AcDbSymbolTableRecord
100
AcDbLayerTableRecord
  2
BG_STARTBEZUEGE
 70
0
 62
7
  6
CONTINUOUS
370
-3
390
F
  0
LAYER
  5
200
100
AcDbSymbolTableRecord
100
AcDbLayerTableRecord
  2
FASEN
 70
0
 62
7
  6
CONTINUOUS
370
-3
390
F
  0
LAYER
  5
201
100
AcDbSymbolTableRecord
100
AcDbLayerTableRecord
  2
FLAECHEN
 70
0
 62
7
  6
CONTINUOUS
370
-3
390
F
  0
LAYER
  5
202
100
AcDbSymbolTableRecord
100
AcDbLayerTableRecord
  2
GEWINDE
 70
0
 62
7
  6
CONTINUOUS
370
-3
390
F
  0
LAYER
  5
203
100
AcDbSymbolTableRecord
100
AcDbLayerTableRecord
  2
HILFEN
 70
0
 62
7
  6
CONTINUOUS
370
-3
390
F
  0
LAYER
  5
204
100
AcDbSymbolTableRecord
100
AcDbLayerTableRecord
  2
KONSTRUKTIONSELEMENTE
 70
0
 62
7
  6
CONTINUOUS
370
-3
390
F
  0
LAYER
  5
205
100
AcDbSymbolTableRecord
100
AcDbLayerTableRecord
  2
KURVEN
 70
0
 62
7
  6
CONTINUOUS
370
-3
390
F
  0
LAYER
  5
206
100
AcDbSymbolTableRecord
100
AcDbLayerTableRecord
  2
NORM
 70
0
 62
7
  6
CONTINUOUS
370
-3
390
F
  0
LAYER
  5
207
100
AcDbSymbolTableRecord
100
AcDbLayerTableRecord
  2
PLATZIERUNG
 70
0
 62
7
  6
CONTINUOUS
370
-3
390
F
  0
LAYER
  5
208
100
AcDbSymbolTableRecord
100
AcDbLayerTableRecord
  2
RUNDUNGEN
 70
0
 62
7
  6
CONTINUOUS
370
-3
390
F
  0
LAYER
  5
209
100
AcDbSymbolTableRecord
100
AcDbLayerTableRecord
  2
TEIL_STARTBEZUEGE
 70
0
 62
7
  6
CONTINUOUS
370
-3
390
F
  0
LAYER
  5
20A
100
AcDbSymbolTableRecord
100
AcDbLayerTableRecord
  2
T_STARTBEZUEGE
 70
0
 62
7
  6
CONTINUOUS
370
-3
390
F
  0
LAYER
  5
20B
100
AcDbSymbolTableRecord
100
AcDbLayerTableRecord
  2
ZEICHNUNGSBEMASSUNGEN
 70
0
 62
7
  6
CONTINUOUS
370
-3
390
F
  0
ENDTAB
  0
TABLE
  2
STYLE
  5
3
100
AcDbSymbolTable
 70
1
  0
STYLE
  5
11
100
AcDbSymbolTableRecord
100
AcDbTextStyleTableRecord
  2
STANDARD
 70
0
 40
0.0
 41
0.7
 50
0.0
 71
0
 42
0.2
  3
txt
  4

  0
STYLE
  5
20C
100
AcDbSymbolTableRecord
100
AcDbTextStyleTableRecord
  2
TEXTSTYLE_1
 70
0
 40
0.0
 41
0.8
 50
0.0
 71
0
 42
0.2
  3
gdt
  4

  0
ENDTAB
  0
TABLE
  2
VIEW
  5
6
100
AcDbSymbolTable
 70
0
  0
ENDTAB
  0
TABLE
  2
UCS
  5
7
100
AcDbSymbolTable
 70
0
  0
ENDTAB
  0
TABLE
  2
APPID
  5
9
100
AcDbSymbolTable
 70
1
  0
APPID
  5
20D
100
AcDbSymbolTableRecord
100
AcDbRegAppTableRecord
  2
ACAD
 70
0
  0
ENDTAB
  0
TABLE
  2
BLOCK_RECORD
  5
1
100
AcDbSymbolTable
 70
0
  0
BLOCK_RECORD
  5
20E
100
AcDbSymbolTableRecord
100
AcDbBlockTableRecord
  2
*Model_Space
  0
BLOCK_RECORD
  5
20F
100
AcDbSymbolTableRecord
100
AcDbBlockTableRecord
  2
*Paper_Space
  0
ENDTAB
  0
TABLE
  2
DIMSTYLE
  5
A
100
AcDbSymbolTable
 70
1
100
AcDbDimStyleTable
 71
0
  0
DIMSTYLE
105
210
100
AcDbSymbolTableRecord
100
AcDbDimStyleTableRecord
  2
STANDARD
 70
0
  3

  4

 40
1.0
 41
3.5
 42
0.0625
 43
0.38
 44
0.18
 45
0.0
 46
0.0
 47
0.005
 48
0.005
140
3.5
141
0.09
142
0.0
143
25.4
144
1.0
145
0.0
146
1.0
147
0.09
 71
1.0
 72
0.0
 73
0
 74
0
 75
0
 76
0
 77
1
 78
8
170
0
171
2
172
0
173
0
174
0
175
0
176
0
177
0
178
5
270
2
271
3
272
3
273
2
274
2
275
0
280
0
281
0
282
0
283
1
284
8
285
0
286
0
287
3
288
0
340
11
  0
ENDTAB
  0
ENDSEC
  0
SECTION
  2
BLOCKS
  0
BLOCK
  5
20
100
AcDbEntity
  8
0
100
AcDbBlockBegin
  2
*Model_Space
 70
0
 10
0.0
 20
0.0
 30
0.0
  3
*Model_Space
  1

  0
ENDBLK
  5
21
100
AcDbEntity
  8
0
100
AcDbBlockEnd
  0
BLOCK
  5
1C
100
AcDbEntity
  8
0
100
AcDbBlockBegin
  2
*Paper_Space
 70
0
 10
0.0
 20
0.0
 30
0.0
  3
*Paper_Space
  1

  0
ENDBLK
  5
1D
100
AcDbEntity
  8
0
100
AcDbBlockEnd
  0
ENDSEC
  0
SECTION
  2
ENTITIES
  0
MTEXT
  5
211
100
AcDbEntity
  8
0
100
AcDbMText
 62
5
  6
CONTINUOUS
  7
STANDARD
 71
1
 72
1
 10
247.6025191349
 20
235.7669428462
 30
0.0
 11
0.0
 21
1.0
 31
0.0
 44
0.9
  1
VRS 1,5t RUD
 40
4.0
 41
36.2857142857
  0
MTEXT
  5
212
100
AcDbEntity
  8
0
100
AcDbMText
 62
5
  6
CONTINUOUS
  7
STANDARD
 71
1
 72
1
 10
91.1053255773
 20
48.0999171673
 30
0.0
 11
1.0
 21
0.0
 31
0.0
 44
0.9
  1
VRS 1,5t RUD
 40
4.0
 41
36.2857142857
  0
LINE
  5
213
100
AcDbEntity
  8
0
100
AcDbLine
 62
7
  6
CONTINUOUS
 10
0.0
 20
0.0
 11
0.0
 21
297.0
  0
LINE
  5
214
100
AcDbEntity
  8
0
100
AcDbLine
 62
7
  6
CONTINUOUS
 10
0.0
 20
0.0
 11
420.0
 21
0.0
  0
LINE
  5
215
100
AcDbEntity
  8
0
100
AcDbLine
 62
7
  6
CONTINUOUS
 10
0.0
 20
297.0
 11
420.0
 21
297.0
  0
LINE
  5
216
100
AcDbEntity
  8
0
100
AcDbLine
 62
7
  6
CONTINUOUS
 10
420.0
 20
0.0
 11
420.0
 21
297.0
  0
LINE
  5
217
100
AcDbEntity
  8
KONSTRUKTIONSELEMENTE
100
AcDbLine
 62
7
  6
CONTINUOUS
 10
102.4714892629
 20
94.7396991495
 11
115.4714892629
 21
94.7396991495
  0
LINE
  5
218
100
AcDbEntity
  8
KONSTRUKTIONSELEMENTE
100
AcDbLine
 62
7
  6
CONTINUOUS
 10
100.9714892629
 20
96.2396991495
 11
116.9714892629
 21
96.2396991495
  0
LINE
  5
219
100
AcDbEntity
  8
BEZUGSACHSEN
100
AcDbLine
 62
7
  6
CONTINUOUS
 10
117.971489262
 20
102.7396991511
 11
99.9714892638
 21
102.7396991511
  0
LINE
  5
21A
100
AcDbEntity
  8
KONSTRUKTIONSELEMENTE
100
AcDbLine
 62
7
  6
CONTINUOUS
 10
93.9714892629
 20
118.7396991495
 11
123.9714892629
 21
118.7396991495
  0
LINE
  5
21B
100
AcDbEntity
  8
KONSTRUKTIONSELEMENTE
100
AcDbLine
 62
7
  6
CONTINUOUS
 10
93.9714892629
 20
122.7396991495
 11
123.9714892629
 21
122.7396991495
  0
LINE
  5
21C
100
AcDbEntity
  8
KONSTRUKTIONSELEMENTE
100
AcDbLine
 62
7
  6
CONTINUOUS
 10
100.9714892629
 20
96.2396991495
 11
102.4714892629
 21
94.7396991495
  0
LINE
  5
21D
100
AcDbEntity
  8
BEZUGSACHSEN
100
AcDbLine
 62
7
  6
CONTINUOUS
 10
95.1150828037
 20
107.5961056112
 11
99.9714892638
 21
102.7396991511
  0
LINE
  5
21E
100
AcDbEntity
  8
RUNDUNGEN
100
AcDbLine
 62
7
  6
CONTINUOUS
 10
86.6195624123
 20
269.9312279028
 11
108.014780682
 21
278.7934174801
  0
LINE
  5
21F
100
AcDbEntity
  8
KONSTRUKTIONSELEMENTE
100
AcDbLine
 62
7
  6
CONTINUOUS
 10
120.9714892617
 20
118.7396991495
 11
122.8278957221
 21
117.6679023799
  0
LINE
  5
220
100
AcDbEntity
  8
0
100
AcDbLine
 62
7
  6
CONTINUOUS
 10
93.2018971442
 20
267.829320636
 11
92.8914407186
 21
267.6241779737
  0
LINE
  5
221
100
AcDbEntity
  8
0
100
AcDbLine
 62
7
  6
CONTINUOUS
 10
90.9848226591
 20
265.6122461508
 11
90.6743665284
 21
265.4071037835
  0
LINE
  5
222
100
AcDbEntity
  8
0
100
AcDbLine
 62
7
  6
CONTINUOUS
 10
94.3065945982
 20
266.8277425276
 11
93.9961387626
 21
266.6226004553
  0
LINE
  5
223
100
AcDbEntity
  8
0
100
AcDbLine
 62
7
  6
CONTINUOUS
 10
94.6949391329
 20
264.5832426923
 11
95.0053955632
 21
264.78838535
  0
LINE
  5
224
100
AcDbEntity
  8
0
100
AcDbLine
 62
7
  6
CONTINUOUS
 10
94.3120800527
 20
266.3066591652
 11
94.5709762155
 21
266.4602415647
  0
LINE
  5
225
100
AcDbEntity
  8
0
100
AcDbLine
 62
7
  6
CONTINUOUS
 10
93.743824083
 20
265.8437169589
 11
94.0027208359
 21
265.9972999485
  0
LINE
  5
226
100
AcDbEntity
  8
0
100
AcDbLine
 62
7
  6
CONTINUOUS
 10
94.6894542362
 20
265.104326677
 11
94.4305580733
 21
264.9507442775
  0
LINE
  5
227
100
AcDbEntity
  8
0
100
AcDbLine
 62
7
  6
CONTINUOUS
 10
106.346490604
 20
271.0024651114
 11
106.6381572011
 21
271.1514012638
  0
LINE
  5
228
100
AcDbEntity
  8
0
100
AcDbLine
 62
7
  6
CONTINUOUS
 10
93.2589422715
 20
267.3597969464
 11
93.4662787616
 21
267.4618196731
  0
LINE
  5
229
100
AcDbEntity
  8
0
100
AcDbLine
 62
7
  6
CONTINUOUS
 10
90.9892109046
 20
265.1953793429
 11
91.1965473947
 21
265.2974020696
  0
LINE
  5
22A
100
AcDbEntity
  8
0
100
AcDbLine
 62
7
  6
CONTINUOUS
 10
93.6867795458
 20
266.3132412386
 11
93.4794430557
 21
266.2112185119
  0
LINE
  5
22B
100
AcDbEntity
  8
0
100
AcDbLine
 62
7
  6
CONTINUOUS
 10
106.2735737983
 20
271.3748054925
 11
106.0548237983
 21
271.3003374163
  0
LINE
  5
22C
100
AcDbEntity
  8
0
100
AcDbLine
 62
7
  6
CONTINUOUS
 10
94.6181482328
 20
266.9286686354
 11
94.3065945982
 21
266.8277425276
  0
LINE
  5
22D
100
AcDbEntity
  8
0
100
AcDbLine
 62
7
  6
CONTINUOUS
 10
93.4322710385
 20
265.7427914411
 11
93.743824083
 21
265.8437169589
  0
LINE
  5
22E
100
AcDbEntity
  8
0
100
AcDbLine
 62
7
  6
CONTINUOUS
 10
92.8914407186
 20
267.6241779737
 11
92.6336417646
 21
267.3663790198
  0
LINE
  5
22F
100
AcDbEntity
  8
0
100
AcDbLine
 62
7
  6
CONTINUOUS
 10
90.6743665284
 20
265.4071037835
 11
89.4369296613
 21
264.1696669165
  0
LINE
  5
230
100
AcDbEntity
  8
0
100
AcDbLine
 62
7
  6
CONTINUOUS
 10
89.0244506565
 20
263.7571879116
 11
88.7150914397
 21
263.4478286948
  0
LINE
  5
231
100
AcDbEntity
  8
0
100
AcDbLine
 62
7
  6
CONTINUOUS
 10
87.2714151439
 20
262.0041523991
 11
86.9620559272
 21
261.6947931823
  0
LINE
  5
232
100
AcDbEntity
  8
0
100
AcDbLine
 62
7
  6
CONTINUOUS
 10
90.0095732865
 20
264.2157417248
 11
90.9892109046
 21
265.1953793429
  0
LINE
  5
233
100
AcDbEntity
  8
0
100
AcDbLine
 62
7
  6
CONTINUOUS
 10
92.9495830547
 20
267.0504377297
 11
93.2589422715
 21
267.3597969464
  0
LINE
  5
234
100
AcDbEntity
  8
0
100
AcDbLine
 62
7
  6
CONTINUOUS
 10
93.8315858967
 20
267.4058717548
 11
94.1409451135
 21
267.7152309715
  0
LINE
  5
235
100
AcDbEntity
  8
0
100
AcDbLine
 62
7
  6
CONTINUOUS
 10
93.9961387626
 20
266.6226004553
 11
93.6867795458
 21
266.3132412386
  0
LINE
  5
236
100
AcDbEntity
  8
0
100
AcDbLine
 62
7
  6
CONTINUOUS
 10
91.7790642774
 20
264.4055259702
 11
90.7994266593
 21
263.425888352
  0
LINE
  5
237
100
AcDbEntity
  8
0
100
AcDbLine
 62
7
  6
CONTINUOUS
 10
91.1153679494
 20
263.1099470619
 11
91.9918856319
 21
263.9864647444
  0
LINE
  5
238
100
AcDbEntity
  8
0
100
AcDbLine
 62
7
  6
CONTINUOUS
 10
94.0027208359
 20
265.9972999485
 11
94.3120800527
 21
266.3066591652
  0
LINE
  5
239
100
AcDbEntity
  8
0
100
AcDbLine
 62
7
  6
CONTINUOUS
 10
93.9083768752
 20
265.0604457333
 11
93.5990179534
 21
264.7510868115
  0
LINE
  5
23A
100
AcDbEntity
  8
0
100
AcDbLine
 62
7
  6
CONTINUOUS
 10
95.1019333886
 20
265.5168058294
 11
94.6894542362
 21
265.104326677
  0
LINE
  5
23B
100
AcDbEntity
  8
0
100
AcDbLine
 62
7
  6
CONTINUOUS
 10
90.2618875973
 20
260.0448773841
 11
90.6743665284
 21
260.4573563152
  0
LINE
  5
23C
100
AcDbEntity
  8
0
100
AcDbLine
 62
7
  6
CONTINUOUS
 10
91.9118033955
 20
261.6947931823
 11
92.2211626122
 21
262.0041523991
  0
LINE
  5
23D
100
AcDbEntity
  8
0
100
AcDbLine
 62
7
  6
CONTINUOUS
 10
93.5101594471
 20
263.293149234
 11
93.8710783367
 21
263.6540681235
  0
LINE
  5
23E
100
AcDbEntity
  8
0
100
AcDbLine
 62
7
  6
CONTINUOUS
 10
95.0053955632
 20
264.78838535
 11
95.4178747155
 21
265.2008645024
  0
LINE
  5
23F
100
AcDbEntity
  8
0
100
AcDbLine
 62
7
  6
CONTINUOUS
 10
109.5548240069
 20
269.9599119399
 11
109.3360740069
 21
269.8109757353
  0
LINE
  5
240
100
AcDbEntity
  8
0
100
AcDbLine
 62
7
  6
CONTINUOUS
 10
113.0548235896
 20
269.9599119399
 11
112.8360735896
 21
269.8109757353
  0
LINE
  5
241
100
AcDbEntity
  8
0
100
AcDbLine
 62
7
  6
CONTINUOUS
 10
109.4089903954
 20
269.3641672323
 11
109.7006572011
 21
269.5131034043
  0
LINE
  5
242
100
AcDbEntity
  8
0
100
AcDbLine
 62
7
  6
CONTINUOUS
 10
112.9089908126
 20
269.3641672323
 11
113.2006572011
 21
269.5131034043
  0
LINE
  5
243
100
AcDbEntity
  8
BEZUGSACHSEN
100
AcDbLine
 62
7
  6
CONTINUOUS
 10
76.519581785
 20
247.4611348544
 11
76.7361545309
 21
247.9839877149
  0
LINE
  5
244
100
AcDbEntity
  8
RUNDUNGEN
100
AcDbLine
 62
7
  6
CONTINUOUS
 10
76.7361545309
 20
247.9839877149
 11
85.2665721619
 21
268.5782376525
  0
LINE
  5
245
100
AcDbEntity
  8
0
100
AcDbLine
 62
7
  6
CONTINUOUS
 10
92.847560328
 20
266.8431012396
 11
92.9495830547
 21
267.0504377297
  0
LINE
  5
246
100
AcDbEntity
  8
0
100
AcDbLine
 62
7
  6
CONTINUOUS
 10
91.8810870041
 20
264.6128624602
 11
91.7790642774
 21
264.4055259702
  0
LINE
  5
247
100
AcDbEntity
  8
0
100
AcDbLine
 62
7
  6
CONTINUOUS
 10
92.6336417646
 20
267.3663790198
 11
92.4800587751
 21
267.1074822669
  0
LINE
  5
248
100
AcDbEntity
  8
0
100
AcDbLine
 62
7
  6
CONTINUOUS
 10
95.255515788
 20
265.7757019922
 11
95.1019333886
 21
265.5168058294
  0
LINE
  5
249
100
AcDbEntity
  8
0
100
AcDbLine
 62
7
  6
CONTINUOUS
 10
95.4178747155
 20
265.2008645024
 11
95.6230167832
 21
265.5113203426
  0
LINE
  5
24A
100
AcDbEntity
  8
0
100
AcDbLine
 62
7
  6
CONTINUOUS
 10
106.6381572011
 20
271.1514012638
 11
106.8569072011
 21
271.4492735688
  0
LINE
  5
24B
100
AcDbEntity
  8
0
100
AcDbLine
 62
7
  6
CONTINUOUS
 10
106.4194072011
 20
271.523741645
 11
106.2735737983
 21
271.3748054925
  0
LINE
  5
24C
100
AcDbEntity
  8
0
100
AcDbLine
 62
7
  6
CONTINUOUS
 10
109.7006572011
 20
269.5131034043
 11
109.9923240069
 21
269.8109757353
  0
LINE
  5
24D
100
AcDbEntity
  8
0
100
AcDbLine
 62
7
  6
CONTINUOUS
 10
113.2006572011
 20
269.5131034043
 11
113.4923235896
 21
269.8109757353
  0
LINE
  5
24E
100
AcDbEntity
  8
0
100
AcDbLine
 62
7
  6
CONTINUOUS
 10
92.4800587751
 20
267.1074822669
 11
92.3791332573
 21
266.7959292223
  0
LINE
  5
24F
100
AcDbEntity
  8
0
100
AcDbLine
 62
7
  6
CONTINUOUS
 10
92.1959310853
 20
264.4011377246
 11
92.2968568981
 21
264.7126910641
  0
LINE
  5
250
100
AcDbEntity
  8
0
100
AcDbLine
 62
7
  6
CONTINUOUS
 10
109.7006572011
 20
270.1833161686
 11
109.5548240069
 21
269.9599119399
  0
LINE
  5
251
100
AcDbEntity
  8
RUNDUNGEN
100
AcDbLine
 62
7
  6
CONTINUOUS
 10
80.9714892629
 20
233.9396991495
 11
80.9714892629
 21
227.9396991495
  0
LINE
  5
252
100
AcDbEntity
  8
BEZUGSACHSEN
100
AcDbLine
 62
7
  6
CONTINUOUS
 10
80.9714892629
 20
227.9396991495
 11
80.9714892629
 21
233.9396991495
  0
LINE
  5
253
100
AcDbEntity
  8
BEZUGSACHSEN
100
AcDbLine
 62
7
  6
CONTINUOUS
 10
80.9828998693
 20
234.1530350903
 11
80.9714892629
 21
233.9396991495
  0
LINE
  5
254
100
AcDbEntity
  8
RUNDUNGEN
100
AcDbLine
 62
7
  6
CONTINUOUS
 10
80.9714892629
 20
233.9396991495
 11
80.9828998693
 21
234.1530350903
  0
LINE
  5
255
100
AcDbEntity
  8
0
100
AcDbLine
 62
7
  6
CONTINUOUS
 10
92.798194483
 20
266.5831078678
 11
92.847560328
 21
266.8431012396
  0
LINE
  5
256
100
AcDbEntity
  8
0
100
AcDbLine
 62
7
  6
CONTINUOUS
 10
95.3048815962
 20
266.0356954008
 11
95.255515788
 21
265.7757019922
  0
LINE
  5
257
100
AcDbEntity
  8
0
100
AcDbLine
 62
7
  6
CONTINUOUS
 10
95.6230167832
 20
265.5113203426
 11
95.7239428772
 21
265.822873991
  0
LINE
  5
258
100
AcDbEntity
  8
0
100
AcDbLine
 62
7
  6
CONTINUOUS
 10
109.9923240069
 20
269.8109757353
 11
110.1381572011
 21
270.1088480923
  0
LINE
  5
259
100
AcDbEntity
  8
0
100
AcDbLine
 62
7
  6
CONTINUOUS
 10
113.4923235896
 20
269.8109757353
 11
113.6381572011
 21
270.1088480923
  0
LINE
  5
25A
100
AcDbEntity
  8
0
100
AcDbLine
 62
7
  6
CONTINUOUS
 10
113.2006572011
 20
270.1833161686
 11
113.0548235896
 21
269.9599119399
  0
LINE
  5
25B
100
AcDbEntity
  8
0
100
AcDbLine
 62
7
  6
CONTINUOUS
 10
125.3678948101
 20
263.2904387054
 11
125.7383906595
 21
263.6609345548
  0
LINE
  5
25C
100
AcDbEntity
  8
0
100
AcDbLine
 62
7
  6
CONTINUOUS
 10
127.4591463075
 20
265.3816902028
 11
127.829642157
 21
265.7521860523
  0
LINE
  5
25D
100
AcDbEntity
  8
0
100
AcDbLine
 62
7
  6
CONTINUOUS
 10
128.2603622792
 20
262.4920230569
 11
128.6308581287
 21
262.8625189064
  0
LINE
  5
25E
100
AcDbEntity
  8
0
100
AcDbLine
 62
7
  6
CONTINUOUS
 10
127.4678948101
 20
261.1904387054
 11
127.8383906595
 21
261.5609345548
  0
LINE
  5
25F
100
AcDbEntity
  8
0
100
AcDbLine
 62
7
  6
CONTINUOUS
 10
129.5591463075
 20
263.2816902028
 11
129.929642157
 21
263.6521860523
  0
LINE
  5
260
100
AcDbEntity
  8
0
100
AcDbLine
 62
7
  6
CONTINUOUS
 10
91.8788928813
 20
264.8212958642
 11
91.8810870041
 21
264.6128624602
  0
LINE
  5
261
100
AcDbEntity
  8
0
100
AcDbLine
 62
7
  6
CONTINUOUS
 10
92.3791332573
 20
266.7959292223
 11
92.3835215029
 21
266.3790624144
  0
LINE
  5
262
100
AcDbEntity
  8
0
100
AcDbLine
 62
7
  6
CONTINUOUS
 10
106.4923237983
 20
271.7471458737
 11
106.4194072011
 21
271.523741645
  0
LINE
  5
263
100
AcDbEntity
  8
0
100
AcDbLine
 62
7
  6
CONTINUOUS
 10
106.8569072011
 20
271.4492735688
 11
106.9298237983
 21
271.6726777975
  0
LINE
  5
264
100
AcDbEntity
  8
0
100
AcDbLine
 62
7
  6
CONTINUOUS
 10
103.0339892629
 20
224.9396991495
 11
102.2839892629
 21
224.0460822348
  0
LINE
  5
265
100
AcDbEntity
  8
0
100
AcDbLine
 62
7
  6
CONTINUOUS
 10
102.2839892629
 20
223.0248054031
 11
103.0339892629
 21
223.9184226755
  0
LINE
  5
266
100
AcDbEntity
  8
0
100
AcDbLine
 62
7
  6
CONTINUOUS
 10
95.7239428772
 20
265.822873991
 11
95.7195546132
 21
266.2397408174
  0
LINE
  5
267
100
AcDbEntity
  8
KONSTRUKTIONSELEMENTE
100
AcDbLine
 62
7
  6
CONTINUOUS
 10
93.9714892629
 20
118.7396991495
 11
93.9714892629
 21
122.7396991495
  0
LINE
  5
268
100
AcDbEntity
  8
KONSTRUKTIONSELEMENTE
100
AcDbLine
 62
7
  6
CONTINUOUS
 10
95.1150828037
 20
117.6679023799
 11
95.1150828037
 21
107.5961056112
  0
LINE
  5
269
100
AcDbEntity
  8
KONSTRUKTIONSELEMENTE
100
AcDbLine
 62
7
  6
CONTINUOUS
 10
97.2214892629
 20
214.9396991495
 11
97.2214892629
 21
214.7396991495
  0
LINE
  5
26A
100
AcDbEntity
  8
0
100
AcDbLine
 62
7
  6
CONTINUOUS
 10
98.9714892629
 20
238.2396991495
 11
98.9714892629
 21
241.2396991495
  0
LINE
  5
26B
100
AcDbEntity
  8
KONSTRUKTIONSELEMENTE
100
AcDbLine
 62
7
  6
CONTINUOUS
 10
100.9714892629
 20
214.7396991495
 11
100.9714892629
 21
122.7396991495
  0
LINE
  5
26C
100
AcDbEntity
  8
KONSTRUKTIONSELEMENTE
100
AcDbLine
 62
7
  6
CONTINUOUS
 10
100.9714892629
 20
102.7396991511
 11
100.9714892629
 21
96.2396991495
  0
LINE
  5
26D
100
AcDbEntity
  8
0
100
AcDbLine
 62
7
  6
CONTINUOUS
 10
110.1381572011
 20
270.1088480923
 11
110.2110740069
 21
270.4811884735
  0
LINE
  5
26E
100
AcDbEntity
  8
0
100
AcDbLine
 62
7
  6
CONTINUOUS
 10
113.6381572011
 20
270.1088480923
 11
113.7110735896
 21
270.4811884735
  0
LINE
  5
26F
100
AcDbEntity
  8
0
100
AcDbLine
 62
7
  6
CONTINUOUS
 10
109.7735740069
 20
270.4811884735
 11
109.7006572011
 21
270.1833161686
  0
LINE
  5
270
100
AcDbEntity
  8
0
100
AcDbLine
 62
7
  6
CONTINUOUS
 10
113.2735735896
 20
270.4811884735
 11
113.2006572011
 21
270.1833161686
  0
LINE
  5
271
100
AcDbEntity
  8
0
100
AcDbLine
 62
7
  6
CONTINUOUS
 10
105.5339893821
 20
219.5779970352
 11
104.7839892033
 21
218.1737417046
  0
LINE
  5
272
100
AcDbEntity
  8
0
100
AcDbLine
 62
7
  6
CONTINUOUS
 10
105.4089891437
 20
218.1737417046
 11
106.1589891437
 21
219.5779970352
  0
LINE
  5
273
100
AcDbEntity
  8
0
100
AcDbLine
 62
7
  6
CONTINUOUS
 10
108.0339891437
 20
221.6205502514
 11
108.5339890245
 21
222.0035289291
  0
LINE
  5
274
100
AcDbEntity
  8
0
100
AcDbLine
 62
7
  6
CONTINUOUS
 10
110.6589895013
 20
219.9609757129
 11
110.2839895013
 21
219.7056565944
  0
LINE
  5
275
100
AcDbEntity
  8
0
100
AcDbLine
 62
7
  6
CONTINUOUS
 10
108.4089895013
 20
222.6418267254
 11
107.7839893821
 21
222.2588480476
  0
LINE
  5
276
100
AcDbEntity
  8
0
100
AcDbLine
 62
7
  6
CONTINUOUS
 10
110.4089890245
 20
219.0673587199
 11
111.0339895013
 21
219.4503374312
  0
LINE
  5
277
100
AcDbEntity
  8
BEZUGSACHSEN
100
AcDbLine
 62
7
  6
CONTINUOUS
 10
85.5273063186
 20
223.8416388794
 11
85.1684903518
 21
224.706284231
  0
LINE
  5
278
100
AcDbEntity
  8
BEZUGSACHSEN
100
AcDbLine
 62
7
  6
CONTINUOUS
 10
80.8415644682
 20
235.1329561126
 11
76.5202131256
 21
245.5461949217
  0
LINE
  5
279
100
AcDbEntity
  8
0
100
AcDbLine
 62
7
  6
CONTINUOUS
 10
92.2968568981
 20
264.7126910641
 11
92.2409089798
 21
265.0779981993
  0
LINE
  5
27A
100
AcDbEntity
  8
KONSTRUKTIONSELEMENTE
100
AcDbLine
 62
7
  6
CONTINUOUS
 10
102.0432860333
 20
117.6679023799
 11
102.0432860333
 21
107.5961056112
  0
LINE
  5
27B
100
AcDbEntity
  8
0
100
AcDbLine
 62
7
  6
CONTINUOUS
 10
102.2839892629
 20
224.0460822348
 11
102.2839892629
 21
223.0248054031
  0
LINE
  5
27C
100
AcDbEntity
  8
0
100
AcDbLine
 62
7
  6
CONTINUOUS
 10
103.0339892629
 20
223.9184226755
 11
103.0339892629
 21
218.9396991495
  0
LINE
  5
27D
100
AcDbEntity
  8
0
100
AcDbLine
 62
7
  6
CONTINUOUS
 10
103.3134566248
 20
237.7396991495
 11
103.3134566248
 21
231.1701014111
  0
LINE
  5
27E
100
AcDbEntity
  8
0
100
AcDbLine
 62
7
  6
CONTINUOUS
 10
103.7839892629
 20
218.9396991495
 11
103.7839892629
 21
224.9396991495
  0
LINE
  5
27F
100
AcDbEntity
  8
BEZUGSACHSEN
100
AcDbLine
 62
7
  6
CONTINUOUS
 10
104.0208580032
 20
237.7396991495
 11
104.0208580032
 21
231.0448446246
  0
LINE
  5
280
100
AcDbEntity
  8
0
100
AcDbLine
 62
7
  6
CONTINUOUS
 10
104.2319072011
 20
272.7896991495
 11
104.2319072011
 21
269.2896991495
  0
LINE
  5
281
100
AcDbEntity
  8
0
100
AcDbLine
 62
7
  6
CONTINUOUS
 10
104.6694072011
 20
269.2896991495
 11
104.6694072011
 21
270.8535289589
  0
LINE
  5
282
100
AcDbEntity
  8
0
100
AcDbLine
 62
7
  6
CONTINUOUS
 10
104.6694072011
 20
271.3003374163
 11
104.6694072011
 21
272.4173587684
  0
LINE
  5
283
100
AcDbEntity
  8
BEZUGSACHSEN
100
AcDbLine
 62
7
  6
CONTINUOUS
 10
105.4350715655
 20
237.7396991495
 11
105.4350715655
 21
230.8538934622
  0
LINE
  5
284
100
AcDbEntity
  8
0
100
AcDbLine
 62
7
  6
CONTINUOUS
 10
105.4714892629
 20
241.7396991495
 11
105.4714892629
 21
242.0396991495
  0
LINE
  5
285
100
AcDbEntity
  8
0
100
AcDbLine
 62
7
  6
CONTINUOUS
 10
106.1424729439
 20
237.7396991495
 11
106.1424729439
 21
230.7815918142
  0
LINE
  5
286
100
AcDbEntity
  8
0
100
AcDbLine
 62
7
  6
CONTINUOUS
 10
106.4923237983
 20
271.970550311
 11
106.4923237983
 21
271.7471458737
  0
LINE
  5
287
100
AcDbEntity
  8
0
100
AcDbLine
 62
7
  6
CONTINUOUS
 10
106.9298237983
 20
271.6726777975
 11
106.9298237983
 21
271.970550311
  0
LINE
  5
288
100
AcDbEntity
  8
0
100
AcDbLine
 62
7
  6
CONTINUOUS
 10
107.1589892629
 20
224.9396991495
 11
107.1589892629
 21
221.6205502514
  0
LINE
  5
289
100
AcDbEntity
  8
BEZUGSACHSEN
100
AcDbLine
 62
7
  6
CONTINUOUS
 10
107.5572757005
 20
237.7396991495
 11
107.5572757005
 21
230.6879907263
  0
LINE
  5
28A
100
AcDbEntity
  8
0
100
AcDbLine
 62
7
  6
CONTINUOUS
 10
107.5860737983
 20
272.7896991495
 11
107.5860737983
 21
270.4811884735
  0
LINE
  5
28B
100
AcDbEntity
  8
0
100
AcDbLine
 62
7
  6
CONTINUOUS
 10
107.7839893821
 20
222.2588480476
 11
107.7839893821
 21
224.3014013533
  0
LINE
  5
28C
100
AcDbEntity
  8
0
100
AcDbLine
 62
7
  6
CONTINUOUS
 10
108.0235740069
 20
270.4811884735
 11
108.0235740069
 21
272.7896991495
  0
LINE
  5
28D
100
AcDbEntity
  8
0
100
AcDbLine
 62
7
  6
CONTINUOUS
 10
108.9714892629
 20
241.7396991495
 11
108.9714892629
 21
242.0396991495
  0
LINE
  5
28E
100
AcDbEntity
  8
0
100
AcDbLine
 62
7
  6
CONTINUOUS
 10
109.7735740069
 20
272.7896991495
 11
109.7735740069
 21
270.4811884735
  0
LINE
  5
28F
100
AcDbEntity
  8
0
100
AcDbLine
 62
7
  6
CONTINUOUS
 10
111.0339895013
 20
220.7269331578
 11
110.9089892629
 21
220.3439544801
  0
LINE
  5
290
100
AcDbEntity
  8
0
100
AcDbLine
 62
7
  6
CONTINUOUS
 10
111.4089895013
 20
219.9609757129
 11
111.6589892629
 21
220.5992735986
  0
LINE
  5
291
100
AcDbEntity
  8
0
100
AcDbLine
 62
7
  6
CONTINUOUS
 10
110.9089892629
 20
220.3439544801
 11
110.6589895013
 21
219.9609757129
  0
LINE
  5
292
100
AcDbEntity
  8
0
100
AcDbLine
 62
7
  6
CONTINUOUS
 10
111.0339895013
 20
219.4503374312
 11
111.4089895013
 21
219.9609757129
  0
LINE
  5
293
100
AcDbEntity
  8
0
100
AcDbLine
 62
7
  6
CONTINUOUS
 10
95.2500308867
 20
266.2967859815
 11
95.3048815962
 21
266.0356954008
  0
LINE
  5
294
100
AcDbEntity
  8
0
100
AcDbLine
 62
7
  6
CONTINUOUS
 10
110.2110740069
 20
270.4811884735
 11
110.2110740069
 21
272.7896991495
  0
LINE
  5
295
100
AcDbEntity
  8
BEZUGSACHSEN
100
AcDbLine
 62
7
  6
CONTINUOUS
 10
110.3857028253
 20
237.7396991495
 11
110.3857028253
 21
230.6879822538
  0
LINE
  5
296
100
AcDbEntity
  8
0
100
AcDbLine
 62
7
  6
CONTINUOUS
 10
110.7944072011
 20
272.7896991495
 11
110.7944072011
 21
269.2896991495
  0
LINE
  5
297
100
AcDbEntity
  8
0
100
AcDbLine
 62
7
  6
CONTINUOUS
 10
111.0339895013
 20
220.9822522763
 11
111.0339895013
 21
220.7269331578
  0
LINE
  5
298
100
AcDbEntity
  8
0
100
AcDbLine
 62
7
  6
CONTINUOUS
 10
111.2319072011
 20
269.736507659
 11
111.2319072011
 21
272.3428906921
  0
LINE
  5
299
100
AcDbEntity
  8
0
100
AcDbLine
 62
7
  6
CONTINUOUS
 10
111.4089895013
 20
224.3014013533
 11
111.4089895013
 21
224.9396991495
  0
LINE
  5
29A
100
AcDbEntity
  8
0
100
AcDbLine
 62
7
  6
CONTINUOUS
 10
111.6589892629
 20
220.5992735986
 11
111.6589892629
 21
221.1099118356
  0
LINE
  5
29B
100
AcDbEntity
  8
0
100
AcDbLine
 62
7
  6
CONTINUOUS
 10
111.8005055819
 20
237.7396991495
 11
111.8005055819
 21
230.7815952049
  0
LINE
  5
29C
100
AcDbEntity
  8
0
100
AcDbLine
 62
7
  6
CONTINUOUS
 10
112.4714892629
 20
241.7396991495
 11
112.4714892629
 21
242.0396991495
  0
LINE
  5
29D
100
AcDbEntity
  8
BEZUGSACHSEN
100
AcDbLine
 62
7
  6
CONTINUOUS
 10
112.5079069603
 20
237.7396991495
 11
112.5079069603
 21
230.8538863783
  0
LINE
  5
29E
100
AcDbEntity
  8
0
100
AcDbLine
 62
7
  6
CONTINUOUS
 10
112.6589890245
 20
223.0248054031
 11
112.6589890245
 21
222.5141671661
  0
LINE
  5
29F
100
AcDbEntity
  8
0
100
AcDbLine
 62
7
  6
CONTINUOUS
 10
113.2735735896
 20
271.5982097212
 11
113.2735735896
 21
270.4811884735
  0
LINE
  5
2A0
100
AcDbEntity
  8
0
100
AcDbLine
 62
7
  6
CONTINUOUS
 10
113.6589895013
 20
224.0460822348
 11
113.6589895013
 21
223.0248054031
  0
LINE
  5
2A1
100
AcDbEntity
  8
0
100
AcDbLine
 62
7
  6
CONTINUOUS
 10
113.6589895013
 20
222.5141671661
 11
113.6589895013
 21
219.9609757129
  0
LINE
  5
2A2
100
AcDbEntity
  8
0
100
AcDbLine
 62
7
  6
CONTINUOUS
 10
113.7110735896
 20
270.4811884735
 11
113.7110735896
 21
271.5982097212
  0
LINE
  5
2A3
100
AcDbEntity
  8
BEZUGSACHSEN
100
AcDbLine
 62
7
  6
CONTINUOUS
 10
113.9221205226
 20
237.7396991495
 11
113.9221205226
 21
231.0448418827
  0
LINE
  5
2A4
100
AcDbEntity
  8
0
100
AcDbLine
 62
7
  6
CONTINUOUS
 10
114.2839892629
 20
220.2162949208
 11
114.2839892629
 21
222.5141671661
  0
LINE
  5
2A5
100
AcDbEntity
  8
0
100
AcDbLine
 62
7
  6
CONTINUOUS
 10
114.2839892629
 20
223.0248054031
 11
114.2839892629
 21
224.0460822348
  0
LINE
  5
2A6
100
AcDbEntity
  8
0
100
AcDbLine
 62
7
  6
CONTINUOUS
 10
114.629521901
 20
237.7396991495
 11
114.629521901
 21
231.1701040204
  0
LINE
  5
2A7
100
AcDbEntity
  8
0
100
AcDbLine
 62
7
  6
CONTINUOUS
 10
115.4089892629
 20
218.9396991495
 11
115.4089892629
 21
219.4503374312
  0
LINE
  5
2A8
100
AcDbEntity
  8
0
100
AcDbLine
 62
7
  6
CONTINUOUS
 10
115.6589897397
 20
222.5141671661
 11
115.6589897397
 21
223.0248054031
  0
LINE
  5
2A9
100
AcDbEntity
  8
KONSTRUKTIONSELEMENTE
100
AcDbLine
 62
7
  6
CONTINUOUS
 10
115.8996924925
 20
117.6679023799
 11
115.8996924925
 21
107.5961056112
  0
LINE
  5
2AA
100
AcDbEntity
  8
KONSTRUKTIONSELEMENTE
100
AcDbLine
 62
7
  6
CONTINUOUS
 10
116.9714892629
 20
214.7396991495
 11
116.9714892629
 21
122.7396991495
  0
LINE
  5
2AB
100
AcDbEntity
  8
KONSTRUKTIONSELEMENTE
100
AcDbLine
 62
7
  6
CONTINUOUS
 10
116.9714892629
 20
102.7396991511
 11
116.9714892629
 21
96.2396991495
  0
LINE
  5
2AC
100
AcDbEntity
  8
0
100
AcDbLine
 62
7
  6
CONTINUOUS
 10
107.4089893821
 20
219.9609757129
 11
107.7839893821
 21
219.4503374312
  0
LINE
  5
2AD
100
AcDbEntity
  8
0
100
AcDbLine
 62
7
  6
CONTINUOUS
 10
90.6743665284
 20
260.4573563152
 11
89.0244506565
 21
263.7571879116
  0
LINE
  5
2AE
100
AcDbEntity
  8
0
100
AcDbLine
 62
7
  6
CONTINUOUS
 10
88.7150914397
 20
263.4478286948
 11
90.152185699
 21
260.5670581398
  0
LINE
  5
2AF
100
AcDbEntity
  8
0
100
AcDbLine
 62
7
  6
CONTINUOUS
 10
107.1589892629
 20
220.4716140393
 11
107.4089893821
 21
219.9609757129
  0
LINE
  5
2B0
100
AcDbEntity
  8
0
100
AcDbLine
 62
7
  6
CONTINUOUS
 10
108.1589893821
 20
219.9609757129
 11
107.9089892629
 21
220.4716140393
  0
LINE
  5
2B1
100
AcDbEntity
  8
0
100
AcDbLine
 62
7
  6
CONTINUOUS
 10
111.6589892629
 20
221.1099118356
 11
111.4089895013
 21
221.7482098106
  0
LINE
  5
2B2
100
AcDbEntity
  8
0
100
AcDbLine
 62
7
  6
CONTINUOUS
 10
95.7195546132
 20
266.2397408174
 11
95.6120469852
 21
266.5534883166
  0
LINE
  5
2B3
100
AcDbEntity
  8
0
100
AcDbLine
 62
7
  6
CONTINUOUS
 10
110.9089892629
 20
221.3652311329
 11
111.0339895013
 21
220.9822522763
  0
LINE
  5
2B4
100
AcDbEntity
  8
KONSTRUKTIONSELEMENTE
100
AcDbLine
 62
7
  6
CONTINUOUS
 10
120.7214892629
 20
214.9396991495
 11
120.7214892629
 21
214.7396991495
  0
LINE
  5
2B5
100
AcDbEntity
  8
KONSTRUKTIONSELEMENTE
100
AcDbLine
 62
7
  6
CONTINUOUS
 10
122.8278957221
 20
117.6679023799
 11
122.8278957221
 21
107.5961056112
  0
LINE
  5
2B6
100
AcDbEntity
  8
KONSTRUKTIONSELEMENTE
100
AcDbLine
 62
7
  6
CONTINUOUS
 10
123.9714892629
 20
118.7396991495
 11
123.9714892629
 21
122.7396991495
  0
LINE
  5
2B7
100
AcDbEntity
  8
BEZUGSACHSEN
100
AcDbLine
 62
7
  6
CONTINUOUS
 10
141.4227654002
 20
245.5461949217
 11
139.8431218409
 21
241.7396991495
  0
LINE
  5
2B8
100
AcDbEntity
  8
BEZUGSACHSEN
100
AcDbLine
 62
7
  6
CONTINUOUS
 10
138.18317668
 20
237.7396991495
 11
137.1014140576
 21
235.1329561126
  0
LINE
  5
2B9
100
AcDbEntity
  8
BEZUGSACHSEN
100
AcDbLine
 62
7
  6
CONTINUOUS
 10
132.774488174
 20
224.706284231
 11
132.4156722072
 21
223.8416388794
  0
LINE
  5
2BA
100
AcDbEntity
  8
0
100
AcDbLine
 62
7
  6
CONTINUOUS
 10
110.2839895013
 20
219.7056565944
 11
109.7839892629
 21
219.5779970352
  0
LINE
  5
2BB
100
AcDbEntity
  8
0
100
AcDbLine
 62
7
  6
CONTINUOUS
 10
108.5339890245
 20
222.0035289291
 11
109.0339892629
 21
222.1311884884
  0
LINE
  5
2BC
100
AcDbEntity
  8
0
100
AcDbLine
 62
7
  6
CONTINUOUS
 10
109.7839892629
 20
218.9396991495
 11
110.4089890245
 21
219.0673587199
  0
LINE
  5
2BD
100
AcDbEntity
  8
0
100
AcDbLine
 62
7
  6
CONTINUOUS
 10
109.0339892629
 20
222.7694862846
 11
108.4089895013
 21
222.6418267254
  0
LINE
  5
2BE
100
AcDbEntity
  8
KONSTRUKTIONSELEMENTE
100
AcDbLine
 62
7
  6
CONTINUOUS
 10
97.2214892629
 20
214.7396991495
 11
120.7214892629
 21
214.7396991495
  0
LINE
  5
2BF
100
AcDbEntity
  8
BEZUGSACHSEN
100
AcDbLine
 62
7
  6
CONTINUOUS
 10
126.9714892629
 20
214.9396991495
 11
90.9714892629
 21
214.9396991495
  0
LINE
  5
2C0
100
AcDbEntity
  8
0
100
AcDbLine
 62
7
  6
CONTINUOUS
 10
104.7839892033
 20
218.1737417046
 11
105.4089891437
 21
218.1737417046
  0
LINE
  5
2C1
100
AcDbEntity
  8
0
100
AcDbLine
 62
7
  6
CONTINUOUS
 10
103.0339892629
 20
218.9396991495
 11
103.7839892629
 21
218.9396991495
  0
LINE
  5
2C2
100
AcDbEntity
  8
0
100
AcDbLine
 62
7
  6
CONTINUOUS
 10
109.0339892629
 20
218.9396991495
 11
109.7839892629
 21
218.9396991495
  0
LINE
  5
2C3
100
AcDbEntity
  8
0
100
AcDbLine
 62
7
  6
CONTINUOUS
 10
109.7839892629
 20
219.5779970352
 11
109.0339892629
 21
219.5779970352
  0
LINE
  5
2C4
100
AcDbEntity
  8
0
100
AcDbLine
 62
7
  6
CONTINUOUS
 10
106.1589891437
 20
219.5779970352
 11
105.5339893821
 21
219.5779970352
  0
LINE
  5
2C5
100
AcDbEntity
  8
0
100
AcDbLine
 62
7
  6
CONTINUOUS
 10
107.9089892629
 20
220.4716140393
 11
107.1589892629
 21
220.4716140393
  0
LINE
  5
2C6
100
AcDbEntity
  8
0
100
AcDbLine
 62
7
  6
CONTINUOUS
 10
107.1589892629
 20
221.6205502514
 11
108.0339891437
 21
221.6205502514
  0
LINE
  5
2C7
100
AcDbEntity
  8
0
100
AcDbLine
 62
7
  6
CONTINUOUS
 10
109.0339892629
 20
222.1311884884
 11
109.7839892629
 21
222.1311884884
  0
LINE
  5
2C8
100
AcDbEntity
  8
0
100
AcDbLine
 62
7
  6
CONTINUOUS
 10
112.6589890245
 20
222.5141671661
 11
113.6589895013
 21
222.5141671661
  0
LINE
  5
2C9
100
AcDbEntity
  8
0
100
AcDbLine
 62
7
  6
CONTINUOUS
 10
114.2839892629
 20
222.5141671661
 11
115.6589897397
 21
222.5141671661
  0
LINE
  5
2CA
100
AcDbEntity
  8
0
100
AcDbLine
 62
7
  6
CONTINUOUS
 10
114.6589892629
 20
219.0673587199
 11
115.4089892629
 21
218.9396991495
  0
LINE
  5
2CB
100
AcDbEntity
  8
0
100
AcDbLine
 62
7
  6
CONTINUOUS
 10
108.4089895013
 20
219.0673587199
 11
109.0339892629
 21
218.9396991495
  0
LINE
  5
2CC
100
AcDbEntity
  8
0
100
AcDbLine
 62
7
  6
CONTINUOUS
 10
115.4089892629
 20
219.4503374312
 11
114.7839887861
 21
219.5779970352
  0
LINE
  5
2CD
100
AcDbEntity
  8
0
100
AcDbLine
 62
7
  6
CONTINUOUS
 10
110.4089890245
 20
222.6418267254
 11
109.7839892629
 21
222.7694862846
  0
LINE
  5
2CE
100
AcDbEntity
  8
0
100
AcDbLine
 62
7
  6
CONTINUOUS
 10
109.0339892629
 20
219.5779970352
 11
108.5339890245
 21
219.7056565944
  0
LINE
  5
2CF
100
AcDbEntity
  8
0
100
AcDbLine
 62
7
  6
CONTINUOUS
 10
109.7839892629
 20
222.1311884884
 11
110.2839895013
 21
222.0035289291
  0
LINE
  5
2D0
100
AcDbEntity
  8
0
100
AcDbLine
 62
7
  6
CONTINUOUS
 10
114.2839892629
 20
219.1950182904
 11
114.6589892629
 21
219.0673587199
  0
LINE
  5
2D1
100
AcDbEntity
  8
0
100
AcDbLine
 62
7
  6
CONTINUOUS
 10
107.7839893821
 20
219.4503374312
 11
108.4089895013
 21
219.0673587199
  0
LINE
  5
2D2
100
AcDbEntity
  8
0
100
AcDbLine
 62
7
  6
CONTINUOUS
 10
111.0339895013
 20
222.2588480476
 11
110.4089890245
 21
222.6418267254
  0
LINE
  5
2D3
100
AcDbEntity
  8
0
100
AcDbLine
 62
7
  6
CONTINUOUS
 10
108.5339890245
 20
219.7056565944
 11
108.1589893821
 21
219.9609757129
  0
LINE
  5
2D4
100
AcDbEntity
  8
0
100
AcDbLine
 62
7
  6
CONTINUOUS
 10
113.9089892629
 20
219.4503374312
 11
114.2839892629
 21
219.1950182904
  0
LINE
  5
2D5
100
AcDbEntity
  8
0
100
AcDbLine
 62
7
  6
CONTINUOUS
 10
110.2839895013
 20
222.0035289291
 11
110.6589895013
 21
221.7482098106
  0
LINE
  5
2D6
100
AcDbEntity
  8
0
100
AcDbLine
 62
7
  6
CONTINUOUS
 10
114.7839887861
 20
219.5779970352
 11
114.4089887861
 21
219.8333161537
  0
LINE
  5
2D7
100
AcDbEntity
  8
0
100
AcDbLine
 62
7
  6
CONTINUOUS
 10
111.4089895013
 20
221.7482098106
 11
111.0339895013
 21
222.2588480476
  0
LINE
  5
2D8
100
AcDbEntity
  8
0
100
AcDbLine
 62
7
  6
CONTINUOUS
 10
110.6589895013
 20
221.7482098106
 11
110.9089892629
 21
221.3652311329
  0
LINE
  5
2D9
100
AcDbEntity
  8
0
100
AcDbLine
 62
7
  6
CONTINUOUS
 10
92.3835215029
 20
266.3790624144
 11
92.5425887668
 21
266.1168746249
  0
LINE
  5
2DA
100
AcDbEntity
  8
0
100
AcDbLine
 62
7
  6
CONTINUOUS
 10
91.7724822041
 20
265.030826477
 11
91.8788928813
 21
264.8212958642
  0
LINE
  5
2DB
100
AcDbEntity
  8
0
100
AcDbLine
 62
7
  6
CONTINUOUS
 10
92.2409089798
 20
265.0779981993
 11
92.1344983025
 21
265.2875288121
  0
LINE
  5
2DC
100
AcDbEntity
  8
0
100
AcDbLine
 62
7
  6
CONTINUOUS
 10
92.9046050127
 20
266.3735768124
 11
92.798194483
 21
266.5831078678
  0
LINE
  5
2DD
100
AcDbEntity
  8
0
100
AcDbLine
 62
7
  6
CONTINUOUS
 10
113.6589895013
 20
219.9609757129
 11
113.9089892629
 21
219.4503374312
  0
LINE
  5
2DE
100
AcDbEntity
  8
0
100
AcDbLine
 62
7
  6
CONTINUOUS
 10
114.4089887861
 20
219.8333161537
 11
114.2839892629
 21
220.2162949208
  0
LINE
  5
2DF
100
AcDbEntity
  8
0
100
AcDbLine
 62
7
  6
CONTINUOUS
 10
108.0964903954
 20
270.1833161686
 11
108.0235740069
 21
270.4811884735
  0
LINE
  5
2E0
100
AcDbEntity
  8
0
100
AcDbLine
 62
7
  6
CONTINUOUS
 10
107.5860737983
 20
270.4811884735
 11
107.658990604
 21
270.1088480923
  0
LINE
  5
2E1
100
AcDbEntity
  8
0
100
AcDbLine
 62
7
  6
CONTINUOUS
 10
113.7110735896
 20
271.5982097212
 11
113.6381572011
 21
271.970550311
  0
LINE
  5
2E2
100
AcDbEntity
  8
0
100
AcDbLine
 62
7
  6
CONTINUOUS
 10
109.7839892629
 20
222.7694862846
 11
109.0339892629
 21
222.7694862846
  0
LINE
  5
2E3
100
AcDbEntity
  8
0
100
AcDbLine
 62
7
  6
CONTINUOUS
 10
115.6589897397
 20
223.0248054031
 11
114.2839892629
 21
223.0248054031
  0
LINE
  5
2E4
100
AcDbEntity
  8
0
100
AcDbLine
 62
7
  6
CONTINUOUS
 10
113.6589895013
 20
223.0248054031
 11
112.6589890245
 21
223.0248054031
  0
LINE
  5
2E5
100
AcDbEntity
  8
0
100
AcDbLine
 62
7
  6
CONTINUOUS
 10
114.2839892629
 20
224.0460822348
 11
113.6589895013
 21
224.0460822348
  0
LINE
  5
2E6
100
AcDbEntity
  8
0
100
AcDbLine
 62
7
  6
CONTINUOUS
 10
107.7839893821
 20
224.3014013533
 11
111.4089895013
 21
224.3014013533
  0
LINE
  5
2E7
100
AcDbEntity
  8
0
100
AcDbLine
 62
7
  6
CONTINUOUS
 10
111.4089895013
 20
224.9396991495
 11
107.1589892629
 21
224.9396991495
  0
LINE
  5
2E8
100
AcDbEntity
  8
0
100
AcDbLine
 62
7
  6
CONTINUOUS
 10
103.7839892629
 20
224.9396991495
 11
103.0339892629
 21
224.9396991495
  0
LINE
  5
2E9
100
AcDbEntity
  8
0
100
AcDbLine
 62
7
  6
CONTINUOUS
 10
82.9714892629
 20
225.9396991495
 11
83.3212363593
 21
225.9396991495
  0
LINE
  5
2EA
100
AcDbEntity
  8
0
100
AcDbLine
 62
7
  6
CONTINUOUS
 10
134.6217421666
 20
225.9396991495
 11
134.9714892629
 21
225.9396991495
  0
LINE
  5
2EB
100
AcDbEntity
  8
0
100
AcDbLine
 62
7
  6
CONTINUOUS
 10
107.002740604
 20
269.2896991495
 11
106.346490604
 21
271.0024651114
  0
LINE
  5
2EC
100
AcDbEntity
  8
0
100
AcDbLine
 62
7
  6
CONTINUOUS
 10
105.9089904997
 20
270.8535289589
 11
106.4923237983
 21
269.2896991495
  0
LINE
  5
2ED
100
AcDbEntity
  8
0
100
AcDbLine
 62
7
  6
CONTINUOUS
 10
106.4194072011
 20
272.1939545397
 11
106.4923237983
 21
271.970550311
  0
LINE
  5
2EE
100
AcDbEntity
  8
0
100
AcDbLine
 62
7
  6
CONTINUOUS
 10
106.9298237983
 20
271.970550311
 11
106.8569072011
 21
272.1939545397
  0
LINE
  5
2EF
100
AcDbEntity
  8
0
100
AcDbLine
 62
7
  6
CONTINUOUS
 10
113.2006572011
 20
271.8960820261
 11
113.2735735896
 21
271.5982097212
  0
LINE
  5
2F0
100
AcDbEntity
  8
RUNDUNGEN
100
AcDbLine
 62
7
  6
CONTINUOUS
 10
136.9600786565
 20
234.1530350903
 11
136.9714892629
 21
233.9396991495
  0
LINE
  5
2F1
100
AcDbEntity
  8
BEZUGSACHSEN
100
AcDbLine
 62
7
  6
CONTINUOUS
 10
136.9714892629
 20
233.9396991495
 11
136.9600786565
 21
234.1530350903
  0
LINE
  5
2F2
100
AcDbEntity
  8
BEZUGSACHSEN
100
AcDbLine
 62
7
  6
CONTINUOUS
 10
136.9714892629
 20
233.9396991495
 11
136.9714892629
 21
227.9396991495
  0
LINE
  5
2F3
100
AcDbEntity
  8
RUNDUNGEN
100
AcDbLine
 62
7
  6
CONTINUOUS
 10
143.9714892629
 20
237.7396991495
 11
99.4714892629
 21
237.7396991495
  0
LINE
  5
2F4
100
AcDbEntity
  8
0
100
AcDbLine
 62
7
  6
CONTINUOUS
 10
89.4369296613
 20
264.1696669165
 11
91.9118033955
 21
261.6947931823
  0
LINE
  5
2F5
100
AcDbEntity
  8
0
100
AcDbLine
 62
7
  6
CONTINUOUS
 10
92.2211626122
 20
262.0041523991
 11
91.1153679494
 21
263.1099470619
  0
LINE
  5
2F6
100
AcDbEntity
  8
0
100
AcDbLine
 62
7
  6
CONTINUOUS
 10
90.7994266593
 20
263.425888352
 11
90.0095732865
 21
264.2157417248
  0
LINE
  5
2F7
100
AcDbEntity
  8
0
100
AcDbLine
 62
7
  6
CONTINUOUS
 10
91.6145114115
 20
265.1887972696
 11
91.7724822041
 21
265.030826477
  0
LINE
  5
2F8
100
AcDbEntity
  8
0
100
AcDbLine
 62
7
  6
CONTINUOUS
 10
92.1344983025
 20
265.2875288121
 11
91.9238706283
 21
265.4981564864
  0
LINE
  5
2F9
100
AcDbEntity
  8
0
100
AcDbLine
 62
7
  6
CONTINUOUS
 10
92.5425887668
 20
266.1168746249
 11
92.753216441
 21
265.9062469506
  0
LINE
  5
2FA
100
AcDbEntity
  8
0
100
AcDbLine
 62
7
  6
CONTINUOUS
 10
93.0099187761
 20
266.2682630491
 11
92.9046050127
 21
266.3735768124
  0
LINE
  5
2FB
100
AcDbEntity
  8
0
100
AcDbLine
 62
7
  6
CONTINUOUS
 10
95.0920602417
 20
266.4547566265
 11
95.2500308867
 21
266.2967859815
  0
LINE
  5
2FC
100
AcDbEntity
  8
0
100
AcDbLine
 62
7
  6
CONTINUOUS
 10
95.6120469852
 20
266.5534883166
 11
95.3487625768
 21
266.816772725
  0
LINE
  5
2FD
100
AcDbEntity
  8
0
100
AcDbLine
 62
7
  6
CONTINUOUS
 10
107.658990604
 20
270.1088480923
 11
107.8048240069
 21
269.8109757353
  0
LINE
  5
2FE
100
AcDbEntity
  8
0
100
AcDbLine
 62
7
  6
CONTINUOUS
 10
113.6381572011
 20
271.970550311
 11
113.4923235896
 21
272.2684226159
  0
LINE
  5
2FF
100
AcDbEntity
  8
RUNDUNGEN
100
AcDbLine
 62
7
  6
CONTINUOUS
 10
144.4714892629
 20
241.2396991495
 11
144.4714892629
 21
238.2396991495
  0
LINE
  5
300
100
AcDbEntity
  8
RUNDUNGEN
100
AcDbLine
 62
7
  6
CONTINUOUS
 10
99.4714892629
 20
241.7396991495
 11
143.9714892629
 21
241.7396991495
  0
LINE
  5
301
100
AcDbEntity
  8
0
100
AcDbLine
 62
7
  6
CONTINUOUS
 10
105.4714892629
 20
242.0396991495
 11
112.4714892629
 21
242.0396991495
  0
LINE
  5
302
100
AcDbEntity
  8
0
100
AcDbLine
 62
7
  6
CONTINUOUS
 10
90.152185699
 20
260.5670581398
 11
87.2714151439
 21
262.0041523991
  0
LINE
  5
303
100
AcDbEntity
  8
0
100
AcDbLine
 62
7
  6
CONTINUOUS
 10
86.9620559272
 20
261.6947931823
 11
90.2618875973
 21
260.0448773841
  0
LINE
  5
304
100
AcDbEntity
  8
0
100
AcDbLine
 62
7
  6
CONTINUOUS
 10
106.8569072011
 20
272.1939545397
 11
106.6381572011
 21
272.4918268446
  0
LINE
  5
305
100
AcDbEntity
  8
0
100
AcDbLine
 62
7
  6
CONTINUOUS
 10
108.2423240069
 20
269.9599119399
 11
108.0964903954
 21
270.1833161686
  0
LINE
  5
306
100
AcDbEntity
  8
0
100
AcDbLine
 62
7
  6
CONTINUOUS
 10
113.0548235896
 20
272.1194864634
 11
113.2006572011
 21
271.8960820261
  0
LINE
  5
307
100
AcDbEntity
  8
0
100
AcDbLine
 62
7
  6
CONTINUOUS
 10
93.8710783367
 20
263.6540681235
 11
92.1959310853
 21
264.4011377246
  0
LINE
  5
308
100
AcDbEntity
  8
0
100
AcDbLine
 62
7
  6
CONTINUOUS
 10
91.9918856319
 20
263.9864647444
 11
93.5101594471
 21
263.293149234
  0
LINE
  5
309
100
AcDbEntity
  8
0
100
AcDbLine
 62
7
  6
CONTINUOUS
 10
91.4049807986
 20
265.2952079468
 11
91.6145114115
 21
265.1887972696
  0
LINE
  5
30A
100
AcDbEntity
  8
0
100
AcDbLine
 62
7
  6
CONTINUOUS
 10
91.9238706283
 20
265.4981564864
 11
91.7143400154
 21
265.6045671636
  0
LINE
  5
30B
100
AcDbEntity
  8
0
100
AcDbLine
 62
7
  6
CONTINUOUS
 10
94.117907783
 20
264.954035351
 11
93.9083768752
 21
265.0604457333
  0
LINE
  5
30C
100
AcDbEntity
  8
0
100
AcDbLine
 62
7
  6
CONTINUOUS
 10
93.219449684
 20
266.1618526669
 11
93.0099187761
 21
266.2682630491
  0
LINE
  5
30D
100
AcDbEntity
  8
0
100
AcDbLine
 62
7
  6
CONTINUOUS
 10
94.1409451135
 20
267.7152309715
 11
93.9314142056
 21
267.8216413538
  0
LINE
  5
30E
100
AcDbEntity
  8
0
100
AcDbLine
 62
7
  6
CONTINUOUS
 10
93.5990179534
 20
264.7510868115
 11
93.8612051529
 21
264.5920189576
  0
LINE
  5
30F
100
AcDbEntity
  8
0
100
AcDbLine
 62
7
  6
CONTINUOUS
 10
92.753216441
 20
265.9062469506
 11
93.0154042306
 21
265.7471796867
  0
LINE
  5
310
100
AcDbEntity
  8
0
100
AcDbLine
 62
7
  6
CONTINUOUS
 10
107.8048240069
 20
269.8109757353
 11
108.0964903954
 21
269.5131034043
  0
LINE
  5
311
100
AcDbEntity
  8
0
100
AcDbLine
 62
7
  6
CONTINUOUS
 10
106.2735737983
 20
272.3428906921
 11
106.4194072011
 21
272.1939545397
  0
LINE
  5
312
100
AcDbEntity
  8
0
100
AcDbLine
 62
7
  6
CONTINUOUS
 10
113.4923235896
 20
272.2684226159
 11
113.2006572011
 21
272.5662949208
  0
LINE
  5
313
100
AcDbEntity
  8
RUNDUNGEN
100
AcDbLine
 62
7
  6
CONTINUOUS
 10
132.6764063639
 20
268.5782376525
 11
141.2068251259
 21
247.9839849843
  0
LINE
  5
314
100
AcDbEntity
  8
BEZUGSACHSEN
100
AcDbLine
 62
7
  6
CONTINUOUS
 10
141.2068251259
 20
247.9839849843
 11
141.4233967408
 21
247.4611348544
  0
LINE
  5
315
100
AcDbEntity
  8
0
100
AcDbLine
 62
7
  6
CONTINUOUS
 10
91.7143400154
 20
265.6045671636
 11
91.3490328803
 21
265.660515082
  0
LINE
  5
316
100
AcDbEntity
  8
0
100
AcDbLine
 62
7
  6
CONTINUOUS
 10
94.8309695873
 20
266.5096074097
 11
95.0920602417
 21
266.4547566265
  0
LINE
  5
317
100
AcDbEntity
  8
0
100
AcDbLine
 62
7
  6
CONTINUOUS
 10
93.8612051529
 20
264.5920189576
 11
94.2791695201
 21
264.4834143972
  0
LINE
  5
318
100
AcDbEntity
  8
0
100
AcDbLine
 62
7
  6
CONTINUOUS
 10
95.3487625768
 20
266.816772725
 11
95.0350150407
 21
266.9242803899
  0
LINE
  5
319
100
AcDbEntity
  8
0
100
AcDbLine
 62
7
  6
CONTINUOUS
 10
93.6747118705
 20
267.4596252553
 11
93.8315858967
 21
267.4058717548
  0
LINE
  5
31A
100
AcDbEntity
  8
0
100
AcDbLine
 62
7
  6
CONTINUOUS
 10
108.0964903954
 20
269.5131034043
 11
108.3881572011
 21
269.3641672323
  0
LINE
  5
31B
100
AcDbEntity
  8
0
100
AcDbLine
 62
7
  6
CONTINUOUS
 10
108.4610740069
 20
269.8109757353
 11
108.2423240069
 21
269.9599119399
  0
LINE
  5
31C
100
AcDbEntity
  8
0
100
AcDbLine
 62
7
  6
CONTINUOUS
 10
112.8360735896
 20
272.2684226159
 11
113.0548235896
 21
272.1194864634
  0
LINE
  5
31D
100
AcDbEntity
  8
0
100
AcDbLine
 62
7
  6
CONTINUOUS
 10
106.6381572011
 20
272.4918268446
 11
106.346490604
 21
272.7152310733
  0
LINE
  5
31E
100
AcDbEntity
  8
0
100
AcDbLine
 62
7
  6
CONTINUOUS
 10
127.3014960366
 20
261.3448503991
 11
127.4678948101
 21
261.1904387054
  0
LINE
  5
31F
100
AcDbEntity
  8
0
100
AcDbLine
 62
7
  6
CONTINUOUS
 10
125.2014960366
 20
263.4448503991
 11
125.3678948101
 21
263.2904387054
  0
LINE
  5
320
100
AcDbEntity
  8
0
100
AcDbLine
 62
7
  6
CONTINUOUS
 10
127.5375532691
 20
263.214832067
 11
128.2603622792
 21
262.4920230569
  0
LINE
  5
321
100
AcDbEntity
  8
0
100
AcDbLine
 62
7
  6
CONTINUOUS
 10
128.6308581287
 20
262.8625189064
 11
127.9086595733
 21
263.5847174618
  0
LINE
  5
322
100
AcDbEntity
  8
0
100
AcDbLine
 62
7
  6
CONTINUOUS
 10
112.8360735896
 20
269.8109757353
 11
112.5444072011
 21
269.736507659
  0
LINE
  5
323
100
AcDbEntity
  8
0
100
AcDbLine
 62
7
  6
CONTINUOUS
 10
109.3360740069
 20
269.8109757353
 11
109.0444072011
 21
269.736507659
  0
LINE
  5
324
100
AcDbEntity
  8
0
100
AcDbLine
 62
7
  6
CONTINUOUS
 10
94.2791695201
 20
264.4834143972
 11
94.6949391329
 21
264.5832426923
  0
LINE
  5
325
100
AcDbEntity
  8
0
100
AcDbLine
 62
7
  6
CONTINUOUS
 10
112.5444072011
 20
269.2896991495
 11
112.9089908126
 21
269.3641672323
  0
LINE
  5
326
100
AcDbEntity
  8
0
100
AcDbLine
 62
7
  6
CONTINUOUS
 10
109.0444072011
 20
269.2896991495
 11
109.4089903954
 21
269.3641672323
  0
LINE
  5
327
100
AcDbEntity
  8
0
100
AcDbLine
 62
7
  6
CONTINUOUS
 10
93.4794430557
 20
266.2112185119
 11
93.219449684
 21
266.1618526669
  0
LINE
  5
328
100
AcDbEntity
  8
0
100
AcDbLine
 62
7
  6
CONTINUOUS
 10
94.5709762155
 20
266.4602415647
 11
94.8309695873
 21
266.5096074097
  0
LINE
  5
329
100
AcDbEntity
  8
0
100
AcDbLine
 62
7
  6
CONTINUOUS
 10
91.3490328803
 20
265.660515082
 11
90.9848226591
 21
265.6122461508
  0
LINE
  5
32A
100
AcDbEntity
  8
0
100
AcDbLine
 62
7
  6
CONTINUOUS
 10
93.5661070705
 20
267.8775892721
 11
93.2018971442
 21
267.829320636
  0
LINE
  5
32B
100
AcDbEntity
  8
0
100
AcDbLine
 62
7
  6
CONTINUOUS
 10
104.2319072011
 20
269.2896991495
 11
104.6694072011
 21
269.2896991495
  0
LINE
  5
32C
100
AcDbEntity
  8
0
100
AcDbLine
 62
7
  6
CONTINUOUS
 10
106.4923237983
 20
269.2896991495
 11
107.002740604
 21
269.2896991495
  0
LINE
  5
32D
100
AcDbEntity
  8
0
100
AcDbLine
 62
7
  6
CONTINUOUS
 10
108.7527403954
 20
269.2896991495
 11
109.0444072011
 21
269.2896991495
  0
LINE
  5
32E
100
AcDbEntity
  8
0
100
AcDbLine
 62
7
  6
CONTINUOUS
 10
110.7944072011
 20
269.2896991495
 11
112.5444072011
 21
269.2896991495
  0
LINE
  5
32F
100
AcDbEntity
  8
0
100
AcDbLine
 62
7
  6
CONTINUOUS
 10
112.5444072011
 20
269.736507659
 11
111.2319072011
 21
269.736507659
  0
LINE
  5
330
100
AcDbEntity
  8
0
100
AcDbLine
 62
7
  6
CONTINUOUS
 10
109.0444072011
 20
269.736507659
 11
108.7527403954
 21
269.736507659
  0
LINE
  5
331
100
AcDbEntity
  8
0
100
AcDbLine
 62
7
  6
CONTINUOUS
 10
104.6694072011
 20
270.8535289589
 11
105.9089904997
 21
270.8535289589
  0
LINE
  5
332
100
AcDbEntity
  8
0
100
AcDbLine
 62
7
  6
CONTINUOUS
 10
106.0548237983
 20
271.3003374163
 11
104.6694072011
 21
271.3003374163
  0
LINE
  5
333
100
AcDbEntity
  8
0
100
AcDbLine
 62
7
  6
CONTINUOUS
 10
111.2319072011
 20
272.3428906921
 11
112.5444072011
 21
272.3428906921
  0
LINE
  5
334
100
AcDbEntity
  8
0
100
AcDbLine
 62
7
  6
CONTINUOUS
 10
104.6694072011
 20
272.4173587684
 11
106.0548237983
 21
272.4173587684
  0
LINE
  5
335
100
AcDbEntity
  8
0
100
AcDbLine
 62
7
  6
CONTINUOUS
 10
112.5444072011
 20
272.7896991495
 11
110.7944072011
 21
272.7896991495
  0
LINE
  5
336
100
AcDbEntity
  8
0
100
AcDbLine
 62
7
  6
CONTINUOUS
 10
110.2110740069
 20
272.7896991495
 11
109.7735740069
 21
272.7896991495
  0
LINE
  5
337
100
AcDbEntity
  8
0
100
AcDbLine
 62
7
  6
CONTINUOUS
 10
108.0235740069
 20
272.7896991495
 11
107.5860737983
 21
272.7896991495
  0
LINE
  5
338
100
AcDbEntity
  8
0
100
AcDbLine
 62
7
  6
CONTINUOUS
 10
105.9819072011
 20
272.7896991495
 11
104.2319072011
 21
272.7896991495
  0
LINE
  5
339
100
AcDbEntity
  8
0
100
AcDbLine
 62
7
  6
CONTINUOUS
 10
94.4305580733
 20
264.9507442775
 11
94.117907783
 21
264.954035351
  0
LINE
  5
33A
100
AcDbEntity
  8
0
100
AcDbLine
 62
7
  6
CONTINUOUS
 10
91.1965473947
 20
265.2974020696
 11
91.4049807986
 21
265.2952079468
  0
LINE
  5
33B
100
AcDbEntity
  8
0
100
AcDbLine
 62
7
  6
CONTINUOUS
 10
93.0154042306
 20
265.7471796867
 11
93.4322710385
 21
265.7427914411
  0
LINE
  5
33C
100
AcDbEntity
  8
0
100
AcDbLine
 62
7
  6
CONTINUOUS
 10
95.0350150407
 20
266.9242803899
 11
94.6181482328
 21
266.9286686354
  0
LINE
  5
33D
100
AcDbEntity
  8
0
100
AcDbLine
 62
7
  6
CONTINUOUS
 10
93.4662787616
 20
267.4618196731
 11
93.6747118705
 21
267.4596252553
  0
LINE
  5
33E
100
AcDbEntity
  8
0
100
AcDbLine
 62
7
  6
CONTINUOUS
 10
93.9314142056
 20
267.8216413538
 11
93.5661070705
 21
267.8775892721
  0
LINE
  5
33F
100
AcDbEntity
  8
0
100
AcDbLine
 62
7
  6
CONTINUOUS
 10
108.3881572011
 20
269.3641672323
 11
108.7527403954
 21
269.2896991495
  0
LINE
  5
340
100
AcDbEntity
  8
0
100
AcDbLine
 62
7
  6
CONTINUOUS
 10
106.346490604
 20
272.7152310733
 11
105.9819072011
 21
272.7896991495
  0
LINE
  5
341
100
AcDbEntity
  8
0
100
AcDbLine
 62
7
  6
CONTINUOUS
 10
112.9089908126
 20
272.7152310733
 11
112.5444072011
 21
272.7896991495
  0
LINE
  5
342
100
AcDbEntity
  8
0
100
AcDbLine
 62
7
  6
CONTINUOUS
 10
108.7527403954
 20
269.736507659
 11
108.4610740069
 21
269.8109757353
  0
LINE
  5
343
100
AcDbEntity
  8
0
100
AcDbLine
 62
7
  6
CONTINUOUS
 10
112.5444072011
 20
272.3428906921
 11
112.8360735896
 21
272.2684226159
  0
LINE
  5
344
100
AcDbEntity
  8
0
100
AcDbLine
 62
7
  6
CONTINUOUS
 10
106.0548237983
 20
272.4173587684
 11
106.2735737983
 21
272.3428906921
  0
LINE
  5
345
100
AcDbEntity
  8
0
100
AcDbLine
 62
7
  6
CONTINUOUS
 10
113.2006572011
 20
272.5662949208
 11
112.9089908126
 21
272.7152310733
  0
LINE
  5
346
100
AcDbEntity
  8
KONSTRUKTIONSELEMENTE
100
AcDbLine
 62
7
  6
CONTINUOUS
 10
96.9714892641
 20
118.7396991495
 11
95.1150828037
 21
117.6679023799
  0
LINE
  5
347
100
AcDbEntity
  8
RUNDUNGEN
100
AcDbLine
 62
7
  6
CONTINUOUS
 10
109.9281978438
 20
278.7934174801
 11
131.3234161135
 21
269.9312279028
  0
LINE
  5
348
100
AcDbEntity
  8
BEZUGSACHSEN
100
AcDbLine
 62
7
  6
CONTINUOUS
 10
122.8278957221
 20
107.5961056112
 11
117.971489262
 21
102.7396991511
  0
LINE
  5
349
100
AcDbEntity
  8
KONSTRUKTIONSELEMENTE
100
AcDbLine
 62
7
  6
CONTINUOUS
 10
116.9714892629
 20
96.2396991495
 11
115.4714892629
 21
94.7396991495
  0
LINE
  5
34A
100
AcDbEntity
  8
KONSTRUKTIONSELEMENTE
100
AcDbLine
 62
7
  6
CONTINUOUS
 10
243.0779227019
 20
94.7396991495
 11
256.0779227019
 21
94.7396991495
  0
LINE
  5
34B
100
AcDbEntity
  8
KONSTRUKTIONSELEMENTE
100
AcDbLine
 62
7
  6
CONTINUOUS
 10
241.5779227019
 20
96.2396991495
 11
257.5779227019
 21
96.2396991495
  0
LINE
  5
34C
100
AcDbEntity
  8
BEZUGSACHSEN
100
AcDbLine
 62
7
  6
CONTINUOUS
 10
258.5775183108
 20
102.7396991511
 11
240.578327093
 21
102.7396991511
  0
LINE
  5
34D
100
AcDbEntity
  8
KONSTRUKTIONSELEMENTE
100
AcDbLine
 62
7
  6
CONTINUOUS
 10
234.5779227019
 20
118.7396991495
 11
264.5779227019
 21
118.7396991495
  0
LINE
  5
34E
100
AcDbEntity
  8
KONSTRUKTIONSELEMENTE
100
AcDbLine
 62
7
  6
CONTINUOUS
 10
241.5779227019
 20
96.2396991495
 11
243.0779227019
 21
94.7396991495
  0
LINE
  5
34F
100
AcDbEntity
  8
BEZUGSACHSEN
100
AcDbLine
 62
7
  6
CONTINUOUS
 10
237.5412533672
 20
105.7763684867
 11
240.5779227028
 21
102.7396991511
  0
LINE
  5
350
100
AcDbEntity
  8
KONSTRUKTIONSELEMENTE
100
AcDbLine
 62
7
  6
CONTINUOUS
 10
234.5779227019
 20
122.7396991495
 11
264.5779227019
 21
122.7396991495
  0
LINE
  5
351
100
AcDbEntity
  8
BEZUGSACHSEN
100
AcDbLine
 62
7
  6
CONTINUOUS
 10
230.9642071006
 20
229.0909807959
 11
238.4591128001
 21
232.5859127207
  0
LINE
  5
352
100
AcDbEntity
  8
0
100
AcDbLine
 62
7
  6
CONTINUOUS
 10
231.5779227019
 20
238.2396991495
 11
231.5779227019
 21
241.2396991495
  0
LINE
  5
353
100
AcDbEntity
  8
KONSTRUKTIONSELEMENTE
100
AcDbLine
 62
7
  6
CONTINUOUS
 10
234.5779227019
 20
118.7396991495
 11
234.5779227019
 21
122.7396991495
  0
LINE
  5
354
100
AcDbEntity
  8
0
100
AcDbLine
 62
7
  6
CONTINUOUS
 10
230.3626500662
 20
218.9524651084
 11
230.3649761407
 21
218.9396991495
  0
LINE
  5
355
100
AcDbEntity
  8
0
100
AcDbLine
 62
7
  6
CONTINUOUS
 10
230.252425013
 20
219.5779970352
 11
230.249538298
 21
219.5939544691
  0
LINE
  5
356
100
AcDbEntity
  8
0
100
AcDbLine
 62
7
  6
CONTINUOUS
 10
230.08007661
 20
220.9822522763
 11
230.1259052613
 21
220.7269331578
  0
LINE
  5
357
100
AcDbEntity
  8
0
100
AcDbLine
 62
7
  6
CONTINUOUS
 10
229.3069395889
 20
224.9396991495
 11
229.4194887121
 21
224.3014013533
  0
LINE
  5
358
100
AcDbEntity
  8
0
100
AcDbLine
 62
7
  6
CONTINUOUS
 10
229.6918576541
 20
222.7567203238
 11
229.8049695208
 21
222.1152310511
  0
LINE
  5
359
100
AcDbEntity
  8
0
100
AcDbLine
 62
7
  6
CONTINUOUS
 10
230.2527237691
 20
219.5758905226
 11
230.3626504896
 21
218.9524651114
  0
LINE
  5
35A
100
AcDbEntity
  8
BEZUGSACHSEN
100
AcDbLine
 62
7
  6
CONTINUOUS
 10
229.5587333724
 20
226.3910908841
 11
229.8146528948
 21
224.9396991495
  0
LINE
  5
35B
100
AcDbEntity
  8
BEZUGSACHSEN
100
AcDbLine
 62
7
  6
CONTINUOUS
 10
229.9300125174
 20
224.2854622193
 11
229.9705375315
 21
224.0556334434
  0
LINE
  5
35C
100
AcDbEntity
  8
BEZUGSACHSEN
100
AcDbLine
 62
7
  6
CONTINUOUS
 10
230.8730050318
 20
218.9374859165
 11
231.5779227019
 21
214.9396991495
  0
LINE
  5
35D
100
AcDbEntity
  8
0
100
AcDbLine
 62
7
  6
CONTINUOUS
 10
229.6896698349
 20
222.7694862846
 11
229.6918584193
 21
222.7567203292
  0
LINE
  5
35E
100
AcDbEntity
  8
BEZUGSACHSEN
100
AcDbLine
 62
7
  6
CONTINUOUS
 10
237.5779227031
 20
107.5961056112
 11
237.5779227031
 21
105.7396448661
  0
LINE
  5
35F
100
AcDbEntity
  8
KONSTRUKTIONSELEMENTE
100
AcDbLine
 62
7
  6
CONTINUOUS
 10
237.5779227031
 20
107.5961056112
 11
237.5779227031
 21
118.7396991554
  0
LINE
  5
360
100
AcDbEntity
  8
KONSTRUKTIONSELEMENTE
100
AcDbLine
 62
7
  6
CONTINUOUS
 10
237.8279227019
 20
214.9396991495
 11
237.8279227019
 21
214.7396991495
  0
LINE
  5
361
100
AcDbEntity
  8
KONSTRUKTIONSELEMENTE
100
AcDbLine
 62
7
  6
CONTINUOUS
 10
241.5779227019
 20
214.7396991495
 11
241.5779227019
 21
122.7396991495
  0
LINE
  5
362
100
AcDbEntity
  8
KONSTRUKTIONSELEMENTE
100
AcDbLine
 62
7
  6
CONTINUOUS
 10
241.5779227019
 20
102.7396991511
 11
241.5779227019
 21
96.2396991495
  0
LINE
  5
363
100
AcDbEntity
  8
BEZUGSACHSEN
100
AcDbLine
 62
7
  6
CONTINUOUS
 10
243.0779227019
 20
239.8363401379
 11
243.0779227019
 21
276.4837186488
  0
LINE
  5
364
100
AcDbEntity
  8
KONSTRUKTIONSELEMENTE
100
AcDbLine
 62
7
  6
CONTINUOUS
 10
249.5779227019
 20
117.6679023799
 11
249.5779227019
 21
107.5961056112
  0
LINE
  5
365
100
AcDbEntity
  8
RUNDUNGEN
100
AcDbLine
 62
7
  6
CONTINUOUS
 10
256.0779227019
 20
239.8363401379
 11
256.0779227019
 21
276.4837186488
  0
LINE
  5
366
100
AcDbEntity
  8
0
100
AcDbLine
 62
7
  6
CONTINUOUS
 10
256.5779227019
 20
272.7896991495
 11
256.5779227019
 21
269.2896991495
  0
LINE
  5
367
100
AcDbEntity
  8
0
100
AcDbLine
 62
7
  6
CONTINUOUS
 10
256.5779227019
 20
267.8775892721
 11
256.5779227019
 21
265.7471796867
  0
LINE
  5
368
100
AcDbEntity
  8
0
100
AcDbLine
 62
7
  6
CONTINUOUS
 10
256.5779227019
 20
265.7427914411
 11
256.5779227019
 21
260.0448773841
  0
LINE
  5
369
100
AcDbEntity
  8
KONSTRUKTIONSELEMENTE
100
AcDbLine
 62
7
  6
CONTINUOUS
 10
257.5779227019
 20
214.7396991495
 11
257.5779227019
 21
122.7396991495
  0
LINE
  5
36A
100
AcDbEntity
  8
KONSTRUKTIONSELEMENTE
100
AcDbLine
 62
7
  6
CONTINUOUS
 10
257.5779227019
 20
102.7396991511
 11
257.5779227019
 21
96.2396991495
  0
LINE
  5
36B
100
AcDbEntity
  8
KONSTRUKTIONSELEMENTE
100
AcDbLine
 62
7
  6
CONTINUOUS
 10
261.3279227019
 20
214.9396991495
 11
261.3279227019
 21
214.7396991495
  0
LINE
  5
36C
100
AcDbEntity
  8
KONSTRUKTIONSELEMENTE
100
AcDbLine
 62
7
  6
CONTINUOUS
 10
261.5779227007
 20
118.7396991554
 11
261.5779227007
 21
107.5961056112
  0
LINE
  5
36D
100
AcDbEntity
  8
BEZUGSACHSEN
100
AcDbLine
 62
7
  6
CONTINUOUS
 10
261.5779227007
 20
105.7396448661
 11
261.5779227007
 21
107.5961056112
  0
LINE
  5
36E
100
AcDbEntity
  8
KONSTRUKTIONSELEMENTE
100
AcDbLine
 62
7
  6
CONTINUOUS
 10
264.5779227019
 20
118.7396991495
 11
264.5779227019
 21
122.7396991495
  0
LINE
  5
36F
100
AcDbEntity
  8
0
100
AcDbLine
 62
7
  6
CONTINUOUS
 10
267.5779227019
 20
214.9396991495
 11
268.1481716611
 21
218.1737417046
  0
LINE
  5
370
100
AcDbEntity
  8
0
100
AcDbLine
 62
7
  6
CONTINUOUS
 10
269.3440120167
 20
224.9556893724
 11
269.5971120314
 21
226.3910908841
  0
LINE
  5
371
100
AcDbEntity
  8
0
100
AcDbLine
 62
7
  6
CONTINUOUS
 10
267.5779227019
 20
238.2396991495
 11
267.5779227019
 21
241.2396991495
  0
LINE
  5
372
100
AcDbEntity
  8
0
100
AcDbLine
 62
7
  6
CONTINUOUS
 10
269.4661755689
 20
222.7694862846
 11
269.4639869845
 21
222.7567203292
  0
LINE
  5
373
100
AcDbEntity
  8
0
100
AcDbLine
 62
7
  6
CONTINUOUS
 10
268.7931949142
 20
218.9524651114
 11
268.9063067964
 21
219.5939544725
  0
LINE
  5
374
100
AcDbEntity
  8
0
100
AcDbLine
 62
7
  6
CONTINUOUS
 10
269.3508754184
 20
222.1152310561
 11
269.4639877496
 21
222.7567203238
  0
LINE
  5
375
100
AcDbEntity
  8
0
100
AcDbLine
 62
7
  6
CONTINUOUS
 10
269.7363566917
 20
224.3014013533
 11
269.8489058149
 21
224.9396991495
  0
LINE
  5
376
100
AcDbEntity
  8
0
100
AcDbLine
 62
7
  6
CONTINUOUS
 10
269.0757687937
 20
220.9822522763
 11
269.0299401425
 21
220.7269331578
  0
LINE
  5
377
100
AcDbEntity
  8
0
100
AcDbLine
 62
7
  6
CONTINUOUS
 10
268.9034203908
 20
219.5779970352
 11
268.9063071058
 21
219.5939544691
  0
LINE
  5
378
100
AcDbEntity
  8
0
100
AcDbLine
 62
7
  6
CONTINUOUS
 10
268.7931953376
 20
218.9524651084
 11
268.7908692631
 21
218.9396991495
  0
LINE
  5
379
100
AcDbEntity
  8
KONSTRUKTIONSELEMENTE
100
AcDbLine
 62
7
  6
CONTINUOUS
 10
237.8279227019
 20
214.7396991495
 11
261.3279227019
 21
214.7396991495
  0
LINE
  5
37A
100
AcDbEntity
  8
BEZUGSACHSEN
100
AcDbLine
 62
7
  6
CONTINUOUS
 10
231.5780375158
 20
214.9396991495
 11
267.577807888
 21
214.9396991495
  0
LINE
  5
37B
100
AcDbEntity
  8
0
100
AcDbLine
 62
7
  6
CONTINUOUS
 10
231.0076737427
 20
218.1737417046
 11
230.7539913615
 21
218.1737417046
  0
LINE
  5
37C
100
AcDbEntity
  8
0
100
AcDbLine
 62
7
  6
CONTINUOUS
 10
267.7873138225
 20
218.1737417046
 11
268.4018540423
 21
218.1737417046
  0
LINE
  5
37D
100
AcDbEntity
  8
0
100
AcDbLine
 62
7
  6
CONTINUOUS
 10
231.7156088611
 20
218.9396991495
 11
231.1877363196
 21
218.9396991495
  0
LINE
  5
37E
100
AcDbEntity
  8
0
100
AcDbLine
 62
7
  6
CONTINUOUS
 10
230.8855569
 20
218.9396991495
 11
230.3775511044
 21
218.9396991495
  0
LINE
  5
37F
100
AcDbEntity
  8
0
100
AcDbLine
 62
7
  6
CONTINUOUS
 10
230.3649761407
 20
218.9396991495
 11
230.3739616625
 21
218.9396991495
  0
LINE
  5
380
100
AcDbEntity
  8
0
100
AcDbLine
 62
7
  6
CONTINUOUS
 10
267.5694683578
 20
218.9396991495
 11
268.2623168052
 21
218.9396991495
  0
LINE
  5
381
100
AcDbEntity
  8
0
100
AcDbLine
 62
7
  6
CONTINUOUS
 10
268.5981910869
 20
218.9396991495
 11
268.7908692631
 21
218.9396991495
  0
LINE
  5
382
100
AcDbEntity
  8
0
100
AcDbLine
 62
7
  6
CONTINUOUS
 10
230.8904997379
 20
219.0673587199
 11
230.3818771377
 21
219.0673587199
  0
LINE
  5
383
100
AcDbEntity
  8
0
100
AcDbLine
 62
7
  6
CONTINUOUS
 10
268.6299857951
 20
219.0673587199
 11
268.807428322
 21
219.0673587199
  0
LINE
  5
384
100
AcDbEntity
  8
0
100
AcDbLine
 62
7
  6
CONTINUOUS
 10
231.60889293
 20
219.4503374312
 11
231.0817030351
 21
219.4503374312
  0
LINE
  5
385
100
AcDbEntity
  8
0
100
AcDbLine
 62
7
  6
CONTINUOUS
 10
230.7434068427
 20
219.4503374312
 11
230.3551211523
 21
219.4503374312
  0
LINE
  5
386
100
AcDbEntity
  8
0
100
AcDbLine
 62
7
  6
CONTINUOUS
 10
268.7236022072
 20
219.4503374312
 11
268.8544881638
 21
219.4503374312
  0
LINE
  5
387
100
AcDbEntity
  8
0
100
AcDbLine
 62
7
  6
CONTINUOUS
 10
231.4263591481
 20
219.5779970352
 11
230.9031675959
 21
219.5779970352
  0
LINE
  5
388
100
AcDbEntity
  8
0
100
AcDbLine
 62
7
  6
CONTINUOUS
 10
230.2646703958
 20
219.5779970352
 11
230.252425013
 21
219.5779970352
  0
LINE
  5
389
100
AcDbEntity
  8
0
100
AcDbLine
 62
7
  6
CONTINUOUS
 10
268.3877852716
 20
219.5779970352
 11
268.7544088395
 21
219.5779970352
  0
LINE
  5
38A
100
AcDbEntity
  8
0
100
AcDbLine
 62
7
  6
CONTINUOUS
 10
230.2618861893
 20
219.7056565944
 11
230.2333895064
 21
219.7056565944
  0
LINE
  5
38B
100
AcDbEntity
  8
0
100
AcDbLine
 62
7
  6
CONTINUOUS
 10
231.2903121463
 20
219.8333161537
 11
230.7694113765
 21
219.8333161537
  0
LINE
  5
38C
100
AcDbEntity
  8
0
100
AcDbLine
 62
7
  6
CONTINUOUS
 10
230.5979070726
 20
219.9609757129
 11
230.2948316042
 21
219.9609757129
  0
LINE
  5
38D
100
AcDbEntity
  8
0
100
AcDbLine
 62
7
  6
CONTINUOUS
 10
230.2373321551
 20
219.9609757129
 11
230.1969443776
 21
219.9609757129
  0
LINE
  5
38E
100
AcDbEntity
  8
0
100
AcDbLine
 62
7
  6
CONTINUOUS
 10
268.4630486116
 20
219.9609757129
 11
268.9260332187
 21
219.9609757129
  0
LINE
  5
38F
100
AcDbEntity
  8
0
100
AcDbLine
 62
7
  6
CONTINUOUS
 10
231.187702426
 20
220.2162949208
 11
230.667763062
 21
220.2162949208
  0
LINE
  5
390
100
AcDbEntity
  8
0
100
AcDbLine
 62
7
  6
CONTINUOUS
 10
230.1656112819
 20
220.4716140393
 11
230.1150941357
 21
220.4716140393
  0
LINE
  5
391
100
AcDbEntity
  8
0
100
AcDbLine
 62
7
  6
CONTINUOUS
 10
268.5631768838
 20
220.4716140393
 11
269.040751268
 21
220.4716140393
  0
LINE
  5
392
100
AcDbEntity
  8
0
100
AcDbLine
 62
7
  6
CONTINUOUS
 10
230.4750143363
 20
220.5992735986
 11
230.202745964
 21
220.5992735986
  0
LINE
  5
393
100
AcDbEntity
  8
0
100
AcDbLine
 62
7
  6
CONTINUOUS
 10
268.6132410112
 20
220.7269331578
 11
269.0299401425
 21
220.7269331578
  0
LINE
  5
394
100
AcDbEntity
  8
0
100
AcDbLine
 62
7
  6
CONTINUOUS
 10
268.6632724278
 20
220.9822522763
 11
269.0757687937
 21
220.9822522763
  0
LINE
  5
395
100
AcDbEntity
  8
0
100
AcDbLine
 62
7
  6
CONTINUOUS
 10
230.3768064265
 20
221.1099118356
 11
230.109978033
 21
221.1099118356
  0
LINE
  5
396
100
AcDbEntity
  8
0
100
AcDbLine
 62
7
  6
CONTINUOUS
 10
268.7381824479
 20
221.3652311329
 11
269.1532690319
 21
221.3652311329
  0
LINE
  5
397
100
AcDbEntity
  8
0
100
AcDbLine
 62
7
  6
CONTINUOUS
 10
229.9461473762
 20
221.6205502514
 11
229.9072370252
 21
221.6205502514
  0
LINE
  5
398
100
AcDbEntity
  8
0
100
AcDbLine
 62
7
  6
CONTINUOUS
 10
268.788122438
 20
221.6205502514
 11
269.2486083786
 21
221.6205502514
  0
LINE
  5
399
100
AcDbEntity
  8
0
100
AcDbLine
 62
7
  6
CONTINUOUS
 10
230.2541868108
 20
221.7482098106
 11
229.9718161091
 21
221.7482098106
  0
LINE
  5
39A
100
AcDbEntity
  8
0
100
AcDbLine
 62
7
  6
CONTINUOUS
 10
229.8537306337
 20
222.0035289291
 11
229.8278769209
 21
222.0035289291
  0
LINE
  5
39B
100
AcDbEntity
  8
0
100
AcDbLine
 62
7
  6
CONTINUOUS
 10
229.8022208073
 20
222.1311884884
 11
229.8131955604
 21
222.1311884884
  0
LINE
  5
39C
100
AcDbEntity
  8
0
100
AcDbLine
 62
7
  6
CONTINUOUS
 10
230.1562025725
 20
222.2588480476
 11
229.8510020369
 21
222.2588480476
  0
LINE
  5
39D
100
AcDbEntity
  8
0
100
AcDbLine
 62
7
  6
CONTINUOUS
 10
229.9631588993
 20
222.5141671661
 11
230.1072369134
 21
222.5141671661
  0
LINE
  5
39E
100
AcDbEntity
  8
0
100
AcDbLine
 62
7
  6
CONTINUOUS
 10
230.216106989
 20
222.5141671661
 11
231.0335978364
 21
222.5141671661
  0
LINE
  5
39F
100
AcDbEntity
  8
0
100
AcDbLine
 62
7
  6
CONTINUOUS
 10
229.9394258822
 20
222.6418267254
 11
229.7460515909
 21
222.6418267254
  0
LINE
  5
3A0
100
AcDbEntity
  8
0
100
AcDbLine
 62
7
  6
CONTINUOUS
 10
269.4206127922
 20
222.6418267254
 11
269.4385651494
 21
222.6418267254
  0
LINE
  5
3A1
100
AcDbEntity
  8
0
100
AcDbLine
 62
7
  6
CONTINUOUS
 10
229.9156959169
 20
222.7694862846
 11
229.7003379937
 21
222.7694862846
  0
LINE
  5
3A2
100
AcDbEntity
  8
0
100
AcDbLine
 62
7
  6
CONTINUOUS
 10
229.6901801654
 20
222.7694862846
 11
229.6896698349
 21
222.7694862846
  0
LINE
  5
3A3
100
AcDbEntity
  8
0
100
AcDbLine
 62
7
  6
CONTINUOUS
 10
269.4432527378
 20
222.7694862846
 11
269.4661755689
 21
222.7694862846
  0
LINE
  5
3A4
100
AcDbEntity
  8
0
100
AcDbLine
 62
7
  6
CONTINUOUS
 10
230.9272477764
 20
223.0248054031
 11
230.1160799303
 21
223.0248054031
  0
LINE
  5
3A5
100
AcDbEntity
  8
0
100
AcDbLine
 62
7
  6
CONTINUOUS
 10
230.0093887945
 20
223.0248054031
 11
229.8682465657
 21
223.0248054031
  0
LINE
  5
3A6
100
AcDbEntity
  8
0
100
AcDbLine
 62
7
  6
CONTINUOUS
 10
268.2285977423
 20
223.0248054031
 11
268.7529469889
 21
223.0248054031
  0
LINE
  5
3A7
100
AcDbEntity
  8
0
100
AcDbLine
 62
7
  6
CONTINUOUS
 10
230.4334765203
 20
224.0460822348
 11
229.8139558287
 21
224.0460822348
  0
LINE
  5
3A8
100
AcDbEntity
  8
0
100
AcDbLine
 62
7
  6
CONTINUOUS
 10
268.4406679089
 20
224.0460822348
 11
268.9639057552
 21
224.0460822348
  0
LINE
  5
3A9
100
AcDbEntity
  8
0
100
AcDbLine
 62
7
  6
CONTINUOUS
 10
229.4194887389
 20
224.3014013533
 11
230.020407838
 21
224.3014013533
  0
LINE
  5
3AA
100
AcDbEntity
  8
0
100
AcDbLine
 62
7
  6
CONTINUOUS
 10
269.7149078498
 20
224.3014013533
 11
269.7363566649
 21
224.3014013533
  0
LINE
  5
3AB
100
AcDbEntity
  8
0
100
AcDbLine
 62
7
  6
CONTINUOUS
 10
229.9051794132
 20
224.9396991495
 11
229.3069718173
 21
224.9396991495
  0
LINE
  5
3AC
100
AcDbEntity
  8
0
100
AcDbLine
 62
7
  6
CONTINUOUS
 10
268.7824742551
 20
224.9396991495
 11
269.8488735864
 21
224.9396991495
  0
LINE
  5
3AD
100
AcDbEntity
  8
RUNDUNGEN
100
AcDbLine
 62
7
  6
CONTINUOUS
 10
268.1916383032
 20
229.0909807959
 11
260.6967326037
 21
232.5859127207
  0
LINE
  5
3AE
100
AcDbEntity
  8
RUNDUNGEN
100
AcDbLine
 62
7
  6
CONTINUOUS
 10
267.0778964742
 20
237.7396991495
 11
256.358861025
 21
237.7396991495
  0
LINE
  5
3AF
100
AcDbEntity
  8
RUNDUNGEN
100
AcDbLine
 62
7
  6
CONTINUOUS
 10
242.7969843787
 20
237.7396991495
 11
232.0779482941
 21
237.7396991495
  0
LINE
  5
3B0
100
AcDbEntity
  8
RUNDUNGEN
100
AcDbLine
 62
7
  6
CONTINUOUS
 10
232.077948305
 20
241.7396991495
 11
243.0779227019
 21
241.7396991495
  0
LINE
  5
3B1
100
AcDbEntity
  8
RUNDUNGEN
100
AcDbLine
 62
7
  6
CONTINUOUS
 10
256.0779227019
 20
241.7396991495
 11
267.077896491
 21
241.7396991495
  0
LINE
  5
3B2
100
AcDbEntity
  8
0
100
AcDbLine
 62
7
  6
CONTINUOUS
 10
256.0779227019
 20
260.0448773841
 11
256.5779227019
 21
260.0448773841
  0
LINE
  5
3B3
100
AcDbEntity
  8
0
100
AcDbLine
 62
7
  6
CONTINUOUS
 10
256.0779227019
 20
261.6947931823
 11
256.5779227019
 21
261.6947931823
  0
LINE
  5
3B4
100
AcDbEntity
  8
0
100
AcDbLine
 62
7
  6
CONTINUOUS
 10
256.0779227019
 20
262.0041523991
 11
256.5779227019
 21
262.0041523991
  0
LINE
  5
3B5
100
AcDbEntity
  8
0
100
AcDbLine
 62
7
  6
CONTINUOUS
 10
256.0779227019
 20
263.4478286948
 11
256.5779227019
 21
263.4478286948
  0
LINE
  5
3B6
100
AcDbEntity
  8
0
100
AcDbLine
 62
7
  6
CONTINUOUS
 10
256.0779227019
 20
263.7571879116
 11
256.5779227019
 21
263.7571879116
  0
LINE
  5
3B7
100
AcDbEntity
  8
0
100
AcDbLine
 62
7
  6
CONTINUOUS
 10
256.0779227019
 20
264.1696669165
 11
256.5779227019
 21
264.1696669165
  0
LINE
  5
3B8
100
AcDbEntity
  8
0
100
AcDbLine
 62
7
  6
CONTINUOUS
 10
256.0779227019
 20
265.4071037835
 11
256.5779227019
 21
265.4071037835
  0
LINE
  5
3B9
100
AcDbEntity
  8
0
100
AcDbLine
 62
7
  6
CONTINUOUS
 10
256.0779227019
 20
265.6122461508
 11
256.5779227019
 21
265.6122461508
  0
LINE
  5
3BA
100
AcDbEntity
  8
0
100
AcDbLine
 62
7
  6
CONTINUOUS
 10
256.0779227019
 20
265.660515082
 11
256.5779227019
 21
265.660515082
  0
LINE
  5
3BB
100
AcDbEntity
  8
0
100
AcDbLine
 62
7
  6
CONTINUOUS
 10
256.0779227019
 20
265.7471796867
 11
256.5779227019
 21
265.7471796867
  0
LINE
  5
3BC
100
AcDbEntity
  8
0
100
AcDbLine
 62
7
  6
CONTINUOUS
 10
256.0779227019
 20
265.9062469506
 11
256.5779227019
 21
265.9062469506
  0
LINE
  5
3BD
100
AcDbEntity
  8
0
100
AcDbLine
 62
7
  6
CONTINUOUS
 10
256.0779227019
 20
266.1168746249
 11
256.5779227019
 21
266.1168746249
  0
LINE
  5
3BE
100
AcDbEntity
  8
0
100
AcDbLine
 62
7
  6
CONTINUOUS
 10
256.0779227019
 20
266.3790624144
 11
256.5779227019
 21
266.3790624144
  0
LINE
  5
3BF
100
AcDbEntity
  8
0
100
AcDbLine
 62
7
  6
CONTINUOUS
 10
256.0779227019
 20
266.7959292223
 11
256.5779227019
 21
266.7959292223
  0
LINE
  5
3C0
100
AcDbEntity
  8
0
100
AcDbLine
 62
7
  6
CONTINUOUS
 10
256.0779227019
 20
267.1074822669
 11
256.5779227019
 21
267.1074822669
  0
LINE
  5
3C1
100
AcDbEntity
  8
0
100
AcDbLine
 62
7
  6
CONTINUOUS
 10
256.0779227019
 20
267.3663790198
 11
256.5779227019
 21
267.3663790198
  0
LINE
  5
3C2
100
AcDbEntity
  8
0
100
AcDbLine
 62
7
  6
CONTINUOUS
 10
256.0779227019
 20
267.6241779737
 11
256.5779227019
 21
267.6241779737
  0
LINE
  5
3C3
100
AcDbEntity
  8
0
100
AcDbLine
 62
7
  6
CONTINUOUS
 10
256.0779227019
 20
267.829320636
 11
256.5779227019
 21
267.829320636
  0
LINE
  5
3C4
100
AcDbEntity
  8
0
100
AcDbLine
 62
7
  6
CONTINUOUS
 10
256.0779227019
 20
267.8775892721
 11
256.5779227019
 21
267.8775892721
  0
LINE
  5
3C5
100
AcDbEntity
  8
0
100
AcDbLine
 62
7
  6
CONTINUOUS
 10
256.0779227019
 20
269.2896991495
 11
256.5779227019
 21
269.2896991495
  0
LINE
  5
3C6
100
AcDbEntity
  8
0
100
AcDbLine
 62
7
  6
CONTINUOUS
 10
256.0779227019
 20
272.7896991495
 11
256.5779227019
 21
272.7896991495
  0
LINE
  5
3C7
100
AcDbEntity
  8
BEZUGSACHSEN
100
AcDbLine
 62
7
  6
CONTINUOUS
 10
261.6145920366
 20
105.7763684867
 11
258.577922701
 21
102.7396991511
  0
LINE
  5
3C8
100
AcDbEntity
  8
RUNDUNGEN
100
AcDbLine
 62
7
  6
CONTINUOUS
 10
253.5779227019
 20
278.9837186488
 11
245.5779227019
 21
278.9837186488
  0
LINE
  5
3C9
100
AcDbEntity
  8
KONSTRUKTIONSELEMENTE
100
AcDbLine
 62
7
  6
CONTINUOUS
 10
257.5779227019
 20
96.2396991495
 11
256.0779227019
 21
94.7396991495
  0
LWPOLYLINE
  5
3CA
100
AcDbEntity
  8
RUNDUNGEN
100
AcDbPolyline
 62
7
  6
CONTINUOUS
 90
7
 70
0
 10
76.3292806035
 20
46.0026836475
 10
76.3336198804
 20
45.4187171872
 10
76.3520351275
 20
44.6644999242
 10
76.3852496339
 20
43.902850534
 10
76.4335593124
 20
43.1355626702
 10
76.4971373885
 20
42.3644103075
 10
76.5603804191
 20
41.7335692622
  0
LWPOLYLINE
  5
3CB
100
AcDbEntity
  8
BEZUGSACHSEN
100
AcDbPolyline
 62
7
  6
CONTINUOUS
 90
7
 70
0
 10
76.5603804191
 20
50.2717980332
 10
76.4971373885
 20
49.6409569879
 10
76.4335593124
 20
48.8698046252
 10
76.3852496339
 20
48.1025167614
 10
76.3520351275
 20
47.3408673712
 10
76.3336198804
 20
46.5866501082
 10
76.3292806035
 20
46.0026836475
  0
LWPOLYLINE
  5
3CC
100
AcDbEntity
  8
BEZUGSACHSEN
100
AcDbPolyline
 62
7
  6
CONTINUOUS
 90
11
 70
0
 10
85.3128121014
 20
55.6466592144
 10
84.467296566
 20
54.7271492917
 10
84.0935060892
 20
54.3262603007
 10
83.7501016038
 20
53.9661834348
 10
83.4357238842
 20
53.6473469026
 10
83.1499635807
 20
53.3702381863
 10
82.8927525546
 20
53.1346801154
 10
82.6644002319
 20
52.9398477904
 10
82.4662433888
 20
52.7847214768
 10
82.2982122563
 20
52.6661960298
 10
82.1613688377
 20
52.5812431869
  0
LWPOLYLINE
  5
3CD
100
AcDbEntity
  8
BEZUGSACHSEN
100
AcDbPolyline
 62
7
  6
CONTINUOUS
 90
5
 70
0
 10
87.4055374458
 20
57.8395330338
 10
86.8947611073
 20
57.3245720407
 10
86.3175271452
 20
56.7248202383
 10
85.7926997428
 20
56.1658601111
 10
85.3128121014
 20
55.6466592144
  0
LINE
  5
3CE
100
AcDbEntity
  8
BEZUGSACHSEN
100
AcDbLine
 62
7
  6
CONTINUOUS
 10
87.4055374458
 20
57.8395330338
 11
87.405598851
 21
57.8395939946
  0
LINE
  5
3CF
100
AcDbEntity
  8
0
100
AcDbLine
 62
7
  6
CONTINUOUS
 10
86.9620559272
 20
39.5026836477
 11
86.9620559272
 21
39.0026836477
  0
LWPOLYLINE
  5
3D0
100
AcDbEntity
  8
BEZUGSACHSEN
100
AcDbPolyline
 62
7
  6
CONTINUOUS
 90
3
 70
0
 10
82.1613688377
 20
52.5812431869
 10
82.0592023923
 20
52.5271883603
 10
82.0315689624
 20
52.5145000422
  0
LINE
  5
3D1
100
AcDbEntity
  8
0
100
AcDbLine
 62
7
  6
CONTINUOUS
 10
87.2714151439
 20
39.5026836477
 11
87.2714151439
 21
39.0026836477
  0
LINE
  5
3D2
100
AcDbEntity
  8
0
100
AcDbLine
 62
7
  6
CONTINUOUS
 10
88.7150914397
 20
39.5026836477
 11
88.7150914397
 21
39.0026836477
  0
LINE
  5
3D3
100
AcDbEntity
  8
0
100
AcDbLine
 62
7
  6
CONTINUOUS
 10
89.0244506565
 20
39.5026836477
 11
89.0244506565
 21
39.0026836477
  0
LINE
  5
3D4
100
AcDbEntity
  8
0
100
AcDbLine
 62
7
  6
CONTINUOUS
 10
89.4369296613
 20
39.5026836477
 11
89.4369296613
 21
39.0026836477
  0
LINE
  5
3D5
100
AcDbEntity
  8
0
100
AcDbLine
 62
7
  6
CONTINUOUS
 10
90.6743665284
 20
39.5026836477
 11
90.6743665284
 21
39.0026836477
  0
LINE
  5
3D6
100
AcDbEntity
  8
0
100
AcDbLine
 62
7
  6
CONTINUOUS
 10
90.9848226591
 20
39.5026836477
 11
90.9848226591
 21
39.0026836477
  0
LINE
  5
3D7
100
AcDbEntity
  8
0
100
AcDbLine
 62
7
  6
CONTINUOUS
 10
91.3490328803
 20
39.5026836477
 11
91.3490328803
 21
39.0026836477
  0
LWPOLYLINE
  5
3D8
100
AcDbEntity
  8
RUNDUNGEN
100
AcDbPolyline
 62
7
  6
CONTINUOUS
 90
21
 70
0
 10
87.4055916681
 20
34.1657660635
 10
88.4276600168
 20
33.2061152344
 10
89.662946925
 20
32.1753152254
 10
91.0112058855
 20
31.1856600143
 10
92.4668701824
 20
30.2517716951
 10
94.0244016872
 20
29.3860297117
 10
95.6764270625
 20
28.5998832837
 10
97.4137761115
 20
27.9035717751
 10
99.2262078812
 20
27.3055958924
 10
101.1024288493
 20
26.8125632928
 10
103.0296127984
 20
26.4292675732
 10
104.9938284998
 20
26.1576730289
 10
106.9803044703
 20
25.9975645006
 10
108.9792347314
 20
25.9455144766
 10
110.9781261173
 20
25.9983839442
 10
112.9644823115
 20
26.1593477653
 10
114.9284847996
 20
26.4318133387
 10
116.8553518259
 20
26.8159782902
 10
118.7311675726
 20
27.309860508
 10
120.543122871
 20
27.9086563422
 10
121.0539406004
 20
28.1136792735
  0
LINE
  5
3D9
100
AcDbEntity
  8
RUNDUNGEN
100
AcDbLine
 62
7
  6
CONTINUOUS
 10
87.4055378026
 20
34.1658339074
 11
87.405598851
 21
34.1657733008
  0
LWPOLYLINE
  5
3DA
100
AcDbEntity
  8
RUNDUNGEN
100
AcDbPolyline
 62
7
  6
CONTINUOUS
 90
6
 70
0
 10
84.4732492209
 20
37.2717834173
 10
85.3176620941
 20
36.3534355936
 10
85.7964404167
 20
35.835485586
 10
86.3199697323
 20
35.2779732878
 10
86.8959831054
 20
34.6795448398
 10
87.4055378026
 20
34.1658339074
  0
LINE
  5
3DB
100
AcDbEntity
  8
0
100
AcDbLine
 62
7
  6
CONTINUOUS
 10
91.7143400154
 20
39.5026836477
 11
91.7143400154
 21
39.0026836477
  0
LINE
  5
3DC
100
AcDbEntity
  8
0
100
AcDbLine
 62
7
  6
CONTINUOUS
 10
91.9238706283
 20
39.5026836477
 11
91.9238706283
 21
39.0026836477
  0
LINE
  5
3DD
100
AcDbEntity
  8
0
100
AcDbLine
 62
7
  6
CONTINUOUS
 10
92.1344983025
 20
39.5026836477
 11
92.1344983025
 21
39.0026836477
  0
LINE
  5
3DE
100
AcDbEntity
  8
0
100
AcDbLine
 62
7
  6
CONTINUOUS
 10
92.2409089798
 20
39.5026836477
 11
92.2409089798
 21
39.0026836477
  0
LINE
  5
3DF
100
AcDbEntity
  8
0
100
AcDbLine
 62
7
  6
CONTINUOUS
 10
92.2968568981
 20
39.5026836477
 11
92.2968568981
 21
39.0026836477
  0
LINE
  5
3E0
100
AcDbEntity
  8
0
100
AcDbLine
 62
7
  6
CONTINUOUS
 10
92.3791332573
 20
39.5026836477
 11
92.3791332573
 21
39.0026836477
  0
LINE
  5
3E1
100
AcDbEntity
  8
0
100
AcDbLine
 62
7
  6
CONTINUOUS
 10
92.4800587751
 20
39.5026836477
 11
92.4800587751
 21
39.0026836477
  0
LINE
  5
3E2
100
AcDbEntity
  8
0
100
AcDbLine
 62
7
  6
CONTINUOUS
 10
92.6336417646
 20
39.5026836477
 11
92.6336417646
 21
39.0026836477
  0
LINE
  5
3E3
100
AcDbEntity
  8
0
100
AcDbLine
 62
7
  6
CONTINUOUS
 10
92.8914407186
 20
39.5026836477
 11
92.8914407186
 21
39.0026836477
  0
LINE
  5
3E4
100
AcDbEntity
  8
0
100
AcDbLine
 62
7
  6
CONTINUOUS
 10
93.2018971442
 20
39.5026836477
 11
93.2018971442
 21
39.0026836477
  0
LINE
  5
3E5
100
AcDbEntity
  8
0
100
AcDbLine
 62
7
  6
CONTINUOUS
 10
93.5661070705
 20
39.5026836477
 11
93.5661070705
 21
39.0026836477
  0
LINE
  5
3E6
100
AcDbEntity
  8
0
100
AcDbLine
 62
7
  6
CONTINUOUS
 10
93.9314142056
 20
39.5026836477
 11
93.9314142056
 21
39.0026836477
  0
LINE
  5
3E7
100
AcDbEntity
  8
0
100
AcDbLine
 62
7
  6
CONTINUOUS
 10
94.1409451135
 20
39.5026836477
 11
94.1409451135
 21
39.0026836477
  0
LINE
  5
3E8
100
AcDbEntity
  8
0
100
AcDbLine
 62
7
  6
CONTINUOUS
 10
94.3065945982
 20
39.5026836477
 11
94.3065945982
 21
39.0026836477
  0
LINE
  5
3E9
100
AcDbEntity
  8
0
100
AcDbLine
 62
7
  6
CONTINUOUS
 10
94.6181482328
 20
39.5026836477
 11
94.6181482328
 21
39.0026836477
  0
LINE
  5
3EA
100
AcDbEntity
  8
0
100
AcDbLine
 62
7
  6
CONTINUOUS
 10
95.0350150407
 20
39.5026836477
 11
95.0350150407
 21
39.0026836477
  0
LINE
  5
3EB
100
AcDbEntity
  8
0
100
AcDbLine
 62
7
  6
CONTINUOUS
 10
95.3487625768
 20
39.5026836477
 11
95.3487625768
 21
39.0026836477
  0
LINE
  5
3EC
100
AcDbEntity
  8
0
100
AcDbLine
 62
7
  6
CONTINUOUS
 10
95.6120469852
 20
39.5026836477
 11
95.6120469852
 21
39.0026836477
  0
LINE
  5
3ED
100
AcDbEntity
  8
0
100
AcDbLine
 62
7
  6
CONTINUOUS
 10
95.7195546132
 20
39.5026836477
 11
95.7195546132
 21
39.0026836477
  0
LINE
  5
3EE
100
AcDbEntity
  8
0
100
AcDbLine
 62
7
  6
CONTINUOUS
 10
95.7239428772
 20
39.5026836477
 11
95.7239428772
 21
39.0026836477
  0
LWPOLYLINE
  5
3EF
100
AcDbEntity
  8
RUNDUNGEN
100
AcDbPolyline
 62
7
  6
CONTINUOUS
 90
10
 70
0
 10
82.1618843503
 20
39.4238281437
 10
82.2990341568
 20
39.3386262443
 10
82.4675196269
 20
39.2196956927
 10
82.666276466
 20
39.0639834132
 10
82.8954240829
 20
38.8683211907
 10
83.1535172062
 20
38.6317739035
 10
83.4401663965
 20
38.3536064806
 10
83.7553253523
 20
38.0337871181
 10
84.099262633
 20
37.6729918895
 10
84.4732492209
 20
37.2717834173
  0
LINE
  5
3F0
100
AcDbEntity
  8
RUNDUNGEN
100
AcDbLine
 62
7
  6
CONTINUOUS
 10
125.3342413882
 20
28.1996701982
 11
143.6279237279
 21
31.097104837
  0
LWPOLYLINE
  5
3F1
100
AcDbEntity
  8
RUNDUNGEN
100
AcDbPolyline
 62
7
  6
CONTINUOUS
 90
3
 70
0
 10
82.0022890512
 20
39.5026836477
 10
82.0594971591
 20
39.4780382668
 10
82.1618843503
 20
39.4238281437
  0
LINE
  5
3F2
100
AcDbEntity
  8
0
100
AcDbLine
 62
7
  6
CONTINUOUS
 10
103.0339892629
 20
26.428662434
 11
103.0339892629
 21
26.2791795769
  0
LINE
  5
3F3
100
AcDbEntity
  8
0
100
AcDbLine
 62
7
  6
CONTINUOUS
 10
103.7839892629
 20
26.3249590026
 11
103.7839892629
 21
26.1459092723
  0
LINE
  5
3F4
100
AcDbEntity
  8
0
100
AcDbLine
 62
7
  6
CONTINUOUS
 10
104.2319072011
 20
39.5026836477
 11
104.2319072011
 21
39.0026836477
  0
LINE
  5
3F5
100
AcDbEntity
  8
0
100
AcDbLine
 62
7
  6
CONTINUOUS
 10
105.4714892629
 20
56.0026836477
 11
105.4714892629
 21
55.3680096825
  0
LINE
  5
3F6
100
AcDbEntity
  8
0
100
AcDbLine
 62
7
  6
CONTINUOUS
 10
105.9819072011
 20
39.5026836477
 11
105.9819072011
 21
39.0026836477
  0
LINE
  5
3F7
100
AcDbEntity
  8
0
100
AcDbLine
 62
7
  6
CONTINUOUS
 10
106.346490604
 20
39.5026836477
 11
106.346490604
 21
39.0026836477
  0
LINE
  5
3F8
100
AcDbEntity
  8
0
100
AcDbLine
 62
7
  6
CONTINUOUS
 10
106.5339890245
 20
65.9718300923
 11
106.5339890245
 21
66.1848618194
  0
LINE
  5
3F9
100
AcDbEntity
  8
0
100
AcDbLine
 62
7
  6
CONTINUOUS
 10
106.6381572011
 20
39.5026836477
 11
106.6381572011
 21
39.0026836477
  0
LINE
  5
3FA
100
AcDbEntity
  8
0
100
AcDbLine
 62
7
  6
CONTINUOUS
 10
106.8569072011
 20
39.5026836477
 11
106.8569072011
 21
39.0026836477
  0
LINE
  5
3FB
100
AcDbEntity
  8
0
100
AcDbLine
 62
7
  6
CONTINUOUS
 10
106.9298237983
 20
39.5026836477
 11
106.9298237983
 21
39.0026836477
  0
LINE
  5
3FC
100
AcDbEntity
  8
0
100
AcDbLine
 62
7
  6
CONTINUOUS
 10
107.002740604
 20
39.5026836477
 11
107.002740604
 21
39.0026836477
  0
LINE
  5
3FD
100
AcDbEntity
  8
0
100
AcDbLine
 62
7
  6
CONTINUOUS
 10
107.1589892629
 20
25.9929117381
 11
107.1589892629
 21
25.7805042375
  0
LINE
  5
3FE
100
AcDbEntity
  8
0
100
AcDbLine
 62
7
  6
CONTINUOUS
 10
107.5860737983
 20
39.5026836477
 11
107.5860737983
 21
39.0026836477
  0
LINE
  5
3FF
100
AcDbEntity
  8
0
100
AcDbLine
 62
7
  6
CONTINUOUS
 10
108.0235740069
 20
39.5026836477
 11
108.0235740069
 21
39.0026836477
  0
LINE
  5
400
100
AcDbEntity
  8
0
100
AcDbLine
 62
7
  6
CONTINUOUS
 10
108.0964903954
 20
39.5026836477
 11
108.0964903954
 21
39.0026836477
  0
LINE
  5
401
100
AcDbEntity
  8
0
100
AcDbLine
 62
7
  6
CONTINUOUS
 10
108.2423240069
 20
39.5026836477
 11
108.2423240069
 21
39.0026836477
  0
LINE
  5
402
100
AcDbEntity
  8
0
100
AcDbLine
 62
7
  6
CONTINUOUS
 10
108.4610740069
 20
39.5026836477
 11
108.4610740069
 21
39.0026836477
  0
LINE
  5
403
100
AcDbEntity
  8
0
100
AcDbLine
 62
7
  6
CONTINUOUS
 10
108.7527403954
 20
39.5026836477
 11
108.7527403954
 21
39.0026836477
  0
LINE
  5
404
100
AcDbEntity
  8
0
100
AcDbLine
 62
7
  6
CONTINUOUS
 10
109.0444072011
 20
39.5026836477
 11
109.0444072011
 21
39.0026836477
  0
LINE
  5
405
100
AcDbEntity
  8
0
100
AcDbLine
 62
7
  6
CONTINUOUS
 10
109.3360740069
 20
39.5026836477
 11
109.3360740069
 21
39.0026836477
  0
LINE
  5
406
100
AcDbEntity
  8
0
100
AcDbLine
 62
7
  6
CONTINUOUS
 10
109.5548240069
 20
39.5026836477
 11
109.5548240069
 21
39.0026836477
  0
LINE
  5
407
100
AcDbEntity
  8
RUNDUNGEN
100
AcDbLine
 62
7
  6
CONTINUOUS
 10
139.4714892629
 20
36.0026836477
 11
124.9714892629
 21
36.0026836477
  0
LINE
  5
408
100
AcDbEntity
  8
0
100
AcDbLine
 62
7
  6
CONTINUOUS
 10
109.7006572011
 20
39.5026836477
 11
109.7006572011
 21
39.0026836477
  0
LINE
  5
409
100
AcDbEntity
  8
0
100
AcDbLine
 62
7
  6
CONTINUOUS
 10
109.7735740069
 20
39.5026836477
 11
109.7735740069
 21
39.0026836477
  0
LINE
  5
40A
100
AcDbEntity
  8
0
100
AcDbLine
 62
7
  6
CONTINUOUS
 10
110.2110740069
 20
39.5026836477
 11
110.2110740069
 21
39.0026836477
  0
LINE
  5
40B
100
AcDbEntity
  8
0
100
AcDbLine
 62
7
  6
CONTINUOUS
 10
110.7839892629
 20
66.0121181535
 11
110.7839892629
 21
66.2248630579
  0
LINE
  5
40C
100
AcDbEntity
  8
0
100
AcDbLine
 62
7
  6
CONTINUOUS
 10
110.7944072011
 20
39.5026836477
 11
110.7944072011
 21
39.0026836477
  0
LINE
  5
40D
100
AcDbEntity
  8
0
100
AcDbLine
 62
7
  6
CONTINUOUS
 10
111.4089895013
 20
26.0332988385
 11
111.4089895013
 21
25.820505476
  0
LINE
  5
40E
100
AcDbEntity
  8
0
100
AcDbLine
 62
7
  6
CONTINUOUS
 10
112.5444072011
 20
39.5026836477
 11
112.5444072011
 21
39.0026836477
  0
LINE
  5
40F
100
AcDbEntity
  8
0
100
AcDbLine
 62
7
  6
CONTINUOUS
 10
112.9089908126
 20
39.5026836477
 11
112.9089908126
 21
39.0026836477
  0
LINE
  5
410
100
AcDbEntity
  8
0
100
AcDbLine
 62
7
  6
CONTINUOUS
 10
113.2006572011
 20
39.5026836477
 11
113.2006572011
 21
39.0026836477
  0
LINE
  5
411
100
AcDbEntity
  8
0
100
AcDbLine
 62
7
  6
CONTINUOUS
 10
113.4923235896
 20
39.5026836477
 11
113.4923235896
 21
39.0026836477
  0
LINE
  5
412
100
AcDbEntity
  8
0
100
AcDbLine
 62
7
  6
CONTINUOUS
 10
113.6381572011
 20
39.5026836477
 11
113.6381572011
 21
39.0026836477
  0
LINE
  5
413
100
AcDbEntity
  8
0
100
AcDbLine
 62
7
  6
CONTINUOUS
 10
113.7110735896
 20
39.5026836477
 11
113.7110735896
 21
39.0026836477
  0
LINE
  5
414
100
AcDbEntity
  8
0
100
AcDbLine
 62
7
  6
CONTINUOUS
 10
129.929642157
 20
39.0026836477
 11
124.7216650664
 21
39.0026836477
  0
LINE
  5
415
100
AcDbEntity
  8
0
100
AcDbLine
 62
7
  6
CONTINUOUS
 10
113.7110735896
 20
39.0026836477
 11
110.7944072011
 21
39.0026836477
  0
LINE
  5
416
100
AcDbEntity
  8
0
100
AcDbLine
 62
7
  6
CONTINUOUS
 10
110.2110740069
 20
39.0026836477
 11
107.5860737983
 21
39.0026836477
  0
LINE
  5
417
100
AcDbEntity
  8
0
100
AcDbLine
 62
7
  6
CONTINUOUS
 10
107.002740604
 20
39.0026836477
 11
104.2319072011
 21
39.0026836477
  0
LINE
  5
418
100
AcDbEntity
  8
0
100
AcDbLine
 62
7
  6
CONTINUOUS
 10
95.7195546132
 20
39.0026836477
 11
86.9620559272
 21
39.0026836477
  0
LINE
  5
419
100
AcDbEntity
  8
RUNDUNGEN
100
AcDbLine
 62
7
  6
CONTINUOUS
 10
79.0458532951
 20
39.5026836477
 11
138.8971260583
 21
39.5026836477
  0
LINE
  5
41A
100
AcDbEntity
  8
RUNDUNGEN
100
AcDbLine
 62
7
  6
CONTINUOUS
 10
143.4714892629
 20
40.2526836477
 11
141.4714892629
 21
40.2526836477
  0
LINE
  5
41B
100
AcDbEntity
  8
0
100
AcDbLine
 62
7
  6
CONTINUOUS
 10
106.1570755259
 20
55.6507093136
 11
106.0339892629
 21
56.0026836477
  0
LINE
  5
41C
100
AcDbEntity
  8
0
100
AcDbLine
 62
7
  6
CONTINUOUS
 10
114.1589892629
 20
65.6803058799
 11
114.1589892629
 21
65.8594580231
  0
LINE
  5
41D
100
AcDbEntity
  8
0
100
AcDbLine
 62
7
  6
CONTINUOUS
 10
114.9089892629
 20
65.5762585677
 11
114.9089892629
 21
65.7261877185
  0
LWPOLYLINE
  5
41E
100
AcDbEntity
  8
RUNDUNGEN
100
AcDbPolyline
 62
7
  6
CONTINUOUS
 90
3
 70
0
 10
135.7830280115
 20
39.4249373431
 10
135.884797039
 20
39.4786653235
 10
135.9122684206
 20
39.4912445388
  0
LINE
  5
41F
100
AcDbEntity
  8
RUNDUNGEN
100
AcDbLine
 62
7
  6
CONTINUOUS
 10
141.4714892629
 20
51.7526836477
 11
143.4714892629
 21
51.7526836477
  0
LINE
  5
420
100
AcDbEntity
  8
0
100
AcDbLine
 62
7
  6
CONTINUOUS
 10
124.7214892629
 20
39.5026836477
 11
124.7214892629
 21
39.0026836477
  0
LINE
  5
421
100
AcDbEntity
  8
BEZUGSACHSEN
100
AcDbLine
 62
7
  6
CONTINUOUS
 10
79.0458532951
 20
52.5026836477
 11
138.8971260583
 21
52.5026836477
  0
LINE
  5
422
100
AcDbEntity
  8
0
100
AcDbLine
 62
7
  6
CONTINUOUS
 10
106.0339892629
 20
56.0026836477
 11
105.4714892629
 21
56.0026836477
  0
LINE
  5
423
100
AcDbEntity
  8
RUNDUNGEN
100
AcDbLine
 62
7
  6
CONTINUOUS
 10
124.9714892629
 20
56.0026836477
 11
139.4714892629
 21
56.0026836477
  0
LINE
  5
424
100
AcDbEntity
  8
0
100
AcDbLine
 62
7
  6
CONTINUOUS
 10
127.829642157
 20
39.5026836477
 11
127.829642157
 21
39.0026836477
  0
LINE
  5
425
100
AcDbEntity
  8
0
100
AcDbLine
 62
7
  6
CONTINUOUS
 10
129.929642157
 20
39.5026836477
 11
129.929642157
 21
39.0026836477
  0
LINE
  5
426
100
AcDbEntity
  8
RUNDUNGEN
100
AcDbLine
 62
7
  6
CONTINUOUS
 10
132.3011131327
 20
36.0026836477
 11
133.4755052876
 21
37.2780270446
  0
LWPOLYLINE
  5
427
100
AcDbEntity
  8
RUNDUNGEN
100
AcDbPolyline
 62
7
  6
CONTINUOUS
 90
10
 70
0
 10
133.4755052876
 20
37.2780270446
 10
133.8490736019
 20
37.6786833915
 10
134.1926471504
 20
38.038946539
 10
134.5074737206
 20
38.3582379855
 10
134.7937891769
 20
38.6358597776
 10
135.0515175078
 20
38.8718303433
 10
135.2802515784
 20
39.0668884571
 10
135.4785149817
 20
39.2219697106
 10
135.6464572418
 20
39.3402914057
 10
135.7830280115
 20
39.4249373431
  0
LWPOLYLINE
  5
428
100
AcDbEntity
  8
BEZUGSACHSEN
100
AcDbPolyline
 62
7
  6
CONTINUOUS
 90
3
 70
0
 10
135.9407658968
 20
52.5026836477
 10
135.8850922123
 20
52.5265615812
 10
135.7835450748
 20
52.5801338707
  0
LWPOLYLINE
  5
429
100
AcDbEntity
  8
BEZUGSACHSEN
100
AcDbPolyline
 62
7
  6
CONTINUOUS
 90
10
 70
0
 10
135.7835450748
 20
52.5801338707
 10
135.6472815719
 20
52.6645304132
 10
135.4797942658
 20
52.7824468541
 10
135.282130872
 20
52.9369424524
 10
135.0541908875
 20
53.1311720667
 10
134.7973427708
 20
53.3661554092
 10
134.5119139209
 20
53.6427207728
 10
134.1978665076
 20
53.9610312843
 10
133.8548245224
 20
54.3205768392
 10
133.4814527354
 20
54.7209124784
  0
LINE
  5
42A
100
AcDbEntity
  8
RUNDUNGEN
100
AcDbLine
 62
7
  6
CONTINUOUS
 10
140.4714892629
 20
55.0026836477
 11
140.4714892629
 21
52.7526836477
  0
LINE
  5
42B
100
AcDbEntity
  8
RUNDUNGEN
100
AcDbLine
 62
7
  6
CONTINUOUS
 10
140.4714892629
 20
39.2526836477
 11
140.4714892629
 21
37.0026836477
  0
LWPOLYLINE
  5
42C
100
AcDbEntity
  8
RUNDUNGEN
100
AcDbPolyline
 62
7
  6
CONTINUOUS
 90
7
 70
0
 10
141.3825989352
 20
41.7335638438
 10
141.4446286315
 20
42.3512798085
 10
141.5084458328
 20
43.1221957643
 10
141.5570061978
 20
43.8893454971
 10
141.5904835053
 20
44.6509509973
 10
141.6091559169
 20
45.4052396662
 10
141.6136967465
 20
46.0026836477
  0
LINE
  5
42D
100
AcDbEntity
  8
RUNDUNGEN
100
AcDbLine
 62
7
  6
CONTINUOUS
 10
143.6279237279
 20
60.9082624584
 11
125.3342413882
 21
63.8056970972
  0
LWPOLYLINE
  5
42E
100
AcDbEntity
  8
BEZUGSACHSEN
100
AcDbPolyline
 62
7
  6
CONTINUOUS
 90
21
 70
0
 10
121.0539406004
 20
63.8916880219
 10
120.543122871
 20
64.0967109532
 10
118.7311675726
 20
64.6955067874
 10
116.8553518259
 20
65.1893890052
 10
114.9284847996
 20
65.5735539567
 10
112.9644823115
 20
65.8460195301
 10
110.9781261173
 20
66.0069833512
 10
108.9792347314
 20
66.0598528188
 10
106.9803044703
 20
66.0078027948
 10
104.9938284998
 20
65.8476942665
 10
103.0296127984
 20
65.5760997222
 10
101.1024288493
 20
65.1928040026
 10
99.2262078812
 20
64.6997714031
 10
97.4137761115
 20
64.1017955203
 10
95.6764270625
 20
63.4054840117
 10
94.0244016872
 20
62.6193375837
 10
92.4668701824
 20
61.7535956003
 10
91.0112058855
 20
60.8197072811
 10
89.662946925
 20
59.83005207
 10
88.4276600168
 20
58.799252061
 10
87.4055916681
 20
57.8396012319
  0
LINE
  5
42F
100
AcDbEntity
  8
BEZUGSACHSEN
100
AcDbLine
 62
7
  6
CONTINUOUS
 10
133.4814527354
 20
54.7209124784
 11
132.3011222755
 21
56.0026836477
  0
LWPOLYLINE
  5
430
100
AcDbEntity
  8
BEZUGSACHSEN
100
AcDbPolyline
 62
7
  6
CONTINUOUS
 90
7
 70
0
 10
141.6136967465
 20
46.0026836477
 10
141.6091559169
 20
46.6001276292
 10
141.5904835053
 20
47.3544162981
 10
141.5570061978
 20
48.1160217983
 10
141.5084458328
 20
48.8831715311
 10
141.4446286315
 20
49.6540874869
 10
141.3825989352
 20
50.2718034517
  0
LINE
  5
431
100
AcDbEntity
  8
RUNDUNGEN
100
AcDbLine
 62
7
  6
CONTINUOUS
 10
144.4714892629
 20
32.0847931776
 11
144.4714892629
 21
39.2526836477
  0
LINE
  5
432
100
AcDbEntity
  8
RUNDUNGEN
100
AcDbLine
 62
7
  6
CONTINUOUS
 10
144.4714892629
 20
52.7526836477
 11
144.4714892629
 21
59.9205741178
  0
ARC
  5
433
100
AcDbEntity
  8
0
100
AcDbCircle
 62
7
  6
CONTINUOUS
 10
108.9714892629
 20
246.4396991495
 40
17.5
100
AcDbArc
 50
328.0206426185
 51
330.1891213755
  0
ARC
  5
434
100
AcDbEntity
  8
0
100
AcDbCircle
 62
7
  6
CONTINUOUS
 10
108.9714892629
 20
246.4396991495
 40
17.5
100
AcDbArc
 50
197.8867559961
 51
211.9794079862
  0
ARC
  5
435
100
AcDbEntity
  8
RUNDUNGEN
100
AcDbCircle
 62
7
  6
CONTINUOUS
 10
108.9714892629
 20
246.4396991495
 40
17.5
100
AcDbArc
 50
344.4102685805
 51
197.8867559961
  0
ARC
  5
436
100
AcDbEntity
  8
BEZUGSACHSEN
100
AcDbCircle
 62
7
  6
CONTINUOUS
 10
136.9714892629
 20
214.9396991495
 40
10.0
100
AcDbArc
 50
117.1023684353
 51
180.0
  0
ARC
  5
437
100
AcDbEntity
  8
BEZUGSACHSEN
100
AcDbCircle
 62
7
  6
CONTINUOUS
 10
80.9714892629
 20
214.9396991495
 40
10.0
100
AcDbArc
 50
0.0
 51
62.8976315647
  0
ARC
  5
438
100
AcDbEntity
  8
0
100
AcDbCircle
 62
7
  6
CONTINUOUS
 10
101.4235769941
 20
239.389291986
 40
7.3932990488
100
AcDbArc
 50
245.5912663468
 51
246.1409685467
  0
ARC
  5
439
100
AcDbEntity
  8
0
100
AcDbCircle
 62
7
  6
CONTINUOUS
 10
116.5196140753
 20
239.3888487106
 40
7.3928077699
100
AcDbArc
 50
293.858935058
 51
294.4096537473
  0
ARC
  5
43A
100
AcDbEntity
  8
BEZUGSACHSEN
100
AcDbCircle
 62
7
  6
CONTINUOUS
 10
139.1136969116
 20
246.5044286827
 40
2.5
100
AcDbArc
 50
337.4621778339
 51
22.4999402352
  0
ARC
  5
43B
100
AcDbEntity
  8
BEZUGSACHSEN
100
AcDbCircle
 62
7
  6
CONTINUOUS
 10
130.3667075326
 20
267.6215290715
 40
2.5
100
AcDbArc
 50
22.5
 51
28.1249999809
  0
ARC
  5
43C
100
AcDbEntity
  8
RUNDUNGEN
100
AcDbCircle
 62
7
  6
CONTINUOUS
 10
130.3667075326
 20
267.6215290715
 40
2.5
100
AcDbArc
 50
22.5
 51
67.5
  0
ARC
  5
43D
100
AcDbEntity
  8
RUNDUNGEN
100
AcDbCircle
 62
7
  6
CONTINUOUS
 10
108.9714892629
 20
276.4837186488
 40
2.5
100
AcDbArc
 50
67.5
 51
112.5
  0
ARC
  5
43E
100
AcDbEntity
  8
RUNDUNGEN
100
AcDbCircle
 62
7
  6
CONTINUOUS
 10
87.5762709932
 20
267.6215290715
 40
2.5
100
AcDbArc
 50
112.5
 51
157.5
  0
ARC
  5
43F
100
AcDbEntity
  8
BEZUGSACHSEN
100
AcDbCircle
 62
7
  6
CONTINUOUS
 10
78.8292806137
 20
246.5044262675
 40
2.5
100
AcDbArc
 50
157.4999998501
 51
202.537779828
  0
ARC
  5
440
100
AcDbEntity
  8
BEZUGSACHSEN
100
AcDbCircle
 62
7
  6
CONTINUOUS
 10
78.9943072534
 20
234.3663778299
 40
2.000002495
100
AcDbArc
 50
353.8765421946
 51
22.5375646572
  0
ARC
  5
441
100
AcDbEntity
  8
BEZUGSACHSEN
100
AcDbCircle
 62
7
  6
CONTINUOUS
 10
83.3212363475
 20
223.9396991365
 40
2.0000000037
100
AcDbArc
 50
22.5377801479
 51
89.9999996624
  0
ARC
  5
442
100
AcDbEntity
  8
BEZUGSACHSEN
100
AcDbCircle
 62
7
  6
CONTINUOUS
 10
138.9486682854
 20
234.3663715272
 40
2.0000000026
100
AcDbArc
 50
157.4622357744
 51
186.123287405
  0
ARC
  5
443
100
AcDbEntity
  8
BEZUGSACHSEN
100
AcDbCircle
 62
7
  6
CONTINUOUS
 10
134.9714892629
 20
227.9396991495
 40
2.0
100
AcDbArc
 50
270.0
 51
360.0
  0
ARC
  5
444
100
AcDbEntity
  8
BEZUGSACHSEN
100
AcDbCircle
 62
7
  6
CONTINUOUS
 10
82.9714892629
 20
227.9396991495
 40
2.0
100
AcDbArc
 50
180.0
 51
270.0
  0
ARC
  5
445
100
AcDbEntity
  8
BEZUGSACHSEN
100
AcDbCircle
 62
7
  6
CONTINUOUS
 10
134.6217420397
 20
223.9396993335
 40
1.9999999474
100
AcDbArc
 50
89.9999963653
 51
157.4622235424
  0
ARC
  5
446
100
AcDbEntity
  8
0
100
AcDbCircle
 62
7
  6
CONTINUOUS
 10
128.5714892629
 20
262.5485915994
 40
1.75
100
AcDbArc
 50
39.0962786196
 51
223.4658602705
  0
ARC
  5
447
100
AcDbEntity
  8
0
100
AcDbCircle
 62
7
  6
CONTINUOUS
 10
126.4714892629
 20
264.6485915994
 40
1.75
100
AcDbArc
 50
39.0962786196
 51
223.4658602706
  0
ARC
  5
448
100
AcDbEntity
  8
0
100
AcDbCircle
 62
7
  6
CONTINUOUS
 10
128.5714892629
 20
262.5485915994
 40
1.23
100
AcDbArc
 50
147.2033599453
 51
233.4149680847
  0
ARC
  5
449
100
AcDbEntity
  8
0
100
AcDbCircle
 62
7
  6
CONTINUOUS
 10
128.5714892629
 20
262.5485915994
 40
1.23
100
AcDbArc
 50
36.5850319153
 51
122.6078311965
  0
ARC
  5
44A
100
AcDbEntity
  8
0
100
AcDbCircle
 62
7
  6
CONTINUOUS
 10
126.4714892629
 20
264.6485915994
 40
1.23
100
AcDbArc
 50
36.5850319153
 51
233.4149680847
  0
ARC
  5
44B
100
AcDbEntity
  8
RUNDUNGEN
100
AcDbCircle
 62
7
  6
CONTINUOUS
 10
143.9714892629
 20
238.2396991495
 40
0.5
100
AcDbArc
 50
270.0
 51
360.0
  0
ARC
  5
44C
100
AcDbEntity
  8
RUNDUNGEN
100
AcDbCircle
 62
7
  6
CONTINUOUS
 10
99.4714892629
 20
238.2396991495
 40
0.5
100
AcDbArc
 50
180.0
 51
270.0
  0
ARC
  5
44D
100
AcDbEntity
  8
RUNDUNGEN
100
AcDbCircle
 62
7
  6
CONTINUOUS
 10
99.4714892629
 20
241.2396991495
 40
0.5
100
AcDbArc
 50
90.0
 51
180.0
  0
ARC
  5
44E
100
AcDbEntity
  8
RUNDUNGEN
100
AcDbCircle
 62
7
  6
CONTINUOUS
 10
143.9714892629
 20
241.2396991495
 40
0.5
100
AcDbArc
 50
0.0
 51
90.0
  0
ARC
  5
44F
100
AcDbEntity
  8
0
100
AcDbCircle
 62
7
  6
CONTINUOUS
 10
-1955.0406863336
 20
656.4430119476
 40
2265.9402888151
100
AcDbArc
 50
348.86753006
 51
348.9951354311
  0
ARC
  5
450
100
AcDbEntity
  8
0
100
AcDbCircle
 62
7
  6
CONTINUOUS
 10
-1390.3869212503
 20
555.7454211308
 40
1692.3348950305
100
AcDbArc
 50
348.5204384978
 51
348.6923870271
  0
ARC
  5
451
100
AcDbEntity
  8
0
100
AcDbCircle
 62
7
  6
CONTINUOUS
 10
-1197.4867483586
 20
518.1699718708
 40
1495.3021347715
100
AcDbArc
 50
348.4563986757
 51
348.6148324366
  0
ARC
  5
452
100
AcDbEntity
  8
KONSTRUKTIONSELEMENTE
100
AcDbCircle
 62
7
  6
CONTINUOUS
 10
243.5952120727
 20
102.6738286274
 40
16.0658798304
100
AcDbArc
 50
90.0616595102
 51
97.2429971583
  0
ARC
  5
453
100
AcDbEntity
  8
0
100
AcDbCircle
 62
7
  6
CONTINUOUS
 10
111.3574298447
 20
243.575943247
 40
159.3283761949
100
AcDbArc
 50
351.4764618395
 51
351.662097619
  0
ARC
  5
454
100
AcDbEntity
  8
0
100
AcDbCircle
 62
7
  6
CONTINUOUS
 10
129.8764922662
 20
242.5158369605
 40
140.8993922901
100
AcDbArc
 50
350.8235331776
 51
350.9988876084
  0
ARC
  5
455
100
AcDbEntity
  8
0
100
AcDbCircle
 62
7
  6
CONTINUOUS
 10
90.1696181774
 20
257.3853293504
 40
182.5721631268
100
AcDbArc
 50
348.4987055186
 51
348.6213302129
  0
ARC
  5
456
100
AcDbEntity
  8
0
100
AcDbCircle
 62
7
  6
CONTINUOUS
 10
205.8593000969
 20
234.6219876812
 40
64.6692805722
100
AcDbArc
 50
345.2652801725
 51
346.5325847098
  0
ARC
  5
457
100
AcDbEntity
  8
0
100
AcDbCircle
 62
7
  6
CONTINUOUS
 10
207.9645118298
 20
235.08775943
 40
62.6651024652
100
AcDbArc
 50
345.0004567738
 51
345.6702346527
  0
ARC
  5
458
100
AcDbEntity
  8
0
100
AcDbCircle
 62
7
  6
CONTINUOUS
 10
210.2185824602
 20
227.9256132182
 40
59.2452507578
100
AcDbArc
 50
351.7753876111
 51
352.1905633671
  0
ARC
  5
459
100
AcDbEntity
  8
0
100
AcDbCircle
 62
7
  6
CONTINUOUS
 10
211.2707397784
 20
234.2021711163
 40
59.2423243786
100
AcDbArc
 50
344.3281215644
 51
345.0001909549
  0
ARC
  5
45A
100
AcDbEntity
  8
0
100
AcDbCircle
 62
7
  6
CONTINUOUS
 10
212.5984938722
 20
233.8414625455
 40
57.3697073712
100
AcDbArc
 50
344.1511256751
 51
344.8718114357
  0
ARC
  5
45B
100
AcDbEntity
  8
0
100
AcDbCircle
 62
7
  6
CONTINUOUS
 10
213.2812399749
 20
233.8474733018
 40
57.2493668133
100
AcDbArc
 50
347.406481413
 51
347.6022923797
  0
ARC
  5
45C
100
AcDbEntity
  8
0
100
AcDbCircle
 62
7
  6
CONTINUOUS
 10
240.9866299133
 20
235.1237087427
 40
30.0905595259
100
AcDbArc
 50
338.3988680212
 51
340.217816054
  0
ARC
  5
45D
100
AcDbEntity
  8
0
100
AcDbCircle
 62
7
  6
CONTINUOUS
 10
241.6829684645
 20
233.9726276955
 40
29.1999751757
100
AcDbArc
 50
337.9802768265
 51
339.8595630313
  0
ARC
  5
45E
100
AcDbEntity
  8
0
100
AcDbCircle
 62
7
  6
CONTINUOUS
 10
241.3645245109
 20
234.9148212536
 40
29.1761380098
100
AcDbArc
 50
338.1287903085
 51
340.0077421764
  0
ARC
  5
45F
100
AcDbEntity
  8
0
100
AcDbCircle
 62
7
  6
CONTINUOUS
 10
247.1064440257
 20
225.3833762885
 40
17.6060269908
100
AcDbArc
 50
191.2813528828
 51
191.7067288384
  0
ARC
  5
460
100
AcDbEntity
  8
0
100
AcDbCircle
 62
7
  6
CONTINUOUS
 10
246.8049374666
 20
225.3207190827
 40
17.2980787832
100
AcDbArc
 50
191.7061409117
 51
192.351372965
  0
ARC
  5
461
100
AcDbEntity
  8
0
100
AcDbCircle
 62
7
  6
CONTINUOUS
 10
243.7953377804
 20
221.1360085897
 40
13.6088287078
100
AcDbArc
 50
184.9532814809
 51
186.0331993847
  0
ARC
  5
462
100
AcDbEntity
  8
0
100
AcDbCircle
 62
7
  6
CONTINUOUS
 10
242.9871171635
 20
225.1934561283
 40
13.5152313068
100
AcDbArc
 50
193.6520277181
 51
194.7685973537
  0
ARC
  5
463
100
AcDbEntity
  8
0
100
AcDbCircle
 62
7
  6
CONTINUOUS
 10
243.5173398591
 20
221.7316652005
 40
13.4375696107
100
AcDbArc
 50
187.5719759046
 51
187.9400462887
  0
ARC
  5
464
100
AcDbEntity
  8
0
100
AcDbCircle
 62
7
  6
CONTINUOUS
 10
243.4349529305
 20
221.7201748696
 40
13.354385275
100
AcDbArc
 50
187.9400484055
 51
188.3088912162
  0
ARC
  5
465
100
AcDbEntity
  8
0
100
AcDbCircle
 62
7
  6
CONTINUOUS
 10
243.3538502709
 20
221.7083309111
 40
13.272422352
100
AcDbArc
 50
188.308893325
 51
188.6785003562
  0
ARC
  5
466
100
AcDbEntity
  8
0
100
AcDbCircle
 62
7
  6
CONTINUOUS
 10
241.7121468377
 20
225.4032853916
 40
12.278762832
100
AcDbArc
 50
206.9765800429
 51
208.3215807784
  0
ARC
  5
467
100
AcDbEntity
  8
0
100
AcDbCircle
 62
7
  6
CONTINUOUS
 10
241.6648274018
 20
224.6797374606
 40
12.1088418809
100
AcDbArc
 50
205.5860549258
 51
206.9332131199
  0
ARC
  5
468
100
AcDbEntity
  8
0
100
AcDbCircle
 62
7
  6
CONTINUOUS
 10
241.9739744995
 20
225.362208468
 40
12.0295175091
100
AcDbArc
 50
207.3619753343
 51
208.7399425961
  0
ARC
  5
469
100
AcDbEntity
  8
0
100
AcDbCircle
 62
7
  6
CONTINUOUS
 10
240.6673753346
 20
225.4288073794
 40
11.2713164041
100
AcDbArc
 50
194.3156155443
 51
196.3343015055
  0
ARC
  5
46A
100
AcDbEntity
  8
0
100
AcDbCircle
 62
7
  6
CONTINUOUS
 10
241.0310746897
 20
220.0037660254
 40
10.6902884499
100
AcDbArc
 50
182.9674880793
 51
185.0252184178
  0
ARC
  5
46B
100
AcDbEntity
  8
0
100
AcDbCircle
 62
7
  6
CONTINUOUS
 10
241.1908183102
 20
219.9532291476
 40
10.3383426673
100
AcDbArc
 50
184.5642903373
 51
184.9155804876
  0
ARC
  5
46C
100
AcDbEntity
  8
BEZUGSACHSEN
100
AcDbCircle
 62
7
  6
CONTINUOUS
 10
235.0779227019
 20
239.836261236
 40
8.0
100
AcDbArc
 50
294.9994114965
 51
0.0005650914
  0
ARC
  5
46D
100
AcDbEntity
  8
0
100
AcDbCircle
 62
7
  6
CONTINUOUS
 10
234.9742480882
 20
222.5555588924
 40
5.3050221343
100
AcDbArc
 50
219.3061559397
 51
221.1116093658
  0
ARC
  5
46E
100
AcDbEntity
  8
0
100
AcDbCircle
 62
7
  6
CONTINUOUS
 10
234.1358869154
 20
223.257881338
 40
4.569801878
100
AcDbArc
 50
233.6354917272
 51
236.4285319769
  0
ARC
  5
46F
100
AcDbEntity
  8
0
100
AcDbCircle
 62
7
  6
CONTINUOUS
 10
233.6128390024
 20
223.1788732828
 40
4.5065096118
100
AcDbArc
 50
233.0384168475
 51
235.8291740181
  0
ARC
  5
470
100
AcDbEntity
  8
BEZUGSACHSEN
100
AcDbCircle
 62
7
  6
CONTINUOUS
 10
232.0207527549
 20
226.8252113283
 40
2.5
100
AcDbArc
 50
115.0
 51
190.0
  0
ARC
  5
471
100
AcDbEntity
  8
0
100
AcDbCircle
 62
7
  6
CONTINUOUS
 10
231.891938537
 20
222.7209756678
 40
2.1607918178
100
AcDbArc
 50
195.8398586171
 51
199.3920073997
  0
ARC
  5
472
100
AcDbEntity
  8
0
100
AcDbCircle
 62
7
  6
CONTINUOUS
 10
231.8359140166
 20
222.4735634103
 40
2.0623155411
100
AcDbArc
 50
190.7640829052
 51
193.1744024402
  0
ARC
  5
473
100
AcDbEntity
  8
0
100
AcDbCircle
 62
7
  6
CONTINUOUS
 10
232.04592555
 20
219.9107754138
 40
1.8241111875
100
AcDbArc
 50
187.806876189
 51
190.0021483768
  0
ARC
  5
474
100
AcDbEntity
  8
0
100
AcDbCircle
 62
7
  6
CONTINUOUS
 10
232.032536104
 20
219.9088715832
 40
1.8105872364
100
AcDbArc
 50
187.1243970381
 51
187.8047421624
  0
ARC
  5
475
100
AcDbEntity
  8
0
100
AcDbCircle
 62
7
  6
CONTINUOUS
 10
232.03631661
 20
219.6804961063
 40
1.7746087929
100
AcDbArc
 50
179.1876304864
 51
183.3111716991
  0
ARC
  5
476
100
AcDbEntity
  8
0
100
AcDbCircle
 62
7
  6
CONTINUOUS
 10
231.1130116789
 20
223.2033358776
 40
1.4777930878
100
AcDbArc
 50
197.0723709043
 51
202.3314938051
  0
ARC
  5
477
100
AcDbEntity
  8
0
100
AcDbCircle
 62
7
  6
CONTINUOUS
 10
231.4821385571
 20
218.9661707884
 40
1.104904606
100
AcDbArc
 50
174.7454501689
 51
181.3728409823
  0
ARC
  5
478
100
AcDbEntity
  8
0
100
AcDbCircle
 62
7
  6
CONTINUOUS
 10
231.9662494245
 20
218.9617814017
 40
1.080918109
100
AcDbArc
 50
174.3947700458
 51
181.1705862489
  0
ARC
  5
479
100
AcDbEntity
  8
RUNDUNGEN
100
AcDbCircle
 62
7
  6
CONTINUOUS
 10
232.0779227019
 20
238.2396991495
 40
0.5
100
AcDbArc
 50
180.0
 51
270.0
  0
ARC
  5
47A
100
AcDbEntity
  8
RUNDUNGEN
100
AcDbCircle
 62
7
  6
CONTINUOUS
 10
232.0779227019
 20
241.2396991495
 40
0.5
100
AcDbArc
 50
90.0
 51
180.0
  0
ARC
  5
47B
100
AcDbEntity
  8
BEZUGSACHSEN
100
AcDbCircle
 62
7
  6
CONTINUOUS
 10
245.5779227019
 20
276.4837186488
 40
2.5
100
AcDbArc
 50
90.0
 51
180.0
  0
ARC
  5
47C
100
AcDbEntity
  8
KONSTRUKTIONSELEMENTE
100
AcDbCircle
 62
7
  6
CONTINUOUS
 10
255.5606339896
 20
102.6738417751
 40
16.0658666831
100
AcDbArc
 50
82.757007676
 51
89.9383436629
  0
ARC
  5
47D
100
AcDbEntity
  8
0
100
AcDbCircle
 62
7
  6
CONTINUOUS
 10
408.9862272264
 20
257.3853293504
 40
182.5721631268
100
AcDbArc
 50
191.3786697871
 51
191.5012944814
  0
ARC
  5
47E
100
AcDbEntity
  8
0
100
AcDbCircle
 62
7
  6
CONTINUOUS
 10
352.3881292377
 20
247.9115653006
 40
125.1809685635
100
AcDbArc
 50
192.0640056291
 51
192.3629228702
  0
ARC
  5
47F
100
AcDbEntity
  8
0
100
AcDbCircle
 62
7
  6
CONTINUOUS
 10
336.2386136018
 20
248.0314047308
 40
109.1736452512
100
AcDbArc
 50
194.7604672757
 51
194.9684187297
  0
ARC
  5
480
100
AcDbEntity
  8
0
100
AcDbCircle
 62
7
  6
CONTINUOUS
 10
332.9007138742
 20
247.2625538768
 40
105.2475026848
100
AcDbArc
 50
194.8908035813
 51
195.1066473024
  0
ARC
  5
481
100
AcDbEntity
  8
0
100
AcDbCircle
 62
7
  6
CONTINUOUS
 10
312.1001106759
 20
231.2320137563
 40
82.6350458687
100
AcDbArc
 50
187.5713537443
 51
187.8393153858
  0
ARC
  5
482
100
AcDbEntity
  8
0
100
AcDbCircle
 62
7
  6
CONTINUOUS
 10
293.0823000541
 20
237.4890465797
 40
64.8963221961
100
AcDbArc
 50
195.6698271143
 51
196.1386059148
  0
ARC
  5
483
100
AcDbEntity
  8
0
100
AcDbCircle
 62
7
  6
CONTINUOUS
 10
294.4657379836
 20
227.2785661457
 40
64.5867815834
100
AcDbArc
 50
186.5054992787
 51
186.961640789
  0
ARC
  5
484
100
AcDbEntity
  8
0
100
AcDbCircle
 62
7
  6
CONTINUOUS
 10
291.5094098796
 20
234.1625247882
 40
62.82405641
100
AcDbArc
 50
194.0886608977
 51
194.7440171002
  0
ARC
  5
485
100
AcDbEntity
  8
0
100
AcDbCircle
 62
7
  6
CONTINUOUS
 10
286.244304797
 20
233.9294769073
 40
57.6280512262
100
AcDbArc
 50
192.2682863019
 51
192.5929460196
  0
ARC
  5
486
100
AcDbEntity
  8
0
100
AcDbCircle
 62
7
  6
CONTINUOUS
 10
274.5784189602
 20
232.5710396562
 40
45.9007965116
100
AcDbArc
 50
192.983037761
 51
193.5294619954
  0
ARC
  5
487
100
AcDbEntity
  8
0
100
AcDbCircle
 62
7
  6
CONTINUOUS
 10
252.1091685013
 20
225.3715875107
 40
17.5451101853
100
AcDbArc
 50
347.866720746
 51
348.9324801064
  0
ARC
  5
488
100
AcDbEntity
  8
0
100
AcDbCircle
 62
7
  6
CONTINUOUS
 10
255.7203540369
 20
221.7204307144
 40
13.3549544473
100
AcDbArc
 50
351.3230336067
 51
352.4295309053
  0
ARC
  5
489
100
AcDbEntity
  8
0
100
AcDbCircle
 62
7
  6
CONTINUOUS
 10
258.112877115
 20
224.9802494107
 40
11.5645765209
100
AcDbArc
 50
346.3893850356
 51
348.3340309786
  0
ARC
  5
48A
100
AcDbEntity
  8
0
100
AcDbCircle
 62
7
  6
CONTINUOUS
 10
258.3703172203
 20
220.5442357416
 40
10.5410840944
100
AcDbArc
 50
351.9459766127
 51
354.0434210442
  0
ARC
  5
48B
100
AcDbEntity
  8
RUNDUNGEN
100
AcDbCircle
 62
7
  6
CONTINUOUS
 10
264.0779227019
 20
239.836261236
 40
8.0
100
AcDbArc
 50
179.9994349086
 51
245.0005885035
  0
ARC
  5
48C
100
AcDbEntity
  8
BEZUGSACHSEN
100
AcDbCircle
 62
7
  6
CONTINUOUS
 10
249.5779227019
 20
230.9396991495
 40
5.0
100
AcDbArc
 50
215.6960488858
 51
324.3039511142
  0
ARC
  5
48D
100
AcDbEntity
  8
RUNDUNGEN
100
AcDbCircle
 62
7
  6
CONTINUOUS
 10
253.5779227019
 20
276.4837186488
 40
2.5
100
AcDbArc
 50
0.0
 51
90.0
  0
ARC
  5
48E
100
AcDbEntity
  8
RUNDUNGEN
100
AcDbCircle
 62
7
  6
CONTINUOUS
 10
267.1350926488
 20
226.8252113283
 40
2.5
100
AcDbArc
 50
350.0
 51
65.0
  0
ARC
  5
48F
100
AcDbEntity
  8
0
100
AcDbCircle
 62
7
  6
CONTINUOUS
 10
267.3223720461
 20
222.4730286754
 40
2.0598172441
100
AcDbArc
 50
346.8246072037
 51
349.99677683
  0
ARC
  5
490
100
AcDbEntity
  8
0
100
AcDbCircle
 62
7
  6
CONTINUOUS
 10
267.1156651379
 20
219.9098508692
 40
1.8182926471
100
AcDbArc
 50
349.9950982899
 51
353.5520821244
  0
ARC
  5
491
100
AcDbEntity
  8
0
100
AcDbCircle
 62
7
  6
CONTINUOUS
 10
268.1159937998
 20
222.9947331148
 40
1.3688454604
100
AcDbArc
 50
345.0596570483
 51
349.9865998222
  0
ARC
  5
492
100
AcDbEntity
  8
0
100
AcDbCircle
 62
7
  6
CONTINUOUS
 10
267.6858232738
 20
219.1479782869
 40
1.1244987322
100
AcDbArc
 50
349.987271094
 51
355.8887217385
  0
ARC
  5
493
100
AcDbEntity
  8
RUNDUNGEN
100
AcDbCircle
 62
7
  6
CONTINUOUS
 10
267.0779227019
 20
238.2396991495
 40
0.5
100
AcDbArc
 50
270.0
 51
360.0
  0
ARC
  5
494
100
AcDbEntity
  8
RUNDUNGEN
100
AcDbCircle
 62
7
  6
CONTINUOUS
 10
267.0779227019
 20
241.2396991495
 40
0.5
100
AcDbArc
 50
0.0
 51
90.0
  0
ARC
  5
495
100
AcDbEntity
  8
0
100
AcDbCircle
 62
7
  6
CONTINUOUS
 10
108.9739472873
 20
32.7415939075
 40
33.5321571772
100
AcDbArc
 50
86.9057106924
 51
94.1727995846
  0
ARC
  5
496
100
AcDbEntity
  8
0
100
AcDbCircle
 62
7
  6
CONTINUOUS
 10
109.3566445526
 20
36.6564856799
 40
29.5952041452
100
AcDbArc
 50
79.1866834684
 51
80.6614557372
  0
ARC
  5
497
100
AcDbEntity
  8
0
100
AcDbCircle
 62
7
  6
CONTINUOUS
 10
105.8230287398
 20
44.5319084655
 40
23.0597517697
100
AcDbArc
 50
65.1536274567
 51
66.795247911
  0
ARC
  5
498
100
AcDbEntity
  8
RUNDUNGEN
100
AcDbCircle
 62
7
  6
CONTINUOUS
 10
99.9714892629
 20
21.6100618124
 40
16.0
100
AcDbArc
 50
44.4085084523
 51
69.7477532578
  0
ARC
  5
499
100
AcDbEntity
  8
RUNDUNGEN
100
AcDbCircle
 62
7
  6
CONTINUOUS
 10
79.045873581
 20
42.0027059829
 40
2.5000249347
100
AcDbArc
 50
186.1801355825
 51
269.9994190073
  0
ARC
  5
49A
100
AcDbEntity
  8
0
100
AcDbCircle
 62
7
  6
CONTINUOUS
 10
108.9690312385
 20
59.2637733879
 40
33.5321571772
100
AcDbArc
 50
266.9057106924
 51
274.1727995846
  0
ARC
  5
49B
100
AcDbEntity
  8
0
100
AcDbCircle
 62
7
  6
CONTINUOUS
 10
108.5863339732
 20
55.3488816156
 40
29.5952041452
100
AcDbArc
 50
259.1866834684
 51
260.6614557372
  0
ARC
  5
49C
100
AcDbEntity
  8
RUNDUNGEN
100
AcDbCircle
 62
7
  6
CONTINUOUS
 10
99.9714892629
 20
70.395305483
 40
16.0
100
AcDbArc
 50
290.2522467422
 51
315.5914915477
  0
ARC
  5
49D
100
AcDbEntity
  8
0
100
AcDbCircle
 62
7
  6
CONTINUOUS
 10
108.9714892629
 20
46.0026836477
 40
15.25
100
AcDbArc
 50
324.6616938379
 51
334.7742475036
  0
ARC
  5
49E
100
AcDbEntity
  8
0
100
AcDbCircle
 62
7
  6
CONTINUOUS
 10
108.9714892629
 20
46.0026836477
 40
15.25
100
AcDbArc
 50
207.3167605227
 51
285.672108559
  0
ARC
  5
49F
100
AcDbEntity
  8
0
100
AcDbCircle
 62
7
  6
CONTINUOUS
 10
108.9714892629
 20
46.0026836477
 40
15.25
100
AcDbArc
 50
74.3279115428
 51
154.774227827
  0
ARC
  5
4A0
100
AcDbEntity
  8
0
100
AcDbCircle
 62
7
  6
CONTINUOUS
 10
108.9714892629
 20
46.0026836477
 40
15.25
100
AcDbArc
 50
25.2257524964
 51
35.3383011493
  0
ARC
  5
4A1
100
AcDbEntity
  8
RUNDUNGEN
100
AcDbCircle
 62
7
  6
CONTINUOUS
 10
108.9714892629
 20
46.0026836477
 40
15.0
100
AcDbArc
 50
25.679731985
 51
35.3226184175
  0
ARC
  5
4A2
100
AcDbEntity
  8
RUNDUNGEN
100
AcDbCircle
 62
7
  6
CONTINUOUS
 10
108.9714892629
 20
46.0026836477
 40
15.0
100
AcDbArc
 50
75.026137093
 51
154.320268015
  0
ARC
  5
4A3
100
AcDbEntity
  8
RUNDUNGEN
100
AcDbCircle
 62
7
  6
CONTINUOUS
 10
108.9714892629
 20
46.0026836477
 40
15.0
100
AcDbArc
 50
207.8514302168
 51
284.973862907
  0
ARC
  5
4A4
100
AcDbEntity
  8
RUNDUNGEN
100
AcDbCircle
 62
7
  6
CONTINUOUS
 10
108.9714892629
 20
46.0026836477
 40
15.0
100
AcDbArc
 50
324.6773815831
 51
334.320268015
  0
ARC
  5
4A5
100
AcDbEntity
  8
RUNDUNGEN
100
AcDbCircle
 62
7
  6
CONTINUOUS
 10
108.9714892629
 20
46.0026836477
 40
10.0
100
AcDbArc
 50
220.5472596647
 51
249.7477532578
  0
ARC
  5
4A6
100
AcDbEntity
  8
RUNDUNGEN
100
AcDbCircle
 62
7
  6
CONTINUOUS
 10
108.9714892629
 20
46.0026836477
 40
10.0
100
AcDbArc
 50
110.2522467422
 51
139.4527403393
  0
ARC
  5
4A7
100
AcDbEntity
  8
BEZUGSACHSEN
100
AcDbCircle
 62
7
  6
CONTINUOUS
 10
79.0458734513
 20
50.002661457
 40
2.5000249347
100
AcDbArc
 50
90.0005780193
 51
173.8198673908
  0
ARC
  5
4A8
100
AcDbEntity
  8
RUNDUNGEN
100
AcDbCircle
 62
7
  6
CONTINUOUS
 10
122.8312899475
 20
44.0026836477
 40
16.0
100
AcDbArc
 50
224.4085084523
 51
279.0
  0
ARC
  5
4A9
100
AcDbEntity
  8
RUNDUNGEN
100
AcDbCircle
 62
7
  6
CONTINUOUS
 10
124.9714892629
 20
42.0026836477
 40
6.0
100
AcDbArc
 50
204.6459835163
 51
270.0
  0
ARC
  5
4AA
100
AcDbEntity
  8
RUNDUNGEN
100
AcDbCircle
 62
7
  6
CONTINUOUS
 10
138.8971062672
 20
42.0027059829
 40
2.5000249346
100
AcDbArc
 50
270.000470437
 51
353.8197261076
  0
ARC
  5
4AB
100
AcDbEntity
  8
RUNDUNGEN
100
AcDbCircle
 62
7
  6
CONTINUOUS
 10
143.4714892629
 20
32.0847931776
 40
1.0
100
AcDbArc
 50
279.0
 51
360.0
  0
ARC
  5
4AC
100
AcDbEntity
  8
RUNDUNGEN
100
AcDbCircle
 62
7
  6
CONTINUOUS
 10
141.4714892629
 20
39.2526836477
 40
1.0
100
AcDbArc
 50
90.0
 51
180.0
  0
ARC
  5
4AD
100
AcDbEntity
  8
RUNDUNGEN
100
AcDbCircle
 62
7
  6
CONTINUOUS
 10
143.4714892629
 20
39.2526836477
 40
1.0
100
AcDbArc
 50
0.0
 51
90.0
  0
ARC
  5
4AE
100
AcDbEntity
  8
RUNDUNGEN
100
AcDbCircle
 62
7
  6
CONTINUOUS
 10
139.4714892629
 20
37.0026836477
 40
1.0
100
AcDbArc
 50
270.0
 51
360.0
  0
ARC
  5
4AF
100
AcDbEntity
  8
0
100
AcDbCircle
 62
7
  6
CONTINUOUS
 10
112.119783579
 20
47.4730772
 40
23.0593355241
100
AcDbArc
 50
245.1517368435
 51
246.795253855
  0
ARC
  5
4B0
100
AcDbEntity
  8
RUNDUNGEN
100
AcDbCircle
 62
7
  6
CONTINUOUS
 10
122.8312899475
 20
48.0026836477
 40
16.0
100
AcDbArc
 50
81.0
 51
135.5914915477
  0
ARC
  5
4B1
100
AcDbEntity
  8
RUNDUNGEN
100
AcDbCircle
 62
7
  6
CONTINUOUS
 10
124.9714892629
 20
50.0026836477
 40
6.0
100
AcDbArc
 50
90.0
 51
155.3540164969
  0
ARC
  5
4B2
100
AcDbEntity
  8
BEZUGSACHSEN
100
AcDbCircle
 62
7
  6
CONTINUOUS
 10
138.897106397
 20
50.0026614571
 40
2.5000249346
100
AcDbArc
 50
6.180270919
 51
89.9995325363
  0
ARC
  5
4B3
100
AcDbEntity
  8
RUNDUNGEN
100
AcDbCircle
 62
7
  6
CONTINUOUS
 10
143.4714892629
 20
59.9205741178
 40
1.0
100
AcDbArc
 50
0.0
 51
81.0
  0
ARC
  5
4B4
100
AcDbEntity
  8
RUNDUNGEN
100
AcDbCircle
 62
7
  6
CONTINUOUS
 10
141.4714892629
 20
52.7526836477
 40
1.0
100
AcDbArc
 50
180.0
 51
270.0
  0
ARC
  5
4B5
100
AcDbEntity
  8
RUNDUNGEN
100
AcDbCircle
 62
7
  6
CONTINUOUS
 10
143.4714892629
 20
52.7526836477
 40
1.0
100
AcDbArc
 50
270.0
 51
360.0
  0
ARC
  5
4B6
100
AcDbEntity
  8
RUNDUNGEN
100
AcDbCircle
 62
7
  6
CONTINUOUS
 10
139.4714892629
 20
55.0026836477
 40
1.0
100
AcDbArc
 50
0.0
 51
90.0
  0
SPLINE
  5
4B7
100
AcDbEntity
  8
KONSTRUKTIONSELEMENTE
100
AcDbSpline
 62
7
  6
CONTINUOUS
 70
0
 71
3
 72
11
 73
7
 74
0
 42
0.0000001
 43
0.0000001
 44
0.0000000001
 40
0.0
 40
0.0
 40
0.0
 40
0.0
 40
0.2404100529
 40
0.4855109824
 40
0.7383644672
 40
1.0
 40
1.0
 40
1.0
 40
1.0
 10
98.5791843388
 20
118.739699156
 30
0.0
 10
98.2853786287
 20
118.7396991473
 30
0.0
 10
97.6909331827
 20
118.6884829854
 30
0.0
 10
96.8128826957
 20
118.4672130233
 30
0.0
 10
95.9490783376
 20
118.1213807111
 30
0.0
 10
95.3919904607
 20
117.8277750902
 30
0.0
 10
95.1150828037
 20
117.6679023799
 30
0.0
  0
SPLINE
  5
4B8
100
AcDbEntity
  8
KONSTRUKTIONSELEMENTE
100
AcDbSpline
 62
7
  6
CONTINUOUS
 70
0
 71
3
 72
11
 73
7
 74
0
 42
0.0000001
 43
0.0000001
 44
0.0000000001
 40
0.0
 40
0.0
 40
0.0
 40
0.0
 40
0.261635542
 40
0.5144890696
 40
0.7595899798
 40
1.0
 40
1.0
 40
1.0
 40
1.0
 10
122.8278957221
 20
117.6679023799
 30
0.0
 10
122.550988044
 20
117.8277751024
 30
0.0
 10
121.9939000913
 20
118.1213807715
 30
0.0
 10
121.1300956482
 20
118.4672130869
 30
0.0
 10
120.2520451279
 20
118.6884830172
 30
0.0
 10
119.6575997195
 20
118.7396991619
 30
0.0
 10
119.3637940373
 20
118.7396991552
 30
0.0
  0
SPLINE
  5
4B9
100
AcDbEntity
  8
KONSTRUKTIONSELEMENTE
100
AcDbSpline
 62
7
  6
CONTINUOUS
 70
0
 71
3
 72
11
 73
7
 74
0
 42
0.0000001
 43
0.0000001
 44
0.0000000001
 40
0.0
 40
0.0
 40
0.0
 40
0.0
 40
0.2404100529
 40
0.4855109824
 40
0.7383644672
 40
1.0
 40
1.0
 40
1.0
 40
1.0
 10
119.3637940373
 20
118.7396991552
 30
0.0
 10
119.0699883265
 20
118.7396991465
 30
0.0
 10
118.4755428787
 20
118.6884829875
 30
0.0
 10
117.5974923892
 20
118.4672130247
 30
0.0
 10
116.7336880286
 20
118.1213807123
 30
0.0
 10
116.1766001502
 20
117.8277750906
 30
0.0
 10
115.8996924925
 20
117.6679023799
 30
0.0
  0
SPLINE
  5
4BA
100
AcDbEntity
  8
KONSTRUKTIONSELEMENTE
100
AcDbSpline
 62
7
  6
CONTINUOUS
 70
0
 71
3
 72
10
 73
6
 74
0
 42
0.0000001
 43
0.0000001
 44
0.0000000001
 40
0.0
 40
0.0
 40
0.0
 40
0.0
 40
0.4998915772
 40
0.7499458268
 40
1.0
 40
1.0
 40
1.0
 40
1.0
 10
115.8996924925
 20
117.6679023799
 30
0.0
 10
114.7740350541
 20
117.9928516924
 30
0.0
 10
113.0579218764
 20
118.3990956679
 30
0.0
 10
110.7303048437
 20
118.6896908997
 30
0.0
 10
109.5575538483
 20
118.7396991474
 30
0.0
 10
108.9714891178
 20
118.7396991554
 30
0.0
  0
SPLINE
  5
4BB
100
AcDbEntity
  8
BEZUGSACHSEN
100
AcDbSpline
 62
7
  6
CONTINUOUS
 70
0
 71
3
 72
17
 73
13
 74
0
 42
0.0000001
 43
0.0000001
 44
0.0000000001
 40
0.0
 40
0.0
 40
0.0
 40
0.0
 40
0.1379493374
 40
0.2669046225
 40
0.3865345207
 40
0.4437238645
 40
0.5000000688
 40
0.5562762816
 40
0.6134655876
 40
0.7330954213
 40
0.8620506152
 40
1.0
 40
1.0
 40
1.0
 40
1.0
 10
122.8278957221
 20
107.5961056112
 30
0.0
 10
122.5659257588
 20
107.3341356479
 30
0.0
 10
122.0373309929
 20
106.8477660084
 30
0.0
 10
121.1878487603
 20
106.2447938357
 30
0.0
 10
120.4324793064
 20
105.9022346079
 30
0.0
 10
119.8200979173
 20
105.7628913358
 30
0.0
 10
119.3637934864
 20
105.728438284
 30
0.0
 10
118.907489255
 20
105.762891828
 30
0.0
 10
118.2951078914
 20
105.9022341234
 30
0.0
 10
117.5397393675
 20
106.2447943771
 30
0.0
 10
116.6902571434
 20
106.8477658377
 30
0.0
 10
116.1616625457
 20
107.334135558
 30
0.0
 10
115.8996924925
 20
107.5961056112
 30
0.0
  0
SPLINE
  5
4BC
100
AcDbEntity
  8
BEZUGSACHSEN
100
AcDbSpline
 62
7
  6
CONTINUOUS
 70
0
 71
3
 72
15
 73
11
 74
0
 42
0.0000001
 43
0.0000001
 44
0.0000000001
 40
0.0
 40
0.0
 40
0.0
 40
0.0
 40
0.1250035726
 40
0.2500177617
 40
0.3750129322
 40
0.5000000785
 40
0.6249871996
 40
0.7499822809
 40
0.8749963857
 40
1.0
 40
1.0
 40
1.0
 40
1.0
 10
115.8996924925
 20
107.5961056112
 30
0.0
 10
115.3604280225
 20
107.3264733762
 30
0.0
 10
114.2624498547
 20
106.8243586687
 30
0.0
 10
112.552335662
 20
106.2254179023
 30
0.0
 10
110.7815949629
 20
105.8320815077
 30
0.0
 10
108.9714882349
 20
105.693752206
 30
0.0
 10
107.1613818492
 20
105.8320811859
 30
0.0
 10
105.3906423185
 20
106.2254183725
 30
0.0
 10
103.6805286211
 20
106.8243585317
 30
0.0
 10
102.5825506835
 20
107.3264732861
 30
0.0
 10
102.0432860333
 20
107.5961056112
 30
0.0
  0
SPLINE
  5
4BD
100
AcDbEntity
  8
KONSTRUKTIONSELEMENTE
100
AcDbSpline
 62
7
  6
CONTINUOUS
 70
0
 71
3
 72
10
 73
6
 74
0
 42
0.0000001
 43
0.0000001
 44
0.0000000001
 40
0.0
 40
0.0
 40
0.0
 40
0.0
 40
0.2500541975
 40
0.5001084613
 40
1.0
 40
1.0
 40
1.0
 40
1.0
 10
108.9714891178
 20
118.7396991554
 30
0.0
 10
108.3854243544
 20
118.7396991554
 30
0.0
 10
107.2126733179
 20
118.6896908598
 30
0.0
 10
104.8850563865
 20
118.3990956113
 30
0.0
 10
103.1689433386
 20
117.992851654
 30
0.0
 10
102.0432860333
 20
117.6679023799
 30
0.0
  0
SPLINE
  5
4BE
100
AcDbEntity
  8
KONSTRUKTIONSELEMENTE
100
AcDbSpline
 62
7
  6
CONTINUOUS
 70
0
 71
3
 72
11
 73
7
 74
0
 42
0.0000001
 43
0.0000001
 44
0.0000000001
 40
0.0
 40
0.0
 40
0.0
 40
0.0
 40
0.261635542
 40
0.5144890696
 40
0.7595899797
 40
1.0
 40
1.0
 40
1.0
 40
1.0
 10
102.0432860333
 20
117.6679023799
 30
0.0
 10
101.7663783545
 20
117.8277751028
 30
0.0
 10
101.2092904003
 20
118.121380773
 30
0.0
 10
100.3454859546
 20
118.4672130875
 30
0.0
 10
99.4674354319
 20
118.688483022
 30
0.0
 10
98.8729900218
 20
118.739699156
 30
0.0
 10
98.5791843388
 20
118.739699156
 30
0.0
  0
SPLINE
  5
4BF
100
AcDbEntity
  8
BEZUGSACHSEN
100
AcDbSpline
 62
7
  6
CONTINUOUS
 70
0
 71
3
 72
17
 73
13
 74
0
 42
0.0000001
 43
0.0000001
 44
0.0000000001
 40
0.0
 40
0.0
 40
0.0
 40
0.0
 40
0.1379493374
 40
0.2669046225
 40
0.3865345207
 40
0.4437238645
 40
0.5000000688
 40
0.5562762816
 40
0.6134655876
 40
0.7330954213
 40
0.8620506152
 40
1.0
 40
1.0
 40
1.0
 40
1.0
 10
102.0432860333
 20
107.5961056112
 30
0.0
 10
101.7813160701
 20
107.3341356479
 30
0.0
 10
101.2527213041
 20
106.8477660084
 30
0.0
 10
100.4032390716
 20
106.2447938357
 30
0.0
 10
99.6478696176
 20
105.9022346079
 30
0.0
 10
99.0354882286
 20
105.7628913358
 30
0.0
 10
98.5791837977
 20
105.728438284
 30
0.0
 10
98.1228795663
 20
105.762891828
 30
0.0
 10
97.5104982026
 20
105.9022341234
 30
0.0
 10
96.7551296788
 20
106.2447943771
 30
0.0
 10
95.9056474546
 20
106.8477658377
 30
0.0
 10
95.3770528569
 20
107.334135558
 30
0.0
 10
95.1150828037
 20
107.5961056112
 30
0.0
  0
SPLINE
  5
4C0
100
AcDbEntity
  8
0
100
AcDbSpline
 62
7
  6
CONTINUOUS
 70
0
 71
3
 72
15
 73
11
 74
0
 42
0.0000001
 43
0.0000001
 44
0.0000000001
 40
0.0
 40
0.0
 40
0.0
 40
0.0
 40
0.1100275687
 40
0.2322303777
 40
0.3636284293
 40
0.4999999184
 40
0.636371469
 40
0.7677696045
 40
0.8899724024
 40
1.0
 40
1.0
 40
1.0
 40
1.0
 10
119.5099029461
 20
232.6278000352
 30
0.0
 10
118.7860585986
 20
232.307638852
 30
0.0
 10
117.2105825799
 20
231.7373057595
 30
0.0
 10
114.66262122
 20
231.1267157814
 30
0.0
 10
111.8797180093
 20
230.7410509211
 30
0.0
 10
108.9714919077
 20
230.6078439088
 30
0.0
 10
106.0632651729
 20
230.7410504658
 30
0.0
 10
103.2803609613
 20
231.1267151067
 30
0.0
 10
100.7323987495
 20
231.73730473
 30
0.0
 10
99.1569226277
 20
232.3076379096
 30
0.0
 10
98.4330780321
 20
232.6277990455
 30
0.0
  0
SPLINE
  5
4C1
100
AcDbEntity
  8
0
100
AcDbSpline
 62
7
  6
CONTINUOUS
 70
0
 71
3
 72
12
 73
8
 74
0
 42
0.0000001
 43
0.0000001
 44
0.0000000001
 40
0.0
 40
0.0
 40
0.0
 40
0.0
 40
0.0962547086
 40
0.2066747763
 40
0.4538840416
 40
0.7214136796
 40
1.0
 40
1.0
 40
1.0
 40
1.0
 10
123.8156175834
 20
237.1713924798
 30
0.0
 10
123.7834515161
 20
237.1198747195
 30
0.0
 10
123.7201145699
 20
237.0057377504
 30
0.0
 10
123.5903346073
 20
236.7504619306
 30
0.0
 10
123.4181729991
 20
236.3955180336
 30
0.0
 10
123.1918070425
 20
235.9490105045
 30
0.0
 10
123.0255321711
 20
235.6470530278
 30
0.0
 10
122.9371717317
 20
235.4950923364
 30
0.0
  0
SPLINE
  5
4C2
100
AcDbEntity
  8
0
100
AcDbSpline
 62
7
  6
CONTINUOUS
 70
0
 71
3
 72
9
 73
5
 74
0
 42
0.0000001
 43
0.0000001
 44
0.0000000001
 40
0.0
 40
0.0
 40
0.0
 40
0.0
 40
0.5007821293
 40
1.0
 40
1.0
 40
1.0
 40
1.0
 10
122.9371717317
 20
235.4950923364
 30
0.0
 10
122.780372069
 20
235.2254502807
 30
0.0
 10
122.418282165
 20
234.713917184
 30
0.0
 10
121.9730107535
 20
234.2740638827
 30
0.0
 10
121.7363510779
 20
234.0723752491
 30
0.0
  0
SPLINE
  5
4C3
100
AcDbEntity
  8
0
100
AcDbSpline
 62
7
  6
CONTINUOUS
 70
0
 71
3
 72
9
 73
5
 74
0
 42
0.0000001
 43
0.0000001
 44
0.0000000001
 40
0.0
 40
0.0
 40
0.0
 40
0.0
 40
0.4830741676
 40
1.0
 40
1.0
 40
1.0
 40
1.0
 10
121.7363510779
 20
234.0723752491
 30
0.0
 10
121.4188681169
 20
233.8018655804
 30
0.0
 10
120.7359038171
 20
233.2706494269
 30
0.0
 10
119.9811823505
 20
232.841299717
 30
0.0
 10
119.5747500288
 20
232.6568541304
 30
0.0
  0
SPLINE
  5
4C4
100
AcDbEntity
  8
0
100
AcDbSpline
 62
7
  6
CONTINUOUS
 70
0
 71
3
 72
9
 73
5
 74
0
 42
0.0000001
 43
0.0000001
 44
0.0000000001
 40
0.0
 40
0.0
 40
0.0
 40
0.0
 40
0.5169270163
 40
1.0
 40
1.0
 40
1.0
 40
1.0
 10
98.3683461302
 20
232.6568009764
 30
0.0
 10
97.961889571
 20
232.8412497054
 30
0.0
 10
97.2071267585
 20
233.2706149987
 30
0.0
 10
96.5241216949
 20
233.8018495762
 30
0.0
 10
96.2066237378
 20
234.0723722693
 30
0.0
  0
SPLINE
  5
4C5
100
AcDbEntity
  8
0
100
AcDbSpline
 62
7
  6
CONTINUOUS
 70
0
 71
3
 72
9
 73
5
 74
0
 42
0.0000001
 43
0.0000001
 44
0.0000000001
 40
0.0
 40
0.0
 40
0.0
 40
0.0
 40
0.4992189554
 40
1.0
 40
1.0
 40
1.0
 40
1.0
 10
96.2066237378
 20
234.0723722693
 30
0.0
 10
95.9699632665
 20
234.2740608624
 30
0.0
 10
95.524699099
 20
234.7139214634
 30
0.0
 10
95.1626080738
 20
235.2254524993
 30
0.0
 10
95.0058075117
 20
235.4950931386
 30
0.0
  0
SPLINE
  5
4C6
100
AcDbEntity
  8
0
100
AcDbSpline
 62
7
  6
CONTINUOUS
 70
0
 71
3
 72
12
 73
8
 74
0
 42
0.0000001
 43
0.0000001
 44
0.0000000001
 40
0.0
 40
0.0
 40
0.0
 40
0.0
 40
0.2785859645
 40
0.5461138604
 40
0.7933259633
 40
0.903745275
 40
1.0
 40
1.0
 40
1.0
 40
1.0
 10
95.0058075117
 20
235.4950931386
 30
0.0
 10
94.9174489663
 20
235.647053626
 30
0.0
 10
94.7511748559
 20
235.9490078569
 30
0.0
 10
94.5248042022
 20
236.395510716
 30
0.0
 10
94.3526506789
 20
236.7504565958
 30
0.0
 10
94.2228679239
 20
237.005730846
 30
0.0
 10
94.1595313039
 20
237.119866668
 30
0.0
 10
94.127365351
 20
237.1713841438
 30
0.0
  0
SPLINE
  5
4C7
100
AcDbEntity
  8
BEZUGSACHSEN
100
AcDbSpline
 62
7
  6
CONTINUOUS
 70
0
 71
3
 72
24
 73
20
 74
0
 42
0.0000001
 43
0.0000001
 44
0.0000000001
 40
0.0
 40
0.0
 40
0.0
 40
0.0
 40
0.0224948297
 40
0.0451319399
 40
0.0677398254
 40
0.0902924344
 40
0.1352046535
 40
0.1798485189
 40
0.224190549
 40
0.268191076
 40
0.3549682721
 40
0.439715372
 40
0.5218337275
 40
0.600590067
 40
0.6751211894
 40
0.8075508161
 40
0.9108121639
 40
0.977000809
 40
1.0
 40
1.0
 40
1.0
 40
1.0
 10
114.3958770674
 20
214.9396991495
 30
0.0
 10
114.4304472447
 20
215.0885250221
 30
0.0
 10
114.5810118921
 20
215.3658078847
 30
0.0
 10
114.8828171482
 20
215.7127310918
 30
0.0
 10
115.2208377982
 20
216.0268060116
 30
0.0
 10
115.6951652017
 20
216.4133708192
 30
0.0
 10
116.3145212755
 20
216.8574250676
 30
0.0
 10
117.0764785751
 20
217.3541309197
 30
0.0
 10
117.8476921504
 20
217.8245892136
 30
0.0
 10
118.8768715019
 20
218.4210037852
 30
0.0
 10
120.163602567
 20
219.1196915847
 30
0.0
 10
121.7022920143
 20
219.8950661106
 30
0.0
 10
123.2134175992
 20
220.6025133821
 30
0.0
 10
124.6801249419
 20
221.2396655823
 30
0.0
 10
126.480553032
 20
221.964409816
 30
0.0
 10
128.4638514428
 20
222.678551562
 30
0.0
 10
130.4208810661
 20
223.2917644327
 30
0.0
 10
131.6792927224
 20
223.6457265731
 30
0.0
 10
132.2646061669
 20
223.80187203
 30
0.0
 10
132.4156722072
 20
223.8416388794
 30
0.0
  0
SPLINE
  5
4C8
100
AcDbEntity
  8
BEZUGSACHSEN
100
AcDbSpline
 62
7
  6
CONTINUOUS
 70
0
 71
3
 72
24
 73
20
 74
0
 42
0.0000001
 43
0.0000001
 44
0.0000000001
 40
0.0
 40
0.0
 40
0.0
 40
0.0
 40
0.0229996684
 40
0.0891896022
 40
0.1924525512
 40
0.3248828777
 40
0.3994137583
 40
0.4781693472
 40
0.5602866511
 40
0.6450325749
 40
0.7318084169
 40
0.7758082219
 40
0.8201494976
 40
0.8647925949
 40
0.9097040844
 40
0.9322564097
 40
0.9548646241
 40
0.9775032695
 40
1.0
 40
1.0
 40
1.0
 40
1.0
 10
85.5273063186
 20
223.8416388794
 30
0.0
 10
85.67837577
 20
223.8018721722
 30
0.0
 10
86.263701322
 20
223.6457253639
 30
0.0
 10
87.5221330703
 20
223.2917496887
 30
0.0
 10
89.4791874551
 20
222.6785341437
 30
0.0
 10
91.4624984362
 20
221.9643848365
 30
0.0
 10
93.2629223797
 20
221.2396352492
 30
0.0
 10
94.7296164889
 20
220.6024871668
 30
0.0
 10
96.2407239674
 20
219.895048597
 30
0.0
 10
97.7793912431
 20
219.1196837304
 30
0.0
 10
99.0661019348
 20
218.4210045434
 30
0.0
 10
100.0952667755
 20
217.8246031718
 30
0.0
 10
100.8664671256
 20
217.3541519671
 30
0.0
 10
101.6284101761
 20
216.857453212
 30
0.0
 10
102.2477673052
 20
216.4134192505
 30
0.0
 10
102.7220779532
 20
216.0268424176
 30
0.0
 10
103.0601320892
 20
215.7127875595
 30
0.0
 10
103.3619491448
 20
215.365839497
 30
0.0
 10
103.5125283571
 20
215.0885376102
 30
0.0
 10
103.5471014584
 20
214.9396991495
 30
0.0
  0
SPLINE
  5
4C9
100
AcDbEntity
  8
KONSTRUKTIONSELEMENTE
100
AcDbSpline
 62
7
  6
CONTINUOUS
 70
0
 71
3
 72
9
 73
5
 74
0
 42
0.0000001
 43
0.0000001
 44
0.0000000001
 40
0.0
 40
0.0
 40
0.0
 40
0.0
 40
0.4985840112
 40
1.0
 40
1.0
 40
1.0
 40
1.0
 10
241.5696625301
 20
118.6115086271
 30
0.0
 10
240.8925503191
 20
118.525838023
 30
0.0
 10
239.5442353277
 20
118.2708261468
 30
0.0
 10
238.2290866354
 20
117.884957024
 30
0.0
 10
237.5779227031
 20
117.6679023799
 30
0.0
  0
SPLINE
  5
4CA
100
AcDbEntity
  8
KONSTRUKTIONSELEMENTE
100
AcDbSpline
 62
7
  6
CONTINUOUS
 70
0
 71
3
 72
9
 73
5
 74
0
 42
0.0000001
 43
0.0000001
 44
0.0000000001
 40
0.0
 40
0.0
 40
0.0
 40
0.0
 40
0.5014159897
 40
1.0
 40
1.0
 40
1.0
 40
1.0
 10
261.5779227007
 20
117.6679023799
 30
0.0
 10
260.926758394
 20
117.8849571488
 30
0.0
 10
259.6116089288
 20
118.2708264239
 30
0.0
 10
258.263293145
 20
118.5258383864
 30
0.0
 10
257.5861805298
 20
118.6115089034
 30
0.0
  0
SPLINE
  5
4CB
100
AcDbEntity
  8
BEZUGSACHSEN
100
AcDbSpline
 62
7
  6
CONTINUOUS
 70
0
 71
3
 72
15
 73
11
 74
0
 42
0.0000001
 43
0.0000001
 44
0.0000000001
 40
0.0
 40
0.0
 40
0.0
 40
0.0
 40
0.12678678
 40
0.2523062995
 40
0.3765643151
 40
0.5000000768
 40
0.6234358136
 40
0.7476937433
 40
0.8732131774
 40
1.0
 40
1.0
 40
1.0
 40
1.0
 10
261.5779227007
 20
107.5961056112
 30
0.0
 10
261.1130915634
 20
107.3277352289
 30
0.0
 10
260.16742962
 20
106.8278638474
 30
0.0
 10
258.6866915034
 20
106.2279541838
 30
0.0
 10
257.1508345078
 20
105.832856047
 30
0.0
 10
255.5779218153
 20
105.6935178098
 30
0.0
 10
254.0050093878
 20
105.8328557313
 30
0.0
 10
252.4691534608
 20
106.2279546457
 30
0.0
 10
250.9884157299
 20
106.8278637115
 30
0.0
 10
250.0427539952
 20
107.3277351389
 30
0.0
 10
249.5779227019
 20
107.5961056112
 30
0.0
  0
SPLINE
  5
4CC
100
AcDbEntity
  8
KONSTRUKTIONSELEMENTE
100
AcDbSpline
 62
7
  6
CONTINUOUS
 70
0
 71
3
 72
10
 73
6
 74
0
 42
0.0000001
 43
0.0000001
 44
0.0000000001
 40
0.0
 40
0.0
 40
0.0
 40
0.0
 40
0.2489289318
 40
0.4984050404
 40
1.0
 40
1.0
 40
1.0
 40
1.0
 10
255.5779225632
 20
118.739699156
 30
0.0
 10
255.0702279516
 20
118.7396991473
 30
0.0
 10
254.0530117158
 20
118.689556531
 30
0.0
 10
252.0321859083
 20
118.3979196136
 30
0.0
 10
250.5484362379
 20
117.9914068919
 30
0.0
 10
249.5779227019
 20
117.6679023799
 30
0.0
  0
SPLINE
  5
4CD
100
AcDbEntity
  8
KONSTRUKTIONSELEMENTE
100
AcDbSpline
 62
7
  6
CONTINUOUS
 70
0
 71
3
 72
10
 73
6
 74
0
 42
0.0000001
 43
0.0000001
 44
0.0000000001
 40
0.0
 40
0.0
 40
0.0
 40
0.0
 40
0.5015950115
 40
0.7510711018
 40
1.0
 40
1.0
 40
1.0
 40
1.0
 10
249.5779227019
 20
117.6679023799
 30
0.0
 10
248.6074090267
 20
117.9914069383
 30
0.0
 10
247.1236592252
 20
118.3979196837
 30
0.0
 10
245.1028333297
 20
118.689556564
 30
0.0
 10
244.0856171585
 20
118.7396991546
 30
0.0
 10
243.5779225952
 20
118.7396991546
 30
0.0
  0
SPLINE
  5
4CE
100
AcDbEntity
  8
BEZUGSACHSEN
100
AcDbSpline
 62
7
  6
CONTINUOUS
 70
0
 71
3
 72
15
 73
11
 74
0
 42
0.0000001
 43
0.0000001
 44
0.0000000001
 40
0.0
 40
0.0
 40
0.0
 40
0.0
 40
0.12678678
 40
0.2523062995
 40
0.3765643151
 40
0.5000000768
 40
0.6234358136
 40
0.7476937433
 40
0.8732131774
 40
1.0
 40
1.0
 40
1.0
 40
1.0
 10
249.5779227019
 20
107.5961056112
 30
0.0
 10
249.1130915646
 20
107.3277352289
 30
0.0
 10
248.1674296212
 20
106.8278638474
 30
0.0
 10
246.6866915046
 20
106.2279541838
 30
0.0
 10
245.150834509
 20
105.832856047
 30
0.0
 10
243.5779218165
 20
105.6935178098
 30
0.0
 10
242.005009389
 20
105.8328557313
 30
0.0
 10
240.469153462
 20
106.2279546457
 30
0.0
 10
238.9884157311
 20
106.8278637115
 30
0.0
 10
238.0427539964
 20
107.3277351389
 30
0.0
 10
237.5779227031
 20
107.5961056112
 30
0.0
  0
LINE
  5
4CF
100
AcDbEntity
  8
0
100
AcDbLine
 62
7
  6
CONTINUOUS
 10
230.2359280181
 20
219.6843152954
 11
230.2337701077
 21
219.7023138437
  0
LINE
  5
4D0
100
AcDbEntity
  8
0
100
AcDbLine
 62
7
  6
CONTINUOUS
 10
230.2337701077
 20
219.7023138437
 11
230.2333895064
 21
219.7056565944
  0
LINE
  5
4D1
100
AcDbEntity
  8
0
100
AcDbLine
 62
7
  6
CONTINUOUS
 10
229.8139558287
 20
224.0460822348
 11
229.8175681411
 21
224.0271891675
  0
LINE
  5
4D2
100
AcDbEntity
  8
0
100
AcDbLine
 62
7
  6
CONTINUOUS
 10
229.8175681411
 20
224.0271891675
 11
230.0093887945
 21
223.0248054031
  0
LINE
  5
4D3
100
AcDbEntity
  8
0
100
AcDbLine
 62
7
  6
CONTINUOUS
 10
229.8682465657
 20
223.0248054031
 11
229.8840779621
 21
222.9396105183
  0
LINE
  5
4D4
100
AcDbEntity
  8
0
100
AcDbLine
 62
7
  6
CONTINUOUS
 10
229.8840779621
 20
222.9396105183
 11
229.9631588993
 21
222.5141671661
  0
LINE
  5
4D5
100
AcDbEntity
  8
0
100
AcDbLine
 62
7
  6
CONTINUOUS
 10
230.1072369134
 20
222.5141671661
 11
230.1110977699
 21
222.4940282684
  0
SPLINE
  5
4D6
100
AcDbEntity
  8
0
100
AcDbSpline
 62
7
  6
CONTINUOUS
 70
0
 71
3
 72
8
 73
4
 74
0
 42
0.0000001
 43
0.0000001
 44
0.0000000001
 40
0.0
 40
0.0
 40
0.0
 40
0.0
 40
1.0
 40
1.0
 40
1.0
 40
1.0
 10
230.1110977699
 20
222.4940282684
 30
0.0
 10
230.2729864703
 20
221.6496042712
 30
0.0
 10
230.4352366191
 20
220.8052494612
 30
0.0
 10
230.5979070726
 20
219.9609757129
 30
0.0
  0
SPLINE
  5
4D7
100
AcDbEntity
  8
0
100
AcDbSpline
 62
7
  6
CONTINUOUS
 70
0
 71
3
 72
9
 73
5
 74
0
 42
0.0000001
 43
0.0000001
 44
0.0000000001
 40
0.0
 40
0.0
 40
0.0
 40
0.0
 40
0.2421423146
 40
1.0
 40
1.0
 40
1.0
 40
1.0
 10
230.9772843153
 20
219.0673587199
 30
0.0
 10
230.9939611624
 20
219.0565580968
 30
0.0
 10
231.0631773663
 20
219.0124859852
 30
0.0
 10
231.1337094362
 20
218.9704909896
 30
0.0
 10
231.1877363196
 20
218.9396991495
 30
0.0
  0
LINE
  5
4D8
100
AcDbEntity
  8
0
100
AcDbLine
 62
7
  6
CONTINUOUS
 10
229.8098859038
 20
222.0883939967
 11
229.8059414065
 21
222.1097623588
  0
LINE
  5
4D9
100
AcDbEntity
  8
0
100
AcDbLine
 62
7
  6
CONTINUOUS
 10
229.8059414065
 20
222.1097623588
 11
229.8049694906
 21
222.1152310508
  0
LINE
  5
4DA
100
AcDbEntity
  8
0
100
AcDbLine
 62
7
  6
CONTINUOUS
 10
229.9183852017
 20
221.7482098106
 11
229.9322858477
 21
221.6841181953
  0
LINE
  5
4DB
100
AcDbEntity
  8
0
100
AcDbLine
 62
7
  6
CONTINUOUS
 10
230.1259052613
 20
220.7269331578
 11
230.1855150844
 21
220.3439544801
  0
LINE
  5
4DC
100
AcDbEntity
  8
0
100
AcDbLine
 62
7
  6
CONTINUOUS
 10
230.1969443776
 20
219.9609757129
 11
230.1832123999
 21
220.0458040363
  0
LINE
  5
4DD
100
AcDbEntity
  8
0
100
AcDbLine
 62
7
  6
CONTINUOUS
 10
230.1832123999
 20
220.0458040363
 11
230.1695170145
 21
220.1307437096
  0
LINE
  5
4DE
100
AcDbEntity
  8
0
100
AcDbLine
 62
7
  6
CONTINUOUS
 10
230.1695170145
 20
220.1307437096
 11
230.1558578419
 21
220.215794741
  0
LINE
  5
4DF
100
AcDbEntity
  8
0
100
AcDbLine
 62
7
  6
CONTINUOUS
 10
230.1558578419
 20
220.215794741
 11
230.1286467641
 21
220.38623001
  0
LINE
  5
4E0
100
AcDbEntity
  8
0
100
AcDbLine
 62
7
  6
CONTINUOUS
 10
230.1286467641
 20
220.38623001
 11
230.1150941357
 21
220.4716140393
  0
LINE
  5
4E1
100
AcDbEntity
  8
0
100
AcDbLine
 62
7
  6
CONTINUOUS
 10
229.7122186771
 20
222.7715932794
 11
229.4430698658
 21
224.2893757828
  0
LINE
  5
4E2
100
AcDbEntity
  8
0
100
AcDbLine
 62
7
  6
CONTINUOUS
 10
229.8405940336
 20
221.9391622347
 11
229.8278769209
 21
222.0035289291
  0
LINE
  5
4E3
100
AcDbEntity
  8
0
100
AcDbLine
 62
7
  6
CONTINUOUS
 10
230.5750879662
 20
218.8697004327
 11
230.5575619987
 21
218.9396812031
  0
LINE
  5
4E4
100
AcDbEntity
  8
0
100
AcDbLine
 62
7
  6
CONTINUOUS
 10
269.2096982639
 20
221.6205502152
 11
269.1956013049
 21
221.5562488889
  0
LINE
  5
4E5
100
AcDbEntity
  8
0
100
AcDbLine
 62
7
  6
CONTINUOUS
 10
269.0299401425
 20
220.7269331578
 11
268.9902341328
 21
220.4716140378
  0
LINE
  5
4E6
100
AcDbEntity
  8
0
100
AcDbLine
 62
7
  6
CONTINUOUS
 10
268.9589010261
 20
219.9609757129
 11
268.9726330039
 21
220.0458040363
  0
LINE
  5
4E7
100
AcDbEntity
  8
0
100
AcDbLine
 62
7
  6
CONTINUOUS
 10
269.3526904911
 20
222.2588480476
 11
269.7149078498
 21
224.3014013533
  0
LINE
  5
4E8
100
AcDbEntity
  8
0
100
AcDbLine
 62
7
  6
CONTINUOUS
 10
269.2486083786
 20
221.6205502514
 11
269.2623440591
 21
221.6838429834
  0
LINE
  5
4E9
100
AcDbEntity
  8
0
100
AcDbLine
 62
7
  6
CONTINUOUS
 10
268.7503388057
 20
219.5610083025
 11
268.7544088395
 21
219.5779970352
  0
LINE
  5
4EA
100
AcDbEntity
  8
0
100
AcDbLine
 62
7
  6
CONTINUOUS
 10
269.231180517
 20
223.8923735107
 11
269.4346970773
 21
224.9396991495
  0
SPLINE
  5
4EB
100
AcDbEntity
  8
0
100
AcDbSpline
 62
7
  6
CONTINUOUS
 70
0
 71
3
 72
8
 73
4
 74
0
 42
0.0000001
 43
0.0000001
 44
0.0000000001
 40
0.0
 40
0.0
 40
0.0
 40
0.0
 40
1.0
 40
1.0
 40
1.0
 40
1.0
 10
230.667763062
 20
220.2162949208
 30
0.0
 10
230.5167849292
 20
220.9821684595
 30
0.0
 10
230.3662519883
 20
221.7481298609
 30
0.0
 10
230.216106989
 20
222.5141671661
 30
0.0
  0
LINE
  5
4EC
100
AcDbEntity
  8
0
100
AcDbLine
 62
7
  6
CONTINUOUS
 10
230.5086645667
 20
222.5141671661
 11
230.4028985271
 21
223.0248054031
  0
LINE
  5
4ED
100
AcDbEntity
  8
0
100
AcDbLine
 62
7
  6
CONTINUOUS
 10
230.1160799303
 20
223.0248054031
 11
229.9163699357
 21
224.0460822348
  0
LINE
  5
4EE
100
AcDbEntity
  8
0
100
AcDbLine
 62
7
  6
CONTINUOUS
 10
268.4406679089
 20
224.0460822348
 11
268.2285977423
 21
223.0248054031
  0
SPLINE
  5
4EF
100
AcDbEntity
  8
BEZUGSACHSEN
100
AcDbSpline
 62
7
  6
CONTINUOUS
 70
0
 71
3
 72
22
 73
18
 74
0
 42
0.0000001
 43
0.0000001
 44
0.0000000001
 40
0.0
 40
0.0
 40
0.0
 40
0.0
 40
0.1684312951
 40
0.327313439
 40
0.4008885672
 40
0.4697847385
 40
0.5338021554
 40
0.5930652262
 40
0.6480090922
 40
0.6993265634
 40
0.7478853064
 40
0.7946403235
 40
0.8406093712
 40
0.8870580771
 40
0.9364780412
 40
0.9646487668
 40
1.0
 40
1.0
 40
1.0
 40
1.0
 10
249.5779227019
 20
223.8416388794
 30
0.0
 10
250.797781501
 20
223.8416388794
 30
0.0
 10
253.1688708582
 20
223.7661798269
 30
0.0
 10
256.0611886456
 20
223.4741122701
 30
0.0
 10
258.2118043635
 20
223.096415657
 30
0.0
 10
259.6680366522
 20
222.7514670311
 30
0.0
 10
260.9974970768
 20
222.334728338
 30
0.0
 10
262.1932482245
 20
221.8436457469
 30
0.0
 10
263.2524208225
 20
221.2770908544
 30
0.0
 10
264.1754326523
 20
220.6355235774
 30
0.0
 10
264.9653559388
 20
219.921123203
 30
0.0
 10
265.6270818641
 20
219.1365068018
 30
0.0
 10
266.1663420625
 20
218.2810073274
 30
0.0
 10
266.587523517
 20
217.3405081687
 30
0.0
 10
266.8271859537
 20
216.4695811148
 30
0.0
 10
266.9295149717
 20
215.6571216428
 30
0.0
 10
266.9217512904
 20
215.1931792761
 30
0.0
 10
266.8857050217
 20
214.9396991495
 30
0.0
  0
LINE
  5
4F0
100
AcDbEntity
  8
0
100
AcDbLine
 62
7
  6
CONTINUOUS
 10
268.3979027095
 20
223.0248043172
 11
268.3912949812
 21
222.9919979184
  0
LINE
  5
4F1
100
AcDbEntity
  8
0
100
AcDbLine
 62
7
  6
CONTINUOUS
 10
231.1877363196
 20
218.9396991495
 11
231.0817030351
 21
219.4503374312
  0
LINE
  5
4F2
100
AcDbEntity
  8
0
100
AcDbLine
 62
7
  6
CONTINUOUS
 10
267.999042534
 20
218.9396777165
 11
267.9800167546
 21
218.8691465228
  0
SPLINE
  5
4F3
100
AcDbEntity
  8
0
100
AcDbSpline
 62
7
  6
CONTINUOUS
 70
0
 71
3
 72
8
 73
4
 74
0
 42
0.0000001
 43
0.0000001
 44
0.0000000001
 40
0.0
 40
0.0
 40
0.0
 40
0.0
 40
1.0
 40
1.0
 40
1.0
 40
1.0
 10
230.2948316042
 20
219.9609757129
 30
0.0
 10
230.2639370714
 20
220.1737128242
 30
0.0
 10
230.2332489234
 20
220.3864799893
 30
0.0
 10
230.202745964
 20
220.5992735986
 30
0.0
  0
LINE
  5
4F4
100
AcDbEntity
  8
0
100
AcDbLine
 62
7
  6
CONTINUOUS
 10
230.202745964
 20
220.5992735986
 11
230.109978033
 21
221.1099118356
  0
LINE
  5
4F5
100
AcDbEntity
  8
0
100
AcDbLine
 62
7
  6
CONTINUOUS
 10
229.9718161091
 20
221.7482098106
 11
229.9513809266
 21
221.8327624779
  0
SPLINE
  5
4F6
100
AcDbEntity
  8
BEZUGSACHSEN
100
AcDbSpline
 62
7
  6
CONTINUOUS
 70
0
 71
3
 72
22
 73
18
 74
0
 42
0.0000001
 43
0.0000001
 44
0.0000000001
 40
0.0
 40
0.0
 40
0.0
 40
0.0
 40
0.1684312951
 40
0.327313439
 40
0.4008885672
 40
0.4697847385
 40
0.5338021554
 40
0.5930652262
 40
0.6480090922
 40
0.6993265634
 40
0.7478853064
 40
0.7946403235
 40
0.8406093712
 40
0.8870580771
 40
0.9364780412
 40
0.9646487668
 40
1.0
 40
1.0
 40
1.0
 40
1.0
 10
249.5779227019
 20
223.8416388794
 30
0.0
 10
248.3580639028
 20
223.8416388794
 30
0.0
 10
245.9869745455
 20
223.7661798269
 30
0.0
 10
243.0946567582
 20
223.4741122701
 30
0.0
 10
240.9440410402
 20
223.096415657
 30
0.0
 10
239.4878087516
 20
222.7514670311
 30
0.0
 10
238.158348327
 20
222.334728338
 30
0.0
 10
236.9625971792
 20
221.8436457469
 30
0.0
 10
235.9034245813
 20
221.2770908544
 30
0.0
 10
234.9804127515
 20
220.6355235774
 30
0.0
 10
234.190489465
 20
219.921123203
 30
0.0
 10
233.5287635397
 20
219.1365068018
 30
0.0
 10
232.9895033413
 20
218.2810073274
 30
0.0
 10
232.5683218868
 20
217.3405081687
 30
0.0
 10
232.32865945
 20
216.4695811148
 30
0.0
 10
232.226330432
 20
215.6571216428
 30
0.0
 10
232.2340941134
 20
215.1931792761
 30
0.0
 10
232.270140382
 20
214.9396991495
 30
0.0
  0
LINE
  5
4F7
100
AcDbEntity
  8
0
100
AcDbLine
 62
7
  6
CONTINUOUS
 10
229.5108890967
 20
224.3014013533
 11
229.3957445301
 21
224.9396991495
  0
LINE
  5
4F8
100
AcDbEntity
  8
0
100
AcDbLine
 62
7
  6
CONTINUOUS
 10
230.8852619503
 20
219.1305279764
 11
230.8814050366
 21
219.1803528989
  0
LINE
  5
4F9
100
AcDbEntity
  8
0
100
AcDbLine
 62
7
  6
CONTINUOUS
 10
230.020407838
 20
224.3014013533
 11
229.9051794132
 21
224.9396991495
  0
SPLINE
  5
4FA
100
AcDbEntity
  8
0
100
AcDbSpline
 62
7
  6
CONTINUOUS
 70
0
 71
3
 72
8
 73
4
 74
0
 42
0.0000001
 43
0.0000001
 44
0.0000000001
 40
0.0
 40
0.0
 40
0.0
 40
0.0
 40
1.0
 40
1.0
 40
1.0
 40
1.0
 10
231.187702426
 20
220.2162949208
 30
0.0
 10
231.036086352
 20
220.9821594845
 30
0.0
 10
230.8849614596
 20
221.7481214088
 30
0.0
 10
230.7342635451
 20
222.5141671661
 30
0.0
  0
LINE
  5
4FB
100
AcDbEntity
  8
0
100
AcDbLine
 62
7
  6
CONTINUOUS
 10
231.0335978364
 20
222.5141671661
 11
230.9272477764
 21
223.0248054031
  0
LINE
  5
4FC
100
AcDbEntity
  8
0
100
AcDbLine
 62
7
  6
CONTINUOUS
 10
230.6338749856
 20
223.0248054031
 11
230.6252929144
 21
223.068489535
  0
LINE
  5
4FD
100
AcDbEntity
  8
0
100
AcDbLine
 62
7
  6
CONTINUOUS
 10
230.6252929144
 20
223.068489535
 11
230.4334765203
 21
224.0460822348
  0
LINE
  5
4FE
100
AcDbEntity
  8
0
100
AcDbLine
 62
7
  6
CONTINUOUS
 10
231.7156088611
 20
218.9396991495
 11
231.60889293
 21
219.4503374312
  0
LINE
  5
4FF
100
AcDbEntity
  8
0
100
AcDbLine
 62
7
  6
CONTINUOUS
 10
268.9260332187
 20
219.9609757129
 11
268.9143616371
 21
219.8754427752
  0
LINE
  5
500
100
AcDbEntity
  8
0
100
AcDbLine
 62
7
  6
CONTINUOUS
 10
269.8001021121
 20
224.9396991495
 11
269.2071140007
 21
221.6205502514
  0
LINE
  5
501
100
AcDbEntity
  8
0
100
AcDbLine
 62
7
  6
CONTINUOUS
 10
268.3106978642
 20
218.1991657938
 11
268.3035572138
 21
218.1737417046
  0
LINE
  5
502
100
AcDbEntity
  8
0
100
AcDbLine
 62
7
  6
CONTINUOUS
 10
268.9639057552
 20
224.0460822348
 11
268.7529469889
 21
223.0248054031
  0
ENDSEC
  0
SECTION
  2
OBJECTS
  0
DICTIONARY
  5
C
100
AcDbDictionary
280
0
281
1
  3
ACAD_GROUP
350
D
  3
ACAD_MLINESTYLE
350
17
  3
ACAD_LAYOUT
350
1A
  3
ACAD_PLOTSETTINGS
350
19
  3
ACAD_PLOTSTYLENAME
350
E
  0
DICTIONARY
  5
D
102
{ACAD_REACTORS
330
C
102
}
100
AcDbDictionary
280
0
281
1
  0
ACDBDICTIONARYWDFLT
  5
E
102
{ACAD_REACTORS
330
C
102
}
100
AcDbDictionary
281
1
  3
Normal
350
F
100
AcDbDictionaryWithDefault
340
F
  0
DICTIONARY
  5
17
102
{ACAD_REACTORS
330
C
102
}
100
AcDbDictionary
280
0
281
1
  3
Standard
350
18
  0
DICTIONARY
  5
19
102
{ACAD_REACTORS
330
C
102
}
100
AcDbDictionary
281
1
  0
DICTIONARY
  5
1A
102
{ACAD_REACTORS
330
C
102
}
100
AcDbDictionary
281
1
  3
Model
350
503
  3
Layout1
350
504
  0
ACDBPLACEHOLDER
  5
F
102
{ACAD_REACTORS
330
E
102
}
  0
MLINESTYLE
  5
18
102
{ACAD_REACTORS
330
17
102
}
100
AcDbMlineStyle
  2
STANDARD
 70
0
  3

 62
256
 51
90.0
 52
90.0
 71
2
 49
0.5
 62
256
  6
BYLAYER
 49
-0.5
 62
256
  6
BYLAYER
  0
LAYOUT
  5
503
102
{ACAD_REACTORS
330
1A
102
}
100
AcDbPlotSettings
  1

  2
none_device
  4
ISO_A3_(420.00_x_297.00_MM)
  6

 40
0.0
 41
0.0
 42
0.0
 43
0.0
 44
420.0
 45
297.0
 46
0.0
 47
0.0
 48
0.0
 49
0.0
140
0.0
141
0.0
142
1.0
143
1.0
 70
1024
 72
1
 73
0
 74
0
  7

 75
0
147
1.0
148
0.0
149
0.0
100
AcDbLayout
  1
Model
 70
0
 71
0
 10
0.0
 20
0.0
 11
420.0
 21
297.0
 12
0.0
 22
0.0
 32
0.0
 14
0.0
 24
0.0
 34
0.0
 15
0.0
 25
0.0
 35
0.0
146
0.0
 13
0.0
 23
0.0
 33
0.0
 16
1.0
 26
0.0
 36
0.0
 17
0.0
 27
1.0
 37
0.0
 76
0
330
20E
345
0
346
0
  0
LAYOUT
  5
504
102
{ACAD_REACTORS
330
1A
102
}
100
AcDbPlotSettings
  1

  2
none_device
  4
ISO_A3_(420.00_x_297.00_MM)
  6

 40
0.0
 41
0.0
 42
0.0
 43
0.0
 44
420.0
 45
297.0
 46
0.0
 47
0.0
 48
0.0
 49
0.0
140
0.0
141
0.0
142
1.0
143
1.0
 70
0
 72
1
 73
0
 74
0
  7

 75
0
147
1.0
148
0.0
149
0.0
100
AcDbLayout
  1
Layout1
 70
0
 71
1
 10
0.0
 20
0.0
 11
420.0
 21
297.0
 12
0.0
 22
0.0
 32
0.0
 14
0.0
 24
0.0
 34
0.0
 15
0.0
 25
0.0
 35
0.0
146
0.0
 13
0.0
 23
0.0
 33
0.0
 16
1.0
 26
0.0
 36
0.0
 17
0.0
 27
1.0
 37
0.0
 76
0
330
20F
345
0
346
0
  0
ENDSEC
  0
EOF
