999
DXF file: VRS-F_0_75t_M12_MAX_8600271_M33721-P-2.dxf
999
Pro/ENGINEER 2011490 by Parametric Technology Corporation
  0
SECTION
  2
HEADER
  9
$ACADVER
  1
AC1015
  9
$DWGCODEPAGE
  3
ANSI_1252
  9
$EXTMAX
 10
420.0
 20
297.0
 30
0.0
  9
$EXTMIN
 10
0.0
 20
0.0
 30
0.0
  9
$LIMMIN
 10
0.0
 20
0.0
  9
$LIMMAX
 10
420.0
 20
297.0
  9
$VIEWCTR
 10
210.0
 20
148.5
  9
$VIEWSIZE
 40
297.0
  9
$CLAYER
  8
0
  9
$LTSCALE
 40
23.1
  9
$CELTYPE
  6
BYLAYER
  9
$DIMSCALE
 40
1.0
  9
$DIMASZ
 40
3.5
  9
$DIMEXO
 40
2.625
  9
$DIMDLI
 40
15.96
  9
$DIMEXE
 40
7.56
  9
$DIMCEN
 40
3.78
  9
$DIMLFAC
 40
1.0
  9
$DIMBLK
  1
_FILLED
  9
$DIMTXT
 40
3.5
  9
$DIMTOL
 70
1
  9
$DIMLIM
 70
0
  9
$DIMTFAC
 40
1.0
  9
$DIMTP
 40
0.005
  9
$DIMTM
 40
0.005
  9
$PDMODE
 70
3
  9
$PDSIZE
 40
0.3125
  9
$HANDSEED
  5
599
  9
$TILEMODE
 70
1
  9
$MEASUREMENT
 70
1
  9
$INSUNITS
 70
4
  0
ENDSEC
  0
SECTION
  2
CLASSES
  0
CLASS
  1
ACDBDICTIONARYWDFLT
  2
AcDbDictionaryWithDefault
  3
AutoCAD 2000
 90
0
280
0
281
0
  0
CLASS
  1
ACDBPLACEHOLDER
  2
AcDbPlaceHolder
  3
AutoCAD 2000
 90
0
280
0
281
0
  0
CLASS
  1
LAYOUT
  2
AcDbLayout
  3
AutoCAD 2000
 90
0
280
0
281
0
  0
ENDSEC
  0
SECTION
  2
TABLES
  0
TABLE
  2
VPORT
  5
8
100
AcDbSymbolTable
 70
2
  0
VPORT
  5
1F4
100
AcDbSymbolTableRecord
100
AcDbViewportTableRecord
  2
*ACTIVE
 70
0
 10
0.0
 20
0.0
 11
1.0
 21
1.0
 12
210.0
 22
148.5
 13
0.0
 23
0.0
 14
1.0
 24
1.0
 15
0.0
 25
0.0
 16
0.0
 26
0.0
 36
1.0
 17
0.0
 27
0.0
 37
0.0
 40
297.0
 41
1.4141414141
 42
50.0
 43
0.0
 44
0.0
 50
0.0
 51
0.0
 71
0
 72
100
 73
1
 74
1
 75
0
 76
0
 77
0
 78
0
  0
ENDTAB
  0
TABLE
  2
LTYPE
  5
5
100
AcDbSymbolTable
 70
6
  0
LTYPE
  5
14
100
AcDbSymbolTableRecord
100
AcDbLinetypeTableRecord
  2
BYBLOCK
 70
0
  3

 72
65
 73
0
 40
0.0
  0
LTYPE
  5
15
100
AcDbSymbolTableRecord
100
AcDbLinetypeTableRecord
  2
BYLAYER
 70
0
  3

 72
65
 73
0
 40
0.0
  0
LTYPE
  5
16
100
AcDbSymbolTableRecord
100
AcDbLinetypeTableRecord
  2
CONTINUOUS
 70
64
  3
Solid line
 72
65
 73
0
 40
0.0
  0
LTYPE
  5
1F5
100
AcDbSymbolTableRecord
100
AcDbLinetypeTableRecord
  2
CENTER
 70
64
  3
____ _ ____ _ ____ _ ____ _ ____ _ ____ _ ____
 72
65
 73
4
 40
0.6
 49
0.375
 74
0
 49
-0.075
 74
0
 49
0.075
 74
0
 49
-0.075
 74
0
  0
LTYPE
  5
1F6
100
AcDbSymbolTableRecord
100
AcDbLinetypeTableRecord
  2
HIDDEN
 70
64
  3
- - - - - - - - - - - - - - - - - - - -
 72
65
 73
2
 40
0.2
 49
0.1
 74
0
 49
-0.1
 74
0
  0
LTYPE
  5
1F7
100
AcDbSymbolTableRecord
100
AcDbLinetypeTableRecord
  2
PHANTOM
 70
64
  3
_____ _ _ _____ _ _ _____ _ _ _____
 72
65
 73
6
 40
0.8
 49
0.45
 74
0
 49
-0.05
 74
0
 49
0.1
 74
0
 49
-0.05
 74
0
 49
0.1
 74
0
 49
-0.05
 74
0
  0
LTYPE
  5
1F8
100
AcDbSymbolTableRecord
100
AcDbLinetypeTableRecord
  2
DOT
 70
64
  3
. . . . . . . . . . . . . . . . . . . .
 72
65
 73
2
 40
0.2
 49
0.1
 74
0
 49
-0.1
 74
0
  0
LTYPE
  5
1F9
100
AcDbSymbolTableRecord
100
AcDbLinetypeTableRecord
  2
DASHED
 70
64
  3
- - - - - - - - - - - - - - - - - - - -
 72
65
 73
2
 40
0.2
 49
0.1
 74
0
 49
-0.1
 74
0
  0
ENDTAB
  0
TABLE
  2
LAYER
  5
2
100
AcDbSymbolTable
 70
36
  0
LAYER
  5
10
100
AcDbSymbolTableRecord
100
AcDbLayerTableRecord
  2
0
 70
0
 62
7
  6
CONTINUOUS
370
-3
390
F
  0
LAYER
  5
1FA
100
AcDbSymbolTableRecord
100
AcDbLayerTableRecord
  2
DEFAULT_1
 70
0
 62
7
  6
CENTER
370
-3
390
F
  0
LAYER
  5
1FB
100
AcDbSymbolTableRecord
100
AcDbLayerTableRecord
  2
DEFAULT_2
 70
0
 62
8
  6
HIDDEN
370
-3
390
F
  0
LAYER
  5
1FC
100
AcDbSymbolTableRecord
100
AcDbLayerTableRecord
  2
DEFAULT_3
 70
0
 62
7
  6
PHANTOM
370
-3
390
F
  0
LAYER
  5
1FD
100
AcDbSymbolTableRecord
100
AcDbLayerTableRecord
  2
BEZUGSACHSEN
 70
0
 62
7
  6
CONTINUOUS
370
-3
390
F
  0
LAYER
  5
1FE
100
AcDbSymbolTableRecord
100
AcDbLayerTableRecord
  2
BEZUGSEBENEN
 70
0
 62
7
  6
CONTINUOUS
370
-3
390
F
  0
LAYER
  5
1FF
100
AcDbSymbolTableRecord
100
AcDbLayerTableRecord
  2
BG_STARTBEZUEGE
 70
0
 62
7
  6
CONTINUOUS
370
-3
390
F
  0
LAYER
  5
200
100
AcDbSymbolTableRecord
100
AcDbLayerTableRecord
  2
FASEN
 70
0
 62
7
  6
CONTINUOUS
370
-3
390
F
  0
LAYER
  5
201
100
AcDbSymbolTableRecord
100
AcDbLayerTableRecord
  2
FLAECHEN
 70
0
 62
7
  6
CONTINUOUS
370
-3
390
F
  0
LAYER
  5
202
100
AcDbSymbolTableRecord
100
AcDbLayerTableRecord
  2
GEWINDE
 70
0
 62
7
  6
CONTINUOUS
370
-3
390
F
  0
LAYER
  5
203
100
AcDbSymbolTableRecord
100
AcDbLayerTableRecord
  2
HILFEN
 70
0
 62
7
  6
CONTINUOUS
370
-3
390
F
  0
LAYER
  5
204
100
AcDbSymbolTableRecord
100
AcDbLayerTableRecord
  2
KONSTRUKTIONSELEMENTE
 70
0
 62
7
  6
CONTINUOUS
370
-3
390
F
  0
LAYER
  5
205
100
AcDbSymbolTableRecord
100
AcDbLayerTableRecord
  2
KURVEN
 70
0
 62
7
  6
CONTINUOUS
370
-3
390
F
  0
LAYER
  5
206
100
AcDbSymbolTableRecord
100
AcDbLayerTableRecord
  2
NORM
 70
0
 62
7
  6
CONTINUOUS
370
-3
390
F
  0
LAYER
  5
207
100
AcDbSymbolTableRecord
100
AcDbLayerTableRecord
  2
PLATZIERUNG
 70
0
 62
7
  6
CONTINUOUS
370
-3
390
F
  0
LAYER
  5
208
100
AcDbSymbolTableRecord
100
AcDbLayerTableRecord
  2
RUNDUNGEN
 70
0
 62
7
  6
CONTINUOUS
370
-3
390
F
  0
LAYER
  5
209
100
AcDbSymbolTableRecord
100
AcDbLayerTableRecord
  2
TEIL_STARTBEZUEGE
 70
0
 62
7
  6
CONTINUOUS
370
-3
390
F
  0
LAYER
  5
20A
100
AcDbSymbolTableRecord
100
AcDbLayerTableRecord
  2
T_STARTBEZUEGE
 70
0
 62
7
  6
CONTINUOUS
370
-3
390
F
  0
LAYER
  5
20B
100
AcDbSymbolTableRecord
100
AcDbLayerTableRecord
  2
ZEICHNUNGSBEMASSUNGEN
 70
0
 62
7
  6
CONTINUOUS
370
-3
390
F
  0
ENDTAB
  0
TABLE
  2
STYLE
  5
3
100
AcDbSymbolTable
 70
1
  0
STYLE
  5
11
100
AcDbSymbolTableRecord
100
AcDbTextStyleTableRecord
  2
STANDARD
 70
0
 40
0.0
 41
0.7
 50
0.0
 71
0
 42
0.2
  3
txt
  4

  0
STYLE
  5
20C
100
AcDbSymbolTableRecord
100
AcDbTextStyleTableRecord
  2
TEXTSTYLE_1
 70
0
 40
0.0
 41
0.8
 50
0.0
 71
0
 42
0.2
  3
gdt
  4

  0
ENDTAB
  0
TABLE
  2
VIEW
  5
6
100
AcDbSymbolTable
 70
0
  0
ENDTAB
  0
TABLE
  2
UCS
  5
7
100
AcDbSymbolTable
 70
0
  0
ENDTAB
  0
TABLE
  2
APPID
  5
9
100
AcDbSymbolTable
 70
1
  0
APPID
  5
20D
100
AcDbSymbolTableRecord
100
AcDbRegAppTableRecord
  2
ACAD
 70
0
  0
ENDTAB
  0
TABLE
  2
BLOCK_RECORD
  5
1
100
AcDbSymbolTable
 70
0
  0
BLOCK_RECORD
  5
20E
100
AcDbSymbolTableRecord
100
AcDbBlockTableRecord
  2
*Model_Space
  0
BLOCK_RECORD
  5
20F
100
AcDbSymbolTableRecord
100
AcDbBlockTableRecord
  2
*Paper_Space
  0
ENDTAB
  0
TABLE
  2
DIMSTYLE
  5
A
100
AcDbSymbolTable
 70
1
100
AcDbDimStyleTable
 71
0
  0
DIMSTYLE
105
210
100
AcDbSymbolTableRecord
100
AcDbDimStyleTableRecord
  2
STANDARD
 70
0
  3

  4

 40
1.0
 41
3.5
 42
0.0625
 43
0.38
 44
0.18
 45
0.0
 46
0.0
 47
0.005
 48
0.005
140
3.5
141
0.09
142
0.0
143
25.4
144
1.0
145
0.0
146
1.0
147
0.09
 71
1.0
 72
0.0
 73
0
 74
0
 75
0
 76
0
 77
1
 78
8
170
0
171
2
172
0
173
0
174
0
175
0
176
0
177
0
178
5
270
2
271
3
272
3
273
2
274
2
275
0
280
0
281
0
282
0
283
1
284
8
285
0
286
0
287
3
288
0
340
11
  0
ENDTAB
  0
ENDSEC
  0
SECTION
  2
BLOCKS
  0
BLOCK
  5
20
100
AcDbEntity
  8
0
100
AcDbBlockBegin
  2
*Model_Space
 70
0
 10
0.0
 20
0.0
 30
0.0
  3
*Model_Space
  1

  0
ENDBLK
  5
21
100
AcDbEntity
  8
0
100
AcDbBlockEnd
  0
BLOCK
  5
1C
100
AcDbEntity
  8
0
100
AcDbBlockBegin
  2
*Paper_Space
 70
0
 10
0.0
 20
0.0
 30
0.0
  3
*Paper_Space
  1

  0
ENDBLK
  5
1D
100
AcDbEntity
  8
0
100
AcDbBlockEnd
  0
ENDSEC
  0
SECTION
  2
ENTITIES
  0
MTEXT
  5
211
100
AcDbEntity
  8
0
100
AcDbMText
 62
5
  6
CONTINUOUS
  7
STANDARD
 71
1
 72
1
 10
271.9604872504
 20
246.438361823
 30
0.0
 11
0.0
 21
1.0
 31
0.0
 44
0.9
  1
VRS 0,75t RUD
 40
3.0
 41
30.2142857143
  0
MTEXT
  5
212
100
AcDbEntity
  8
0
100
AcDbMText
 62
5
  6
CONTINUOUS
  7
STANDARD
 71
1
 72
1
 10
108.8588196974
 20
37.2254158521
 30
0.0
 11
1.0
 21
0.0
 31
0.0
 44
0.9
  1
VRS 0,75t RUD
 40
3.0
 41
30.2142857143
  0
LINE
  5
213
100
AcDbEntity
  8
0
100
AcDbLine
 62
7
  6
CONTINUOUS
 10
0.0
 20
0.0
 11
0.0
 21
297.0
  0
LINE
  5
214
100
AcDbEntity
  8
0
100
AcDbLine
 62
7
  6
CONTINUOUS
 10
0.0
 20
0.0
 11
420.0
 21
0.0
  0
LINE
  5
215
100
AcDbEntity
  8
0
100
AcDbLine
 62
7
  6
CONTINUOUS
 10
0.0
 20
297.0
 11
420.0
 21
297.0
  0
LINE
  5
216
100
AcDbEntity
  8
0
100
AcDbLine
 62
7
  6
CONTINUOUS
 10
420.0
 20
0.0
 11
420.0
 21
297.0
  0
LINE
  5
217
100
AcDbEntity
  8
KONSTRUKTIONSELEMENTE
100
AcDbLine
 62
7
  6
CONTINUOUS
 10
118.9570080594
 20
76.5676357615
 11
128.4569526093
 21
76.5676357615
  0
LINE
  5
218
100
AcDbEntity
  8
KONSTRUKTIONSELEMENTE
100
AcDbLine
 62
7
  6
CONTINUOUS
 10
117.7069803343
 20
77.8176357615
 11
129.7069803343
 21
77.8176357615
  0
LINE
  5
219
100
AcDbEntity
  8
BEZUGSACHSEN
100
AcDbLine
 62
7
  6
CONTINUOUS
 10
130.7069803343
 20
82.5676357615
 11
116.7069803344
 21
82.5676357615
  0
LINE
  5
21A
100
AcDbEntity
  8
BEZUGSACHSEN
100
AcDbLine
 62
7
  6
CONTINUOUS
 10
111.7069803343
 20
94.5676357615
 11
135.7069803343
 21
94.5676357615
  0
LINE
  5
21B
100
AcDbEntity
  8
BEZUGSACHSEN
100
AcDbLine
 62
7
  6
CONTINUOUS
 10
111.7069803343
 20
97.2676357615
 11
135.7069803343
 21
97.2676357615
  0
LINE
  5
21C
100
AcDbEntity
  8
KONSTRUKTIONSELEMENTE
100
AcDbLine
 62
7
  6
CONTINUOUS
 10
117.7069803343
 20
77.8176357615
 11
118.9569803343
 21
76.5676357615
  0
LINE
  5
21D
100
AcDbEntity
  8
KONSTRUKTIONSELEMENTE
100
AcDbLine
 62
7
  6
CONTINUOUS
 10
133.2069803343
 20
94.5676357615
 11
134.6766354489
 21
93.7191299855
  0
LINE
  5
21E
100
AcDbEntity
  8
BEZUGSACHSEN
100
AcDbLine
 62
7
  6
CONTINUOUS
 10
112.7373252197
 20
86.5372908762
 11
116.7069803344
 21
82.5676357615
  0
LINE
  5
21F
100
AcDbEntity
  8
RUNDUNGEN
100
AcDbLine
 62
7
  6
CONTINUOUS
 10
104.3456922829
 20
273.9979276656
 11
122.9416134696
 21
281.700610426
  0
LINE
  5
220
100
AcDbEntity
  8
0
100
AcDbLine
 62
7
  6
CONTINUOUS
 10
110.4275713964
 20
271.8642096463
 11
110.1614658886
 21
271.6883730786
  0
LINE
  5
221
100
AcDbEntity
  8
0
100
AcDbLine
 62
7
  6
CONTINUOUS
 10
108.5272218376
 20
269.9638600876
 11
108.2611165828
 21
269.7880237728
  0
LINE
  5
222
100
AcDbEntity
  8
0
100
AcDbLine
 62
7
  6
CONTINUOUS
 10
111.3744549283
 20
271.0057141248
 11
111.1083499264
 21
270.8298780629
  0
LINE
  5
223
100
AcDbEntity
  8
0
100
AcDbLine
 62
7
  6
CONTINUOUS
 10
111.3791567465
 20
270.5590712428
 11
111.6010677432
 21
270.6907132995
  0
LINE
  5
224
100
AcDbEntity
  8
0
100
AcDbLine
 62
7
  6
CONTINUOUS
 10
110.892080201
 20
270.1622636374
 11
111.1139917035
 21
270.2939061999
  0
LINE
  5
225
100
AcDbEntity
  8
0
100
AcDbLine
 62
7
  6
CONTINUOUS
 10
111.7026203323
 20
269.5285005386
 11
111.4807093356
 21
269.3968584819
  0
LINE
  5
226
100
AcDbEntity
  8
0
100
AcDbLine
 62
7
  6
CONTINUOUS
 10
121.4569803939
 20
274.4857208717
 11
121.7069803343
 21
274.613380431
  0
LINE
  5
227
100
AcDbEntity
  8
0
100
AcDbLine
 62
7
  6
CONTINUOUS
 10
124.0819802151
 20
273.0814655467
 11
124.3319803343
 21
273.2091251228
  0
LINE
  5
228
100
AcDbEntity
  8
0
100
AcDbLine
 62
7
  6
CONTINUOUS
 10
110.4764672197
 20
271.4617607696
 11
110.6541842112
 21
271.549208821
  0
LINE
  5
229
100
AcDbEntity
  8
0
100
AcDbLine
 62
7
  6
CONTINUOUS
 10
108.530983191
 20
269.6065456808
 11
108.7087001825
 21
269.6939937323
  0
LINE
  5
22A
100
AcDbEntity
  8
0
100
AcDbLine
 62
7
  6
CONTINUOUS
 10
110.8431848834
 20
270.56471302
 11
110.6654678919
 21
270.4772649685
  0
LINE
  5
22B
100
AcDbEntity
  8
0
100
AcDbLine
 62
7
  6
CONTINUOUS
 10
121.3944802747
 20
274.8048697698
 11
121.2069802747
 21
274.7410399902
  0
LINE
  5
22C
100
AcDbEntity
  8
0
100
AcDbLine
 62
7
  6
CONTINUOUS
 10
111.6415009008
 20
271.0922222173
 11
111.3744549283
 21
271.0057141248
  0
LINE
  5
22D
100
AcDbEntity
  8
0
100
AcDbLine
 62
7
  6
CONTINUOUS
 10
110.6250347343
 20
270.0757560507
 11
110.892080201
 21
270.1622636374
  0
LINE
  5
22E
100
AcDbEntity
  8
0
100
AcDbLine
 62
7
  6
CONTINUOUS
 10
110.1614658886
 20
271.6883730786
 11
109.9404953567
 21
271.4674025467
  0
LINE
  5
22F
100
AcDbEntity
  8
0
100
AcDbLine
 62
7
  6
CONTINUOUS
 10
108.2611165828
 20
269.7880237728
 11
107.200456411
 21
268.727363601
  0
LINE
  5
230
100
AcDbEntity
  8
0
100
AcDbLine
 62
7
  6
CONTINUOUS
 10
106.8469029783
 20
268.3738101683
 11
106.5817379353
 21
268.1086451253
  0
LINE
  5
231
100
AcDbEntity
  8
0
100
AcDbLine
 62
7
  6
CONTINUOUS
 10
105.3443011104
 20
266.8712083004
 11
105.0791360674
 21
266.6060432575
  0
LINE
  5
232
100
AcDbEntity
  8
0
100
AcDbLine
 62
7
  6
CONTINUOUS
 10
107.691293804
 20
268.7668562939
 11
108.530983191
 21
269.6065456808
  0
LINE
  5
233
100
AcDbEntity
  8
0
100
AcDbLine
 62
7
  6
CONTINUOUS
 10
110.2113021768
 20
271.1965957266
 11
110.4764672197
 21
271.4617607696
  0
LINE
  5
234
100
AcDbEntity
  8
0
100
AcDbLine
 62
7
  6
CONTINUOUS
 10
110.9673046127
 20
271.5012534624
 11
111.2324696557
 21
271.7664185054
  0
LINE
  5
235
100
AcDbEntity
  8
0
100
AcDbLine
 62
7
  6
CONTINUOUS
 10
111.1083499264
 20
270.8298780629
 11
110.8431848834
 21
270.56471302
  0
LINE
  5
236
100
AcDbEntity
  8
0
100
AcDbLine
 62
7
  6
CONTINUOUS
 10
109.2080003676
 20
268.9295285042
 11
108.3683109807
 21
268.0898391172
  0
LINE
  5
237
100
AcDbEntity
  8
0
100
AcDbLine
 62
7
  6
CONTINUOUS
 10
108.6391178008
 20
267.8190322971
 11
109.3904186715
 21
268.5703331679
  0
LINE
  5
238
100
AcDbEntity
  8
0
100
AcDbLine
 62
7
  6
CONTINUOUS
 10
111.1139917035
 20
270.2939061999
 11
111.3791567465
 21
270.5590712428
  0
LINE
  5
239
100
AcDbEntity
  8
0
100
AcDbLine
 62
7
  6
CONTINUOUS
 10
111.0331254514
 20
269.4908883011
 11
110.7679606614
 21
269.2257235111
  0
LINE
  5
23A
100
AcDbEntity
  8
0
100
AcDbLine
 62
7
  6
CONTINUOUS
 10
112.0561738915
 20
269.8820540978
 11
111.7026203323
 21
269.5285005386
  0
LINE
  5
23B
100
AcDbEntity
  8
0
100
AcDbLine
 62
7
  6
CONTINUOUS
 10
107.9075632133
 20
265.1918297162
 11
108.2611165828
 21
265.5453830857
  0
LINE
  5
23C
100
AcDbEntity
  8
0
100
AcDbLine
 62
7
  6
CONTINUOUS
 10
109.3217767546
 20
266.6060432575
 11
109.5869417975
 21
266.8712083004
  0
LINE
  5
23D
100
AcDbEntity
  8
0
100
AcDbLine
 62
7
  6
CONTINUOUS
 10
110.6917962274
 20
267.9760627303
 11
111.0011552756
 21
268.2854217785
  0
LINE
  5
23E
100
AcDbEntity
  8
0
100
AcDbLine
 62
7
  6
CONTINUOUS
 10
111.973427184
 20
269.2576936869
 11
112.3269807432
 21
269.6112472461
  0
LINE
  5
23F
100
AcDbEntity
  8
0
100
AcDbLine
 62
7
  6
CONTINUOUS
 10
124.2069804535
 20
273.5921038676
 11
124.0194804535
 21
273.4644442636
  0
LINE
  5
240
100
AcDbEntity
  8
0
100
AcDbLine
 62
7
  6
CONTINUOUS
 10
127.2069800959
 20
273.5921038676
 11
127.0194800959
 21
273.4644442636
  0
LINE
  5
241
100
AcDbEntity
  8
0
100
AcDbLine
 62
7
  6
CONTINUOUS
 10
111.7073216723
 20
269.0818571232
 11
111.973427184
 21
269.2576936869
  0
LINE
  5
242
100
AcDbEntity
  8
0
100
AcDbLine
 62
7
  6
CONTINUOUS
 10
127.0819805728
 20
273.0814655467
 11
127.3319803343
 21
273.2091251228
  0
LINE
  5
243
100
AcDbEntity
  8
BEZUGSACHSEN
100
AcDbLine
 62
7
  6
CONTINUOUS
 10
95.6821225779
 20
254.6129539146
 11
95.8223099696
 21
254.9513962171
  0
LINE
  5
244
100
AcDbEntity
  8
RUNDUNGEN
100
AcDbLine
 62
7
  6
CONTINUOUS
 10
95.8223099696
 20
254.9513962171
 11
103.2633000826
 21
272.9155354653
  0
LINE
  5
245
100
AcDbEntity
  8
0
100
AcDbLine
 62
7
  6
CONTINUOUS
 10
109.9404953567
 20
271.4674025467
 11
109.8088527942
 21
271.2454910442
  0
LINE
  5
246
100
AcDbEntity
  8
0
100
AcDbLine
 62
7
  6
CONTINUOUS
 10
112.1878159482
 20
270.1039650945
 11
112.0561738915
 21
269.8820540978
  0
LINE
  5
247
100
AcDbEntity
  8
0
100
AcDbLine
 62
7
  6
CONTINUOUS
 10
112.3269807432
 20
269.6112472461
 11
112.5028168012
 21
269.877352252
  0
LINE
  5
248
100
AcDbEntity
  8
0
100
AcDbLine
 62
7
  6
CONTINUOUS
 10
121.5194803343
 20
274.9325293291
 11
121.3944802747
 21
274.8048697698
  0
LINE
  5
249
100
AcDbEntity
  8
0
100
AcDbLine
 62
7
  6
CONTINUOUS
 10
124.3319803343
 20
273.2091251228
 11
124.5819804535
 21
273.4644442636
  0
LINE
  5
24A
100
AcDbEntity
  8
0
100
AcDbLine
 62
7
  6
CONTINUOUS
 10
127.3319803343
 20
273.2091251228
 11
127.5819800959
 21
273.4644442636
  0
LINE
  5
24B
100
AcDbEntity
  8
0
100
AcDbLine
 62
7
  6
CONTINUOUS
 10
110.1238541253
 20
271.0188787351
 11
110.2113021768
 21
271.1965957266
  0
LINE
  5
24C
100
AcDbEntity
  8
0
100
AcDbLine
 62
7
  6
CONTINUOUS
 10
109.2954484191
 20
269.1072454957
 11
109.2080003676
 21
268.9295285042
  0
LINE
  5
24D
100
AcDbEntity
  8
0
100
AcDbLine
 62
7
  6
CONTINUOUS
 10
124.3319803343
 20
273.7835932064
 11
124.2069804535
 21
273.5921038676
  0
LINE
  5
24E
100
AcDbEntity
  8
0
100
AcDbLine
 62
7
  6
CONTINUOUS
 10
127.3319803343
 20
273.7835932064
 11
127.2069800959
 21
273.5921038676
  0
LINE
  5
24F
100
AcDbEntity
  8
0
100
AcDbLine
 62
7
  6
CONTINUOUS
 10
121.7069803343
 20
274.613380431
 11
121.8944803343
 21
274.8686995495
  0
LINE
  5
250
100
AcDbEntity
  8
0
100
AcDbLine
 62
7
  6
CONTINUOUS
 10
137.5005963527
 20
268.2547113366
 11
137.8210557855
 21
268.5751707694
  0
LINE
  5
251
100
AcDbEntity
  8
0
100
AcDbLine
 62
7
  6
CONTINUOUS
 10
139.3050369175
 20
270.0591519014
 11
139.6254963503
 21
270.3796113342
  0
LINE
  5
252
100
AcDbEntity
  8
0
100
AcDbLine
 62
7
  6
CONTINUOUS
 10
109.8088527942
 20
271.2454910442
 11
109.7223452076
 21
270.9784455775
  0
LINE
  5
253
100
AcDbEntity
  8
0
100
AcDbLine
 62
7
  6
CONTINUOUS
 10
109.5653147744
 20
268.9257671508
 11
109.651822614
 21
269.1928128705
  0
LINE
  5
254
100
AcDbEntity
  8
0
100
AcDbLine
 62
7
  6
CONTINUOUS
 10
112.5028168012
 20
269.877352252
 11
112.5893248818
 21
270.1443982363
  0
LINE
  5
255
100
AcDbEntity
  8
0
100
AcDbLine
 62
7
  6
CONTINUOUS
 10
124.5819804535
 20
273.4644442636
 11
124.7069803343
 21
273.7197634268
  0
LINE
  5
256
100
AcDbEntity
  8
0
100
AcDbLine
 62
7
  6
CONTINUOUS
 10
127.5819800959
 20
273.4644442636
 11
127.7069803343
 21
273.7197634268
  0
LINE
  5
257
100
AcDbEntity
  8
0
100
AcDbLine
 62
7
  6
CONTINUOUS
 10
115.3215639607
 20
235.3421038974
 11
115.009063998
 21
235.0229549992
  0
LINE
  5
258
100
AcDbEntity
  8
0
100
AcDbLine
 62
7
  6
CONTINUOUS
 10
140.0082797575
 20
267.5466588101
 11
140.3287391903
 21
267.8671182429
  0
LINE
  5
259
100
AcDbEntity
  8
0
100
AcDbLine
 62
7
  6
CONTINUOUS
 10
139.3205963527
 20
266.4347113366
 11
139.6410557855
 21
266.7551707694
  0
LINE
  5
25A
100
AcDbEntity
  8
0
100
AcDbLine
 62
7
  6
CONTINUOUS
 10
141.1250369175
 20
268.2391519014
 11
141.4454963503
 21
268.5596113342
  0
LINE
  5
25B
100
AcDbEntity
  8
0
100
AcDbLine
 62
7
  6
CONTINUOUS
 10
115.6340639607
 20
234.9165720332
 11
115.9465640352
 21
235.1293379653
  0
LINE
  5
25C
100
AcDbEntity
  8
0
100
AcDbLine
 62
7
  6
CONTINUOUS
 10
117.3007307516
 20
231.6186995644
 11
116.9882306026
 21
231.4059336323
  0
LINE
  5
25D
100
AcDbEntity
  8
0
100
AcDbLine
 62
7
  6
CONTINUOUS
 10
115.8423973189
 20
235.6612527955
 11
115.3215639607
 21
235.3421038974
  0
LINE
  5
25E
100
AcDbEntity
  8
0
100
AcDbLine
 62
7
  6
CONTINUOUS
 10
117.0923973189
 20
230.8740187369
 11
117.6132307516
 21
231.193167663
  0
LINE
  5
25F
100
AcDbEntity
  8
RUNDUNGEN
100
AcDbLine
 62
7
  6
CONTINUOUS
 10
100.2069803343
 20
242.1909571037
 11
100.2069803343
 21
236.7676357615
  0
LINE
  5
260
100
AcDbEntity
  8
BEZUGSACHSEN
100
AcDbLine
 62
7
  6
CONTINUOUS
 10
100.2069803343
 20
236.7676357615
 11
100.2069803343
 21
242.1909543476
  0
LINE
  5
261
100
AcDbEntity
  8
0
100
AcDbLine
 62
7
  6
CONTINUOUS
 10
110.0815405439
 20
270.7960272736
 11
110.1238541253
 21
271.0188787351
  0
LINE
  5
262
100
AcDbEntity
  8
0
100
AcDbLine
 62
7
  6
CONTINUOUS
 10
112.230129498
 20
270.3268165876
 11
112.1878159482
 21
270.1039650945
  0
LINE
  5
263
100
AcDbEntity
  8
0
100
AcDbLine
 62
7
  6
CONTINUOUS
 10
121.5819802747
 20
275.124018668
 11
121.5194803343
 21
274.9325293291
  0
LINE
  5
264
100
AcDbEntity
  8
0
100
AcDbLine
 62
7
  6
CONTINUOUS
 10
121.8944803343
 20
274.8686995495
 11
121.9569802747
 21
275.0601888883
  0
LINE
  5
265
100
AcDbEntity
  8
0
100
AcDbLine
 62
7
  6
CONTINUOUS
 10
114.8007306584
 20
234.5974231351
 11
114.6965639887
 21
234.2782739389
  0
LINE
  5
266
100
AcDbEntity
  8
0
100
AcDbLine
 62
7
  6
CONTINUOUS
 10
115.009063998
 20
235.0229549992
 11
114.8007306584
 21
234.5974231351
  0
LINE
  5
267
100
AcDbEntity
  8
0
100
AcDbLine
 62
7
  6
CONTINUOUS
 10
117.9257307516
 20
231.5123165983
 11
118.1340638862
 21
231.937848537
  0
LINE
  5
268
100
AcDbEntity
  8
0
100
AcDbLine
 62
7
  6
CONTINUOUS
 10
119.8007304535
 20
231.2995506662
 11
119.1757307516
 21
230.1293378908
  0
LINE
  5
269
100
AcDbEntity
  8
0
100
AcDbLine
 62
7
  6
CONTINUOUS
 10
115.2173973189
 20
234.2782739389
 11
115.6340639607
 21
234.9165720332
  0
LINE
  5
26A
100
AcDbEntity
  8
0
100
AcDbLine
 62
7
  6
CONTINUOUS
 10
117.7173973189
 20
232.2569974351
 11
117.3007307516
 21
231.6186995644
  0
LINE
  5
26B
100
AcDbEntity
  8
0
100
AcDbLine
 62
7
  6
CONTINUOUS
 10
117.6132307516
 20
231.193167663
 11
117.9257307516
 21
231.5123165983
  0
LINE
  5
26C
100
AcDbEntity
  8
0
100
AcDbLine
 62
7
  6
CONTINUOUS
 10
126.4673973189
 20
233.0016783464
 11
126.8840635882
 21
233.3208272446
  0
LINE
  5
26D
100
AcDbEntity
  8
0
100
AcDbLine
 62
7
  6
CONTINUOUS
 10
128.6548973189
 20
231.6186995644
 11
128.3423973189
 21
231.4059336323
  0
LINE
  5
26E
100
AcDbEntity
  8
0
100
AcDbLine
 62
7
  6
CONTINUOUS
 10
126.7798973189
 20
233.8527420748
 11
126.2590635882
 21
233.5335931766
  0
LINE
  5
26F
100
AcDbEntity
  8
0
100
AcDbLine
 62
7
  6
CONTINUOUS
 10
128.4465635882
 20
230.8740187369
 11
128.9673973189
 21
231.193167663
  0
LINE
  5
270
100
AcDbEntity
  8
0
100
AcDbLine
 62
7
  6
CONTINUOUS
 10
109.2935677424
 20
269.2859026991
 11
109.2954484191
 21
269.1072454957
  0
LINE
  5
271
100
AcDbEntity
  8
0
100
AcDbLine
 62
7
  6
CONTINUOUS
 10
109.7223452076
 20
270.9784455775
 11
109.7261065609
 21
270.6211311707
  0
LINE
  5
272
100
AcDbEntity
  8
0
100
AcDbLine
 62
7
  6
CONTINUOUS
 10
112.5893248818
 20
270.1443982363
 11
112.5855635126
 21
270.5017126589
  0
LINE
  5
273
100
AcDbEntity
  8
BEZUGSACHSEN
100
AcDbLine
 62
7
  6
CONTINUOUS
 10
111.7069803343
 20
94.5676357615
 11
111.7069803343
 21
97.2676357615
  0
LINE
  5
274
100
AcDbEntity
  8
KONSTRUKTIONSELEMENTE
100
AcDbLine
 62
7
  6
CONTINUOUS
 10
112.7373252197
 20
93.7191299855
 11
112.7373252197
 21
86.5372908762
  0
LINE
  5
275
100
AcDbEntity
  8
KONSTRUKTIONSELEMENTE
100
AcDbLine
 62
7
  6
CONTINUOUS
 10
113.8069803343
 20
226.7676357615
 11
113.8069803343
 21
226.5676357615
  0
LINE
  5
276
100
AcDbEntity
  8
0
100
AcDbLine
 62
7
  6
CONTINUOUS
 10
114.5923973189
 20
233.7463591087
 11
114.5923973189
 21
232.7889124143
  0
LINE
  5
277
100
AcDbEntity
  8
0
100
AcDbLine
 62
7
  6
CONTINUOUS
 10
115.1132306398
 20
232.8952953804
 11
115.1132306398
 21
233.6399761427
  0
LINE
  5
278
100
AcDbEntity
  8
0
100
AcDbLine
 62
7
  6
CONTINUOUS
 10
115.7069803343
 20
246.4676357615
 11
115.7069803343
 21
248.5676357615
  0
LINE
  5
279
100
AcDbEntity
  8
0
100
AcDbLine
 62
7
  6
CONTINUOUS
 10
115.1132306398
 20
233.6399761427
 11
115.2173973189
 21
234.2782739389
  0
LINE
  5
27A
100
AcDbEntity
  8
0
100
AcDbLine
 62
7
  6
CONTINUOUS
 10
117.8215638862
 20
232.8952953804
 11
117.7173973189
 21
232.2569974351
  0
LINE
  5
27B
100
AcDbEntity
  8
0
100
AcDbLine
 62
7
  6
CONTINUOUS
 10
114.6965639887
 20
234.2782739389
 11
114.5923973189
 21
233.7463591087
  0
LINE
  5
27C
100
AcDbEntity
  8
0
100
AcDbLine
 62
7
  6
CONTINUOUS
 10
124.7069803343
 20
273.7197634268
 11
124.7694804535
 21
274.0389123249
  0
LINE
  5
27D
100
AcDbEntity
  8
0
100
AcDbLine
 62
7
  6
CONTINUOUS
 10
118.2382307516
 20
232.2569974351
 11
118.3423973189
 21
232.7889124143
  0
LINE
  5
27E
100
AcDbEntity
  8
0
100
AcDbLine
 62
7
  6
CONTINUOUS
 10
127.7069803343
 20
273.7197634268
 11
127.7694800959
 21
274.0389123249
  0
LINE
  5
27F
100
AcDbEntity
  8
0
100
AcDbLine
 62
7
  6
CONTINUOUS
 10
124.3944804535
 20
274.0389123249
 11
124.3319803343
 21
273.7835932064
  0
LINE
  5
280
100
AcDbEntity
  8
0
100
AcDbLine
 62
7
  6
CONTINUOUS
 10
127.3944800959
 20
274.0389123249
 11
127.3319803343
 21
273.7835932064
  0
LINE
  5
281
100
AcDbEntity
  8
0
100
AcDbLine
 62
7
  6
CONTINUOUS
 10
118.1340638862
 20
231.937848537
 11
118.2382307516
 21
232.2569974351
  0
LINE
  5
282
100
AcDbEntity
  8
0
100
AcDbLine
 62
7
  6
CONTINUOUS
 10
124.2798973189
 20
235.2357209313
 11
122.1965641842
 21
230.7676357615
  0
LINE
  5
283
100
AcDbEntity
  8
0
100
AcDbLine
 62
7
  6
CONTINUOUS
 10
122.8215641842
 20
230.7676357615
 11
124.9048973189
 21
235.2357209313
  0
LINE
  5
284
100
AcDbEntity
  8
0
100
AcDbLine
 62
7
  6
CONTINUOUS
 10
119.6965641842
 20
230.1293378908
 11
120.3215641842
 21
231.2995506662
  0
LINE
  5
285
100
AcDbEntity
  8
0
100
AcDbLine
 62
7
  6
CONTINUOUS
 10
128.8632310496
 20
231.937848537
 11
128.6548973189
 21
231.6186995644
  0
LINE
  5
286
100
AcDbEntity
  8
0
100
AcDbLine
 62
7
  6
CONTINUOUS
 10
128.9673973189
 20
231.193167663
 11
129.2798973189
 21
231.6186995644
  0
LINE
  5
287
100
AcDbEntity
  8
KONSTRUKTIONSELEMENTE
100
AcDbLine
 62
7
  6
CONTINUOUS
 10
117.7069803343
 20
226.5676357615
 11
117.7069803343
 21
97.2676357615
  0
LINE
  5
288
100
AcDbEntity
  8
KONSTRUKTIONSELEMENTE
100
AcDbLine
 62
7
  6
CONTINUOUS
 10
117.7069803343
 20
82.5676357615
 11
117.7069803343
 21
77.8176357615
  0
LINE
  5
289
100
AcDbEntity
  8
0
100
AcDbLine
 62
7
  6
CONTINUOUS
 10
117.8215638862
 20
233.6399761427
 11
117.8215638862
 21
232.8952953804
  0
LINE
  5
28A
100
AcDbEntity
  8
KONSTRUKTIONSELEMENTE
100
AcDbLine
 62
7
  6
CONTINUOUS
 10
118.222152777
 20
93.7191299855
 11
118.222152777
 21
86.5372908762
  0
LINE
  5
28B
100
AcDbEntity
  8
0
100
AcDbLine
 62
7
  6
CONTINUOUS
 10
118.3423973189
 20
232.7889124143
 11
118.3423973189
 21
233.7463591087
  0
LINE
  5
28C
100
AcDbEntity
  8
0
100
AcDbLine
 62
7
  6
CONTINUOUS
 10
119.2036482347
 20
245.9676357615
 11
119.2036482347
 21
240.5559406799
  0
LINE
  5
28D
100
AcDbEntity
  8
0
100
AcDbLine
 62
7
  6
CONTINUOUS
 10
119.6444803343
 20
276.0176357615
 11
119.6444803343
 21
273.0176357615
  0
LINE
  5
28E
100
AcDbEntity
  8
BEZUGSACHSEN
100
AcDbLine
 62
7
  6
CONTINUOUS
 10
119.6970257275
 20
245.9676357615
 11
119.6970257275
 21
240.5070075643
  0
LINE
  5
28F
100
AcDbEntity
  8
0
100
AcDbLine
 62
7
  6
CONTINUOUS
 10
120.0194803343
 20
273.0176357615
 11
120.0194803343
 21
274.3580613125
  0
LINE
  5
290
100
AcDbEntity
  8
0
100
AcDbLine
 62
7
  6
CONTINUOUS
 10
120.0194803343
 20
274.7410399902
 11
120.0194803343
 21
275.6984868634
  0
LINE
  5
291
100
AcDbEntity
  8
BEZUGSACHSEN
100
AcDbLine
 62
7
  6
CONTINUOUS
 10
120.9619367916
 20
245.9676357615
 11
120.9619367916
 21
240.395981496
  0
LINE
  5
292
100
AcDbEntity
  8
0
100
AcDbLine
 62
7
  6
CONTINUOUS
 10
121.1548973189
 20
235.7676357615
 11
121.1548973189
 21
235.2357209313
  0
LINE
  5
293
100
AcDbEntity
  8
0
100
AcDbLine
 62
7
  6
CONTINUOUS
 10
121.2069803343
 20
249.0676357615
 11
121.2069803343
 21
249.3676357615
  0
LINE
  5
294
100
AcDbEntity
  8
0
100
AcDbLine
 62
7
  6
CONTINUOUS
 10
121.4553142845
 20
245.9676357615
 11
121.4553142845
 21
240.3573613411
  0
LINE
  5
295
100
AcDbEntity
  8
0
100
AcDbLine
 62
7
  6
CONTINUOUS
 10
121.5819802747
 20
275.3155081857
 11
121.5819802747
 21
275.124018668
  0
LINE
  5
296
100
AcDbEntity
  8
0
100
AcDbLine
 62
7
  6
CONTINUOUS
 10
121.9569802747
 20
275.0601888883
 11
121.9569802747
 21
275.3155081857
  0
LINE
  5
297
100
AcDbEntity
  8
BEZUGSACHSEN
100
AcDbLine
 62
7
  6
CONTINUOUS
 10
122.4420692703
 20
245.9676357615
 11
122.4420692703
 21
240.2956714248
  0
LINE
  5
298
100
AcDbEntity
  8
0
100
AcDbLine
 62
7
  6
CONTINUOUS
 10
122.5194802747
 20
276.0176357615
 11
122.5194802747
 21
274.0389123249
  0
LINE
  5
299
100
AcDbEntity
  8
0
100
AcDbLine
 62
7
  6
CONTINUOUS
 10
122.8944804535
 20
274.0389123249
 11
122.8944804535
 21
276.0176357615
  0
LINE
  5
29A
100
AcDbEntity
  8
0
100
AcDbLine
 62
7
  6
CONTINUOUS
 10
123.7069803343
 20
249.0676357615
 11
123.7069803343
 21
249.3676357615
  0
LINE
  5
29B
100
AcDbEntity
  8
0
100
AcDbLine
 62
7
  6
CONTINUOUS
 10
124.3944804535
 20
276.0176357615
 11
124.3944804535
 21
274.0389123249
  0
LINE
  5
29C
100
AcDbEntity
  8
0
100
AcDbLine
 62
7
  6
CONTINUOUS
 10
124.7694804535
 20
274.0389123249
 11
124.7694804535
 21
276.0176357615
  0
LINE
  5
29D
100
AcDbEntity
  8
0
100
AcDbLine
 62
7
  6
CONTINUOUS
 10
124.9048973189
 20
235.2357209313
 11
124.9048973189
 21
235.7676357615
  0
LINE
  5
29E
100
AcDbEntity
  8
0
100
AcDbLine
 62
7
  6
CONTINUOUS
 10
128.9673973189
 20
232.2569974351
 11
128.8632310496
 21
231.937848537
  0
LINE
  5
29F
100
AcDbEntity
  8
0
100
AcDbLine
 62
7
  6
CONTINUOUS
 10
129.2798973189
 20
231.6186995644
 11
129.4882310496
 21
232.1506144691
  0
LINE
  5
2A0
100
AcDbEntity
  8
BEZUGSACHSEN
100
AcDbLine
 62
7
  6
CONTINUOUS
 10
104.1719132762
 20
232.5860523396
 11
103.3168659488
 21
234.6503191939
  0
LINE
  5
2A1
100
AcDbEntity
  8
BEZUGSACHSEN
100
AcDbLine
 62
7
  6
CONTINUOUS
 10
100.1308598668
 20
242.3420182866
 11
95.6821225779
 21
253.0822201852
  0
LINE
  5
2A2
100
AcDbEntity
  8
0
100
AcDbLine
 62
7
  6
CONTINUOUS
 10
114.6965639887
 20
232.2569974351
 11
114.8007306584
 21
231.937848537
  0
LINE
  5
2A3
100
AcDbEntity
  8
0
100
AcDbLine
 62
7
  6
CONTINUOUS
 10
114.5923973189
 20
232.7889124143
 11
114.6965639887
 21
232.2569974351
  0
LINE
  5
2A4
100
AcDbEntity
  8
0
100
AcDbLine
 62
7
  6
CONTINUOUS
 10
118.3423973189
 20
233.7463591087
 11
118.2382307516
 21
234.2782739389
  0
LINE
  5
2A5
100
AcDbEntity
  8
0
100
AcDbLine
 62
7
  6
CONTINUOUS
 10
115.2173973189
 20
232.2569974351
 11
115.1132306398
 21
232.8952953804
  0
LINE
  5
2A6
100
AcDbEntity
  8
0
100
AcDbLine
 62
7
  6
CONTINUOUS
 10
117.7173973189
 20
234.2782739389
 11
117.8215638862
 21
233.6399761427
  0
LINE
  5
2A7
100
AcDbEntity
  8
0
100
AcDbLine
 62
7
  6
CONTINUOUS
 10
109.651822614
 20
269.1928128705
 11
109.6038672554
 21
269.505933272
  0
LINE
  5
2A8
100
AcDbEntity
  8
BEZUGSACHSEN
100
AcDbLine
 62
7
  6
CONTINUOUS
 10
124.9718913984
 20
245.9676357615
 11
124.9718913984
 21
240.2956706668
  0
LINE
  5
2A9
100
AcDbEntity
  8
0
100
AcDbLine
 62
7
  6
CONTINUOUS
 10
125.2694803343
 20
276.0176357615
 11
125.2694803343
 21
273.0176357615
  0
LINE
  5
2AA
100
AcDbEntity
  8
0
100
AcDbLine
 62
7
  6
CONTINUOUS
 10
125.6444803343
 20
273.400614484
 11
125.6444803343
 21
275.6346570838
  0
LINE
  5
2AB
100
AcDbEntity
  8
0
100
AcDbLine
 62
7
  6
CONTINUOUS
 10
125.7382310496
 20
235.7676357615
 11
125.7382310496
 21
233.0016783464
  0
LINE
  5
2AC
100
AcDbEntity
  8
0
100
AcDbLine
 62
7
  6
CONTINUOUS
 10
125.9586463842
 20
245.9676357615
 11
125.9586463842
 21
240.3573604928
  0
LINE
  5
2AD
100
AcDbEntity
  8
0
100
AcDbLine
 62
7
  6
CONTINUOUS
 10
126.2069803343
 20
249.0676357615
 11
126.2069803343
 21
249.3676357615
  0
LINE
  5
2AE
100
AcDbEntity
  8
0
100
AcDbLine
 62
7
  6
CONTINUOUS
 10
126.2590635882
 20
233.5335931766
 11
126.2590635882
 21
235.2357209313
  0
LINE
  5
2AF
100
AcDbEntity
  8
BEZUGSACHSEN
100
AcDbLine
 62
7
  6
CONTINUOUS
 10
126.4520238771
 20
245.9676357615
 11
126.4520238771
 21
240.3959810725
  0
LINE
  5
2B0
100
AcDbEntity
  8
0
100
AcDbLine
 62
7
  6
CONTINUOUS
 10
127.3944800959
 20
274.9963591087
 11
127.3944800959
 21
274.0389123249
  0
LINE
  5
2B1
100
AcDbEntity
  8
BEZUGSACHSEN
100
AcDbLine
 62
7
  6
CONTINUOUS
 10
127.7169349411
 20
245.9676357615
 11
127.7169349411
 21
240.5070069832
  0
LINE
  5
2B2
100
AcDbEntity
  8
0
100
AcDbLine
 62
7
  6
CONTINUOUS
 10
127.7694800959
 20
274.0389123249
 11
127.7694800959
 21
274.9963591087
  0
LINE
  5
2B3
100
AcDbEntity
  8
0
100
AcDbLine
 62
7
  6
CONTINUOUS
 10
128.210312434
 20
245.9676357615
 11
128.210312434
 21
240.5559409876
  0
LINE
  5
2B4
100
AcDbEntity
  8
0
100
AcDbLine
 62
7
  6
CONTINUOUS
 10
128.9673973189
 20
232.4697633672
 11
128.9673973189
 21
232.2569974351
  0
LINE
  5
2B5
100
AcDbEntity
  8
KONSTRUKTIONSELEMENTE
100
AcDbLine
 62
7
  6
CONTINUOUS
 10
129.1918078916
 20
93.7191299855
 11
129.1918078916
 21
86.5372908762
  0
LINE
  5
2B6
100
AcDbEntity
  8
0
100
AcDbLine
 62
7
  6
CONTINUOUS
 10
129.2798973189
 20
235.2357209313
 11
129.2798973189
 21
235.7676357615
  0
LINE
  5
2B7
100
AcDbEntity
  8
0
100
AcDbLine
 62
7
  6
CONTINUOUS
 10
129.4882310496
 20
232.1506144691
 11
129.4882310496
 21
232.5761463333
  0
LINE
  5
2B8
100
AcDbEntity
  8
KONSTRUKTIONSELEMENTE
100
AcDbLine
 62
7
  6
CONTINUOUS
 10
129.7069803343
 20
226.5676357615
 11
129.7069803343
 21
97.2676357615
  0
LINE
  5
2B9
100
AcDbEntity
  8
KONSTRUKTIONSELEMENTE
100
AcDbLine
 62
7
  6
CONTINUOUS
 10
129.7069803343
 20
82.5676357615
 11
129.7069803343
 21
77.8176357615
  0
LINE
  5
2BA
100
AcDbEntity
  8
0
100
AcDbLine
 62
7
  6
CONTINUOUS
 10
130.3215635882
 20
234.1718909729
 11
130.3215635882
 21
233.7463591087
  0
LINE
  5
2BB
100
AcDbEntity
  8
0
100
AcDbLine
 62
7
  6
CONTINUOUS
 10
131.1548973189
 20
235.0229549992
 11
131.1548973189
 21
234.1718909729
  0
LINE
  5
2BC
100
AcDbEntity
  8
0
100
AcDbLine
 62
7
  6
CONTINUOUS
 10
131.1548973189
 20
233.7463591087
 11
131.1548973189
 21
231.6186995644
  0
LINE
  5
2BD
100
AcDbEntity
  8
0
100
AcDbLine
 62
7
  6
CONTINUOUS
 10
131.6757310496
 20
231.831465571
 11
131.6757310496
 21
233.7463591087
  0
LINE
  5
2BE
100
AcDbEntity
  8
0
100
AcDbLine
 62
7
  6
CONTINUOUS
 10
131.6757310496
 20
234.1718909729
 11
131.6757310496
 21
235.0229549992
  0
LINE
  5
2BF
100
AcDbEntity
  8
0
100
AcDbLine
 62
7
  6
CONTINUOUS
 10
132.6132310496
 20
230.7676357615
 11
132.6132310496
 21
231.193167663
  0
LINE
  5
2C0
100
AcDbEntity
  8
0
100
AcDbLine
 62
7
  6
CONTINUOUS
 10
132.8215635882
 20
233.7463591087
 11
132.8215635882
 21
234.1718909729
  0
LINE
  5
2C1
100
AcDbEntity
  8
KONSTRUKTIONSELEMENTE
100
AcDbLine
 62
7
  6
CONTINUOUS
 10
133.6069803343
 20
226.7676357615
 11
133.6069803343
 21
226.5676357615
  0
LINE
  5
2C2
100
AcDbEntity
  8
BEZUGSACHSEN
100
AcDbLine
 62
7
  6
CONTINUOUS
 10
151.7318380908
 20
253.0822201852
 11
150.0689427753
 21
249.0676357615
  0
LINE
  5
2C3
100
AcDbEntity
  8
BEZUGSACHSEN
100
AcDbLine
 62
7
  6
CONTINUOUS
 10
148.7848807319
 20
245.9676357615
 11
147.2831008018
 21
242.3420182866
  0
LINE
  5
2C4
100
AcDbEntity
  8
BEZUGSACHSEN
100
AcDbLine
 62
7
  6
CONTINUOUS
 10
144.0970947199
 20
234.6503191939
 11
143.2420473925
 21
232.5860523396
  0
LINE
  5
2C5
100
AcDbEntity
  8
0
100
AcDbLine
 62
7
  6
CONTINUOUS
 10
115.6340639607
 20
231.6186995644
 11
115.2173973189
 21
232.2569974351
  0
LINE
  5
2C6
100
AcDbEntity
  8
0
100
AcDbLine
 62
7
  6
CONTINUOUS
 10
114.8007306584
 20
231.937848537
 11
115.009063998
 21
231.5123165983
  0
LINE
  5
2C7
100
AcDbEntity
  8
0
100
AcDbLine
 62
7
  6
CONTINUOUS
 10
118.1340638862
 20
234.5974231351
 11
117.9257307516
 21
235.0229549992
  0
LINE
  5
2C8
100
AcDbEntity
  8
0
100
AcDbLine
 62
7
  6
CONTINUOUS
 10
118.2382307516
 20
234.2782739389
 11
118.1340638862
 21
234.5974231351
  0
LINE
  5
2C9
100
AcDbEntity
  8
0
100
AcDbLine
 62
7
  6
CONTINUOUS
 10
112.1831146042
 20
270.5506085139
 11
112.230129498
 21
270.3268165876
  0
LINE
  5
2CA
100
AcDbEntity
  8
KONSTRUKTIONSELEMENTE
100
AcDbLine
 62
7
  6
CONTINUOUS
 10
134.6766354489
 20
93.7191299855
 11
134.6766354489
 21
86.5372908762
  0
LINE
  5
2CB
100
AcDbEntity
  8
BEZUGSACHSEN
100
AcDbLine
 62
7
  6
CONTINUOUS
 10
135.7069803343
 20
94.5676357615
 11
135.7069803343
 21
97.2676357615
  0
LINE
  5
2CC
100
AcDbEntity
  8
0
100
AcDbLine
 62
7
  6
CONTINUOUS
 10
115.009063998
 20
231.5123165983
 11
115.3215639607
 21
231.193167663
  0
LINE
  5
2CD
100
AcDbEntity
  8
0
100
AcDbLine
 62
7
  6
CONTINUOUS
 10
117.9257307516
 20
235.0229549992
 11
117.6132307516
 21
235.3421038974
  0
LINE
  5
2CE
100
AcDbEntity
  8
0
100
AcDbLine
 62
7
  6
CONTINUOUS
 10
125.9465635882
 20
231.6186995644
 11
126.2590635882
 21
231.193167663
  0
LINE
  5
2CF
100
AcDbEntity
  8
0
100
AcDbLine
 62
7
  6
CONTINUOUS
 10
117.3007307516
 20
234.9165720332
 11
117.7173973189
 21
234.2782739389
  0
LINE
  5
2D0
100
AcDbEntity
  8
0
100
AcDbLine
 62
7
  6
CONTINUOUS
 10
109.2023585905
 20
269.4655003672
 11
109.2935677424
 21
269.2859026991
  0
LINE
  5
2D1
100
AcDbEntity
  8
0
100
AcDbLine
 62
7
  6
CONTINUOUS
 10
109.6038672554
 20
269.505933272
 11
109.5126581035
 21
269.6855309401
  0
LINE
  5
2D2
100
AcDbEntity
  8
0
100
AcDbLine
 62
7
  6
CONTINUOUS
 10
110.1727495694
 20
270.6164292261
 11
110.0815405439
 21
270.7960272736
  0
LINE
  5
2D3
100
AcDbEntity
  8
0
100
AcDbLine
 62
7
  6
CONTINUOUS
 10
108.2611165828
 20
265.5453830857
 11
106.8469029783
 21
268.3738101683
  0
LINE
  5
2D4
100
AcDbEntity
  8
0
100
AcDbLine
 62
7
  6
CONTINUOUS
 10
106.5817379353
 20
268.1086451253
 11
107.8135330147
 21
265.639413221
  0
LINE
  5
2D5
100
AcDbEntity
  8
0
100
AcDbLine
 62
7
  6
CONTINUOUS
 10
125.7382310496
 20
232.044231503
 11
125.9465635882
 21
231.6186995644
  0
LINE
  5
2D6
100
AcDbEntity
  8
0
100
AcDbLine
 62
7
  6
CONTINUOUS
 10
126.5715635882
 20
231.6186995644
 11
126.3632310496
 21
232.044231503
  0
LINE
  5
2D7
100
AcDbEntity
  8
0
100
AcDbLine
 62
7
  6
CONTINUOUS
 10
129.4882310496
 20
232.5761463333
 11
129.2798973189
 21
233.1080613125
  0
LINE
  5
2D8
100
AcDbEntity
  8
0
100
AcDbLine
 62
7
  6
CONTINUOUS
 10
112.5855635126
 20
270.5017126589
 11
112.4934141172
 21
270.7706390868
  0
LINE
  5
2D9
100
AcDbEntity
  8
0
100
AcDbLine
 62
7
  6
CONTINUOUS
 10
128.8632310496
 20
232.7889124143
 11
128.9673973189
 21
232.4697633672
  0
LINE
  5
2DA
100
AcDbEntity
  8
0
100
AcDbLine
 62
7
  6
CONTINUOUS
 10
131.7798973189
 20
231.5123165983
 11
131.6757310496
 21
231.831465571
  0
LINE
  5
2DB
100
AcDbEntity
  8
0
100
AcDbLine
 62
7
  6
CONTINUOUS
 10
122.9569802151
 20
273.7835932064
 11
122.8944804535
 21
274.0389123249
  0
LINE
  5
2DC
100
AcDbEntity
  8
0
100
AcDbLine
 62
7
  6
CONTINUOUS
 10
122.5194802747
 20
274.0389123249
 11
122.5819803939
 21
273.7197634268
  0
LINE
  5
2DD
100
AcDbEntity
  8
0
100
AcDbLine
 62
7
  6
CONTINUOUS
 10
127.7694800959
 20
274.9963591087
 11
127.7069803343
 21
275.3155081857
  0
LINE
  5
2DE
100
AcDbEntity
  8
BEZUGSACHSEN
100
AcDbLine
 62
7
  6
CONTINUOUS
 10
147.2069803343
 20
242.1909584416
 11
147.2069803343
 21
236.7676357615
  0
LINE
  5
2DF
100
AcDbEntity
  8
RUNDUNGEN
100
AcDbLine
 62
7
  6
CONTINUOUS
 10
147.2069803343
 20
242.1909537167
 11
147.2069803343
 21
236.7676357615
  0
LINE
  5
2E0
100
AcDbEntity
  8
0
100
AcDbLine
 62
7
  6
CONTINUOUS
 10
128.3423973189
 20
231.4059336323
 11
127.9257310496
 21
231.2995506662
  0
LINE
  5
2E1
100
AcDbEntity
  8
0
100
AcDbLine
 62
7
  6
CONTINUOUS
 10
127.9257310496
 20
230.7676357615
 11
128.4465635882
 21
230.8740187369
  0
LINE
  5
2E2
100
AcDbEntity
  8
KONSTRUKTIONSELEMENTE
100
AcDbLine
 62
7
  6
CONTINUOUS
 10
113.8069803343
 20
226.5676357615
 11
133.6069803343
 21
226.5676357615
  0
LINE
  5
2E3
100
AcDbEntity
  8
BEZUGSACHSEN
100
AcDbLine
 62
7
  6
CONTINUOUS
 10
138.7068495094
 20
226.7676357615
 11
108.7071109789
 21
226.7676357615
  0
LINE
  5
2E4
100
AcDbEntity
  8
0
100
AcDbLine
 62
7
  6
CONTINUOUS
 10
119.1757307516
 20
230.1293378908
 11
119.6965641842
 21
230.1293378908
  0
LINE
  5
2E5
100
AcDbEntity
  8
0
100
AcDbLine
 62
7
  6
CONTINUOUS
 10
115.8423973189
 20
230.8740187369
 11
116.4673973189
 21
230.7676357615
  0
LINE
  5
2E6
100
AcDbEntity
  8
0
100
AcDbLine
 62
7
  6
CONTINUOUS
 10
116.4673973189
 20
231.2995506662
 11
115.9465640352
 21
231.4059336323
  0
LINE
  5
2E7
100
AcDbEntity
  8
0
100
AcDbLine
 62
7
  6
CONTINUOUS
 10
115.3215639607
 20
231.193167663
 11
115.8423973189
 21
230.8740187369
  0
LINE
  5
2E8
100
AcDbEntity
  8
0
100
AcDbLine
 62
7
  6
CONTINUOUS
 10
117.6132307516
 20
235.3421038974
 11
117.0923973189
 21
235.6612527955
  0
LINE
  5
2E9
100
AcDbEntity
  8
0
100
AcDbLine
 62
7
  6
CONTINUOUS
 10
126.2590635882
 20
231.193167663
 11
126.7798973189
 21
230.8740187369
  0
LINE
  5
2EA
100
AcDbEntity
  8
0
100
AcDbLine
 62
7
  6
CONTINUOUS
 10
115.9465640352
 20
231.4059336323
 11
115.6340639607
 21
231.6186995644
  0
LINE
  5
2EB
100
AcDbEntity
  8
0
100
AcDbLine
 62
7
  6
CONTINUOUS
 10
116.9882306026
 20
235.1293379653
 11
117.3007307516
 21
234.9165720332
  0
LINE
  5
2EC
100
AcDbEntity
  8
0
100
AcDbLine
 62
7
  6
CONTINUOUS
 10
126.8840635882
 20
231.4059336323
 11
126.5715635882
 21
231.6186995644
  0
LINE
  5
2ED
100
AcDbEntity
  8
0
100
AcDbLine
 62
7
  6
CONTINUOUS
 10
131.3632310496
 20
231.193167663
 11
131.6757310496
 21
230.9804017122
  0
LINE
  5
2EE
100
AcDbEntity
  8
0
100
AcDbLine
 62
7
  6
CONTINUOUS
 10
128.3423973189
 20
233.3208272446
 11
128.6548973189
 21
233.1080613125
  0
LINE
  5
2EF
100
AcDbEntity
  8
0
100
AcDbLine
 62
7
  6
CONTINUOUS
 10
129.2798973189
 20
233.1080613125
 11
128.9673973189
 21
233.5335931766
  0
LINE
  5
2F0
100
AcDbEntity
  8
0
100
AcDbLine
 62
7
  6
CONTINUOUS
 10
128.6548973189
 20
233.1080613125
 11
128.8632310496
 21
232.7889124143
  0
LINE
  5
2F1
100
AcDbEntity
  8
0
100
AcDbLine
 62
7
  6
CONTINUOUS
 10
109.7261065609
 20
270.6211311707
 11
109.86244993
 21
270.3963987797
  0
LINE
  5
2F2
100
AcDbEntity
  8
0
100
AcDbLine
 62
7
  6
CONTINUOUS
 10
131.1548973189
 20
231.6186995644
 11
131.3632310496
 21
231.193167663
  0
LINE
  5
2F3
100
AcDbEntity
  8
0
100
AcDbLine
 62
7
  6
CONTINUOUS
 10
122.0194803939
 20
273.0176357615
 11
121.4569803939
 21
274.4857208717
  0
LINE
  5
2F4
100
AcDbEntity
  8
0
100
AcDbLine
 62
7
  6
CONTINUOUS
 10
121.0819803045
 20
274.3580613125
 11
121.5819802747
 21
273.0176357615
  0
LINE
  5
2F5
100
AcDbEntity
  8
0
100
AcDbLine
 62
7
  6
CONTINUOUS
 10
121.5194803343
 20
275.5069975245
 11
121.5819802747
 21
275.3155081857
  0
LINE
  5
2F6
100
AcDbEntity
  8
0
100
AcDbLine
 62
7
  6
CONTINUOUS
 10
121.9569802747
 20
275.3155081857
 11
121.8944803343
 21
275.5069975245
  0
LINE
  5
2F7
100
AcDbEntity
  8
0
100
AcDbLine
 62
7
  6
CONTINUOUS
 10
127.3319803343
 20
275.2516782272
 11
127.3944800959
 21
274.9963591087
  0
LINE
  5
2F8
100
AcDbEntity
  8
RUNDUNGEN
100
AcDbLine
 62
7
  6
CONTINUOUS
 10
155.7069803343
 20
248.5676357615
 11
155.7069803343
 21
246.4676357615
  0
LINE
  5
2F9
100
AcDbEntity
  8
0
100
AcDbLine
 62
7
  6
CONTINUOUS
 10
126.8840635882
 20
233.3208272446
 11
127.3007310496
 21
233.4272102106
  0
LINE
  5
2FA
100
AcDbEntity
  8
0
100
AcDbLine
 62
7
  6
CONTINUOUS
 10
116.9882306026
 20
231.4059336323
 11
116.4673973189
 21
231.2995506662
  0
LINE
  5
2FB
100
AcDbEntity
  8
0
100
AcDbLine
 62
7
  6
CONTINUOUS
 10
127.3007310496
 20
233.9591250408
 11
126.7798973189
 21
233.8527420748
  0
LINE
  5
2FC
100
AcDbEntity
  8
0
100
AcDbLine
 62
7
  6
CONTINUOUS
 10
115.9465640352
 20
235.1293379653
 11
116.4673973189
 21
235.2357209313
  0
LINE
  5
2FD
100
AcDbEntity
  8
0
100
AcDbLine
 62
7
  6
CONTINUOUS
 10
116.4673973189
 20
230.7676357615
 11
117.0923973189
 21
230.8740187369
  0
LINE
  5
2FE
100
AcDbEntity
  8
0
100
AcDbLine
 62
7
  6
CONTINUOUS
 10
116.4673973189
 20
235.7676357615
 11
115.8423973189
 21
235.6612527955
  0
LINE
  5
2FF
100
AcDbEntity
  8
0
100
AcDbLine
 62
7
  6
CONTINUOUS
 10
122.1965641842
 20
230.7676357615
 11
122.8215641842
 21
230.7676357615
  0
LINE
  5
300
100
AcDbEntity
  8
0
100
AcDbLine
 62
7
  6
CONTINUOUS
 10
127.3007310496
 20
230.7676357615
 11
127.9257310496
 21
230.7676357615
  0
LINE
  5
301
100
AcDbEntity
  8
0
100
AcDbLine
 62
7
  6
CONTINUOUS
 10
127.9257310496
 20
231.2995506662
 11
127.3007310496
 21
231.2995506662
  0
LINE
  5
302
100
AcDbEntity
  8
0
100
AcDbLine
 62
7
  6
CONTINUOUS
 10
120.3215641842
 20
231.2995506662
 11
119.8007304535
 21
231.2995506662
  0
LINE
  5
303
100
AcDbEntity
  8
0
100
AcDbLine
 62
7
  6
CONTINUOUS
 10
126.3632310496
 20
232.044231503
 11
125.7382310496
 21
232.044231503
  0
LINE
  5
304
100
AcDbEntity
  8
0
100
AcDbLine
 62
7
  6
CONTINUOUS
 10
125.7382310496
 20
233.0016783464
 11
126.4673973189
 21
233.0016783464
  0
LINE
  5
305
100
AcDbEntity
  8
0
100
AcDbLine
 62
7
  6
CONTINUOUS
 10
127.3007310496
 20
233.4272102106
 11
127.9257310496
 21
233.4272102106
  0
LINE
  5
306
100
AcDbEntity
  8
0
100
AcDbLine
 62
7
  6
CONTINUOUS
 10
130.3215635882
 20
233.7463591087
 11
131.1548973189
 21
233.7463591087
  0
LINE
  5
307
100
AcDbEntity
  8
0
100
AcDbLine
 62
7
  6
CONTINUOUS
 10
131.6757310496
 20
233.7463591087
 11
132.8215635882
 21
233.7463591087
  0
LINE
  5
308
100
AcDbEntity
  8
0
100
AcDbLine
 62
7
  6
CONTINUOUS
 10
127.9257310496
 20
233.9591250408
 11
127.3007310496
 21
233.9591250408
  0
LINE
  5
309
100
AcDbEntity
  8
0
100
AcDbLine
 62
7
  6
CONTINUOUS
 10
132.8215635882
 20
234.1718909729
 11
131.6757310496
 21
234.1718909729
  0
LINE
  5
30A
100
AcDbEntity
  8
0
100
AcDbLine
 62
7
  6
CONTINUOUS
 10
131.1548973189
 20
234.1718909729
 11
130.3215635882
 21
234.1718909729
  0
LINE
  5
30B
100
AcDbEntity
  8
0
100
AcDbLine
 62
7
  6
CONTINUOUS
 10
131.6757310496
 20
235.0229549992
 11
131.1548973189
 21
235.0229549992
  0
LINE
  5
30C
100
AcDbEntity
  8
0
100
AcDbLine
 62
7
  6
CONTINUOUS
 10
121.1548973189
 20
235.2357209313
 11
124.2798973189
 21
235.2357209313
  0
LINE
  5
30D
100
AcDbEntity
  8
0
100
AcDbLine
 62
7
  6
CONTINUOUS
 10
126.2590635882
 20
235.2357209313
 11
129.2798973189
 21
235.2357209313
  0
LINE
  5
30E
100
AcDbEntity
  8
0
100
AcDbLine
 62
7
  6
CONTINUOUS
 10
101.7069803343
 20
235.2676357615
 11
102.3929864162
 21
235.2676357615
  0
LINE
  5
30F
100
AcDbEntity
  8
0
100
AcDbLine
 62
7
  6
CONTINUOUS
 10
145.0209742524
 20
235.2676357615
 11
145.7069803343
 21
235.2676357615
  0
LINE
  5
310
100
AcDbEntity
  8
0
100
AcDbLine
 62
7
  6
CONTINUOUS
 10
129.2798973189
 20
235.7676357615
 11
125.7382310496
 21
235.7676357615
  0
LINE
  5
311
100
AcDbEntity
  8
0
100
AcDbLine
 62
7
  6
CONTINUOUS
 10
124.9048973189
 20
235.7676357615
 11
121.1548973189
 21
235.7676357615
  0
LINE
  5
312
100
AcDbEntity
  8
0
100
AcDbLine
 62
7
  6
CONTINUOUS
 10
131.9882310496
 20
230.8740187369
 11
132.6132310496
 21
230.7676357615
  0
LINE
  5
313
100
AcDbEntity
  8
0
100
AcDbLine
 62
7
  6
CONTINUOUS
 10
117.0923973189
 20
235.6612527955
 11
116.4673973189
 21
235.7676357615
  0
LINE
  5
314
100
AcDbEntity
  8
0
100
AcDbLine
 62
7
  6
CONTINUOUS
 10
126.7798973189
 20
230.8740187369
 11
127.3007310496
 21
230.7676357615
  0
LINE
  5
315
100
AcDbEntity
  8
0
100
AcDbLine
 62
7
  6
CONTINUOUS
 10
132.6132310496
 20
231.193167663
 11
132.0923973189
 21
231.2995506662
  0
LINE
  5
316
100
AcDbEntity
  8
0
100
AcDbLine
 62
7
  6
CONTINUOUS
 10
116.4673973189
 20
235.2357209313
 11
116.9882306026
 21
235.1293379653
  0
LINE
  5
317
100
AcDbEntity
  8
0
100
AcDbLine
 62
7
  6
CONTINUOUS
 10
128.4465635882
 20
233.8527420748
 11
127.9257310496
 21
233.9591250408
  0
LINE
  5
318
100
AcDbEntity
  8
0
100
AcDbLine
 62
7
  6
CONTINUOUS
 10
127.3007310496
 20
231.2995506662
 11
126.8840635882
 21
231.4059336323
  0
LINE
  5
319
100
AcDbEntity
  8
0
100
AcDbLine
 62
7
  6
CONTINUOUS
 10
127.9257310496
 20
233.4272102106
 11
128.3423973189
 21
233.3208272446
  0
LINE
  5
31A
100
AcDbEntity
  8
0
100
AcDbLine
 62
7
  6
CONTINUOUS
 10
131.6757310496
 20
230.9804017122
 11
131.9882310496
 21
230.8740187369
  0
LINE
  5
31B
100
AcDbEntity
  8
0
100
AcDbLine
 62
7
  6
CONTINUOUS
 10
128.9673973189
 20
233.5335931766
 11
128.4465635882
 21
233.8527420748
  0
LINE
  5
31C
100
AcDbEntity
  8
0
100
AcDbLine
 62
7
  6
CONTINUOUS
 10
132.0923973189
 20
231.2995506662
 11
131.7798973189
 21
231.5123165983
  0
LINE
  5
31D
100
AcDbEntity
  8
0
100
AcDbLine
 62
7
  6
CONTINUOUS
 10
107.200456411
 20
268.727363601
 11
109.3217767546
 21
266.6060432575
  0
LINE
  5
31E
100
AcDbEntity
  8
0
100
AcDbLine
 62
7
  6
CONTINUOUS
 10
109.5869417975
 20
266.8712083004
 11
108.6391178008
 21
267.8190322971
  0
LINE
  5
31F
100
AcDbEntity
  8
0
100
AcDbLine
 62
7
  6
CONTINUOUS
 10
108.3683109807
 20
268.0898391172
 11
107.691293804
 21
268.7668562939
  0
LINE
  5
320
100
AcDbEntity
  8
0
100
AcDbLine
 62
7
  6
CONTINUOUS
 10
109.066955054
 20
269.6009039037
 11
109.2023585905
 21
269.4655003672
  0
LINE
  5
321
100
AcDbEntity
  8
0
100
AcDbLine
 62
7
  6
CONTINUOUS
 10
109.5126581035
 20
269.6855309401
 11
109.332120097
 21
269.8660689466
  0
LINE
  5
322
100
AcDbEntity
  8
0
100
AcDbLine
 62
7
  6
CONTINUOUS
 10
122.5819803939
 20
273.7197634268
 11
122.7069804535
 21
273.4644442636
  0
LINE
  5
323
100
AcDbEntity
  8
0
100
AcDbLine
 62
7
  6
CONTINUOUS
 10
127.7069803343
 20
275.3155081857
 11
127.5819800959
 21
275.5708273042
  0
LINE
  5
324
100
AcDbEntity
  8
RUNDUNGEN
100
AcDbLine
 62
7
  6
CONTINUOUS
 10
155.2069803343
 20
245.9676357615
 11
116.2074318552
 21
245.9676357615
  0
LINE
  5
325
100
AcDbEntity
  8
0
100
AcDbLine
 62
7
  6
CONTINUOUS
 10
109.86244993
 20
270.3963987797
 11
110.0429879365
 21
270.2158607732
  0
LINE
  5
326
100
AcDbEntity
  8
0
100
AcDbLine
 62
7
  6
CONTINUOUS
 10
110.2630185094
 20
270.5261602861
 11
110.1727495694
 21
270.6164292261
  0
LINE
  5
327
100
AcDbEntity
  8
0
100
AcDbLine
 62
7
  6
CONTINUOUS
 10
112.0477111942
 20
270.6860119239
 11
112.1831146042
 21
270.5506085139
  0
LINE
  5
328
100
AcDbEntity
  8
0
100
AcDbLine
 62
7
  6
CONTINUOUS
 10
112.4934141172
 20
270.7706390868
 11
112.2677417671
 21
270.9963114369
  0
LINE
  5
329
100
AcDbEntity
  8
0
100
AcDbLine
 62
7
  6
CONTINUOUS
 10
121.8944803343
 20
275.5069975245
 11
121.7069803343
 21
275.762316643
  0
LINE
  5
32A
100
AcDbEntity
  8
0
100
AcDbLine
 62
7
  6
CONTINUOUS
 10
123.0819804535
 20
273.5921038676
 11
122.9569802151
 21
273.7835932064
  0
LINE
  5
32B
100
AcDbEntity
  8
0
100
AcDbLine
 62
7
  6
CONTINUOUS
 10
127.2069800959
 20
275.4431677449
 11
127.3319803343
 21
275.2516782272
  0
LINE
  5
32C
100
AcDbEntity
  8
RUNDUNGEN
100
AcDbLine
 62
7
  6
CONTINUOUS
 10
144.1506605861
 20
272.9155354653
 11
151.5916512366
 21
254.9513949194
  0
LINE
  5
32D
100
AcDbEntity
  8
BEZUGSACHSEN
100
AcDbLine
 62
7
  6
CONTINUOUS
 10
151.5916512366
 20
254.9513949194
 11
151.7318380908
 21
254.6129539146
  0
LINE
  5
32E
100
AcDbEntity
  8
RUNDUNGEN
100
AcDbLine
 62
7
  6
CONTINUOUS
 10
116.2074318552
 20
249.0676357615
 11
155.2069803343
 21
249.0676357615
  0
LINE
  5
32F
100
AcDbEntity
  8
0
100
AcDbLine
 62
7
  6
CONTINUOUS
 10
121.2069803343
 20
249.3676357615
 11
126.2069803343
 21
249.3676357615
  0
LINE
  5
330
100
AcDbEntity
  8
0
100
AcDbLine
 62
7
  6
CONTINUOUS
 10
111.0011552756
 20
268.2854217785
 11
109.5653147744
 21
268.9257671508
  0
LINE
  5
331
100
AcDbEntity
  8
0
100
AcDbLine
 62
7
  6
CONTINUOUS
 10
109.3904186715
 20
268.5703331679
 11
110.6917962274
 21
267.9760627303
  0
LINE
  5
332
100
AcDbEntity
  8
0
100
AcDbLine
 62
7
  6
CONTINUOUS
 10
107.8135330147
 20
265.639413221
 11
105.3443011104
 21
266.8712083004
  0
LINE
  5
333
100
AcDbEntity
  8
0
100
AcDbLine
 62
7
  6
CONTINUOUS
 10
105.0791360674
 20
266.6060432575
 11
107.9075632133
 21
265.1918297162
  0
LINE
  5
334
100
AcDbEntity
  8
0
100
AcDbLine
 62
7
  6
CONTINUOUS
 10
108.8873573858
 20
269.6921130556
 11
109.066955054
 21
269.6009039037
  0
LINE
  5
335
100
AcDbEntity
  8
0
100
AcDbLine
 62
7
  6
CONTINUOUS
 10
109.332120097
 20
269.8660689466
 11
109.1525224288
 21
269.9572780986
  0
LINE
  5
336
100
AcDbEntity
  8
0
100
AcDbLine
 62
7
  6
CONTINUOUS
 10
111.2127233725
 20
269.3996794021
 11
111.0331254514
 21
269.4908883011
  0
LINE
  5
337
100
AcDbEntity
  8
0
100
AcDbLine
 62
7
  6
CONTINUOUS
 10
110.4426164304
 20
270.4349513871
 11
110.2630185094
 21
270.5261602861
  0
LINE
  5
338
100
AcDbEntity
  8
0
100
AcDbLine
 62
7
  6
CONTINUOUS
 10
110.7679606614
 20
269.2257235111
 11
110.9926925467
 21
269.0893796362
  0
LINE
  5
339
100
AcDbEntity
  8
0
100
AcDbLine
 62
7
  6
CONTINUOUS
 10
110.0429879365
 20
270.2158607732
 11
110.2677203275
 21
270.0795174041
  0
LINE
  5
33A
100
AcDbEntity
  8
0
100
AcDbLine
 62
7
  6
CONTINUOUS
 10
122.7069804535
 20
273.4644442636
 11
122.9569802151
 21
273.2091251228
  0
LINE
  5
33B
100
AcDbEntity
  8
0
100
AcDbLine
 62
7
  6
CONTINUOUS
 10
121.3944802747
 20
275.6346570838
 11
121.5194803343
 21
275.5069975245
  0
LINE
  5
33C
100
AcDbEntity
  8
0
100
AcDbLine
 62
7
  6
CONTINUOUS
 10
127.5819800959
 20
275.5708273042
 11
127.3319803343
 21
275.8261464227
  0
LINE
  5
33D
100
AcDbEntity
  8
0
100
AcDbLine
 62
7
  6
CONTINUOUS
 10
109.1525224288
 20
269.9572780986
 11
108.8394020273
 21
270.0052334572
  0
LINE
  5
33E
100
AcDbEntity
  8
0
100
AcDbLine
 62
7
  6
CONTINUOUS
 10
111.8239192047
 20
270.733026881
 11
112.0477111942
 21
270.6860119239
  0
LINE
  5
33F
100
AcDbEntity
  8
0
100
AcDbLine
 62
7
  6
CONTINUOUS
 10
110.9926925467
 20
269.0893796362
 11
111.3509477185
 21
268.9962900131
  0
LINE
  5
340
100
AcDbEntity
  8
0
100
AcDbLine
 62
7
  6
CONTINUOUS
 10
112.2677417671
 20
270.9963114369
 11
111.9988153076
 21
271.0884608639
  0
LINE
  5
341
100
AcDbEntity
  8
0
100
AcDbLine
 62
7
  6
CONTINUOUS
 10
110.8328411617
 20
271.5473278915
 11
110.9673046127
 21
271.5012534624
  0
LINE
  5
342
100
AcDbEntity
  8
0
100
AcDbLine
 62
7
  6
CONTINUOUS
 10
111.2324696557
 20
271.7664185054
 11
111.0528717346
 21
271.8576274044
  0
LINE
  5
343
100
AcDbEntity
  8
0
100
AcDbLine
 62
7
  6
CONTINUOUS
 10
122.9569802151
 20
273.2091251228
 11
123.2069803343
 21
273.0814655467
  0
LINE
  5
344
100
AcDbEntity
  8
0
100
AcDbLine
 62
7
  6
CONTINUOUS
 10
123.2694804535
 20
273.4644442636
 11
123.0819804535
 21
273.5921038676
  0
LINE
  5
345
100
AcDbEntity
  8
0
100
AcDbLine
 62
7
  6
CONTINUOUS
 10
127.0194800959
 20
275.5708273042
 11
127.2069800959
 21
275.4431677449
  0
LINE
  5
346
100
AcDbEntity
  8
0
100
AcDbLine
 62
7
  6
CONTINUOUS
 10
121.7069803343
 20
275.762316643
 11
121.4569803939
 21
275.9538059819
  0
LINE
  5
347
100
AcDbEntity
  8
0
100
AcDbLine
 62
7
  6
CONTINUOUS
 10
139.1665102286
 20
266.5803282916
 11
139.3205963527
 21
266.4347113366
  0
LINE
  5
348
100
AcDbEntity
  8
0
100
AcDbLine
 62
7
  6
CONTINUOUS
 10
137.3465102286
 20
268.4003282916
 11
137.5005963527
 21
268.2547113366
  0
LINE
  5
349
100
AcDbEntity
  8
0
100
AcDbLine
 62
7
  6
CONTINUOUS
 10
139.3826696168
 20
268.1722689508
 11
140.0082797575
 21
267.5466588101
  0
LINE
  5
34A
100
AcDbEntity
  8
0
100
AcDbLine
 62
7
  6
CONTINUOUS
 10
140.3287391903
 20
267.8671182429
 11
139.7020765337
 21
268.4937808995
  0
LINE
  5
34B
100
AcDbEntity
  8
0
100
AcDbLine
 62
7
  6
CONTINUOUS
 10
139.1945802042
 20
270.1841866365
 11
139.3050369175
 21
270.0591519014
  0
LINE
  5
34C
100
AcDbEntity
  8
0
100
AcDbLine
 62
7
  6
CONTINUOUS
 10
127.0194800959
 20
273.4644442636
 11
126.7694803343
 21
273.400614484
  0
LINE
  5
34D
100
AcDbEntity
  8
0
100
AcDbLine
 62
7
  6
CONTINUOUS
 10
124.0194804535
 20
273.4644442636
 11
123.7694803343
 21
273.400614484
  0
LINE
  5
34E
100
AcDbEntity
  8
0
100
AcDbLine
 62
7
  6
CONTINUOUS
 10
111.3509477185
 20
268.9962900131
 11
111.7073216723
 21
269.0818571232
  0
LINE
  5
34F
100
AcDbEntity
  8
0
100
AcDbLine
 62
7
  6
CONTINUOUS
 10
126.7694803343
 20
273.0176357615
 11
127.0819805728
 21
273.0814655467
  0
LINE
  5
350
100
AcDbEntity
  8
0
100
AcDbLine
 62
7
  6
CONTINUOUS
 10
123.7694803343
 20
273.0176357615
 11
124.0819802151
 21
273.0814655467
  0
LINE
  5
351
100
AcDbEntity
  8
0
100
AcDbLine
 62
7
  6
CONTINUOUS
 10
110.6654678919
 20
270.4772649685
 11
110.4426164304
 21
270.4349513871
  0
LINE
  5
352
100
AcDbEntity
  8
0
100
AcDbLine
 62
7
  6
CONTINUOUS
 10
111.6010677432
 20
270.6907132995
 11
111.8239192047
 21
270.733026881
  0
LINE
  5
353
100
AcDbEntity
  8
0
100
AcDbLine
 62
7
  6
CONTINUOUS
 10
108.8394020273
 20
270.0052334572
 11
108.5272218376
 21
269.9638600876
  0
LINE
  5
354
100
AcDbEntity
  8
0
100
AcDbLine
 62
7
  6
CONTINUOUS
 10
110.7397513331
 20
271.905582763
 11
110.4275713964
 21
271.8642096463
  0
LINE
  5
355
100
AcDbEntity
  8
0
100
AcDbLine
 62
7
  6
CONTINUOUS
 10
119.6444803343
 20
273.0176357615
 11
120.0194803343
 21
273.0176357615
  0
LINE
  5
356
100
AcDbEntity
  8
0
100
AcDbLine
 62
7
  6
CONTINUOUS
 10
121.5819802747
 20
273.0176357615
 11
122.0194803939
 21
273.0176357615
  0
LINE
  5
357
100
AcDbEntity
  8
0
100
AcDbLine
 62
7
  6
CONTINUOUS
 10
123.5194802151
 20
273.0176357615
 11
123.7694803343
 21
273.0176357615
  0
LINE
  5
358
100
AcDbEntity
  8
0
100
AcDbLine
 62
7
  6
CONTINUOUS
 10
125.2694803343
 20
273.0176357615
 11
126.7694803343
 21
273.0176357615
  0
LINE
  5
359
100
AcDbEntity
  8
0
100
AcDbLine
 62
7
  6
CONTINUOUS
 10
126.7694803343
 20
273.400614484
 11
125.6444803343
 21
273.400614484
  0
LINE
  5
35A
100
AcDbEntity
  8
0
100
AcDbLine
 62
7
  6
CONTINUOUS
 10
123.7694803343
 20
273.400614484
 11
123.5194802151
 21
273.400614484
  0
LINE
  5
35B
100
AcDbEntity
  8
0
100
AcDbLine
 62
7
  6
CONTINUOUS
 10
120.0194803343
 20
274.3580613125
 11
121.0819803045
 21
274.3580613125
  0
LINE
  5
35C
100
AcDbEntity
  8
0
100
AcDbLine
 62
7
  6
CONTINUOUS
 10
121.2069802747
 20
274.7410399902
 11
120.0194803343
 21
274.7410399902
  0
LINE
  5
35D
100
AcDbEntity
  8
0
100
AcDbLine
 62
7
  6
CONTINUOUS
 10
125.6444803343
 20
275.6346570838
 11
126.7694803343
 21
275.6346570838
  0
LINE
  5
35E
100
AcDbEntity
  8
0
100
AcDbLine
 62
7
  6
CONTINUOUS
 10
120.0194803343
 20
275.6984868634
 11
121.2069802747
 21
275.6984868634
  0
LINE
  5
35F
100
AcDbEntity
  8
0
100
AcDbLine
 62
7
  6
CONTINUOUS
 10
126.7694803343
 20
276.0176357615
 11
125.2694803343
 21
276.0176357615
  0
LINE
  5
360
100
AcDbEntity
  8
0
100
AcDbLine
 62
7
  6
CONTINUOUS
 10
124.7694804535
 20
276.0176357615
 11
124.3944804535
 21
276.0176357615
  0
LINE
  5
361
100
AcDbEntity
  8
0
100
AcDbLine
 62
7
  6
CONTINUOUS
 10
122.8944804535
 20
276.0176357615
 11
122.5194802747
 21
276.0176357615
  0
LINE
  5
362
100
AcDbEntity
  8
0
100
AcDbLine
 62
7
  6
CONTINUOUS
 10
121.1444803343
 20
276.0176357615
 11
119.6444803343
 21
276.0176357615
  0
LINE
  5
363
100
AcDbEntity
  8
0
100
AcDbLine
 62
7
  6
CONTINUOUS
 10
111.4807093356
 20
269.3968584819
 11
111.2127233725
 21
269.3996794021
  0
LINE
  5
364
100
AcDbEntity
  8
0
100
AcDbLine
 62
7
  6
CONTINUOUS
 10
108.7087001825
 20
269.6939937323
 11
108.8873573858
 21
269.6921130556
  0
LINE
  5
365
100
AcDbEntity
  8
0
100
AcDbLine
 62
7
  6
CONTINUOUS
 10
110.2677203275
 20
270.0795174041
 11
110.6250347343
 21
270.0757560507
  0
LINE
  5
366
100
AcDbEntity
  8
0
100
AcDbLine
 62
7
  6
CONTINUOUS
 10
111.9988153076
 20
271.0884608639
 11
111.6415009008
 21
271.0922222173
  0
LINE
  5
367
100
AcDbEntity
  8
0
100
AcDbLine
 62
7
  6
CONTINUOUS
 10
110.6541842112
 20
271.549208821
 11
110.8328411617
 21
271.5473278915
  0
LINE
  5
368
100
AcDbEntity
  8
0
100
AcDbLine
 62
7
  6
CONTINUOUS
 10
111.0528717346
 20
271.8576274044
 11
110.7397513331
 21
271.905582763
  0
LINE
  5
369
100
AcDbEntity
  8
0
100
AcDbLine
 62
7
  6
CONTINUOUS
 10
123.2069803343
 20
273.0814655467
 11
123.5194802151
 21
273.0176357615
  0
LINE
  5
36A
100
AcDbEntity
  8
0
100
AcDbLine
 62
7
  6
CONTINUOUS
 10
121.4569803939
 20
275.9538059819
 11
121.1444803343
 21
276.0176357615
  0
LINE
  5
36B
100
AcDbEntity
  8
0
100
AcDbLine
 62
7
  6
CONTINUOUS
 10
127.0819805728
 20
275.9538059819
 11
126.7694803343
 21
276.0176357615
  0
LINE
  5
36C
100
AcDbEntity
  8
0
100
AcDbLine
 62
7
  6
CONTINUOUS
 10
123.5194802151
 20
273.400614484
 11
123.2694804535
 21
273.4644442636
  0
LINE
  5
36D
100
AcDbEntity
  8
0
100
AcDbLine
 62
7
  6
CONTINUOUS
 10
126.7694803343
 20
275.6346570838
 11
127.0194800959
 21
275.5708273042
  0
LINE
  5
36E
100
AcDbEntity
  8
0
100
AcDbLine
 62
7
  6
CONTINUOUS
 10
121.2069802747
 20
275.6984868634
 11
121.3944802747
 21
275.6346570838
  0
LINE
  5
36F
100
AcDbEntity
  8
RUNDUNGEN
100
AcDbLine
 62
7
  6
CONTINUOUS
 10
124.4723471991
 20
281.700610426
 11
143.0682683858
 21
273.9979276656
  0
LINE
  5
370
100
AcDbEntity
  8
0
100
AcDbLine
 62
7
  6
CONTINUOUS
 10
127.3319803343
 20
275.8261464227
 11
127.0819805728
 21
275.9538059819
  0
LINE
  5
371
100
AcDbEntity
  8
BEZUGSACHSEN
100
AcDbLine
 62
7
  6
CONTINUOUS
 10
134.6766354489
 20
86.5372908762
 11
130.7069803343
 21
82.5676357615
  0
LINE
  5
372
100
AcDbEntity
  8
KONSTRUKTIONSELEMENTE
100
AcDbLine
 62
7
  6
CONTINUOUS
 10
129.7069803343
 20
77.8176357615
 11
128.4569803343
 21
76.5676357615
  0
LINE
  5
373
100
AcDbEntity
  8
KONSTRUKTIONSELEMENTE
100
AcDbLine
 62
7
  6
CONTINUOUS
 10
114.2069803343
 20
94.5676357615
 11
112.7373252197
 21
93.7191299855
  0
LINE
  5
374
100
AcDbEntity
  8
KONSTRUKTIONSELEMENTE
100
AcDbLine
 62
7
  6
CONTINUOUS
 10
268.6552964623
 20
76.5676357615
 11
278.1552964623
 21
76.5676357615
  0
LINE
  5
375
100
AcDbEntity
  8
KONSTRUKTIONSELEMENTE
100
AcDbLine
 62
7
  6
CONTINUOUS
 10
267.4052964623
 20
77.8176357615
 11
279.4052964623
 21
77.8176357615
  0
LINE
  5
376
100
AcDbEntity
  8
BEZUGSACHSEN
100
AcDbLine
 62
7
  6
CONTINUOUS
 10
280.4047396334
 20
82.5676357615
 11
266.4058532912
 21
82.5676357615
  0
LINE
  5
377
100
AcDbEntity
  8
BEZUGSACHSEN
100
AcDbLine
 62
7
  6
CONTINUOUS
 10
261.406251026
 20
94.5676357615
 11
285.4043418986
 21
94.5676357615
  0
LINE
  5
378
100
AcDbEntity
  8
BEZUGSACHSEN
100
AcDbLine
 62
7
  6
CONTINUOUS
 10
261.406251026
 20
97.2676357615
 11
285.4043418986
 21
97.2676357615
  0
LINE
  5
379
100
AcDbEntity
  8
KONSTRUKTIONSELEMENTE
100
AcDbLine
 62
7
  6
CONTINUOUS
 10
268.6552964623
 20
76.5676357615
 11
267.4052964623
 21
77.8176357615
  0
LINE
  5
37A
100
AcDbEntity
  8
BEZUGSACHSEN
100
AcDbLine
 62
7
  6
CONTINUOUS
 10
263.8760886755
 20
85.0968435485
 11
266.4052964624
 21
82.5676357615
  0
LINE
  5
37B
100
AcDbEntity
  8
0
100
AcDbLine
 62
7
  6
CONTINUOUS
 10
258.4052964623
 20
246.4676357615
 11
258.4052964623
 21
248.5676357615
  0
LINE
  5
37C
100
AcDbEntity
  8
BEZUGSACHSEN
100
AcDbLine
 62
7
  6
CONTINUOUS
 10
261.4052964623
 20
94.5676357615
 11
261.4052964623
 21
97.2676357615
  0
LINE
  5
37D
100
AcDbEntity
  8
KONSTRUKTIONSELEMENTE
100
AcDbLine
 62
7
  6
CONTINUOUS
 10
263.5052964623
 20
226.7676357615
 11
263.5052964623
 21
226.5676357615
  0
LINE
  5
37E
100
AcDbEntity
  8
BEZUGSACHSEN
100
AcDbLine
 62
7
  6
CONTINUOUS
 10
263.9052964623
 20
86.5372908762
 11
263.9052964623
 21
85.0675963184
  0
LINE
  5
37F
100
AcDbEntity
  8
KONSTRUKTIONSELEMENTE
100
AcDbLine
 62
7
  6
CONTINUOUS
 10
263.9052964623
 20
86.5372908762
 11
263.9052964623
 21
94.5676357655
  0
LINE
  5
380
100
AcDbEntity
  8
0
100
AcDbLine
 62
7
  6
CONTINUOUS
 10
255.9811171099
 20
235.7676357615
 11
256.0941790973
 21
235.2357209313
  0
LINE
  5
381
100
AcDbEntity
  8
BEZUGSACHSEN
100
AcDbLine
 62
7
  6
CONTINUOUS
 10
256.2216570685
 20
237.040851402
 11
256.4922874073
 21
235.7676357615
  0
LINE
  5
382
100
AcDbEntity
  8
BEZUGSACHSEN
100
AcDbLine
 62
7
  6
CONTINUOUS
 10
257.1514390638
 20
232.6665710319
 11
257.2837214142
 21
232.044231503
  0
LINE
  5
383
100
AcDbEntity
  8
BEZUGSACHSEN
100
AcDbLine
 62
7
  6
CONTINUOUS
 10
257.5550702157
 20
230.7676357615
 11
258.4052964623
 21
226.7676357615
  0
LINE
  5
384
100
AcDbEntity
  8
KONSTRUKTIONSELEMENTE
100
AcDbLine
 62
7
  6
CONTINUOUS
 10
267.4052964623
 20
226.5676357615
 11
267.4052964623
 21
97.2676357615
  0
LINE
  5
385
100
AcDbEntity
  8
KONSTRUKTIONSELEMENTE
100
AcDbLine
 62
7
  6
CONTINUOUS
 10
267.4052964623
 20
82.5676357615
 11
267.4052964623
 21
77.8176357615
  0
LINE
  5
386
100
AcDbEntity
  8
BEZUGSACHSEN
100
AcDbLine
 62
7
  6
CONTINUOUS
 10
268.4052964623
 20
247.6390431382
 11
268.4052964623
 21
279.852851361
  0
LINE
  5
387
100
AcDbEntity
  8
KONSTRUKTIONSELEMENTE
100
AcDbLine
 62
7
  6
CONTINUOUS
 10
273.4052964623
 20
93.7191299855
 11
273.4052964623
 21
86.5372908762
  0
LINE
  5
388
100
AcDbEntity
  8
RUNDUNGEN
100
AcDbLine
 62
7
  6
CONTINUOUS
 10
278.4052964623
 20
247.6390431382
 11
278.4052964623
 21
279.852851361
  0
LINE
  5
389
100
AcDbEntity
  8
0
100
AcDbLine
 62
7
  6
CONTINUOUS
 10
278.9052964623
 20
276.0176357615
 11
278.9052964623
 21
273.0176357615
  0
LINE
  5
38A
100
AcDbEntity
  8
0
100
AcDbLine
 62
7
  6
CONTINUOUS
 10
278.9052964623
 20
271.905582763
 11
278.9052964623
 21
270.0795174041
  0
LINE
  5
38B
100
AcDbEntity
  8
0
100
AcDbLine
 62
7
  6
CONTINUOUS
 10
278.9052964623
 20
270.0757560507
 11
278.9052964623
 21
265.1918297162
  0
LINE
  5
38C
100
AcDbEntity
  8
KONSTRUKTIONSELEMENTE
100
AcDbLine
 62
7
  6
CONTINUOUS
 10
279.4052964623
 20
226.5676357615
 11
279.4052964623
 21
97.2676357615
  0
LINE
  5
38D
100
AcDbEntity
  8
KONSTRUKTIONSELEMENTE
100
AcDbLine
 62
7
  6
CONTINUOUS
 10
279.4052964623
 20
82.5676357615
 11
279.4052964623
 21
77.8176357615
  0
LINE
  5
38E
100
AcDbEntity
  8
KONSTRUKTIONSELEMENTE
100
AcDbLine
 62
7
  6
CONTINUOUS
 10
282.9052964623
 20
94.5676357655
 11
282.9052964623
 21
86.5372908762
  0
LINE
  5
38F
100
AcDbEntity
  8
BEZUGSACHSEN
100
AcDbLine
 62
7
  6
CONTINUOUS
 10
282.9052964623
 20
85.0675963184
 11
282.9052964623
 21
86.5372908762
  0
LINE
  5
390
100
AcDbEntity
  8
KONSTRUKTIONSELEMENTE
100
AcDbLine
 62
7
  6
CONTINUOUS
 10
283.3052964623
 20
226.7676357615
 11
283.3052964623
 21
226.5676357615
  0
LINE
  5
391
100
AcDbEntity
  8
0
100
AcDbLine
 62
7
  6
CONTINUOUS
 10
288.4052964623
 20
226.7676357615
 11
289.1198483083
 21
230.1293378908
  0
LINE
  5
392
100
AcDbEntity
  8
0
100
AcDbLine
 62
7
  6
CONTINUOUS
 10
289.9440701344
 20
234.0069967107
 11
290.20524353
 21
235.2357209313
  0
LINE
  5
393
100
AcDbEntity
  8
0
100
AcDbLine
 62
7
  6
CONTINUOUS
 10
290.3183055174
 20
235.7676357615
 11
290.5889358562
 21
237.040851402
  0
LINE
  5
394
100
AcDbEntity
  8
0
100
AcDbLine
 62
7
  6
CONTINUOUS
 10
290.7164138274
 20
235.2357209313
 11
290.8294758148
 21
235.7676357615
  0
LINE
  5
395
100
AcDbEntity
  8
BEZUGSACHSEN
100
AcDbLine
 62
7
  6
CONTINUOUS
 10
285.4052964623
 20
94.5676357615
 11
285.4052964623
 21
97.2676357615
  0
LINE
  5
396
100
AcDbEntity
  8
0
100
AcDbLine
 62
7
  6
CONTINUOUS
 10
288.4052964623
 20
246.4676357615
 11
288.4052964623
 21
248.5676357615
  0
LINE
  5
397
100
AcDbEntity
  8
KONSTRUKTIONSELEMENTE
100
AcDbLine
 62
7
  6
CONTINUOUS
 10
263.5052964623
 20
226.5676357615
 11
283.3052964623
 21
226.5676357615
  0
LINE
  5
398
100
AcDbEntity
  8
BEZUGSACHSEN
100
AcDbLine
 62
7
  6
CONTINUOUS
 10
258.4052964815
 20
226.7676357615
 11
288.4052964431
 21
226.7676357615
  0
LINE
  5
399
100
AcDbEntity
  8
0
100
AcDbLine
 62
7
  6
CONTINUOUS
 10
257.6907446164
 20
230.1293378908
 11
257.5326474775
 21
230.1293378908
  0
LINE
  5
39A
100
AcDbEntity
  8
0
100
AcDbLine
 62
7
  6
CONTINUOUS
 10
288.6547998603
 20
230.1293378908
 11
289.2779454472
 21
230.1293378908
  0
LINE
  5
39B
100
AcDbEntity
  8
0
100
AcDbLine
 62
7
  6
CONTINUOUS
 10
259.4083519819
 20
230.7676357615
 11
258.8433463639
 21
230.7676357615
  0
LINE
  5
39C
100
AcDbEntity
  8
0
100
AcDbLine
 62
7
  6
CONTINUOUS
 10
257.0603368541
 20
230.7676357615
 11
257.9464427649
 21
230.7676357615
  0
LINE
  5
39D
100
AcDbEntity
  8
0
100
AcDbLine
 62
7
  6
CONTINUOUS
 10
288.0626862774
 20
230.7676357615
 11
288.6067647311
 21
230.7676357615
  0
LINE
  5
39E
100
AcDbEntity
  8
0
100
AcDbLine
 62
7
  6
CONTINUOUS
 10
289.4794803149
 20
230.7676357615
 11
289.7502560706
 21
230.7676357615
  0
LINE
  5
39F
100
AcDbEntity
  8
0
100
AcDbLine
 62
7
  6
CONTINUOUS
 10
258.0266391766
 20
230.8740187369
 11
257.5025990741
 21
230.8740187369
  0
LINE
  5
3A0
100
AcDbEntity
  8
0
100
AcDbLine
 62
7
  6
CONTINUOUS
 10
287.8636987798
 20
230.8740187369
 11
288.4144558135
 21
230.8740187369
  0
LINE
  5
3A1
100
AcDbEntity
  8
0
100
AcDbLine
 62
7
  6
CONTINUOUS
 10
259.285774145
 20
231.193167663
 11
258.7224164719
 21
231.193167663
  0
LINE
  5
3A2
100
AcDbEntity
  8
0
100
AcDbLine
 62
7
  6
CONTINUOUS
 10
258.068539684
 20
231.193167663
 11
257.5416477617
 21
231.193167663
  0
LINE
  5
3A3
100
AcDbEntity
  8
0
100
AcDbLine
 62
7
  6
CONTINUOUS
 10
287.7457834319
 20
231.193167663
 11
288.302014939
 21
231.193167663
  0
LINE
  5
3A4
100
AcDbEntity
  8
0
100
AcDbLine
 62
7
  6
CONTINUOUS
 10
259.0352256527
 20
231.2995506662
 11
258.479339368
 21
231.2995506662
  0
LINE
  5
3A5
100
AcDbEntity
  8
0
100
AcDbLine
 62
7
  6
CONTINUOUS
 10
257.3037851536
 20
231.2995506662
 11
257.2000461702
 21
231.2995506662
  0
LINE
  5
3A6
100
AcDbEntity
  8
0
100
AcDbLine
 62
7
  6
CONTINUOUS
 10
289.1144977517
 20
231.2995506662
 11
289.641246606
 21
231.2995506662
  0
LINE
  5
3A7
100
AcDbEntity
  8
0
100
AcDbLine
 62
7
  6
CONTINUOUS
 10
257.3582147198
 20
231.4059336323
 11
257.1170146083
 21
231.4059336323
  0
LINE
  5
3A8
100
AcDbEntity
  8
0
100
AcDbLine
 62
7
  6
CONTINUOUS
 10
288.5939619795
 20
231.4059336323
 11
288.935219455
 21
231.4059336323
  0
LINE
  5
3A9
100
AcDbEntity
  8
0
100
AcDbLine
 62
7
  6
CONTINUOUS
 10
258.8533007607
 20
231.5123165983
 11
258.301913713
 21
231.5123165983
  0
LINE
  5
3AA
100
AcDbEntity
  8
0
100
AcDbLine
 62
7
  6
CONTINUOUS
 10
287.7056354553
 20
231.5123165983
 11
288.264921327
 21
231.5123165983
  0
LINE
  5
3AB
100
AcDbEntity
  8
0
100
AcDbLine
 62
7
  6
CONTINUOUS
 10
258.0423647329
 20
231.6186995644
 11
257.5139169574
 21
231.6186995644
  0
LINE
  5
3AC
100
AcDbEntity
  8
0
100
AcDbLine
 62
7
  6
CONTINUOUS
 10
257.372778838
 20
231.6186995644
 11
257.0308310349
 21
231.6186995644
  0
LINE
  5
3AD
100
AcDbEntity
  8
0
100
AcDbLine
 62
7
  6
CONTINUOUS
 10
288.5445537242
 20
231.6186995644
 11
289.0792035878
 21
231.6186995644
  0
LINE
  5
3AE
100
AcDbEntity
  8
0
100
AcDbLine
 62
7
  6
CONTINUOUS
 10
258.7273622804
 20
231.831465571
 11
258.1780746597
 21
231.831465571
  0
LINE
  5
3AF
100
AcDbEntity
  8
0
100
AcDbLine
 62
7
  6
CONTINUOUS
 10
287.7379339826
 20
231.937848537
 11
288.2985495002
 21
231.937848537
  0
LINE
  5
3B0
100
AcDbEntity
  8
0
100
AcDbLine
 62
7
  6
CONTINUOUS
 10
257.3252773861
 20
232.044231503
 11
256.8549374508
 21
232.044231503
  0
LINE
  5
3B1
100
AcDbEntity
  8
0
100
AcDbLine
 62
7
  6
CONTINUOUS
 10
257.9143720339
 20
232.1506144691
 11
257.4369474779
 21
232.1506144691
  0
LINE
  5
3B2
100
AcDbEntity
  8
0
100
AcDbLine
 62
7
  6
CONTINUOUS
 10
287.7844531989
 20
232.2569974351
 11
288.3453502711
 21
232.2569974351
  0
LINE
  5
3B3
100
AcDbEntity
  8
0
100
AcDbLine
 62
7
  6
CONTINUOUS
 10
288.8167892885
 20
232.2569974351
 11
289.3472866749
 21
232.2569974351
  0
LINE
  5
3B4
100
AcDbEntity
  8
0
100
AcDbLine
 62
7
  6
CONTINUOUS
 10
257.8040722434
 20
232.5761463333
 11
257.3346203027
 21
232.5761463333
  0
LINE
  5
3B5
100
AcDbEntity
  8
0
100
AcDbLine
 62
7
  6
CONTINUOUS
 10
287.8920908099
 20
232.7889124143
 11
288.4525071926
 21
232.7889124143
  0
LINE
  5
3B6
100
AcDbEntity
  8
0
100
AcDbLine
 62
7
  6
CONTINUOUS
 10
288.9985945159
 20
232.8952953804
 11
289.5275322086
 21
232.8952953804
  0
LINE
  5
3B7
100
AcDbEntity
  8
0
100
AcDbLine
 62
7
  6
CONTINUOUS
 10
256.6480755897
 20
233.0016783464
 11
257.0644478375
 21
233.0016783464
  0
LINE
  5
3B8
100
AcDbEntity
  8
0
100
AcDbLine
 62
7
  6
CONTINUOUS
 10
257.6666231655
 20
233.1080613125
 11
257.1587096675
 21
233.1080613125
  0
LINE
  5
3B9
100
AcDbEntity
  8
0
100
AcDbLine
 62
7
  6
CONTINUOUS
 10
256.9167674516
 20
233.3208272446
 11
256.6936898226
 21
233.3208272446
  0
LINE
  5
3BA
100
AcDbEntity
  8
0
100
AcDbLine
 62
7
  6
CONTINUOUS
 10
256.7246900999
 20
233.4272102106
 11
256.8198014054
 21
233.4272102106
  0
LINE
  5
3BB
100
AcDbEntity
  8
0
100
AcDbLine
 62
7
  6
CONTINUOUS
 10
257.5145171304
 20
233.5335931766
 11
256.9900572205
 21
233.5335931766
  0
LINE
  5
3BC
100
AcDbEntity
  8
0
100
AcDbLine
 62
7
  6
CONTINUOUS
 10
289.1787024182
 20
233.6399761427
 11
289.7067228533
 21
233.6399761427
  0
LINE
  5
3BD
100
AcDbEntity
  8
0
100
AcDbLine
 62
7
  6
CONTINUOUS
 10
257.2618386167
 20
233.7463591087
 11
257.5022704318
 21
233.7463591087
  0
LINE
  5
3BE
100
AcDbEntity
  8
0
100
AcDbLine
 62
7
  6
CONTINUOUS
 10
257.6699259669
 20
233.7463591087
 11
258.6459416413
 21
233.7463591087
  0
LINE
  5
3BF
100
AcDbEntity
  8
0
100
AcDbLine
 62
7
  6
CONTINUOUS
 10
288.164651381
 20
233.7463591087
 11
288.7218269492
 21
233.7463591087
  0
LINE
  5
3C0
100
AcDbEntity
  8
0
100
AcDbLine
 62
7
  6
CONTINUOUS
 10
257.2355183505
 20
233.8527420748
 11
256.8134626875
 21
233.8527420748
  0
LINE
  5
3C1
100
AcDbEntity
  8
0
100
AcDbLine
 62
7
  6
CONTINUOUS
 10
257.2183448628
 20
233.9591250408
 11
256.6060864871
 21
233.9591250408
  0
LINE
  5
3C2
100
AcDbEntity
  8
0
100
AcDbLine
 62
7
  6
CONTINUOUS
 10
258.5256416509
 20
234.1718909729
 11
257.55793639
 21
234.1718909729
  0
LINE
  5
3C3
100
AcDbEntity
  8
0
100
AcDbLine
 62
7
  6
CONTINUOUS
 10
257.3930621451
 20
234.1718909729
 11
257.1566327385
 21
234.1718909729
  0
LINE
  5
3C4
100
AcDbEntity
  8
0
100
AcDbLine
 62
7
  6
CONTINUOUS
 10
288.3563709447
 20
234.2782739389
 11
288.9106162285
 21
234.2782739389
  0
LINE
  5
3C5
100
AcDbEntity
  8
0
100
AcDbLine
 62
7
  6
CONTINUOUS
 10
289.3077977547
 20
234.2782739389
 11
289.8357071162
 21
234.2782739389
  0
LINE
  5
3C6
100
AcDbEntity
  8
0
100
AcDbLine
 62
7
  6
CONTINUOUS
 10
288.4859342374
 20
234.5974231351
 11
289.0380423324
 21
234.5974231351
  0
LINE
  5
3C7
100
AcDbEntity
  8
0
100
AcDbLine
 62
7
  6
CONTINUOUS
 10
289.4142691856
 20
234.9165720332
 11
289.8900280827
 21
234.9165720332
  0
LINE
  5
3C8
100
AcDbEntity
  8
0
100
AcDbLine
 62
7
  6
CONTINUOUS
 10
257.8765023783
 20
235.0229549992
 11
257.1754476505
 21
235.0229549992
  0
LINE
  5
3C9
100
AcDbEntity
  8
0
100
AcDbLine
 62
7
  6
CONTINUOUS
 10
288.6813087881
 20
235.0229549992
 11
289.2299928889
 21
235.0229549992
  0
LINE
  5
3CA
100
AcDbEntity
  8
0
100
AcDbLine
 62
7
  6
CONTINUOUS
 10
289.5685640629
 20
235.1293379653
 11
289.8632049382
 21
235.1293379653
  0
LINE
  5
3CB
100
AcDbEntity
  8
0
100
AcDbLine
 62
7
  6
CONTINUOUS
 10
256.1657631557
 20
235.2357209313
 11
256.1188853003
 21
235.2357209313
  0
LINE
  5
3CC
100
AcDbEntity
  8
0
100
AcDbLine
 62
7
  6
CONTINUOUS
 10
256.0941976005
 20
235.2357209313
 11
256.0997988866
 21
235.2357209313
  0
LINE
  5
3CD
100
AcDbEntity
  8
0
100
AcDbLine
 62
7
  6
CONTINUOUS
 10
256.2077432515
 20
235.2357209313
 11
257.1789314006
 21
235.2357209313
  0
LINE
  5
3CE
100
AcDbEntity
  8
0
100
AcDbLine
 62
7
  6
CONTINUOUS
 10
290.0891126899
 20
235.2357209313
 11
290.7163953241
 21
235.2357209313
  0
LINE
  5
3CF
100
AcDbEntity
  8
0
100
AcDbLine
 62
7
  6
CONTINUOUS
 10
288.8788407269
 20
235.3421038974
 11
289.4236053443
 21
235.3421038974
  0
LINE
  5
3D0
100
AcDbEntity
  8
0
100
AcDbLine
 62
7
  6
CONTINUOUS
 10
289.1349113111
 20
235.6612527955
 11
289.6743038484
 21
235.6612527955
  0
LINE
  5
3D1
100
AcDbEntity
  8
0
100
AcDbLine
 62
7
  6
CONTINUOUS
 10
257.0528918977
 20
235.7676357615
 11
255.9811172958
 21
235.7676357615
  0
LINE
  5
3D2
100
AcDbEntity
  8
0
100
AcDbLine
 62
7
  6
CONTINUOUS
 10
289.3488653813
 20
235.7676357615
 11
289.8831436028
 21
235.7676357615
  0
LINE
  5
3D3
100
AcDbEntity
  8
0
100
AcDbLine
 62
7
  6
CONTINUOUS
 10
290.2049511981
 20
235.7676357615
 11
290.8294756289
 21
235.7676357615
  0
LINE
  5
3D4
100
AcDbEntity
  8
0
100
AcDbLine
 62
7
  6
CONTINUOUS
 10
260.5592886497
 20
240.1653043043
 11
261.7820220034
 21
240.492934719
  0
LINE
  5
3D5
100
AcDbEntity
  8
BEZUGSACHSEN
100
AcDbLine
 62
7
  6
CONTINUOUS
 10
257.6603141798
 20
239.3885264362
 11
263.2169887619
 21
240.8774329031
  0
LINE
  5
3D6
100
AcDbEntity
  8
0
100
AcDbLine
 62
7
  6
CONTINUOUS
 10
286.2513042748
 20
240.1653043044
 11
285.0285709213
 21
240.492934719
  0
LINE
  5
3D7
100
AcDbEntity
  8
RUNDUNGEN
100
AcDbLine
 62
7
  6
CONTINUOUS
 10
289.1502787449
 20
239.3885264362
 11
283.5936041628
 21
240.8774329031
  0
LINE
  5
3D8
100
AcDbEntity
  8
RUNDUNGEN
100
AcDbLine
 62
7
  6
CONTINUOUS
 10
287.9052891943
 20
245.9676357615
 11
278.608400602
 21
245.9676357615
  0
LINE
  5
3D9
100
AcDbEntity
  8
RUNDUNGEN
100
AcDbLine
 62
7
  6
CONTINUOUS
 10
268.2014367249
 20
245.9676357615
 11
258.9053028896
 21
245.9676357615
  0
LINE
  5
3DA
100
AcDbEntity
  8
RUNDUNGEN
100
AcDbLine
 62
7
  6
CONTINUOUS
 10
258.9053029125
 20
249.0676357615
 11
268.4052964623
 21
249.0676357615
  0
LINE
  5
3DB
100
AcDbEntity
  8
RUNDUNGEN
100
AcDbLine
 62
7
  6
CONTINUOUS
 10
278.4052964623
 20
249.0676357615
 11
287.9052892294
 21
249.0676357615
  0
LINE
  5
3DC
100
AcDbEntity
  8
0
100
AcDbLine
 62
7
  6
CONTINUOUS
 10
278.4052964623
 20
265.1918297162
 11
278.9052964623
 21
265.1918297162
  0
LINE
  5
3DD
100
AcDbEntity
  8
0
100
AcDbLine
 62
7
  6
CONTINUOUS
 10
278.4052964623
 20
266.6060432575
 11
278.9052964623
 21
266.6060432575
  0
LINE
  5
3DE
100
AcDbEntity
  8
0
100
AcDbLine
 62
7
  6
CONTINUOUS
 10
278.4052964623
 20
266.8712083004
 11
278.9052964623
 21
266.8712083004
  0
LINE
  5
3DF
100
AcDbEntity
  8
0
100
AcDbLine
 62
7
  6
CONTINUOUS
 10
278.4052964623
 20
268.1086451253
 11
278.9052964623
 21
268.1086451253
  0
LINE
  5
3E0
100
AcDbEntity
  8
0
100
AcDbLine
 62
7
  6
CONTINUOUS
 10
278.4052964623
 20
268.3738101683
 11
278.9052964623
 21
268.3738101683
  0
LINE
  5
3E1
100
AcDbEntity
  8
0
100
AcDbLine
 62
7
  6
CONTINUOUS
 10
278.4052964623
 20
268.727363601
 11
278.9052964623
 21
268.727363601
  0
LINE
  5
3E2
100
AcDbEntity
  8
0
100
AcDbLine
 62
7
  6
CONTINUOUS
 10
278.4052964623
 20
269.7880237728
 11
278.9052964623
 21
269.7880237728
  0
LINE
  5
3E3
100
AcDbEntity
  8
0
100
AcDbLine
 62
7
  6
CONTINUOUS
 10
278.4052964623
 20
269.9638600876
 11
278.9052964623
 21
269.9638600876
  0
LINE
  5
3E4
100
AcDbEntity
  8
0
100
AcDbLine
 62
7
  6
CONTINUOUS
 10
278.4052964623
 20
270.0052334572
 11
278.9052964623
 21
270.0052334572
  0
LINE
  5
3E5
100
AcDbEntity
  8
0
100
AcDbLine
 62
7
  6
CONTINUOUS
 10
278.4052964623
 20
270.0795174041
 11
278.9052964623
 21
270.0795174041
  0
LINE
  5
3E6
100
AcDbEntity
  8
0
100
AcDbLine
 62
7
  6
CONTINUOUS
 10
278.4052964623
 20
270.2158607732
 11
278.9052964623
 21
270.2158607732
  0
LINE
  5
3E7
100
AcDbEntity
  8
0
100
AcDbLine
 62
7
  6
CONTINUOUS
 10
278.4052964623
 20
270.3963987797
 11
278.9052964623
 21
270.3963987797
  0
LINE
  5
3E8
100
AcDbEntity
  8
0
100
AcDbLine
 62
7
  6
CONTINUOUS
 10
278.4052964623
 20
270.6211311707
 11
278.9052964623
 21
270.6211311707
  0
LINE
  5
3E9
100
AcDbEntity
  8
0
100
AcDbLine
 62
7
  6
CONTINUOUS
 10
278.4052964623
 20
270.9784455775
 11
278.9052964623
 21
270.9784455775
  0
LINE
  5
3EA
100
AcDbEntity
  8
0
100
AcDbLine
 62
7
  6
CONTINUOUS
 10
278.4052964623
 20
271.2454910442
 11
278.9052964623
 21
271.2454910442
  0
LINE
  5
3EB
100
AcDbEntity
  8
0
100
AcDbLine
 62
7
  6
CONTINUOUS
 10
278.4052964623
 20
271.4674025467
 11
278.9052964623
 21
271.4674025467
  0
LINE
  5
3EC
100
AcDbEntity
  8
0
100
AcDbLine
 62
7
  6
CONTINUOUS
 10
278.4052964623
 20
271.6883730786
 11
278.9052964623
 21
271.6883730786
  0
LINE
  5
3ED
100
AcDbEntity
  8
0
100
AcDbLine
 62
7
  6
CONTINUOUS
 10
278.4052964623
 20
271.8642096463
 11
278.9052964623
 21
271.8642096463
  0
LINE
  5
3EE
100
AcDbEntity
  8
0
100
AcDbLine
 62
7
  6
CONTINUOUS
 10
278.4052964623
 20
271.905582763
 11
278.9052964623
 21
271.905582763
  0
LINE
  5
3EF
100
AcDbEntity
  8
0
100
AcDbLine
 62
7
  6
CONTINUOUS
 10
278.4052964623
 20
273.0176357615
 11
278.9052964623
 21
273.0176357615
  0
LINE
  5
3F0
100
AcDbEntity
  8
0
100
AcDbLine
 62
7
  6
CONTINUOUS
 10
278.4052964623
 20
276.0176357615
 11
278.9052964623
 21
276.0176357615
  0
LINE
  5
3F1
100
AcDbEntity
  8
BEZUGSACHSEN
100
AcDbLine
 62
7
  6
CONTINUOUS
 10
282.9345042492
 20
85.0968435485
 11
280.4052964623
 21
82.5676357615
  0
LINE
  5
3F2
100
AcDbEntity
  8
KONSTRUKTIONSELEMENTE
100
AcDbLine
 62
7
  6
CONTINUOUS
 10
279.4052964623
 20
77.8176357615
 11
278.1552964623
 21
76.5676357615
  0
LINE
  5
3F3
100
AcDbEntity
  8
RUNDUNGEN
100
AcDbLine
 62
7
  6
CONTINUOUS
 10
276.4052964623
 20
281.852851361
 11
270.4052964623
 21
281.852851361
  0
LWPOLYLINE
  5
3F4
100
AcDbEntity
  8
RUNDUNGEN
100
AcDbPolyline
 62
7
  6
CONTINUOUS
 90
7
 70
0
 10
95.529881643
 20
35.3182856368
 10
95.5323491667
 20
34.9090383547
 10
95.5441704194
 20
34.3327005624
 10
95.5659513862
 20
33.7514342118
 10
95.5978622858
 20
33.1663118882
 10
95.6400078109
 20
32.578390599
 10
95.6787252253
 20
32.1324126557
  0
LWPOLYLINE
  5
3F5
100
AcDbEntity
  8
BEZUGSACHSEN
100
AcDbPolyline
 62
7
  6
CONTINUOUS
 90
7
 70
0
 10
95.6787252253
 20
38.5041586182
 10
95.6400078109
 20
38.0581806749
 10
95.5978622858
 20
37.4702593856
 10
95.5659513862
 20
36.885137062
 10
95.5441704194
 20
36.3038707115
 10
95.5323491667
 20
35.7275329192
 10
95.529881643
 20
35.3182856368
  0
LWPOLYLINE
  5
3F6
100
AcDbEntity
  8
BEZUGSACHSEN
100
AcDbPolyline
 62
7
  6
CONTINUOUS
 90
10
 70
0
 10
103.3098603939
 20
43.2259973982
 10
102.492609834
 20
42.2981551153
 10
102.1250243899
 20
41.8868627676
 10
101.7878538372
 20
41.5203817499
 10
101.4834733365
 20
41.2042006317
 10
101.2133043244
 20
40.9406389639
 10
100.9812961031
 20
40.731915996
 10
100.783839638
 20
40.5713126369
 10
100.6207877289
 20
40.4542843251
 10
100.4932243158
 20
40.3760446823
  0
LWPOLYLINE
  5
3F7
100
AcDbEntity
  8
BEZUGSACHSEN
100
AcDbPolyline
 62
7
  6
CONTINUOUS
 90
7
 70
0
 10
106.4500400762
 20
46.4693556102
 10
105.9108225753
 20
45.9672990261
 10
105.2984157714
 20
45.3674093343
 10
104.7428334793
 20
44.7966448149
 10
104.2314768871
 20
44.2505408107
 10
103.7553321625
 20
43.7265614006
 10
103.3098603939
 20
43.2259973982
  0
LINE
  5
3F8
100
AcDbEntity
  8
BEZUGSACHSEN
100
AcDbLine
 62
7
  6
CONTINUOUS
 10
100.4932243158
 20
40.3760446823
 11
100.4560176508
 21
40.35617034
  0
LWPOLYLINE
  5
3F9
100
AcDbEntity
  8
BEZUGSACHSEN
100
AcDbPolyline
 62
7
  6
CONTINUOUS
 90
3
 70
0
 10
100.4560176508
 20
40.35617034
 10
100.4033543811
 20
40.3311500681
 10
100.3693300574
 20
40.3182856369
  0
LINE
  5
3FA
100
AcDbEntity
  8
0
100
AcDbLine
 62
7
  6
CONTINUOUS
 10
105.0791360674
 20
30.3182856369
 11
105.0791360674
 21
29.8182856369
  0
LINE
  5
3FB
100
AcDbEntity
  8
0
100
AcDbLine
 62
7
  6
CONTINUOUS
 10
105.3443011104
 20
30.3182856369
 11
105.3443011104
 21
29.8182856369
  0
LINE
  5
3FC
100
AcDbEntity
  8
0
100
AcDbLine
 62
7
  6
CONTINUOUS
 10
106.5817379353
 20
30.3182856369
 11
106.5817379353
 21
29.8182856369
  0
LINE
  5
3FD
100
AcDbEntity
  8
0
100
AcDbLine
 62
7
  6
CONTINUOUS
 10
106.8469029783
 20
30.3182856369
 11
106.8469029783
 21
29.8182856369
  0
LINE
  5
3FE
100
AcDbEntity
  8
0
100
AcDbLine
 62
7
  6
CONTINUOUS
 10
107.200456411
 20
30.3182856369
 11
107.200456411
 21
29.8182856369
  0
LINE
  5
3FF
100
AcDbEntity
  8
0
100
AcDbLine
 62
7
  6
CONTINUOUS
 10
108.2611165828
 20
30.3182856369
 11
108.2611165828
 21
29.8182856369
  0
LINE
  5
400
100
AcDbEntity
  8
0
100
AcDbLine
 62
7
  6
CONTINUOUS
 10
108.5272218376
 20
30.3182856369
 11
108.5272218376
 21
29.8182856369
  0
LINE
  5
401
100
AcDbEntity
  8
0
100
AcDbLine
 62
7
  6
CONTINUOUS
 10
108.8394020273
 20
30.3182856369
 11
108.8394020273
 21
29.8182856369
  0
LINE
  5
402
100
AcDbEntity
  8
0
100
AcDbLine
 62
7
  6
CONTINUOUS
 10
109.1525224288
 20
30.3182856369
 11
109.1525224288
 21
29.8182856369
  0
LINE
  5
403
100
AcDbEntity
  8
0
100
AcDbLine
 62
7
  6
CONTINUOUS
 10
109.332120097
 20
30.3182856369
 11
109.332120097
 21
29.8182856369
  0
LINE
  5
404
100
AcDbEntity
  8
0
100
AcDbLine
 62
7
  6
CONTINUOUS
 10
109.5126581035
 20
30.3182856369
 11
109.5126581035
 21
29.8182856369
  0
LINE
  5
405
100
AcDbEntity
  8
0
100
AcDbLine
 62
7
  6
CONTINUOUS
 10
109.6038672554
 20
30.3182856369
 11
109.6038672554
 21
29.8182856369
  0
LINE
  5
406
100
AcDbEntity
  8
0
100
AcDbLine
 62
7
  6
CONTINUOUS
 10
109.651822614
 20
30.3182856369
 11
109.651822614
 21
29.8182856369
  0
LINE
  5
407
100
AcDbEntity
  8
0
100
AcDbLine
 62
7
  6
CONTINUOUS
 10
109.7223452076
 20
30.3182856369
 11
109.7223452076
 21
29.8182856369
  0
LINE
  5
408
100
AcDbEntity
  8
0
100
AcDbLine
 62
7
  6
CONTINUOUS
 10
109.8088527942
 20
30.3182856369
 11
109.8088527942
 21
29.8182856369
  0
LINE
  5
409
100
AcDbEntity
  8
0
100
AcDbLine
 62
7
  6
CONTINUOUS
 10
109.9404953567
 20
30.3182856369
 11
109.9404953567
 21
29.8182856369
  0
LINE
  5
40A
100
AcDbEntity
  8
0
100
AcDbLine
 62
7
  6
CONTINUOUS
 10
110.1614658886
 20
30.3182856369
 11
110.1614658886
 21
29.8182856369
  0
LINE
  5
40B
100
AcDbEntity
  8
0
100
AcDbLine
 62
7
  6
CONTINUOUS
 10
110.4275713964
 20
30.3182856369
 11
110.4275713964
 21
29.8182856369
  0
LINE
  5
40C
100
AcDbEntity
  8
0
100
AcDbLine
 62
7
  6
CONTINUOUS
 10
110.7397513331
 20
30.3182856369
 11
110.7397513331
 21
29.8182856369
  0
LINE
  5
40D
100
AcDbEntity
  8
0
100
AcDbLine
 62
7
  6
CONTINUOUS
 10
111.0528717346
 20
30.3182856369
 11
111.0528717346
 21
29.8182856369
  0
LINE
  5
40E
100
AcDbEntity
  8
0
100
AcDbLine
 62
7
  6
CONTINUOUS
 10
111.2324696557
 20
30.3182856369
 11
111.2324696557
 21
29.8182856369
  0
LINE
  5
40F
100
AcDbEntity
  8
0
100
AcDbLine
 62
7
  6
CONTINUOUS
 10
111.3744549283
 20
30.3182856369
 11
111.3744549283
 21
29.8182856369
  0
LWPOLYLINE
  5
410
100
AcDbEntity
  8
RUNDUNGEN
100
AcDbPolyline
 62
7
  6
CONTINUOUS
 90
21
 70
0
 10
106.4500542558
 20
24.1671902659
 10
107.3219315177
 20
23.4190346178
 10
108.4100255311
 20
22.593922267
 10
109.6058814272
 20
21.8042078818
 10
110.9019429663
 20
21.0656612961
 10
112.2909947561
 20
20.3907998261
 10
113.7640107114
 20
19.7903045807
 10
115.3105628302
 20
19.2730456378
 10
116.9190463862
 20
18.8456829344
 10
118.5771550726
 20
18.5127042295
 10
120.2712589967
 20
18.2762732907
 10
121.9885119374
 20
18.1363948317
 10
123.7165812574
 20
18.0909428365
 10
125.4444904536
 20
18.1374176622
 10
127.1613396488
 20
18.278330939
 10
128.8548028977
 20
18.5157648677
 10
130.5120777738
 20
18.8496843794
 10
132.1195991368
 20
19.2779053741
 10
133.6651150125
 20
19.7959300277
 10
135.1370716753
 20
20.3970998958
 10
135.5554014513
 20
20.6006742481
  0
LWPOLYLINE
  5
411
100
AcDbEntity
  8
RUNDUNGEN
100
AcDbPolyline
 62
7
  6
CONTINUOUS
 90
8
 70
0
 10
102.4180010741
 20
28.4225521878
 10
103.1977623015
 20
27.537608558
 10
103.6412345397
 20
27.0374275072
 10
104.1259704046
 20
26.5009505355
 10
104.6563516134
 20
25.9309439659
 10
105.2381544344
 20
25.3298759158
 10
105.8786964055
 20
24.6999576697
 10
106.4500381388
 20
24.1672174246
  0
LINE
  5
412
100
AcDbEntity
  8
0
100
AcDbLine
 62
7
  6
CONTINUOUS
 10
111.6415009008
 20
30.3182856369
 11
111.6415009008
 21
29.8182856369
  0
LINE
  5
413
100
AcDbEntity
  8
0
100
AcDbLine
 62
7
  6
CONTINUOUS
 10
111.9988153076
 20
30.3182856369
 11
111.9988153076
 21
29.8182856369
  0
LINE
  5
414
100
AcDbEntity
  8
0
100
AcDbLine
 62
7
  6
CONTINUOUS
 10
112.2677417671
 20
30.3182856369
 11
112.2677417671
 21
29.8182856369
  0
LINE
  5
415
100
AcDbEntity
  8
0
100
AcDbLine
 62
7
  6
CONTINUOUS
 10
112.4934141172
 20
30.3182856369
 11
112.4934141172
 21
29.8182856369
  0
LINE
  5
416
100
AcDbEntity
  8
0
100
AcDbLine
 62
7
  6
CONTINUOUS
 10
112.5855635126
 20
30.3182856369
 11
112.5855635126
 21
29.8182856369
  0
LINE
  5
417
100
AcDbEntity
  8
0
100
AcDbLine
 62
7
  6
CONTINUOUS
 10
112.5893248818
 20
30.3182856369
 11
112.5893248818
 21
29.8182856369
  0
LWPOLYLINE
  5
418
100
AcDbEntity
  8
RUNDUNGEN
100
AcDbPolyline
 62
7
  6
CONTINUOUS
 90
9
 70
0
 10
100.4969038282
 20
30.2584778271
 10
100.6303837578
 20
30.1758737283
 10
100.7986905298
 20
30.0538315645
 10
100.9973006761
 20
29.8908878263
 10
101.2247025746
 20
29.6852159927
 10
101.4805665795
 20
29.4353023166
 10
101.7643181642
 20
29.1412145654
 10
102.0763576059
 20
28.8033954683
 10
102.4180010741
 20
28.4225521878
  0
LINE
  5
419
100
AcDbEntity
  8
0
100
AcDbLine
 62
7
  6
CONTINUOUS
 10
115.8423973189
 20
19.1317409761
 11
115.8423973189
 21
19.0492782509
  0
LINE
  5
41A
100
AcDbEntity
  8
0
100
AcDbLine
 62
7
  6
CONTINUOUS
 10
116.4673973189
 20
18.9656828969
 11
116.4673973189
 21
18.8404384965
  0
LINE
  5
41B
100
AcDbEntity
  8
0
100
AcDbLine
 62
7
  6
CONTINUOUS
 10
117.0923973189
 20
18.8108708805
 11
117.0923973189
 21
18.7029782717
  0
LINE
  5
41C
100
AcDbEntity
  8
0
100
AcDbLine
 62
7
  6
CONTINUOUS
 10
117.6132307516
 20
18.7062779528
 11
117.6132307516
 21
18.6559821606
  0
LINE
  5
41D
100
AcDbEntity
  8
0
100
AcDbLine
 62
7
  6
CONTINUOUS
 10
118.1340633498
 20
52.0348860811
 11
118.1340633498
 21
52.1947111848
  0
LINE
  5
41E
100
AcDbEntity
  8
0
100
AcDbLine
 62
7
  6
CONTINUOUS
 10
119.6444803343
 20
30.3182856369
 11
119.6444803343
 21
29.8182856369
  0
LINE
  5
41F
100
AcDbEntity
  8
RUNDUNGEN
100
AcDbLine
 62
7
  6
CONTINUOUS
 10
134.3770575459
 20
20.435068812
 11
154.8461534353
 21
23.3118126339
  0
LWPOLYLINE
  5
420
100
AcDbEntity
  8
RUNDUNGEN
100
AcDbPolyline
 62
7
  6
CONTINUOUS
 90
3
 70
0
 10
100.3692469142
 20
30.3182856369
 10
100.4039363005
 20
30.3051694836
 10
100.4969038282
 20
30.2584778271
  0
LINE
  5
421
100
AcDbEntity
  8
0
100
AcDbLine
 62
7
  6
CONTINUOUS
 10
121.1444803343
 20
30.3182856369
 11
121.1444803343
 21
29.8182856369
  0
LINE
  5
422
100
AcDbEntity
  8
0
100
AcDbLine
 62
7
  6
CONTINUOUS
 10
121.1548973189
 20
18.2042967263
 11
121.1548973189
 21
18.0049947473
  0
LINE
  5
423
100
AcDbEntity
  8
0
100
AcDbLine
 62
7
  6
CONTINUOUS
 10
121.4569803939
 20
30.3182856369
 11
121.4569803939
 21
29.8182856369
  0
LINE
  5
424
100
AcDbEntity
  8
0
100
AcDbLine
 62
7
  6
CONTINUOUS
 10
121.6757296191
 20
52.4746988275
 11
121.6757296191
 21
52.6725867496
  0
LINE
  5
425
100
AcDbEntity
  8
0
100
AcDbLine
 62
7
  6
CONTINUOUS
 10
121.7069803343
 20
30.3182856369
 11
121.7069803343
 21
29.8182856369
  0
LINE
  5
426
100
AcDbEntity
  8
0
100
AcDbLine
 62
7
  6
CONTINUOUS
 10
121.8944803343
 20
30.3182856369
 11
121.8944803343
 21
29.8182856369
  0
LINE
  5
427
100
AcDbEntity
  8
0
100
AcDbLine
 62
7
  6
CONTINUOUS
 10
121.9569802747
 20
30.3182856369
 11
121.9569802747
 21
29.8182856369
  0
LINE
  5
428
100
AcDbEntity
  8
0
100
AcDbLine
 62
7
  6
CONTINUOUS
 10
122.0194803939
 20
30.3182856369
 11
122.0194803939
 21
29.8182856369
  0
LINE
  5
429
100
AcDbEntity
  8
0
100
AcDbLine
 62
7
  6
CONTINUOUS
 10
122.5090633498
 20
52.5138680806
 11
122.5090633498
 21
52.7183582156
  0
LINE
  5
42A
100
AcDbEntity
  8
0
100
AcDbLine
 62
7
  6
CONTINUOUS
 10
122.5194802747
 20
30.3182856369
 11
122.5194802747
 21
29.8182856369
  0
LINE
  5
42B
100
AcDbEntity
  8
0
100
AcDbLine
 62
7
  6
CONTINUOUS
 10
122.8944804535
 20
30.3182856369
 11
122.8944804535
 21
29.8182856369
  0
LINE
  5
42C
100
AcDbEntity
  8
0
100
AcDbLine
 62
7
  6
CONTINUOUS
 10
122.9569802151
 20
30.3182856369
 11
122.9569802151
 21
29.8182856369
  0
LINE
  5
42D
100
AcDbEntity
  8
0
100
AcDbLine
 62
7
  6
CONTINUOUS
 10
123.0819804535
 20
30.3182856369
 11
123.0819804535
 21
29.8182856369
  0
LINE
  5
42E
100
AcDbEntity
  8
0
100
AcDbLine
 62
7
  6
CONTINUOUS
 10
123.2694804535
 20
30.3182856369
 11
123.2694804535
 21
29.8182856369
  0
LINE
  5
42F
100
AcDbEntity
  8
0
100
AcDbLine
 62
7
  6
CONTINUOUS
 10
123.5194802151
 20
30.3182856369
 11
123.5194802151
 21
29.8182856369
  0
LINE
  5
430
100
AcDbEntity
  8
0
100
AcDbLine
 62
7
  6
CONTINUOUS
 10
123.7694803343
 20
30.3182856369
 11
123.7694803343
 21
29.8182856369
  0
LINE
  5
431
100
AcDbEntity
  8
0
100
AcDbLine
 62
7
  6
CONTINUOUS
 10
124.0194804535
 20
30.3182856369
 11
124.0194804535
 21
29.8182856369
  0
LINE
  5
432
100
AcDbEntity
  8
0
100
AcDbLine
 62
7
  6
CONTINUOUS
 10
124.2069804535
 20
30.3182856369
 11
124.2069804535
 21
29.8182856369
  0
LINE
  5
433
100
AcDbEntity
  8
0
100
AcDbLine
 62
7
  6
CONTINUOUS
 10
124.3319803343
 20
30.3182856369
 11
124.3319803343
 21
29.8182856369
  0
LINE
  5
434
100
AcDbEntity
  8
0
100
AcDbLine
 62
7
  6
CONTINUOUS
 10
124.3944804535
 20
30.3182856369
 11
124.3944804535
 21
29.8182856369
  0
LINE
  5
435
100
AcDbEntity
  8
0
100
AcDbLine
 62
7
  6
CONTINUOUS
 10
124.7694804535
 20
30.3182856369
 11
124.7694804535
 21
29.8182856369
  0
LINE
  5
436
100
AcDbEntity
  8
0
100
AcDbLine
 62
7
  6
CONTINUOUS
 10
124.9048973189
 20
18.1229044592
 11
124.9048973189
 21
17.9182130583
  0
LINE
  5
437
100
AcDbEntity
  8
0
100
AcDbLine
 62
7
  6
CONTINUOUS
 10
125.2694803343
 20
30.3182856369
 11
125.2694803343
 21
29.8182856369
  0
LINE
  5
438
100
AcDbEntity
  8
0
100
AcDbLine
 62
7
  6
CONTINUOUS
 10
125.7382310496
 20
18.1615269142
 11
125.7382310496
 21
17.9639845243
  0
LINE
  5
439
100
AcDbEntity
  8
0
100
AcDbLine
 62
7
  6
CONTINUOUS
 10
126.2590633498
 20
52.4322961752
 11
126.2590633498
 21
52.6315765265
  0
LINE
  5
43A
100
AcDbEntity
  8
0
100
AcDbLine
 62
7
  6
CONTINUOUS
 10
126.7694803343
 20
30.3182856369
 11
126.7694803343
 21
29.8182856369
  0
LINE
  5
43B
100
AcDbEntity
  8
0
100
AcDbLine
 62
7
  6
CONTINUOUS
 10
127.0819805728
 20
30.3182856369
 11
127.0819805728
 21
29.8182856369
  0
LINE
  5
43C
100
AcDbEntity
  8
0
100
AcDbLine
 62
7
  6
CONTINUOUS
 10
127.3319803343
 20
30.3182856369
 11
127.3319803343
 21
29.8182856369
  0
LINE
  5
43D
100
AcDbEntity
  8
0
100
AcDbLine
 62
7
  6
CONTINUOUS
 10
127.5819800959
 20
30.3182856369
 11
127.5819800959
 21
29.8182856369
  0
LINE
  5
43E
100
AcDbEntity
  8
0
100
AcDbLine
 62
7
  6
CONTINUOUS
 10
127.7069803343
 20
30.3182856369
 11
127.7069803343
 21
29.8182856369
  0
LINE
  5
43F
100
AcDbEntity
  8
0
100
AcDbLine
 62
7
  6
CONTINUOUS
 10
127.7694800959
 20
30.3182856369
 11
127.7694800959
 21
29.8182856369
  0
LINE
  5
440
100
AcDbEntity
  8
RUNDUNGEN
100
AcDbLine
 62
7
  6
CONTINUOUS
 10
150.5069803343
 20
26.8182856369
 11
135.0069803343
 21
26.8182856369
  0
LINE
  5
441
100
AcDbEntity
  8
0
100
AcDbLine
 62
7
  6
CONTINUOUS
 10
141.4454963503
 20
29.8182856369
 11
136.9470530181
 21
29.8182856369
  0
LINE
  5
442
100
AcDbEntity
  8
0
100
AcDbLine
 62
7
  6
CONTINUOUS
 10
127.7694800959
 20
29.8182856369
 11
125.2694803343
 21
29.8182856369
  0
LINE
  5
443
100
AcDbEntity
  8
0
100
AcDbLine
 62
7
  6
CONTINUOUS
 10
124.7694804535
 20
29.8182856369
 11
122.5194802747
 21
29.8182856369
  0
LINE
  5
444
100
AcDbEntity
  8
0
100
AcDbLine
 62
7
  6
CONTINUOUS
 10
122.0194803939
 20
29.8182856369
 11
119.6444803343
 21
29.8182856369
  0
LINE
  5
445
100
AcDbEntity
  8
0
100
AcDbLine
 62
7
  6
CONTINUOUS
 10
112.5855635126
 20
29.8182856369
 11
105.0791360674
 21
29.8182856369
  0
LINE
  5
446
100
AcDbEntity
  8
RUNDUNGEN
100
AcDbLine
 62
7
  6
CONTINUOUS
 10
154.7069803343
 20
30.0682856369
 11
152.5069803343
 21
30.0682856369
  0
LINE
  5
447
100
AcDbEntity
  8
RUNDUNGEN
100
AcDbLine
 62
7
  6
CONTINUOUS
 10
97.6700687758
 20
30.3182856369
 11
149.7438923059
 21
30.3182856369
  0
LINE
  5
448
100
AcDbEntity
  8
0
100
AcDbLine
 62
7
  6
CONTINUOUS
 10
129.2798973189
 20
18.6014159106
 11
129.2798973189
 21
18.4418600891
  0
LINE
  5
449
100
AcDbEntity
  8
0
100
AcDbLine
 62
7
  6
CONTINUOUS
 10
129.8007299171
 20
51.9302143125
 11
129.8007299171
 21
51.9805891132
  0
LINE
  5
44A
100
AcDbEntity
  8
0
100
AcDbLine
 62
7
  6
CONTINUOUS
 10
130.3215633498
 20
51.8252730936
 11
130.3215633498
 21
51.9335930021
  0
LINE
  5
44B
100
AcDbEntity
  8
0
100
AcDbLine
 62
7
  6
CONTINUOUS
 10
130.9465633498
 20
51.6711460714
 11
130.9465633498
 21
51.7961327774
  0
LINE
  5
44C
100
AcDbEntity
  8
0
100
AcDbLine
 62
7
  6
CONTINUOUS
 10
131.5715633498
 20
51.5046548958
 11
131.5715633498
 21
51.587293023
  0
LINE
  5
44D
100
AcDbEntity
  8
RUNDUNGEN
100
AcDbLine
 62
7
  6
CONTINUOUS
 10
146.9195679789
 20
30.2598775745
 11
146.9577852331
 21
30.2803203148
  0
LWPOLYLINE
  5
44E
100
AcDbEntity
  8
RUNDUNGEN
100
AcDbPolyline
 62
7
  6
CONTINUOUS
 90
3
 70
0
 10
146.9577852331
 20
30.2803203148
 10
147.0115082315
 20
30.3058110444
 10
147.0447231924
 20
30.3182856369
  0
LINE
  5
44F
100
AcDbEntity
  8
0
100
AcDbLine
 62
7
  6
CONTINUOUS
 10
136.9469803343
 20
30.3182856369
 11
136.9469803343
 21
29.8182856369
  0
LINE
  5
450
100
AcDbEntity
  8
0
100
AcDbLine
 62
7
  6
CONTINUOUS
 10
139.6254963503
 20
30.3182856369
 11
139.6254963503
 21
29.8182856369
  0
LINE
  5
451
100
AcDbEntity
  8
0
100
AcDbLine
 62
7
  6
CONTINUOUS
 10
141.4454963503
 20
30.3182856369
 11
141.4454963503
 21
29.8182856369
  0
LWPOLYLINE
  5
452
100
AcDbEntity
  8
RUNDUNGEN
100
AcDbPolyline
 62
7
  6
CONTINUOUS
 90
10
 70
0
 10
144.2233233351
 20
27.5456930355
 10
145.0023647548
 20
28.4297628268
 10
145.3437082527
 20
28.8101142861
 10
145.6554508902
 20
29.1473773433
 10
145.9388797689
 20
29.4408299244
 10
146.1943667447
 20
29.6900238651
 10
146.4213043157
 20
29.8948935042
 10
146.6193431286
 20
30.0569770855
 10
146.7869414637
 20
30.1781297381
 10
146.9195679789
 20
30.2598775745
  0
LWPOLYLINE
  5
453
100
AcDbEntity
  8
RUNDUNGEN
100
AcDbPolyline
 62
7
  6
CONTINUOUS
 90
3
 70
0
 10
143.5747122651
 20
26.8182856369
 10
143.7803343108
 20
27.0459456215
 10
144.2233233351
 20
27.5456930355
  0
LINE
  5
454
100
AcDbEntity
  8
BEZUGSACHSEN
100
AcDbLine
 62
7
  6
CONTINUOUS
 10
97.6700687758
 20
40.3182856369
 11
149.7438923059
 21
40.3182856369
  0
LINE
  5
455
100
AcDbEntity
  8
RUNDUNGEN
100
AcDbLine
 62
7
  6
CONTINUOUS
 10
152.5069803343
 20
40.5682856369
 11
154.7069803343
 21
40.5682856369
  0
LINE
  5
456
100
AcDbEntity
  8
RUNDUNGEN
100
AcDbLine
 62
7
  6
CONTINUOUS
 10
135.0069803343
 20
43.8182856369
 11
150.5069803343
 21
43.8182856369
  0
LWPOLYLINE
  5
457
100
AcDbEntity
  8
BEZUGSACHSEN
100
AcDbPolyline
 62
7
  6
CONTINUOUS
 90
3
 70
0
 10
147.0446446152
 20
40.3182856369
 10
147.0119816534
 20
40.3305568097
 10
146.9229764834
 20
40.3748043512
  0
LINE
  5
458
100
AcDbEntity
  8
RUNDUNGEN
100
AcDbLine
 62
7
  6
CONTINUOUS
 10
154.8461534353
 20
47.3247586399
 11
134.3770575459
 21
50.2015024618
  0
LWPOLYLINE
  5
459
100
AcDbEntity
  8
BEZUGSACHSEN
100
AcDbPolyline
 62
7
  6
CONTINUOUS
 90
9
 70
0
 10
146.9229764834
 20
40.3748043512
 10
146.7960963569
 20
40.4523437459
 10
146.6336247058
 20
40.5686337373
 10
146.4367262036
 20
40.7284384638
 10
146.205247631
 20
40.9363335188
 10
145.9355856118
 20
41.1990598692
 10
145.6316915223
 20
41.5144359888
 10
145.2949743798
 20
41.8801897163
 10
144.9278318282
 20
42.2908365876
  0
LWPOLYLINE
  5
45A
100
AcDbEntity
  8
BEZUGSACHSEN
100
AcDbPolyline
 62
7
  6
CONTINUOUS
 90
7
 70
0
 10
151.8840786169
 20
35.3182856369
 10
151.8814485376
 20
35.7408394019
 10
151.8694042061
 20
36.3171483832
 10
151.8473979718
 20
36.8983582952
 10
151.8152667729
 20
37.4834034088
 10
151.7729035786
 20
38.07122046
 10
151.7352362106
 20
38.5041578255
  0
LINE
  5
45B
100
AcDbEntity
  8
RUNDUNGEN
100
AcDbLine
 62
7
  6
CONTINUOUS
 10
151.5069803343
 20
42.8182856369
 11
151.5069803343
 21
41.5682856369
  0
LINE
  5
45C
100
AcDbEntity
  8
RUNDUNGEN
100
AcDbLine
 62
7
  6
CONTINUOUS
 10
151.5069803343
 20
29.0682856369
 11
151.5069803343
 21
27.8182856369
  0
LWPOLYLINE
  5
45D
100
AcDbEntity
  8
RUNDUNGEN
100
AcDbPolyline
 62
7
  6
CONTINUOUS
 90
7
 70
0
 10
151.7352362106
 20
32.1324134483
 10
151.7729035786
 20
32.565350814
 10
151.8152667729
 20
33.1531678651
 10
151.8473979718
 20
33.7382129788
 10
151.8694042062
 20
34.3194228909
 10
151.8814485376
 20
34.8957318722
 10
151.8840786169
 20
35.3182856369
  0
LWPOLYLINE
  5
45E
100
AcDbEntity
  8
BEZUGSACHSEN
100
AcDbPolyline
 62
7
  6
CONTINUOUS
 90
21
 70
0
 10
135.5554014513
 20
50.0358970258
 10
135.1370716753
 20
50.239471378
 10
133.6651150125
 20
50.8406412462
 10
132.1195991368
 20
51.3586658998
 10
130.5120777738
 20
51.7868868944
 10
128.8548028977
 20
52.1208064062
 10
127.1613396488
 20
52.3582403348
 10
125.4444904536
 20
52.4991536117
 10
123.7165812574
 20
52.5456284374
 10
121.9885119374
 20
52.5001764422
 10
120.2712589967
 20
52.3602979832
 10
118.5771550726
 20
52.1238670443
 10
116.9190463862
 20
51.7908883394
 10
115.3105628302
 20
51.363525636
 10
113.7640107114
 20
50.8462666931
 10
112.2909947561
 20
50.2457714478
 10
110.9019429663
 20
49.5709099777
 10
109.6058814272
 20
48.8323633921
 10
108.4100255311
 20
48.0426490069
 10
107.3219315177
 20
47.217536656
 10
106.4500542558
 20
46.4693810079
  0
LWPOLYLINE
  5
45F
100
AcDbEntity
  8
BEZUGSACHSEN
100
AcDbPolyline
 62
7
  6
CONTINUOUS
 90
4
 70
0
 10
144.9278318282
 20
42.2908365876
 10
144.11147211
 20
43.2176534377
 10
143.6664555749
 20
43.7178408809
 10
143.5752200331
 20
43.8182856369
  0
LINE
  5
460
100
AcDbEntity
  8
RUNDUNGEN
100
AcDbLine
 62
7
  6
CONTINUOUS
 10
155.7069803343
 20
24.3020807027
 11
155.7069803343
 21
29.0682856369
  0
LINE
  5
461
100
AcDbEntity
  8
RUNDUNGEN
100
AcDbLine
 62
7
  6
CONTINUOUS
 10
155.7069803343
 20
41.5682856369
 11
155.7069803343
 21
46.3344905712
  0
ARC
  5
462
100
AcDbEntity
  8
0
100
AcDbCircle
 62
7
  6
CONTINUOUS
 10
123.7069803343
 20
253.7676357615
 40
15.0
100
AcDbArc
 50
321.7807975273
 51
328.6648669862
  0
ARC
  5
463
100
AcDbEntity
  8
0
100
AcDbCircle
 62
7
  6
CONTINUOUS
 10
123.7069803343
 20
253.7676357615
 40
15.0
100
AcDbArc
 50
199.9063616
 51
218.2192914008
  0
ARC
  5
464
100
AcDbEntity
  8
RUNDUNGEN
100
AcDbCircle
 62
7
  6
CONTINUOUS
 10
123.7069803343
 20
253.7676357615
 40
15.0
100
AcDbArc
 50
341.7270294354
 51
199.9063616
  0
ARC
  5
465
100
AcDbEntity
  8
BEZUGSACHSEN
100
AcDbCircle
 62
7
  6
CONTINUOUS
 10
144.7069803343
 20
226.7676357615
 40
6.0
100
AcDbArc
 50
104.131931334
 51
179.9588212219
  0
ARC
  5
466
100
AcDbEntity
  8
BEZUGSACHSEN
100
AcDbCircle
 62
7
  6
CONTINUOUS
 10
102.7069803343
 20
226.7676357615
 40
6.0
100
AcDbArc
 50
0.0411792277
 51
75.868068666
  0
ARC
  5
467
100
AcDbEntity
  8
BEZUGSACHSEN
100
AcDbCircle
 62
7
  6
CONTINUOUS
 10
149.8840786885
 20
253.8475878642
 40
2.0
100
AcDbArc
 50
337.4999821453
 51
22.4999747495
  0
ARC
  5
468
100
AcDbEntity
  8
BEZUGSACHSEN
100
AcDbCircle
 62
7
  6
CONTINUOUS
 10
142.302901521
 20
272.1501686006
 40
2.0
100
AcDbArc
 50
22.5
 51
67.5
  0
ARC
  5
469
100
AcDbEntity
  8
RUNDUNGEN
100
AcDbCircle
 62
7
  6
CONTINUOUS
 10
142.302901521
 20
272.1501686006
 40
2.0
100
AcDbArc
 50
22.5
 51
67.5
  0
ARC
  5
46A
100
AcDbEntity
  8
RUNDUNGEN
100
AcDbCircle
 62
7
  6
CONTINUOUS
 10
123.7069803343
 20
279.852851361
 40
2.0
100
AcDbArc
 50
67.5
 51
112.5
  0
ARC
  5
46B
100
AcDbEntity
  8
BEZUGSACHSEN
100
AcDbCircle
 62
7
  6
CONTINUOUS
 10
105.1110591476
 20
272.1501686006
 40
2.0
100
AcDbArc
 50
112.5
 51
157.5
  0
ARC
  5
46C
100
AcDbEntity
  8
RUNDUNGEN
100
AcDbCircle
 62
7
  6
CONTINUOUS
 10
105.1110591476
 20
272.1501686006
 40
2.0
100
AcDbArc
 50
112.5
 51
157.5
  0
ARC
  5
46D
100
AcDbEntity
  8
BEZUGSACHSEN
100
AcDbCircle
 62
7
  6
CONTINUOUS
 10
97.529881643
 20
253.8475870501
 40
2.0
100
AcDbArc
 50
157.5000000065
 51
202.5000000046
  0
ARC
  5
46E
100
AcDbEntity
  8
0
100
AcDbCircle
 62
7
  6
CONTINUOUS
 10
140.2769803343
 20
267.6032273526
 40
1.51
100
AcDbArc
 50
39.298963631
 51
222.6494288323
  0
ARC
  5
46F
100
AcDbEntity
  8
0
100
AcDbCircle
 62
7
  6
CONTINUOUS
 10
138.4569803343
 20
269.4232273526
 40
1.51
100
AcDbArc
 50
39.298963631
 51
222.6494288323
  0
ARC
  5
470
100
AcDbEntity
  8
RUNDUNGEN
100
AcDbCircle
 62
7
  6
CONTINUOUS
 10
101.7069803343
 20
236.7676357615
 40
1.5
100
AcDbArc
 50
180.0
 51
270.0
  0
ARC
  5
471
100
AcDbEntity
  8
RUNDUNGEN
100
AcDbCircle
 62
7
  6
CONTINUOUS
 10
145.7069803343
 20
236.7676357615
 40
1.5
100
AcDbArc
 50
270.0
 51
360.0
  0
ARC
  5
472
100
AcDbEntity
  8
0
100
AcDbCircle
 62
7
  6
CONTINUOUS
 10
140.2769803343
 20
267.6032273526
 40
1.06
100
AcDbArc
 50
147.5317819729
 51
233.1352001031
  0
ARC
  5
473
100
AcDbEntity
  8
0
100
AcDbCircle
 62
7
  6
CONTINUOUS
 10
140.2769803343
 20
267.6032273526
 40
1.06
100
AcDbArc
 50
36.8647998969
 51
122.8445808202
  0
ARC
  5
474
100
AcDbEntity
  8
0
100
AcDbCircle
 62
7
  6
CONTINUOUS
 10
138.4569803343
 20
269.4232273526
 40
1.06
100
AcDbArc
 50
45.8930494659
 51
233.1352001031
  0
ARC
  5
475
100
AcDbEntity
  8
BEZUGSACHSEN
100
AcDbCircle
 62
7
  6
CONTINUOUS
 10
99.2069803343
 20
241.9593348313
 40
1.0000000005
100
AcDbArc
 50
0.0000013161
 51
22.5000012159
  0
ARC
  5
476
100
AcDbEntity
  8
BEZUGSACHSEN
100
AcDbCircle
 62
7
  6
CONTINUOUS
 10
102.3929865627
 20
234.2676359226
 40
0.9999999707
100
AcDbArc
 50
22.4999946856
 51
90.000008393
  0
ARC
  5
477
100
AcDbEntity
  8
BEZUGSACHSEN
100
AcDbCircle
 62
7
  6
CONTINUOUS
 10
148.2069803343
 20
241.9593440167
 40
0.999999873
100
AcDbArc
 50
157.5004850075
 51
180.0005249664
  0
ARC
  5
478
100
AcDbEntity
  8
BEZUGSACHSEN
100
AcDbCircle
 62
7
  6
CONTINUOUS
 10
145.0209716326
 20
234.2676388046
 40
0.9999994467
100
AcDbArc
 50
89.9998498931
 51
157.5001036409
  0
ARC
  5
479
100
AcDbEntity
  8
RUNDUNGEN
100
AcDbCircle
 62
7
  6
CONTINUOUS
 10
116.2069803343
 20
246.4676357615
 40
0.5
100
AcDbArc
 50
180.0
 51
270.0
  0
ARC
  5
47A
100
AcDbEntity
  8
RUNDUNGEN
100
AcDbCircle
 62
7
  6
CONTINUOUS
 10
155.2069803343
 20
246.4676357615
 40
0.5
100
AcDbArc
 50
270.0
 51
360.0
  0
ARC
  5
47B
100
AcDbEntity
  8
RUNDUNGEN
100
AcDbCircle
 62
7
  6
CONTINUOUS
 10
155.2069803343
 20
248.5676357615
 40
0.5
100
AcDbArc
 50
0.0
 51
90.0
  0
ARC
  5
47C
100
AcDbEntity
  8
RUNDUNGEN
100
AcDbCircle
 62
7
  6
CONTINUOUS
 10
116.2069803343
 20
248.5676357615
 40
0.5
100
AcDbArc
 50
90.0
 51
180.0
  0
ARC
  5
47D
100
AcDbEntity
  8
0
100
AcDbCircle
 62
7
  6
CONTINUOUS
 10
143.3922932646
 20
235.6006314386
 40
145.1996496953
100
AcDbArc
 50
358.4285327275
 51
358.6804854377
  0
ARC
  5
47E
100
AcDbEntity
  8
0
100
AcDbCircle
 62
7
  6
CONTINUOUS
 10
152.7458594636
 20
246.2664667718
 40
137.6130193579
100
AcDbArc
 50
355.0023288179
 51
355.2690478875
  0
ARC
  5
47F
100
AcDbEntity
  8
0
100
AcDbCircle
 62
7
  6
CONTINUOUS
 10
155.6856401324
 20
245.5842770677
 40
134.0996148928
100
AcDbArc
 50
355.1636239464
 51
355.3790813036
  0
ARC
  5
480
100
AcDbEntity
  8
0
100
AcDbCircle
 62
7
  6
CONTINUOUS
 10
179.6018672823
 20
256.1299990626
 40
113.030602161
100
AcDbArc
 50
347.0332877546
 51
348.0191504344
  0
ARC
  5
481
100
AcDbEntity
  8
0
100
AcDbCircle
 62
7
  6
CONTINUOUS
 10
184.1169391438
 20
256.3490204914
 40
108.159099527
100
AcDbArc
 50
347.1196858483
 51
347.352990157
  0
ARC
  5
482
100
AcDbEntity
  8
0
100
AcDbCircle
 62
7
  6
CONTINUOUS
 10
188.0208686034
 20
255.5400527187
 40
104.6717268195
100
AcDbArc
 50
346.583266281
 51
347.3784518118
  0
ARC
  5
483
100
AcDbEntity
  8
0
100
AcDbCircle
 62
7
  6
CONTINUOUS
 10
193.2136346175
 20
254.2539608999
 40
98.8242499271
100
AcDbArc
 50
346.6808687831
 51
346.9343695305
  0
ARC
  5
484
100
AcDbEntity
  8
0
100
AcDbCircle
 62
7
  6
CONTINUOUS
 10
198.1656609956
 20
253.1363261726
 40
94.2460643939
100
AcDbArc
 50
346.2701957861
 51
346.5736656784
  0
ARC
  5
485
100
AcDbEntity
  8
0
100
AcDbCircle
 62
7
  6
CONTINUOUS
 10
233.3004117632
 20
248.1326287155
 40
58.8017191207
100
AcDbArc
 50
343.164051808
 51
343.342766134
  0
ARC
  5
486
100
AcDbEntity
  8
0
100
AcDbCircle
 62
7
  6
CONTINUOUS
 10
91.9293501257
 20
288.3493880674
 40
205.2320587973
100
AcDbArc
 50
344.138552596
 51
344.32371844
  0
ARC
  5
487
100
AcDbEntity
  8
0
100
AcDbCircle
 62
7
  6
CONTINUOUS
 10
101.4005755118
 20
285.983452787
 40
194.9650460752
100
AcDbArc
 50
344.0040337625
 51
344.199075656
  0
ARC
  5
488
100
AcDbEntity
  8
0
100
AcDbCircle
 62
7
  6
CONTINUOUS
 10
112.3637039728
 20
282.3089250641
 40
184.0462314971
100
AcDbArc
 50
344.219484244
 51
344.3914884834
  0
ARC
  5
489
100
AcDbEntity
  8
0
100
AcDbCircle
 62
7
  6
CONTINUOUS
 10
147.0060298395
 20
264.4822814734
 40
146.6506726803
100
AcDbArc
 50
348.0060328621
 51
348.4878516853
  0
ARC
  5
48A
100
AcDbEntity
  8
0
100
AcDbCircle
 62
7
  6
CONTINUOUS
 10
153.5071183809
 20
278.6868677073
 40
142.6824905519
100
AcDbArc
 50
341.5960638714
 51
341.8659851448
  0
ARC
  5
48B
100
AcDbEntity
  8
0
100
AcDbCircle
 62
7
  6
CONTINUOUS
 10
168.9370775723
 20
259.8166985893
 40
124.2288424267
100
AcDbArc
 50
347.3769320352
 51
348.008923901
  0
ARC
  5
48C
100
AcDbEntity
  8
0
100
AcDbCircle
 62
7
  6
CONTINUOUS
 10
171.3508322466
 20
259.1873601254
 40
121.2369474785
100
AcDbArc
 50
347.5048840994
 51
347.8675594548
  0
ARC
  5
48D
100
AcDbEntity
  8
0
100
AcDbCircle
 62
7
  6
CONTINUOUS
 10
182.6191108366
 20
271.7042078876
 40
112.6879969225
100
AcDbArc
 50
340.315520796
 51
340.6025004596
  0
ARC
  5
48E
100
AcDbEntity
  8
0
100
AcDbCircle
 62
7
  6
CONTINUOUS
 10
188.2344453422
 20
270.0649937787
 40
106.3253935015
100
AcDbArc
 50
340.026830652
 51
340.3315152636
  0
ARC
  5
48F
100
AcDbEntity
  8
0
100
AcDbCircle
 62
7
  6
CONTINUOUS
 10
197.4465079831
 20
261.0248618403
 40
96.4184946799
100
AcDbArc
 50
342.4417871726
 51
342.6405970825
  0
ARC
  5
490
100
AcDbEntity
  8
0
100
AcDbCircle
 62
7
  6
CONTINUOUS
 10
223.6921485618
 20
260.5029429908
 40
70.2935401845
100
AcDbArc
 50
338.0946961445
 51
338.3748011495
  0
ARC
  5
491
100
AcDbEntity
  8
0
100
AcDbCircle
 62
7
  6
CONTINUOUS
 10
226.4090557984
 20
259.612567893
 40
66.9275451812
100
AcDbArc
 50
337.7571483525
 51
338.0520240713
  0
ARC
  5
492
100
AcDbEntity
  8
0
100
AcDbCircle
 62
7
  6
CONTINUOUS
 10
252.289556674
 20
227.1692903367
 40
36.236566325
100
AcDbArc
 50
6.3755393538
 51
6.8835632526
  0
ARC
  5
493
100
AcDbEntity
  8
0
100
AcDbCircle
 62
7
  6
CONTINUOUS
 10
252.9334818552
 20
226.9759844953
 40
35.0668073103
100
AcDbArc
 50
6.9071886657
 51
7.4327588887
  0
ARC
  5
494
100
AcDbEntity
  8
0
100
AcDbCircle
 62
7
  6
CONTINUOUS
 10
267.749409676
 20
229.7822585618
 40
10.3048079939
100
AcDbArc
 50
172.1304826239
 51
173.9182885353
  0
ARC
  5
495
100
AcDbEntity
  8
0
100
AcDbCircle
 62
7
  6
CONTINUOUS
 10
268.0167620582
 20
229.7247578651
 40
10.0560109259
100
AcDbArc
 50
171.6034713977
 51
173.4375579063
  0
ARC
  5
496
100
AcDbEntity
  8
0
100
AcDbCircle
 62
7
  6
CONTINUOUS
 10
259.4044319617
 20
233.1056610828
 40
2.8497985113
100
AcDbArc
 50
216.6151950064
 51
219.3286512691
  0
ARC
  5
497
100
AcDbEntity
  8
0
100
AcDbCircle
 62
7
  6
CONTINUOUS
 10
259.2886593738
 20
230.3511292214
 40
2.1998247447
100
AcDbArc
 50
151.3475916108
 51
154.4603882199
  0
ARC
  5
498
100
AcDbEntity
  8
0
100
AcDbCircle
 62
7
  6
CONTINUOUS
 10
258.8846842088
 20
232.3123920145
 40
2.1993661537
100
AcDbArc
 50
220.8434484106
 51
224.6170006643
  0
ARC
  5
499
100
AcDbEntity
  8
0
100
AcDbCircle
 62
7
  6
CONTINUOUS
 10
258.5720375715
 20
232.8311800136
 40
1.941119439
100
AcDbArc
 50
162.1181667734
 51
165.3893088671
  0
ARC
  5
49A
100
AcDbEntity
  8
0
100
AcDbCircle
 62
7
  6
CONTINUOUS
 10
259.4202184102
 20
229.7400548251
 40
1.7966461069
100
AcDbArc
 50
140.8645406977
 51
145.1141026159
  0
ARC
  5
49B
100
AcDbEntity
  8
0
100
AcDbCircle
 62
7
  6
CONTINUOUS
 10
258.9054202617
 20
229.7710937496
 40
1.7844749401
100
AcDbArc
 50
141.8248899225
 51
146.0512507486
  0
ARC
  5
49C
100
AcDbEntity
  8
0
100
AcDbCircle
 62
7
  6
CONTINUOUS
 10
257.8659855449
 20
233.3987601966
 40
1.3788960782
100
AcDbArc
 50
156.0219541809
 51
160.777605078
  0
ARC
  5
49D
100
AcDbEntity
  8
0
100
AcDbCircle
 62
7
  6
CONTINUOUS
 10
248.8905991618
 20
236.0045553318
 40
41.1823291581
100
AcDbArc
 50
358.6341985955
 51
359.0783107913
  0
ARC
  5
49E
100
AcDbEntity
  8
0
100
AcDbCircle
 62
7
  6
CONTINUOUS
 10
268.2573305241
 20
239.6337847767
 40
12.8479013561
100
AcDbArc
 50
219.2070097792
 51
220.4424899955
  0
ARC
  5
49F
100
AcDbEntity
  8
0
100
AcDbCircle
 62
7
  6
CONTINUOUS
 10
268.5381155204
 20
239.6091291769
 40
12.6235498518
100
AcDbArc
 50
219.8966938993
 51
221.1673086561
  0
ARC
  5
4A0
100
AcDbEntity
  8
0
100
AcDbCircle
 62
7
  6
CONTINUOUS
 10
268.1559458601
 20
238.9579937313
 40
12.5975244617
100
AcDbArc
 50
218.0520538456
 51
219.2915428122
  0
ARC
  5
4A1
100
AcDbEntity
  8
0
100
AcDbCircle
 62
7
  6
CONTINUOUS
 10
267.7546163206
 20
238.7368361276
 40
12.1157798069
100
AcDbArc
 50
206.5527190788
 51
207.6831817121
  0
ARC
  5
4A2
100
AcDbEntity
  8
0
100
AcDbCircle
 62
7
  6
CONTINUOUS
 10
267.783490784
 20
235.8503646485
 40
11.5553745532
100
AcDbArc
 50
201.4819145939
 51
202.6201667658
  0
ARC
  5
4A3
100
AcDbEntity
  8
0
100
AcDbCircle
 62
7
  6
CONTINUOUS
 10
267.6490889912
 20
234.1936725258
 40
11.0903645074
100
AcDbArc
 50
181.7616151292
 51
183.4121624622
  0
ARC
  5
4A4
100
AcDbEntity
  8
0
100
AcDbCircle
 62
7
  6
CONTINUOUS
 10
266.1427727021
 20
238.8064935388
 40
10.5629389337
100
AcDbArc
 50
207.9677647852
 51
209.9463431283
  0
ARC
  5
4A5
100
AcDbEntity
  8
0
100
AcDbCircle
 62
7
  6
CONTINUOUS
 10
266.4576045659
 20
238.7739505071
 40
10.3653344292
100
AcDbArc
 50
209.865212746
 51
210.3689105437
  0
ARC
  5
4A6
100
AcDbEntity
  8
0
100
AcDbCircle
 62
7
  6
CONTINUOUS
 10
266.4433442741
 20
238.7657597463
 40
10.3488892329
100
AcDbArc
 50
209.3591574457
 51
209.8652019612
  0
ARC
  5
4A7
100
AcDbEntity
  8
0
100
AcDbCircle
 62
7
  6
CONTINUOUS
 10
266.433023281
 20
238.7599454377
 40
10.3370431775
100
AcDbArc
 50
209.0133279777
 51
209.3591167837
  0
ARC
  5
4A8
100
AcDbEntity
  8
0
100
AcDbCircle
 62
7
  6
CONTINUOUS
 10
262.2534199037
 20
240.4502800774
 40
10.2655833976
100
AcDbArc
 50
248.8837117746
 51
250.5985458783
  0
ARC
  5
4A9
100
AcDbEntity
  8
0
100
AcDbCircle
 62
7
  6
CONTINUOUS
 10
263.0763656613
 20
240.4688311048
 40
10.0203052015
100
AcDbArc
 50
246.2156664986
 51
247.7721351375
  0
ARC
  5
4AA
100
AcDbEntity
  8
0
100
AcDbCircle
 62
7
  6
CONTINUOUS
 10
262.5060107554
 20
240.1692918755
 40
9.7409646125
100
AcDbArc
 50
245.5829749861
 51
247.143720919
  0
ARC
  5
4AB
100
AcDbEntity
  8
0
100
AcDbCircle
 62
7
  6
CONTINUOUS
 10
265.9799196678
 20
234.6858427369
 40
9.5525409129
100
AcDbArc
 50
201.4462272703
 51
203.5180345262
  0
ARC
  5
4AC
100
AcDbEntity
  8
0
100
AcDbCircle
 62
7
  6
CONTINUOUS
 10
263.4308427078
 20
237.8521267279
 40
8.512735272
100
AcDbArc
 50
233.8260538978
 51
235.0573459984
  0
ARC
  5
4AD
100
AcDbEntity
  8
0
100
AcDbCircle
 62
7
  6
CONTINUOUS
 10
259.4357031706
 20
235.7141719822
 40
3.4746418793
100
AcDbArc
 50
221.1616979287
 51
223.535452936
  0
ARC
  5
4AE
100
AcDbEntity
  8
0
100
AcDbCircle
 62
7
  6
CONTINUOUS
 10
258.7920200336
 20
236.0937147354
 40
2.9894226261
100
AcDbArc
 50
225.5651910335
 51
228.5586785622
  0
ARC
  5
4AF
100
AcDbEntity
  8
BEZUGSACHSEN
100
AcDbCircle
 62
7
  6
CONTINUOUS
 10
258.17795227
 20
237.4566747837
 40
2.0
100
AcDbArc
 50
105.0
 51
192.0
  0
ARC
  5
4B0
100
AcDbEntity
  8
0
100
AcDbCircle
 62
7
  6
CONTINUOUS
 10
274.921582709
 20
233.1375919218
 40
15.0737894088
100
AcDbArc
 50
6.7777357458
 51
7.5928716042
  0
ARC
  5
4B1
100
AcDbEntity
  8
0
100
AcDbCircle
 62
7
  6
CONTINUOUS
 10
275.3183479239
 20
227.9864503182
 40
13.7089312015
100
AcDbArc
 50
14.4440639201
 51
15.3642762197
  0
ARC
  5
4B2
100
AcDbEntity
  8
0
100
AcDbCircle
 62
7
  6
CONTINUOUS
 10
270.4913960093
 20
230.6138309017
 40
13.1570466868
100
AcDbArc
 50
175.6197727616
 51
176.5484956479
  0
ARC
  5
4B3
100
AcDbEntity
  8
0
100
AcDbCircle
 62
7
  6
CONTINUOUS
 10
277.9175124755
 20
227.3551725083
 40
11.0710477472
100
AcDbArc
 50
18.5324806762
 51
20.2837447444
  0
ARC
  5
4B4
100
AcDbEntity
  8
0
100
AcDbCircle
 62
7
  6
CONTINUOUS
 10
277.6542431339
 20
227.283307981
 40
10.8224853116
100
AcDbArc
 50
19.376999067
 51
21.1783274699
  0
ARC
  5
4B5
100
AcDbEntity
  8
0
100
AcDbCircle
 62
7
  6
CONTINUOUS
 10
285.490668401
 20
226.1960140484
 40
5.2454743393
100
AcDbArc
 50
60.6376704857
 51
63.1025020199
  0
ARC
  5
4B6
100
AcDbEntity
  8
0
100
AcDbCircle
 62
7
  6
CONTINUOUS
 10
286.0687887504
 20
226.4067370035
 40
5.045667454
100
AcDbArc
 50
59.8012533283
 51
62.2970670486
  0
ARC
  5
4B7
100
AcDbEntity
  8
0
100
AcDbCircle
 62
7
  6
CONTINUOUS
 10
286.162565059
 20
227.8081137647
 40
4.3423494545
100
AcDbArc
 50
53.5179605597
 51
55.9492789295
  0
ARC
  5
4B8
100
AcDbEntity
  8
0
100
AcDbCircle
 62
7
  6
CONTINUOUS
 10
287.6078770798
 20
232.8236652281
 40
3.2253109184
100
AcDbArc
 50
45.6324120925
 51
48.4046654238
  0
ARC
  5
4B9
100
AcDbEntity
  8
0
100
AcDbCircle
 62
7
  6
CONTINUOUS
 10
288.0984834241
 20
233.3196300008
 40
3.0294791892
100
AcDbArc
 50
50.6191485949
 51
53.906973253
  0
ARC
  5
4BA
100
AcDbEntity
  8
0
100
AcDbCircle
 62
7
  6
CONTINUOUS
 10
270.9809733574
 20
240.4091010546
 40
20.2930687279
100
AcDbArc
 50
332.9902619418
 51
333.9972084287
  0
ARC
  5
4BB
100
AcDbEntity
  8
0
100
AcDbCircle
 62
7
  6
CONTINUOUS
 10
274.4637202652
 20
234.3935707965
 40
17.8023807581
100
AcDbArc
 50
183.454646676
 51
184.4842900508
  0
ARC
  5
4BC
100
AcDbEntity
  8
0
100
AcDbCircle
 62
7
  6
CONTINUOUS
 10
278.9669261438
 20
238.3068337902
 40
12.1239141587
100
AcDbArc
 50
325.3057245289
 51
326.5198467679
  0
ARC
  5
4BD
100
AcDbEntity
  8
0
100
AcDbCircle
 62
7
  6
CONTINUOUS
 10
278.0659208894
 20
233.7378373047
 40
12.1084256327
100
AcDbArc
 50
7.6136052785
 51
9.1401144573
  0
ARC
  5
4BE
100
AcDbEntity
  8
0
100
AcDbCircle
 62
7
  6
CONTINUOUS
 10
280.3001253884
 20
237.2073704215
 40
10.6262726219
100
AcDbArc
 50
323.4154214552
 51
325.5299878776
  0
ARC
  5
4BF
100
AcDbEntity
  8
0
100
AcDbCircle
 62
7
  6
CONTINUOUS
 10
285.9259959456
 20
236.7565376816
 40
6.5615141156
100
AcDbArc
 50
294.1143755685
 51
296.2958496146
  0
ARC
  5
4C0
100
AcDbEntity
  8
0
100
AcDbCircle
 62
7
  6
CONTINUOUS
 10
286.5115504462
 20
240.5220382141
 40
6.1989150846
100
AcDbArc
 50
299.5480311338
 51
301.4845480258
  0
ARC
  5
4C1
100
AcDbEntity
  8
0
100
AcDbCircle
 62
7
  6
CONTINUOUS
 10
286.4829527125
 20
241.2631287158
 40
6.1978946616
100
AcDbArc
 50
295.3331297572
 51
297.5421482781
  0
ARC
  5
4C2
100
AcDbEntity
  8
0
100
AcDbCircle
 62
7
  6
CONTINUOUS
 10
285.8402991233
 20
236.7329974625
 40
6.160855534
100
AcDbArc
 50
298.123869647
 51
300.1557534587
  0
ARC
  5
4C3
100
AcDbEntity
  8
0
100
AcDbCircle
 62
7
  6
CONTINUOUS
 10
287.0270521551
 20
241.1162340225
 40
6.06339523
100
AcDbArc
 50
295.8868680745
 51
298.1017166732
  0
ARC
  5
4C4
100
AcDbEntity
  8
BEZUGSACHSEN
100
AcDbCircle
 62
7
  6
CONTINUOUS
 10
273.4052964623
 20
239.7676357615
 40
4.5
100
AcDbArc
 50
197.8104167004
 51
342.1895832996
  0
ARC
  5
4C5
100
AcDbEntity
  8
RUNDUNGEN
100
AcDbCircle
 62
7
  6
CONTINUOUS
 10
288.6326406547
 20
237.4566747837
 40
2.0
100
AcDbArc
 50
348.0
 51
75.0
  0
ARC
  5
4C6
100
AcDbEntity
  8
0
100
AcDbCircle
 62
7
  6
CONTINUOUS
 10
235.6447001952
 20
247.4186240487
 40
56.3511129633
100
AcDbArc
 50
342.3379668313
 51
343.1685450365
  0
ARC
  5
4C7
100
AcDbEntity
  8
0
100
AcDbCircle
 62
7
  6
CONTINUOUS
 10
236.2833935576
 20
248.0519711359
 40
55.8492034599
100
AcDbArc
 50
342.3319000768
 51
342.5449139925
  0
ARC
  5
4C8
100
AcDbEntity
  8
0
100
AcDbCircle
 62
7
  6
CONTINUOUS
 10
237.9190672287
 20
250.2130536448
 40
54.6029829895
100
AcDbArc
 50
339.9716153502
 51
340.4461640866
  0
ARC
  5
4C9
100
AcDbEntity
  8
0
100
AcDbCircle
 62
7
  6
CONTINUOUS
 10
237.8611611061
 20
246.7172797297
 40
54.0263410424
100
AcDbArc
 50
342.1194035205
 51
342.3335199014
  0
ARC
  5
4CA
100
AcDbEntity
  8
0
100
AcDbCircle
 62
7
  6
CONTINUOUS
 10
238.4736934204
 20
247.3498373421
 40
53.5491194419
100
AcDbArc
 50
341.4582414206
 51
342.3364504819
  0
ARC
  5
4CB
100
AcDbEntity
  8
0
100
AcDbCircle
 62
7
  6
CONTINUOUS
 10
239.3463054086
 20
247.0624538539
 40
52.1350943446
100
AcDbArc
 50
341.7192179948
 51
341.9455069656
  0
ARC
  5
4CC
100
AcDbEntity
  8
0
100
AcDbCircle
 62
7
  6
CONTINUOUS
 10
240.5162398382
 20
246.669074862
 40
51.3961178284
100
AcDbArc
 50
341.2276347864
 51
341.4536758197
  0
ARC
  5
4CD
100
AcDbEntity
  8
0
100
AcDbCircle
 62
7
  6
CONTINUOUS
 10
241.0374012168
 20
246.5010314602
 40
50.3532422383
100
AcDbArc
 50
341.026134994
 51
341.6980908654
  0
ARC
  5
4CE
100
AcDbEntity
  8
0
100
AcDbCircle
 62
7
  6
CONTINUOUS
 10
247.2541831051
 20
253.7015065424
 40
45.9440626714
100
AcDbArc
 50
335.4295501853
 51
336.0117150958
  0
ARC
  5
4CF
100
AcDbEntity
  8
0
100
AcDbCircle
 62
7
  6
CONTINUOUS
 10
299.9196892667
 20
249.4069673313
 40
45.4892459232
100
AcDbArc
 50
203.0194361655
 51
203.6030570338
  0
ARC
  5
4D0
100
AcDbEntity
  8
0
100
AcDbCircle
 62
7
  6
CONTINUOUS
 10
248.5368812022
 20
253.1968589148
 40
44.0666069686
100
AcDbArc
 50
335.0343071363
 51
335.6431194959
  0
ARC
  5
4D1
100
AcDbEntity
  8
0
100
AcDbCircle
 62
7
  6
CONTINUOUS
 10
294.3796043268
 20
246.6421841554
 40
39.7301441752
100
AcDbArc
 50
199.9985884325
 51
200.4068532493
  0
ARC
  5
4D2
100
AcDbEntity
  8
0
100
AcDbCircle
 62
7
  6
CONTINUOUS
 10
294.0201532436
 20
242.154587549
 40
38.5237409375
100
AcDbArc
 50
195.9824923363
 51
196.5311596586
  0
ARC
  5
4D3
100
AcDbEntity
  8
0
100
AcDbCircle
 62
7
  6
CONTINUOUS
 10
256.4486111531
 20
245.6988911528
 40
35.5388148059
100
AcDbArc
 50
336.659667631
 51
337.7758289624
  0
ARC
  5
4D4
100
AcDbEntity
  8
0
100
AcDbCircle
 62
7
  6
CONTINUOUS
 10
257.1304949743
 20
245.3940740445
 40
34.3016621931
100
AcDbArc
 50
336.3220752612
 51
337.4811979907
  0
ARC
  5
4D5
100
AcDbEntity
  8
0
100
AcDbCircle
 62
7
  6
CONTINUOUS
 10
259.0619239119
 20
249.3357005221
 40
33.6032160662
100
AcDbArc
 50
333.3784857686
 51
334.5895643214
  0
ARC
  5
4D6
100
AcDbEntity
  8
0
100
AcDbCircle
 62
7
  6
CONTINUOUS
 10
287.8762216271
 20
245.5283620628
 40
33.1335122253
100
AcDbArc
 50
201.2238852907
 51
201.8842580226
  0
ARC
  5
4D7
100
AcDbEntity
  8
0
100
AcDbCircle
 62
7
  6
CONTINUOUS
 10
287.4568158202
 20
245.3107370125
 40
32.1751824821
100
AcDbArc
 50
201.4711026553
 51
202.0459185913
  0
ARC
  5
4D8
100
AcDbEntity
  8
0
100
AcDbCircle
 62
7
  6
CONTINUOUS
 10
271.596333016
 20
245.9387598362
 40
20.7388706479
100
AcDbArc
 50
328.2411549155
 51
329.2724527448
  0
ARC
  5
4D9
100
AcDbEntity
  8
0
100
AcDbCircle
 62
7
  6
CONTINUOUS
 10
271.6367869548
 20
245.7930842618
 40
20.1621280835
100
AcDbArc
 50
327.7119384337
 51
328.778557452
  0
ARC
  5
4DA
100
AcDbEntity
  8
0
100
AcDbCircle
 62
7
  6
CONTINUOUS
 10
278.8528155918
 20
242.7379196306
 40
13.142213674
100
AcDbArc
 50
323.4779807347
 51
324.6238253424
  0
ARC
  5
4DB
100
AcDbEntity
  8
0
100
AcDbCircle
 62
7
  6
CONTINUOUS
 10
280.1821502083
 20
242.8595099488
 40
11.9128454524
100
AcDbArc
 50
320.8735772408
 51
322.8255894112
  0
ARC
  5
4DC
100
AcDbEntity
  8
0
100
AcDbCircle
 62
7
  6
CONTINUOUS
 10
279.8630908134
 20
242.8382364031
 40
11.7250052898
100
AcDbArc
 50
320.2582187161
 51
322.2578313968
  0
ARC
  5
4DD
100
AcDbEntity
  8
RUNDUNGEN
100
AcDbCircle
 62
7
  6
CONTINUOUS
 10
285.4052964623
 20
247.6389246774
 40
7.0
100
AcDbArc
 50
179.9990303867
 51
255.0003475644
  0
ARC
  5
4DE
100
AcDbEntity
  8
BEZUGSACHSEN
100
AcDbCircle
 62
7
  6
CONTINUOUS
 10
261.4052964623
 20
247.6389246774
 40
7.0
100
AcDbArc
 50
284.9996524356
 51
0.0009696133
  0
ARC
  5
4DF
100
AcDbEntity
  8
RUNDUNGEN
100
AcDbCircle
 62
7
  6
CONTINUOUS
 10
287.9052964623
 20
246.4676357615
 40
0.5
100
AcDbArc
 50
270.0
 51
360.0
  0
ARC
  5
4E0
100
AcDbEntity
  8
RUNDUNGEN
100
AcDbCircle
 62
7
  6
CONTINUOUS
 10
258.9052964623
 20
246.4676357615
 40
0.5
100
AcDbArc
 50
180.0
 51
270.0
  0
ARC
  5
4E1
100
AcDbEntity
  8
RUNDUNGEN
100
AcDbCircle
 62
7
  6
CONTINUOUS
 10
258.9052964623
 20
248.5676357615
 40
0.5
100
AcDbArc
 50
90.0
 51
180.0
  0
ARC
  5
4E2
100
AcDbEntity
  8
RUNDUNGEN
100
AcDbCircle
 62
7
  6
CONTINUOUS
 10
287.9052964623
 20
248.5676357615
 40
0.5
100
AcDbArc
 50
0.0
 51
90.0
  0
ARC
  5
4E3
100
AcDbEntity
  8
0
100
AcDbCircle
 62
7
  6
CONTINUOUS
 10
334.7149427906
 20
236.4360195735
 40
77.3511794466
100
AcDbArc
 50
183.5706093106
 51
183.8864794646
  0
ARC
  5
4E4
100
AcDbEntity
  8
0
100
AcDbCircle
 62
7
  6
CONTINUOUS
 10
333.2907181655
 20
236.0332902385
 40
75.3777349225
100
AcDbArc
 50
183.4387817412
 51
183.6815847616
  0
ARC
  5
4E5
100
AcDbEntity
  8
0
100
AcDbCircle
 62
7
  6
CONTINUOUS
 10
368.6027397326
 20
256.4185762045
 40
114.4540394904
100
AcDbArc
 50
192.3110093856
 51
192.5245539004
  0
ARC
  5
4E6
100
AcDbEntity
  8
0
100
AcDbCircle
 62
7
  6
CONTINUOUS
 10
365.5662438634
 20
241.9718892228
 40
108.687692083
100
AcDbArc
 50
185.2970853837
 51
185.4660728139
  0
ARC
  5
4E7
100
AcDbEntity
  8
0
100
AcDbCircle
 62
7
  6
CONTINUOUS
 10
362.0871501569
 20
254.9688948122
 40
107.7791228519
100
AcDbArc
 50
192.5828866823
 51
192.7588354231
  0
ARC
  5
4E8
100
AcDbEntity
  8
0
100
AcDbCircle
 62
7
  6
CONTINUOUS
 10
357.6668569874
 20
253.9674110482
 40
103.2467988205
100
AcDbArc
 50
192.7585339704
 51
192.9853627752
  0
ARC
  5
4E9
100
AcDbEntity
  8
0
100
AcDbCircle
 62
7
  6
CONTINUOUS
 10
334.6983835814
 20
251.9766257076
 40
80.3548516111
100
AcDbArc
 50
194.4148376353
 51
194.6758549253
  0
ARC
  5
4EA
100
AcDbEntity
  8
0
100
AcDbCircle
 62
7
  6
CONTINUOUS
 10
329.9851029294
 20
256.8975738164
 40
76.613474407
100
AcDbArc
 50
198.0901747101
 51
198.5091601657
  0
ARC
  5
4EB
100
AcDbEntity
  8
0
100
AcDbCircle
 62
7
  6
CONTINUOUS
 10
329.1458031063
 20
251.6370280398
 40
74.841852763
100
AcDbArc
 50
195.1762596321
 51
195.4579656942
  0
ARC
  5
4EC
100
AcDbEntity
  8
0
100
AcDbCircle
 62
7
  6
CONTINUOUS
 10
323.5384332127
 20
257.0095783731
 40
70.0422289369
100
AcDbArc
 50
201.0676792067
 51
201.3477142739
  0
ARC
  5
4ED
100
AcDbEntity
  8
0
100
AcDbCircle
 62
7
  6
CONTINUOUS
 10
320.7085921164
 20
256.105282093
 40
66.5649383725
100
AcDbArc
 50
201.3868875167
 51
201.6822099064
  0
ARC
  5
4EE
100
AcDbEntity
  8
0
100
AcDbCircle
 62
7
  6
CONTINUOUS
 10
309.792509419
 20
246.9869811468
 40
54.9115043165
100
AcDbArc
 50
197.254828921
 51
197.8783224956
  0
ARC
  5
4EF
100
AcDbEntity
  8
0
100
AcDbCircle
 62
7
  6
CONTINUOUS
 10
376.629671827
 20
258.1675129741
 40
122.6692947673
100
AcDbArc
 50
191.9983583975
 51
192.303784958
  0
ARC
  5
4F0
100
AcDbEntity
  8
0
100
AcDbCircle
 62
7
  6
CONTINUOUS
 10
355.0265579053
 20
262.4716056599
 40
102.2852399726
100
AcDbArc
 50
196.8696471548
 51
197.0565524817
  0
ARC
  5
4F1
100
AcDbEntity
  8
BEZUGSACHSEN
100
AcDbCircle
 62
7
  6
CONTINUOUS
 10
270.4052964623
 20
279.852851361
 40
2.0
100
AcDbArc
 50
90.0
 51
180.0
  0
ARC
  5
4F2
100
AcDbEntity
  8
RUNDUNGEN
100
AcDbCircle
 62
7
  6
CONTINUOUS
 10
276.4052964623
 20
279.852851361
 40
2.0
100
AcDbArc
 50
0.0
 51
90.0
  0
ARC
  5
4F3
100
AcDbEntity
  8
0
100
AcDbCircle
 62
7
  6
CONTINUOUS
 10
-121.086213613
 20
348.5044795777
 40
425.5726216793
100
AcDbArc
 50
344.2223089898
 51
344.3562147604
  0
ARC
  5
4F4
100
AcDbEntity
  8
0
100
AcDbCircle
 62
7
  6
CONTINUOUS
 10
-82.7319733255
 20
338.8136173788
 40
385.4911607016
100
AcDbArc
 50
344.0357232663
 51
344.1836830604
  0
ARC
  5
4F5
100
AcDbEntity
  8
0
100
AcDbCircle
 62
7
  6
CONTINUOUS
 10
417.0039122475
 20
266.4864151206
 40
163.8920290854
100
AcDbArc
 50
190.9983765288
 51
191.4298037443
  0
ARC
  5
4F6
100
AcDbEntity
  8
0
100
AcDbCircle
 62
7
  6
CONTINUOUS
 10
399.8045630456
 20
264.4822814651
 40
146.6506726399
100
AcDbArc
 50
191.5121483164
 51
191.9939671379
  0
ARC
  5
4F7
100
AcDbEntity
  8
0
100
AcDbCircle
 62
7
  6
CONTINUOUS
 10
391.0995592451
 20
261.2257384943
 40
137.4588491698
100
AcDbArc
 50
191.6323065582
 51
191.855307297
  0
ARC
  5
4F8
100
AcDbEntity
  8
0
100
AcDbCircle
 62
7
  6
CONTINUOUS
 10
903.1179140703
 20
399.6179937006
 40
666.5830469438
100
AcDbArc
 50
194.4088009283
 51
194.5977024623
  0
ARC
  5
4F9
100
AcDbEntity
  8
0
100
AcDbCircle
 62
7
  6
CONTINUOUS
 10
811.1266648546
 20
379.590395192
 40
572.3502814547
100
AcDbArc
 50
194.7626853346
 51
194.9610126664
  0
ARC
  5
4FA
100
AcDbEntity
  8
0
100
AcDbCircle
 62
7
  6
CONTINUOUS
 10
759.9237882704
 20
367.1255532124
 40
519.1361551422
100
AcDbArc
 50
194.8876961339
 51
195.1064907206
  0
ARC
  5
4FB
100
AcDbEntity
  8
0
100
AcDbCircle
 62
7
  6
CONTINUOUS
 10
123.7077551382
 20
23.4504175802
 40
29.2924770383
100
AcDbArc
 50
85.0033366613
 51
92.3452835007
  0
ARC
  5
4FC
100
AcDbEntity
  8
0
100
AcDbCircle
 62
7
  6
CONTINUOUS
 10
123.5334483041
 20
25.5414608456
 40
27.1946522598
100
AcDbArc
 50
93.917034756
 51
101.4519363234
  0
ARC
  5
4FD
100
AcDbEntity
  8
0
100
AcDbCircle
 62
7
  6
CONTINUOUS
 10
125.0186336644
 20
26.3327967279
 40
26.1442504793
100
AcDbArc
 50
76.894822211
 51
78.2972968073
  0
ARC
  5
4FE
100
AcDbEntity
  8
0
100
AcDbCircle
 62
7
  6
CONTINUOUS
 10
123.8815118325
 20
29.6127284073
 40
23.2812882459
100
AcDbArc
 50
70.7123837172
 51
72.3341734899
  0
ARC
  5
4FF
100
AcDbEntity
  8
0
100
AcDbCircle
 62
7
  6
CONTINUOUS
 10
122.6466860479
 20
32.3785016952
 40
21.1809135574
100
AcDbArc
 50
63.9048384271
 51
65.0792590253
  0
ARC
  5
500
100
AcDbEntity
  8
RUNDUNGEN
100
AcDbCircle
 62
7
  6
CONTINUOUS
 10
113.2469839418
 20
18.2716297928
 40
12.0
100
AcDbArc
 50
35.822584297
 51
58.4663105625
  0
ARC
  5
501
100
AcDbEntity
  8
RUNDUNGEN
100
AcDbCircle
 62
7
  6
CONTINUOUS
 10
97.6700691647
 20
32.3182856377
 40
2.0000000008
100
AcDbArc
 50
185.3326045673
 51
269.9998783495
  0
ARC
  5
502
100
AcDbEntity
  8
BEZUGSACHSEN
100
AcDbCircle
 62
7
  6
CONTINUOUS
 10
97.6700691647
 20
38.3182856362
 40
2.0000000008
100
AcDbArc
 50
90.0001216505
 51
174.6673954327
  0
ARC
  5
503
100
AcDbEntity
  8
0
100
AcDbCircle
 62
7
  6
CONTINUOUS
 10
123.8805123646
 20
45.0951104283
 40
27.1946522598
100
AcDbArc
 50
273.917034756
 51
281.4519363234
  0
ARC
  5
504
100
AcDbEntity
  8
0
100
AcDbCircle
 62
7
  6
CONTINUOUS
 10
122.3953270042
 20
44.3037745459
 40
26.1442504792
100
AcDbArc
 50
256.894822211
 51
258.2972968074
  0
ARC
  5
505
100
AcDbEntity
  8
0
100
AcDbCircle
 62
7
  6
CONTINUOUS
 10
123.5324488361
 20
41.0238428664
 40
23.2812882457
100
AcDbArc
 50
250.7123837172
 51
252.3341734899
  0
ARC
  5
506
100
AcDbEntity
  8
0
100
AcDbCircle
 62
7
  6
CONTINUOUS
 10
124.7676366235
 20
38.2588351852
 40
21.1817604145
100
AcDbArc
 50
243.9108756604
 51
245.0792436125
  0
ARC
  5
507
100
AcDbEntity
  8
0
100
AcDbCircle
 62
7
  6
CONTINUOUS
 10
123.7069803343
 20
35.3182856369
 40
12.25
100
AcDbArc
 50
318.9411952004
 51
335.9159202613
  0
ARC
  5
508
100
AcDbEntity
  8
0
100
AcDbCircle
 62
7
  6
CONTINUOUS
 10
123.7069803343
 20
35.3182856369
 40
12.25
100
AcDbArc
 50
204.8235607709
 51
276.0332317197
  0
ARC
  5
509
100
AcDbEntity
  8
0
100
AcDbCircle
 62
7
  6
CONTINUOUS
 10
123.7069803343
 20
35.3182856369
 40
12.25
100
AcDbArc
 50
24.0840797387
 51
41.0588070774
  0
ARC
  5
50A
100
AcDbEntity
  8
0
100
AcDbCircle
 62
7
  6
CONTINUOUS
 10
123.7069803343
 20
35.3182856369
 40
12.25
100
AcDbArc
 50
83.9667259116
 51
155.9159273512
  0
ARC
  5
50B
100
AcDbEntity
  8
RUNDUNGEN
100
AcDbCircle
 62
7
  6
CONTINUOUS
 10
123.7069803343
 20
35.3182856369
 40
12.0
100
AcDbArc
 50
318.6243434666
 51
335.3699730703
  0
ARC
  5
50C
100
AcDbEntity
  8
RUNDUNGEN
100
AcDbCircle
 62
7
  6
CONTINUOUS
 10
123.7069803343
 20
35.3182856369
 40
12.0
100
AcDbArc
 50
24.6300269297
 51
41.3756565331
  0
ARC
  5
50D
100
AcDbEntity
  8
RUNDUNGEN
100
AcDbCircle
 62
7
  6
CONTINUOUS
 10
123.7069803343
 20
35.3182856369
 40
12.0
100
AcDbArc
 50
85.0855536371
 51
155.3699730703
  0
ARC
  5
50E
100
AcDbEntity
  8
RUNDUNGEN
100
AcDbCircle
 62
7
  6
CONTINUOUS
 10
123.7069803343
 20
35.3182856369
 40
12.0
100
AcDbArc
 50
204.6300269297
 51
274.9144463628
  0
ARC
  5
50F
100
AcDbEntity
  8
RUNDUNGEN
100
AcDbCircle
 62
7
  6
CONTINUOUS
 10
123.7069803343
 20
35.3182856369
 40
8.0
100
AcDbArc
 50
218.6939598145
 51
238.4663105625
  0
ARC
  5
510
100
AcDbEntity
  8
RUNDUNGEN
100
AcDbCircle
 62
7
  6
CONTINUOUS
 10
123.7069803343
 20
35.3182856369
 40
8.0
100
AcDbArc
 50
121.5336894375
 51
141.306040174
  0
ARC
  5
511
100
AcDbEntity
  8
0
100
AcDbCircle
 62
7
  6
CONTINUOUS
 10
116.9627356494
 20
58.233715277
 40
39.583078487
100
AcDbArc
 50
270.9416221062
 51
271.2723381351
  0
ARC
  5
512
100
AcDbEntity
  8
0
100
AcDbCircle
 62
7
  6
CONTINUOUS
 10
120.193084244
 20
50.1567162571
 40
31.6062002249
100
AcDbArc
 50
264.3700133082
 51
265.3180278248
  0
ARC
  5
513
100
AcDbEntity
  8
0
100
AcDbCircle
 62
7
  6
CONTINUOUS
 10
123.7062055304
 20
47.1861536936
 40
29.2924770383
100
AcDbArc
 50
265.0033366613
 51
272.3452835007
  0
ARC
  5
514
100
AcDbEntity
  8
RUNDUNGEN
100
AcDbCircle
 62
7
  6
CONTINUOUS
 10
113.2469839418
 20
52.3649414811
 40
12.0
100
AcDbArc
 50
301.5336894375
 51
324.177415703
  0
ARC
  5
515
100
AcDbEntity
  8
0
100
AcDbCircle
 62
7
  6
CONTINUOUS
 10
130.451232009
 20
12.4024754811
 40
39.5834590662
100
AcDbArc
 50
90.9416231709
 51
91.271859042
  0
ARC
  5
516
100
AcDbEntity
  8
0
100
AcDbCircle
 62
7
  6
CONTINUOUS
 10
127.2208764247
 20
20.4798550168
 40
31.6062002249
100
AcDbArc
 50
84.3700133082
 51
85.3180278248
  0
ARC
  5
517
100
AcDbEntity
  8
RUNDUNGEN
100
AcDbCircle
 62
7
  6
CONTINUOUS
 10
132.7069803343
 20
32.3182856369
 40
12.0
100
AcDbArc
 50
215.822584297
 51
278.0
  0
ARC
  5
518
100
AcDbEntity
  8
RUNDUNGEN
100
AcDbCircle
 62
7
  6
CONTINUOUS
 10
135.0069803343
 20
31.8182856369
 40
5.0
100
AcDbArc
 50
197.493510728
 51
270.0
  0
ARC
  5
519
100
AcDbEntity
  8
RUNDUNGEN
100
AcDbCircle
 62
7
  6
CONTINUOUS
 10
149.743892221
 20
32.3182856377
 40
2.0000000008
100
AcDbArc
 50
270.0000259096
 51
354.6674009968
  0
ARC
  5
51A
100
AcDbEntity
  8
RUNDUNGEN
100
AcDbCircle
 62
7
  6
CONTINUOUS
 10
154.7069803343
 20
24.3020807027
 40
1.0
100
AcDbArc
 50
278.0
 51
360.0
  0
ARC
  5
51B
100
AcDbEntity
  8
RUNDUNGEN
100
AcDbCircle
 62
7
  6
CONTINUOUS
 10
152.5069803343
 20
29.0682856369
 40
1.0
100
AcDbArc
 50
90.0
 51
180.0
  0
ARC
  5
51C
100
AcDbEntity
  8
RUNDUNGEN
100
AcDbCircle
 62
7
  6
CONTINUOUS
 10
154.7069803343
 20
29.0682856369
 40
1.0
100
AcDbArc
 50
0.0
 51
90.0
  0
ARC
  5
51D
100
AcDbEntity
  8
RUNDUNGEN
100
AcDbCircle
 62
7
  6
CONTINUOUS
 10
150.5069803343
 20
27.8182856369
 40
1.0
100
AcDbArc
 50
270.0
 51
360.0
  0
ARC
  5
51E
100
AcDbEntity
  8
RUNDUNGEN
100
AcDbCircle
 62
7
  6
CONTINUOUS
 10
132.7069803343
 20
38.3182856369
 40
12.0
100
AcDbArc
 50
82.0
 51
144.177415703
  0
ARC
  5
51F
100
AcDbEntity
  8
RUNDUNGEN
100
AcDbCircle
 62
7
  6
CONTINUOUS
 10
135.0069803343
 20
38.8182856369
 40
5.0
100
AcDbArc
 50
90.0
 51
162.5064892723
  0
ARC
  5
520
100
AcDbEntity
  8
BEZUGSACHSEN
100
AcDbCircle
 62
7
  6
CONTINUOUS
 10
149.743892221
 20
38.3182856362
 40
2.0000000008
100
AcDbArc
 50
5.3325990032
 51
89.9999740904
  0
ARC
  5
521
100
AcDbEntity
  8
RUNDUNGEN
100
AcDbCircle
 62
7
  6
CONTINUOUS
 10
154.7069803343
 20
46.3344905712
 40
1.0
100
AcDbArc
 50
0.0
 51
82.0
  0
ARC
  5
522
100
AcDbEntity
  8
RUNDUNGEN
100
AcDbCircle
 62
7
  6
CONTINUOUS
 10
152.5069803343
 20
41.5682856369
 40
1.0
100
AcDbArc
 50
180.0
 51
270.0
  0
ARC
  5
523
100
AcDbEntity
  8
RUNDUNGEN
100
AcDbCircle
 62
7
  6
CONTINUOUS
 10
154.7069803343
 20
41.5682856369
 40
1.0
100
AcDbArc
 50
270.0
 51
360.0
  0
ARC
  5
524
100
AcDbEntity
  8
RUNDUNGEN
100
AcDbCircle
 62
7
  6
CONTINUOUS
 10
150.5069803343
 20
42.8182856369
 40
1.0
100
AcDbArc
 50
0.0
 51
90.0
  0
SPLINE
  5
525
100
AcDbEntity
  8
KONSTRUKTIONSELEMENTE
100
AcDbSpline
 62
7
  6
CONTINUOUS
 70
0
 71
3
 72
9
 73
5
 74
0
 42
0.0000001
 43
0.0000001
 44
0.0000000001
 40
0.0
 40
0.0
 40
0.0
 40
0.0
 40
0.4961584509
 40
1.0
 40
1.0
 40
1.0
 40
1.0
 10
115.4797389985
 20
94.5676357615
 30
0.0
 10
115.2748791022
 20
94.5676357615
 30
0.0
 10
114.8614302824
 20
94.5363807297
 30
0.0
 10
114.4570691305
 20
94.4463893804
 30
0.0
 10
114.2571492774
 20
94.3888616217
 30
0.0
  0
SPLINE
  5
526
100
AcDbEntity
  8
KONSTRUKTIONSELEMENTE
100
AcDbSpline
 62
7
  6
CONTINUOUS
 70
0
 71
3
 72
9
 73
5
 74
0
 42
0.0000001
 43
0.0000001
 44
0.0000000001
 40
0.0
 40
0.0
 40
0.0
 40
0.0
 40
0.2431746232
 40
1.0
 40
1.0
 40
1.0
 40
1.0
 10
114.2571492774
 20
94.3888616217
 30
0.0
 10
114.1275787729
 20
94.3515771771
 30
0.0
 10
113.6008166602
 20
94.1770035249
 30
0.0
 10
113.1007284853
 20
93.9289409587
 30
0.0
 10
112.7373252197
 20
93.7191299855
 30
0.0
  0
SPLINE
  5
527
100
AcDbEntity
  8
KONSTRUKTIONSELEMENTE
100
AcDbSpline
 62
7
  6
CONTINUOUS
 70
0
 71
3
 72
11
 73
7
 74
0
 42
0.0000001
 43
0.0000001
 44
0.0000000001
 40
0.0
 40
0.0
 40
0.0
 40
0.0
 40
0.2616356427
 40
0.514489011
 40
0.7595900019
 40
1.0
 40
1.0
 40
1.0
 40
1.0
 10
134.6766354489
 20
93.7191299855
 30
0.0
 10
134.45741679
 20
93.8456959372
 30
0.0
 10
134.0163888945
 20
94.0781337473
 30
0.0
 10
133.3325436957
 20
94.3519176469
 30
0.0
 10
132.6374204704
 20
94.5270896365
 30
0.0
 10
132.1668178094
 20
94.5676357616
 30
0.0
 10
131.9342216699
 20
94.5676357616
 30
0.0
  0
SPLINE
  5
528
100
AcDbEntity
  8
KONSTRUKTIONSELEMENTE
100
AcDbSpline
 62
7
  6
CONTINUOUS
 70
0
 71
3
 72
11
 73
7
 74
0
 42
0.0000001
 43
0.0000001
 44
0.0000000001
 40
0.0
 40
0.0
 40
0.0
 40
0.0
 40
0.2404100426
 40
0.485511054
 40
0.7383643636
 40
1.0
 40
1.0
 40
1.0
 40
1.0
 10
131.9342216699
 20
94.5676357616
 30
0.0
 10
131.7016254875
 20
94.5676357616
 30
0.0
 10
131.2310227634
 20
94.5270896232
 30
0.0
 10
130.5358995382
 20
94.3519176084
 30
0.0
 10
129.8520543875
 20
94.0781337094
 30
0.0
 10
129.4110265451
 20
93.8456959341
 30
0.0
 10
129.1918078916
 20
93.7191299855
 30
0.0
  0
SPLINE
  5
529
100
AcDbEntity
  8
KONSTRUKTIONSELEMENTE
100
AcDbSpline
 62
7
  6
CONTINUOUS
 70
0
 71
3
 72
10
 73
6
 74
0
 42
0.0000001
 43
0.0000001
 44
0.0000000001
 40
0.0
 40
0.0
 40
0.0
 40
0.0
 40
0.4998915337
 40
0.7499457978
 40
1.0
 40
1.0
 40
1.0
 40
1.0
 10
129.1918078916
 20
93.7191299855
 30
0.0
 10
128.3006624999
 20
93.9763815014
 30
0.0
 10
126.9420729591
 20
94.2979913034
 30
0.0
 10
125.0993761504
 20
94.5280458854
 30
0.0
 10
124.170948201
 20
94.5676357602
 30
0.0
 10
123.7069802369
 20
94.5676357655
 30
0.0
  0
SPLINE
  5
52A
100
AcDbEntity
  8
BEZUGSACHSEN
100
AcDbSpline
 62
7
  6
CONTINUOUS
 70
0
 71
3
 72
17
 73
13
 74
0
 42
0.0000001
 43
0.0000001
 44
0.0000000001
 40
0.0
 40
0.0
 40
0.0
 40
0.0
 40
0.1379481619
 40
0.2669035432
 40
0.3865340403
 40
0.4437235944
 40
0.5000000952
 40
0.5562765982
 40
0.6134660789
 40
0.7330964437
 40
0.8620517414
 40
1.0
 40
1.0
 40
1.0
 40
1.0
 10
134.6766354489
 20
86.5372908762
 30
0.0
 10
134.4692443428
 20
86.3298997701
 30
0.0
 10
134.0507732611
 20
85.9448613319
 30
0.0
 10
133.378271692
 20
85.4675023379
 30
0.0
 10
132.7802675467
 20
85.1963125515
 30
0.0
 10
132.2954638973
 20
85.0859957763
 30
0.0
 10
131.9342210054
 20
85.0587237089
 30
0.0
 10
131.5729783891
 20
85.0859963175
 30
0.0
 10
131.0881748553
 20
85.1963117584
 30
0.0
 10
130.4901719609
 20
85.4675030699
 30
0.0
 10
129.817670019
 20
85.9448608028
 30
0.0
 10
129.3991991431
 20
86.3298996247
 30
0.0
 10
129.1918078916
 20
86.5372908762
 30
0.0
  0
SPLINE
  5
52B
100
AcDbEntity
  8
BEZUGSACHSEN
100
AcDbSpline
 62
7
  6
CONTINUOUS
 70
0
 71
3
 72
15
 73
11
 74
0
 42
0.0000001
 43
0.0000001
 44
0.0000000001
 40
0.0
 40
0.0
 40
0.0
 40
0.0
 40
0.1250025799
 40
0.2500165917
 40
0.3750124217
 40
0.5000001088
 40
0.6249877308
 40
0.7499833846
 40
0.8749973395
 40
1.0
 40
1.0
 40
1.0
 40
1.0
 10
129.1918078916
 20
86.5372908762
 30
0.0
 10
128.7648935922
 20
86.3238337265
 30
0.0
 10
127.8956636731
 20
85.9263314067
 30
0.0
 10
126.5418279602
 20
85.4521626716
 30
0.0
 10
125.1399867729
 20
85.1407736745
 30
0.0
 10
123.7069793282
 20
85.0312628856
 30
0.0
 10
122.2739723998
 20
85.1407730499
 30
0.0
 10
120.8721327037
 20
85.4521633649
 30
0.0
 10
119.518297216
 20
85.9263308517
 30
0.0
 10
118.6490673518
 20
86.3238335888
 30
0.0
 10
118.222152777
 20
86.5372908762
 30
0.0
  0
SPLINE
  5
52C
100
AcDbEntity
  8
KONSTRUKTIONSELEMENTE
100
AcDbSpline
 62
7
  6
CONTINUOUS
 70
0
 71
3
 72
10
 73
6
 74
0
 42
0.0000001
 43
0.0000001
 44
0.0000000001
 40
0.0
 40
0.0
 40
0.0
 40
0.0
 40
0.2500542288
 40
0.5001085083
 40
1.0
 40
1.0
 40
1.0
 40
1.0
 10
123.7069802369
 20
94.5676357655
 30
0.0
 10
123.2430122397
 20
94.5676357655
 30
0.0
 10
122.3145842453
 20
94.5280458564
 30
0.0
 10
120.4718875052
 20
94.2979912586
 30
0.0
 10
119.1132980627
 20
93.9763814708
 30
0.0
 10
118.222152777
 20
93.7191299855
 30
0.0
  0
SPLINE
  5
52D
100
AcDbEntity
  8
KONSTRUKTIONSELEMENTE
100
AcDbSpline
 62
7
  6
CONTINUOUS
 70
0
 71
3
 72
11
 73
7
 74
0
 42
0.0000001
 43
0.0000001
 44
0.0000000001
 40
0.0
 40
0.0
 40
0.0
 40
0.0
 40
0.2616356427
 40
0.514489011
 40
0.7595900019
 40
1.0
 40
1.0
 40
1.0
 40
1.0
 10
118.222152777
 20
93.7191299855
 30
0.0
 10
118.0029341181
 20
93.8456959372
 30
0.0
 10
117.5619062227
 20
94.0781337473
 30
0.0
 10
116.878061024
 20
94.3519176468
 30
0.0
 10
116.1829377989
 20
94.5270896364
 30
0.0
 10
115.7123351379
 20
94.5676357615
 30
0.0
 10
115.4797389985
 20
94.5676357615
 30
0.0
  0
SPLINE
  5
52E
100
AcDbEntity
  8
BEZUGSACHSEN
100
AcDbSpline
 62
7
  6
CONTINUOUS
 70
0
 71
3
 72
17
 73
13
 74
0
 42
0.0000001
 43
0.0000001
 44
0.0000000001
 40
0.0
 40
0.0
 40
0.0
 40
0.0
 40
0.1379481619
 40
0.2669035432
 40
0.3865340403
 40
0.4437235944
 40
0.5000000952
 40
0.5562765982
 40
0.6134660789
 40
0.7330964437
 40
0.8620517414
 40
1.0
 40
1.0
 40
1.0
 40
1.0
 10
118.222152777
 20
86.5372908762
 30
0.0
 10
118.0147616709
 20
86.3298997701
 30
0.0
 10
117.5962905892
 20
85.9448613319
 30
0.0
 10
116.9237890201
 20
85.4675023379
 30
0.0
 10
116.3257848748
 20
85.1963125515
 30
0.0
 10
115.8409812254
 20
85.0859957763
 30
0.0
 10
115.4797383335
 20
85.0587237089
 30
0.0
 10
115.1184957172
 20
85.0859963175
 30
0.0
 10
114.6336921834
 20
85.1963117584
 30
0.0
 10
114.035689289
 20
85.4675030699
 30
0.0
 10
113.3631873471
 20
85.9448608028
 30
0.0
 10
112.9447164712
 20
86.3298996247
 30
0.0
 10
112.7373252197
 20
86.5372908762
 30
0.0
  0
SPLINE
  5
52F
100
AcDbEntity
  8
0
100
AcDbSpline
 62
7
  6
CONTINUOUS
 70
0
 71
3
 72
9
 73
5
 74
0
 42
0.0000001
 43
0.0000001
 44
0.0000000001
 40
0.0
 40
0.0
 40
0.0
 40
0.0
 40
0.2613413634
 40
1.0
 40
1.0
 40
1.0
 40
1.0
 10
119.8389178808
 20
240.492934719
 30
0.0
 10
119.5821549131
 20
240.5158342797
 30
0.0
 10
118.6005955319
 20
240.613115606
 30
0.0
 10
117.6225975651
 20
240.749148237
 30
0.0
 10
116.9053833182
 20
240.8774438934
 30
0.0
  0
SPLINE
  5
530
100
AcDbEntity
  8
0
100
AcDbSpline
 62
7
  6
CONTINUOUS
 70
0
 71
3
 72
9
 73
5
 74
0
 42
0.0000001
 43
0.0000001
 44
0.0000000001
 40
0.0
 40
0.0
 40
0.0
 40
0.0
 40
0.2375710288
 40
1.0
 40
1.0
 40
1.0
 40
1.0
 10
130.5085773505
 20
240.8774438934
 30
0.0
 10
130.2779070944
 20
240.8361814783
 30
0.0
 10
129.3047471075
 20
240.6749096272
 30
0.0
 10
128.3241803185
 20
240.5597477035
 30
0.0
 10
127.5751203684
 20
240.4929415769
 30
0.0
  0
SPLINE
  5
531
100
AcDbEntity
  8
0
100
AcDbSpline
 62
7
  6
CONTINUOUS
 70
0
 71
3
 72
9
 73
5
 74
0
 42
0.0000001
 43
0.0000001
 44
0.0000000001
 40
0.0
 40
0.0
 40
0.0
 40
0.0
 40
0.4999998567
 40
1.0
 40
1.0
 40
1.0
 40
1.0
 10
127.575703656
 20
240.4930037334
 30
0.0
 10
126.2889503761
 20
240.3782425542
 30
0.0
 10
123.7070006694
 20
240.1461170138
 30
0.0
 10
121.1250508418
 20
240.3782409648
 30
0.0
 10
119.8382967084
 20
240.4930009115
 30
0.0
  0
SPLINE
  5
532
100
AcDbEntity
  8
0
100
AcDbSpline
 62
7
  6
CONTINUOUS
 70
0
 71
3
 72
9
 73
5
 74
0
 42
0.0000001
 43
0.0000001
 44
0.0000000001
 40
0.0
 40
0.0
 40
0.0
 40
0.0
 40
0.4845750231
 40
1.0
 40
1.0
 40
1.0
 40
1.0
 10
132.6306165958
 20
241.6401979138
 30
0.0
 10
132.3222809988
 20
241.4430234965
 30
0.0
 10
131.6291331729
 20
241.1228803746
 30
0.0
 10
130.8917848782
 20
240.9459922546
 30
0.0
 10
130.5085773505
 20
240.8774438934
 30
0.0
  0
SPLINE
  5
533
100
AcDbEntity
  8
0
100
AcDbSpline
 62
7
  6
CONTINUOUS
 70
0
 71
3
 72
9
 73
5
 74
0
 42
0.0000001
 43
0.0000001
 44
0.0000000001
 40
0.0
 40
0.0
 40
0.0
 40
0.0
 40
0.5154250321
 40
1.0
 40
1.0
 40
1.0
 40
1.0
 10
116.9053833182
 20
240.8774438934
 30
0.0
 10
116.5221738369
 20
240.9459926041
 30
0.0
 10
115.7848219093
 20
241.1228818883
 30
0.0
 10
115.0916709755
 20
241.4430277069
 30
0.0
 10
114.7833344671
 20
241.6402040118
 30
0.0
  0
SPLINE
  5
534
100
AcDbEntity
  8
0
100
AcDbSpline
 62
7
  6
CONTINUOUS
 70
0
 71
3
 72
9
 73
5
 74
0
 42
0.0000001
 43
0.0000001
 44
0.0000000001
 40
0.0
 40
0.0
 40
0.0
 40
0.0
 40
0.231891319
 40
1.0
 40
1.0
 40
1.0
 40
1.0
 10
135.4916988828
 20
244.4875356177
 30
0.0
 10
135.4808096001
 20
244.4737073465
 30
0.0
 10
135.4348686502
 20
244.4132725772
 30
0.0
 10
135.3918857492
 20
244.350658958
 30
0.0
 10
135.3594331871
 20
244.302224918
 30
0.0
  0
SPLINE
  5
535
100
AcDbEntity
  8
0
100
AcDbSpline
 62
7
  6
CONTINUOUS
 70
0
 71
3
 72
9
 73
5
 74
0
 42
0.0000001
 43
0.0000001
 44
0.0000000001
 40
0.0
 40
0.0
 40
0.0
 40
0.0
 40
0.4780075216
 40
1.0
 40
1.0
 40
1.0
 40
1.0
 10
135.3594331871
 20
244.302224918
 30
0.0
 10
135.2340464105
 20
244.1150950947
 30
0.0
 10
134.9608227325
 20
243.7303829599
 30
0.0
 10
134.6459299414
 20
243.3781769839
 30
0.0
 10
134.4730720001
 20
243.2031713458
 30
0.0
  0
SPLINE
  5
536
100
AcDbEntity
  8
0
100
AcDbSpline
 62
7
  6
CONTINUOUS
 70
0
 71
3
 72
9
 73
5
 74
0
 42
0.0000001
 43
0.0000001
 44
0.0000000001
 40
0.0
 40
0.0
 40
0.0
 40
0.0
 40
0.4769673265
 40
1.0
 40
1.0
 40
1.0
 40
1.0
 10
134.4730720001
 20
243.2031713458
 30
0.0
 10
134.202695729
 20
242.9294460245
 30
0.0
 10
133.6266478723
 20
242.3642008945
 30
0.0
 10
132.9860580154
 20
241.8674955561
 30
0.0
 10
132.6306166185
 20
241.6401979264
 30
0.0
  0
SPLINE
  5
537
100
AcDbEntity
  8
0
100
AcDbSpline
 62
7
  6
CONTINUOUS
 70
0
 71
3
 72
9
 73
5
 74
0
 42
0.0000001
 43
0.0000001
 44
0.0000000001
 40
0.0
 40
0.0
 40
0.0
 40
0.0
 40
0.5230326629
 40
1.0
 40
1.0
 40
1.0
 40
1.0
 10
114.7833323636
 20
241.6402051802
 30
0.0
 10
114.4278935875
 20
241.867502638
 30
0.0
 10
113.7873079834
 20
242.3642059873
 30
0.0
 10
113.211262434
 20
242.9294472159
 30
0.0
 10
112.9408876095
 20
243.2031710401
 30
0.0
  0
SPLINE
  5
538
100
AcDbEntity
  8
0
100
AcDbSpline
 62
7
  6
CONTINUOUS
 70
0
 71
3
 72
9
 73
5
 74
0
 42
0.0000001
 43
0.0000001
 44
0.0000000001
 40
0.0
 40
0.0
 40
0.0
 40
0.0
 40
0.5219926382
 40
1.0
 40
1.0
 40
1.0
 40
1.0
 10
112.9408876095
 20
243.2031710401
 30
0.0
 10
112.7680298271
 20
243.3781768458
 30
0.0
 10
112.4531370094
 20
243.7303828648
 30
0.0
 10
112.1799164948
 20
244.1150968982
 30
0.0
 10
112.0545276206
 20
244.3022251507
 30
0.0
  0
SPLINE
  5
539
100
AcDbEntity
  8
0
100
AcDbSpline
 62
7
  6
CONTINUOUS
 70
0
 71
3
 72
9
 73
5
 74
0
 42
0.0000001
 43
0.0000001
 44
0.0000000001
 40
0.0
 40
0.0
 40
0.0
 40
0.0
 40
0.2668184429
 40
1.0
 40
1.0
 40
1.0
 40
1.0
 10
112.0545276206
 20
244.3022251507
 30
0.0
 10
112.0432559601
 20
244.3190475821
 30
0.0
 10
112.0007016385
 20
244.3818769591
 30
0.0
 10
111.9566969573
 20
244.4438053045
 30
0.0
 10
111.9222720855
 20
244.4875212178
 30
0.0
  0
SPLINE
  5
53A
100
AcDbEntity
  8
BEZUGSACHSEN
100
AcDbSpline
 62
7
  6
CONTINUOUS
 70
0
 71
3
 72
24
 73
20
 74
0
 42
0.0000001
 43
0.0000001
 44
0.0000000001
 40
0.0
 40
0.0
 40
0.0
 40
0.0
 40
0.0219664847
 40
0.0857412637
 40
0.1863810284
 40
0.3170955609
 40
0.3913572888
 40
0.4702917026
 40
0.5530255776
 40
0.6387773981
 40
0.7268738803
 40
0.7716242065
 40
0.8167590498
 40
0.8622250999
 40
0.9079736267
 40
0.9309436166
 40
0.9539655661
 40
0.9770188599
 40
1.0
 40
1.0
 40
1.0
 40
1.0
 10
104.1719132762
 20
232.5860523396
 30
0.0
 10
104.290787492
 20
232.5672107392
 30
0.0
 10
104.7545053502
 20
232.4918708178
 30
0.0
 10
105.759989673
 20
232.3127803322
 30
0.0
 10
107.3432132272
 20
231.9819628883
 30
0.0
 10
108.9670722402
 20
231.5701993608
 30
0.0
 10
110.4595847927
 20
231.1310966166
 30
0.0
 10
111.6891065971
 20
230.7312752297
 30
0.0
 10
112.9653994905
 20
230.273579397
 30
0.0
 10
114.2732506112
 20
229.757203173
 30
0.0
 10
115.3718138361
 20
229.2791777616
 30
0.0
 10
116.2536562028
 20
228.8626536328
 30
0.0
 10
116.9163964257
 20
228.5295982339
 30
0.0
 10
117.5732525934
 20
228.1734596964
 30
0.0
 10
118.1101226685
 20
227.8513506954
 30
0.0
 10
118.5259408983
 20
227.5687621449
 30
0.0
 10
118.8268267321
 20
227.3385891633
 30
0.0
 10
119.1056609334
 20
227.0829326906
 30
0.0
 10
119.2633435868
 20
226.8806099132
 30
0.0
 10
119.3189513804
 20
226.7676357615
 30
0.0
  0
SPLINE
  5
53B
100
AcDbEntity
  8
BEZUGSACHSEN
100
AcDbSpline
 62
7
  6
CONTINUOUS
 70
0
 71
3
 72
24
 73
20
 74
0
 42
0.0000001
 43
0.0000001
 44
0.0000000001
 40
0.0
 40
0.0
 40
0.0
 40
0.0
 40
0.0229776785
 40
0.0460298589
 40
0.0690516656
 40
0.0920215821
 40
0.1377701614
 40
0.1832364278
 40
0.2283715352
 40
0.2731221575
 40
0.3612191696
 40
0.4469715523
 40
0.5297060989
 40
0.608641306
 40
0.6829037435
 40
0.8136196266
 40
0.9142601006
 40
0.9780343421
 40
1.0
 40
1.0
 40
1.0
 40
1.0
 10
128.0950092883
 20
226.7676357615
 30
0.0
 10
128.1506086973
 20
226.8805928788
 30
0.0
 10
128.3082940029
 20
227.082879449
 30
0.0
 10
128.5870701425
 20
227.3385586124
 30
0.0
 10
128.887964075
 20
227.5687117378
 30
0.0
 10
129.3037732498
 20
227.8513100313
 30
0.0
 10
129.8406424817
 20
228.173423932
 30
0.0
 10
130.4975014773
 20
228.529562608
 30
0.0
 10
131.1602423633
 20
228.8626260234
 30
0.0
 10
132.0420908468
 20
229.2791509048
 30
0.0
 10
133.1406593219
 20
229.7571827086
 30
0.0
 10
134.4485189653
 20
230.2735632139
 30
0.0
 10
135.7248216338
 20
230.7312640232
 30
0.0
 10
136.9543541501
 20
231.1310904181
 30
0.0
 10
138.4468815871
 20
231.5701971433
 30
0.0
 10
140.0707548983
 20
231.9819649862
 30
0.0
 10
141.6539865193
 20
232.3127835256
 30
0.0
 10
142.6594672892
 20
232.4918725671
 30
0.0
 10
143.1231776815
 20
232.5672113761
 30
0.0
 10
143.2420473925
 20
232.5860523396
 30
0.0
  0
SPLINE
  5
53C
100
AcDbEntity
  8
KONSTRUKTIONSELEMENTE
100
AcDbSpline
 62
7
  6
CONTINUOUS
 70
0
 71
3
 72
10
 73
6
 74
0
 42
0.0000001
 43
0.0000001
 44
0.0000000001
 40
0.0
 40
0.0
 40
0.0
 40
0.0
 40
0.2489289214
 40
0.4984051138
 40
1.0
 40
1.0
 40
1.0
 40
1.0
 10
268.6552964621
 20
94.5676357615
 30
0.0
 10
268.253371569
 20
94.5676357615
 30
0.0
 10
267.4480752463
 20
94.5279395119
 30
0.0
 10
265.8482547722
 20
94.2970603144
 30
0.0
 10
264.6736195835
 20
93.9752376925
 30
0.0
 10
263.9052964623
 20
93.7191299855
 30
0.0
  0
SPLINE
  5
53D
100
AcDbEntity
  8
KONSTRUKTIONSELEMENTE
100
AcDbSpline
 62
7
  6
CONTINUOUS
 70
0
 71
3
 72
10
 73
6
 74
0
 42
0.0000001
 43
0.0000001
 44
0.0000000001
 40
0.0
 40
0.0
 40
0.0
 40
0.0
 40
0.5015949514
 40
0.7510711245
 40
1.0
 40
1.0
 40
1.0
 40
1.0
 10
282.9052964623
 20
93.7191299855
 30
0.0
 10
282.1369732415
 20
93.9752377258
 30
0.0
 10
280.9623379777
 20
94.2970603615
 30
0.0
 10
279.3625174988
 20
94.5279395241
 30
0.0
 10
278.5572212816
 20
94.5676357615
 30
0.0
 10
278.1552964625
 20
94.5676357615
 30
0.0
  0
SPLINE
  5
53E
100
AcDbEntity
  8
BEZUGSACHSEN
100
AcDbSpline
 62
7
  6
CONTINUOUS
 70
0
 71
3
 72
15
 73
11
 74
0
 42
0.0000001
 43
0.0000001
 44
0.0000000001
 40
0.0
 40
0.0
 40
0.0
 40
0.0
 40
0.1267857622
 40
0.2523051428
 40
0.3765638107
 40
0.5000001064
 40
0.6234363375
 40
0.7476948349
 40
0.8732141549
 40
1.0
 40
1.0
 40
1.0
 40
1.0
 10
282.9052964623
 20
86.5372908762
 30
0.0
 10
282.5373081169
 20
86.3248327059
 30
0.0
 10
281.7886611014
 20
85.9291061874
 30
0.0
 10
280.6164148292
 20
85.454170689
 30
0.0
 10
279.4005235505
 20
85.141386815
 30
0.0
 10
278.1552955993
 20
85.0310773386
 30
0.0
 10
276.9100680434
 20
85.1413862004
 30
0.0
 10
275.6941781532
 20
85.4541713641
 30
0.0
 10
274.5219319769
 20
85.9291056441
 30
0.0
 10
273.7732850484
 20
86.324832567
 30
0.0
 10
273.4052964623
 20
86.5372908762
 30
0.0
  0
SPLINE
  5
53F
100
AcDbEntity
  8
KONSTRUKTIONSELEMENTE
100
AcDbSpline
 62
7
  6
CONTINUOUS
 70
0
 71
3
 72
10
 73
6
 74
0
 42
0.0000001
 43
0.0000001
 44
0.0000000001
 40
0.0
 40
0.0
 40
0.0
 40
0.0
 40
0.2489289214
 40
0.4984051138
 40
1.0
 40
1.0
 40
1.0
 40
1.0
 10
278.1552964625
 20
94.5676357615
 30
0.0
 10
277.7533715694
 20
94.5676357615
 30
0.0
 10
276.9480752466
 20
94.5279395119
 30
0.0
 10
275.3482547723
 20
94.2970603145
 30
0.0
 10
274.1736195835
 20
93.9752376926
 30
0.0
 10
273.4052964623
 20
93.7191299855
 30
0.0
  0
SPLINE
  5
540
100
AcDbEntity
  8
KONSTRUKTIONSELEMENTE
100
AcDbSpline
 62
7
  6
CONTINUOUS
 70
0
 71
3
 72
10
 73
6
 74
0
 42
0.0000001
 43
0.0000001
 44
0.0000000001
 40
0.0
 40
0.0
 40
0.0
 40
0.0
 40
0.5015949514
 40
0.7510711245
 40
1.0
 40
1.0
 40
1.0
 40
1.0
 10
273.4052964623
 20
93.7191299855
 30
0.0
 10
272.6369732414
 20
93.9752377258
 30
0.0
 10
271.4623379775
 20
94.2970603616
 30
0.0
 10
269.8625174985
 20
94.5279395241
 30
0.0
 10
269.0572212812
 20
94.5676357615
 30
0.0
 10
268.6552964621
 20
94.5676357615
 30
0.0
  0
SPLINE
  5
541
100
AcDbEntity
  8
BEZUGSACHSEN
100
AcDbSpline
 62
7
  6
CONTINUOUS
 70
0
 71
3
 72
15
 73
11
 74
0
 42
0.0000001
 43
0.0000001
 44
0.0000000001
 40
0.0
 40
0.0
 40
0.0
 40
0.0
 40
0.1267857622
 40
0.2523051428
 40
0.3765638107
 40
0.5000001064
 40
0.6234363375
 40
0.7476948349
 40
0.8732141549
 40
1.0
 40
1.0
 40
1.0
 40
1.0
 10
273.4052964623
 20
86.5372908762
 30
0.0
 10
273.0373081169
 20
86.3248327059
 30
0.0
 10
272.2886611014
 20
85.9291061874
 30
0.0
 10
271.1164148292
 20
85.454170689
 30
0.0
 10
269.9005235505
 20
85.141386815
 30
0.0
 10
268.6552955993
 20
85.0310773386
 30
0.0
 10
267.4100680434
 20
85.1413862004
 30
0.0
 10
266.1941781532
 20
85.4541713641
 30
0.0
 10
265.0219319769
 20
85.9291056441
 30
0.0
 10
264.2732850484
 20
86.324832567
 30
0.0
 10
263.9052964623
 20
86.5372908762
 30
0.0
  0
SPLINE
  5
542
100
AcDbEntity
  8
0
100
AcDbSpline
 62
7
  6
CONTINUOUS
 70
0
 71
3
 72
8
 73
4
 74
0
 42
0.0000001
 43
0.0000001
 44
0.0000000001
 40
0.0
 40
0.0
 40
0.0
 40
0.0
 40
1.0
 40
1.0
 40
1.0
 40
1.0
 10
257.1754476505
 20
235.0229549992
 30
0.0
 10
257.2478232329
 20
234.7392254682
 30
0.0
 10
257.3203583161
 20
234.4555365703
 30
0.0
 10
257.3930621451
 20
234.1718909729
 30
0.0
  0
LINE
  5
543
100
AcDbEntity
  8
0
100
AcDbLine
 62
7
  6
CONTINUOUS
 10
257.1566327385
 20
234.1718909729
 11
257.2618386167
 21
233.7463591087
  0
LINE
  5
544
100
AcDbEntity
  8
0
100
AcDbLine
 62
7
  6
CONTINUOUS
 10
257.0257294068
 20
233.1080613125
 11
257.0451462607
 21
233.0545943365
  0
LINE
  5
545
100
AcDbEntity
  8
0
100
AcDbLine
 62
7
  6
CONTINUOUS
 10
257.2402614456
 20
232.4697633672
 11
257.2904036581
 21
232.2569974351
  0
LINE
  5
546
100
AcDbEntity
  8
0
100
AcDbLine
 62
7
  6
CONTINUOUS
 10
257.2904036581
 20
232.2569974351
 11
257.3427138996
 21
231.937848537
  0
LINE
  5
547
100
AcDbEntity
  8
0
100
AcDbLine
 62
7
  6
CONTINUOUS
 10
256.8549374508
 20
232.044231503
 11
256.8732050287
 21
231.9730320136
  0
LINE
  5
548
100
AcDbEntity
  8
0
100
AcDbLine
 62
7
  6
CONTINUOUS
 10
256.9651408819
 20
231.6186995644
 11
256.9855137434
 21
231.547321506
  0
LINE
  5
549
100
AcDbEntity
  8
0
100
AcDbLine
 62
7
  6
CONTINUOUS
 10
256.0509953497
 20
235.7676357615
 11
256.1509219695
 21
235.3044944675
  0
LINE
  5
54A
100
AcDbEntity
  8
0
100
AcDbLine
 62
7
  6
CONTINUOUS
 10
256.1509219695
 20
235.3044944675
 11
256.1676300398
 21
235.2270644561
  0
LINE
  5
54B
100
AcDbEntity
  8
0
100
AcDbLine
 62
7
  6
CONTINUOUS
 10
256.1676300398
 20
235.2270644561
 11
256.449708613
 21
233.9202250651
  0
LINE
  5
54C
100
AcDbEntity
  8
0
100
AcDbLine
 62
7
  6
CONTINUOUS
 10
256.449708613
 20
233.9202250651
 11
256.4687199461
 21
233.8321751578
  0
LINE
  5
54D
100
AcDbEntity
  8
0
100
AcDbLine
 62
7
  6
CONTINUOUS
 10
256.4687199461
 20
233.8321751578
 11
256.5352076013
 21
233.5242696194
  0
LINE
  5
54E
100
AcDbEntity
  8
0
100
AcDbLine
 62
7
  6
CONTINUOUS
 10
256.5352076013
 20
233.5242696194
 11
256.5489742399
 21
233.4605216072
  0
LINE
  5
54F
100
AcDbEntity
  8
0
100
AcDbLine
 62
7
  6
CONTINUOUS
 10
256.5489742399
 20
233.4605216072
 11
256.6480755897
 21
233.0016783464
  0
LINE
  5
550
100
AcDbEntity
  8
0
100
AcDbLine
 62
7
  6
CONTINUOUS
 10
256.0997988866
 20
235.2357209313
 11
256.1041483665
 21
235.2143705937
  0
LINE
  5
551
100
AcDbEntity
  8
0
100
AcDbLine
 62
7
  6
CONTINUOUS
 10
256.8966798313
 20
231.4890252337
 11
256.8723443577
 21
231.5983041465
  0
LINE
  5
552
100
AcDbEntity
  8
0
100
AcDbLine
 62
7
  6
CONTINUOUS
 10
256.7806140748
 20
232.0149008864
 11
256.7779068154
 21
232.0273082635
  0
LINE
  5
553
100
AcDbEntity
  8
0
100
AcDbLine
 62
7
  6
CONTINUOUS
 10
257.3523001893
 20
230.6990174238
 11
257.3490583796
 21
230.7094565792
  0
LINE
  5
554
100
AcDbEntity
  8
0
100
AcDbLine
 62
7
  6
CONTINUOUS
 10
257.3490583796
 20
230.7094565792
 11
257.3310374207
 21
230.7676176697
  0
LINE
  5
555
100
AcDbEntity
  8
0
100
AcDbLine
 62
7
  6
CONTINUOUS
 10
290.7107940381
 20
235.2357209313
 11
290.7064445591
 21
235.214370598
  0
LINE
  5
556
100
AcDbEntity
  8
0
100
AcDbLine
 62
7
  6
CONTINUOUS
 10
289.6346176878
 20
231.2773798478
 11
289.641246606
 21
231.2995506662
  0
LINE
  5
557
100
AcDbEntity
  8
0
100
AcDbLine
 62
7
  6
CONTINUOUS
 10
290.0052537536
 20
234.5974231351
 11
290.0612282032
 21
235.0229549992
  0
LINE
  5
558
100
AcDbEntity
  8
0
100
AcDbLine
 62
7
  6
CONTINUOUS
 10
289.9519853265
 20
234.2782739389
 11
290.0052537536
 21
234.5974231351
  0
LINE
  5
559
100
AcDbEntity
  8
0
100
AcDbLine
 62
7
  6
CONTINUOUS
 10
289.8486429186
 20
233.7463591087
 11
289.9519853265
 21
234.2782739389
  0
LINE
  5
55A
100
AcDbEntity
  8
0
100
AcDbLine
 62
7
  6
CONTINUOUS
 10
289.6227902715
 20
232.7889124143
 11
289.8486429186
 21
233.7463591087
  0
SPLINE
  5
55B
100
AcDbEntity
  8
0
100
AcDbSpline
 62
7
  6
CONTINUOUS
 70
0
 71
3
 72
8
 73
4
 74
0
 42
0.0000001
 43
0.0000001
 44
0.0000000001
 40
0.0
 40
0.0
 40
0.0
 40
0.0
 40
1.0
 40
1.0
 40
1.0
 40
1.0
 10
288.6885246423
 20
232.8952953804
 30
0.0
 10
288.7565512631
 20
233.1434686692
 30
0.0
 10
288.8243785386
 20
233.3916966777
 30
0.0
 10
288.8920166172
 20
233.6399761427
 30
0.0
  0
LINE
  5
55C
100
AcDbEntity
  8
0
100
AcDbLine
 62
7
  6
CONTINUOUS
 10
288.5534395238
 20
232.2569974351
 11
288.6885246423
 21
232.8952953804
  0
LINE
  5
55D
100
AcDbEntity
  8
0
100
AcDbLine
 62
7
  6
CONTINUOUS
 10
288.962232342
 20
231.0521990785
 11
288.9143816451
 21
230.9046730492
  0
LINE
  5
55E
100
AcDbEntity
  8
0
100
AcDbLine
 62
7
  6
CONTINUOUS
 10
288.8501802639
 20
230.7090310736
 11
288.8435254352
 21
230.6889003223
  0
LINE
  5
55F
100
AcDbEntity
  8
0
100
AcDbLine
 62
7
  6
CONTINUOUS
 10
289.9440728314
 20
234.0069962249
 11
289.8866473086
 21
233.7382253303
  0
LINE
  5
560
100
AcDbEntity
  8
0
100
AcDbLine
 62
7
  6
CONTINUOUS
 10
289.8866473086
 20
233.7382253303
 11
289.8798791788
 21
233.7067308698
  0
LINE
  5
561
100
AcDbEntity
  8
0
100
AcDbLine
 62
7
  6
CONTINUOUS
 10
289.7162163885
 20
232.9569718162
 11
289.6761519898
 21
232.7769139524
  0
LINE
  5
562
100
AcDbEntity
  8
0
100
AcDbLine
 62
7
  6
CONTINUOUS
 10
289.6761519898
 20
232.7769139524
 11
289.6518233336
 21
232.6682470763
  0
LINE
  5
563
100
AcDbEntity
  8
0
100
AcDbLine
 62
7
  6
CONTINUOUS
 10
289.5545222729
 20
232.2387140978
 11
289.5495881724
 21
232.2171488198
  0
LINE
  5
564
100
AcDbEntity
  8
0
100
AcDbLine
 62
7
  6
CONTINUOUS
 10
289.5495881724
 20
232.2171488198
 11
289.479497797
 21
231.9130576066
  0
LINE
  5
565
100
AcDbEntity
  8
0
100
AcDbLine
 62
7
  6
CONTINUOUS
 10
289.3797102944
 20
231.4873567931
 11
289.376681147
 21
231.4745666085
  0
LINE
  5
566
100
AcDbEntity
  8
0
100
AcDbLine
 62
7
  6
CONTINUOUS
 10
289.376681147
 20
231.4745666085
 11
289.3473173653
 21
231.3509845696
  0
LINE
  5
567
100
AcDbEntity
  8
0
100
AcDbLine
 62
7
  6
CONTINUOUS
 10
289.3473173653
 20
231.3509845696
 11
289.3350141757
 21
231.2994214192
  0
LINE
  5
568
100
AcDbEntity
  8
0
100
AcDbLine
 62
7
  6
CONTINUOUS
 10
256.6402647805
 20
232.6665703378
 11
256.5782634677
 21
232.9599286603
  0
LINE
  5
569
100
AcDbEntity
  8
0
100
AcDbLine
 62
7
  6
CONTINUOUS
 10
256.5782634677
 20
232.9599286603
 11
256.5755974548
 21
232.9726178328
  0
LINE
  5
56A
100
AcDbEntity
  8
0
100
AcDbLine
 62
7
  6
CONTINUOUS
 10
256.5755974548
 20
232.9726178328
 11
256.5727714057
 21
232.9860754524
  0
LINE
  5
56B
100
AcDbEntity
  8
0
100
AcDbLine
 62
7
  6
CONTINUOUS
 10
256.4638791047
 20
233.5098793478
 11
256.4229630672
 21
233.7093300017
  0
LINE
  5
56C
100
AcDbEntity
  8
0
100
AcDbLine
 62
7
  6
CONTINUOUS
 10
256.4229630672
 20
233.7093300017
 11
256.3621528595
 21
234.0083865709
  0
LINE
  5
56D
100
AcDbEntity
  8
0
100
AcDbLine
 62
7
  6
CONTINUOUS
 10
256.1221553198
 20
235.2189002593
 11
256.1188853003
 21
235.2357209313
  0
LINE
  5
56E
100
AcDbEntity
  8
0
100
AcDbLine
 62
7
  6
CONTINUOUS
 10
290.2049511981
 20
235.7676357615
 11
290.1470003624
 21
235.5015080031
  0
LINE
  5
56F
100
AcDbEntity
  8
0
100
AcDbLine
 62
7
  6
CONTINUOUS
 10
290.1470003624
 20
235.5015080031
 11
290.1102601767
 21
235.3328121751
  0
LINE
  5
570
100
AcDbEntity
  8
0
100
AcDbLine
 62
7
  6
CONTINUOUS
 10
290.1102601767
 20
235.3328121751
 11
290.0891126899
 21
235.2357209313
  0
SPLINE
  5
571
100
AcDbEntity
  8
BEZUGSACHSEN
100
AcDbSpline
 62
7
  6
CONTINUOUS
 70
0
 71
3
 72
22
 73
18
 74
0
 42
0.0000001
 43
0.0000001
 44
0.0000000001
 40
0.0
 40
0.0
 40
0.0
 40
0.0
 40
0.1738806098
 40
0.3385089888
 40
0.4149499978
 40
0.4865321718
 40
0.5528457297
 40
0.6137603728
 40
0.6694509635
 40
0.7204018418
 40
0.7673876557
 40
0.8114382258
 40
0.8538206645
 40
0.8961684436
 40
0.9413089715
 40
0.967230035
 40
1.0
 40
1.0
 40
1.0
 40
1.0
 10
273.4052964623
 20
232.5860523396
 30
0.0
 10
274.4080807199
 20
232.5860523396
 30
0.0
 10
276.3604169051
 20
232.5507360927
 30
0.0
 10
278.7504321372
 20
232.4069737172
 30
0.0
 10
280.5430439507
 20
232.209172631
 30
0.0
 10
281.7653177654
 20
232.0217312138
 30
0.0
 10
282.8883189722
 20
231.7870845655
 30
0.0
 10
283.9047100279
 20
231.5007929726
 30
0.0
 10
284.8101646209
 20
231.1590874077
 30
0.0
 10
285.6029290442
 20
230.7590131923
 30
0.0
 10
286.283109748
 20
230.2984289566
 30
0.0
 10
286.8519521993
 20
229.77567043
 30
0.0
 10
287.3113077377
 20
229.187432324
 30
0.0
 10
287.662839257
 20
228.5216130109
 30
0.0
 10
287.8538696953
 20
227.8908407629
 30
0.0
 10
287.9319850017
 20
227.2961418944
 30
0.0
 10
287.9268358494
 20
226.9552995736
 30
0.0
 10
287.904509956
 20
226.7676357615
 30
0.0
  0
LINE
  5
572
100
AcDbEntity
  8
0
100
AcDbLine
 62
7
  6
CONTINUOUS
 10
257.0308310349
 20
231.6186995644
 11
257.0112608269
 21
231.6893280435
  0
LINE
  5
573
100
AcDbEntity
  8
0
100
AcDbLine
 62
7
  6
CONTINUOUS
 10
257.1514350584
 20
232.6665703346
 11
257.1262379945
 21
232.7853929039
  0
LINE
  5
574
100
AcDbEntity
  8
0
100
AcDbLine
 62
7
  6
CONTINUOUS
 10
257.1262379945
 20
232.7853929039
 11
257.1024813563
 21
232.8979415016
  0
LINE
  5
575
100
AcDbEntity
  8
0
100
AcDbLine
 62
7
  6
CONTINUOUS
 10
257.5139169574
 20
231.6186995644
 11
257.4369474779
 21
232.1506144691
  0
LINE
  5
576
100
AcDbEntity
  8
0
100
AcDbLine
 62
7
  6
CONTINUOUS
 10
257.4369474779
 20
232.1506144691
 11
257.3346203027
 21
232.5761463333
  0
LINE
  5
577
100
AcDbEntity
  8
0
100
AcDbLine
 62
7
  6
CONTINUOUS
 10
257.1587096675
 20
233.1080613125
 11
257.1303534649
 21
233.1784137496
  0
LINE
  5
578
100
AcDbEntity
  8
0
100
AcDbLine
 62
7
  6
CONTINUOUS
 10
256.5783853027
 20
233.5335931766
 11
256.516782301
 21
233.8163555153
  0
LINE
  5
579
100
AcDbEntity
  8
0
100
AcDbLine
 62
7
  6
CONTINUOUS
 10
256.516782301
 20
233.8163555153
 11
256.5113524045
 21
233.8412819267
  0
LINE
  5
57A
100
AcDbEntity
  8
0
100
AcDbLine
 62
7
  6
CONTINUOUS
 10
256.5113524045
 20
233.8412819267
 11
256.4911368675
 21
233.9340870406
  0
LINE
  5
57B
100
AcDbEntity
  8
0
100
AcDbLine
 62
7
  6
CONTINUOUS
 10
256.4911368675
 20
233.9340870406
 11
256.2077432515
 21
235.2357209313
  0
LINE
  5
57C
100
AcDbEntity
  8
0
100
AcDbLine
 62
7
  6
CONTINUOUS
 10
256.6544153803
 20
235.2357209313
 11
256.5288709145
 21
235.7676357615
  0
LINE
  5
57D
100
AcDbEntity
  8
0
100
AcDbLine
 62
7
  6
CONTINUOUS
 10
256.1188853003
 20
235.2357209313
 11
256.0431303549
 21
235.5902357041
  0
LINE
  5
57E
100
AcDbEntity
  8
0
100
AcDbLine
 62
7
  6
CONTINUOUS
 10
256.0431303549
 20
235.5902357041
 11
256.0052238837
 21
235.7676357615
  0
SPLINE
  5
57F
100
AcDbEntity
  8
BEZUGSACHSEN
100
AcDbSpline
 62
7
  6
CONTINUOUS
 70
0
 71
3
 72
22
 73
18
 74
0
 42
0.0000001
 43
0.0000001
 44
0.0000000001
 40
0.0
 40
0.0
 40
0.0
 40
0.0
 40
0.1738806098
 40
0.3385089888
 40
0.4149499978
 40
0.4865321718
 40
0.5528457297
 40
0.6137603728
 40
0.6694509635
 40
0.7204018418
 40
0.7673876557
 40
0.8114382258
 40
0.8538206645
 40
0.8961684436
 40
0.9413089715
 40
0.967230035
 40
1.0
 40
1.0
 40
1.0
 40
1.0
 10
273.4052964623
 20
232.5860523396
 30
0.0
 10
272.4025122047
 20
232.5860523396
 30
0.0
 10
270.4501760195
 20
232.5507360927
 30
0.0
 10
268.0601607875
 20
232.4069737172
 30
0.0
 10
266.2675489739
 20
232.209172631
 30
0.0
 10
265.0452751593
 20
232.0217312138
 30
0.0
 10
263.9222739525
 20
231.7870845655
 30
0.0
 10
262.9058828968
 20
231.5007929726
 30
0.0
 10
262.0004283038
 20
231.1590874077
 30
0.0
 10
261.2076638805
 20
230.7590131923
 30
0.0
 10
260.5274831767
 20
230.2984289566
 30
0.0
 10
259.9586407254
 20
229.77567043
 30
0.0
 10
259.499285187
 20
229.187432324
 30
0.0
 10
259.1477536676
 20
228.5216130109
 30
0.0
 10
258.9567232294
 20
227.8908407629
 30
0.0
 10
258.878607923
 20
227.2961418944
 30
0.0
 10
258.8837570752
 20
226.9552995736
 30
0.0
 10
258.9060829687
 20
226.7676357615
 30
0.0
  0
LINE
  5
580
100
AcDbEntity
  8
0
100
AcDbLine
 62
7
  6
CONTINUOUS
 10
287.8920908099
 20
232.7889124143
 11
287.7844531989
 21
232.2569974351
  0
LINE
  5
581
100
AcDbEntity
  8
0
100
AcDbLine
 62
7
  6
CONTINUOUS
 10
287.7844531989
 20
232.2569974351
 11
287.7379339826
 21
231.937848537
  0
LINE
  5
582
100
AcDbEntity
  8
0
100
AcDbLine
 62
7
  6
CONTINUOUS
 10
287.7379339826
 20
231.937848537
 11
287.7056354553
 21
231.5123165983
  0
LINE
  5
583
100
AcDbEntity
  8
0
100
AcDbLine
 62
7
  6
CONTINUOUS
 10
258.0487041258
 20
231.5119801077
 11
258.0423647329
 21
231.6186995644
  0
LINE
  5
584
100
AcDbEntity
  8
0
100
AcDbLine
 62
7
  6
CONTINUOUS
 10
258.0423647329
 20
231.6186995644
 11
258.0297241653
 21
231.7068109137
  0
LINE
  5
585
100
AcDbEntity
  8
0
100
AcDbLine
 62
7
  6
CONTINUOUS
 10
256.9996786715
 20
233.9591246739
 11
256.7214802568
 21
235.2357209313
  0
LINE
  5
586
100
AcDbEntity
  8
0
100
AcDbLine
 62
7
  6
CONTINUOUS
 10
257.1789314006
 20
235.2357209313
 11
257.0528918977
 21
235.7676357615
  0
LINE
  5
587
100
AcDbEntity
  8
0
100
AcDbLine
 62
7
  6
CONTINUOUS
 10
258.6459416413
 20
233.7463591087
 11
258.5256416509
 21
234.1718909729
  0
LINE
  5
588
100
AcDbEntity
  8
0
100
AcDbLine
 62
7
  6
CONTINUOUS
 10
258.1014029896
 20
234.1718909729
 11
258.0927705995
 21
234.2044621623
  0
SPLINE
  5
589
100
AcDbEntity
  8
0
100
AcDbSpline
 62
7
  6
CONTINUOUS
 70
0
 71
3
 72
8
 73
4
 74
0
 42
0.0000001
 43
0.0000001
 44
0.0000000001
 40
0.0
 40
0.0
 40
0.0
 40
0.0
 40
1.0
 40
1.0
 40
1.0
 40
1.0
 10
258.0927705995
 20
234.2044621623
 30
0.0
 10
258.0204841899
 20
234.4772409784
 30
0.0
 10
257.9483984899
 20
234.7500730529
 30
0.0
 10
257.8765023783
 20
235.0229549992
 30
0.0
  0
LINE
  5
58A
100
AcDbEntity
  8
0
100
AcDbLine
 62
7
  6
CONTINUOUS
 10
290.7185873519
 20
235.7676357615
 11
290.6028496947
 21
235.2357209313
  0
LINE
  5
58B
100
AcDbEntity
  8
0
100
AcDbLine
 62
7
  6
CONTINUOUS
 10
259.4083519819
 20
230.7676357615
 11
259.285774145
 21
231.193167663
  0
LINE
  5
58C
100
AcDbEntity
  8
0
100
AcDbLine
 62
7
  6
CONTINUOUS
 10
289.3077977547
 20
234.2782739389
 11
289.2997188269
 21
234.2383867294
  0
LINE
  5
58D
100
AcDbEntity
  8
0
100
AcDbLine
 62
7
  6
CONTINUOUS
 10
289.2997188269
 20
234.2383867294
 11
289.1787024182
 21
233.6399761427
  0
LINE
  5
58E
100
AcDbEntity
  8
0
100
AcDbLine
 62
7
  6
CONTINUOUS
 10
289.1787024182
 20
233.6399761427
 11
288.9985945159
 21
232.8952953804
  0
LINE
  5
58F
100
AcDbEntity
  8
0
100
AcDbLine
 62
7
  6
CONTINUOUS
 10
289.8357071162
 20
234.2782739389
 11
289.7067228533
 21
233.6399761427
  0
LINE
  5
590
100
AcDbEntity
  8
0
100
AcDbLine
 62
7
  6
CONTINUOUS
 10
289.7067228533
 20
233.6399761427
 11
289.5275322086
 21
232.8952953804
  0
LINE
  5
591
100
AcDbEntity
  8
0
100
AcDbLine
 62
7
  6
CONTINUOUS
 10
258.0887660701
 20
233.7463591087
 11
257.9698262365
 21
234.1718909729
  0
SPLINE
  5
592
100
AcDbEntity
  8
0
100
AcDbSpline
 62
7
  6
CONTINUOUS
 70
0
 71
3
 72
8
 73
4
 74
0
 42
0.0000001
 43
0.0000001
 44
0.0000000001
 40
0.0
 40
0.0
 40
0.0
 40
0.0
 40
1.0
 40
1.0
 40
1.0
 40
1.0
 10
257.55793639
 20
234.1718909729
 30
0.0
 10
257.4833969548
 20
234.4555280124
 30
0.0
 10
257.409055415
 20
234.7392171242
 30
0.0
 10
257.3349007399
 20
235.0229549992
 30
0.0
  0
LINE
  5
593
100
AcDbEntity
  8
0
100
AcDbLine
 62
7
  6
CONTINUOUS
 10
288.2985495002
 20
231.937848537
 11
288.264921327
 21
231.5123165983
  0
LINE
  5
594
100
AcDbEntity
  8
0
100
AcDbLine
 62
7
  6
CONTINUOUS
 10
288.3453502711
 20
232.2569974351
 11
288.2985495002
 21
231.937848537
  0
LINE
  5
595
100
AcDbEntity
  8
0
100
AcDbLine
 62
7
  6
CONTINUOUS
 10
288.4525071926
 20
232.7889124143
 11
288.3453502711
 21
232.2569974351
  0
LINE
  5
596
100
AcDbEntity
  8
0
100
AcDbLine
 62
7
  6
CONTINUOUS
 10
258.8433463639
 20
230.7676357615
 11
258.7224164719
 21
231.193167663
  0
ENDSEC
  0
SECTION
  2
OBJECTS
  0
DICTIONARY
  5
C
100
AcDbDictionary
280
0
281
1
  3
ACAD_GROUP
350
D
  3
ACAD_MLINESTYLE
350
17
  3
ACAD_LAYOUT
350
1A
  3
ACAD_PLOTSETTINGS
350
19
  3
ACAD_PLOTSTYLENAME
350
E
  0
DICTIONARY
  5
D
102
{ACAD_REACTORS
330
C
102
}
100
AcDbDictionary
280
0
281
1
  0
ACDBDICTIONARYWDFLT
  5
E
102
{ACAD_REACTORS
330
C
102
}
100
AcDbDictionary
281
1
  3
Normal
350
F
100
AcDbDictionaryWithDefault
340
F
  0
DICTIONARY
  5
17
102
{ACAD_REACTORS
330
C
102
}
100
AcDbDictionary
280
0
281
1
  3
Standard
350
18
  0
DICTIONARY
  5
19
102
{ACAD_REACTORS
330
C
102
}
100
AcDbDictionary
281
1
  0
DICTIONARY
  5
1A
102
{ACAD_REACTORS
330
C
102
}
100
AcDbDictionary
281
1
  3
Model
350
597
  3
Layout1
350
598
  0
ACDBPLACEHOLDER
  5
F
102
{ACAD_REACTORS
330
E
102
}
  0
MLINESTYLE
  5
18
102
{ACAD_REACTORS
330
17
102
}
100
AcDbMlineStyle
  2
STANDARD
 70
0
  3

 62
256
 51
90.0
 52
90.0
 71
2
 49
0.5
 62
256
  6
BYLAYER
 49
-0.5
 62
256
  6
BYLAYER
  0
LAYOUT
  5
597
102
{ACAD_REACTORS
330
1A
102
}
100
AcDbPlotSettings
  1

  2
none_device
  4
ISO_A3_(420.00_x_297.00_MM)
  6

 40
0.0
 41
0.0
 42
0.0
 43
0.0
 44
420.0
 45
297.0
 46
0.0
 47
0.0
 48
0.0
 49
0.0
140
0.0
141
0.0
142
1.0
143
1.0
 70
1024
 72
1
 73
0
 74
0
  7

 75
0
147
1.0
148
0.0
149
0.0
100
AcDbLayout
  1
Model
 70
0
 71
0
 10
0.0
 20
0.0
 11
420.0
 21
297.0
 12
0.0
 22
0.0
 32
0.0
 14
0.0
 24
0.0
 34
0.0
 15
0.0
 25
0.0
 35
0.0
146
0.0
 13
0.0
 23
0.0
 33
0.0
 16
1.0
 26
0.0
 36
0.0
 17
0.0
 27
1.0
 37
0.0
 76
0
330
20E
345
0
346
0
  0
LAYOUT
  5
598
102
{ACAD_REACTORS
330
1A
102
}
100
AcDbPlotSettings
  1

  2
none_device
  4
ISO_A3_(420.00_x_297.00_MM)
  6

 40
0.0
 41
0.0
 42
0.0
 43
0.0
 44
420.0
 45
297.0
 46
0.0
 47
0.0
 48
0.0
 49
0.0
140
0.0
141
0.0
142
1.0
143
1.0
 70
0
 72
1
 73
0
 74
0
  7

 75
0
147
1.0
148
0.0
149
0.0
100
AcDbLayout
  1
Layout1
 70
0
 71
1
 10
0.0
 20
0.0
 11
420.0
 21
297.0
 12
0.0
 22
0.0
 32
0.0
 14
0.0
 24
0.0
 34
0.0
 15
0.0
 25
0.0
 35
0.0
146
0.0
 13
0.0
 23
0.0
 33
0.0
 16
1.0
 26
0.0
 36
0.0
 17
0.0
 27
1.0
 37
0.0
 76
0
330
20F
345
0
346
0
  0
ENDSEC
  0
EOF
