999
DXF file: VRS-F_0_4t_M10_MAX_8600270_M33721-P-1.dxf
999
Pro/ENGINEER 2011490 by Parametric Technology Corporation
  0
SECTION
  2
HEADER
  9
$ACADVER
  1
AC1015
  9
$DWGCODEPAGE
  3
ANSI_1252
  9
$EXTMAX
 10
297.0
 20
210.0
 30
0.0
  9
$EXTMIN
 10
0.0
 20
0.0
 30
0.0
  9
$LIMMIN
 10
0.0
 20
0.0
  9
$LIMMAX
 10
297.0
 20
210.0
  9
$VIEWCTR
 10
148.5
 20
105.0
  9
$VIEWSIZE
 40
210.0
  9
$CLAYER
  8
0
  9
$LTSCALE
 40
16.335
  9
$CELTYPE
  6
BYLAYER
  9
$DIMSCALE
 40
1.0
  9
$DIMASZ
 40
3.5
  9
$DIMEXO
 40
1.85625
  9
$DIMDLI
 40
11.286
  9
$DIMEXE
 40
5.346
  9
$DIMCEN
 40
2.673
  9
$DIMLFAC
 40
1.0
  9
$DIMBLK
  1
_FILLED
  9
$DIMTXT
 40
3.5
  9
$DIMTOL
 70
1
  9
$DIMLIM
 70
0
  9
$DIMTFAC
 40
1.0
  9
$DIMTP
 40
0.005
  9
$DIMTM
 40
0.005
  9
$PDMODE
 70
3
  9
$PDSIZE
 40
0.3125
  9
$HANDSEED
  5
520
  9
$TILEMODE
 70
1
  9
$MEASUREMENT
 70
1
  9
$INSUNITS
 70
4
  0
ENDSEC
  0
SECTION
  2
CLASSES
  0
CLASS
  1
ACDBDICTIONARYWDFLT
  2
AcDbDictionaryWithDefault
  3
AutoCAD 2000
 90
0
280
0
281
0
  0
CLASS
  1
ACDBPLACEHOLDER
  2
AcDbPlaceHolder
  3
AutoCAD 2000
 90
0
280
0
281
0
  0
CLASS
  1
LAYOUT
  2
AcDbLayout
  3
AutoCAD 2000
 90
0
280
0
281
0
  0
ENDSEC
  0
SECTION
  2
TABLES
  0
TABLE
  2
VPORT
  5
8
100
AcDbSymbolTable
 70
2
  0
VPORT
  5
1F4
100
AcDbSymbolTableRecord
100
AcDbViewportTableRecord
  2
*ACTIVE
 70
0
 10
0.0
 20
0.0
 11
1.0
 21
1.0
 12
148.5
 22
105.0
 13
0.0
 23
0.0
 14
1.0
 24
1.0
 15
0.0
 25
0.0
 16
0.0
 26
0.0
 36
1.0
 17
0.0
 27
0.0
 37
0.0
 40
210.0
 41
1.4142857143
 42
50.0
 43
0.0
 44
0.0
 50
0.0
 51
0.0
 71
0
 72
100
 73
1
 74
1
 75
0
 76
0
 77
0
 78
0
  0
ENDTAB
  0
TABLE
  2
LTYPE
  5
5
100
AcDbSymbolTable
 70
6
  0
LTYPE
  5
14
100
AcDbSymbolTableRecord
100
AcDbLinetypeTableRecord
  2
BYBLOCK
 70
0
  3

 72
65
 73
0
 40
0.0
  0
LTYPE
  5
15
100
AcDbSymbolTableRecord
100
AcDbLinetypeTableRecord
  2
BYLAYER
 70
0
  3

 72
65
 73
0
 40
0.0
  0
LTYPE
  5
16
100
AcDbSymbolTableRecord
100
AcDbLinetypeTableRecord
  2
CONTINUOUS
 70
64
  3
Solid line
 72
65
 73
0
 40
0.0
  0
LTYPE
  5
1F5
100
AcDbSymbolTableRecord
100
AcDbLinetypeTableRecord
  2
CENTER
 70
64
  3
____ _ ____ _ ____ _ ____ _ ____ _ ____ _ ____
 72
65
 73
4
 40
0.6
 49
0.375
 74
0
 49
-0.075
 74
0
 49
0.075
 74
0
 49
-0.075
 74
0
  0
LTYPE
  5
1F6
100
AcDbSymbolTableRecord
100
AcDbLinetypeTableRecord
  2
HIDDEN
 70
64
  3
- - - - - - - - - - - - - - - - - - - -
 72
65
 73
2
 40
0.2
 49
0.1
 74
0
 49
-0.1
 74
0
  0
LTYPE
  5
1F7
100
AcDbSymbolTableRecord
100
AcDbLinetypeTableRecord
  2
PHANTOM
 70
64
  3
_____ _ _ _____ _ _ _____ _ _ _____
 72
65
 73
6
 40
0.8
 49
0.45
 74
0
 49
-0.05
 74
0
 49
0.1
 74
0
 49
-0.05
 74
0
 49
0.1
 74
0
 49
-0.05
 74
0
  0
LTYPE
  5
1F8
100
AcDbSymbolTableRecord
100
AcDbLinetypeTableRecord
  2
DOT
 70
64
  3
. . . . . . . . . . . . . . . . . . . .
 72
65
 73
2
 40
0.2
 49
0.1
 74
0
 49
-0.1
 74
0
  0
LTYPE
  5
1F9
100
AcDbSymbolTableRecord
100
AcDbLinetypeTableRecord
  2
DASHED
 70
64
  3
- - - - - - - - - - - - - - - - - - - -
 72
65
 73
2
 40
0.2
 49
0.1
 74
0
 49
-0.1
 74
0
  0
ENDTAB
  0
TABLE
  2
LAYER
  5
2
100
AcDbSymbolTable
 70
36
  0
LAYER
  5
10
100
AcDbSymbolTableRecord
100
AcDbLayerTableRecord
  2
0
 70
0
 62
7
  6
CONTINUOUS
370
-3
390
F
  0
LAYER
  5
1FA
100
AcDbSymbolTableRecord
100
AcDbLayerTableRecord
  2
DEFAULT_1
 70
0
 62
7
  6
CENTER
370
-3
390
F
  0
LAYER
  5
1FB
100
AcDbSymbolTableRecord
100
AcDbLayerTableRecord
  2
DEFAULT_2
 70
0
 62
8
  6
HIDDEN
370
-3
390
F
  0
LAYER
  5
1FC
100
AcDbSymbolTableRecord
100
AcDbLayerTableRecord
  2
DEFAULT_3
 70
0
 62
7
  6
PHANTOM
370
-3
390
F
  0
LAYER
  5
1FD
100
AcDbSymbolTableRecord
100
AcDbLayerTableRecord
  2
BEZUGSACHSEN
 70
0
 62
7
  6
CONTINUOUS
370
-3
390
F
  0
LAYER
  5
1FE
100
AcDbSymbolTableRecord
100
AcDbLayerTableRecord
  2
BEZUGSEBENEN
 70
0
 62
7
  6
CONTINUOUS
370
-3
390
F
  0
LAYER
  5
1FF
100
AcDbSymbolTableRecord
100
AcDbLayerTableRecord
  2
BG_STARTBEZUEGE
 70
0
 62
7
  6
CONTINUOUS
370
-3
390
F
  0
LAYER
  5
200
100
AcDbSymbolTableRecord
100
AcDbLayerTableRecord
  2
FASEN
 70
0
 62
7
  6
CONTINUOUS
370
-3
390
F
  0
LAYER
  5
201
100
AcDbSymbolTableRecord
100
AcDbLayerTableRecord
  2
FLAECHEN
 70
0
 62
7
  6
CONTINUOUS
370
-3
390
F
  0
LAYER
  5
202
100
AcDbSymbolTableRecord
100
AcDbLayerTableRecord
  2
GEWINDE
 70
0
 62
7
  6
CONTINUOUS
370
-3
390
F
  0
LAYER
  5
203
100
AcDbSymbolTableRecord
100
AcDbLayerTableRecord
  2
HILFEN
 70
0
 62
7
  6
CONTINUOUS
370
-3
390
F
  0
LAYER
  5
204
100
AcDbSymbolTableRecord
100
AcDbLayerTableRecord
  2
KONSTRUKTIONSELEMENTE
 70
0
 62
7
  6
CONTINUOUS
370
-3
390
F
  0
LAYER
  5
205
100
AcDbSymbolTableRecord
100
AcDbLayerTableRecord
  2
KURVEN
 70
0
 62
7
  6
CONTINUOUS
370
-3
390
F
  0
LAYER
  5
206
100
AcDbSymbolTableRecord
100
AcDbLayerTableRecord
  2
NORM
 70
0
 62
7
  6
CONTINUOUS
370
-3
390
F
  0
LAYER
  5
207
100
AcDbSymbolTableRecord
100
AcDbLayerTableRecord
  2
PLATZIERUNG
 70
0
 62
7
  6
CONTINUOUS
370
-3
390
F
  0
LAYER
  5
208
100
AcDbSymbolTableRecord
100
AcDbLayerTableRecord
  2
RUNDUNGEN
 70
0
 62
7
  6
CONTINUOUS
370
-3
390
F
  0
LAYER
  5
209
100
AcDbSymbolTableRecord
100
AcDbLayerTableRecord
  2
TEIL_STARTBEZUEGE
 70
0
 62
7
  6
CONTINUOUS
370
-3
390
F
  0
LAYER
  5
20A
100
AcDbSymbolTableRecord
100
AcDbLayerTableRecord
  2
T_STARTBEZUEGE
 70
0
 62
7
  6
CONTINUOUS
370
-3
390
F
  0
LAYER
  5
20B
100
AcDbSymbolTableRecord
100
AcDbLayerTableRecord
  2
ZEICHNUNGSBEMASSUNGEN
 70
0
 62
7
  6
CONTINUOUS
370
-3
390
F
  0
ENDTAB
  0
TABLE
  2
STYLE
  5
3
100
AcDbSymbolTable
 70
1
  0
STYLE
  5
11
100
AcDbSymbolTableRecord
100
AcDbTextStyleTableRecord
  2
STANDARD
 70
0
 40
0.0
 41
0.7
 50
0.0
 71
0
 42
0.2
  3
txt
  4

  0
STYLE
  5
20C
100
AcDbSymbolTableRecord
100
AcDbTextStyleTableRecord
  2
TEXTSTYLE_1
 70
0
 40
0.0
 41
0.8
 50
0.0
 71
0
 42
0.2
  3
gdt
  4

  0
ENDTAB
  0
TABLE
  2
VIEW
  5
6
100
AcDbSymbolTable
 70
0
  0
ENDTAB
  0
TABLE
  2
UCS
  5
7
100
AcDbSymbolTable
 70
0
  0
ENDTAB
  0
TABLE
  2
APPID
  5
9
100
AcDbSymbolTable
 70
1
  0
APPID
  5
20D
100
AcDbSymbolTableRecord
100
AcDbRegAppTableRecord
  2
ACAD
 70
0
  0
ENDTAB
  0
TABLE
  2
BLOCK_RECORD
  5
1
100
AcDbSymbolTable
 70
0
  0
BLOCK_RECORD
  5
20E
100
AcDbSymbolTableRecord
100
AcDbBlockTableRecord
  2
*Model_Space
  0
BLOCK_RECORD
  5
20F
100
AcDbSymbolTableRecord
100
AcDbBlockTableRecord
  2
*Paper_Space
  0
ENDTAB
  0
TABLE
  2
DIMSTYLE
  5
A
100
AcDbSymbolTable
 70
1
100
AcDbDimStyleTable
 71
0
  0
DIMSTYLE
105
210
100
AcDbSymbolTableRecord
100
AcDbDimStyleTableRecord
  2
STANDARD
 70
0
  3

  4

 40
1.0
 41
3.5
 42
0.0625
 43
0.38
 44
0.18
 45
0.0
 46
0.0
 47
0.005
 48
0.005
140
3.5
141
0.09
142
0.0
143
25.4
144
1.0
145
0.0
146
1.0
147
0.09
 71
1.0
 72
0.0
 73
0
 74
0
 75
0
 76
0
 77
1
 78
8
170
0
171
2
172
0
173
0
174
0
175
0
176
0
177
0
178
5
270
2
271
3
272
3
273
2
274
2
275
0
280
0
281
0
282
0
283
1
284
8
285
0
286
0
287
3
288
0
340
11
  0
ENDTAB
  0
ENDSEC
  0
SECTION
  2
BLOCKS
  0
BLOCK
  5
20
100
AcDbEntity
  8
0
100
AcDbBlockBegin
  2
*Model_Space
 70
0
 10
0.0
 20
0.0
 30
0.0
  3
*Model_Space
  1

  0
ENDBLK
  5
21
100
AcDbEntity
  8
0
100
AcDbBlockEnd
  0
BLOCK
  5
1C
100
AcDbEntity
  8
0
100
AcDbBlockBegin
  2
*Paper_Space
 70
0
 10
0.0
 20
0.0
 30
0.0
  3
*Paper_Space
  1

  0
ENDBLK
  5
1D
100
AcDbEntity
  8
0
100
AcDbBlockEnd
  0
ENDSEC
  0
SECTION
  2
ENTITIES
  0
MTEXT
  5
211
100
AcDbEntity
  8
0
100
AcDbMText
 62
5
  6
CONTINUOUS
  7
STANDARD
 71
1
 72
1
 10
179.0865682859
 20
157.6360632886
 30
0.0
 11
0.0
 21
1.0
 31
0.0
 44
0.9
  1
VRS 0,4t RUD
 40
3.0
 41
28.0714285714
  0
MTEXT
  5
212
100
AcDbEntity
  8
0
100
AcDbMText
 62
5
  6
CONTINUOUS
  7
STANDARD
 71
1
 72
1
 10
76.0666216798
 20
39.8854166423
 30
0.0
 11
1.0
 21
0.0
 31
0.0
 44
0.9
  1
VRS 0,4t RUD
 40
3.0
 41
28.0714285714
  0
LINE
  5
213
100
AcDbEntity
  8
0
100
AcDbLine
 62
7
  6
CONTINUOUS
 10
0.0
 20
0.0
 11
0.0
 21
210.0
  0
LINE
  5
214
100
AcDbEntity
  8
0
100
AcDbLine
 62
7
  6
CONTINUOUS
 10
0.0
 20
0.0
 11
297.0
 21
0.0
  0
LINE
  5
215
100
AcDbEntity
  8
0
100
AcDbLine
 62
7
  6
CONTINUOUS
 10
0.0
 20
210.0
 11
297.0
 21
210.0
  0
LINE
  5
216
100
AcDbEntity
  8
0
100
AcDbLine
 62
7
  6
CONTINUOUS
 10
297.0
 20
0.0
 11
297.0
 21
210.0
  0
LINE
  5
217
100
AcDbEntity
  8
KONSTRUKTIONSELEMENTE
100
AcDbLine
 62
7
  6
CONTINUOUS
 10
86.52222726
 20
74.438941569
 11
94.52222726
 21
74.438941569
  0
LINE
  5
218
100
AcDbEntity
  8
KONSTRUKTIONSELEMENTE
100
AcDbLine
 62
7
  6
CONTINUOUS
 10
85.52222726
 20
75.438941569
 11
95.52222726
 21
75.438941569
  0
LINE
  5
219
100
AcDbEntity
  8
BEZUGSACHSEN
100
AcDbLine
 62
7
  6
CONTINUOUS
 10
96.27222726
 20
79.438941569
 11
84.77222726
 21
79.438941569
  0
LINE
  5
21A
100
AcDbEntity
  8
RUNDUNGEN
100
AcDbLine
 62
7
  6
CONTINUOUS
 10
74.4792430507
 20
183.4937199286
 11
89.9482021115
 21
189.9011725674
  0
LINE
  5
21B
100
AcDbEntity
  8
0
100
AcDbLine
 62
7
  6
CONTINUOUS
 10
79.1319627618
 20
182.0435106392
 11
78.910208172
 21
181.8969801661
  0
LINE
  5
21C
100
AcDbEntity
  8
0
100
AcDbLine
 62
7
  6
CONTINUOUS
 10
79.1727092813
 20
181.7081365752
 11
79.3208067742
 21
181.7810099514
  0
LINE
  5
21D
100
AcDbEntity
  8
0
100
AcDbLine
 62
7
  6
CONTINUOUS
 10
77.5514725907
 20
180.1621240013
 11
77.6995700836
 21
180.2349973775
  0
LINE
  5
21E
100
AcDbEntity
  8
0
100
AcDbLine
 62
7
  6
CONTINUOUS
 10
79.4783073344
 20
180.9605967839
 11
79.3302098415
 21
180.8877234077
  0
LINE
  5
21F
100
AcDbEntity
  8
0
100
AcDbLine
 62
7
  6
CONTINUOUS
 10
88.5951445128
 20
184.6283032426
 11
88.4388945128
 21
184.5751117596
  0
LINE
  5
220
100
AcDbEntity
  8
0
100
AcDbLine
 62
7
  6
CONTINUOUS
 10
80.1435706822
 20
181.4001877817
 11
79.9210323718
 21
181.3280977046
  0
LINE
  5
221
100
AcDbEntity
  8
0
100
AcDbLine
 62
7
  6
CONTINUOUS
 10
79.2965155434
 20
180.5531326429
 11
79.5190534324
 21
180.6252222984
  0
LINE
  5
222
100
AcDbEntity
  8
0
100
AcDbLine
 62
7
  6
CONTINUOUS
 10
78.910208172
 20
181.8969801661
 11
78.7260660621
 21
181.7128380562
  0
LINE
  5
223
100
AcDbEntity
  8
0
100
AcDbLine
 62
7
  6
CONTINUOUS
 10
77.3265837505
 20
180.3133557446
 11
76.442700274
 21
179.4294722681
  0
LINE
  5
224
100
AcDbEntity
  8
0
100
AcDbLine
 62
7
  6
CONTINUOUS
 10
76.1480724134
 20
179.1348444075
 11
75.9271015443
 21
178.9138735384
  0
LINE
  5
225
100
AcDbEntity
  8
0
100
AcDbLine
 62
7
  6
CONTINUOUS
 10
74.8959041902
 20
177.8826761843
 11
74.674933321
 21
177.6617053151
  0
LINE
  5
226
100
AcDbEntity
  8
0
100
AcDbLine
 62
7
  6
CONTINUOUS
 10
76.8517314349
 20
179.4623828455
 11
77.5514725907
 21
180.1621240013
  0
LINE
  5
227
100
AcDbEntity
  8
0
100
AcDbLine
 62
7
  6
CONTINUOUS
 10
78.9517384122
 20
181.4871657061
 11
79.1727092813
 21
181.7081365752
  0
LINE
  5
228
100
AcDbEntity
  8
0
100
AcDbLine
 62
7
  6
CONTINUOUS
 10
77.5483381295
 20
180.4598860069
 11
77.3265837505
 21
180.3133557446
  0
LINE
  5
229
100
AcDbEntity
  8
0
100
AcDbLine
 62
7
  6
CONTINUOUS
 10
79.9210323718
 20
181.3280977046
 11
79.6992782035
 21
181.181567653
  0
LINE
  5
22A
100
AcDbEntity
  8
0
100
AcDbLine
 62
7
  6
CONTINUOUS
 10
80.1984213251
 20
179.7248835366
 11
80.4201759182
 21
179.8714140063
  0
LINE
  5
22B
100
AcDbEntity
  8
0
100
AcDbLine
 62
7
  6
CONTINUOUS
 10
79.9249505536
 20
180.9558953029
 11
80.1098763842
 21
181.0655970169
  0
LINE
  5
22C
100
AcDbEntity
  8
0
100
AcDbLine
 62
7
  6
CONTINUOUS
 10
79.5190534324
 20
180.6252222984
 11
79.7039796844
 21
180.7349244338
  0
LINE
  5
22D
100
AcDbEntity
  8
0
100
AcDbLine
 62
7
  6
CONTINUOUS
 10
80.1945035418
 20
180.0970863828
 11
80.0095777112
 21
179.9873846688
  0
LINE
  5
22E
100
AcDbEntity
  8
0
100
AcDbLine
 62
7
  6
CONTINUOUS
 10
88.6472279455
 20
184.3623458275
 11
88.8555612292
 21
184.4687287936
  0
LINE
  5
22F
100
AcDbEntity
  8
0
100
AcDbLine
 62
7
  6
CONTINUOUS
 10
90.8347277965
 20
183.1921330567
 11
91.0430612292
 21
183.2985160367
  0
LINE
  5
230
100
AcDbEntity
  8
0
100
AcDbLine
 62
7
  6
CONTINUOUS
 10
93.3347280945
 20
183.1921330567
 11
93.5430612292
 21
183.2985160367
  0
LINE
  5
231
100
AcDbEntity
  8
BEZUGSACHSEN
100
AcDbLine
 62
7
  6
CONTINUOUS
 10
100.52222726
 20
89.438941569
 11
80.52222726
 21
89.438941569
  0
LINE
  5
232
100
AcDbEntity
  8
BEZUGSACHSEN
100
AcDbLine
 62
7
  6
CONTINUOUS
 10
100.52222726
 20
91.438941569
 11
80.52222726
 21
91.438941569
  0
LINE
  5
233
100
AcDbEntity
  8
KONSTRUKTIONSELEMENTE
100
AcDbLine
 62
7
  6
CONTINUOUS
 10
85.52222726
 20
75.438941569
 11
86.52222726
 21
74.438941569
  0
LINE
  5
234
100
AcDbEntity
  8
BEZUGSACHSEN
100
AcDbLine
 62
7
  6
CONTINUOUS
 10
80.7072726838
 20
83.5038961453
 11
84.77222726
 21
79.438941569
  0
LINE
  5
235
100
AcDbEntity
  8
0
100
AcDbLine
 62
7
  6
CONTINUOUS
 10
79.5817404421
 20
181.7410471526
 11
79.8027113112
 21
181.9620180217
  0
LINE
  5
236
100
AcDbEntity
  8
0
100
AcDbLine
 62
7
  6
CONTINUOUS
 10
79.6992782035
 20
181.181567653
 11
79.4783073344
 21
180.9605967839
  0
LINE
  5
237
100
AcDbEntity
  8
0
100
AcDbLine
 62
7
  6
CONTINUOUS
 10
78.1156535712
 20
179.5979430207
 11
77.4159124154
 21
178.8982018649
  0
LINE
  5
238
100
AcDbEntity
  8
0
100
AcDbLine
 62
7
  6
CONTINUOUS
 10
77.6415847655
 20
178.6725295149
 11
78.2676688244
 21
179.2986135738
  0
LINE
  5
239
100
AcDbEntity
  8
0
100
AcDbLine
 62
7
  6
CONTINUOUS
 10
79.7039796844
 20
180.7349244338
 11
79.9249505536
 21
180.9558953029
  0
LINE
  5
23A
100
AcDbEntity
  8
0
100
AcDbLine
 62
7
  6
CONTINUOUS
 10
79.636591141
 20
180.0657428515
 11
79.4156204826
 21
179.8447721931
  0
LINE
  5
23B
100
AcDbEntity
  8
0
100
AcDbLine
 62
7
  6
CONTINUOUS
 10
80.4891315078
 20
180.3917143487
 11
80.1945035418
 21
180.0970863828
  0
LINE
  5
23C
100
AcDbEntity
  8
0
100
AcDbLine
 62
7
  6
CONTINUOUS
 10
77.0319559426
 20
176.4831940307
 11
77.3265837505
 21
176.7778218386
  0
LINE
  5
23D
100
AcDbEntity
  8
0
100
AcDbLine
 62
7
  6
CONTINUOUS
 10
78.210467227
 20
177.6617053151
 11
78.4314380961
 21
177.8826761843
  0
LINE
  5
23E
100
AcDbEntity
  8
0
100
AcDbLine
 62
7
  6
CONTINUOUS
 10
79.352150121
 20
178.8033882092
 11
79.6099493278
 21
179.061187416
  0
LINE
  5
23F
100
AcDbEntity
  8
0
100
AcDbLine
 62
7
  6
CONTINUOUS
 10
80.4201759182
 20
179.8714140063
 11
80.7148038842
 21
180.1660419723
  0
LINE
  5
240
100
AcDbEntity
  8
0
100
AcDbLine
 62
7
  6
CONTINUOUS
 10
90.9388946618
 20
183.6176649907
 11
90.7826446618
 21
183.5112819874
  0
LINE
  5
241
100
AcDbEntity
  8
0
100
AcDbLine
 62
7
  6
CONTINUOUS
 10
93.4388943638
 20
183.6176649907
 11
93.2826443638
 21
183.5112819874
  0
LINE
  5
242
100
AcDbEntity
  8
BEZUGSACHSEN
100
AcDbLine
 62
7
  6
CONTINUOUS
 10
67.2661470756
 20
167.2278160959
 11
67.3914714735
 21
167.530375957
  0
LINE
  5
243
100
AcDbEntity
  8
RUNDUNGEN
100
AcDbLine
 62
7
  6
CONTINUOUS
 10
67.3914714735
 20
167.530375957
 11
73.6674489005
 21
182.6819257784
  0
LINE
  5
244
100
AcDbEntity
  8
0
100
AcDbLine
 62
7
  6
CONTINUOUS
 10
78.7260660621
 20
181.7128380562
 11
78.6163639267
 21
181.5279118041
  0
LINE
  5
245
100
AcDbEntity
  8
0
100
AcDbLine
 62
7
  6
CONTINUOUS
 10
80.5988332217
 20
180.5766401793
 11
80.4891315078
 21
180.3917143487
  0
LINE
  5
246
100
AcDbEntity
  8
0
100
AcDbLine
 62
7
  6
CONTINUOUS
 10
80.7148038842
 20
180.1660419723
 11
80.8613339325
 21
180.3877961439
  0
LINE
  5
247
100
AcDbEntity
  8
0
100
AcDbLine
 62
7
  6
CONTINUOUS
 10
88.6993112292
 20
184.7346862087
 11
88.5951445128
 21
184.6283032426
  0
LINE
  5
248
100
AcDbEntity
  8
0
100
AcDbLine
 62
7
  6
CONTINUOUS
 10
91.0430612292
 20
183.2985160367
 11
91.2513946618
 21
183.5112819874
  0
LINE
  5
249
100
AcDbEntity
  8
0
100
AcDbLine
 62
7
  6
CONTINUOUS
 10
93.5430612292
 20
183.2985160367
 11
93.7513943638
 21
183.5112819874
  0
LINE
  5
24A
100
AcDbEntity
  8
KONSTRUKTIONSELEMENTE
100
AcDbLine
 62
7
  6
CONTINUOUS
 10
99.02222726
 20
89.438941569
 11
100.3371818363
 21
88.6797521905
  0
LINE
  5
24B
100
AcDbEntity
  8
0
100
AcDbLine
 62
7
  6
CONTINUOUS
 10
78.8788650359
 20
181.3390682132
 11
78.9517384122
 21
181.4871657061
  0
LINE
  5
24C
100
AcDbEntity
  8
0
100
AcDbLine
 62
7
  6
CONTINUOUS
 10
78.1885269474
 20
179.7460405136
 11
78.1156535712
 21
179.5979430207
  0
LINE
  5
24D
100
AcDbEntity
  8
0
100
AcDbLine
 62
7
  6
CONTINUOUS
 10
88.8555612292
 20
184.4687287936
 11
89.0118112292
 21
184.6814947257
  0
LINE
  5
24E
100
AcDbEntity
  8
0
100
AcDbLine
 62
7
  6
CONTINUOUS
 10
78.6163639267
 20
181.5279118041
 11
78.5442742711
 21
181.3053739151
  0
LINE
  5
24F
100
AcDbEntity
  8
0
100
AcDbLine
 62
7
  6
CONTINUOUS
 10
78.4134155768
 20
179.5948085596
 11
78.4855054431
 21
179.8173466593
  0
LINE
  5
250
100
AcDbEntity
  8
0
100
AcDbLine
 62
7
  6
CONTINUOUS
 10
80.8613339325
 20
180.3877961439
 11
80.9334239996
 21
180.6103344642
  0
LINE
  5
251
100
AcDbEntity
  8
0
100
AcDbLine
 62
7
  6
CONTINUOUS
 10
91.0430612292
 20
183.7772394398
 11
90.9388946618
 21
183.6176649907
  0
LINE
  5
252
100
AcDbEntity
  8
0
100
AcDbLine
 62
7
  6
CONTINUOUS
 10
93.5430612292
 20
183.7772394398
 11
93.4388943638
 21
183.6176649907
  0
LINE
  5
253
100
AcDbEntity
  8
0
100
AcDbLine
 62
7
  6
CONTINUOUS
 10
102.2350607026
 20
178.9773247618
 11
102.4987244603
 21
179.2409885195
  0
LINE
  5
254
100
AcDbEntity
  8
0
100
AcDbLine
 62
7
  6
CONTINUOUS
 10
103.7295778229
 20
180.471841882
 11
103.9932415806
 21
180.7355056398
  0
LINE
  5
255
100
AcDbEntity
  8
RUNDUNGEN
100
AcDbLine
 62
7
  6
CONTINUOUS
 10
71.02222726
 20
157.0645868676
 11
71.02222726
 21
151.638941569
  0
LINE
  5
256
100
AcDbEntity
  8
BEZUGSACHSEN
100
AcDbLine
 62
7
  6
CONTINUOUS
 10
71.02222726
 20
151.638941569
 11
71.02222726
 21
157.0645820735
  0
LINE
  5
257
100
AcDbEntity
  8
0
100
AcDbLine
 62
7
  6
CONTINUOUS
 10
78.8436037181
 20
181.1533586619
 11
78.8788650359
 21
181.3390682132
  0
LINE
  5
258
100
AcDbEntity
  8
0
100
AcDbLine
 62
7
  6
CONTINUOUS
 10
80.6340945132
 20
180.7623497569
 11
80.5988332217
 21
180.5766401793
  0
LINE
  5
259
100
AcDbEntity
  8
0
100
AcDbLine
 62
7
  6
CONTINUOUS
 10
91.2513946618
 20
183.5112819874
 11
91.3555612292
 21
183.7240479568
  0
LINE
  5
25A
100
AcDbEntity
  8
0
100
AcDbLine
 62
7
  6
CONTINUOUS
 10
93.7513943638
 20
183.5112819874
 11
93.8555612292
 21
183.7240479568
  0
LINE
  5
25B
100
AcDbEntity
  8
0
100
AcDbLine
 62
7
  6
CONTINUOUS
 10
104.2959530901
 20
178.4059126755
 11
104.5596168478
 21
178.6695764333
  0
LINE
  5
25C
100
AcDbEntity
  8
0
100
AcDbLine
 62
7
  6
CONTINUOUS
 10
103.7350607026
 20
177.4773247618
 11
103.9987244603
 21
177.7409885195
  0
LINE
  5
25D
100
AcDbEntity
  8
0
100
AcDbLine
 62
7
  6
CONTINUOUS
 10
105.2295778229
 20
178.971841882
 11
105.4932415806
 21
179.2355056398
  0
LINE
  5
25E
100
AcDbEntity
  8
0
100
AcDbLine
 62
7
  6
CONTINUOUS
 10
88.7513945128
 20
184.8942606577
 11
88.6993112292
 21
184.7346862087
  0
LINE
  5
25F
100
AcDbEntity
  8
0
100
AcDbLine
 62
7
  6
CONTINUOUS
 10
89.0118112292
 20
184.6814947257
 11
89.0638945128
 21
184.8410691747
  0
LINE
  5
260
100
AcDbEntity
  8
0
100
AcDbLine
 62
7
  6
CONTINUOUS
 10
85.4805605735
 20
151.2985160777
 11
85.2305606033
 21
151.0431969592
  0
LINE
  5
261
100
AcDbEntity
  8
0
100
AcDbLine
 62
7
  6
CONTINUOUS
 10
85.7305605735
 20
150.9580905864
 11
85.9805606331
 21
151.128303332
  0
LINE
  5
262
100
AcDbEntity
  8
0
100
AcDbLine
 62
7
  6
CONTINUOUS
 10
87.0638940062
 20
148.3197926113
 11
86.813893887
 21
148.1495798656
  0
LINE
  5
263
100
AcDbEntity
  8
0
100
AcDbLine
 62
7
  6
CONTINUOUS
 10
85.89722726
 20
151.5538351962
 11
85.4805605735
 21
151.2985160777
  0
LINE
  5
264
100
AcDbEntity
  8
0
100
AcDbLine
 62
7
  6
CONTINUOUS
 10
78.1869597169
 20
179.8949215165
 11
78.1885269474
 21
179.7460405136
  0
LINE
  5
265
100
AcDbEntity
  8
0
100
AcDbLine
 62
7
  6
CONTINUOUS
 10
78.5442742711
 20
181.3053739151
 11
78.5474087323
 21
181.0076119095
  0
LINE
  5
266
100
AcDbEntity
  8
0
100
AcDbLine
 62
7
  6
CONTINUOUS
 10
80.9334239996
 20
180.6103344642
 11
80.9302895254
 21
180.908096483
  0
LINE
  5
267
100
AcDbEntity
  8
BEZUGSACHSEN
100
AcDbLine
 62
7
  6
CONTINUOUS
 10
80.52222726
 20
91.438941569
 11
80.52222726
 21
89.438941569
  0
LINE
  5
268
100
AcDbEntity
  8
KONSTRUKTIONSELEMENTE
100
AcDbLine
 62
7
  6
CONTINUOUS
 10
80.7072726838
 20
88.6797521905
 11
80.7072726838
 21
83.5038961453
  0
LINE
  5
269
100
AcDbEntity
  8
0
100
AcDbLine
 62
7
  6
CONTINUOUS
 10
91.0951446618
 20
183.9900053719
 11
91.0430612292
 21
183.7772394398
  0
LINE
  5
26A
100
AcDbEntity
  8
0
100
AcDbLine
 62
7
  6
CONTINUOUS
 10
93.5951443638
 20
183.9900053719
 11
93.5430612292
 21
183.7772394398
  0
LINE
  5
26B
100
AcDbEntity
  8
0
100
AcDbLine
 62
7
  6
CONTINUOUS
 10
85.0638939317
 20
150.7027714679
 11
84.9805605959
 21
150.447452111
  0
LINE
  5
26C
100
AcDbEntity
  8
0
100
AcDbLine
 62
7
  6
CONTINUOUS
 10
85.2305606033
 20
151.0431969592
 11
85.0638939317
 21
150.7027714679
  0
LINE
  5
26D
100
AcDbEntity
  8
0
100
AcDbLine
 62
7
  6
CONTINUOUS
 10
87.5638940062
 20
148.2346862385
 11
87.7305605139
 21
148.5751117894
  0
LINE
  5
26E
100
AcDbEntity
  8
0
100
AcDbLine
 62
7
  6
CONTINUOUS
 10
85.39722726
 20
150.447452111
 11
85.7305605735
 21
150.9580905864
  0
LINE
  5
26F
100
AcDbEntity
  8
0
100
AcDbLine
 62
7
  6
CONTINUOUS
 10
87.39722726
 20
148.8304309079
 11
87.0638940062
 21
148.3197926113
  0
LINE
  5
270
100
AcDbEntity
  8
0
100
AcDbLine
 62
7
  6
CONTINUOUS
 10
92.14722726
 20
151.638941569
 11
90.14722726
 21
149.3410692641
  0
LINE
  5
271
100
AcDbEntity
  8
0
100
AcDbLine
 62
7
  6
CONTINUOUS
 10
90.7305607523
 20
149.3410692641
 11
92.14722726
 21
150.9580905864
  0
LINE
  5
272
100
AcDbEntity
  8
0
100
AcDbLine
 62
7
  6
CONTINUOUS
 10
87.3138940062
 20
147.9793670902
 11
87.5638940062
 21
148.2346862385
  0
LINE
  5
273
100
AcDbEntity
  8
0
100
AcDbLine
 62
7
  6
CONTINUOUS
 10
86.89722726
 20
147.7240479493
 11
87.3138940062
 21
147.9793670902
  0
LINE
  5
274
100
AcDbEntity
  8
BEZUGSACHSEN
100
AcDbLine
 62
7
  6
CONTINUOUS
 10
74.1273837596
 20
149.5152751417
 11
73.9176467804
 21
150.0216250014
  0
LINE
  5
275
100
AcDbEntity
  8
BEZUGSACHSEN
100
AcDbLine
 62
7
  6
CONTINUOUS
 10
70.9461067926
 20
157.1955571412
 11
67.2661470756
 21
166.0797657988
  0
LINE
  5
276
100
AcDbEntity
  8
KONSTRUKTIONSELEMENTE
100
AcDbLine
 62
7
  6
CONTINUOUS
 10
82.37222726
 20
144.638941569
 11
82.37222726
 21
144.438941569
  0
LINE
  5
277
100
AcDbEntity
  8
0
100
AcDbLine
 62
7
  6
CONTINUOUS
 10
82.52222726
 20
160.938941569
 11
82.52222726
 21
162.438941569
  0
LINE
  5
278
100
AcDbEntity
  8
0
100
AcDbLine
 62
7
  6
CONTINUOUS
 10
84.89722726
 20
150.0219202468
 11
84.89722726
 21
149.2559628913
  0
LINE
  5
279
100
AcDbEntity
  8
0
100
AcDbLine
 62
7
  6
CONTINUOUS
 10
85.3138939168
 20
149.3410692641
 11
85.3138939168
 21
149.936813874
  0
LINE
  5
27A
100
AcDbEntity
  8
KONSTRUKTIONSELEMENTE
100
AcDbLine
 62
7
  6
CONTINUOUS
 10
85.52222726
 20
144.438941569
 11
85.52222726
 21
91.438941569
  0
LINE
  5
27B
100
AcDbEntity
  8
KONSTRUKTIONSELEMENTE
100
AcDbLine
 62
7
  6
CONTINUOUS
 10
85.52222726
 20
79.438941569
 11
85.52222726
 21
75.438941569
  0
LINE
  5
27C
100
AcDbEntity
  8
KONSTRUKTIONSELEMENTE
100
AcDbLine
 62
7
  6
CONTINUOUS
 10
85.6147499719
 20
88.6797521905
 11
85.6147499719
 21
83.5038961453
  0
LINE
  5
27D
100
AcDbEntity
  8
0
100
AcDbLine
 62
7
  6
CONTINUOUS
 10
85.3138939168
 20
149.936813874
 11
85.39722726
 21
150.447452111
  0
LINE
  5
27E
100
AcDbEntity
  8
0
100
AcDbLine
 62
7
  6
CONTINUOUS
 10
87.4805605139
 20
149.3410692641
 11
87.39722726
 21
148.8304309079
  0
LINE
  5
27F
100
AcDbEntity
  8
0
100
AcDbLine
 62
7
  6
CONTINUOUS
 10
91.3555612292
 20
183.7240479568
 11
91.4076446618
 21
183.9900053719
  0
LINE
  5
280
100
AcDbEntity
  8
0
100
AcDbLine
 62
7
  6
CONTINUOUS
 10
84.9805605959
 20
150.447452111
 11
84.89722726
 21
150.0219202468
  0
LINE
  5
281
100
AcDbEntity
  8
0
100
AcDbLine
 62
7
  6
CONTINUOUS
 10
93.8555612292
 20
183.7240479568
 11
93.9076443638
 21
183.9900053719
  0
LINE
  5
282
100
AcDbEntity
  8
0
100
AcDbLine
 62
7
  6
CONTINUOUS
 10
87.8138940062
 20
148.8304309079
 11
87.89722726
 21
149.2559628913
  0
LINE
  5
283
100
AcDbEntity
  8
0
100
AcDbLine
 62
7
  6
CONTINUOUS
 10
87.7305605139
 20
148.5751117894
 11
87.8138940062
 21
148.8304309079
  0
LINE
  5
284
100
AcDbEntity
  8
0
100
AcDbLine
 62
7
  6
CONTINUOUS
 10
89.0638937678
 20
148.0644734928
 11
88.5638940062
 21
147.1283032724
  0
LINE
  5
285
100
AcDbEntity
  8
0
100
AcDbLine
 62
7
  6
CONTINUOUS
 10
88.9805607523
 20
147.1283032724
 11
89.4805607523
 21
148.0644734928
  0
LINE
  5
286
100
AcDbEntity
  8
0
100
AcDbLine
 62
7
  6
CONTINUOUS
 10
78.4855054431
 20
179.8173466593
 11
78.4455426443
 21
180.0782803272
  0
LINE
  5
287
100
AcDbEntity
  8
0
100
AcDbLine
 62
7
  6
CONTINUOUS
 10
87.1158606718
 20
160.438941569
 11
87.1158606718
 21
155.9281546708
  0
LINE
  5
288
100
AcDbEntity
  8
0
100
AcDbLine
 62
7
  6
CONTINUOUS
 10
87.1368112292
 20
185.638941569
 11
87.1368112292
 21
183.138941569
  0
LINE
  5
289
100
AcDbEntity
  8
BEZUGSACHSEN
100
AcDbLine
 62
7
  6
CONTINUOUS
 10
87.415184268
 20
160.438941569
 11
87.415184268
 21
155.8922234681
  0
LINE
  5
28A
100
AcDbEntity
  8
0
100
AcDbLine
 62
7
  6
CONTINUOUS
 10
87.4493112292
 20
183.138941569
 11
87.4493112292
 21
184.2559628615
  0
LINE
  5
28B
100
AcDbEntity
  8
0
100
AcDbLine
 62
7
  6
CONTINUOUS
 10
87.4493112292
 20
184.5751117596
 11
87.4493112292
 21
185.3729841539
  0
LINE
  5
28C
100
AcDbEntity
  8
0
100
AcDbLine
 62
7
  6
CONTINUOUS
 10
87.4805605139
 20
149.936813874
 11
87.4805605139
 21
149.3410692641
  0
LINE
  5
28D
100
AcDbEntity
  8
0
100
AcDbLine
 62
7
  6
CONTINUOUS
 10
87.89722726
 20
149.2559628913
 11
87.89722726
 21
150.0219202468
  0
LINE
  5
28E
100
AcDbEntity
  8
0
100
AcDbLine
 62
7
  6
CONTINUOUS
 10
88.02222726
 20
162.938941569
 11
88.02222726
 21
163.238941569
  0
LINE
  5
28F
100
AcDbEntity
  8
BEZUGSACHSEN
100
AcDbLine
 62
7
  6
CONTINUOUS
 10
88.5197203697
 20
160.438941569
 11
88.5197203697
 21
155.7641005012
  0
LINE
  5
290
100
AcDbEntity
  8
0
100
AcDbLine
 62
7
  6
CONTINUOUS
 10
88.7513945128
 20
185.0538352558
 11
88.7513945128
 21
184.8942606577
  0
LINE
  5
291
100
AcDbEntity
  8
0
100
AcDbLine
 62
7
  6
CONTINUOUS
 10
88.8190439659
 20
160.438941569
 11
88.8190439659
 21
155.7335759373
  0
LINE
  5
292
100
AcDbEntity
  8
0
100
AcDbLine
 62
7
  6
CONTINUOUS
 10
89.0638945128
 20
184.8410691747
 11
89.0638945128
 21
185.0538352558
  0
LINE
  5
293
100
AcDbEntity
  8
BEZUGSACHSEN
100
AcDbLine
 62
7
  6
CONTINUOUS
 10
89.4176911583
 20
160.438941569
 11
89.4176911583
 21
155.684348497
  0
LINE
  5
294
100
AcDbEntity
  8
0
100
AcDbLine
 62
7
  6
CONTINUOUS
 10
89.5326445128
 20
185.638941569
 11
89.5326445128
 21
183.9900053719
  0
LINE
  5
295
100
AcDbEntity
  8
0
100
AcDbLine
 62
7
  6
CONTINUOUS
 10
89.8451446618
 20
183.9900053719
 11
89.8451446618
 21
185.638941569
  0
LINE
  5
296
100
AcDbEntity
  8
0
100
AcDbLine
 62
7
  6
CONTINUOUS
 10
90.14722726
 20
149.3410692641
 11
90.14722726
 21
148.8304309079
  0
LINE
  5
297
100
AcDbEntity
  8
0
100
AcDbLine
 62
7
  6
CONTINUOUS
 10
90.52222726
 20
162.938941569
 11
90.52222726
 21
163.238941569
  0
LINE
  5
298
100
AcDbEntity
  8
0
100
AcDbLine
 62
7
  6
CONTINUOUS
 10
91.0951446618
 20
185.638941569
 11
91.0951446618
 21
183.9900053719
  0
LINE
  5
299
100
AcDbEntity
  8
0
100
AcDbLine
 62
7
  6
CONTINUOUS
 10
84.9805605959
 20
148.8304309079
 11
85.0638939317
 21
148.5751117894
  0
LINE
  5
29A
100
AcDbEntity
  8
0
100
AcDbLine
 62
7
  6
CONTINUOUS
 10
80.594915435
 20
180.9488430288
 11
80.6340945132
 21
180.7623497569
  0
LINE
  5
29B
100
AcDbEntity
  8
0
100
AcDbLine
 62
7
  6
CONTINUOUS
 10
84.89722726
 20
149.2559628913
 11
84.9805605959
 21
148.8304309079
  0
LINE
  5
29C
100
AcDbEntity
  8
0
100
AcDbLine
 62
7
  6
CONTINUOUS
 10
87.89722726
 20
150.0219202468
 11
87.8138940062
 21
150.447452111
  0
LINE
  5
29D
100
AcDbEntity
  8
0
100
AcDbLine
 62
7
  6
CONTINUOUS
 10
85.39722726
 20
148.8304309079
 11
85.3138939168
 21
149.3410692641
  0
LINE
  5
29E
100
AcDbEntity
  8
0
100
AcDbLine
 62
7
  6
CONTINUOUS
 10
87.39722726
 20
150.447452111
 11
87.4805605139
 21
149.936813874
  0
LINE
  5
29F
100
AcDbEntity
  8
0
100
AcDbLine
 62
7
  6
CONTINUOUS
 10
91.4076446618
 20
183.9900053719
 11
91.4076446618
 21
185.638941569
  0
LINE
  5
2A0
100
AcDbEntity
  8
BEZUGSACHSEN
100
AcDbLine
 62
7
  6
CONTINUOUS
 10
91.6267633618
 20
160.438941569
 11
91.6267633618
 21
155.6843546816
  0
LINE
  5
2A1
100
AcDbEntity
  8
0
100
AcDbLine
 62
7
  6
CONTINUOUS
 10
91.8243112292
 20
185.638941569
 11
91.8243112292
 21
183.138941569
  0
LINE
  5
2A2
100
AcDbEntity
  8
0
100
AcDbLine
 62
7
  6
CONTINUOUS
 10
92.1368112292
 20
183.4580905044
 11
92.1368112292
 21
185.3197926709
  0
LINE
  5
2A3
100
AcDbEntity
  8
0
100
AcDbLine
 62
7
  6
CONTINUOUS
 10
92.14722726
 20
150.9580905864
 11
92.14722726
 21
149.3410692641
  0
LINE
  5
2A4
100
AcDbEntity
  8
0
100
AcDbLine
 62
7
  6
CONTINUOUS
 10
92.14722726
 20
148.8304309079
 11
92.14722726
 21
147.638941569
  0
LINE
  5
2A5
100
AcDbEntity
  8
0
100
AcDbLine
 62
7
  6
CONTINUOUS
 10
92.2254105542
 20
160.438941569
 11
92.2254105542
 21
155.7335758533
  0
LINE
  5
2A6
100
AcDbEntity
  8
BEZUGSACHSEN
100
AcDbLine
 62
7
  6
CONTINUOUS
 10
92.5247341503
 20
160.438941569
 11
92.5247341503
 21
155.76410112
  0
LINE
  5
2A7
100
AcDbEntity
  8
0
100
AcDbLine
 62
7
  6
CONTINUOUS
 10
92.64722726
 20
147.638941569
 11
92.64722726
 21
148.8304309079
  0
LINE
  5
2A8
100
AcDbEntity
  8
0
100
AcDbLine
 62
7
  6
CONTINUOUS
 10
92.64722726
 20
149.3410692641
 11
92.64722726
 21
151.638941569
  0
LINE
  5
2A9
100
AcDbEntity
  8
0
100
AcDbLine
 62
7
  6
CONTINUOUS
 10
93.02222726
 20
162.938941569
 11
93.02222726
 21
163.238941569
  0
LINE
  5
2AA
100
AcDbEntity
  8
0
100
AcDbLine
 62
7
  6
CONTINUOUS
 10
93.4805602755
 20
148.8304309079
 11
93.4805602755
 21
149.3410692641
  0
LINE
  5
2AB
100
AcDbEntity
  8
0
100
AcDbLine
 62
7
  6
CONTINUOUS
 10
93.5951443638
 20
184.7878776917
 11
93.5951443638
 21
183.9900053719
  0
LINE
  5
2AC
100
AcDbEntity
  8
BEZUGSACHSEN
100
AcDbLine
 62
7
  6
CONTINUOUS
 10
93.6292702521
 20
160.438941569
 11
93.6292702521
 21
155.8922233585
  0
LINE
  5
2AD
100
AcDbEntity
  8
0
100
AcDbLine
 62
7
  6
CONTINUOUS
 10
93.9076443638
 20
183.9900053719
 11
93.9076443638
 21
184.7878776917
  0
LINE
  5
2AE
100
AcDbEntity
  8
0
100
AcDbLine
 62
7
  6
CONTINUOUS
 10
93.9285938483
 20
160.438941569
 11
93.9285938483
 21
155.9281545342
  0
LINE
  5
2AF
100
AcDbEntity
  8
0
100
AcDbLine
 62
7
  6
CONTINUOUS
 10
94.14722726
 20
150.3623457381
 11
94.14722726
 21
150.0219202468
  0
LINE
  5
2B0
100
AcDbEntity
  8
0
100
AcDbLine
 62
7
  6
CONTINUOUS
 10
94.8138942446
 20
151.0431969592
 11
94.8138942446
 21
150.3623457381
  0
LINE
  5
2B1
100
AcDbEntity
  8
0
100
AcDbLine
 62
7
  6
CONTINUOUS
 10
94.8138942446
 20
150.0219202468
 11
94.8138942446
 21
148.3197926113
  0
LINE
  5
2B2
100
AcDbEntity
  8
0
100
AcDbLine
 62
7
  6
CONTINUOUS
 10
95.2305602755
 20
148.4900054166
 11
95.2305602755
 21
150.0219202468
  0
LINE
  5
2B3
100
AcDbEntity
  8
0
100
AcDbLine
 62
7
  6
CONTINUOUS
 10
95.2305602755
 20
150.3623457381
 11
95.2305602755
 21
151.0431969592
  0
LINE
  5
2B4
100
AcDbEntity
  8
KONSTRUKTIONSELEMENTE
100
AcDbLine
 62
7
  6
CONTINUOUS
 10
95.4297045482
 20
88.6797521905
 11
95.4297045482
 21
83.5038961453
  0
LINE
  5
2B5
100
AcDbEntity
  8
KONSTRUKTIONSELEMENTE
100
AcDbLine
 62
7
  6
CONTINUOUS
 10
95.52222726
 20
144.438941569
 11
95.52222726
 21
91.438941569
  0
LINE
  5
2B6
100
AcDbEntity
  8
KONSTRUKTIONSELEMENTE
100
AcDbLine
 62
7
  6
CONTINUOUS
 10
95.52222726
 20
79.438941569
 11
95.52222726
 21
75.438941569
  0
LINE
  5
2B7
100
AcDbEntity
  8
0
100
AcDbLine
 62
7
  6
CONTINUOUS
 10
85.7305605735
 20
148.3197926113
 11
85.39722726
 21
148.8304309079
  0
LINE
  5
2B8
100
AcDbEntity
  8
0
100
AcDbLine
 62
7
  6
CONTINUOUS
 10
85.0638939317
 20
148.5751117894
 11
85.2305606033
 21
148.2346862385
  0
LINE
  5
2B9
100
AcDbEntity
  8
0
100
AcDbLine
 62
7
  6
CONTINUOUS
 10
87.7305605139
 20
150.7027714679
 11
87.5638940062
 21
151.0431969592
  0
LINE
  5
2BA
100
AcDbEntity
  8
0
100
AcDbLine
 62
7
  6
CONTINUOUS
 10
87.8138940062
 20
150.447452111
 11
87.7305605139
 21
150.7027714679
  0
LINE
  5
2BB
100
AcDbEntity
  8
0
100
AcDbLine
 62
7
  6
CONTINUOUS
 10
95.9805602755
 20
147.638941569
 11
95.9805602755
 21
147.9793670902
  0
LINE
  5
2BC
100
AcDbEntity
  8
0
100
AcDbLine
 62
7
  6
CONTINUOUS
 10
96.14722726
 20
150.0219202468
 11
96.14722726
 21
150.3623457381
  0
LINE
  5
2BD
100
AcDbEntity
  8
KONSTRUKTIONSELEMENTE
100
AcDbLine
 62
7
  6
CONTINUOUS
 10
98.67222726
 20
144.638941569
 11
98.67222726
 21
144.438941569
  0
LINE
  5
2BE
100
AcDbEntity
  8
KONSTRUKTIONSELEMENTE
100
AcDbLine
 62
7
  6
CONTINUOUS
 10
100.3371818363
 20
88.6797521905
 11
100.3371818363
 21
83.5038961453
  0
LINE
  5
2BF
100
AcDbEntity
  8
BEZUGSACHSEN
100
AcDbLine
 62
7
  6
CONTINUOUS
 10
113.7783074445
 20
166.0797657988
 11
112.4773354515
 21
162.938941569
  0
LINE
  5
2C0
100
AcDbEntity
  8
BEZUGSACHSEN
100
AcDbLine
 62
7
  6
CONTINUOUS
 10
111.4418015455
 20
160.438941569
 11
110.0983477275
 21
157.1955571412
  0
LINE
  5
2C1
100
AcDbEntity
  8
BEZUGSACHSEN
100
AcDbLine
 62
7
  6
CONTINUOUS
 10
107.1268077397
 20
150.0216250014
 11
106.9170707605
 21
149.5152751417
  0
LINE
  5
2C2
100
AcDbEntity
  8
KONSTRUKTIONSELEMENTE
100
AcDbLine
 62
7
  6
CONTINUOUS
 10
82.37222726
 20
144.438941569
 11
98.67222726
 21
144.438941569
  0
LINE
  5
2C3
100
AcDbEntity
  8
0
100
AcDbLine
 62
7
  6
CONTINUOUS
 10
85.4805605735
 20
147.9793670902
 11
85.89722726
 21
147.7240479493
  0
LINE
  5
2C4
100
AcDbEntity
  8
0
100
AcDbLine
 62
7
  6
CONTINUOUS
 10
85.9805606331
 20
148.1495798656
 11
85.7305605735
 21
148.3197926113
  0
LINE
  5
2C5
100
AcDbEntity
  8
0
100
AcDbLine
 62
7
  6
CONTINUOUS
 10
85.2305606033
 20
148.2346862385
 11
85.4805605735
 21
147.9793670902
  0
LINE
  5
2C6
100
AcDbEntity
  8
0
100
AcDbLine
 62
7
  6
CONTINUOUS
 10
87.5638940062
 20
151.0431969592
 11
87.3138940062
 21
151.2985160777
  0
LINE
  5
2C7
100
AcDbEntity
  8
0
100
AcDbLine
 62
7
  6
CONTINUOUS
 10
87.0638940062
 20
150.9580905864
 11
87.39722726
 21
150.447452111
  0
LINE
  5
2C8
100
AcDbEntity
  8
0
100
AcDbLine
 62
7
  6
CONTINUOUS
 10
78.1109520903
 20
180.0445862399
 11
78.1869597169
 21
179.8949215165
  0
LINE
  5
2C9
100
AcDbEntity
  8
0
100
AcDbLine
 62
7
  6
CONTINUOUS
 10
78.4455426443
 20
180.0782803272
 11
78.3695350177
 21
180.2279450507
  0
LINE
  5
2CA
100
AcDbEntity
  8
0
100
AcDbLine
 62
7
  6
CONTINUOUS
 10
77.3265837505
 20
176.7778218386
 11
76.1480724134
 21
179.1348444075
  0
LINE
  5
2CB
100
AcDbEntity
  8
0
100
AcDbLine
 62
7
  6
CONTINUOUS
 10
75.9271015443
 20
178.9138735384
 11
76.9535974438
 21
176.8561802848
  0
LINE
  5
2CC
100
AcDbEntity
  8
0
100
AcDbLine
 62
7
  6
CONTINUOUS
 10
80.9302895254
 20
180.908096483
 11
80.8534983625
 21
181.1322018396
  0
LINE
  5
2CD
100
AcDbEntity
  8
0
100
AcDbLine
 62
7
  6
CONTINUOUS
 10
95.3138942446
 20
148.2346862385
 11
95.2305602755
 21
148.4900054166
  0
LINE
  5
2CE
100
AcDbEntity
  8
0
100
AcDbLine
 62
7
  6
CONTINUOUS
 10
89.5326445128
 20
183.9900053719
 11
89.5847279455
 21
183.7240479568
  0
LINE
  5
2CF
100
AcDbEntity
  8
BEZUGSACHSEN
100
AcDbLine
 62
7
  6
CONTINUOUS
 10
100.52222726
 20
91.438941569
 11
100.52222726
 21
89.438941569
  0
LINE
  5
2D0
100
AcDbEntity
  8
0
100
AcDbLine
 62
7
  6
CONTINUOUS
 10
86.813893887
 20
148.1495798656
 11
86.39722726
 21
148.0644734928
  0
LINE
  5
2D1
100
AcDbEntity
  8
0
100
AcDbLine
 62
7
  6
CONTINUOUS
 10
86.39722726
 20
147.638941569
 11
86.89722726
 21
147.7240479493
  0
LINE
  5
2D2
100
AcDbEntity
  8
BEZUGSACHSEN
100
AcDbLine
 62
7
  6
CONTINUOUS
 10
103.02222726
 20
144.638941569
 11
78.02222726
 21
144.638941569
  0
LINE
  5
2D3
100
AcDbEntity
  8
0
100
AcDbLine
 62
7
  6
CONTINUOUS
 10
88.5638940062
 20
147.1283032724
 11
88.9805607523
 21
147.1283032724
  0
LINE
  5
2D4
100
AcDbEntity
  8
0
100
AcDbLine
 62
7
  6
CONTINUOUS
 10
92.14722726
 20
147.638941569
 11
92.64722726
 21
147.638941569
  0
LINE
  5
2D5
100
AcDbEntity
  8
0
100
AcDbLine
 62
7
  6
CONTINUOUS
 10
89.4805607523
 20
148.0644734928
 11
89.0638937678
 21
148.0644734928
  0
LINE
  5
2D6
100
AcDbEntity
  8
0
100
AcDbLine
 62
7
  6
CONTINUOUS
 10
90.14722726
 20
148.8304309079
 11
92.14722726
 21
148.8304309079
  0
LINE
  5
2D7
100
AcDbEntity
  8
0
100
AcDbLine
 62
7
  6
CONTINUOUS
 10
92.64722726
 20
148.8304309079
 11
93.4805602755
 21
148.8304309079
  0
LINE
  5
2D8
100
AcDbEntity
  8
0
100
AcDbLine
 62
7
  6
CONTINUOUS
 10
85.89722726
 20
147.7240479493
 11
86.39722726
 21
147.638941569
  0
LINE
  5
2D9
100
AcDbEntity
  8
0
100
AcDbLine
 62
7
  6
CONTINUOUS
 10
95.4805602755
 20
147.7240479493
 11
95.9805602755
 21
147.638941569
  0
LINE
  5
2DA
100
AcDbEntity
  8
0
100
AcDbLine
 62
7
  6
CONTINUOUS
 10
86.39722726
 20
148.0644734928
 11
85.9805606331
 21
148.1495798656
  0
LINE
  5
2DB
100
AcDbEntity
  8
0
100
AcDbLine
 62
7
  6
CONTINUOUS
 10
95.9805602755
 20
147.9793670902
 11
95.5638942446
 21
148.0644734928
  0
LINE
  5
2DC
100
AcDbEntity
  8
0
100
AcDbLine
 62
7
  6
CONTINUOUS
 10
95.2305602755
 20
147.8091543296
 11
95.4805602755
 21
147.7240479493
  0
LINE
  5
2DD
100
AcDbEntity
  8
0
100
AcDbLine
 62
7
  6
CONTINUOUS
 10
87.3138940062
 20
151.2985160777
 11
86.89722726
 21
151.5538351962
  0
LINE
  5
2DE
100
AcDbEntity
  8
0
100
AcDbLine
 62
7
  6
CONTINUOUS
 10
86.813893887
 20
151.128303332
 11
87.0638940062
 21
150.9580905864
  0
LINE
  5
2DF
100
AcDbEntity
  8
0
100
AcDbLine
 62
7
  6
CONTINUOUS
 10
94.9805602755
 20
147.9793670902
 11
95.2305602755
 21
147.8091543296
  0
LINE
  5
2E0
100
AcDbEntity
  8
0
100
AcDbLine
 62
7
  6
CONTINUOUS
 10
95.5638942446
 20
148.0644734928
 11
95.3138942446
 21
148.2346862385
  0
LINE
  5
2E1
100
AcDbEntity
  8
0
100
AcDbLine
 62
7
  6
CONTINUOUS
 10
78.5474087323
 20
181.0076119095
 11
78.6610282065
 21
180.820334917
  0
LINE
  5
2E2
100
AcDbEntity
  8
0
100
AcDbLine
 62
7
  6
CONTINUOUS
 10
78.9196112393
 20
181.0036936224
 11
78.8436037181
 21
181.1533586619
  0
LINE
  5
2E3
100
AcDbEntity
  8
0
100
AcDbLine
 62
7
  6
CONTINUOUS
 10
94.8138942446
 20
148.3197926113
 11
94.9805602755
 21
147.9793670902
  0
LINE
  5
2E4
100
AcDbEntity
  8
0
100
AcDbLine
 62
7
  6
CONTINUOUS
 10
88.6993112292
 20
185.2134097049
 11
88.7513945128
 21
185.0538352558
  0
LINE
  5
2E5
100
AcDbEntity
  8
0
100
AcDbLine
 62
7
  6
CONTINUOUS
 10
89.0638945128
 20
185.0538352558
 11
89.0118112292
 21
185.2134097049
  0
LINE
  5
2E6
100
AcDbEntity
  8
0
100
AcDbLine
 62
7
  6
CONTINUOUS
 10
89.8972277965
 20
183.7772394398
 11
89.8451446618
 21
183.9900053719
  0
LINE
  5
2E7
100
AcDbEntity
  8
0
100
AcDbLine
 62
7
  6
CONTINUOUS
 10
93.9076443638
 20
184.7878776917
 11
93.8555612292
 21
185.0538352558
  0
LINE
  5
2E8
100
AcDbEntity
  8
0
100
AcDbLine
 62
7
  6
CONTINUOUS
 10
85.9805606331
 20
151.128303332
 11
86.39722726
 21
151.2134097049
  0
LINE
  5
2E9
100
AcDbEntity
  8
0
100
AcDbLine
 62
7
  6
CONTINUOUS
 10
86.39722726
 20
151.638941569
 11
85.89722726
 21
151.5538351962
  0
LINE
  5
2EA
100
AcDbEntity
  8
0
100
AcDbLine
 62
7
  6
CONTINUOUS
 10
93.4805602755
 20
149.3410692641
 11
92.64722726
 21
149.3410692641
  0
LINE
  5
2EB
100
AcDbEntity
  8
0
100
AcDbLine
 62
7
  6
CONTINUOUS
 10
92.14722726
 20
149.3410692641
 11
90.7305607523
 21
149.3410692641
  0
LINE
  5
2EC
100
AcDbEntity
  8
0
100
AcDbLine
 62
7
  6
CONTINUOUS
 10
94.14722726
 20
150.0219202468
 11
94.8138942446
 21
150.0219202468
  0
LINE
  5
2ED
100
AcDbEntity
  8
0
100
AcDbLine
 62
7
  6
CONTINUOUS
 10
95.2305602755
 20
150.0219202468
 11
96.14722726
 21
150.0219202468
  0
LINE
  5
2EE
100
AcDbEntity
  8
0
100
AcDbLine
 62
7
  6
CONTINUOUS
 10
96.14722726
 20
150.3623457381
 11
95.2305602755
 21
150.3623457381
  0
LINE
  5
2EF
100
AcDbEntity
  8
0
100
AcDbLine
 62
7
  6
CONTINUOUS
 10
94.8138942446
 20
150.3623457381
 11
94.14722726
 21
150.3623457381
  0
LINE
  5
2F0
100
AcDbEntity
  8
0
100
AcDbLine
 62
7
  6
CONTINUOUS
 10
72.02222726
 20
150.638941569
 11
72.9937672479
 21
150.638941569
  0
LINE
  5
2F1
100
AcDbEntity
  8
0
100
AcDbLine
 62
7
  6
CONTINUOUS
 10
108.0506872722
 20
150.638941569
 11
109.02222726
 21
150.638941569
  0
LINE
  5
2F2
100
AcDbEntity
  8
0
100
AcDbLine
 62
7
  6
CONTINUOUS
 10
95.2305602755
 20
151.0431969592
 11
94.8138942446
 21
151.0431969592
  0
LINE
  5
2F3
100
AcDbEntity
  8
0
100
AcDbLine
 62
7
  6
CONTINUOUS
 10
92.64722726
 20
151.638941569
 11
92.14722726
 21
151.638941569
  0
LINE
  5
2F4
100
AcDbEntity
  8
0
100
AcDbLine
 62
7
  6
CONTINUOUS
 10
86.89722726
 20
151.5538351962
 11
86.39722726
 21
151.638941569
  0
LINE
  5
2F5
100
AcDbEntity
  8
0
100
AcDbLine
 62
7
  6
CONTINUOUS
 10
86.39722726
 20
151.2134097049
 11
86.813893887
 21
151.128303332
  0
LINE
  5
2F6
100
AcDbEntity
  8
0
100
AcDbLine
 62
7
  6
CONTINUOUS
 10
89.1159779455
 20
183.138941569
 11
88.6472279455
 21
184.3623458275
  0
LINE
  5
2F7
100
AcDbEntity
  8
0
100
AcDbLine
 62
7
  6
CONTINUOUS
 10
88.334727871
 20
184.2559628615
 11
88.7513945128
 21
183.138941569
  0
LINE
  5
2F8
100
AcDbEntity
  8
0
100
AcDbLine
 62
7
  6
CONTINUOUS
 10
93.5430612292
 20
185.0006436238
 11
93.5951443638
 21
184.7878776917
  0
LINE
  5
2F9
100
AcDbEntity
  8
BEZUGSACHSEN
100
AcDbLine
 62
7
  6
CONTINUOUS
 10
110.02222726
 20
157.0645845291
 11
110.02222726
 21
151.638941569
  0
LINE
  5
2FA
100
AcDbEntity
  8
RUNDUNGEN
100
AcDbLine
 62
7
  6
CONTINUOUS
 10
110.02222726
 20
157.0645868676
 11
110.02222726
 21
151.638941569
  0
LINE
  5
2FB
100
AcDbEntity
  8
0
100
AcDbLine
 62
7
  6
CONTINUOUS
 10
76.442700274
 20
179.4294722681
 11
78.210467227
 21
177.6617053151
  0
LINE
  5
2FC
100
AcDbEntity
  8
0
100
AcDbLine
 62
7
  6
CONTINUOUS
 10
78.4314380961
 20
177.8826761843
 11
77.6415847655
 21
178.6725295149
  0
LINE
  5
2FD
100
AcDbEntity
  8
0
100
AcDbLine
 62
7
  6
CONTINUOUS
 10
77.4159124154
 20
178.8982018649
 11
76.8517314349
 21
179.4623828455
  0
LINE
  5
2FE
100
AcDbEntity
  8
0
100
AcDbLine
 62
7
  6
CONTINUOUS
 10
77.9981158098
 20
180.1574225203
 11
78.1109520903
 21
180.0445862399
  0
LINE
  5
2FF
100
AcDbEntity
  8
0
100
AcDbLine
 62
7
  6
CONTINUOUS
 10
78.3695350177
 20
180.2279450507
 11
78.219086679
 21
180.3783933895
  0
LINE
  5
300
100
AcDbEntity
  8
0
100
AcDbLine
 62
7
  6
CONTINUOUS
 10
89.5847279455
 20
183.7240479568
 11
89.6888946618
 21
183.5112819874
  0
LINE
  5
301
100
AcDbEntity
  8
RUNDUNGEN
100
AcDbLine
 62
7
  6
CONTINUOUS
 10
117.02222726
 20
162.438941569
 11
117.02222726
 21
160.938941569
  0
LINE
  5
302
100
AcDbEntity
  8
RUNDUNGEN
100
AcDbLine
 62
7
  6
CONTINUOUS
 10
116.52222726
 20
160.438941569
 11
83.0228273255
 21
160.438941569
  0
LINE
  5
303
100
AcDbEntity
  8
RUNDUNGEN
100
AcDbLine
 62
7
  6
CONTINUOUS
 10
83.0228273254
 20
162.938941569
 11
116.52222726
 21
162.938941569
  0
LINE
  5
304
100
AcDbEntity
  8
0
100
AcDbLine
 62
7
  6
CONTINUOUS
 10
78.6610282065
 20
180.820334917
 11
78.8114765452
 21
180.6698865782
  0
LINE
  5
305
100
AcDbEntity
  8
0
100
AcDbLine
 62
7
  6
CONTINUOUS
 10
78.994835356
 20
180.9284695057
 11
78.9196112393
 21
181.0036936224
  0
LINE
  5
306
100
AcDbEntity
  8
0
100
AcDbLine
 62
7
  6
CONTINUOUS
 10
80.48207926
 20
181.0616792039
 11
80.594915435
 21
180.9488430288
  0
LINE
  5
307
100
AcDbEntity
  8
0
100
AcDbLine
 62
7
  6
CONTINUOUS
 10
80.8534983625
 20
181.1322018396
 11
80.6654380708
 21
181.3202621313
  0
LINE
  5
308
100
AcDbEntity
  8
0
100
AcDbLine
 62
7
  6
CONTINUOUS
 10
90.0013946618
 20
183.6176649907
 11
89.8972277965
 21
183.7772394398
  0
LINE
  5
309
100
AcDbEntity
  8
0
100
AcDbLine
 62
7
  6
CONTINUOUS
 10
93.8555612292
 20
185.0538352558
 11
93.7513943638
 21
185.2666011879
  0
LINE
  5
30A
100
AcDbEntity
  8
0
100
AcDbLine
 62
7
  6
CONTINUOUS
 10
88.02222726
 20
163.238941569
 11
93.02222726
 21
163.238941569
  0
LINE
  5
30B
100
AcDbEntity
  8
0
100
AcDbLine
 62
7
  6
CONTINUOUS
 10
76.9535974438
 20
176.8561802848
 11
74.8959041902
 21
177.8826761843
  0
LINE
  5
30C
100
AcDbEntity
  8
0
100
AcDbLine
 62
7
  6
CONTINUOUS
 10
74.674933321
 20
177.6617053151
 11
77.0319559426
 21
176.4831940307
  0
LINE
  5
30D
100
AcDbEntity
  8
0
100
AcDbLine
 62
7
  6
CONTINUOUS
 10
79.4156204826
 20
179.8447721931
 11
79.6028970537
 21
179.7311522975
  0
LINE
  5
30E
100
AcDbEntity
  8
0
100
AcDbLine
 62
7
  6
CONTINUOUS
 10
89.0118112292
 20
185.2134097049
 11
88.8555612292
 21
185.426175637
  0
LINE
  5
30F
100
AcDbEntity
  8
0
100
AcDbLine
 62
7
  6
CONTINUOUS
 10
93.4388943638
 20
185.1602182219
 11
93.5430612292
 21
185.0006436238
  0
LINE
  5
310
100
AcDbEntity
  8
KONSTRUKTIONSELEMENTE
100
AcDbLine
 62
7
  6
CONTINUOUS
 10
82.02222726
 20
89.438941569
 11
80.7072726838
 21
88.6797521905
  0
LINE
  5
311
100
AcDbEntity
  8
0
100
AcDbLine
 62
7
  6
CONTINUOUS
 10
79.6099493278
 20
179.061187416
 11
78.4134155768
 21
179.5948085596
  0
LINE
  5
312
100
AcDbEntity
  8
0
100
AcDbLine
 62
7
  6
CONTINUOUS
 10
78.2676688244
 20
179.2986135738
 11
79.352150121
 21
178.8033882092
  0
LINE
  5
313
100
AcDbEntity
  8
0
100
AcDbLine
 62
7
  6
CONTINUOUS
 10
77.8484510864
 20
180.2334301469
 11
77.9981158098
 21
180.1574225203
  0
LINE
  5
314
100
AcDbEntity
  8
0
100
AcDbLine
 62
7
  6
CONTINUOUS
 10
78.219086679
 20
180.3783933895
 11
78.0694219555
 21
180.4544010161
  0
LINE
  5
315
100
AcDbEntity
  8
0
100
AcDbLine
 62
7
  6
CONTINUOUS
 10
79.7862560752
 20
179.9897354357
 11
79.636591141
 21
180.0657428515
  0
LINE
  5
316
100
AcDbEntity
  8
0
100
AcDbLine
 62
7
  6
CONTINUOUS
 10
79.1445002902
 20
180.8524620898
 11
78.994835356
 21
180.9284695057
  0
LINE
  5
317
100
AcDbEntity
  8
0
100
AcDbLine
 62
7
  6
CONTINUOUS
 10
79.8027113112
 20
181.9620180217
 11
79.653046377
 21
182.0380254376
  0
LINE
  5
318
100
AcDbEntity
  8
0
100
AcDbLine
 62
7
  6
CONTINUOUS
 10
78.8114765452
 20
180.6698865782
 11
78.9987535378
 21
180.556267104
  0
LINE
  5
319
100
AcDbEntity
  8
0
100
AcDbLine
 62
7
  6
CONTINUOUS
 10
89.6888946618
 20
183.5112819874
 11
89.8972277965
 21
183.2985160367
  0
LINE
  5
31A
100
AcDbEntity
  8
0
100
AcDbLine
 62
7
  6
CONTINUOUS
 10
88.5951445128
 20
185.3197926709
 11
88.6993112292
 21
185.2134097049
  0
LINE
  5
31B
100
AcDbEntity
  8
RUNDUNGEN
100
AcDbLine
 62
7
  6
CONTINUOUS
 10
107.3770056196
 20
182.6819257784
 11
113.6529824759
 21
167.5303773347
  0
LINE
  5
31C
100
AcDbEntity
  8
BEZUGSACHSEN
100
AcDbLine
 62
7
  6
CONTINUOUS
 10
113.6529824759
 20
167.5303773347
 11
113.7783074445
 21
167.2278160959
  0
LINE
  5
31D
100
AcDbEntity
  8
0
100
AcDbLine
 62
7
  6
CONTINUOUS
 10
79.6028970537
 20
179.7311522975
 11
79.9014430303
 21
179.6535776115
  0
LINE
  5
31E
100
AcDbEntity
  8
0
100
AcDbLine
 62
7
  6
CONTINUOUS
 10
80.6654380708
 20
181.3202621313
 11
80.4413326878
 21
181.3970533205
  0
LINE
  5
31F
100
AcDbEntity
  8
0
100
AcDbLine
 62
7
  6
CONTINUOUS
 10
79.4696875663
 20
181.7794425101
 11
79.5817404421
 21
181.7410471526
  0
LINE
  5
320
100
AcDbEntity
  8
0
100
AcDbLine
 62
7
  6
CONTINUOUS
 10
90.1576446618
 20
183.5112819874
 11
90.0013946618
 21
183.6176649907
  0
LINE
  5
321
100
AcDbEntity
  8
0
100
AcDbLine
 62
7
  6
CONTINUOUS
 10
88.8555612292
 20
185.426175637
 11
88.6472279455
 21
185.585750086
  0
LINE
  5
322
100
AcDbEntity
  8
0
100
AcDbLine
 62
7
  6
CONTINUOUS
 10
103.5825533242
 20
177.6245626618
 11
103.7350607026
 21
177.4773247618
  0
LINE
  5
323
100
AcDbEntity
  8
0
100
AcDbLine
 62
7
  6
CONTINUOUS
 10
102.0825533242
 20
179.1245626618
 11
102.2350607026
 21
178.9773247618
  0
LINE
  5
324
100
AcDbEntity
  8
0
100
AcDbLine
 62
7
  6
CONTINUOUS
 10
103.780299816
 20
178.9215659495
 11
104.2959530901
 21
178.4059126755
  0
LINE
  5
325
100
AcDbEntity
  8
0
100
AcDbLine
 62
7
  6
CONTINUOUS
 10
104.5596168478
 20
178.6695764333
 11
104.0428716677
 21
179.1863216134
  0
LINE
  5
326
100
AcDbEntity
  8
0
100
AcDbLine
 62
7
  6
CONTINUOUS
 10
93.7513943638
 20
185.2666011879
 11
93.5430612292
 21
185.47936712
  0
LINE
  5
327
100
AcDbEntity
  8
0
100
AcDbLine
 62
7
  6
CONTINUOUS
 10
103.6148162366
 20
180.5983266354
 11
103.7295778229
 21
180.471841882
  0
LINE
  5
328
100
AcDbEntity
  8
BEZUGSACHSEN
100
AcDbLine
 62
7
  6
CONTINUOUS
 10
100.3371818363
 20
83.5038961453
 11
96.27222726
 21
79.438941569
  0
LINE
  5
329
100
AcDbEntity
  8
KONSTRUKTIONSELEMENTE
100
AcDbLine
 62
7
  6
CONTINUOUS
 10
95.52222726
 20
75.438941569
 11
94.52222726
 21
74.438941569
  0
LINE
  5
32A
100
AcDbEntity
  8
0
100
AcDbLine
 62
7
  6
CONTINUOUS
 10
93.2826443638
 20
183.5112819874
 11
93.0743112292
 21
183.4580905044
  0
LINE
  5
32B
100
AcDbEntity
  8
0
100
AcDbLine
 62
7
  6
CONTINUOUS
 10
79.9014430303
 20
179.6535776115
 11
80.1984213251
 21
179.7248835366
  0
LINE
  5
32C
100
AcDbEntity
  8
0
100
AcDbLine
 62
7
  6
CONTINUOUS
 10
80.0095777112
 20
179.9873846688
 11
79.7862560752
 21
179.9897354357
  0
LINE
  5
32D
100
AcDbEntity
  8
0
100
AcDbLine
 62
7
  6
CONTINUOUS
 10
77.6995700836
 20
180.2349973775
 11
77.8484510864
 21
180.2334301469
  0
LINE
  5
32E
100
AcDbEntity
  8
0
100
AcDbLine
 62
7
  6
CONTINUOUS
 10
78.9987535378
 20
180.556267104
 11
79.2965155434
 21
180.5531326429
  0
LINE
  5
32F
100
AcDbEntity
  8
0
100
AcDbLine
 62
7
  6
CONTINUOUS
 10
80.4413326878
 20
181.3970533205
 11
80.1435706822
 21
181.4001877817
  0
LINE
  5
330
100
AcDbEntity
  8
0
100
AcDbLine
 62
7
  6
CONTINUOUS
 10
78.0694219555
 20
180.4544010161
 11
77.8084882876
 21
180.4943638149
  0
LINE
  5
331
100
AcDbEntity
  8
0
100
AcDbLine
 62
7
  6
CONTINUOUS
 10
79.653046377
 20
182.0380254376
 11
79.3921127091
 21
182.0779882364
  0
LINE
  5
332
100
AcDbEntity
  8
0
100
AcDbLine
 62
7
  6
CONTINUOUS
 10
80.2955859354
 20
181.1008583347
 11
80.48207926
 21
181.0616792039
  0
LINE
  5
333
100
AcDbEntity
  8
0
100
AcDbLine
 62
7
  6
CONTINUOUS
 10
89.8972277965
 20
183.2985160367
 11
90.1055612292
 21
183.1921330567
  0
LINE
  5
334
100
AcDbEntity
  8
0
100
AcDbLine
 62
7
  6
CONTINUOUS
 10
93.5430612292
 20
185.47936712
 11
93.3347280945
 21
185.585750086
  0
LINE
  5
335
100
AcDbEntity
  8
0
100
AcDbLine
 62
7
  6
CONTINUOUS
 10
93.2826443638
 20
185.2666011879
 11
93.4388943638
 21
185.1602182219
  0
LINE
  5
336
100
AcDbEntity
  8
0
100
AcDbLine
 62
7
  6
CONTINUOUS
 10
90.7826446618
 20
183.5112819874
 11
90.5743112292
 21
183.4580905044
  0
LINE
  5
337
100
AcDbEntity
  8
0
100
AcDbLine
 62
7
  6
CONTINUOUS
 10
93.0743112292
 20
183.138941569
 11
93.3347280945
 21
183.1921330567
  0
LINE
  5
338
100
AcDbEntity
  8
0
100
AcDbLine
 62
7
  6
CONTINUOUS
 10
90.5743112292
 20
183.138941569
 11
90.8347277965
 21
183.1921330567
  0
LINE
  5
339
100
AcDbEntity
  8
0
100
AcDbLine
 62
7
  6
CONTINUOUS
 10
79.3302098415
 20
180.8877234077
 11
79.1445002902
 21
180.8524620898
  0
LINE
  5
33A
100
AcDbEntity
  8
0
100
AcDbLine
 62
7
  6
CONTINUOUS
 10
80.1098763842
 20
181.0655970169
 11
80.2955859354
 21
181.1008583347
  0
LINE
  5
33B
100
AcDbEntity
  8
0
100
AcDbLine
 62
7
  6
CONTINUOUS
 10
77.8084882876
 20
180.4943638149
 11
77.5483381295
 21
180.4598860069
  0
LINE
  5
33C
100
AcDbEntity
  8
0
100
AcDbLine
 62
7
  6
CONTINUOUS
 10
79.3921127091
 20
182.0779882364
 11
79.1319627618
 21
182.0435106392
  0
LINE
  5
33D
100
AcDbEntity
  8
0
100
AcDbLine
 62
7
  6
CONTINUOUS
 10
87.1368112292
 20
183.138941569
 11
87.4493112292
 21
183.138941569
  0
LINE
  5
33E
100
AcDbEntity
  8
0
100
AcDbLine
 62
7
  6
CONTINUOUS
 10
88.7513945128
 20
183.138941569
 11
89.1159779455
 21
183.138941569
  0
LINE
  5
33F
100
AcDbEntity
  8
0
100
AcDbLine
 62
7
  6
CONTINUOUS
 10
90.3659777965
 20
183.138941569
 11
90.5743112292
 21
183.138941569
  0
LINE
  5
340
100
AcDbEntity
  8
0
100
AcDbLine
 62
7
  6
CONTINUOUS
 10
91.8243112292
 20
183.138941569
 11
93.0743112292
 21
183.138941569
  0
LINE
  5
341
100
AcDbEntity
  8
0
100
AcDbLine
 62
7
  6
CONTINUOUS
 10
93.0743112292
 20
183.4580905044
 11
92.1368112292
 21
183.4580905044
  0
LINE
  5
342
100
AcDbEntity
  8
0
100
AcDbLine
 62
7
  6
CONTINUOUS
 10
90.5743112292
 20
183.4580905044
 11
90.3659777965
 21
183.4580905044
  0
LINE
  5
343
100
AcDbEntity
  8
0
100
AcDbLine
 62
7
  6
CONTINUOUS
 10
87.4493112292
 20
184.2559628615
 11
88.334727871
 21
184.2559628615
  0
LINE
  5
344
100
AcDbEntity
  8
0
100
AcDbLine
 62
7
  6
CONTINUOUS
 10
88.4388945128
 20
184.5751117596
 11
87.4493112292
 21
184.5751117596
  0
LINE
  5
345
100
AcDbEntity
  8
0
100
AcDbLine
 62
7
  6
CONTINUOUS
 10
92.1368112292
 20
185.3197926709
 11
93.0743112292
 21
185.3197926709
  0
LINE
  5
346
100
AcDbEntity
  8
0
100
AcDbLine
 62
7
  6
CONTINUOUS
 10
87.4493112292
 20
185.3729841539
 11
88.4388945128
 21
185.3729841539
  0
LINE
  5
347
100
AcDbEntity
  8
0
100
AcDbLine
 62
7
  6
CONTINUOUS
 10
93.0743112292
 20
185.638941569
 11
91.8243112292
 21
185.638941569
  0
LINE
  5
348
100
AcDbEntity
  8
0
100
AcDbLine
 62
7
  6
CONTINUOUS
 10
91.4076446618
 20
185.638941569
 11
91.0951446618
 21
185.638941569
  0
LINE
  5
349
100
AcDbEntity
  8
0
100
AcDbLine
 62
7
  6
CONTINUOUS
 10
89.8451446618
 20
185.638941569
 11
89.5326445128
 21
185.638941569
  0
LINE
  5
34A
100
AcDbEntity
  8
0
100
AcDbLine
 62
7
  6
CONTINUOUS
 10
88.3868112292
 20
185.638941569
 11
87.1368112292
 21
185.638941569
  0
LINE
  5
34B
100
AcDbEntity
  8
0
100
AcDbLine
 62
7
  6
CONTINUOUS
 10
79.3208067742
 20
181.7810099514
 11
79.4696875663
 21
181.7794425101
  0
LINE
  5
34C
100
AcDbEntity
  8
0
100
AcDbLine
 62
7
  6
CONTINUOUS
 10
90.1055612292
 20
183.1921330567
 11
90.3659777965
 21
183.138941569
  0
LINE
  5
34D
100
AcDbEntity
  8
0
100
AcDbLine
 62
7
  6
CONTINUOUS
 10
88.6472279455
 20
185.585750086
 11
88.3868112292
 21
185.638941569
  0
LINE
  5
34E
100
AcDbEntity
  8
0
100
AcDbLine
 62
7
  6
CONTINUOUS
 10
93.3347280945
 20
185.585750086
 11
93.0743112292
 21
185.638941569
  0
LINE
  5
34F
100
AcDbEntity
  8
0
100
AcDbLine
 62
7
  6
CONTINUOUS
 10
90.3659777965
 20
183.4580905044
 11
90.1576446618
 21
183.5112819874
  0
LINE
  5
350
100
AcDbEntity
  8
0
100
AcDbLine
 62
7
  6
CONTINUOUS
 10
93.0743112292
 20
185.3197926709
 11
93.2826443638
 21
185.2666011879
  0
LINE
  5
351
100
AcDbEntity
  8
0
100
AcDbLine
 62
7
  6
CONTINUOUS
 10
88.4388945128
 20
185.3729841539
 11
88.5951445128
 21
185.3197926709
  0
LINE
  5
352
100
AcDbEntity
  8
RUNDUNGEN
100
AcDbLine
 62
7
  6
CONTINUOUS
 10
91.0962524086
 20
189.9011725674
 11
106.5652114694
 21
183.4937199286
  0
LINE
  5
353
100
AcDbEntity
  8
KONSTRUKTIONSELEMENTE
100
AcDbLine
 62
7
  6
CONTINUOUS
 10
176.6083041849
 20
74.438941569
 11
184.6083041849
 21
74.438941569
  0
LINE
  5
354
100
AcDbEntity
  8
KONSTRUKTIONSELEMENTE
100
AcDbLine
 62
7
  6
CONTINUOUS
 10
175.6083041849
 20
75.438941569
 11
185.6083041849
 21
75.438941569
  0
LINE
  5
355
100
AcDbEntity
  8
BEZUGSACHSEN
100
AcDbLine
 62
7
  6
CONTINUOUS
 10
186.3583041849
 20
79.438941569
 11
174.8583041849
 21
79.438941569
  0
LINE
  5
356
100
AcDbEntity
  8
KONSTRUKTIONSELEMENTE
100
AcDbLine
 62
7
  6
CONTINUOUS
 10
176.6083041849
 20
74.438941569
 11
175.6083041849
 21
75.438941569
  0
LINE
  5
357
100
AcDbEntity
  8
BEZUGSACHSEN
100
AcDbLine
 62
7
  6
CONTINUOUS
 10
172.1082367587
 20
82.1890089951
 11
174.8583041849
 21
79.438941569
  0
LINE
  5
358
100
AcDbEntity
  8
BEZUGSACHSEN
100
AcDbLine
 62
7
  6
CONTINUOUS
 10
190.6083041849
 20
89.438941569
 11
170.6083041849
 21
89.438941569
  0
LINE
  5
359
100
AcDbEntity
  8
BEZUGSACHSEN
100
AcDbLine
 62
7
  6
CONTINUOUS
 10
190.6083041849
 20
91.438941569
 11
170.6083041849
 21
91.438941569
  0
LINE
  5
35A
100
AcDbEntity
  8
0
100
AcDbLine
 62
7
  6
CONTINUOUS
 10
169.6083041849
 20
160.938941569
 11
169.6083041849
 21
162.438941569
  0
LINE
  5
35B
100
AcDbEntity
  8
RUNDUNGEN
100
AcDbLine
 62
7
  6
CONTINUOUS
 10
169.6083041849
 20
160.938941569
 11
169.6083041849
 21
162.438941569
  0
LINE
  5
35C
100
AcDbEntity
  8
BEZUGSACHSEN
100
AcDbLine
 62
7
  6
CONTINUOUS
 10
170.6083041849
 20
91.438941569
 11
170.6083041849
 21
89.438941569
  0
LINE
  5
35D
100
AcDbEntity
  8
BEZUGSACHSEN
100
AcDbLine
 62
7
  6
CONTINUOUS
 10
172.1083041849
 20
83.5038961453
 11
172.1083041849
 21
82.1889416255
  0
LINE
  5
35E
100
AcDbEntity
  8
KONSTRUKTIONSELEMENTE
100
AcDbLine
 62
7
  6
CONTINUOUS
 10
172.1083041849
 20
83.5038961453
 11
172.1083041849
 21
89.4389415732
  0
LINE
  5
35F
100
AcDbEntity
  8
KONSTRUKTIONSELEMENTE
100
AcDbLine
 62
7
  6
CONTINUOUS
 10
172.4583041849
 20
144.638941569
 11
172.4583041849
 21
144.438941569
  0
LINE
  5
360
100
AcDbEntity
  8
0
100
AcDbLine
 62
7
  6
CONTINUOUS
 10
172.6083041849
 20
160.938941569
 11
172.6083041849
 21
162.438941569
  0
LINE
  5
361
100
AcDbEntity
  8
RUNDUNGEN
100
AcDbLine
 62
7
  6
CONTINUOUS
 10
172.6083041849
 20
160.938941569
 11
172.6083041849
 21
162.438941569
  0
LINE
  5
362
100
AcDbEntity
  8
0
100
AcDbLine
 62
7
  6
CONTINUOUS
 10
166.1479648347
 20
149.3407708556
 11
166.3039914147
 21
148.8304309079
  0
LINE
  5
363
100
AcDbEntity
  8
BEZUGSACHSEN
100
AcDbLine
 62
7
  6
CONTINUOUS
 10
165.584198727
 20
152.8949185153
 11
165.9681894147
 21
151.638941569
  0
LINE
  5
364
100
AcDbEntity
  8
BEZUGSACHSEN
100
AcDbLine
 62
7
  6
CONTINUOUS
 10
167.1911121405
 20
147.638941569
 11
168.1083041849
 21
144.638941569
  0
LINE
  5
365
100
AcDbEntity
  8
KONSTRUKTIONSELEMENTE
100
AcDbLine
 62
7
  6
CONTINUOUS
 10
175.6083041849
 20
144.438941569
 11
175.6083041849
 21
91.438941569
  0
LINE
  5
366
100
AcDbEntity
  8
KONSTRUKTIONSELEMENTE
100
AcDbLine
 62
7
  6
CONTINUOUS
 10
175.6083041849
 20
79.438941569
 11
175.6083041849
 21
75.438941569
  0
LINE
  5
367
100
AcDbEntity
  8
BEZUGSACHSEN
100
AcDbLine
 62
7
  6
CONTINUOUS
 10
176.3583041849
 20
162.7602304849
 11
176.3583041849
 21
188.5153532686
  0
LINE
  5
368
100
AcDbEntity
  8
KONSTRUKTIONSELEMENTE
100
AcDbLine
 62
7
  6
CONTINUOUS
 10
180.6083041849
 20
88.6797521905
 11
180.6083041849
 21
83.5038961453
  0
LINE
  5
369
100
AcDbEntity
  8
RUNDUNGEN
100
AcDbLine
 62
7
  6
CONTINUOUS
 10
184.8583041849
 20
162.7602304849
 11
184.8583041849
 21
188.5153532686
  0
LINE
  5
36A
100
AcDbEntity
  8
0
100
AcDbLine
 62
7
  6
CONTINUOUS
 10
185.3583041849
 20
185.638941569
 11
185.3583041849
 21
183.138941569
  0
LINE
  5
36B
100
AcDbEntity
  8
0
100
AcDbLine
 62
7
  6
CONTINUOUS
 10
185.3583041849
 20
182.0779882364
 11
185.3583041849
 21
180.556267104
  0
LINE
  5
36C
100
AcDbEntity
  8
0
100
AcDbLine
 62
7
  6
CONTINUOUS
 10
185.3583041849
 20
180.5531326429
 11
185.3583041849
 21
176.4831940307
  0
LINE
  5
36D
100
AcDbEntity
  8
KONSTRUKTIONSELEMENTE
100
AcDbLine
 62
7
  6
CONTINUOUS
 10
185.6083041849
 20
144.438941569
 11
185.6083041849
 21
91.438941569
  0
LINE
  5
36E
100
AcDbEntity
  8
KONSTRUKTIONSELEMENTE
100
AcDbLine
 62
7
  6
CONTINUOUS
 10
185.6083041849
 20
79.438941569
 11
185.6083041849
 21
75.438941569
  0
LINE
  5
36F
100
AcDbEntity
  8
RUNDUNGEN
100
AcDbLine
 62
7
  6
CONTINUOUS
 10
188.6083041849
 20
160.938941569
 11
188.6083041849
 21
162.438941569
  0
LINE
  5
370
100
AcDbEntity
  8
KONSTRUKTIONSELEMENTE
100
AcDbLine
 62
7
  6
CONTINUOUS
 10
188.7583041849
 20
144.638941569
 11
188.7583041849
 21
144.438941569
  0
LINE
  5
371
100
AcDbEntity
  8
KONSTRUKTIONSELEMENTE
100
AcDbLine
 62
7
  6
CONTINUOUS
 10
189.1083041849
 20
89.4389415732
 11
189.1083041849
 21
83.5038961453
  0
LINE
  5
372
100
AcDbEntity
  8
BEZUGSACHSEN
100
AcDbLine
 62
7
  6
CONTINUOUS
 10
189.1083041849
 20
82.1889416255
 11
189.1083041849
 21
83.5038961453
  0
LINE
  5
373
100
AcDbEntity
  8
BEZUGSACHSEN
100
AcDbLine
 62
7
  6
CONTINUOUS
 10
190.6083041849
 20
91.438941569
 11
190.6083041849
 21
89.438941569
  0
LINE
  5
374
100
AcDbEntity
  8
RUNDUNGEN
100
AcDbLine
 62
7
  6
CONTINUOUS
 10
191.6083041849
 20
160.938941569
 11
191.6083041849
 21
162.438941569
  0
LINE
  5
375
100
AcDbEntity
  8
0
100
AcDbLine
 62
7
  6
CONTINUOUS
 10
193.1083041849
 20
144.638941569
 11
193.8693784348
 21
147.1283032724
  0
LINE
  5
376
100
AcDbEntity
  8
0
100
AcDbLine
 62
7
  6
CONTINUOUS
 10
195.2484189551
 20
151.638941569
 11
195.6324096428
 21
152.8949185153
  0
LINE
  5
377
100
AcDbEntity
  8
KONSTRUKTIONSELEMENTE
100
AcDbLine
 62
7
  6
CONTINUOUS
 10
172.4583041849
 20
144.438941569
 11
188.7583041849
 21
144.438941569
  0
LINE
  5
378
100
AcDbEntity
  8
BEZUGSACHSEN
100
AcDbLine
 62
7
  6
CONTINUOUS
 10
168.1083042935
 20
144.638941569
 11
193.1083040762
 21
144.638941569
  0
LINE
  5
379
100
AcDbEntity
  8
0
100
AcDbLine
 62
7
  6
CONTINUOUS
 10
167.3472299349
 20
147.1283032724
 11
166.8879542551
 21
147.1283032724
  0
LINE
  5
37A
100
AcDbEntity
  8
0
100
AcDbLine
 62
7
  6
CONTINUOUS
 10
193.7633167492
 20
147.1283032724
 11
194.3286541147
 21
147.1283032724
  0
LINE
  5
37B
100
AcDbEntity
  8
0
100
AcDbLine
 62
7
  6
CONTINUOUS
 10
168.0266457254
 20
147.638941569
 11
167.4766709901
 21
147.638941569
  0
LINE
  5
37C
100
AcDbEntity
  8
0
100
AcDbLine
 62
7
  6
CONTINUOUS
 10
166.737623478
 20
147.638941569
 11
167.3137645373
 21
147.638941569
  0
LINE
  5
37D
100
AcDbEntity
  8
0
100
AcDbLine
 62
7
  6
CONTINUOUS
 10
193.5558148863
 20
147.638941569
 11
194.0934629054
 21
147.638941569
  0
LINE
  5
37E
100
AcDbEntity
  8
0
100
AcDbLine
 62
7
  6
CONTINUOUS
 10
193.4596962153
 20
147.7240479493
 11
194.0013282225
 21
147.7240479493
  0
LINE
  5
37F
100
AcDbEntity
  8
0
100
AcDbLine
 62
7
  6
CONTINUOUS
 10
167.9122028023
 20
147.9793670902
 11
167.3628582402
 21
147.9793670902
  0
LINE
  5
380
100
AcDbEntity
  8
0
100
AcDbLine
 62
7
  6
CONTINUOUS
 10
193.4293689577
 20
147.9793670902
 11
193.974468039
 21
147.9793670902
  0
LINE
  5
381
100
AcDbEntity
  8
0
100
AcDbLine
 62
7
  6
CONTINUOUS
 10
167.7590523464
 20
148.0644734928
 11
167.2140822098
 21
148.0644734928
  0
LINE
  5
382
100
AcDbEntity
  8
0
100
AcDbLine
 62
7
  6
CONTINUOUS
 10
166.6064724352
 20
148.0644734928
 11
166.5661729936
 21
148.0644734928
  0
LINE
  5
383
100
AcDbEntity
  8
0
100
AcDbLine
 62
7
  6
CONTINUOUS
 10
194.4235233699
 20
148.0644734928
 11
194.6504353761
 21
148.0644734928
  0
LINE
  5
384
100
AcDbEntity
  8
0
100
AcDbLine
 62
7
  6
CONTINUOUS
 10
194.1606335053
 20
148.1495798656
 11
194.3448214528
 21
148.1495798656
  0
LINE
  5
385
100
AcDbEntity
  8
0
100
AcDbLine
 62
7
  6
CONTINUOUS
 10
167.6337238645
 20
148.2346862385
 11
167.0912946197
 21
148.2346862385
  0
LINE
  5
386
100
AcDbEntity
  8
0
100
AcDbLine
 62
7
  6
CONTINUOUS
 10
193.4409651284
 20
148.2346862385
 11
193.9881261622
 21
148.2346862385
  0
LINE
  5
387
100
AcDbEntity
  8
0
100
AcDbLine
 62
7
  6
CONTINUOUS
 10
194.1531441145
 20
148.3197926113
 11
194.4462627872
 21
148.3197926113
  0
LINE
  5
388
100
AcDbEntity
  8
0
100
AcDbLine
 62
7
  6
CONTINUOUS
 10
167.527997422
 20
148.4900054166
 11
166.9866184537
 21
148.4900054166
  0
LINE
  5
389
100
AcDbEntity
  8
0
100
AcDbLine
 62
7
  6
CONTINUOUS
 10
193.5042179762
 20
148.5751117894
 11
194.0525053788
 21
148.5751117894
  0
LINE
  5
38A
100
AcDbEntity
  8
0
100
AcDbLine
 62
7
  6
CONTINUOUS
 10
166.3039947906
 20
148.8304309079
 11
166.3704552769
 21
148.8304309079
  0
LINE
  5
38B
100
AcDbEntity
  8
0
100
AcDbLine
 62
7
  6
CONTINUOUS
 10
166.417949825
 20
148.8304309079
 11
166.7769225305
 21
148.8304309079
  0
LINE
  5
38C
100
AcDbEntity
  8
0
100
AcDbLine
 62
7
  6
CONTINUOUS
 10
193.5641382586
 20
148.8304309079
 11
194.1128433656
 21
148.8304309079
  0
LINE
  5
38D
100
AcDbEntity
  8
0
100
AcDbLine
 62
7
  6
CONTINUOUS
 10
194.2320578091
 20
148.8304309079
 11
194.6644787184
 21
148.8304309079
  0
LINE
  5
38E
100
AcDbEntity
  8
0
100
AcDbLine
 62
7
  6
CONTINUOUS
 10
194.7268138428
 20
148.8304309079
 11
194.9090931508
 21
148.8304309079
  0
LINE
  5
38F
100
AcDbEntity
  8
0
100
AcDbLine
 62
7
  6
CONTINUOUS
 10
193.6811545151
 20
149.2559628913
 11
194.2299761652
 21
149.2559628913
  0
LINE
  5
390
100
AcDbEntity
  8
0
100
AcDbLine
 62
7
  6
CONTINUOUS
 10
166.2131488338
 20
149.3410692641
 11
166.1489408851
 21
149.3410692641
  0
LINE
  5
391
100
AcDbEntity
  8
0
100
AcDbLine
 62
7
  6
CONTINUOUS
 10
166.6124908526
 20
149.3410692641
 11
166.2598062293
 21
149.3410692641
  0
LINE
  5
392
100
AcDbEntity
  8
0
100
AcDbLine
 62
7
  6
CONTINUOUS
 10
194.3775545787
 20
149.3410692641
 11
194.8379522219
 21
149.3410692641
  0
LINE
  5
393
100
AcDbEntity
  8
0
100
AcDbLine
 62
7
  6
CONTINUOUS
 10
194.8973764733
 20
149.3410692641
 11
195.0652753111
 21
149.3410692641
  0
LINE
  5
394
100
AcDbEntity
  8
0
100
AcDbLine
 62
7
  6
CONTINUOUS
 10
194.5737388548
 20
149.936813874
 11
195.0247965701
 21
149.936813874
  0
LINE
  5
395
100
AcDbEntity
  8
0
100
AcDbLine
 62
7
  6
CONTINUOUS
 10
166.2614644542
 20
150.0219202468
 11
166.3935626567
 21
150.0219202468
  0
LINE
  5
396
100
AcDbEntity
  8
0
100
AcDbLine
 62
7
  6
CONTINUOUS
 10
166.4883532698
 20
150.0219202468
 11
167.2787823108
 21
150.0219202468
  0
LINE
  5
397
100
AcDbEntity
  8
0
100
AcDbLine
 62
7
  6
CONTINUOUS
 10
193.937826059
 20
150.0219202468
 11
194.48535608
 21
150.0219202468
  0
LINE
  5
398
100
AcDbEntity
  8
0
100
AcDbLine
 62
7
  6
CONTINUOUS
 10
167.1649949622
 20
150.3623457381
 11
166.3779336978
 21
150.3623457381
  0
LINE
  5
399
100
AcDbEntity
  8
0
100
AcDbLine
 62
7
  6
CONTINUOUS
 10
166.2842366843
 20
150.3623457381
 11
166.1536592353
 21
150.3623457381
  0
LINE
  5
39A
100
AcDbEntity
  8
0
100
AcDbLine
 62
7
  6
CONTINUOUS
 10
194.1045480328
 20
150.447452111
 11
194.6506161892
 21
150.447452111
  0
LINE
  5
39B
100
AcDbEntity
  8
0
100
AcDbLine
 62
7
  6
CONTINUOUS
 10
194.7633179774
 20
150.447452111
 11
195.1723444044
 21
150.447452111
  0
LINE
  5
39C
100
AcDbEntity
  8
0
100
AcDbLine
 62
7
  6
CONTINUOUS
 10
194.2134060009
 20
150.7027714679
 11
194.7583392987
 21
150.7027714679
  0
LINE
  5
39D
100
AcDbEntity
  8
0
100
AcDbLine
 62
7
  6
CONTINUOUS
 10
195.0121760796
 20
150.9580905864
 11
195.2798836349
 21
150.9580905864
  0
LINE
  5
39E
100
AcDbEntity
  8
0
100
AcDbLine
 62
7
  6
CONTINUOUS
 10
166.6959202815
 20
151.0431969592
 11
166.0658425497
 21
151.0431969592
  0
LINE
  5
39F
100
AcDbEntity
  8
0
100
AcDbLine
 62
7
  6
CONTINUOUS
 10
194.3722664712
 20
151.0431969592
 11
194.9152952584
 21
151.0431969592
  0
LINE
  5
3A0
100
AcDbEntity
  8
0
100
AcDbLine
 62
7
  6
CONTINUOUS
 10
195.1243624931
 20
151.128303332
 11
195.2906320054
 21
151.128303332
  0
LINE
  5
3A1
100
AcDbEntity
  8
0
100
AcDbLine
 62
7
  6
CONTINUOUS
 10
194.521809547
 20
151.2985160777
 11
195.0625212394
 21
151.2985160777
  0
LINE
  5
3A2
100
AcDbEntity
  8
0
100
AcDbLine
 62
7
  6
CONTINUOUS
 10
194.7056206692
 20
151.5538351962
 11
195.2430585306
 21
151.5538351962
  0
LINE
  5
3A3
100
AcDbEntity
  8
0
100
AcDbLine
 62
7
  6
CONTINUOUS
 10
166.0744955583
 20
151.638941569
 11
165.5056183865
 21
151.638941569
  0
LINE
  5
3A4
100
AcDbEntity
  8
0
100
AcDbLine
 62
7
  6
CONTINUOUS
 10
194.8407591585
 20
151.638941569
 11
195.7109899832
 21
151.638941569
  0
LINE
  5
3A5
100
AcDbEntity
  8
RUNDUNGEN
100
AcDbLine
 62
7
  6
CONTINUOUS
 10
194.5861810765
 20
154.7823648119
 11
190.0465835016
 21
155.998746316
  0
LINE
  5
3A6
100
AcDbEntity
  8
BEZUGSACHSEN
100
AcDbLine
 62
7
  6
CONTINUOUS
 10
166.6304272933
 20
154.7823648119
 11
171.1700248681
 21
155.998746316
  0
LINE
  5
3A7
100
AcDbEntity
  8
RUNDUNGEN
100
AcDbLine
 62
7
  6
CONTINUOUS
 10
191.1083041849
 20
160.438941569
 11
185.2555414265
 21
160.438941569
  0
LINE
  5
3A8
100
AcDbEntity
  8
RUNDUNGEN
100
AcDbLine
 62
7
  6
CONTINUOUS
 10
175.9686041423
 20
160.438941569
 11
170.1083041849
 21
160.438941569
  0
LINE
  5
3A9
100
AcDbEntity
  8
RUNDUNGEN
100
AcDbLine
 62
7
  6
CONTINUOUS
 10
170.1083041849
 20
162.938941569
 11
176.3583041849
 21
162.938941569
  0
LINE
  5
3AA
100
AcDbEntity
  8
RUNDUNGEN
100
AcDbLine
 62
7
  6
CONTINUOUS
 10
184.8583041849
 20
162.938941569
 11
191.1083041849
 21
162.938941569
  0
LINE
  5
3AB
100
AcDbEntity
  8
BEZUGSACHSEN
100
AcDbLine
 62
7
  6
CONTINUOUS
 10
189.108371611
 20
82.1890089951
 11
186.3583041849
 21
79.438941569
  0
LINE
  5
3AC
100
AcDbEntity
  8
KONSTRUKTIONSELEMENTE
100
AcDbLine
 62
7
  6
CONTINUOUS
 10
185.6083041849
 20
75.438941569
 11
184.6083041849
 21
74.438941569
  0
LINE
  5
3AD
100
AcDbEntity
  8
0
100
AcDbLine
 62
7
  6
CONTINUOUS
 10
184.8583041849
 20
176.4831940307
 11
185.3583041849
 21
176.4831940307
  0
LINE
  5
3AE
100
AcDbEntity
  8
0
100
AcDbLine
 62
7
  6
CONTINUOUS
 10
184.8583041849
 20
177.6617053151
 11
185.3583041849
 21
177.6617053151
  0
LINE
  5
3AF
100
AcDbEntity
  8
0
100
AcDbLine
 62
7
  6
CONTINUOUS
 10
184.8583041849
 20
177.8826761843
 11
185.3583041849
 21
177.8826761843
  0
LINE
  5
3B0
100
AcDbEntity
  8
0
100
AcDbLine
 62
7
  6
CONTINUOUS
 10
184.8583041849
 20
178.9138735384
 11
185.3583041849
 21
178.9138735384
  0
LINE
  5
3B1
100
AcDbEntity
  8
0
100
AcDbLine
 62
7
  6
CONTINUOUS
 10
184.8583041849
 20
179.1348444075
 11
185.3583041849
 21
179.1348444075
  0
LINE
  5
3B2
100
AcDbEntity
  8
0
100
AcDbLine
 62
7
  6
CONTINUOUS
 10
184.8583041849
 20
179.4294722681
 11
185.3583041849
 21
179.4294722681
  0
LINE
  5
3B3
100
AcDbEntity
  8
0
100
AcDbLine
 62
7
  6
CONTINUOUS
 10
184.8583041849
 20
180.3133557446
 11
185.3583041849
 21
180.3133557446
  0
LINE
  5
3B4
100
AcDbEntity
  8
0
100
AcDbLine
 62
7
  6
CONTINUOUS
 10
184.8583041849
 20
180.4598860069
 11
185.3583041849
 21
180.4598860069
  0
LINE
  5
3B5
100
AcDbEntity
  8
0
100
AcDbLine
 62
7
  6
CONTINUOUS
 10
184.8583041849
 20
180.4943638149
 11
185.3583041849
 21
180.4943638149
  0
LINE
  5
3B6
100
AcDbEntity
  8
0
100
AcDbLine
 62
7
  6
CONTINUOUS
 10
184.8583041849
 20
180.556267104
 11
185.3583041849
 21
180.556267104
  0
LINE
  5
3B7
100
AcDbEntity
  8
0
100
AcDbLine
 62
7
  6
CONTINUOUS
 10
184.8583041849
 20
180.6698865782
 11
185.3583041849
 21
180.6698865782
  0
LINE
  5
3B8
100
AcDbEntity
  8
0
100
AcDbLine
 62
7
  6
CONTINUOUS
 10
184.8583041849
 20
180.820334917
 11
185.3583041849
 21
180.820334917
  0
LINE
  5
3B9
100
AcDbEntity
  8
0
100
AcDbLine
 62
7
  6
CONTINUOUS
 10
184.8583041849
 20
181.0076119095
 11
185.3583041849
 21
181.0076119095
  0
LINE
  5
3BA
100
AcDbEntity
  8
0
100
AcDbLine
 62
7
  6
CONTINUOUS
 10
184.8583041849
 20
181.3053739151
 11
185.3583041849
 21
181.3053739151
  0
LINE
  5
3BB
100
AcDbEntity
  8
0
100
AcDbLine
 62
7
  6
CONTINUOUS
 10
184.8583041849
 20
181.5279118041
 11
185.3583041849
 21
181.5279118041
  0
LINE
  5
3BC
100
AcDbEntity
  8
0
100
AcDbLine
 62
7
  6
CONTINUOUS
 10
184.8583041849
 20
181.7128380562
 11
185.3583041849
 21
181.7128380562
  0
LINE
  5
3BD
100
AcDbEntity
  8
0
100
AcDbLine
 62
7
  6
CONTINUOUS
 10
184.8583041849
 20
181.8969801661
 11
185.3583041849
 21
181.8969801661
  0
LINE
  5
3BE
100
AcDbEntity
  8
0
100
AcDbLine
 62
7
  6
CONTINUOUS
 10
184.8583041849
 20
182.0435106392
 11
185.3583041849
 21
182.0435106392
  0
LINE
  5
3BF
100
AcDbEntity
  8
0
100
AcDbLine
 62
7
  6
CONTINUOUS
 10
184.8583041849
 20
182.0779882364
 11
185.3583041849
 21
182.0779882364
  0
LINE
  5
3C0
100
AcDbEntity
  8
0
100
AcDbLine
 62
7
  6
CONTINUOUS
 10
184.8583041849
 20
183.138941569
 11
185.3583041849
 21
183.138941569
  0
LINE
  5
3C1
100
AcDbEntity
  8
0
100
AcDbLine
 62
7
  6
CONTINUOUS
 10
184.8583041849
 20
185.638941569
 11
185.3583041849
 21
185.638941569
  0
LINE
  5
3C2
100
AcDbEntity
  8
RUNDUNGEN
100
AcDbLine
 62
7
  6
CONTINUOUS
 10
183.3583041849
 20
190.0153532686
 11
177.8583041849
 21
190.0153532686
  0
LWPOLYLINE
  5
3C3
100
AcDbEntity
  8
RUNDUNGEN
100
AcDbPolyline
 62
7
  6
CONTINUOUS
 90
7
 70
0
 10
67.1519675808
 20
38.5157318662
 10
67.1540136888
 20
38.1569633761
 10
67.164385092
 20
37.6310267572
 10
67.1837059898
 20
37.1000049581
 10
67.2121532138
 20
36.5648497859
 10
67.2498486321
 20
36.0265420389
 10
67.2834560872
 20
35.6298728644
  0
LWPOLYLINE
  5
3C4
100
AcDbEntity
  8
BEZUGSACHSEN
100
AcDbPolyline
 62
7
  6
CONTINUOUS
 90
7
 70
0
 10
67.2834560872
 20
41.401590868
 10
67.2498486321
 20
41.0049216935
 10
67.2121532138
 20
40.4666139465
 10
67.1837059898
 20
39.9314587743
 10
67.164385092
 20
39.4004369752
 10
67.1540136888
 20
38.8745003563
 10
67.1519675808
 20
38.5157318662
  0
LWPOLYLINE
  5
3C5
100
AcDbEntity
  8
BEZUGSACHSEN
100
AcDbPolyline
 62
7
  6
CONTINUOUS
 90
19
 70
0
 10
76.6123305308
 20
48.6976920798
 10
75.9934131976
 20
48.1420017074
 10
75.3177305928
 20
47.4949874811
 10
74.71328569
 20
46.8813189911
 10
74.1686065483
 20
46.3024195105
 10
73.6746227107
 20
45.7598289244
 10
73.2261552045
 20
45.2575283242
 10
72.8168528192
 20
44.7967543809
 10
72.4443383661
 20
44.3817753961
 10
72.1057024716
 20
44.0146833732
 10
71.7991915571
 20
43.6972048487
 10
71.5242020889
 20
43.4304187929
 10
71.2788358325
 20
43.212379423
 10
71.0635269424
 20
43.0417484368
 10
70.8786577431
 20
42.9155703602
 10
70.7266458756
 20
42.830737632
 10
70.6146819498
 20
42.7839644291
 10
70.5515925011
 20
42.7674073632
 10
70.5366361695
 20
42.7657325143
  0
LINE
  5
3C6
100
AcDbEntity
  8
0
100
AcDbLine
 62
7
  6
CONTINUOUS
 10
74.674933321
 20
34.2657318662
 11
74.674933321
 21
33.7657318662
  0
LINE
  5
3C7
100
AcDbEntity
  8
0
100
AcDbLine
 62
7
  6
CONTINUOUS
 10
74.8959041902
 20
34.2657318662
 11
74.8959041902
 21
33.7657318662
  0
LINE
  5
3C8
100
AcDbEntity
  8
0
100
AcDbLine
 62
7
  6
CONTINUOUS
 10
75.9271015443
 20
34.2657318662
 11
75.9271015443
 21
33.7657318662
  0
LINE
  5
3C9
100
AcDbEntity
  8
0
100
AcDbLine
 62
7
  6
CONTINUOUS
 10
76.1480724134
 20
34.2657318662
 11
76.1480724134
 21
33.7657318662
  0
LINE
  5
3CA
100
AcDbEntity
  8
0
100
AcDbLine
 62
7
  6
CONTINUOUS
 10
76.442700274
 20
34.2657318662
 11
76.442700274
 21
33.7657318662
  0
LINE
  5
3CB
100
AcDbEntity
  8
0
100
AcDbLine
 62
7
  6
CONTINUOUS
 10
77.3265837505
 20
34.2657318662
 11
77.3265837505
 21
33.7657318662
  0
LINE
  5
3CC
100
AcDbEntity
  8
0
100
AcDbLine
 62
7
  6
CONTINUOUS
 10
77.5483381295
 20
34.2657318662
 11
77.5483381295
 21
33.7657318662
  0
LINE
  5
3CD
100
AcDbEntity
  8
0
100
AcDbLine
 62
7
  6
CONTINUOUS
 10
77.8084882876
 20
34.2657318662
 11
77.8084882876
 21
33.7657318662
  0
LINE
  5
3CE
100
AcDbEntity
  8
0
100
AcDbLine
 62
7
  6
CONTINUOUS
 10
78.0694219555
 20
34.2657318662
 11
78.0694219555
 21
33.7657318662
  0
LINE
  5
3CF
100
AcDbEntity
  8
0
100
AcDbLine
 62
7
  6
CONTINUOUS
 10
78.219086679
 20
34.2657318662
 11
78.219086679
 21
33.7657318662
  0
LINE
  5
3D0
100
AcDbEntity
  8
0
100
AcDbLine
 62
7
  6
CONTINUOUS
 10
78.3695350177
 20
34.2657318662
 11
78.3695350177
 21
33.7657318662
  0
LINE
  5
3D1
100
AcDbEntity
  8
0
100
AcDbLine
 62
7
  6
CONTINUOUS
 10
78.4455426443
 20
34.2657318662
 11
78.4455426443
 21
33.7657318662
  0
LINE
  5
3D2
100
AcDbEntity
  8
0
100
AcDbLine
 62
7
  6
CONTINUOUS
 10
78.4855054431
 20
34.2657318662
 11
78.4855054431
 21
33.7657318662
  0
LINE
  5
3D3
100
AcDbEntity
  8
0
100
AcDbLine
 62
7
  6
CONTINUOUS
 10
78.5442742711
 20
34.2657318662
 11
78.5442742711
 21
33.7657318662
  0
LINE
  5
3D4
100
AcDbEntity
  8
0
100
AcDbLine
 62
7
  6
CONTINUOUS
 10
78.6163639267
 20
34.2657318662
 11
78.6163639267
 21
33.7657318662
  0
LINE
  5
3D5
100
AcDbEntity
  8
0
100
AcDbLine
 62
7
  6
CONTINUOUS
 10
78.7260660621
 20
34.2657318662
 11
78.7260660621
 21
33.7657318662
  0
LINE
  5
3D6
100
AcDbEntity
  8
0
100
AcDbLine
 62
7
  6
CONTINUOUS
 10
78.910208172
 20
34.2657318662
 11
78.910208172
 21
33.7657318662
  0
LINE
  5
3D7
100
AcDbEntity
  8
0
100
AcDbLine
 62
7
  6
CONTINUOUS
 10
79.1319627618
 20
34.2657318662
 11
79.1319627618
 21
33.7657318662
  0
LINE
  5
3D8
100
AcDbEntity
  8
0
100
AcDbLine
 62
7
  6
CONTINUOUS
 10
79.3921127091
 20
34.2657318662
 11
79.3921127091
 21
33.7657318662
  0
LINE
  5
3D9
100
AcDbEntity
  8
0
100
AcDbLine
 62
7
  6
CONTINUOUS
 10
79.653046377
 20
34.2657318662
 11
79.653046377
 21
33.7657318662
  0
LINE
  5
3DA
100
AcDbEntity
  8
0
100
AcDbLine
 62
7
  6
CONTINUOUS
 10
79.8027113112
 20
34.2657318662
 11
79.8027113112
 21
33.7657318662
  0
LINE
  5
3DB
100
AcDbEntity
  8
0
100
AcDbLine
 62
7
  6
CONTINUOUS
 10
79.9210323718
 20
34.2657318662
 11
79.9210323718
 21
33.7657318662
  0
LWPOLYLINE
  5
3DC
100
AcDbEntity
  8
RUNDUNGEN
100
AcDbPolyline
 62
7
  6
CONTINUOUS
 90
20
 70
0
 10
76.6123491963
 20
28.3337559257
 10
77.5331780147
 20
27.5848113051
 10
78.6698925363
 20
26.7852949274
 10
79.9103357654
 20
26.0444251169
 10
81.2438363437
 20
25.377304176
 10
82.6603016177
 20
24.7954281124
 10
84.1477645565
 20
24.3084315768
 10
85.6931168659
 20
23.9238770492
 10
87.2817492476
 20
23.6470288363
 10
88.898988098
 20
23.4808819849
 10
90.5303732991
 20
23.4260849106
 10
92.1616726932
 20
23.4819874039
 10
93.778674894
 20
23.6492409651
 10
95.3669218334
 20
23.9271732689
 10
96.9117486282
 20
24.3127689212
 10
98.3985666867
 20
24.8007462064
 10
99.814285193
 20
25.3835268739
 10
101.1469562032
 20
26.0514654288
 10
102.3865173638
 20
26.7930658836
 10
103.4123281822
 20
27.5157318662
  0
LINE
  5
3DD
100
AcDbEntity
  8
0
100
AcDbLine
 62
7
  6
CONTINUOUS
 10
80.1435706822
 20
34.2657318662
 11
80.1435706822
 21
33.7657318662
  0
LINE
  5
3DE
100
AcDbEntity
  8
0
100
AcDbLine
 62
7
  6
CONTINUOUS
 10
80.4413326878
 20
34.2657318662
 11
80.4413326878
 21
33.7657318662
  0
LINE
  5
3DF
100
AcDbEntity
  8
0
100
AcDbLine
 62
7
  6
CONTINUOUS
 10
80.6654380708
 20
34.2657318662
 11
80.6654380708
 21
33.7657318662
  0
LINE
  5
3E0
100
AcDbEntity
  8
0
100
AcDbLine
 62
7
  6
CONTINUOUS
 10
80.8534983625
 20
34.2657318662
 11
80.8534983625
 21
33.7657318662
  0
LINE
  5
3E1
100
AcDbEntity
  8
0
100
AcDbLine
 62
7
  6
CONTINUOUS
 10
80.9302895254
 20
34.2657318662
 11
80.9302895254
 21
33.7657318662
  0
LINE
  5
3E2
100
AcDbEntity
  8
0
100
AcDbLine
 62
7
  6
CONTINUOUS
 10
86.39722726
 20
23.8011729507
 11
86.39722726
 21
23.749055933
  0
LINE
  5
3E3
100
AcDbEntity
  8
0
100
AcDbLine
 62
7
  6
CONTINUOUS
 10
86.89722726
 20
23.7140388169
 11
86.89722726
 21
23.6842397075
  0
LINE
  5
3E4
100
AcDbEntity
  8
0
100
AcDbLine
 62
7
  6
CONTINUOUS
 10
87.1368112292
 20
34.2657318662
 11
87.1368112292
 21
33.7657318662
  0
LINE
  5
3E5
100
AcDbEntity
  8
RUNDUNGEN
100
AcDbLine
 62
7
  6
CONTINUOUS
 10
97.2304311925
 20
27.5157318662
 11
113.02222726
 21
27.5157318662
  0
LINE
  5
3E6
100
AcDbEntity
  8
0
100
AcDbLine
 62
7
  6
CONTINUOUS
 10
88.3868112292
 20
34.2657318662
 11
88.3868112292
 21
33.7657318662
  0
LINE
  5
3E7
100
AcDbEntity
  8
0
100
AcDbLine
 62
7
  6
CONTINUOUS
 10
88.39722726
 20
53.4990334042
 11
88.39722726
 21
53.5752823746
  0
LINE
  5
3E8
100
AcDbEntity
  8
0
100
AcDbLine
 62
7
  6
CONTINUOUS
 10
88.6472279455
 20
34.2657318662
 11
88.6472279455
 21
33.7657318662
  0
LINE
  5
3E9
100
AcDbEntity
  8
0
100
AcDbLine
 62
7
  6
CONTINUOUS
 10
88.8555612292
 20
34.2657318662
 11
88.8555612292
 21
33.7657318662
  0
LINE
  5
3EA
100
AcDbEntity
  8
0
100
AcDbLine
 62
7
  6
CONTINUOUS
 10
88.89722726
 20
53.550400848
 11
88.89722726
 21
53.6184176646
  0
LINE
  5
3EB
100
AcDbEntity
  8
0
100
AcDbLine
 62
7
  6
CONTINUOUS
 10
89.0118112292
 20
34.2657318662
 11
89.0118112292
 21
33.7657318662
  0
LINE
  5
3EC
100
AcDbEntity
  8
0
100
AcDbLine
 62
7
  6
CONTINUOUS
 10
89.0638945128
 20
34.2657318662
 11
89.0638945128
 21
33.7657318662
  0
LINE
  5
3ED
100
AcDbEntity
  8
0
100
AcDbLine
 62
7
  6
CONTINUOUS
 10
89.1159779455
 20
34.2657318662
 11
89.1159779455
 21
33.7657318662
  0
LINE
  5
3EE
100
AcDbEntity
  8
0
100
AcDbLine
 62
7
  6
CONTINUOUS
 10
89.5326445128
 20
34.2657318662
 11
89.5326445128
 21
33.7657318662
  0
LINE
  5
3EF
100
AcDbEntity
  8
0
100
AcDbLine
 62
7
  6
CONTINUOUS
 10
89.8451446618
 20
34.2657318662
 11
89.8451446618
 21
33.7657318662
  0
LINE
  5
3F0
100
AcDbEntity
  8
0
100
AcDbLine
 62
7
  6
CONTINUOUS
 10
89.8972277965
 20
34.2657318662
 11
89.8972277965
 21
33.7657318662
  0
LINE
  5
3F1
100
AcDbEntity
  8
0
100
AcDbLine
 62
7
  6
CONTINUOUS
 10
90.0013946618
 20
34.2657318662
 11
90.0013946618
 21
33.7657318662
  0
LINE
  5
3F2
100
AcDbEntity
  8
0
100
AcDbLine
 62
7
  6
CONTINUOUS
 10
90.1576446618
 20
34.2657318662
 11
90.1576446618
 21
33.7657318662
  0
LINE
  5
3F3
100
AcDbEntity
  8
0
100
AcDbLine
 62
7
  6
CONTINUOUS
 10
90.3659777965
 20
34.2657318662
 11
90.3659777965
 21
33.7657318662
  0
LINE
  5
3F4
100
AcDbEntity
  8
0
100
AcDbLine
 62
7
  6
CONTINUOUS
 10
90.5743112292
 20
34.2657318662
 11
90.5743112292
 21
33.7657318662
  0
LINE
  5
3F5
100
AcDbEntity
  8
0
100
AcDbLine
 62
7
  6
CONTINUOUS
 10
90.7826446618
 20
34.2657318662
 11
90.7826446618
 21
33.7657318662
  0
LINE
  5
3F6
100
AcDbEntity
  8
RUNDUNGEN
100
AcDbLine
 62
7
  6
CONTINUOUS
 10
113.02222726
 20
31.7657318662
 11
101.52222726
 21
31.7657318662
  0
LWPOLYLINE
  5
3F7
100
AcDbEntity
  8
RUNDUNGEN
100
AcDbPolyline
 62
7
  6
CONTINUOUS
 90
19
 70
0
 10
70.5366405735
 20
34.2657312183
 10
70.5516686456
 20
34.264043988
 10
70.6149733522
 20
34.2474016161
 10
70.7272576506
 20
34.2004278576
 10
70.8796960335
 20
34.1152483103
 10
71.0651086601
 20
33.9885465744
 10
71.2811672336
 20
33.8171204819
 10
71.5276676165
 20
33.5978160614
 10
71.8040345485
 20
33.3293883608
 10
72.1121309817
 20
33.0099469059
 10
72.4523372041
 20
32.6408720835
 10
72.8261682433
 20
32.2242488024
 10
73.2363096737
 20
31.7625045056
 10
73.6846887884
 20
31.2604451287
 10
74.1777799342
 20
30.7191119866
 10
74.7206379223
 20
30.1424914653
 10
75.3227043588
 20
29.5315609571
 10
75.995995945
 20
28.887069703
 10
76.6123306856
 20
28.3337715179
  0
LINE
  5
3F8
100
AcDbEntity
  8
0
100
AcDbLine
 62
7
  6
CONTINUOUS
 10
90.9388946618
 20
34.2657318662
 11
90.9388946618
 21
33.7657318662
  0
LINE
  5
3F9
100
AcDbEntity
  8
0
100
AcDbLine
 62
7
  6
CONTINUOUS
 10
91.0430612292
 20
34.2657318662
 11
91.0430612292
 21
33.7657318662
  0
LINE
  5
3FA
100
AcDbEntity
  8
0
100
AcDbLine
 62
7
  6
CONTINUOUS
 10
91.0951446618
 20
34.2657318662
 11
91.0951446618
 21
33.7657318662
  0
LINE
  5
3FB
100
AcDbEntity
  8
0
100
AcDbLine
 62
7
  6
CONTINUOUS
 10
91.4076446618
 20
34.2657318662
 11
91.4076446618
 21
33.7657318662
  0
LINE
  5
3FC
100
AcDbEntity
  8
0
100
AcDbLine
 62
7
  6
CONTINUOUS
 10
91.8243112292
 20
34.2657318662
 11
91.8243112292
 21
33.7657318662
  0
LINE
  5
3FD
100
AcDbEntity
  8
0
100
AcDbLine
 62
7
  6
CONTINUOUS
 10
92.14722726
 20
23.4814923778
 11
92.14722726
 21
23.4130460678
  0
LINE
  5
3FE
100
AcDbEntity
  8
0
100
AcDbLine
 62
7
  6
CONTINUOUS
 10
92.64722726
 20
23.5322104218
 11
92.64722726
 21
23.4561813578
  0
LINE
  5
3FF
100
AcDbEntity
  8
0
100
AcDbLine
 62
7
  6
CONTINUOUS
 10
93.0743112292
 20
34.2657318662
 11
93.0743112292
 21
33.7657318662
  0
LINE
  5
400
100
AcDbEntity
  8
0
100
AcDbLine
 62
7
  6
CONTINUOUS
 10
93.3347280945
 20
34.2657318662
 11
93.3347280945
 21
33.7657318662
  0
LINE
  5
401
100
AcDbEntity
  8
0
100
AcDbLine
 62
7
  6
CONTINUOUS
 10
93.5430612292
 20
34.2657318662
 11
93.5430612292
 21
33.7657318662
  0
LINE
  5
402
100
AcDbEntity
  8
0
100
AcDbLine
 62
7
  6
CONTINUOUS
 10
105.4932415806
 20
33.7657318662
 11
101.7725253457
 21
33.7657318662
  0
LINE
  5
403
100
AcDbEntity
  8
0
100
AcDbLine
 62
7
  6
CONTINUOUS
 10
93.9076443638
 20
33.7657318662
 11
91.8243112292
 21
33.7657318662
  0
LINE
  5
404
100
AcDbEntity
  8
0
100
AcDbLine
 62
7
  6
CONTINUOUS
 10
91.4076446618
 20
33.7657318662
 11
89.5326445128
 21
33.7657318662
  0
LINE
  5
405
100
AcDbEntity
  8
0
100
AcDbLine
 62
7
  6
CONTINUOUS
 10
89.1159779455
 20
33.7657318662
 11
87.1368112292
 21
33.7657318662
  0
LINE
  5
406
100
AcDbEntity
  8
0
100
AcDbLine
 62
7
  6
CONTINUOUS
 10
80.9302895254
 20
33.7657318662
 11
74.674933321
 21
33.7657318662
  0
LINE
  5
407
100
AcDbEntity
  8
RUNDUNGEN
100
AcDbLine
 62
7
  6
CONTINUOUS
 10
116.02222726
 20
34.2657318662
 11
115.02222726
 21
34.2657318662
  0
LINE
  5
408
100
AcDbEntity
  8
RUNDUNGEN
100
AcDbLine
 62
7
  6
CONTINUOUS
 10
68.7772910153
 20
34.2657318662
 11
112.2671631269
 21
34.2657318662
  0
LINE
  5
409
100
AcDbEntity
  8
0
100
AcDbLine
 62
7
  6
CONTINUOUS
 10
93.7513943638
 20
34.2657318662
 11
93.7513943638
 21
33.7657318662
  0
LINE
  5
40A
100
AcDbEntity
  8
0
100
AcDbLine
 62
7
  6
CONTINUOUS
 10
93.8555612292
 20
34.2657318662
 11
93.8555612292
 21
33.7657318662
  0
LINE
  5
40B
100
AcDbEntity
  8
0
100
AcDbLine
 62
7
  6
CONTINUOUS
 10
93.9076443638
 20
34.2657318662
 11
93.9076443638
 21
33.7657318662
  0
LINE
  5
40C
100
AcDbEntity
  8
0
100
AcDbLine
 62
7
  6
CONTINUOUS
 10
94.14722726
 20
53.317728635
 11
94.14722726
 21
53.3472240249
  0
LINE
  5
40D
100
AcDbEntity
  8
0
100
AcDbLine
 62
7
  6
CONTINUOUS
 10
94.64722726
 20
53.2302320698
 11
94.64722726
 21
53.2824077994
  0
LINE
  5
40E
100
AcDbEntity
  8
0
100
AcDbLine
 62
7
  6
CONTINUOUS
 10
101.77222726
 20
34.2657318662
 11
101.77222726
 21
33.7657318662
  0
LINE
  5
40F
100
AcDbEntity
  8
BEZUGSACHSEN
100
AcDbLine
 62
7
  6
CONTINUOUS
 10
68.7772910153
 20
42.7657318662
 11
112.2671631269
 21
42.7657318662
  0
LINE
  5
410
100
AcDbEntity
  8
RUNDUNGEN
100
AcDbLine
 62
7
  6
CONTINUOUS
 10
115.02222726
 20
42.7657318662
 11
116.02222726
 21
42.7657318662
  0
LINE
  5
411
100
AcDbEntity
  8
0
100
AcDbLine
 62
7
  6
CONTINUOUS
 10
103.9932415806
 20
34.2657318662
 11
103.9932415806
 21
33.7657318662
  0
LINE
  5
412
100
AcDbEntity
  8
RUNDUNGEN
100
AcDbLine
 62
7
  6
CONTINUOUS
 10
107.8109932346
 20
31.7657318662
 11
108.224463698
 21
32.2311858932
  0
LWPOLYLINE
  5
413
100
AcDbEntity
  8
RUNDUNGEN
100
AcDbPolyline
 62
7
  6
CONTINUOUS
 90
12
 70
0
 10
108.224463698
 20
32.2311858932
 10
108.5979560799
 20
32.6473080915
 10
108.9378466714
 20
33.0158182966
 10
109.2456195511
 20
33.3346172972
 10
109.5216182556
 20
33.6023165117
 10
109.7676847665
 20
33.8208226111
 10
109.9832080035
 20
33.9913975659
 10
110.1679823795
 20
34.1172483611
 10
110.3196542637
 20
34.2016233909
 10
110.4310736055
 20
34.2479335957
 10
110.493482972
 20
34.2641566936
 10
110.5078369377
 20
34.2657312199
  0
LINE
  5
414
100
AcDbEntity
  8
RUNDUNGEN
100
AcDbLine
 62
7
  6
CONTINUOUS
 10
101.52222726
 20
45.2657318662
 11
113.02222726
 21
45.2657318662
  0
LWPOLYLINE
  5
415
100
AcDbEntity
  8
BEZUGSACHSEN
100
AcDbPolyline
 62
7
  6
CONTINUOUS
 90
13
 70
0
 10
110.5078424589
 20
42.7657325127
 10
110.4935632193
 20
42.7672942687
 10
110.4313778811
 20
42.783429028
 10
110.320290807
 20
42.8295317106
 10
110.1690547948
 20
42.9135516895
 10
109.9848266335
 20
43.0388736341
 10
109.7700516358
 20
43.2086517952
 10
109.5251159453
 20
43.4258937169
 10
109.2504901874
 20
43.6919538772
 10
108.9442984293
 20
44.0087926384
 10
108.6059742322
 20
44.375322063
 10
108.2337955628
 20
44.7898005765
 10
107.8109439601
 20
45.2657318662
  0
LINE
  5
416
100
AcDbEntity
  8
0
100
AcDbLine
 62
7
  6
CONTINUOUS
 10
105.4932415806
 20
34.2657318662
 11
105.4932415806
 21
33.7657318662
  0
LINE
  5
417
100
AcDbEntity
  8
RUNDUNGEN
100
AcDbLine
 62
7
  6
CONTINUOUS
 10
113.02222726
 20
49.5157318662
 11
97.2304311925
 21
49.5157318662
  0
LWPOLYLINE
  5
418
100
AcDbEntity
  8
BEZUGSACHSEN
100
AcDbPolyline
 62
7
  6
CONTINUOUS
 90
20
 70
0
 10
103.4123281822
 20
49.5157318662
 10
102.3865173638
 20
50.2383978488
 10
101.1469562032
 20
50.9799983036
 10
99.814285193
 20
51.6479368585
 10
98.3985666867
 20
52.230717526
 10
96.9117486282
 20
52.7186948112
 10
95.3669218334
 20
53.1042904635
 10
93.778674894
 20
53.3822227673
 10
92.1616726932
 20
53.5494763285
 10
90.5303732991
 20
53.6053788218
 10
88.898988098
 20
53.5505817475
 10
87.2817492476
 20
53.3844348961
 10
85.6931168659
 20
53.1075866832
 10
84.1477645565
 20
52.7230321556
 10
82.6603016177
 20
52.23603562
 10
81.2438363437
 20
51.6541595563
 10
79.9103357654
 20
50.9870386155
 10
78.6698925363
 20
50.246168805
 10
77.5331780147
 20
49.4466524273
 10
76.6123491963
 20
48.6977078067
  0
LWPOLYLINE
  5
419
100
AcDbEntity
  8
BEZUGSACHSEN
100
AcDbPolyline
 62
7
  6
CONTINUOUS
 90
7
 70
0
 10
113.8924863676
 20
38.5157318662
 10
113.890287183
 20
38.8877670007
 10
113.8796955829
 20
39.4136512666
 10
113.8601567446
 20
39.9446169572
 10
113.8314930971
 20
40.4797045997
 10
113.7935816553
 20
41.0179339293
 10
113.7609979406
 20
41.4015901016
  0
LINE
  5
41A
100
AcDbEntity
  8
RUNDUNGEN
100
AcDbLine
 62
7
  6
CONTINUOUS
 10
114.02222726
 20
44.2657318662
 11
114.02222726
 21
43.7657318662
  0
LINE
  5
41B
100
AcDbEntity
  8
RUNDUNGEN
100
AcDbLine
 62
7
  6
CONTINUOUS
 10
114.02222726
 20
33.2657318662
 11
114.02222726
 21
32.7657318662
  0
LWPOLYLINE
  5
41C
100
AcDbEntity
  8
RUNDUNGEN
100
AcDbPolyline
 62
7
  6
CONTINUOUS
 90
7
 70
0
 10
113.7609979406
 20
35.6298736308
 10
113.7935816553
 20
36.0135298031
 10
113.8314930971
 20
36.5517591328
 10
113.8601567446
 20
37.0868467752
 10
113.8796955829
 20
37.6178124659
 10
113.890287183
 20
38.1436967318
 10
113.8924863676
 20
38.5157318662
  0
LINE
  5
41D
100
AcDbEntity
  8
RUNDUNGEN
100
AcDbLine
 62
7
  6
CONTINUOUS
 10
117.02222726
 20
31.5157318662
 11
117.02222726
 21
33.2657318662
  0
LINE
  5
41E
100
AcDbEntity
  8
RUNDUNGEN
100
AcDbLine
 62
7
  6
CONTINUOUS
 10
117.02222726
 20
43.7657318662
 11
117.02222726
 21
45.5157318662
  0
ARC
  5
41F
100
AcDbEntity
  8
BEZUGSACHSEN
100
AcDbCircle
 62
7
  6
CONTINUOUS
 10
73.02222726
 20
144.638941569
 40
5.0
100
AcDbArc
 50
0.0
 51
77.2303865883
  0
ARC
  5
420
100
AcDbEntity
  8
BEZUGSACHSEN
100
AcDbCircle
 62
7
  6
CONTINUOUS
 10
83.8725826502
 20
163.170191569
 40
5.0
100
AcDbArc
 50
207.5467144367
 51
224.6474603225
  0
ARC
  5
421
100
AcDbEntity
  8
RUNDUNGEN
100
AcDbCircle
 62
7
  6
CONTINUOUS
 10
83.8725826502
 20
163.170191569
 40
5.0
100
AcDbArc
 50
207.5467144367
 51
228.318614542
  0
ARC
  5
422
100
AcDbEntity
  8
RUNDUNGEN
100
AcDbCircle
 62
7
  6
CONTINUOUS
 10
72.02222726
 20
151.638941569
 40
1.0
100
AcDbArc
 50
180.0
 51
270.0
  0
ARC
  5
423
100
AcDbEntity
  8
BEZUGSACHSEN
100
AcDbCircle
 62
7
  6
CONTINUOUS
 10
72.9937676706
 20
149.6389420358
 40
0.9999999066
100
AcDbArc
 50
22.4999845593
 51
90.0000242219
  0
ARC
  5
424
100
AcDbEntity
  8
BEZUGSACHSEN
100
AcDbCircle
 62
7
  6
CONTINUOUS
 10
70.02222726
 20
156.8128830135
 40
0.9999997272
100
AcDbArc
 50
359.9994668798
 51
22.4995074591
  0
ARC
  5
425
100
AcDbEntity
  8
RUNDUNGEN
100
AcDbCircle
 62
7
  6
CONTINUOUS
 10
83.02222726
 20
160.938941569
 40
0.5
100
AcDbArc
 50
180.0
 51
270.0
  0
ARC
  5
426
100
AcDbEntity
  8
RUNDUNGEN
100
AcDbCircle
 62
7
  6
CONTINUOUS
 10
83.02222726
 20
162.438941569
 40
0.5
100
AcDbArc
 50
90.0
 51
180.0
  0
ARC
  5
427
100
AcDbEntity
  8
0
100
AcDbCircle
 62
7
  6
CONTINUOUS
 10
88.6397468976
 20
174.3915744957
 40
18.5142246394
100
AcDbArc
 50
262.9838278117
 51
263.3180380407
  0
ARC
  5
428
100
AcDbEntity
  8
0
100
AcDbCircle
 62
7
  6
CONTINUOUS
 10
92.4868671642
 20
173.7084526599
 40
17.8261810219
100
AcDbArc
 50
276.7225560852
 51
277.1324118561
  0
ARC
  5
429
100
AcDbEntity
  8
0
100
AcDbCircle
 62
7
  6
CONTINUOUS
 10
88.5414281563
 20
173.5632859031
 40
17.6801292897
100
AcDbArc
 50
262.8577353229
 51
262.9721855468
  0
ARC
  5
42A
100
AcDbEntity
  8
0
100
AcDbCircle
 62
7
  6
CONTINUOUS
 10
90.52222726
 20
170.638941569
 40
15.0
100
AcDbArc
 50
228.3198055131
 51
229.3357703763
  0
ARC
  5
42B
100
AcDbEntity
  8
0
100
AcDbCircle
 62
7
  6
CONTINUOUS
 10
90.52222726
 20
170.638941569
 40
15.0
100
AcDbArc
 50
310.6642498434
 51
311.6800498572
  0
ARC
  5
42C
100
AcDbEntity
  8
0
100
AcDbCircle
 62
7
  6
CONTINUOUS
 10
90.52222726
 20
170.638941569
 40
15.0
100
AcDbArc
 50
265.5407412102
 51
274.4595626198
  0
ARC
  5
42D
100
AcDbEntity
  8
BEZUGSACHSEN
100
AcDbCircle
 62
7
  6
CONTINUOUS
 10
90.52222726
 20
166.638941569
 40
12.5
100
AcDbArc
 50
342.7852021845
 51
345.5083194415
  0
ARC
  5
42E
100
AcDbEntity
  8
BEZUGSACHSEN
100
AcDbCircle
 62
7
  6
CONTINUOUS
 10
90.52222726
 20
166.638941569
 40
12.5
100
AcDbArc
 50
194.4916805585
 51
207.5478133357
  0
ARC
  5
42F
100
AcDbEntity
  8
RUNDUNGEN
100
AcDbCircle
 62
7
  6
CONTINUOUS
 10
90.52222726
 20
166.638941569
 40
12.5
100
AcDbArc
 50
342.7852021845
 51
207.5478133357
  0
ARC
  5
430
100
AcDbEntity
  8
RUNDUNGEN
100
AcDbCircle
 62
7
  6
CONTINUOUS
 10
90.52222726
 20
188.5153532686
 40
1.5
100
AcDbArc
 50
67.5
 51
112.5
  0
ARC
  5
431
100
AcDbEntity
  8
RUNDUNGEN
100
AcDbCircle
 62
7
  6
CONTINUOUS
 10
75.0532681993
 20
182.1079006298
 40
1.5
100
AcDbArc
 50
112.5
 51
157.5
  0
ARC
  5
432
100
AcDbEntity
  8
BEZUGSACHSEN
100
AcDbCircle
 62
7
  6
CONTINUOUS
 10
68.6519673427
 20
166.6537932851
 40
1.5
100
AcDbArc
 50
157.5000966532
 51
202.5000683439
  0
ARC
  5
433
100
AcDbEntity
  8
BEZUGSACHSEN
100
AcDbCircle
 62
7
  6
CONTINUOUS
 10
108.02222726
 20
144.638941569
 40
5.0
100
AcDbArc
 50
102.7696134117
 51
180.0
  0
ARC
  5
434
100
AcDbEntity
  8
RUNDUNGEN
100
AcDbCircle
 62
7
  6
CONTINUOUS
 10
97.1718718699
 20
163.170191569
 40
5.0
100
AcDbArc
 50
311.680951574
 51
326.8849091002
  0
ARC
  5
435
100
AcDbEntity
  8
BEZUGSACHSEN
100
AcDbCircle
 62
7
  6
CONTINUOUS
 10
97.1718718699
 20
163.170191569
 40
5.0
100
AcDbArc
 50
315.3527770305
 51
326.8849091002
  0
ARC
  5
436
100
AcDbEntity
  8
RUNDUNGEN
100
AcDbCircle
 62
7
  6
CONTINUOUS
 10
109.02222726
 20
151.638941569
 40
1.0
100
AcDbArc
 50
270.0
 51
360.0
  0
ARC
  5
437
100
AcDbEntity
  8
BEZUGSACHSEN
100
AcDbCircle
 62
7
  6
CONTINUOUS
 10
108.0506871297
 20
149.6389416498
 40
0.9999999838
100
AcDbArc
 50
89.9999918339
 51
157.5000011528
  0
ARC
  5
438
100
AcDbEntity
  8
BEZUGSACHSEN
100
AcDbCircle
 62
7
  6
CONTINUOUS
 10
111.02222726
 20
156.8128777909
 40
0.9999999177
100
AcDbArc
 50
157.5002160809
 51
180.0002338839
  0
ARC
  5
439
100
AcDbEntity
  8
RUNDUNGEN
100
AcDbCircle
 62
7
  6
CONTINUOUS
 10
116.52222726
 20
160.938941569
 40
0.5
100
AcDbArc
 50
270.0
 51
360.0
  0
ARC
  5
43A
100
AcDbEntity
  8
RUNDUNGEN
100
AcDbCircle
 62
7
  6
CONTINUOUS
 10
116.52222726
 20
162.438941569
 40
0.5
100
AcDbArc
 50
0.0
 51
90.0
  0
ARC
  5
43B
100
AcDbEntity
  8
BEZUGSACHSEN
100
AcDbCircle
 62
7
  6
CONTINUOUS
 10
112.392486712
 20
166.6537944086
 40
1.5
100
AcDbArc
 50
337.4998988125
 51
22.4998568986
  0
ARC
  5
43C
100
AcDbEntity
  8
RUNDUNGEN
100
AcDbCircle
 62
7
  6
CONTINUOUS
 10
105.9911863208
 20
182.1079006298
 40
1.5
100
AcDbArc
 50
22.5
 51
67.5
  0
ARC
  5
43D
100
AcDbEntity
  8
0
100
AcDbCircle
 62
7
  6
CONTINUOUS
 10
104.52222726
 20
178.4483390823
 40
1.25
100
AcDbArc
 50
39.0304446498
 51
221.239813447
  0
ARC
  5
43E
100
AcDbEntity
  8
0
100
AcDbCircle
 62
7
  6
CONTINUOUS
 10
103.02222726
 20
179.9483390823
 40
1.25
100
AcDbArc
 50
39.0304446498
 51
221.239813447
  0
ARC
  5
43F
100
AcDbEntity
  8
0
100
AcDbCircle
 62
7
  6
CONTINUOUS
 10
104.52222726
 20
178.4483390823
 40
0.88
100
AcDbArc
 50
147.4688671253
 51
233.4952415783
  0
ARC
  5
440
100
AcDbEntity
  8
0
100
AcDbCircle
 62
7
  6
CONTINUOUS
 10
104.52222726
 20
178.4483390823
 40
0.88
100
AcDbArc
 50
36.5047584217
 51
123.0056861701
  0
ARC
  5
441
100
AcDbEntity
  8
0
100
AcDbCircle
 62
7
  6
CONTINUOUS
 10
103.02222726
 20
179.9483390823
 40
0.88
100
AcDbArc
 50
47.6447948634
 51
233.4952415783
  0
ARC
  5
442
100
AcDbEntity
  8
0
100
AcDbCircle
 62
7
  6
CONTINUOUS
 10
22.6426141128
 20
180.1460022756
 40
173.7538742039
100
AcDbArc
 50
349.4170900124
 51
349.5312675188
  0
ARC
  5
443
100
AcDbEntity
  8
0
100
AcDbCircle
 62
7
  6
CONTINUOUS
 10
57.48480609
 20
184.6617728068
 40
141.937364787
100
AcDbArc
 50
346.1810411215
 51
346.2990055155
  0
ARC
  5
444
100
AcDbEntity
  8
0
100
AcDbCircle
 62
7
  6
CONTINUOUS
 10
111.8329336648
 20
185.6756458919
 40
89.4966153986
100
AcDbArc
 50
336.8196919455
 51
336.9973843167
  0
ARC
  5
445
100
AcDbEntity
  8
0
100
AcDbCircle
 62
7
  6
CONTINUOUS
 10
122.5386910047
 20
159.6484582161
 40
72.5049554072
100
AcDbArc
 50
351.0108876107
 51
351.4192016224
  0
ARC
  5
446
100
AcDbEntity
  8
0
100
AcDbCircle
 62
7
  6
CONTINUOUS
 10
-8.9778560522
 20
225.7977184897
 40
217.2282869203
100
AcDbArc
 50
339.5602612555
 51
339.7039289203
  0
ARC
  5
447
100
AcDbEntity
  8
0
100
AcDbCircle
 62
7
  6
CONTINUOUS
 10
39.9707251861
 20
210.2742798864
 40
165.8466701577
100
AcDbArc
 50
338.6969027808
 51
338.8546103903
  0
ARC
  5
448
100
AcDbEntity
  8
0
100
AcDbCircle
 62
7
  6
CONTINUOUS
 10
48.4598360814
 20
207.2651409959
 40
156.3349989274
100
AcDbArc
 50
338.5211699749
 51
338.6886674757
  0
ARC
  5
449
100
AcDbEntity
  8
0
100
AcDbCircle
 62
7
  6
CONTINUOUS
 10
72.3278529952
 20
192.5819006435
 40
129.9834478716
100
AcDbArc
 50
340.2110250271
 51
340.3305863068
  0
ARC
  5
44A
100
AcDbEntity
  8
0
100
AcDbCircle
 62
7
  6
CONTINUOUS
 10
107.9857824508
 20
187.1630447183
 40
94.1213479898
100
AcDbArc
 50
337.040035309
 51
337.2087268578
  0
ARC
  5
44B
100
AcDbEntity
  8
0
100
AcDbCircle
 62
7
  6
CONTINUOUS
 10
126.1277858763
 20
165.2544132508
 40
70.6144260087
100
AcDbArc
 50
347.8959615094
 51
348.2485143427
  0
ARC
  5
44C
100
AcDbEntity
  8
0
100
AcDbCircle
 62
7
  6
CONTINUOUS
 10
156.9904300392
 20
164.627688116
 40
40.8520168312
100
AcDbArc
 50
336.6012654183
 51
337.2510121238
  0
ARC
  5
44D
100
AcDbEntity
  8
0
100
AcDbCircle
 62
7
  6
CONTINUOUS
 10
168.5725181607
 20
155.7315845258
 40
27.2176667637
100
AcDbArc
 50
350.0810266176
 51
350.6262081749
  0
ARC
  5
44E
100
AcDbEntity
  8
0
100
AcDbCircle
 62
7
  6
CONTINUOUS
 10
169.1865251657
 20
149.4334060353
 40
24.8305525743
100
AcDbArc
 50
356.6429268416
 51
357.2329133277
  0
ARC
  5
44F
100
AcDbEntity
  8
0
100
AcDbCircle
 62
7
  6
CONTINUOUS
 10
169.4432237359
 20
149.1967007929
 40
24.0170161333
100
AcDbArc
 50
357.0946439559
 51
357.7043724545
  0
ARC
  5
450
100
AcDbEntity
  8
0
100
AcDbCircle
 62
7
  6
CONTINUOUS
 10
176.6971028658
 20
155.0347026299
 40
11.7691025565
100
AcDbArc
 50
215.2949343011
 51
216.3167060958
  0
ARC
  5
451
100
AcDbEntity
  8
0
100
AcDbCircle
 62
7
  6
CONTINUOUS
 10
176.6434203294
 20
154.4700739484
 40
11.5489894127
100
AcDbArc
 50
214.1952727139
 51
215.2225208712
  0
ARC
  5
452
100
AcDbEntity
  8
0
100
AcDbCircle
 62
7
  6
CONTINUOUS
 10
176.9457378912
 20
154.9599216079
 40
11.4866181275
100
AcDbArc
 50
215.8372158529
 51
216.8915815063
  0
ARC
  5
453
100
AcDbEntity
  8
0
100
AcDbCircle
 62
7
  6
CONTINUOUS
 10
184.7804405237
 20
153.9649782492
 40
11.193580344
100
AcDbArc
 50
328.699284346
 51
329.7135447957
  0
ARC
  5
454
100
AcDbEntity
  8
0
100
AcDbCircle
 62
7
  6
CONTINUOUS
 10
184.5054366816
 20
151.7238778999
 40
10.8016270645
100
AcDbArc
 50
356.3865858385
 51
356.8392518208
  0
ARC
  5
455
100
AcDbEntity
  8
0
100
AcDbCircle
 62
7
  6
CONTINUOUS
 10
184.520077673
 20
151.7229533588
 40
10.7869569109
100
AcDbArc
 50
355.9339585514
 51
356.3865856615
  0
ARC
  5
456
100
AcDbEntity
  8
0
100
AcDbCircle
 62
7
  6
CONTINUOUS
 10
184.3957274885
 20
147.8051934207
 40
9.7709770003
100
AcDbArc
 50
2.0198571228
 51
3.018941608
  0
ARC
  5
457
100
AcDbEntity
  8
0
100
AcDbCircle
 62
7
  6
CONTINUOUS
 10
186.2690298288
 20
152.7925321207
 40
9.4339206643
100
AcDbArc
 50
327.5025758594
 51
329.3229977996
  0
ARC
  5
458
100
AcDbEntity
  8
0
100
AcDbCircle
 62
7
  6
CONTINUOUS
 10
186.7616248951
 20
151.8695841103
 40
8.6839136952
100
AcDbArc
 50
356.2294169991
 51
357.9162541873
  0
ARC
  5
459
100
AcDbEntity
  8
0
100
AcDbCircle
 62
7
  6
CONTINUOUS
 10
186.3240045656
 20
147.0454476098
 40
7.7072561234
100
AcDbArc
 50
5.051259067
 51
6.9598654845
  0
ARC
  5
45A
100
AcDbEntity
  8
0
100
AcDbCircle
 62
7
  6
CONTINUOUS
 10
186.0261953795
 20
146.9705443514
 40
7.471593026
100
AcDbArc
 50
5.7880687928
 51
7.7598402304
  0
ARC
  5
45B
100
AcDbEntity
  8
0
100
AcDbCircle
 62
7
  6
CONTINUOUS
 10
171.0866709372
 20
152.0183050014
 40
5.7231566706
100
AcDbArc
 50
227.3460682881
 51
228.6189853399
  0
ARC
  5
45C
100
AcDbEntity
  8
0
100
AcDbCircle
 62
7
  6
CONTINUOUS
 10
170.4147290471
 20
152.6630583757
 40
5.3103297133
100
AcDbArc
 50
239.9936229161
 51
241.8841244441
  0
ARC
  5
45D
100
AcDbEntity
  8
0
100
AcDbCircle
 62
7
  6
CONTINUOUS
 10
169.868350201
 20
152.5318547943
 40
5.1964058985
100
AcDbArc
 50
239.2835879976
 51
241.1735191524
  0
ARC
  5
45E
100
AcDbEntity
  8
0
100
AcDbCircle
 62
7
  6
CONTINUOUS
 10
169.6048380201
 20
152.1933304479
 40
5.0270819536
100
AcDbArc
 50
242.7529989037
 51
244.9543369016
  0
ARC
  5
45F
100
AcDbEntity
  8
BEZUGSACHSEN
100
AcDbCircle
 62
7
  6
CONTINUOUS
 10
180.6083041849
 20
154.638941569
 40
4.0
100
AcDbArc
 50
185.8667885188
 51
354.1332114812
  0
ARC
  5
460
100
AcDbEntity
  8
BEZUGSACHSEN
100
AcDbCircle
 62
7
  6
CONTINUOUS
 10
167.0186558609
 20
153.3334760724
 40
1.5
100
AcDbArc
 50
105.0
 51
197.0
  0
ARC
  5
461
100
AcDbEntity
  8
0
100
AcDbCircle
 62
7
  6
CONTINUOUS
 10
162.2858251664
 20
159.7554282051
 40
34.3964968906
100
AcDbArc
 50
345.1657538305
 51
346.3512859823
  0
ARC
  5
462
100
AcDbEntity
  8
0
100
AcDbCircle
 62
7
  6
CONTINUOUS
 10
163.3358117674
 20
159.4786059588
 40
33.3106308976
100
AcDbArc
 50
344.6476775648
 51
344.990660451
  0
ARC
  5
463
100
AcDbEntity
  8
0
100
AcDbCircle
 62
7
  6
CONTINUOUS
 10
163.8031266305
 20
159.3501399806
 40
32.8259798239
100
AcDbArc
 50
344.1830357731
 51
344.6479540973
  0
ARC
  5
464
100
AcDbEntity
  8
0
100
AcDbCircle
 62
7
  6
CONTINUOUS
 10
164.3729812064
 20
159.1885157103
 40
32.2336483216
100
AcDbArc
 50
343.5970477174
 51
344.1833597393
  0
ARC
  5
465
100
AcDbEntity
  8
0
100
AcDbCircle
 62
7
  6
CONTINUOUS
 10
164.8092032142
 20
159.0605784065
 40
31.7790524748
100
AcDbArc
 50
343.3896735378
 51
343.5962274912
  0
ARC
  5
466
100
AcDbEntity
  8
0
100
AcDbCircle
 62
7
  6
CONTINUOUS
 10
165.1828019663
 20
158.9489211242
 40
31.3891251284
100
AcDbArc
 50
343.0005553943
 51
343.3900397003
  0
ARC
  5
467
100
AcDbEntity
  8
0
100
AcDbCircle
 62
7
  6
CONTINUOUS
 10
165.9030982416
 20
158.7277295714
 40
30.6356322467
100
AcDbArc
 50
342.1577802919
 51
343.0023126429
  0
ARC
  5
468
100
AcDbEntity
  8
BEZUGSACHSEN
100
AcDbCircle
 62
7
  6
CONTINUOUS
 10
169.3583041849
 20
162.7602304849
 40
7.0
100
AcDbArc
 50
284.9998929547
 51
0.0001066761
  0
ARC
  5
469
100
AcDbEntity
  8
RUNDUNGEN
100
AcDbCircle
 62
7
  6
CONTINUOUS
 10
170.1083041849
 20
160.938941569
 40
0.5
100
AcDbArc
 50
180.0
 51
270.0
  0
ARC
  5
46A
100
AcDbEntity
  8
RUNDUNGEN
100
AcDbCircle
 62
7
  6
CONTINUOUS
 10
173.1083041849
 20
160.938941569
 40
0.5
100
AcDbArc
 50
180.0
 51
269.9999999999
  0
ARC
  5
46B
100
AcDbEntity
  8
RUNDUNGEN
100
AcDbCircle
 62
7
  6
CONTINUOUS
 10
173.1083041849
 20
162.438941569
 40
0.5
100
AcDbArc
 50
90.0
 51
180.0
  0
ARC
  5
46C
100
AcDbEntity
  8
RUNDUNGEN
100
AcDbCircle
 62
7
  6
CONTINUOUS
 10
170.1083041849
 20
162.438941569
 40
0.5
100
AcDbArc
 50
90.0
 51
180.0
  0
ARC
  5
46D
100
AcDbEntity
  8
0
100
AcDbCircle
 62
7
  6
CONTINUOUS
 10
175.4601940322
 20
157.0993799375
 40
21.0056516357
100
AcDbArc
 50
334.2675416308
 51
335.0381508117
  0
ARC
  5
46E
100
AcDbEntity
  8
0
100
AcDbCircle
 62
7
  6
CONTINUOUS
 10
184.7480722355
 20
157.8451898964
 40
12.3605810797
100
AcDbArc
 50
326.1388289603
 51
327.0837964673
  0
ARC
  5
46F
100
AcDbEntity
  8
0
100
AcDbCircle
 62
7
  6
CONTINUOUS
 10
186.2756184134
 20
157.7033507257
 40
10.873432002
100
AcDbArc
 50
324.0949447307
 51
325.5592126928
  0
ARC
  5
470
100
AcDbEntity
  8
0
100
AcDbCircle
 62
7
  6
CONTINUOUS
 10
185.9699868814
 20
157.6490288039
 40
10.6518863489
100
AcDbArc
 50
323.4027260779
 51
325.095010246
  0
ARC
  5
471
100
AcDbEntity
  8
0
100
AcDbCircle
 62
7
  6
CONTINUOUS
 10
176.0859710366
 20
162.0709547625
 40
21.8209736908
100
AcDbArc
 50
329.6438021849
 51
330.4176758619
  0
ARC
  5
472
100
AcDbEntity
  8
0
100
AcDbCircle
 62
7
  6
CONTINUOUS
 10
176.2054966516
 20
161.8551179159
 40
21.1406991476
100
AcDbArc
 50
329.2410823567
 51
330.0430139929
  0
ARC
  5
473
100
AcDbEntity
  8
RUNDUNGEN
100
AcDbCircle
 62
7
  6
CONTINUOUS
 10
188.1083041849
 20
160.938941569
 40
0.5
100
AcDbArc
 50
270.0
 51
360.0
  0
ARC
  5
474
100
AcDbEntity
  8
RUNDUNGEN
100
AcDbCircle
 62
7
  6
CONTINUOUS
 10
188.1083041849
 20
162.438941569
 40
0.5
100
AcDbArc
 50
0.0
 51
89.9999999998
  0
ARC
  5
475
100
AcDbEntity
  8
0
100
AcDbCircle
 62
7
  6
CONTINUOUS
 10
132.4899953193
 20
172.3963323509
 40
66.5543615371
100
AcDbArc
 50
338.7132197014
 51
338.9748832741
  0
ARC
  5
476
100
AcDbEntity
  8
0
100
AcDbCircle
 62
7
  6
CONTINUOUS
 10
131.8372912896
 20
169.1291692168
 40
66.2511168665
100
AcDbArc
 50
340.7462562693
 51
341.3167360498
  0
ARC
  5
477
100
AcDbEntity
  8
0
100
AcDbCircle
 62
7
  6
CONTINUOUS
 10
134.7301913217
 20
168.9031694244
 40
63.4149337961
100
AcDbArc
 50
340.0660152746
 51
340.6647212058
  0
ARC
  5
478
100
AcDbEntity
  8
0
100
AcDbCircle
 62
7
  6
CONTINUOUS
 10
137.585219251
 20
167.7891592968
 40
59.8569094606
100
AcDbArc
 50
339.8077789461
 51
340.281298063
  0
ARC
  5
479
100
AcDbEntity
  8
0
100
AcDbCircle
 62
7
  6
CONTINUOUS
 10
143.0423200278
 20
174.752501569
 40
57.0345218648
100
AcDbArc
 50
335.2478541513
 51
335.4365339445
  0
ARC
  5
47A
100
AcDbEntity
  8
0
100
AcDbCircle
 62
7
  6
CONTINUOUS
 10
143.7979806007
 20
174.404100599
 40
56.2024124145
100
AcDbArc
 50
335.0571700327
 51
335.2478563342
  0
ARC
  5
47B
100
AcDbEntity
  8
0
100
AcDbCircle
 62
7
  6
CONTINUOUS
 10
145.1716193438
 20
173.7955320797
 40
54.2067563242
100
AcDbArc
 50
334.7852261503
 51
335.1823023439
  0
ARC
  5
47C
100
AcDbEntity
  8
0
100
AcDbCircle
 62
7
  6
CONTINUOUS
 10
160.1914203677
 20
167.6109647522
 40
38.597956818
100
AcDbArc
 50
333.5975087911
 51
334.1583821889
  0
ARC
  5
47D
100
AcDbEntity
  8
0
100
AcDbCircle
 62
7
  6
CONTINUOUS
 10
198.9207687355
 20
159.7528494861
 40
34.3861559869
100
AcDbArc
 50
193.6658426262
 51
194.8343647535
  0
ARC
  5
47E
100
AcDbEntity
  8
0
100
AcDbCircle
 62
7
  6
CONTINUOUS
 10
197.389654803
 20
158.5826771632
 40
32.5792170574
100
AcDbArc
 50
193.5345824815
 51
195.511933584
  0
ARC
  5
47F
100
AcDbEntity
  8
0
100
AcDbCircle
 62
7
  6
CONTINUOUS
 10
197.1451917409
 20
159.278207137
 40
32.5482237674
100
AcDbArc
 50
195.0039571962
 51
196.9817908918
  0
ARC
  5
480
100
AcDbEntity
  8
0
100
AcDbCircle
 62
7
  6
CONTINUOUS
 10
195.9777643678
 20
158.1922672772
 40
31.1143442263
100
AcDbArc
 50
195.5145218573
 51
196.5273636143
  0
ARC
  5
481
100
AcDbEntity
  8
RUNDUNGEN
100
AcDbCircle
 62
7
  6
CONTINUOUS
 10
191.8583041849
 20
162.7602304849
 40
7.0
100
AcDbArc
 50
179.9998933239
 51
255.0001070453
  0
ARC
  5
482
100
AcDbEntity
  8
0
100
AcDbCircle
 62
7
  6
CONTINUOUS
 10
193.0115626839
 20
154.0994192527
 40
3.6457444847
100
AcDbArc
 50
305.4171355254
 51
307.295197692
  0
ARC
  5
483
100
AcDbEntity
  8
0
100
AcDbCircle
 62
7
  6
CONTINUOUS
 10
192.2193588089
 20
150.8930128906
 40
3.4705610389
100
AcDbArc
 50
305.4117221054
 51
305.8116119496
  0
ARC
  5
484
100
AcDbEntity
  8
0
100
AcDbCircle
 62
7
  6
CONTINUOUS
 10
193.1722396264
 20
153.885964794
 40
3.3785789716
100
AcDbArc
 50
307.3208777844
 51
307.7181909142
  0
ARC
  5
485
100
AcDbEntity
  8
0
100
AcDbCircle
 62
7
  6
CONTINUOUS
 10
192.9834076763
 20
154.4383432185
 40
3.3595243895
100
AcDbArc
 50
300.8395694212
 51
303.5635418514
  0
ARC
  5
486
100
AcDbEntity
  8
0
100
AcDbCircle
 62
7
  6
CONTINUOUS
 10
193.5172483764
 20
154.3737746106
 40
3.3061274914
100
AcDbArc
 50
301.4667391723
 51
304.1876893664
  0
ARC
  5
487
100
AcDbEntity
  8
0
100
AcDbCircle
 62
7
  6
CONTINUOUS
 10
192.384551942
 20
150.6670655588
 40
3.1906724637
100
AcDbArc
 50
305.7800821472
 51
307.9065233425
  0
ARC
  5
488
100
AcDbEntity
  8
0
100
AcDbCircle
 62
7
  6
CONTINUOUS
 10
192.4943921919
 20
150.2697718601
 40
3.0786839993
100
AcDbArc
 50
301.2920621637
 51
304.2197224746
  0
ARC
  5
489
100
AcDbEntity
  8
0
100
AcDbCircle
 62
7
  6
CONTINUOUS
 10
192.9449049502
 20
147.0823098451
 40
1.6177333576
100
AcDbArc
 50
37.3817896978
 51
41.2794159159
  0
ARC
  5
48A
100
AcDbEntity
  8
RUNDUNGEN
100
AcDbCircle
 62
7
  6
CONTINUOUS
 10
194.1979525088
 20
153.3334760724
 40
1.5
100
AcDbArc
 50
343.0
 51
75.0
  0
ARC
  5
48B
100
AcDbEntity
  8
0
100
AcDbCircle
 62
7
  6
CONTINUOUS
 10
194.0864118654
 20
150.4583934633
 40
1.3780150137
100
AcDbArc
 50
29.0872676412
 51
33.2231533821
  0
ARC
  5
48C
100
AcDbEntity
  8
RUNDUNGEN
100
AcDbCircle
 62
7
  6
CONTINUOUS
 10
191.1083041849
 20
160.938941569
 40
0.5
100
AcDbArc
 50
270.0
 51
360.0
  0
ARC
  5
48D
100
AcDbEntity
  8
RUNDUNGEN
100
AcDbCircle
 62
7
  6
CONTINUOUS
 10
191.1083041849
 20
162.438941569
 40
0.5
100
AcDbArc
 50
0.0
 51
90.0
  0
ARC
  5
48E
100
AcDbEntity
  8
0
100
AcDbCircle
 62
7
  6
CONTINUOUS
 10
255.0149902183
 20
184.4309011739
 40
95.0828177085
100
AcDbArc
 50
202.2095865289
 51
202.3758670538
  0
ARC
  5
48F
100
AcDbEntity
  8
0
100
AcDbCircle
 62
7
  6
CONTINUOUS
 10
251.050435513
 20
182.9266949498
 40
90.3431416914
100
AcDbArc
 50
202.4065816201
 51
202.5818394904
  0
ARC
  5
490
100
AcDbEntity
  8
0
100
AcDbCircle
 62
7
  6
CONTINUOUS
 10
231.2360333887
 20
169.7609148227
 40
68.2123625885
100
AcDbArc
 50
198.5463664971
 51
198.8253689798
  0
ARC
  5
491
100
AcDbEntity
  8
0
100
AcDbCircle
 62
7
  6
CONTINUOUS
 10
228.0409731286
 20
168.6656275131
 40
64.834775027
100
AcDbArc
 50
198.9663761327
 51
199.4016227291
  0
ARC
  5
492
100
AcDbEntity
  8
0
100
AcDbCircle
 62
7
  6
CONTINUOUS
 10
218.7418080101
 20
170.845550115
 40
56.486055757
100
AcDbArc
 50
203.502207035
 51
203.8792909693
  0
ARC
  5
493
100
AcDbEntity
  8
BEZUGSACHSEN
100
AcDbCircle
 62
7
  6
CONTINUOUS
 10
177.8583041849
 20
188.5153532686
 40
1.5
100
AcDbArc
 50
90.0
 51
180.0
  0
ARC
  5
494
100
AcDbEntity
  8
RUNDUNGEN
100
AcDbCircle
 62
7
  6
CONTINUOUS
 10
183.3583041849
 20
188.5153532686
 40
1.5
100
AcDbArc
 50
0.0
 51
90.0
  0
ARC
  5
495
100
AcDbEntity
  8
0
100
AcDbCircle
 62
7
  6
CONTINUOUS
 10
81.6031717284
 20
27.4811114851
 40
27.1359912371
100
AcDbArc
 50
73.9413460621
 51
74.4073444888
  0
ARC
  5
496
100
AcDbEntity
  8
0
100
AcDbCircle
 62
7
  6
CONTINUOUS
 10
90.4976731503
 20
32.1475228847
 40
21.5304609727
100
AcDbArc
 50
94.2629581093
 51
95.5985054871
  0
ARC
  5
497
100
AcDbEntity
  8
0
100
AcDbCircle
 62
7
  6
CONTINUOUS
 10
91.6784663048
 20
32.3419735987
 40
21.1498304041
100
AcDbArc
 50
81.9308543551
 51
83.2967413712
  0
ARC
  5
498
100
AcDbEntity
  8
0
100
AcDbCircle
 62
7
  6
CONTINUOUS
 10
89.6863235782
 20
33.4664433027
 40
20.4275063157
100
AcDbArc
 50
74.4944985181
 51
75.9449468443
  0
ARC
  5
499
100
AcDbEntity
  8
RUNDUNGEN
100
AcDbCircle
 62
7
  6
CONTINUOUS
 10
90.52222726
 20
25.5157318662
 40
5.0
100
AcDbArc
 50
41.8103148958
 51
90.0
  0
ARC
  5
49A
100
AcDbEntity
  8
RUNDUNGEN
100
AcDbCircle
 62
7
  6
CONTINUOUS
 10
68.7773602774
 20
35.7658077957
 40
1.5000819139
100
AcDbArc
 50
185.1992872718
 51
269.9974056017
  0
ARC
  5
49B
100
AcDbEntity
  8
0
100
AcDbCircle
 62
7
  6
CONTINUOUS
 10
86.3820117895
 20
46.7899790118
 40
23.111482769
100
AcDbArc
 50
271.2773787759
 51
271.6470960779
  0
ARC
  5
49C
100
AcDbEntity
  8
0
100
AcDbCircle
 62
7
  6
CONTINUOUS
 10
90.5467813698
 20
44.8839408477
 40
21.5304609727
100
AcDbArc
 50
274.2629581093
 51
275.5985054871
  0
ARC
  5
49D
100
AcDbEntity
  8
0
100
AcDbCircle
 62
7
  6
CONTINUOUS
 10
89.3659882153
 20
44.6894901337
 40
21.1498304041
100
AcDbArc
 50
261.9308543551
 51
263.2967413712
  0
ARC
  5
49E
100
AcDbEntity
  8
0
100
AcDbCircle
 62
7
  6
CONTINUOUS
 10
91.3581309419
 20
43.5650204297
 40
20.4275063157
100
AcDbArc
 50
254.4944985181
 51
255.9449468443
  0
ARC
  5
49F
100
AcDbEntity
  8
0
100
AcDbCircle
 62
7
  6
CONTINUOUS
 10
90.52222726
 20
38.5157318662
 40
10.25
100
AcDbArc
 50
327.1586616682
 51
335.4975345197
  0
ARC
  5
4A0
100
AcDbEntity
  8
0
100
AcDbCircle
 62
7
  6
CONTINUOUS
 10
90.52222726
 20
38.5157318662
 40
10.25
100
AcDbArc
 50
204.501258881
 51
290.8096664652
  0
ARC
  5
4A1
100
AcDbEntity
  8
0
100
AcDbCircle
 62
7
  6
CONTINUOUS
 10
90.52222726
 20
38.5157318662
 40
10.25
100
AcDbArc
 50
69.1903438897
 51
155.5013930846
  0
ARC
  5
4A2
100
AcDbEntity
  8
0
100
AcDbCircle
 62
7
  6
CONTINUOUS
 10
90.52222726
 20
38.5157318662
 40
10.25
100
AcDbArc
 50
24.5012010942
 51
32.840314375
  0
ARC
  5
4A3
100
AcDbEntity
  8
RUNDUNGEN
100
AcDbCircle
 62
7
  6
CONTINUOUS
 10
90.52222726
 20
38.5157318662
 40
10.0
100
AcDbArc
 50
327.7992744331
 51
334.8394978613
  0
ARC
  5
4A4
100
AcDbEntity
  8
RUNDUNGEN
100
AcDbCircle
 62
7
  6
CONTINUOUS
 10
90.52222726
 20
38.5157318662
 40
10.0
100
AcDbArc
 50
25.1605021386
 51
32.2007255671
  0
ARC
  5
4A5
100
AcDbEntity
  8
RUNDUNGEN
100
AcDbCircle
 62
7
  6
CONTINUOUS
 10
90.52222726
 20
38.5157318662
 40
10.0
100
AcDbArc
 50
69.8348079358
 51
154.8394978613
  0
ARC
  5
4A6
100
AcDbEntity
  8
RUNDUNGEN
100
AcDbCircle
 62
7
  6
CONTINUOUS
 10
90.52222726
 20
38.5157318662
 40
10.0
100
AcDbArc
 50
205.1605021386
 51
290.1651920634
  0
ARC
  5
4A7
100
AcDbEntity
  8
RUNDUNGEN
100
AcDbCircle
 62
7
  6
CONTINUOUS
 10
90.52222726
 20
38.5157318662
 40
8.0
100
AcDbArc
 50
212.1490854768
 51
270.0
  0
ARC
  5
4A8
100
AcDbEntity
  8
RUNDUNGEN
100
AcDbCircle
 62
7
  6
CONTINUOUS
 10
90.52222726
 20
38.5157318662
 40
8.0
100
AcDbArc
 50
90.0
 51
147.8509145223
  0
ARC
  5
4A9
100
AcDbEntity
  8
RUNDUNGEN
100
AcDbCircle
 62
7
  6
CONTINUOUS
 10
90.52222726
 20
51.5157318662
 40
5.0
100
AcDbArc
 50
270.0
 51
318.1896851042
  0
ARC
  5
4AA
100
AcDbEntity
  8
BEZUGSACHSEN
100
AcDbCircle
 62
7
  6
CONTINUOUS
 10
68.7774168622
 20
41.265593972
 40
1.5001559237
100
AcDbArc
 50
90.0047554726
 51
174.7985516537
  0
ARC
  5
4AB
100
AcDbEntity
  8
0
100
AcDbCircle
 62
7
  6
CONTINUOUS
 10
94.6624501285
 20
30.2411819602
 40
23.111785619
100
AcDbArc
 50
91.2773803793
 51
91.6421066614
  0
ARC
  5
4AC
100
AcDbEntity
  8
RUNDUNGEN
100
AcDbCircle
 62
7
  6
CONTINUOUS
 10
97.2304311925
 20
31.5157318662
 40
4.0
100
AcDbArc
 50
221.8103148958
 51
270.0
  0
ARC
  5
4AD
100
AcDbEntity
  8
RUNDUNGEN
100
AcDbCircle
 62
7
  6
CONTINUOUS
 10
101.52222726
 20
34.7657318662
 40
3.0
100
AcDbArc
 50
189.6035407662
 51
270.0
  0
ARC
  5
4AE
100
AcDbEntity
  8
RUNDUNGEN
100
AcDbCircle
 62
7
  6
CONTINUOUS
 10
113.02222726
 20
31.5157318662
 40
4.0
100
AcDbArc
 50
270.0
 51
360.0
  0
ARC
  5
4AF
100
AcDbEntity
  8
RUNDUNGEN
100
AcDbCircle
 62
7
  6
CONTINUOUS
 10
113.02222726
 20
32.7657318662
 40
1.0
100
AcDbArc
 50
270.0
 51
360.0
  0
ARC
  5
4B0
100
AcDbEntity
  8
RUNDUNGEN
100
AcDbCircle
 62
7
  6
CONTINUOUS
 10
112.2670938888
 20
35.7658077956
 40
1.5000819138
100
AcDbArc
 50
270.0026731824
 51
354.8007340019
  0
ARC
  5
4B1
100
AcDbEntity
  8
RUNDUNGEN
100
AcDbCircle
 62
7
  6
CONTINUOUS
 10
115.02222726
 20
33.2657318662
 40
1.0
100
AcDbArc
 50
90.0
 51
180.0
  0
ARC
  5
4B2
100
AcDbEntity
  8
RUNDUNGEN
100
AcDbCircle
 62
7
  6
CONTINUOUS
 10
116.02222726
 20
33.2657318662
 40
1.0
100
AcDbArc
 50
0.0
 51
90.0
  0
ARC
  5
4B3
100
AcDbEntity
  8
0
100
AcDbCircle
 62
7
  6
CONTINUOUS
 10
99.4409945226
 20
49.5493299835
 40
27.13492911
100
AcDbArc
 50
253.9385442181
 51
254.4073505682
  0
ARC
  5
4B4
100
AcDbEntity
  8
RUNDUNGEN
100
AcDbCircle
 62
7
  6
CONTINUOUS
 10
113.02222726
 20
45.5157318662
 40
4.0
100
AcDbArc
 50
0.0
 51
90.0
  0
ARC
  5
4B5
100
AcDbEntity
  8
RUNDUNGEN
100
AcDbCircle
 62
7
  6
CONTINUOUS
 10
97.2304311925
 20
45.5157318662
 40
4.0
100
AcDbArc
 50
90.0
 51
138.1896851042
  0
ARC
  5
4B6
100
AcDbEntity
  8
RUNDUNGEN
100
AcDbCircle
 62
7
  6
CONTINUOUS
 10
101.52222726
 20
42.2657318662
 40
3.0
100
AcDbArc
 50
90.0
 51
170.3964587721
  0
ARC
  5
4B7
100
AcDbEntity
  8
BEZUGSACHSEN
100
AcDbCircle
 62
7
  6
CONTINUOUS
 10
112.2670373041
 20
41.2655939723
 40
1.5001559236
100
AcDbArc
 50
5.2014270674
 51
89.9951657485
  0
ARC
  5
4B8
100
AcDbEntity
  8
RUNDUNGEN
100
AcDbCircle
 62
7
  6
CONTINUOUS
 10
115.02222726
 20
43.7657318662
 40
1.0
100
AcDbArc
 50
180.0
 51
270.0
  0
ARC
  5
4B9
100
AcDbEntity
  8
RUNDUNGEN
100
AcDbCircle
 62
7
  6
CONTINUOUS
 10
116.02222726
 20
43.7657318662
 40
1.0
100
AcDbArc
 50
270.0
 51
360.0
  0
ARC
  5
4BA
100
AcDbEntity
  8
RUNDUNGEN
100
AcDbCircle
 62
7
  6
CONTINUOUS
 10
113.02222726
 20
44.2657318662
 40
1.0
100
AcDbArc
 50
0.0
 51
90.0
  0
SPLINE
  5
4BB
100
AcDbEntity
  8
KONSTRUKTIONSELEMENTE
100
AcDbSpline
 62
7
  6
CONTINUOUS
 70
0
 71
3
 72
9
 73
5
 74
0
 42
0.0000001
 43
0.0000001
 44
0.0000000001
 40
0.0
 40
0.0
 40
0.0
 40
0.0
 40
0.4961271817
 40
1.0
 40
1.0
 40
1.0
 40
1.0
 10
83.161011328
 20
89.4389415691
 30
0.0
 10
82.977417346
 20
89.4389415691
 30
0.0
 10
82.6068798
 20
89.4107455785
 30
0.0
 10
82.2444630809
 20
89.3301224796
 30
0.0
 10
82.0653038548
 20
89.2784561398
 30
0.0
  0
SPLINE
  5
4BC
100
AcDbEntity
  8
KONSTRUKTIONSELEMENTE
100
AcDbSpline
 62
7
  6
CONTINUOUS
 70
0
 71
3
 72
9
 73
5
 74
0
 42
0.0000001
 43
0.0000001
 44
0.0000000001
 40
0.0
 40
0.0
 40
0.0
 40
0.0
 40
0.2431956652
 40
1.0
 40
1.0
 40
1.0
 40
1.0
 10
82.0653038548
 20
89.2784561398
 30
0.0
 10
81.9495283452
 20
89.2450685385
 30
0.0
 10
81.4788581807
 20
89.0889396876
 30
0.0
 10
81.0320025896
 20
88.867235089
 30
0.0
 10
80.7072726838
 20
88.6797521905
 30
0.0
  0
SPLINE
  5
4BD
100
AcDbEntity
  8
KONSTRUKTIONSELEMENTE
100
AcDbSpline
 62
7
  6
CONTINUOUS
 70
0
 71
3
 72
11
 73
7
 74
0
 42
0.0000001
 43
0.0000001
 44
0.0000000001
 40
0.0
 40
0.0
 40
0.0
 40
0.0
 40
0.2616227086
 40
0.5144734032
 40
0.7595871356
 40
1.0
 40
1.0
 40
1.0
 40
1.0
 10
100.3371818363
 20
88.6797521905
 30
0.0
 10
100.1410492502
 20
88.7929893919
 30
0.0
 10
99.7464732118
 20
89.0009810634
 30
0.0
 10
99.1345932736
 20
89.2458978395
 30
0.0
 10
98.5126282699
 20
89.4025862795
 30
0.0
 10
98.0915572366
 20
89.438941569
 30
0.0
 10
97.8834431926
 20
89.438941569
 30
0.0
  0
SPLINE
  5
4BE
100
AcDbEntity
  8
KONSTRUKTIONSELEMENTE
100
AcDbSpline
 62
7
  6
CONTINUOUS
 70
0
 71
3
 72
11
 73
7
 74
0
 42
0.0000001
 43
0.0000001
 44
0.0000000001
 40
0.0
 40
0.0
 40
0.0
 40
0.0
 40
0.2404129231
 40
0.4855266804
 40
0.7383773278
 40
1.0
 40
1.0
 40
1.0
 40
1.0
 10
97.8834431926
 20
89.438941569
 30
0.0
 10
97.6753290991
 20
89.4389415691
 30
0.0
 10
97.2542580447
 20
89.4025859143
 30
0.0
 10
96.6322928785
 20
89.2458980445
 30
0.0
 10
96.0204131256
 20
89.0009808864
 30
0.0
 10
95.6258371058
 20
88.7929893754
 30
0.0
 10
95.4297045482
 20
88.6797521905
 30
0.0
  0
SPLINE
  5
4BF
100
AcDbEntity
  8
KONSTRUKTIONSELEMENTE
100
AcDbSpline
 62
7
  6
CONTINUOUS
 70
0
 71
3
 72
10
 73
6
 74
0
 42
0.0000001
 43
0.0000001
 44
0.0000000001
 40
0.0
 40
0.0
 40
0.0
 40
0.0
 40
0.4998914977
 40
0.7499457769
 40
1.0
 40
1.0
 40
1.0
 40
1.0
 10
95.4297045482
 20
88.6797521905
 30
0.0
 10
94.6323639897
 20
88.9099245835
 30
0.0
 10
93.4167839057
 20
89.1976807163
 30
0.0
 10
91.7680551793
 20
89.4035190418
 30
0.0
 10
90.9373564255
 20
89.4389415688
 30
0.0
 10
90.5222271585
 20
89.4389415732
 30
0.0
  0
SPLINE
  5
4C0
100
AcDbEntity
  8
BEZUGSACHSEN
100
AcDbSpline
 62
7
  6
CONTINUOUS
 70
0
 71
3
 72
15
 73
11
 74
0
 42
0.0000001
 43
0.0000001
 44
0.0000000001
 40
0.0
 40
0.0
 40
0.0
 40
0.0
 40
0.1380192555
 40
0.2670510251
 40
0.3867486698
 40
0.5000001995
 40
0.6132514548
 40
0.7329489471
 40
0.8619805696
 40
1.0
 40
1.0
 40
1.0
 40
1.0
 10
100.3371818363
 20
83.5038961453
 30
0.0
 10
100.1516373288
 20
83.3183516378
 30
0.0
 10
99.7773852847
 20
82.97374946
 30
0.0
 10
99.1752522054
 20
82.5469215734
 30
0.0
 10
98.5434053263
 20
82.2594001484
 30
0.0
 10
97.8834425449
 20
82.1546872615
 30
0.0
 10
97.2234798273
 20
82.2593996834
 30
0.0
 10
96.5916346806
 20
82.5469221978
 30
0.0
 10
95.9895010603
 20
82.9737487479
 30
0.0
 10
95.6152492907
 20
83.3183514027
 30
0.0
 10
95.4297045482
 20
83.5038961453
 30
0.0
  0
SPLINE
  5
4C1
100
AcDbEntity
  8
BEZUGSACHSEN
100
AcDbSpline
 62
7
  6
CONTINUOUS
 70
0
 71
3
 72
15
 73
11
 74
0
 42
0.0000001
 43
0.0000001
 44
0.0000000001
 40
0.0
 40
0.0
 40
0.0
 40
0.0
 40
0.1249872738
 40
0.2500063897
 40
0.3749947885
 40
0.5000002318
 40
0.6250053732
 40
0.7499935659
 40
0.8750125801
 40
1.0
 40
1.0
 40
1.0
 40
1.0
 10
95.4297045482
 20
83.5038961453
 30
0.0
 10
95.0477750875
 20
83.3129314149
 30
0.0
 10
94.27012299
 20
82.9571726945
 30
0.0
 10
93.0587810274
 20
82.5331183133
 30
0.0
 10
91.8044792477
 20
82.2544619132
 30
0.0
 10
90.5222259026
 20
82.156179309
 30
0.0
 10
89.2399731123
 20
82.2544613653
 30
0.0
 10
87.9856738124
 20
82.533119117
 30
0.0
 10
86.7743319093
 20
82.9571718552
 30
0.0
 10
85.9966798791
 20
83.3129311917
 30
0.0
 10
85.6147499719
 20
83.5038961453
 30
0.0
  0
SPLINE
  5
4C2
100
AcDbEntity
  8
KONSTRUKTIONSELEMENTE
100
AcDbSpline
 62
7
  6
CONTINUOUS
 70
0
 71
3
 72
10
 73
6
 74
0
 42
0.0000001
 43
0.0000001
 44
0.0000000001
 40
0.0
 40
0.0
 40
0.0
 40
0.0
 40
0.2500542495
 40
0.5001085434
 40
1.0
 40
1.0
 40
1.0
 40
1.0
 10
90.5222271585
 20
89.4389415732
 30
0.0
 10
90.1070978647
 20
89.4389415732
 30
0.0
 10
89.2763990769
 20
89.4035190137
 30
0.0
 10
87.6276704216
 20
89.197680674
 30
0.0
 10
86.4120904323
 20
88.9099245552
 30
0.0
 10
85.6147499719
 20
88.6797521905
 30
0.0
  0
SPLINE
  5
4C3
100
AcDbEntity
  8
KONSTRUKTIONSELEMENTE
100
AcDbSpline
 62
7
  6
CONTINUOUS
 70
0
 71
3
 72
11
 73
7
 74
0
 42
0.0000001
 43
0.0000001
 44
0.0000000001
 40
0.0
 40
0.0
 40
0.0
 40
0.0
 40
0.2616227086
 40
0.5144734032
 40
0.7595871356
 40
1.0
 40
1.0
 40
1.0
 40
1.0
 10
85.6147499719
 20
88.6797521905
 30
0.0
 10
85.4186173858
 20
88.7929893919
 30
0.0
 10
85.0240413474
 20
89.0009810635
 30
0.0
 10
84.4121614092
 20
89.2458978396
 30
0.0
 10
83.7901964054
 20
89.4025862795
 30
0.0
 10
83.369125372
 20
89.4389415691
 30
0.0
 10
83.161011328
 20
89.4389415691
 30
0.0
  0
SPLINE
  5
4C4
100
AcDbEntity
  8
BEZUGSACHSEN
100
AcDbSpline
 62
7
  6
CONTINUOUS
 70
0
 71
3
 72
15
 73
11
 74
0
 42
0.0000001
 43
0.0000001
 44
0.0000000001
 40
0.0
 40
0.0
 40
0.0
 40
0.0
 40
0.1380192555
 40
0.2670510251
 40
0.3867486698
 40
0.5000001995
 40
0.6132514548
 40
0.7329489471
 40
0.8619805696
 40
1.0
 40
1.0
 40
1.0
 40
1.0
 10
85.6147499719
 20
83.5038961453
 30
0.0
 10
85.4292054645
 20
83.3183516378
 30
0.0
 10
85.0549534204
 20
82.97374946
 30
0.0
 10
84.452820341
 20
82.5469215734
 30
0.0
 10
83.820973462
 20
82.2594001484
 30
0.0
 10
83.1610106806
 20
82.1546872615
 30
0.0
 10
82.501047963
 20
82.2593996834
 30
0.0
 10
81.8692028162
 20
82.5469221978
 30
0.0
 10
81.267069196
 20
82.9737487479
 30
0.0
 10
80.8928174264
 20
83.3183514027
 30
0.0
 10
80.7072726838
 20
83.5038961453
 30
0.0
  0
SPLINE
  5
4C5
100
AcDbEntity
  8
0
100
AcDbSpline
 62
7
  6
CONTINUOUS
 70
0
 71
3
 72
9
 73
5
 74
0
 42
0.0000001
 43
0.0000001
 44
0.0000000001
 40
0.0
 40
0.0
 40
0.0
 40
0.0
 40
0.5095138455
 40
1.0
 40
1.0
 40
1.0
 40
1.0
 10
89.3562325978
 20
155.6843384016
 30
0.0
 10
88.8671406743
 20
155.7224808784
 30
0.0
 10
87.9101120355
 20
155.8311572315
 30
0.0
 10
86.9545012709
 20
155.9480322522
 30
0.0
 10
86.4854676702
 20
156.0031108565
 30
0.0
  0
SPLINE
  5
4C6
100
AcDbEntity
  8
0
100
AcDbSpline
 62
7
  6
CONTINUOUS
 70
0
 71
3
 72
9
 73
5
 74
0
 42
0.0000001
 43
0.0000001
 44
0.0000000001
 40
0.0
 40
0.0
 40
0.0
 40
0.0
 40
0.4904863133
 40
1.0
 40
1.0
 40
1.0
 40
1.0
 10
94.5589868236
 20
156.0031101873
 30
0.0
 10
94.0899724165
 20
155.9480336203
 30
0.0
 10
93.1344007209
 20
155.831165794
 30
0.0
 10
92.1774120503
 20
155.722489611
 30
0.0
 10
91.6883406276
 20
155.6843461269
 30
0.0
  0
SPLINE
  5
4C7
100
AcDbEntity
  8
0
100
AcDbSpline
 62
7
  6
CONTINUOUS
 70
0
 71
3
 72
9
 73
5
 74
0
 42
0.0000001
 43
0.0000001
 44
0.0000000001
 40
0.0
 40
0.0
 40
0.0
 40
0.0
 40
0.4882029225
 40
1.0
 40
1.0
 40
1.0
 40
1.0
 10
96.3705213119
 20
156.3587583903
 30
0.0
 10
96.1054108301
 20
156.2772714462
 30
0.0
 10
95.5521198574
 20
156.1432651812
 30
0.0
 10
94.9902293206
 20
156.0565633382
 30
0.0
 10
94.7017274524
 20
156.0204350348
 30
0.0
  0
SPLINE
  5
4C8
100
AcDbEntity
  8
0
100
AcDbSpline
 62
7
  6
CONTINUOUS
 70
0
 71
3
 72
9
 73
5
 74
0
 42
0.0000001
 43
0.0000001
 44
0.0000000001
 40
0.0
 40
0.0
 40
0.0
 40
0.0
 40
0.5117956042
 40
1.0
 40
1.0
 40
1.0
 40
1.0
 10
86.3417800006
 20
156.0205538788
 30
0.0
 10
86.0533722156
 20
156.0566899315
 30
0.0
 10
85.4916641392
 20
156.1434007785
 30
0.0
 10
84.9385567336
 20
156.2774030695
 30
0.0
 10
84.6735340053
 20
156.3588811083
 30
0.0
  0
SPLINE
  5
4C9
100
AcDbEntity
  8
0
100
AcDbSpline
 62
7
  6
CONTINUOUS
 70
0
 71
3
 72
16
 73
12
 74
0
 42
0.0000001
 43
0.0000001
 44
0.0000000001
 40
0.0
 40
0.0
 40
0.0
 40
0.0
 40
0.0395480245
 40
0.0856067893
 40
0.1910652756
 40
0.3085071802
 40
0.4341760921
 40
0.5663742375
 40
0.7045517915
 40
0.8489148283
 40
1.0
 40
1.0
 40
1.0
 40
1.0
 10
100.2965973855
 20
159.2608193208
 30
0.0
 10
100.247055582
 20
159.2182604001
 30
0.0
 10
100.1466117471
 20
159.1183926145
 30
0.0
 10
99.9342621092
 20
158.8850802595
 30
0.0
 10
99.6418062983
 20
158.5506998289
 30
0.0
 10
99.2478086852
 20
158.1307292791
 30
0.0
 10
98.79652057
 20
157.7050882327
 30
0.0
 10
98.2849625562
 20
157.2961257869
 30
0.0
 10
97.7095687904
 20
156.922226341
 30
0.0
 10
97.0683189397
 20
156.6000851692
 30
0.0
 10
96.6089638423
 20
156.4320500078
 30
0.0
 10
96.3704647664
 20
156.3587427913
 30
0.0
  0
LINE
  5
4CA
100
AcDbEntity
  8
0
100
AcDbLine
 62
7
  6
CONTINUOUS
 10
94.57363053
 20
156.0048330164
 11
94.5589868236
 21
156.0031101873
  0
SPLINE
  5
4CB
100
AcDbEntity
  8
0
100
AcDbSpline
 62
7
  6
CONTINUOUS
 70
0
 71
3
 72
16
 73
12
 74
0
 42
0.0000001
 43
0.0000001
 44
0.0000000001
 40
0.0
 40
0.0
 40
0.0
 40
0.0
 40
0.1510867438
 40
0.2954546936
 40
0.4336329623
 40
0.5658309536
 40
0.6914983406
 40
0.8089387183
 40
0.914396134
 40
0.9604509352
 40
1.0
 40
1.0
 40
1.0
 40
1.0
 10
84.6735768753
 20
156.358869273
 30
0.0
 10
84.4351009618
 20
156.4321856716
 30
0.0
 10
83.975792369
 20
156.6002521113
 30
0.0
 10
83.3345994188
 20
156.9223903587
 30
0.0
 10
82.7592683867
 20
157.296292293
 30
0.0
 10
82.2477703411
 20
157.7052337343
 30
0.0
 10
81.7965345733
 20
158.1308424555
 30
0.0
 10
81.402578111
 20
158.5507724154
 30
0.0
 10
81.1101659461
 20
158.8851251349
 30
0.0
 10
80.8978241681
 20
159.1183975039
 30
0.0
 10
80.7973994285
 20
159.2182599461
 30
0.0
 10
80.7478606827
 20
159.2608162097
 30
0.0
  0
SPLINE
  5
4CC
100
AcDbEntity
  8
BEZUGSACHSEN
100
AcDbSpline
 62
7
  6
CONTINUOUS
 70
0
 71
3
 72
29
 73
25
 74
0
 42
0.0000001
 43
0.0000001
 44
0.0000000001
 40
0.0
 40
0.0
 40
0.0
 40
0.0
 40
0.0109284669
 40
0.0220791152
 40
0.0334537933
 40
0.0449334216
 40
0.0679990372
 40
0.0911202826
 40
0.1026789373
 40
0.1142295649
 40
0.1372955499
 40
0.1603055551
 40
0.1832482309
 40
0.2288899824
 40
0.2741477508
 40
0.3189452169
 40
0.3632018418
 40
0.4497373428
 40
0.5330100153
 40
0.686431415
 40
0.8164238853
 40
0.9158495547
 40
0.9785125572
 40
1.0
 40
1.0
 40
1.0
 40
1.0
 10
94.1197075483
 20
144.638941569
 30
0.0
 10
94.1022336685
 20
144.6872897226
 30
0.0
 10
94.0836563081
 20
144.7921952337
 30
0.0
 10
94.1134114989
 20
144.9495057158
 30
0.0
 10
94.1849490889
 20
145.0940145008
 30
0.0
 10
94.3135822932
 20
145.2683583712
 30
0.0
 10
94.5095675755
 20
145.4579400133
 30
0.0
 10
94.724704628
 20
145.6240819166
 30
0.0
 10
94.9034761359
 20
145.7479863932
 30
0.0
 10
95.0854924017
 20
145.8665689764
 30
0.0
 10
95.3177447678
 20
146.0065335626
 30
0.0
 10
95.6014588587
 20
146.1644820784
 30
0.0
 10
95.9834606162
 20
146.3638814249
 30
0.0
 10
96.4661439637
 20
146.5961688497
 30
0.0
 10
97.0498642188
 20
146.8546994325
 30
0.0
 10
97.6338936819
 20
147.0959092522
 30
0.0
 10
98.403983339
 20
147.3947586368
 30
0.0
 10
99.3529190431
 20
147.7324278499
 30
0.0
 10
100.801231563
 20
148.1960247811
 30
0.0
 10
102.4652806847
 20
148.653566879
 30
0.0
 10
104.2224294071
 20
149.0504822768
 30
0.0
 10
105.5729920634
 20
149.3043561847
 30
0.0
 10
106.4254947816
 20
149.4424787681
 30
0.0
 10
106.8170431183
 20
149.5007301711
 30
0.0
 10
106.9170707605
 20
149.5152751417
 30
0.0
  0
SPLINE
  5
4CD
100
AcDbEntity
  8
BEZUGSACHSEN
100
AcDbSpline
 62
7
  6
CONTINUOUS
 70
0
 71
3
 72
30
 73
26
 74
0
 42
0.0000001
 43
0.0000001
 44
0.0000000001
 40
0.0
 40
0.0
 40
0.0
 40
0.0
 40
0.0214836987
 40
0.0841374262
 40
0.1835505318
 40
0.3135283692
 40
0.4669337449
 40
0.55019816
 40
0.6367254189
 40
0.6809780213
 40
0.7257715048
 40
0.7710253295
 40
0.816663245
 40
0.839604075
 40
0.8626123083
 40
0.8856766111
 40
0.8972263066
 40
0.908784434
 40
0.931904001
 40
0.9549715494
 40
0.9664492246
 40
0.9778453821
 40
0.9834669081
 40
0.9890508187
 40
1.0
 40
1.0
 40
1.0
 40
1.0
 10
74.1273837596
 20
149.5152751417
 30
0.0
 10
74.2273973533
 20
149.5007323372
 30
0.0
 10
74.6188983288
 20
149.4424883718
 30
0.0
 10
75.4713109957
 20
149.3043810659
 30
0.0
 10
76.8217516928
 20
149.0505374951
 30
0.0
 10
78.5787640895
 20
148.6536670785
 30
0.0
 10
80.2426978397
 20
148.1961779755
 30
0.0
 10
81.6909203705
 20
147.7326342825
 30
0.0
 10
82.6398035468
 20
147.395004695
 30
0.0
 10
83.4098550249
 20
147.09619152
 30
0.0
 10
83.9938593091
 20
146.8550124052
 30
0.0
 10
84.5775566168
 20
146.5965136858
 30
0.0
 10
85.0602268664
 20
146.3642626664
 30
0.0
 10
85.4422250815
 20
146.1649006538
 30
0.0
 10
85.7259374542
 20
146.0069790228
 30
0.0
 10
85.9582046848
 20
145.8670597445
 30
0.0
 10
86.1402149069
 20
145.7484835764
 30
0.0
 10
86.3190230207
 20
145.6246393822
 30
0.0
 10
86.5341353512
 20
145.4584890276
 30
0.0
 10
86.7303685629
 20
145.2690884947
 30
0.0
 10
86.8589556634
 20
145.0946712648
 30
0.0
 10
86.9192583513
 20
144.973576997
 30
0.0
 10
86.946445459
 20
144.8702968137
 30
0.0
 10
86.9553403077
 20
144.7661109259
 30
0.0
 10
86.9422545612
 20
144.6873829929
 30
0.0
 10
86.9247469718
 20
144.638941569
 30
0.0
  0
SPLINE
  5
4CE
100
AcDbEntity
  8
KONSTRUKTIONSELEMENTE
100
AcDbSpline
 62
7
  6
CONTINUOUS
 70
0
 71
3
 72
10
 73
6
 74
0
 42
0.0000001
 43
0.0000001
 44
0.0000000001
 40
0.0
 40
0.0
 40
0.0
 40
0.0
 40
0.2489303085
 40
0.4984202119
 40
1.0
 40
1.0
 40
1.0
 40
1.0
 10
176.3583041853
 20
89.4389415691
 30
0.0
 10
175.9986857906
 20
89.4389415691
 30
0.0
 10
175.2781412681
 20
89.4033441646
 30
0.0
 10
173.846718778
 20
89.1968428795
 30
0.0
 10
172.7957293128
 20
88.9088938998
 30
0.0
 10
172.1083041849
 20
88.6797521905
 30
0.0
  0
SPLINE
  5
4CF
100
AcDbEntity
  8
KONSTRUKTIONSELEMENTE
100
AcDbSpline
 62
7
  6
CONTINUOUS
 70
0
 71
3
 72
10
 73
6
 74
0
 42
0.0000001
 43
0.0000001
 44
0.0000000001
 40
0.0
 40
0.0
 40
0.0
 40
0.0
 40
0.5015798821
 40
0.751069747
 40
1.0
 40
1.0
 40
1.0
 40
1.0
 10
189.1083041849
 20
88.6797521905
 30
0.0
 10
188.4208789277
 20
88.9088939429
 30
0.0
 10
187.3698893148
 20
89.1968425531
 30
0.0
 10
185.938466913
 20
89.4033445192
 30
0.0
 10
185.2179224999
 20
89.4389415691
 30
0.0
 10
184.8583041851
 20
89.4389415691
 30
0.0
  0
SPLINE
  5
4D0
100
AcDbEntity
  8
BEZUGSACHSEN
100
AcDbSpline
 62
7
  6
CONTINUOUS
 70
0
 71
3
 72
15
 73
11
 74
0
 42
0.0000001
 43
0.0000001
 44
0.0000000001
 40
0.0
 40
0.0
 40
0.0
 40
0.0
 40
0.1267709305
 40
0.2522945103
 40
0.3765460525
 40
0.5000002276
 40
0.6234541043
 40
0.7477054475
 40
0.8732289193
 40
1.0
 40
1.0
 40
1.0
 40
1.0
 10
189.1083041849
 20
83.5038961453
 30
0.0
 10
188.779089661
 20
83.3138240513
 30
0.0
 10
188.1093288758
 20
82.9596598683
 30
0.0
 10
187.06044635
 20
82.5349113856
 30
0.0
 10
185.9725317896
 20
82.2550118821
 30
0.0
 10
184.8583030168
 20
82.1560128957
 30
0.0
 10
183.7440746746
 20
82.2550113456
 30
0.0
 10
182.6561623749
 20
82.5349121647
 30
0.0
 10
181.6072797674
 20
82.9596590475
 30
0.0
 10
180.9375190987
 20
83.3138238261
 30
0.0
 10
180.6083041849
 20
83.5038961453
 30
0.0
  0
SPLINE
  5
4D1
100
AcDbEntity
  8
KONSTRUKTIONSELEMENTE
100
AcDbSpline
 62
7
  6
CONTINUOUS
 70
0
 71
3
 72
10
 73
6
 74
0
 42
0.0000001
 43
0.0000001
 44
0.0000000001
 40
0.0
 40
0.0
 40
0.0
 40
0.0
 40
0.2489303085
 40
0.4984202119
 40
1.0
 40
1.0
 40
1.0
 40
1.0
 10
184.8583041851
 20
89.4389415691
 30
0.0
 10
184.4986857904
 20
89.4389415691
 30
0.0
 10
183.778141268
 20
89.4033441646
 30
0.0
 10
182.3467187779
 20
89.1968428795
 30
0.0
 10
181.2957293128
 20
88.9088938998
 30
0.0
 10
180.6083041849
 20
88.6797521905
 30
0.0
  0
SPLINE
  5
4D2
100
AcDbEntity
  8
KONSTRUKTIONSELEMENTE
100
AcDbSpline
 62
7
  6
CONTINUOUS
 70
0
 71
3
 72
10
 73
6
 74
0
 42
0.0000001
 43
0.0000001
 44
0.0000000001
 40
0.0
 40
0.0
 40
0.0
 40
0.0
 40
0.5015798821
 40
0.751069747
 40
1.0
 40
1.0
 40
1.0
 40
1.0
 10
180.6083041849
 20
88.6797521905
 30
0.0
 10
179.9208789278
 20
88.9088939429
 30
0.0
 10
178.8698893148
 20
89.1968425531
 30
0.0
 10
177.4384669132
 20
89.4033445192
 30
0.0
 10
176.7179225001
 20
89.438941569
 30
0.0
 10
176.3583041853
 20
89.4389415691
 30
0.0
  0
SPLINE
  5
4D3
100
AcDbEntity
  8
BEZUGSACHSEN
100
AcDbSpline
 62
7
  6
CONTINUOUS
 70
0
 71
3
 72
15
 73
11
 74
0
 42
0.0000001
 43
0.0000001
 44
0.0000000001
 40
0.0
 40
0.0
 40
0.0
 40
0.0
 40
0.1267709305
 40
0.2522945103
 40
0.3765460525
 40
0.5000002276
 40
0.6234541043
 40
0.7477054475
 40
0.8732289193
 40
1.0
 40
1.0
 40
1.0
 40
1.0
 10
180.6083041849
 20
83.5038961453
 30
0.0
 10
180.279089661
 20
83.3138240513
 30
0.0
 10
179.6093288758
 20
82.9596598683
 30
0.0
 10
178.56044635
 20
82.5349113856
 30
0.0
 10
177.4725317896
 20
82.2550118821
 30
0.0
 10
176.3583030168
 20
82.1560128957
 30
0.0
 10
175.2440746746
 20
82.2550113456
 30
0.0
 10
174.1561623749
 20
82.5349121647
 30
0.0
 10
173.1072797674
 20
82.9596590475
 30
0.0
 10
172.4375190987
 20
83.3138238261
 30
0.0
 10
172.1083041849
 20
83.5038961453
 30
0.0
  0
LINE
  5
4D4
100
AcDbEntity
  8
0
100
AcDbLine
 62
7
  6
CONTINUOUS
 10
166.0658425497
 20
151.0431969592
 11
166.0743742062
 21
151.0165795597
  0
LINE
  5
4D5
100
AcDbEntity
  8
0
100
AcDbLine
 62
7
  6
CONTINUOUS
 10
166.0743742062
 20
151.0165795597
 11
166.2842366843
 21
150.3623457381
  0
LINE
  5
4D6
100
AcDbEntity
  8
0
100
AcDbLine
 62
7
  6
CONTINUOUS
 10
166.1536592353
 20
150.3623457381
 11
166.1716429525
 21
150.3055435473
  0
LINE
  5
4D7
100
AcDbEntity
  8
0
100
AcDbLine
 62
7
  6
CONTINUOUS
 10
166.1716429525
 20
150.3055435473
 11
166.2614644542
 21
150.0219202468
  0
LINE
  5
4D8
100
AcDbEntity
  8
0
100
AcDbLine
 62
7
  6
CONTINUOUS
 10
166.3935626567
 20
150.0219202468
 11
166.4024342715
 21
149.9943073335
  0
SPLINE
  5
4D9
100
AcDbEntity
  8
0
100
AcDbSpline
 62
7
  6
CONTINUOUS
 70
0
 71
3
 72
8
 73
4
 74
0
 42
0.0000001
 43
0.0000001
 44
0.0000000001
 40
0.0
 40
0.0
 40
0.0
 40
0.0
 40
1.0
 40
1.0
 40
1.0
 40
1.0
 10
166.4024342715
 20
149.9943073335
 30
0.0
 10
166.5818073232
 20
149.4360268615
 30
0.0
 10
166.7615051519
 20
148.8778506069
 30
0.0
 10
166.9415691703
 20
148.3197926113
 30
0.0
  0
LINE
  5
4DA
100
AcDbEntity
  8
0
100
AcDbLine
 62
7
  6
CONTINUOUS
 10
165.7152003704
 20
150.9580905864
 11
166.047588287
 21
149.8786042617
  0
LINE
  5
4DB
100
AcDbEntity
  8
0
100
AcDbLine
 62
7
  6
CONTINUOUS
 10
166.047588287
 20
149.8786042617
 11
166.2131488338
 21
149.3410692641
  0
LINE
  5
4DC
100
AcDbEntity
  8
0
100
AcDbLine
 62
7
  6
CONTINUOUS
 10
166.3704552769
 20
148.8304309079
 11
166.3745727132
 21
148.8170664507
  0
LINE
  5
4DD
100
AcDbEntity
  8
0
100
AcDbLine
 62
7
  6
CONTINUOUS
 10
166.3745727132
 20
148.8170664507
 11
166.3839470979
 21
148.7866391372
  0
LINE
  5
4DE
100
AcDbEntity
  8
0
100
AcDbLine
 62
7
  6
CONTINUOUS
 10
166.3839470979
 20
148.7866391372
 11
166.737623478
 21
147.638941569
  0
LINE
  5
4DF
100
AcDbEntity
  8
0
100
AcDbLine
 62
7
  6
CONTINUOUS
 10
165.5056183865
 20
151.638941569
 11
165.5080799952
 21
151.62881387
  0
LINE
  5
4E0
100
AcDbEntity
  8
0
100
AcDbLine
 62
7
  6
CONTINUOUS
 10
165.6807031921
 20
150.9491135621
 11
165.7066036988
 21
150.8519355809
  0
LINE
  5
4E1
100
AcDbEntity
  8
0
100
AcDbLine
 62
7
  6
CONTINUOUS
 10
166.7261123009
 20
147.5934682863
 11
166.6725903853
 21
147.7498213138
  0
LINE
  5
4E2
100
AcDbEntity
  8
0
100
AcDbLine
 62
7
  6
CONTINUOUS
 10
194.8461530928
 20
148.8304309079
 11
194.8358072006
 21
148.7968501322
  0
LINE
  5
4E3
100
AcDbEntity
  8
0
100
AcDbLine
 62
7
  6
CONTINUOUS
 10
194.8358072006
 20
148.7968501322
 11
194.7848116447
 21
148.6313346237
  0
LINE
  5
4E4
100
AcDbEntity
  8
0
100
AcDbLine
 62
7
  6
CONTINUOUS
 10
194.7848116447
 20
148.6313346237
 11
194.7235289286
 21
148.4324441187
  0
LINE
  5
4E5
100
AcDbEntity
  8
0
100
AcDbLine
 62
7
  6
CONTINUOUS
 10
194.7235289286
 20
148.4324441187
 11
194.6623048722
 21
148.2337593201
  0
LINE
  5
4E6
100
AcDbEntity
  8
0
100
AcDbLine
 62
7
  6
CONTINUOUS
 10
194.6623048722
 20
148.2337593201
 11
194.6101362105
 21
148.0644734078
  0
LINE
  5
4E7
100
AcDbEntity
  8
0
100
AcDbLine
 62
7
  6
CONTINUOUS
 10
195.5359051776
 20
150.9491135621
 11
195.5100046709
 21
150.8519355809
  0
LINE
  5
4E8
100
AcDbEntity
  8
0
100
AcDbLine
 62
7
  6
CONTINUOUS
 10
194.3286541147
 20
147.1283032724
 11
194.3828159886
 21
147.2827089497
  0
LINE
  5
4E9
100
AcDbEntity
  8
0
100
AcDbLine
 62
7
  6
CONTINUOUS
 10
194.5972318899
 20
147.9065317297
 11
194.6504353761
 21
148.0644734928
  0
LINE
  5
4EA
100
AcDbEntity
  8
0
100
AcDbLine
 62
7
  6
CONTINUOUS
 10
194.9296739866
 20
150.7866963868
 11
194.9709813621
 21
150.8722458034
  0
LINE
  5
4EB
100
AcDbEntity
  8
0
100
AcDbLine
 62
7
  6
CONTINUOUS
 10
194.9709813621
 20
150.8722458034
 11
195.0121760796
 21
150.9580905864
  0
LINE
  5
4EC
100
AcDbEntity
  8
0
100
AcDbLine
 62
7
  6
CONTINUOUS
 10
194.2320578091
 20
148.8304309079
 11
194.3775545787
 21
149.3410692641
  0
LINE
  5
4ED
100
AcDbEntity
  8
0
100
AcDbLine
 62
7
  6
CONTINUOUS
 10
194.3775545787
 20
149.3410692641
 11
194.5737388548
 21
149.936813874
  0
SPLINE
  5
4EE
100
AcDbEntity
  8
0
100
AcDbSpline
 62
7
  6
CONTINUOUS
 70
0
 71
3
 72
9
 73
5
 74
0
 42
0.0000001
 43
0.0000001
 44
0.0000000001
 40
0.0
 40
0.0
 40
0.0
 40
0.0
 40
0.2439438575
 40
1.0
 40
1.0
 40
1.0
 40
1.0
 10
195.4397963436
 20
151.5538351962
 30
0.0
 10
195.4348523991
 20
151.5609945785
 30
0.0
 10
195.4142314299
 20
151.5900976247
 30
0.0
 10
195.3922387121
 20
151.6182223769
 30
0.0
 10
195.3749801181
 20
151.638941569
 30
0.0
  0
LINE
  5
4EF
100
AcDbEntity
  8
0
100
AcDbLine
 62
7
  6
CONTINUOUS
 10
195.2999055538
 20
150.7027714679
 11
195.3138360445
 21
150.7593536529
  0
LINE
  5
4F0
100
AcDbEntity
  8
0
100
AcDbLine
 62
7
  6
CONTINUOUS
 10
195.2313166505
 20
150.447452111
 11
195.2999055538
 21
150.7027714679
  0
LINE
  5
4F1
100
AcDbEntity
  8
0
100
AcDbLine
 62
7
  6
CONTINUOUS
 10
195.1095315775
 20
150.0219202468
 11
195.2313166505
 21
150.447452111
  0
LINE
  5
4F2
100
AcDbEntity
  8
0
100
AcDbLine
 62
7
  6
CONTINUOUS
 10
194.8708482892
 20
149.2559628913
 11
195.1095315775
 21
150.0219202468
  0
LINE
  5
4F3
100
AcDbEntity
  8
0
100
AcDbLine
 62
7
  6
CONTINUOUS
 10
194.7268138428
 20
148.8304309079
 11
194.8708482892
 21
149.2559628913
  0
LINE
  5
4F4
100
AcDbEntity
  8
0
100
AcDbLine
 62
7
  6
CONTINUOUS
 10
194.6133830481
 20
148.5181469777
 11
194.6352495636
 21
148.5751117894
  0
SPLINE
  5
4F5
100
AcDbEntity
  8
0
100
AcDbSpline
 62
7
  6
CONTINUOUS
 70
0
 71
3
 72
8
 73
4
 74
0
 42
0.0000001
 43
0.0000001
 44
0.0000000001
 40
0.0
 40
0.0
 40
0.0
 40
0.0
 40
1.0
 40
1.0
 40
1.0
 40
1.0
 10
166.9866184537
 20
148.4900054166
 30
0.0
 10
166.8201746234
 20
149.0005279488
 30
0.0
 10
166.6540991261
 20
149.5111706843
 30
0.0
 10
166.4883532698
 20
150.0219202468
 30
0.0
  0
LINE
  5
4F6
100
AcDbEntity
  8
0
100
AcDbLine
 62
7
  6
CONTINUOUS
 10
166.7312522898
 20
150.0219202468
 11
166.6180120823
 21
150.3623457381
  0
LINE
  5
4F7
100
AcDbEntity
  8
0
100
AcDbLine
 62
7
  6
CONTINUOUS
 10
166.3779336978
 20
150.3623457381
 11
166.1574082055
 21
151.0431969592
  0
LINE
  5
4F8
100
AcDbEntity
  8
0
100
AcDbLine
 62
7
  6
CONTINUOUS
 10
167.4766709901
 20
147.638941569
 11
167.3628582402
 21
147.9793670902
  0
LINE
  5
4F9
100
AcDbEntity
  8
0
100
AcDbLine
 62
7
  6
CONTINUOUS
 10
166.7871557988
 20
147.638941569
 11
166.4274168546
 21
148.7998675435
  0
LINE
  5
4FA
100
AcDbEntity
  8
0
100
AcDbLine
 62
7
  6
CONTINUOUS
 10
166.4274168546
 20
148.7998675435
 11
166.417949825
 21
148.8304309079
  0
LINE
  5
4FB
100
AcDbEntity
  8
0
100
AcDbLine
 62
7
  6
CONTINUOUS
 10
166.5260823533
 20
148.8304309079
 11
166.36604356
 21
149.3410692641
  0
LINE
  5
4FC
100
AcDbEntity
  8
0
100
AcDbLine
 62
7
  6
CONTINUOUS
 10
166.2598062293
 20
149.3410692641
 11
166.0675999292
 21
149.961911064
  0
LINE
  5
4FD
100
AcDbEntity
  8
0
100
AcDbLine
 62
7
  6
CONTINUOUS
 10
166.0675999292
 20
149.961911064
 11
165.5487536764
 21
151.638941569
  0
SPLINE
  5
4FE
100
AcDbEntity
  8
0
100
AcDbSpline
 62
7
  6
CONTINUOUS
 70
0
 71
3
 72
9
 73
5
 74
0
 42
0.0000001
 43
0.0000001
 44
0.0000000001
 40
0.0
 40
0.0
 40
0.0
 40
0.0
 40
0.2575922438
 40
1.0
 40
1.0
 40
1.0
 40
1.0
 10
193.4596962153
 20
147.7240479493
 30
0.0
 10
193.4682114309
 20
147.7170452122
 30
0.0
 10
193.5010308326
 20
147.6895733737
 30
0.0
 10
193.5328742575
 20
147.6609270811
 30
0.0
 10
193.5558148863
 20
147.638941569
 30
0.0
  0
SPLINE
  5
4FF
100
AcDbEntity
  8
BEZUGSACHSEN
100
AcDbSpline
 62
7
  6
CONTINUOUS
 70
0
 71
3
 72
22
 73
18
 74
0
 42
0.0000001
 43
0.0000001
 44
0.0000000001
 40
0.0
 40
0.0
 40
0.0
 40
0.0
 40
0.1739896529
 40
0.3390081096
 40
0.4157535641
 40
0.4876496833
 40
0.5541800227
 40
0.6150622086
 40
0.6702850031
 40
0.720121895
 40
0.7652186804
 40
0.8066271513
 40
0.8459376375
 40
0.8855886434
 40
0.9304525984
 40
0.9594824215
 40
1.0
 40
1.0
 40
1.0
 40
1.0
 10
180.6083041849
 20
149.5152751417
 30
0.0
 10
179.7448119372
 20
149.5152751417
 30
0.0
 10
178.062259619
 20
149.4879994691
 30
0.0
 10
176.0010307083
 20
149.3771710367
 30
0.0
 10
174.4515033596
 20
149.2255301932
 30
0.0
 10
173.3929849219
 20
149.0821563359
 30
0.0
 10
172.4197249603
 20
148.9029358266
 30
0.0
 10
171.5393757256
 20
148.6841964404
 30
0.0
 10
170.7572270294
 20
148.4228623937
 30
0.0
 10
170.0768251229
 20
148.1149002436
 30
0.0
 10
169.4998761932
 20
147.7567738748
 30
0.0
 10
169.0279280124
 20
147.3427232863
 30
0.0
 10
168.6632584142
 20
146.8637067836
 30
0.0
 10
168.4105146643
 20
146.2971740574
 30
0.0
 10
168.3191061119
 20
145.7336392981
 30
0.0
 10
168.3466324374
 20
145.164947086
 30
0.0
 10
168.4310459961
 20
144.8254929014
 30
0.0
 10
168.5061030367
 20
144.638941569
 30
0.0
  0
SPLINE
  5
500
100
AcDbEntity
  8
BEZUGSACHSEN
100
AcDbSpline
 62
7
  6
CONTINUOUS
 70
0
 71
3
 72
22
 73
18
 74
0
 42
0.0000001
 43
0.0000001
 44
0.0000000001
 40
0.0
 40
0.0
 40
0.0
 40
0.0
 40
0.1739896529
 40
0.3390081096
 40
0.4157535641
 40
0.4876496833
 40
0.5541800227
 40
0.6150622086
 40
0.6702850031
 40
0.720121895
 40
0.7652186804
 40
0.8066271513
 40
0.8459376375
 40
0.8855886434
 40
0.9304525984
 40
0.9594824215
 40
1.0
 40
1.0
 40
1.0
 40
1.0
 10
180.6083041849
 20
149.5152751417
 30
0.0
 10
181.4717964325
 20
149.5152751417
 30
0.0
 10
183.1543487507
 20
149.4879994691
 30
0.0
 10
185.2155776614
 20
149.3771710367
 30
0.0
 10
186.7651050101
 20
149.2255301932
 30
0.0
 10
187.8236234478
 20
149.0821563359
 30
0.0
 10
188.7968834095
 20
148.9029358266
 30
0.0
 10
189.6772326441
 20
148.6841964404
 30
0.0
 10
190.4593813403
 20
148.4228623937
 30
0.0
 10
191.1397832469
 20
148.1149002436
 30
0.0
 10
191.7167321765
 20
147.7567738748
 30
0.0
 10
192.1886803574
 20
147.3427232863
 30
0.0
 10
192.5533499555
 20
146.8637067836
 30
0.0
 10
192.8060937054
 20
146.2971740574
 30
0.0
 10
192.8975022578
 20
145.7336392981
 30
0.0
 10
192.8699759323
 20
145.164947086
 30
0.0
 10
192.7855623736
 20
144.8254929014
 30
0.0
 10
192.710505333
 20
144.638941569
 30
0.0
  0
LINE
  5
501
100
AcDbEntity
  8
0
100
AcDbLine
 62
7
  6
CONTINUOUS
 10
167.3137645373
 20
147.638941569
 11
167.2887607187
 21
147.7195367985
  0
LINE
  5
502
100
AcDbEntity
  8
0
100
AcDbLine
 62
7
  6
CONTINUOUS
 10
167.2887607187
 20
147.7195367985
 11
167.2813173156
 21
147.7435302004
  0
LINE
  5
503
100
AcDbEntity
  8
0
100
AcDbLine
 62
7
  6
CONTINUOUS
 10
166.2588660295
 20
151.043196034
 11
166.249995074
 21
151.0718554236
  0
LINE
  5
504
100
AcDbEntity
  8
0
100
AcDbLine
 62
7
  6
CONTINUOUS
 10
166.249995074
 20
151.0718554236
 11
166.2419893945
 21
151.0977197891
  0
LINE
  5
505
100
AcDbEntity
  8
0
100
AcDbLine
 62
7
  6
CONTINUOUS
 10
166.2419893945
 20
151.0977197891
 11
166.0744955583
 21
151.638941569
  0
LINE
  5
506
100
AcDbEntity
  8
0
100
AcDbLine
 62
7
  6
CONTINUOUS
 10
195.0652753111
 20
149.3410692641
 11
195.0248393967
 21
149.20886368
  0
LINE
  5
507
100
AcDbEntity
  8
0
100
AcDbLine
 62
7
  6
CONTINUOUS
 10
195.0248393967
 20
149.20886368
 11
194.9090931508
 21
148.8304309079
  0
SPLINE
  5
508
100
AcDbEntity
  8
0
100
AcDbSpline
 62
7
  6
CONTINUOUS
 70
0
 71
3
 72
8
 73
4
 74
0
 42
0.0000001
 43
0.0000001
 44
0.0000000001
 40
0.0
 40
0.0
 40
0.0
 40
0.0
 40
1.0
 40
1.0
 40
1.0
 40
1.0
 10
167.527997422
 20
148.4900054166
 30
0.0
 10
167.3689749587
 20
148.9759029287
 30
0.0
 10
167.2103205825
 20
149.4619210298
 30
0.0
 10
167.0519958327
 20
149.9480463323
 30
0.0
  0
LINE
  5
509
100
AcDbEntity
  8
0
100
AcDbLine
 62
7
  6
CONTINUOUS
 10
167.0519958327
 20
149.9480463323
 11
167.0279388548
 21
150.0219202468
  0
LINE
  5
50A
100
AcDbEntity
  8
0
100
AcDbLine
 62
7
  6
CONTINUOUS
 10
167.2787823108
 20
150.0219202468
 11
167.1649949622
 21
150.3623457381
  0
LINE
  5
50B
100
AcDbEntity
  8
0
100
AcDbLine
 62
7
  6
CONTINUOUS
 10
166.917151313
 20
150.3623457381
 11
166.6959202815
 21
151.0431969592
  0
LINE
  5
50C
100
AcDbEntity
  8
0
100
AcDbLine
 62
7
  6
CONTINUOUS
 10
194.6234677306
 20
148.0644734928
 11
194.5683493922
 21
147.9067728983
  0
LINE
  5
50D
100
AcDbEntity
  8
0
100
AcDbLine
 62
7
  6
CONTINUOUS
 10
194.3456870273
 20
147.2826583267
 11
194.289464992
 21
147.1283032724
  0
SPLINE
  5
50E
100
AcDbEntity
  8
0
100
AcDbSpline
 62
7
  6
CONTINUOUS
 70
0
 71
3
 72
8
 73
4
 74
0
 42
0.0000001
 43
0.0000001
 44
0.0000000001
 40
0.0
 40
0.0
 40
0.0
 40
0.0
 40
1.0
 40
1.0
 40
1.0
 40
1.0
 10
193.937826059
 20
150.0219202468
 30
0.0
 10
193.852404984
 20
149.7665555596
 30
0.0
 10
193.766850535
 20
149.5112354431
 30
0.0
 10
193.6811545151
 20
149.2559628913
 30
0.0
  0
LINE
  5
50F
100
AcDbEntity
  8
0
100
AcDbLine
 62
7
  6
CONTINUOUS
 10
168.0266457254
 20
147.638941569
 11
167.9122028023
 21
147.9793670902
  0
LINE
  5
510
100
AcDbEntity
  8
0
100
AcDbLine
 62
7
  6
CONTINUOUS
 10
193.6811545151
 20
149.2559628913
 11
193.5641382586
 21
148.8304309079
  0
LINE
  5
511
100
AcDbEntity
  8
0
100
AcDbLine
 62
7
  6
CONTINUOUS
 10
193.5641382586
 20
148.8304309079
 11
193.5042179762
 21
148.5751117894
  0
LINE
  5
512
100
AcDbEntity
  8
0
100
AcDbLine
 62
7
  6
CONTINUOUS
 10
195.2798836349
 20
150.9580905864
 11
195.26214706
 21
150.8725752506
  0
LINE
  5
513
100
AcDbEntity
  8
0
100
AcDbLine
 62
7
  6
CONTINUOUS
 10
195.1723444044
 20
150.447452111
 11
195.0247965701
 21
149.936813874
  0
LINE
  5
514
100
AcDbEntity
  8
0
100
AcDbLine
 62
7
  6
CONTINUOUS
 10
195.0247965701
 20
149.936813874
 11
194.8379522219
 21
149.3410692641
  0
SPLINE
  5
515
100
AcDbEntity
  8
0
100
AcDbSpline
 62
7
  6
CONTINUOUS
 70
0
 71
3
 72
8
 73
4
 74
0
 42
0.0000001
 43
0.0000001
 44
0.0000000001
 40
0.0
 40
0.0
 40
0.0
 40
0.0
 40
1.0
 40
1.0
 40
1.0
 40
1.0
 10
194.8379522219
 20
149.3410692641
 30
0.0
 10
194.7802672236
 20
149.1708091507
 30
0.0
 10
194.7224447346
 20
149.0005955523
 30
0.0
 10
194.6644787184
 20
148.8304309079
 30
0.0
  0
LINE
  5
516
100
AcDbEntity
  8
0
100
AcDbLine
 62
7
  6
CONTINUOUS
 10
194.4829157705
 20
148.4042238477
 11
194.4462627872
 21
148.3197926113
  0
LINE
  5
517
100
AcDbEntity
  8
0
100
AcDbLine
 62
7
  6
CONTINUOUS
 10
194.2299761652
 20
149.2559628913
 11
194.1128433656
 21
148.8304309079
  0
LINE
  5
518
100
AcDbEntity
  8
0
100
AcDbLine
 62
7
  6
CONTINUOUS
 10
194.1128433656
 20
148.8304309079
 11
194.0525053788
 21
148.5751117894
  0
LINE
  5
519
100
AcDbEntity
  8
0
100
AcDbLine
 62
7
  6
CONTINUOUS
 10
194.0525053788
 20
148.5751117894
 11
193.9881261622
 21
148.2346862385
  0
SPLINE
  5
51A
100
AcDbEntity
  8
0
100
AcDbSpline
 62
7
  6
CONTINUOUS
 70
0
 71
3
 72
9
 73
5
 74
0
 42
0.0000001
 43
0.0000001
 44
0.0000000001
 40
0.0
 40
0.0
 40
0.0
 40
0.0
 40
0.2573665293
 40
1.0
 40
1.0
 40
1.0
 40
1.0
 10
194.0013282225
 20
147.7240479493
 30
0.0
 10
194.0094969327
 20
147.717041824
 30
0.0
 10
194.0409960866
 20
147.6895414005
 30
0.0
 10
194.0715075259
 20
147.6609016321
 30
0.0
 10
194.0934629054
 20
147.638941569
 30
0.0
  0
LINE
  5
51B
100
AcDbEntity
  8
0
100
AcDbLine
 62
7
  6
CONTINUOUS
 10
194.48535608
 20
150.0219202468
 11
194.2299761652
 21
149.2559628913
  0
LINE
  5
51C
100
AcDbEntity
  8
0
100
AcDbLine
 62
7
  6
CONTINUOUS
 10
195.0829885245
 20
151.3266936682
 11
195.0625212394
 21
151.2985160777
  0
LINE
  5
51D
100
AcDbEntity
  8
0
100
AcDbLine
 62
7
  6
CONTINUOUS
 10
193.9484880083
 20
147.6389291322
 11
193.9321472708
 21
147.5932856362
  0
ENDSEC
  0
SECTION
  2
OBJECTS
  0
DICTIONARY
  5
C
100
AcDbDictionary
280
0
281
1
  3
ACAD_GROUP
350
D
  3
ACAD_MLINESTYLE
350
17
  3
ACAD_LAYOUT
350
1A
  3
ACAD_PLOTSETTINGS
350
19
  3
ACAD_PLOTSTYLENAME
350
E
  0
DICTIONARY
  5
D
102
{ACAD_REACTORS
330
C
102
}
100
AcDbDictionary
280
0
281
1
  0
ACDBDICTIONARYWDFLT
  5
E
102
{ACAD_REACTORS
330
C
102
}
100
AcDbDictionary
281
1
  3
Normal
350
F
100
AcDbDictionaryWithDefault
340
F
  0
DICTIONARY
  5
17
102
{ACAD_REACTORS
330
C
102
}
100
AcDbDictionary
280
0
281
1
  3
Standard
350
18
  0
DICTIONARY
  5
19
102
{ACAD_REACTORS
330
C
102
}
100
AcDbDictionary
281
1
  0
DICTIONARY
  5
1A
102
{ACAD_REACTORS
330
C
102
}
100
AcDbDictionary
281
1
  3
Model
350
51E
  3
Layout1
350
51F
  0
ACDBPLACEHOLDER
  5
F
102
{ACAD_REACTORS
330
E
102
}
  0
MLINESTYLE
  5
18
102
{ACAD_REACTORS
330
17
102
}
100
AcDbMlineStyle
  2
STANDARD
 70
0
  3

 62
256
 51
90.0
 52
90.0
 71
2
 49
0.5
 62
256
  6
BYLAYER
 49
-0.5
 62
256
  6
BYLAYER
  0
LAYOUT
  5
51E
102
{ACAD_REACTORS
330
1A
102
}
100
AcDbPlotSettings
  1

  2
none_device
  4
ISO_A4_(297.00_x_210.00_MM)
  6

 40
0.0
 41
0.0
 42
0.0
 43
0.0
 44
297.0
 45
210.0
 46
0.0
 47
0.0
 48
0.0
 49
0.0
140
0.0
141
0.0
142
1.0
143
1.0
 70
1024
 72
1
 73
0
 74
0
  7

 75
0
147
1.0
148
0.0
149
0.0
100
AcDbLayout
  1
Model
 70
0
 71
0
 10
0.0
 20
0.0
 11
297.0
 21
210.0
 12
0.0
 22
0.0
 32
0.0
 14
0.0
 24
0.0
 34
0.0
 15
0.0
 25
0.0
 35
0.0
146
0.0
 13
0.0
 23
0.0
 33
0.0
 16
1.0
 26
0.0
 36
0.0
 17
0.0
 27
1.0
 37
0.0
 76
0
330
20E
345
0
346
0
  0
LAYOUT
  5
51F
102
{ACAD_REACTORS
330
1A
102
}
100
AcDbPlotSettings
  1

  2
none_device
  4
ISO_A4_(297.00_x_210.00_MM)
  6

 40
0.0
 41
0.0
 42
0.0
 43
0.0
 44
297.0
 45
210.0
 46
0.0
 47
0.0
 48
0.0
 49
0.0
140
0.0
141
0.0
142
1.0
143
1.0
 70
0
 72
1
 73
0
 74
0
  7

 75
0
147
1.0
148
0.0
149
0.0
100
AcDbLayout
  1
Layout1
 70
0
 71
1
 10
0.0
 20
0.0
 11
297.0
 21
210.0
 12
0.0
 22
0.0
 32
0.0
 14
0.0
 24
0.0
 34
0.0
 15
0.0
 25
0.0
 35
0.0
146
0.0
 13
0.0
 23
0.0
 33
0.0
 16
1.0
 26
0.0
 36
0.0
 17
0.0
 27
1.0
 37
0.0
 76
0
330
20F
345
0
346
0
  0
ENDSEC
  0
EOF
