999
DXF file: 001-m32987-p-2.dxf
999
Pro/ENGINEER 2011490 by Parametric Technology Corporation
  0
SECTION
  2
HEADER
  9
$ACADVER
  1
AC1015
  9
$DWGCODEPAGE
  3
ANSI_1252
  9
$EXTMAX
 10
594.0
 20
420.0
 30
0.0
  9
$EXTMIN
 10
0.0
 20
0.0
 30
0.0
  9
$LIMMIN
 10
0.0
 20
0.0
  9
$LIMMAX
 10
594.0
 20
420.0
  9
$VIEWCTR
 10
297.0
 20
210.0
  9
$VIEWSIZE
 40
420.0
  9
$CLAYER
  8
0
  9
$LTSCALE
 40
32.67
  9
$CELTYPE
  6
BYLAYER
  9
$DIMSCALE
 40
1.0
  9
$DIMASZ
 40
3.5
  9
$DIMEXO
 40
3.7125
  9
$DIMDLI
 40
22.572
  9
$DIMEXE
 40
10.692
  9
$DIMCEN
 40
5.346
  9
$DIMLFAC
 40
1.0
  9
$DIMBLK
  1
_FILLED
  9
$DIMTXT
 40
3.5
  9
$DIMTOL
 70
1
  9
$DIMLIM
 70
0
  9
$DIMTFAC
 40
1.0
  9
$DIMTP
 40
0.005
  9
$DIMTM
 40
0.005
  9
$PDMODE
 70
3
  9
$PDSIZE
 40
0.3125
  9
$HANDSEED
  5
4CF
  9
$TILEMODE
 70
1
  9
$MEASUREMENT
 70
1
  9
$INSUNITS
 70
4
  0
ENDSEC
  0
SECTION
  2
CLASSES
  0
CLASS
  1
ACDBDICTIONARYWDFLT
  2
AcDbDictionaryWithDefault
  3
AutoCAD 2000
 90
0
280
0
281
0
  0
CLASS
  1
ACDBPLACEHOLDER
  2
AcDbPlaceHolder
  3
AutoCAD 2000
 90
0
280
0
281
0
  0
CLASS
  1
LAYOUT
  2
AcDbLayout
  3
AutoCAD 2000
 90
0
280
0
281
0
  0
ENDSEC
  0
SECTION
  2
TABLES
  0
TABLE
  2
VPORT
  5
8
100
AcDbSymbolTable
 70
2
  0
VPORT
  5
1F4
100
AcDbSymbolTableRecord
100
AcDbViewportTableRecord
  2
*ACTIVE
 70
0
 10
0.0
 20
0.0
 11
1.0
 21
1.0
 12
297.0
 22
210.0
 13
0.0
 23
0.0
 14
1.0
 24
1.0
 15
0.0
 25
0.0
 16
0.0
 26
0.0
 36
1.0
 17
0.0
 27
0.0
 37
0.0
 40
420.0
 41
1.4142857143
 42
50.0
 43
0.0
 44
0.0
 50
0.0
 51
0.0
 71
0
 72
100
 73
1
 74
1
 75
0
 76
0
 77
0
 78
0
  0
ENDTAB
  0
TABLE
  2
LTYPE
  5
5
100
AcDbSymbolTable
 70
6
  0
LTYPE
  5
14
100
AcDbSymbolTableRecord
100
AcDbLinetypeTableRecord
  2
BYBLOCK
 70
0
  3

 72
65
 73
0
 40
0.0
  0
LTYPE
  5
15
100
AcDbSymbolTableRecord
100
AcDbLinetypeTableRecord
  2
BYLAYER
 70
0
  3

 72
65
 73
0
 40
0.0
  0
LTYPE
  5
16
100
AcDbSymbolTableRecord
100
AcDbLinetypeTableRecord
  2
CONTINUOUS
 70
64
  3
Solid line
 72
65
 73
0
 40
0.0
  0
LTYPE
  5
1F5
100
AcDbSymbolTableRecord
100
AcDbLinetypeTableRecord
  2
CENTER
 70
64
  3
____ _ ____ _ ____ _ ____ _ ____ _ ____ _ ____
 72
65
 73
4
 40
0.6
 49
0.375
 74
0
 49
-0.075
 74
0
 49
0.075
 74
0
 49
-0.075
 74
0
  0
LTYPE
  5
1F6
100
AcDbSymbolTableRecord
100
AcDbLinetypeTableRecord
  2
HIDDEN
 70
64
  3
- - - - - - - - - - - - - - - - - - - -
 72
65
 73
2
 40
0.2
 49
0.1
 74
0
 49
-0.1
 74
0
  0
LTYPE
  5
1F7
100
AcDbSymbolTableRecord
100
AcDbLinetypeTableRecord
  2
PHANTOM
 70
64
  3
_____ _ _ _____ _ _ _____ _ _ _____
 72
65
 73
6
 40
0.8
 49
0.45
 74
0
 49
-0.05
 74
0
 49
0.1
 74
0
 49
-0.05
 74
0
 49
0.1
 74
0
 49
-0.05
 74
0
  0
LTYPE
  5
1F8
100
AcDbSymbolTableRecord
100
AcDbLinetypeTableRecord
  2
DOT
 70
64
  3
. . . . . . . . . . . . . . . . . . . .
 72
65
 73
2
 40
0.2
 49
0.1
 74
0
 49
-0.1
 74
0
  0
LTYPE
  5
1F9
100
AcDbSymbolTableRecord
100
AcDbLinetypeTableRecord
  2
DASHED
 70
64
  3
- - - - - - - - - - - - - - - - - - - -
 72
65
 73
2
 40
0.2
 49
0.1
 74
0
 49
-0.1
 74
0
  0
ENDTAB
  0
TABLE
  2
LAYER
  5
2
100
AcDbSymbolTable
 70
36
  0
LAYER
  5
10
100
AcDbSymbolTableRecord
100
AcDbLayerTableRecord
  2
0
 70
0
 62
7
  6
CONTINUOUS
370
-3
390
F
  0
LAYER
  5
1FA
100
AcDbSymbolTableRecord
100
AcDbLayerTableRecord
  2
DEFAULT_1
 70
0
 62
7
  6
CENTER
370
-3
390
F
  0
LAYER
  5
1FB
100
AcDbSymbolTableRecord
100
AcDbLayerTableRecord
  2
DEFAULT_2
 70
0
 62
8
  6
HIDDEN
370
-3
390
F
  0
LAYER
  5
1FC
100
AcDbSymbolTableRecord
100
AcDbLayerTableRecord
  2
DEFAULT_3
 70
0
 62
7
  6
PHANTOM
370
-3
390
F
  0
LAYER
  5
1FD
100
AcDbSymbolTableRecord
100
AcDbLayerTableRecord
  2
BEZUGSACHSEN
 70
0
 62
7
  6
CONTINUOUS
370
-3
390
F
  0
LAYER
  5
1FE
100
AcDbSymbolTableRecord
100
AcDbLayerTableRecord
  2
BEZUGSEBENEN
 70
0
 62
7
  6
CONTINUOUS
370
-3
390
F
  0
LAYER
  5
1FF
100
AcDbSymbolTableRecord
100
AcDbLayerTableRecord
  2
BG_STARTBEZUEGE
 70
0
 62
7
  6
CONTINUOUS
370
-3
390
F
  0
LAYER
  5
200
100
AcDbSymbolTableRecord
100
AcDbLayerTableRecord
  2
FASEN
 70
0
 62
7
  6
CONTINUOUS
370
-3
390
F
  0
LAYER
  5
201
100
AcDbSymbolTableRecord
100
AcDbLayerTableRecord
  2
FLAECHEN
 70
0
 62
7
  6
CONTINUOUS
370
-3
390
F
  0
LAYER
  5
202
100
AcDbSymbolTableRecord
100
AcDbLayerTableRecord
  2
GEWINDE
 70
0
 62
7
  6
CONTINUOUS
370
-3
390
F
  0
LAYER
  5
203
100
AcDbSymbolTableRecord
100
AcDbLayerTableRecord
  2
HILFEN
 70
0
 62
7
  6
CONTINUOUS
370
-3
390
F
  0
LAYER
  5
204
100
AcDbSymbolTableRecord
100
AcDbLayerTableRecord
  2
KONSTRUKTIONSELEMENTE
 70
0
 62
7
  6
CONTINUOUS
370
-3
390
F
  0
LAYER
  5
205
100
AcDbSymbolTableRecord
100
AcDbLayerTableRecord
  2
KURVEN
 70
0
 62
7
  6
CONTINUOUS
370
-3
390
F
  0
LAYER
  5
206
100
AcDbSymbolTableRecord
100
AcDbLayerTableRecord
  2
NORM
 70
0
 62
7
  6
CONTINUOUS
370
-3
390
F
  0
LAYER
  5
207
100
AcDbSymbolTableRecord
100
AcDbLayerTableRecord
  2
PLATZIERUNG
 70
0
 62
7
  6
CONTINUOUS
370
-3
390
F
  0
LAYER
  5
208
100
AcDbSymbolTableRecord
100
AcDbLayerTableRecord
  2
RUNDUNGEN
 70
0
 62
7
  6
CONTINUOUS
370
-3
390
F
  0
LAYER
  5
209
100
AcDbSymbolTableRecord
100
AcDbLayerTableRecord
  2
TEIL_STARTBEZUEGE
 70
0
 62
7
  6
CONTINUOUS
370
-3
390
F
  0
LAYER
  5
20A
100
AcDbSymbolTableRecord
100
AcDbLayerTableRecord
  2
T_STARTBEZUEGE
 70
0
 62
7
  6
CONTINUOUS
370
-3
390
F
  0
LAYER
  5
20B
100
AcDbSymbolTableRecord
100
AcDbLayerTableRecord
  2
ZEICHNUNGSBEMASSUNGEN
 70
0
 62
7
  6
CONTINUOUS
370
-3
390
F
  0
ENDTAB
  0
TABLE
  2
STYLE
  5
3
100
AcDbSymbolTable
 70
1
  0
STYLE
  5
11
100
AcDbSymbolTableRecord
100
AcDbTextStyleTableRecord
  2
STANDARD
 70
0
 40
0.0
 41
0.7
 50
0.0
 71
0
 42
0.2
  3
txt
  4

  0
STYLE
  5
20C
100
AcDbSymbolTableRecord
100
AcDbTextStyleTableRecord
  2
TEXTSTYLE_1
 70
0
 40
0.0
 41
0.8
 50
0.0
 71
0
 42
0.2
  3
gdt
  4

  0
ENDTAB
  0
TABLE
  2
VIEW
  5
6
100
AcDbSymbolTable
 70
0
  0
ENDTAB
  0
TABLE
  2
UCS
  5
7
100
AcDbSymbolTable
 70
0
  0
ENDTAB
  0
TABLE
  2
APPID
  5
9
100
AcDbSymbolTable
 70
1
  0
APPID
  5
20D
100
AcDbSymbolTableRecord
100
AcDbRegAppTableRecord
  2
ACAD
 70
0
  0
ENDTAB
  0
TABLE
  2
BLOCK_RECORD
  5
1
100
AcDbSymbolTable
 70
0
  0
BLOCK_RECORD
  5
20E
100
AcDbSymbolTableRecord
100
AcDbBlockTableRecord
  2
*Model_Space
  0
BLOCK_RECORD
  5
20F
100
AcDbSymbolTableRecord
100
AcDbBlockTableRecord
  2
*Paper_Space
  0
ENDTAB
  0
TABLE
  2
DIMSTYLE
  5
A
100
AcDbSymbolTable
 70
1
100
AcDbDimStyleTable
 71
0
  0
DIMSTYLE
105
210
100
AcDbSymbolTableRecord
100
AcDbDimStyleTableRecord
  2
STANDARD
 70
0
  3

  4

 40
1.0
 41
3.5
 42
0.0625
 43
0.38
 44
0.18
 45
0.0
 46
0.0
 47
0.005
 48
0.005
140
3.5
141
0.09
142
0.0
143
25.4
144
1.0
145
0.0
146
1.0
147
0.09
 71
1.0
 72
0.0
 73
0
 74
0
 75
0
 76
0
 77
1
 78
8
170
0
171
2
172
0
173
0
174
0
175
0
176
0
177
0
178
5
270
2
271
3
272
3
273
2
274
2
275
0
280
0
281
0
282
0
283
1
284
8
285
0
286
0
287
3
288
0
340
11
  0
ENDTAB
  0
ENDSEC
  0
SECTION
  2
BLOCKS
  0
BLOCK
  5
20
100
AcDbEntity
  8
0
100
AcDbBlockBegin
  2
*Model_Space
 70
0
 10
0.0
 20
0.0
 30
0.0
  3
*Model_Space
  1

  0
ENDBLK
  5
21
100
AcDbEntity
  8
0
100
AcDbBlockEnd
  0
BLOCK
  5
1C
100
AcDbEntity
  8
0
100
AcDbBlockBegin
  2
*Paper_Space
 70
0
 10
0.0
 20
0.0
 30
0.0
  3
*Paper_Space
  1

  0
ENDBLK
  5
1D
100
AcDbEntity
  8
0
100
AcDbBlockEnd
  0
ENDSEC
  0
SECTION
  2
ENTITIES
  0
MTEXT
  5
211
100
AcDbEntity
  8
0
100
AcDbMText
 62
5
  6
CONTINUOUS
  7
STANDARD
 71
1
 72
1
 10
416.6870383518
 20
296.9470219914
 30
0.0
 11
0.0
 21
1.0
 31
0.0
 44
0.9
  1
VRS 9t RUD
 40
9.0
 41
72.0
  0
MTEXT
  5
212
100
AcDbEntity
  8
0
100
AcDbMText
 62
5
  6
CONTINUOUS
  7
STANDARD
 71
1
 72
1
 10
147.164873524
 20
77.8460439156
 30
0.0
 11
1.0
 21
0.0
 31
0.0
 44
0.9
  1
VRS 9t RUD
 40
9.0
 41
72.0
  0
LINE
  5
213
100
AcDbEntity
  8
0
100
AcDbLine
 62
7
  6
CONTINUOUS
 10
0.0
 20
0.0
 11
0.0
 21
420.0
  0
LINE
  5
214
100
AcDbEntity
  8
0
100
AcDbLine
 62
7
  6
CONTINUOUS
 10
0.0
 20
0.0
 11
594.0
 21
0.0
  0
LINE
  5
215
100
AcDbEntity
  8
0
100
AcDbLine
 62
7
  6
CONTINUOUS
 10
0.0
 20
420.0
 11
594.0
 21
420.0
  0
LINE
  5
216
100
AcDbEntity
  8
0
100
AcDbLine
 62
7
  6
CONTINUOUS
 10
594.0
 20
0.0
 11
594.0
 21
420.0
  0
LINE
  5
217
100
AcDbEntity
  8
KONSTRUKTIONSELEMENTE
100
AcDbLine
 62
7
  6
CONTINUOUS
 10
165.3316729958
 20
165.5224298895
 11
201.3316729958
 21
165.5224298895
  0
LINE
  5
218
100
AcDbEntity
  8
KONSTRUKTIONSELEMENTE
100
AcDbLine
 62
7
  6
CONTINUOUS
 10
162.3316729958
 20
168.5224298895
 11
204.3316729958
 21
168.5224298895
  0
LINE
  5
219
100
AcDbEntity
  8
KONSTRUKTIONSELEMENTE
100
AcDbLine
 62
7
  6
CONTINUOUS
 10
162.3316729958
 20
168.5224298895
 11
165.3316729958
 21
165.5224298895
  0
LINE
  5
21A
100
AcDbEntity
  8
BEZUGSACHSEN
100
AcDbLine
 62
7
  6
CONTINUOUS
 10
105.1996483946
 20
310.4214612597
 11
105.6653802189
 21
311.5458373464
  0
LINE
  5
21B
100
AcDbEntity
  8
RUNDUNGEN
100
AcDbLine
 62
7
  6
CONTINUOUS
 10
105.6653802189
 20
311.5458373464
 11
126.8570880406
 21
362.7071457794
  0
LINE
  5
21C
100
AcDbEntity
  8
0
100
AcDbLine
 62
7
  6
CONTINUOUS
 10
145.0290365566
 20
359.6736994455
 11
144.2750709514
 21
359.175495837
  0
LINE
  5
21D
100
AcDbEntity
  8
RUNDUNGEN
100
AcDbLine
 62
7
  6
CONTINUOUS
 10
130.8156691213
 20
366.5634247383
 11
180.8230973489
 21
385.7594779195
  0
LINE
  5
21E
100
AcDbEntity
  8
0
100
AcDbLine
 62
7
  6
CONTINUOUS
 10
144.1685042887
 20
357.2785951971
 11
144.4162737678
 21
357.782126673
  0
LINE
  5
21F
100
AcDbEntity
  8
0
100
AcDbLine
 62
7
  6
CONTINUOUS
 10
141.8213547877
 20
351.8623010186
 11
141.5735853086
 21
351.3587695427
  0
LINE
  5
220
100
AcDbEntity
  8
0
100
AcDbLine
 62
7
  6
CONTINUOUS
 10
143.6489877776
 20
358.5494126632
 11
143.2760005173
 21
357.9206634062
  0
LINE
  5
221
100
AcDbEntity
  8
0
100
AcDbLine
 62
7
  6
CONTINUOUS
 10
144.2750709514
 20
359.175495837
 11
143.6489877776
 21
358.5494126632
  0
LINE
  5
222
100
AcDbEntity
  8
0
100
AcDbLine
 62
7
  6
CONTINUOUS
 10
138.8907479182
 20
353.7911728038
 11
135.8855440981
 21
350.7859689838
  0
LINE
  5
223
100
AcDbEntity
  8
0
100
AcDbLine
 62
7
  6
CONTINUOUS
 10
134.883809372
 20
349.7842342577
 11
134.132508417
 21
349.0329333026
  0
LINE
  5
224
100
AcDbEntity
  8
0
100
AcDbLine
 62
7
  6
CONTINUOUS
 10
130.6264374131
 20
345.5268622987
 11
129.875136458
 21
344.7755613437
  0
LINE
  5
225
100
AcDbEntity
  8
0
100
AcDbLine
 62
7
  6
CONTINUOUS
 10
137.276250045
 20
350.8978649469
 11
139.6553699747
 21
353.2769848766
  0
LINE
  5
226
100
AcDbEntity
  8
0
100
AcDbLine
 62
7
  6
CONTINUOUS
 10
144.4162737678
 20
357.782126673
 11
145.1675747228
 21
358.533427628
  0
LINE
  5
227
100
AcDbEntity
  8
0
100
AcDbLine
 62
7
  6
CONTINUOUS
 10
146.5582806697
 20
358.6453235911
 11
147.3095816247
 21
359.3966245461
  0
LINE
  5
228
100
AcDbEntity
  8
0
100
AcDbLine
 62
7
  6
CONTINUOUS
 10
146.9579090583
 20
356.7430932925
 11
146.2066081033
 21
355.9917923375
  0
LINE
  5
229
100
AcDbEntity
  8
0
100
AcDbLine
 62
7
  6
CONTINUOUS
 10
141.5735853086
 20
351.3587695427
 11
139.1944653789
 21
348.979649613
  0
LINE
  5
22A
100
AcDbEntity
  8
0
100
AcDbLine
 62
7
  6
CONTINUOUS
 10
139.9617513691
 20
348.2123636228
 11
142.0904371695
 21
350.3410494232
  0
LINE
  5
22B
100
AcDbEntity
  8
0
100
AcDbLine
 62
7
  6
CONTINUOUS
 10
146.9738940936
 20
355.2245063472
 11
147.7251950486
 21
355.9758073022
  0
LINE
  5
22C
100
AcDbEntity
  8
0
100
AcDbLine
 62
7
  6
CONTINUOUS
 10
146.744773046
 20
352.9492889674
 11
145.9934728075
 21
352.1979887289
  0
LINE
  5
22D
100
AcDbEntity
  8
0
100
AcDbLine
 62
7
  6
CONTINUOUS
 10
149.6434102929
 20
354.0575920579
 11
148.6416752085
 21
353.0558569736
  0
LINE
  5
22E
100
AcDbEntity
  8
0
100
AcDbLine
 62
7
  6
CONTINUOUS
 10
137.8890133712
 20
340.7686229767
 11
138.8907479182
 21
341.7703575236
  0
LINE
  5
22F
100
AcDbEntity
  8
0
100
AcDbLine
 62
7
  6
CONTINUOUS
 10
141.8959517382
 20
344.7755613437
 11
142.6472526932
 21
345.5268622987
  0
LINE
  5
230
100
AcDbEntity
  8
0
100
AcDbLine
 62
7
  6
CONTINUOUS
 10
145.7776735779
 20
348.6572831834
 11
146.6541908811
 21
349.5338004866
  0
LINE
  5
231
100
AcDbEntity
  8
0
100
AcDbLine
 62
7
  6
CONTINUOUS
 10
149.4089612883
 20
352.2885708938
 11
150.4106963727
 21
353.2903059781
  0
LINE
  5
232
100
AcDbEntity
  8
0
100
AcDbLine
 62
7
  6
CONTINUOUS
 10
139.6447128069
 20
354.2893756958
 11
138.8907479182
 21
353.7911728038
  0
LINE
  5
233
100
AcDbEntity
  8
0
100
AcDbLine
 62
7
  6
CONTINUOUS
 10
147.7118732305
 20
357.2412954679
 11
146.9579090583
 21
356.7430932925
  0
LINE
  5
234
100
AcDbEntity
  8
0
100
AcDbLine
 62
7
  6
CONTINUOUS
 10
148.6549956719
 20
351.7903672965
 11
149.4089612883
 21
352.2885708938
  0
LINE
  5
235
100
AcDbEntity
  8
0
100
AcDbLine
 62
7
  6
CONTINUOUS
 10
147.7251950486
 20
355.9758073022
 11
148.3539428726
 21
356.3487931295
  0
LINE
  5
236
100
AcDbEntity
  8
0
100
AcDbLine
 62
7
  6
CONTINUOUS
 10
146.3451448365
 20
354.8515190869
 11
146.9738940936
 21
355.2245063472
  0
LINE
  5
237
100
AcDbEntity
  8
0
100
AcDbLine
 62
7
  6
CONTINUOUS
 10
148.6416752085
 20
353.0558569736
 11
148.0129273845
 21
352.6828711463
  0
LINE
  5
238
100
AcDbEntity
  8
0
100
AcDbLine
 62
7
  6
CONTINUOUS
 10
176.9566718931
 20
367.3820043684
 11
177.6650050575
 21
367.7437064529
  0
LINE
  5
239
100
AcDbEntity
  8
0
100
AcDbLine
 62
7
  6
CONTINUOUS
 10
145.1675747228
 20
358.533427628
 11
145.6711061987
 21
358.7811971071
  0
LINE
  5
23A
100
AcDbEntity
  8
0
100
AcDbLine
 62
7
  6
CONTINUOUS
 10
139.6553699747
 20
353.2769848766
 11
140.1589014506
 21
353.5247543557
  0
LINE
  5
23B
100
AcDbEntity
  8
0
100
AcDbLine
 62
7
  6
CONTINUOUS
 10
146.2066081033
 20
355.9917923375
 11
145.7030766274
 21
355.7440228583
  0
LINE
  5
23C
100
AcDbEntity
  8
0
100
AcDbLine
 62
7
  6
CONTINUOUS
 10
176.779588222
 20
368.2862595797
 11
176.248338222
 21
368.1054085374
  0
LINE
  5
23D
100
AcDbEntity
  8
0
100
AcDbLine
 62
7
  6
CONTINUOUS
 10
148.468503486
 20
357.4864017299
 11
147.7118732305
 21
357.2412954679
  0
LINE
  5
23E
100
AcDbEntity
  8
0
100
AcDbLine
 62
7
  6
CONTINUOUS
 10
145.5885160141
 20
354.606414258
 11
146.3451448365
 21
354.8515190869
  0
LINE
  5
23F
100
AcDbEntity
  8
KONSTRUKTIONSELEMENTE
100
AcDbLine
 62
7
  6
CONTINUOUS
 10
152.5816729958
 20
228.5224298895
 11
214.0816729958
 21
228.5224298895
  0
LINE
  5
240
100
AcDbEntity
  8
BEZUGSACHSEN
100
AcDbLine
 62
7
  6
CONTINUOUS
 10
225.8316230414
 20
228.7224298895
 11
140.8317229525
 21
228.7224298895
  0
LINE
  5
241
100
AcDbEntity
  8
0
100
AcDbLine
 62
7
  6
CONTINUOUS
 10
176.7691734875
 20
235.2224298895
 11
178.2275064731
 21
235.2224298895
  0
LINE
  5
242
100
AcDbEntity
  8
0
100
AcDbLine
 62
7
  6
CONTINUOUS
 10
178.5920899803
 20
237.084132056
 11
176.4045899803
 21
237.084132056
  0
LINE
  5
243
100
AcDbEntity
  8
0
100
AcDbLine
 62
7
  6
CONTINUOUS
 10
174.9462567339
 20
235.5947703032
 11
176.7691734875
 21
235.2224298895
  0
LINE
  5
244
100
AcDbEntity
  8
BEZUGSACHSEN
100
AcDbLine
 62
7
  6
CONTINUOUS
 10
130.3211595865
 20
244.4350542339
 11
105.1999585684
 21
305.0631445032
  0
LINE
  5
245
100
AcDbEntity
  8
0
100
AcDbLine
 62
7
  6
CONTINUOUS
 10
144.0486158079
 20
356.6471827228
 11
144.1685042887
 21
357.2785951971
  0
LINE
  5
246
100
AcDbEntity
  8
0
100
AcDbLine
 62
7
  6
CONTINUOUS
 10
143.2760005173
 20
357.9206634062
 11
143.0308956884
 21
357.1640345837
  0
LINE
  5
247
100
AcDbEntity
  8
0
100
AcDbLine
 62
7
  6
CONTINUOUS
 10
142.5859761277
 20
351.3481123749
 11
142.8310816732
 21
352.1047419138
  0
LINE
  5
248
100
AcDbEntity
  8
0
100
AcDbLine
 62
7
  6
CONTINUOUS
 10
150.9088985369
 20
354.0442701615
 11
151.1540047653
 21
354.8009004505
  0
LINE
  5
249
100
AcDbEntity
  8
0
100
AcDbLine
 62
7
  6
CONTINUOUS
 10
150.0163961202
 20
354.686339882
 11
149.6434102929
 21
354.0575920579
  0
LINE
  5
24A
100
AcDbEntity
  8
0
100
AcDbLine
 62
7
  6
CONTINUOUS
 10
150.4106963727
 20
353.2903059781
 11
150.9088985369
 21
354.0442701615
  0
LINE
  5
24B
100
AcDbEntity
  8
0
100
AcDbLine
 62
7
  6
CONTINUOUS
 10
177.1337550575
 20
368.6479616643
 11
176.779588222
 21
368.2862595797
  0
LINE
  5
24C
100
AcDbEntity
  8
0
100
AcDbLine
 62
7
  6
CONTINUOUS
 10
184.7483387286
 20
364.8500895233
 11
184.2170887286
 21
364.4883873121
  0
LINE
  5
24D
100
AcDbEntity
  8
0
100
AcDbLine
 62
7
  6
CONTINUOUS
 10
193.2483377153
 20
364.8500895233
 11
192.7170877153
 21
364.4883873121
  0
LINE
  5
24E
100
AcDbEntity
  8
0
100
AcDbLine
 62
7
  6
CONTINUOUS
 10
184.3941713864
 20
363.4032809476
 11
185.1025050575
 21
363.7649830796
  0
LINE
  5
24F
100
AcDbEntity
  8
0
100
AcDbLine
 62
7
  6
CONTINUOUS
 10
192.8941723997
 20
363.4032809476
 11
193.6025050575
 21
363.7649830796
  0
LINE
  5
250
100
AcDbEntity
  8
0
100
AcDbLine
 62
7
  6
CONTINUOUS
 10
178.2275064731
 20
235.2224298895
 11
180.0504229659
 21
235.5947703032
  0
LINE
  5
251
100
AcDbEntity
  8
0
100
AcDbLine
 62
7
  6
CONTINUOUS
 10
178.2275064731
 20
241.5522168905
 11
180.0504229659
 21
241.9245577932
  0
LINE
  5
252
100
AcDbEntity
  8
0
100
AcDbLine
 62
7
  6
CONTINUOUS
 10
173.4879232267
 20
239.3181746036
 11
171.6650066687
 21
239.3181746036
  0
LINE
  5
253
100
AcDbEntity
  8
0
100
AcDbLine
 62
7
  6
CONTINUOUS
 10
176.4045899803
 20
241.5522168905
 11
178.2275064731
 21
241.5522168905
  0
LINE
  5
254
100
AcDbEntity
  8
0
100
AcDbLine
 62
7
  6
CONTINUOUS
 10
178.5920899803
 20
243.4139193178
 11
176.0400064731
 21
243.4139193178
  0
LINE
  5
255
100
AcDbEntity
  8
0
100
AcDbLine
 62
7
  6
CONTINUOUS
 10
186.9775069947
 20
245.6479616047
 11
189.894174009
 21
245.6479616047
  0
LINE
  5
256
100
AcDbEntity
  8
0
100
AcDbLine
 62
7
  6
CONTINUOUS
 10
191.7170899803
 20
245.6479616047
 11
195.7275059516
 21
245.6479616047
  0
LINE
  5
257
100
AcDbEntity
  8
0
100
AcDbLine
 62
7
  6
CONTINUOUS
 10
195.7275059516
 20
247.1373231292
 11
191.7170899803
 21
247.1373231292
  0
LINE
  5
258
100
AcDbEntity
  8
0
100
AcDbLine
 62
7
  6
CONTINUOUS
 10
189.894174009
 20
247.1373231292
 11
186.9775069947
 21
247.1373231292
  0
LINE
  5
259
100
AcDbEntity
  8
0
100
AcDbLine
 62
7
  6
CONTINUOUS
 10
192.8108399803
 20
235.5947703032
 11
194.9983399803
 21
235.2224298895
  0
LINE
  5
25A
100
AcDbEntity
  8
0
100
AcDbLine
 62
7
  6
CONTINUOUS
 10
194.9983399803
 20
236.7117915445
 11
193.175424009
 21
237.084132056
  0
LINE
  5
25B
100
AcDbEntity
  8
0
100
AcDbLine
 62
7
  6
CONTINUOUS
 10
174.5816732267
 20
241.9245577932
 11
176.4045899803
 21
241.5522168905
  0
LINE
  5
25C
100
AcDbEntity
  8
0
100
AcDbLine
 62
7
  6
CONTINUOUS
 10
176.4045899803
 20
237.084132056
 11
175.3108399803
 21
237.4564724371
  0
LINE
  5
25D
100
AcDbEntity
  8
0
100
AcDbLine
 62
7
  6
CONTINUOUS
 10
191.7170899803
 20
235.967110717
 11
192.8108399803
 21
235.5947703032
  0
LINE
  5
25E
100
AcDbEntity
  8
0
100
AcDbLine
 62
7
  6
CONTINUOUS
 10
176.0400064731
 20
243.4139193178
 11
174.9462567339
 21
243.7862596989
  0
LINE
  5
25F
100
AcDbEntity
  8
0
100
AcDbLine
 62
7
  6
CONTINUOUS
 10
173.1233399803
 20
236.7117915445
 11
174.9462567339
 21
235.5947703032
  0
LINE
  5
260
100
AcDbEntity
  8
0
100
AcDbLine
 62
7
  6
CONTINUOUS
 10
172.7587566035
 20
243.0415789366
 11
174.5816732267
 21
241.9245577932
  0
LINE
  5
261
100
AcDbEntity
  8
0
100
AcDbLine
 62
7
  6
CONTINUOUS
 10
175.3108399803
 20
237.4564724371
 11
174.2170899803
 21
238.2011531994
  0
LINE
  5
262
100
AcDbEntity
  8
0
100
AcDbLine
 62
7
  6
CONTINUOUS
 10
174.9462567339
 20
243.7862596989
 11
173.8525067339
 21
244.5309404612
  0
LINE
  5
263
100
AcDbEntity
  8
0
100
AcDbLine
 62
7
  6
CONTINUOUS
 10
141.8160262038
 20
352.3684964282
 11
141.8213547877
 21
351.8623010186
  0
LINE
  5
264
100
AcDbEntity
  8
0
100
AcDbLine
 62
7
  6
CONTINUOUS
 10
143.0308956884
 20
357.1640345837
 11
143.0415528562
 21
356.1516437646
  0
LINE
  5
265
100
AcDbEntity
  8
0
100
AcDbLine
 62
7
  6
CONTINUOUS
 10
150.1362845114
 20
355.3177524458
 11
150.0163961202
 21
354.686339882
  0
LINE
  5
266
100
AcDbEntity
  8
0
100
AcDbLine
 62
7
  6
CONTINUOUS
 10
185.1025050575
 20
365.3926426501
 11
184.7483387286
 21
364.8500895233
  0
LINE
  5
267
100
AcDbEntity
  8
0
100
AcDbLine
 62
7
  6
CONTINUOUS
 10
177.6650050575
 20
367.7437064529
 11
178.1962550575
 21
368.467110622
  0
LINE
  5
268
100
AcDbEntity
  8
0
100
AcDbLine
 62
7
  6
CONTINUOUS
 10
185.1025050575
 20
363.7649830796
 11
185.8108387286
 21
364.4883873121
  0
LINE
  5
269
100
AcDbEntity
  8
0
100
AcDbLine
 62
7
  6
CONTINUOUS
 10
193.6025050575
 20
363.7649830796
 11
194.3108377153
 21
364.4883873121
  0
LINE
  5
26A
100
AcDbEntity
  8
0
100
AcDbLine
 62
7
  6
CONTINUOUS
 10
176.4045899803
 20
252.7224298895
 11
174.5816732267
 21
252.3500895084
  0
LINE
  5
26B
100
AcDbEntity
  8
0
100
AcDbLine
 62
7
  6
CONTINUOUS
 10
191.7170899803
 20
250.1160472215
 11
189.894174009
 21
250.1160472215
  0
LINE
  5
26C
100
AcDbEntity
  8
0
100
AcDbLine
 62
7
  6
CONTINUOUS
 10
176.0400064731
 20
250.8607279838
 11
178.5920899803
 21
250.8607279838
  0
LINE
  5
26D
100
AcDbEntity
  8
0
100
AcDbLine
 62
7
  6
CONTINUOUS
 10
178.2275064731
 20
252.7224298895
 11
176.4045899803
 21
252.7224298895
  0
LINE
  5
26E
100
AcDbEntity
  8
0
100
AcDbLine
 62
7
  6
CONTINUOUS
 10
180.0504229659
 20
252.3500895084
 11
178.2275064731
 21
252.7224298895
  0
LINE
  5
26F
100
AcDbEntity
  8
0
100
AcDbLine
 62
7
  6
CONTINUOUS
 10
178.5920899803
 20
250.8607279838
 11
179.6858399803
 21
250.4883876026
  0
LINE
  5
270
100
AcDbEntity
  8
0
100
AcDbLine
 62
7
  6
CONTINUOUS
 10
181.8733399803
 20
251.2330683649
 11
180.0504229659
 21
252.3500895084
  0
LINE
  5
271
100
AcDbEntity
  8
0
100
AcDbLine
 62
7
  6
CONTINUOUS
 10
190.6233399803
 20
236.7117915445
 11
191.7170899803
 21
235.967110717
  0
LINE
  5
272
100
AcDbEntity
  8
0
100
AcDbLine
 62
7
  6
CONTINUOUS
 10
193.175424009
 20
237.084132056
 11
192.081674009
 21
237.8288128183
  0
LINE
  5
273
100
AcDbEntity
  8
0
100
AcDbLine
 62
7
  6
CONTINUOUS
 10
179.6858399803
 20
250.4883876026
 11
180.7795899803
 21
249.7437068403
  0
LINE
  5
274
100
AcDbEntity
  8
0
100
AcDbLine
 62
7
  6
CONTINUOUS
 10
172.0295899803
 20
238.2011531994
 11
173.1233399803
 21
236.7117915445
  0
LINE
  5
275
100
AcDbEntity
  8
0
100
AcDbLine
 62
7
  6
CONTINUOUS
 10
171.6650066687
 20
244.5309404612
 11
172.7587566035
 21
243.0415789366
  0
LINE
  5
276
100
AcDbEntity
  8
0
100
AcDbLine
 62
7
  6
CONTINUOUS
 10
174.2170899803
 20
238.2011531994
 11
173.4879232267
 21
239.3181746036
  0
LINE
  5
277
100
AcDbEntity
  8
0
100
AcDbLine
 62
7
  6
CONTINUOUS
 10
173.8525067339
 20
244.5309404612
 11
173.1233399803
 21
245.6479616047
  0
LINE
  5
278
100
AcDbEntity
  8
RUNDUNGEN
100
AcDbLine
 62
7
  6
CONTINUOUS
 10
142.8376934533
 20
294.8236326239
 11
142.7813568469
 21
294.9975778185
  0
LINE
  5
279
100
AcDbEntity
  8
0
100
AcDbLine
 62
7
  6
CONTINUOUS
 10
151.1540047653
 20
354.8009004505
 11
151.1433475527
 21
355.8132913145
  0
LINE
  5
27A
100
AcDbEntity
  8
KONSTRUKTIONSELEMENTE
100
AcDbLine
 62
7
  6
CONTINUOUS
 10
152.5816729958
 20
228.7224298895
 11
152.5816729958
 21
228.5224298895
  0
LINE
  5
27B
100
AcDbEntity
  8
0
100
AcDbLine
 62
7
  6
CONTINUOUS
 10
155.8316729958
 20
279.5224298895
 11
155.8316729958
 21
284.5224298895
  0
LINE
  5
27C
100
AcDbEntity
  8
0
100
AcDbLine
 62
7
  6
CONTINUOUS
 10
177.310838222
 20
369.1905147911
 11
177.1337550575
 21
368.6479616643
  0
LINE
  5
27D
100
AcDbEntity
  8
0
100
AcDbLine
 62
7
  6
CONTINUOUS
 10
178.1962550575
 20
368.467110622
 11
178.373338222
 21
369.0096637488
  0
LINE
  5
27E
100
AcDbEntity
  8
0
100
AcDbLine
 62
7
  6
CONTINUOUS
 10
185.8108387286
 20
364.4883873121
 11
186.1650050575
 21
365.2117916078
  0
LINE
  5
27F
100
AcDbEntity
  8
0
100
AcDbLine
 62
7
  6
CONTINUOUS
 10
193.6025050575
 20
365.3926426501
 11
193.2483377153
 21
364.8500895233
  0
LINE
  5
280
100
AcDbEntity
  8
0
100
AcDbLine
 62
7
  6
CONTINUOUS
 10
182.9670899803
 20
249.7437068403
 11
181.8733399803
 21
251.2330683649
  0
LINE
  5
281
100
AcDbEntity
  8
0
100
AcDbLine
 62
7
  6
CONTINUOUS
 10
180.7795899803
 20
249.7437068403
 11
181.5087569947
 21
248.6266856969
  0
LINE
  5
282
100
AcDbEntity
  8
0
100
AcDbLine
 62
7
  6
CONTINUOUS
 10
170.9358399803
 20
246.3926423669
 11
171.6650066687
 21
244.5309404612
  0
LINE
  5
283
100
AcDbEntity
  8
0
100
AcDbLine
 62
7
  6
CONTINUOUS
 10
171.6650066687
 20
239.3181746036
 11
172.0295899803
 21
238.2011531994
  0
LINE
  5
284
100
AcDbEntity
  8
0
100
AcDbLine
 62
7
  6
CONTINUOUS
 10
173.1233399803
 20
245.6479616047
 11
172.7587566035
 21
246.7649827481
  0
LINE
  5
285
100
AcDbEntity
  8
0
100
AcDbLine
 62
7
  6
CONTINUOUS
 10
142.8310816732
 20
352.1047419138
 11
142.6952081572
 21
352.9919163848
  0
LINE
  5
286
100
AcDbEntity
  8
KONSTRUKTIONSELEMENTE
100
AcDbLine
 62
7
  6
CONTINUOUS
 10
162.3316729958
 20
228.5224298895
 11
162.3316729958
 21
168.5224298895
  0
LINE
  5
287
100
AcDbEntity
  8
0
100
AcDbLine
 62
7
  6
CONTINUOUS
 10
169.590736589
 20
278.5224298895
 11
169.590736589
 21
267.0355682222
  0
LINE
  5
288
100
AcDbEntity
  8
BEZUGSACHSEN
100
AcDbLine
 62
7
  6
CONTINUOUS
 10
170.5359907711
 20
278.5224298895
 11
170.5359907711
 21
266.9453303241
  0
LINE
  5
289
100
AcDbEntity
  8
0
100
AcDbLine
 62
7
  6
CONTINUOUS
 10
170.9358399803
 20
247.8820038915
 11
170.9358399803
 21
246.3926423669
  0
LINE
  5
28A
100
AcDbEntity
  8
0
100
AcDbLine
 62
7
  6
CONTINUOUS
 10
171.8212550575
 20
371.7224298895
 11
171.8212550575
 21
363.2224298895
  0
LINE
  5
28B
100
AcDbEntity
  8
0
100
AcDbLine
 62
7
  6
CONTINUOUS
 10
185.2795887286
 20
366.1160468191
 11
185.1025050575
 21
365.3926426501
  0
LINE
  5
28C
100
AcDbEntity
  8
0
100
AcDbLine
 62
7
  6
CONTINUOUS
 10
194.3108377153
 20
364.4883873121
 11
194.6650050575
 21
365.2117916078
  0
LINE
  5
28D
100
AcDbEntity
  8
RUNDUNGEN
100
AcDbLine
 62
7
  6
CONTINUOUS
 10
269.8316729958
 20
278.5224298895
 11
156.8316729958
 21
278.5224298895
  0
LINE
  5
28E
100
AcDbEntity
  8
RUNDUNGEN
100
AcDbLine
 62
7
  6
CONTINUOUS
 10
156.8316729958
 20
285.5224298895
 11
269.8316729958
 21
285.5224298895
  0
LINE
  5
28F
100
AcDbEntity
  8
0
100
AcDbLine
 62
7
  6
CONTINUOUS
 10
179.3316729958
 20
285.8224298895
 11
187.3316729958
 21
285.8224298895
  0
LINE
  5
290
100
AcDbEntity
  8
0
100
AcDbLine
 62
7
  6
CONTINUOUS
 10
141.5576002733
 20
352.877356488
 11
141.8160262038
 21
352.3684964282
  0
LINE
  5
291
100
AcDbEntity
  8
0
100
AcDbLine
 62
7
  6
CONTINUOUS
 10
142.6952081572
 20
352.9919163848
 11
142.4367822267
 21
353.5007764446
  0
LINE
  5
292
100
AcDbEntity
  8
0
100
AcDbLine
 62
7
  6
CONTINUOUS
 10
138.8907479182
 20
341.7703575236
 11
134.883809372
 21
349.7842342577
  0
LINE
  5
293
100
AcDbEntity
  8
0
100
AcDbLine
 62
7
  6
CONTINUOUS
 10
134.132508417
 20
349.0329333026
 11
137.6225944753
 21
342.0367762404
  0
LINE
  5
294
100
AcDbEntity
  8
0
100
AcDbLine
 62
7
  6
CONTINUOUS
 10
189.894174009
 20
238.2011531994
 11
190.6233399803
 21
236.7117915445
  0
LINE
  5
295
100
AcDbEntity
  8
0
100
AcDbLine
 62
7
  6
CONTINUOUS
 10
183.6962569947
 20
247.8820038915
 11
182.9670899803
 21
249.7437068403
  0
LINE
  5
296
100
AcDbEntity
  8
0
100
AcDbLine
 62
7
  6
CONTINUOUS
 10
151.1433475527
 20
355.8132913145
 11
150.882257599
 21
356.5752495269
  0
LINE
  5
297
100
AcDbEntity
  8
0
100
AcDbLine
 62
7
  6
CONTINUOUS
 10
181.5087569947
 20
248.6266856969
 11
181.8733399803
 21
247.5096635104
  0
LINE
  5
298
100
AcDbEntity
  8
0
100
AcDbLine
 62
7
  6
CONTINUOUS
 10
150.0030756456
 20
355.9518295703
 11
150.1362845114
 21
355.3177524458
  0
LINE
  5
299
100
AcDbEntity
  8
0
100
AcDbLine
 62
7
  6
CONTINUOUS
 10
172.7587566035
 20
246.7649827481
 11
172.7587566035
 21
247.5096635104
  0
LINE
  5
29A
100
AcDbEntity
  8
0
100
AcDbLine
 62
7
  6
CONTINUOUS
 10
172.8837550575
 20
363.2224298895
 11
172.8837550575
 21
367.0203022838
  0
LINE
  5
29B
100
AcDbEntity
  8
0
100
AcDbLine
 62
7
  6
CONTINUOUS
 10
172.8837550575
 20
368.1054085374
 11
172.8837550575
 21
370.8181746781
  0
LINE
  5
29C
100
AcDbEntity
  8
BEZUGSACHSEN
100
AcDbLine
 62
7
  6
CONTINUOUS
 10
175.5159506103
 20
278.5224298895
 11
175.5159506103
 21
266.5865570252
  0
LINE
  5
29D
100
AcDbEntity
  8
0
100
AcDbLine
 62
7
  6
CONTINUOUS
 10
176.4612047924
 20
278.5224298895
 11
176.4612047924
 21
266.5379152026
  0
LINE
  5
29E
100
AcDbEntity
  8
0
100
AcDbLine
 62
7
  6
CONTINUOUS
 10
177.310838222
 20
369.7330684245
 11
177.310838222
 21
369.1905147911
  0
LINE
  5
29F
100
AcDbEntity
  8
BEZUGSACHSEN
100
AcDbLine
 62
7
  6
CONTINUOUS
 10
178.3517131566
 20
278.5224298895
 11
178.3517131566
 21
266.4606917631
  0
LINE
  5
2A0
100
AcDbEntity
  8
0
100
AcDbLine
 62
7
  6
CONTINUOUS
 10
178.373338222
 20
369.0096637488
 11
178.373338222
 21
369.7330684245
  0
LINE
  5
2A1
100
AcDbEntity
  8
0
100
AcDbLine
 62
7
  6
CONTINUOUS
 10
179.3316729958
 20
285.5224298895
 11
179.3316729958
 21
285.8224298895
  0
LINE
  5
2A2
100
AcDbEntity
  8
0
100
AcDbLine
 62
7
  6
CONTINUOUS
 10
179.967088222
 20
371.7224298895
 11
179.967088222
 21
366.1160468191
  0
LINE
  5
2A3
100
AcDbEntity
  8
0
100
AcDbLine
 62
7
  6
CONTINUOUS
 10
181.0295887286
 20
366.1160468191
 11
181.0295887286
 21
371.7224298895
  0
LINE
  5
2A4
100
AcDbEntity
  8
0
100
AcDbLine
 62
7
  6
CONTINUOUS
 10
181.8733399803
 20
247.5096635104
 11
181.8733399803
 21
246.7649827481
  0
LINE
  5
2A5
100
AcDbEntity
  8
0
100
AcDbLine
 62
7
  6
CONTINUOUS
 10
182.2379229659
 20
243.4139193178
 11
182.2379229659
 21
242.6692385555
  0
LINE
  5
2A6
100
AcDbEntity
  8
0
100
AcDbLine
 62
7
  6
CONTINUOUS
 10
184.0608399803
 20
242.6692385555
 11
184.0608399803
 21
245.2756212235
  0
LINE
  5
2A7
100
AcDbEntity
  8
0
100
AcDbLine
 62
7
  6
CONTINUOUS
 10
186.1650050575
 20
365.2117916078
 11
186.3420887286
 21
366.1160468191
  0
LINE
  5
2A8
100
AcDbEntity
  8
0
100
AcDbLine
 62
7
  6
CONTINUOUS
 10
194.6650050575
 20
365.2117916078
 11
194.8420877153
 21
366.1160468191
  0
LINE
  5
2A9
100
AcDbEntity
  8
0
100
AcDbLine
 62
7
  6
CONTINUOUS
 10
193.7795877153
 20
366.1160468191
 11
193.6025050575
 21
365.3926426501
  0
LINE
  5
2AA
100
AcDbEntity
  8
0
100
AcDbLine
 62
7
  6
CONTINUOUS
 10
221.9326610937
 20
350.1874301403
 11
222.8586842375
 21
351.1134532841
  0
LINE
  5
2AB
100
AcDbEntity
  8
0
100
AcDbLine
 62
7
  6
CONTINUOUS
 10
227.1269157214
 20
355.381684768
 11
228.0529388652
 21
356.3077079118
  0
LINE
  5
2AC
100
AcDbEntity
  8
0
100
AcDbLine
 62
7
  6
CONTINUOUS
 10
229.1409266043
 20
348.1802035858
 11
230.0669497481
 21
349.1062267295
  0
LINE
  5
2AD
100
AcDbEntity
  8
0
100
AcDbLine
 62
7
  6
CONTINUOUS
 10
227.1626610937
 20
344.9574301403
 11
228.0886842375
 21
345.8834532841
  0
LINE
  5
2AE
100
AcDbEntity
  8
0
100
AcDbLine
 62
7
  6
CONTINUOUS
 10
232.3569157214
 20
350.151684768
 11
233.2829388652
 21
351.0777079118
  0
LINE
  5
2AF
100
AcDbEntity
  8
0
100
AcDbLine
 62
7
  6
CONTINUOUS
 10
143.0415528562
 20
356.1516437646
 11
143.4278590685
 21
355.5149019899
  0
LINE
  5
2B0
100
AcDbEntity
  8
0
100
AcDbLine
 62
7
  6
CONTINUOUS
 10
144.3070413801
 20
356.1383215883
 11
144.0486158079
 21
356.6471827228
  0
LINE
  5
2B1
100
AcDbEntity
  8
0
100
AcDbLine
 62
7
  6
CONTINUOUS
 10
192.081674009
 20
237.8288128183
 11
191.7170899803
 21
238.9458342225
  0
LINE
  5
2B2
100
AcDbEntity
  8
0
100
AcDbLine
 62
7
  6
CONTINUOUS
 10
184.0608399803
 20
245.2756212235
 11
183.6962569947
 21
247.8820038915
  0
LINE
  5
2B3
100
AcDbEntity
  8
0
100
AcDbLine
 62
7
  6
CONTINUOUS
 10
185.2795887286
 20
371.7224298895
 11
185.2795887286
 21
366.1160468191
  0
LINE
  5
2B4
100
AcDbEntity
  8
0
100
AcDbLine
 62
7
  6
CONTINUOUS
 10
186.3420887286
 20
366.1160468191
 11
186.3420887286
 21
371.7224298895
  0
LINE
  5
2B5
100
AcDbEntity
  8
0
100
AcDbLine
 62
7
  6
CONTINUOUS
 10
186.9775069947
 20
247.1373231292
 11
186.9775069947
 21
245.6479616047
  0
LINE
  5
2B6
100
AcDbEntity
  8
0
100
AcDbLine
 62
7
  6
CONTINUOUS
 10
187.3316729958
 20
285.5224298895
 11
187.3316729958
 21
285.8224298895
  0
LINE
  5
2B7
100
AcDbEntity
  8
0
100
AcDbLine
 62
7
  6
CONTINUOUS
 10
187.7587550575
 20
371.7224298895
 11
187.7587550575
 21
363.2224298895
  0
LINE
  5
2B8
100
AcDbEntity
  8
BEZUGSACHSEN
100
AcDbLine
 62
7
  6
CONTINUOUS
 10
188.3116328349
 20
278.5224298895
 11
188.3116328349
 21
266.4606915856
  0
LINE
  5
2B9
100
AcDbEntity
  8
0
100
AcDbLine
 62
7
  6
CONTINUOUS
 10
188.8212550575
 20
364.3075362698
 11
188.8212550575
 21
370.6373236359
  0
LINE
  5
2BA
100
AcDbEntity
  8
0
100
AcDbLine
 62
7
  6
CONTINUOUS
 10
189.894174009
 20
250.1160472215
 11
189.894174009
 21
247.1373231292
  0
LINE
  5
2BB
100
AcDbEntity
  8
0
100
AcDbLine
 62
7
  6
CONTINUOUS
 10
189.894174009
 20
245.6479616047
 11
189.894174009
 21
238.2011531994
  0
LINE
  5
2BC
100
AcDbEntity
  8
0
100
AcDbLine
 62
7
  6
CONTINUOUS
 10
190.2021411991
 20
278.5224298895
 11
190.2021411991
 21
266.5379153362
  0
LINE
  5
2BD
100
AcDbEntity
  8
BEZUGSACHSEN
100
AcDbLine
 62
7
  6
CONTINUOUS
 10
191.1473953812
 20
278.5224298895
 11
191.1473953812
 21
266.5865569696
  0
LINE
  5
2BE
100
AcDbEntity
  8
0
100
AcDbLine
 62
7
  6
CONTINUOUS
 10
191.7170899803
 20
238.9458342225
 11
191.7170899803
 21
245.6479616047
  0
LINE
  5
2BF
100
AcDbEntity
  8
0
100
AcDbLine
 62
7
  6
CONTINUOUS
 10
191.7170899803
 20
247.1373231292
 11
191.7170899803
 21
250.1160472215
  0
LINE
  5
2C0
100
AcDbEntity
  8
0
100
AcDbLine
 62
7
  6
CONTINUOUS
 10
193.7795877153
 20
368.8288127065
 11
193.7795877153
 21
366.1160468191
  0
LINE
  5
2C1
100
AcDbEntity
  8
0
100
AcDbLine
 62
7
  6
CONTINUOUS
 10
194.8420877153
 20
366.1160468191
 11
194.8420877153
 21
368.8288127065
  0
LINE
  5
2C2
100
AcDbEntity
  8
0
100
AcDbLine
 62
7
  6
CONTINUOUS
 10
194.9983399803
 20
235.2224298895
 11
194.9983399803
 21
236.7117915445
  0
LINE
  5
2C3
100
AcDbEntity
  8
0
100
AcDbLine
 62
7
  6
CONTINUOUS
 10
195.7275059516
 20
245.6479616047
 11
195.7275059516
 21
247.1373231292
  0
LINE
  5
2C4
100
AcDbEntity
  8
BEZUGSACHSEN
100
AcDbLine
 62
7
  6
CONTINUOUS
 10
196.1273552204
 20
278.5224298895
 11
196.1273552204
 21
266.9453302946
  0
LINE
  5
2C5
100
AcDbEntity
  8
0
100
AcDbLine
 62
7
  6
CONTINUOUS
 10
197.0726094025
 20
278.5224298895
 11
197.0726094025
 21
267.0355682625
  0
LINE
  5
2C6
100
AcDbEntity
  8
0
100
AcDbLine
 62
7
  6
CONTINUOUS
 10
183.6962569947
 20
240.0628553659
 11
184.0608399803
 21
242.6692385555
  0
LINE
  5
2C7
100
AcDbEntity
  8
0
100
AcDbLine
 62
7
  6
CONTINUOUS
 10
182.2379229659
 20
242.6692385555
 11
181.8733399803
 21
240.4351957471
  0
LINE
  5
2C8
100
AcDbEntity
  8
0
100
AcDbLine
 62
7
  6
CONTINUOUS
 10
172.7587566035
 20
247.5096635104
 11
173.1233399803
 21
248.6266856969
  0
LINE
  5
2C9
100
AcDbEntity
  8
0
100
AcDbLine
 62
7
  6
CONTINUOUS
 10
171.6650066687
 20
249.7437068403
 11
170.9358399803
 21
247.8820038915
  0
LINE
  5
2CA
100
AcDbEntity
  8
0
100
AcDbLine
 62
7
  6
CONTINUOUS
 10
135.8855440981
 20
350.7859689838
 11
141.8959517382
 21
344.7755613437
  0
LINE
  5
2CB
100
AcDbEntity
  8
0
100
AcDbLine
 62
7
  6
CONTINUOUS
 10
142.6472526932
 20
345.5268622987
 11
139.9617513691
 21
348.2123636228
  0
LINE
  5
2CC
100
AcDbEntity
  8
0
100
AcDbLine
 62
7
  6
CONTINUOUS
 10
139.1944653789
 20
348.979649613
 11
137.276250045
 21
350.8978649469
  0
LINE
  5
2CD
100
AcDbEntity
  8
0
100
AcDbLine
 62
7
  6
CONTINUOUS
 10
141.17395692
 20
353.2609998414
 11
141.5576002733
 21
352.877356488
  0
LINE
  5
2CE
100
AcDbEntity
  8
0
100
AcDbLine
 62
7
  6
CONTINUOUS
 10
142.4367822267
 20
353.5007764446
 11
141.925257875
 21
354.0123007964
  0
LINE
  5
2CF
100
AcDbEntity
  8
0
100
AcDbLine
 62
7
  6
CONTINUOUS
 10
143.4278590685
 20
355.5149019899
 11
143.9393834203
 21
355.0033776382
  0
LINE
  5
2D0
100
AcDbEntity
  8
0
100
AcDbLine
 62
7
  6
CONTINUOUS
 10
179.967088222
 20
366.1160468191
 11
180.1441718931
 21
365.2117916078
  0
LINE
  5
2D1
100
AcDbEntity
  8
KONSTRUKTIONSELEMENTE
100
AcDbLine
 62
7
  6
CONTINUOUS
 10
204.3316729958
 20
228.5224298895
 11
204.3316729958
 21
168.5224298895
  0
LINE
  5
2D2
100
AcDbEntity
  8
0
100
AcDbLine
 62
7
  6
CONTINUOUS
 10
181.8733399803
 20
246.7649827481
 11
181.5087569947
 21
245.6479616047
  0
LINE
  5
2D3
100
AcDbEntity
  8
0
100
AcDbLine
 62
7
  6
CONTINUOUS
 10
181.8733399803
 20
240.4351957471
 11
181.5087569947
 21
239.3181746036
  0
LINE
  5
2D4
100
AcDbEntity
  8
0
100
AcDbLine
 62
7
  6
CONTINUOUS
 10
182.9670899803
 20
238.2011531994
 11
183.6962569947
 21
240.0628553659
  0
LINE
  5
2D5
100
AcDbEntity
  8
0
100
AcDbLine
 62
7
  6
CONTINUOUS
 10
173.1233399803
 20
248.6266856969
 11
173.8525067339
 21
249.7437068403
  0
LINE
  5
2D6
100
AcDbEntity
  8
0
100
AcDbLine
 62
7
  6
CONTINUOUS
 10
172.7587566035
 20
251.2330683649
 11
171.6650066687
 21
249.7437068403
  0
LINE
  5
2D7
100
AcDbEntity
  8
0
100
AcDbLine
 62
7
  6
CONTINUOUS
 10
137.6225944753
 20
342.0367762404
 11
130.6264374131
 21
345.5268622987
  0
LINE
  5
2D8
100
AcDbEntity
  8
0
100
AcDbLine
 62
7
  6
CONTINUOUS
 10
129.875136458
 20
344.7755613437
 11
137.8890133712
 21
340.7686229767
  0
LINE
  5
2D9
100
AcDbEntity
  8
0
100
AcDbLine
 62
7
  6
CONTINUOUS
 10
144.5628033769
 20
355.8825595915
 11
144.3070413801
 21
356.1383215883
  0
LINE
  5
2DA
100
AcDbEntity
  8
0
100
AcDbLine
 62
7
  6
CONTINUOUS
 10
149.6194326504
 20
356.3354725654
 11
150.0030756456
 21
355.9518295703
  0
LINE
  5
2DB
100
AcDbEntity
  8
0
100
AcDbLine
 62
7
  6
CONTINUOUS
 10
150.882257599
 20
356.5752495269
 11
150.2428526071
 21
357.2146545188
  0
LINE
  5
2DC
100
AcDbEntity
  8
0
100
AcDbLine
 62
7
  6
CONTINUOUS
 10
178.5504218931
 20
363.2224298895
 11
176.9566718931
 21
367.3820043684
  0
LINE
  5
2DD
100
AcDbEntity
  8
0
100
AcDbLine
 62
7
  6
CONTINUOUS
 10
175.8941716397
 20
367.0203022838
 11
177.310838222
 21
363.2224298895
  0
LINE
  5
2DE
100
AcDbEntity
  8
0
100
AcDbLine
 62
7
  6
CONTINUOUS
 10
177.1337550575
 20
370.2756215513
 11
177.310838222
 21
369.7330684245
  0
LINE
  5
2DF
100
AcDbEntity
  8
0
100
AcDbLine
 62
7
  6
CONTINUOUS
 10
178.373338222
 20
369.7330684245
 11
178.1962550575
 21
370.2756215513
  0
LINE
  5
2E0
100
AcDbEntity
  8
0
100
AcDbLine
 62
7
  6
CONTINUOUS
 10
181.2066713864
 20
365.3926426501
 11
181.0295887286
 21
366.1160468191
  0
LINE
  5
2E1
100
AcDbEntity
  8
0
100
AcDbLine
 62
7
  6
CONTINUOUS
 10
194.8420877153
 20
368.8288127065
 11
194.6650050575
 21
369.7330684245
  0
LINE
  5
2E2
100
AcDbEntity
  8
KONSTRUKTIONSELEMENTE
100
AcDbLine
 62
7
  6
CONTINUOUS
 10
214.0816729958
 20
228.7224298895
 11
214.0816729958
 21
228.5224298895
  0
LINE
  5
2E3
100
AcDbEntity
  8
0
100
AcDbLine
 62
7
  6
CONTINUOUS
 10
181.5087569947
 20
245.6479616047
 11
180.7795899803
 21
244.5309404612
  0
LINE
  5
2E4
100
AcDbEntity
  8
0
100
AcDbLine
 62
7
  6
CONTINUOUS
 10
181.5087569947
 20
239.3181746036
 11
180.7795899803
 21
238.2011531994
  0
LINE
  5
2E5
100
AcDbEntity
  8
0
100
AcDbLine
 62
7
  6
CONTINUOUS
 10
181.8733399803
 20
236.7117915445
 11
182.9670899803
 21
238.2011531994
  0
LINE
  5
2E6
100
AcDbEntity
  8
0
100
AcDbLine
 62
7
  6
CONTINUOUS
 10
173.8525067339
 20
249.7437068403
 11
174.9462567339
 21
250.4883876026
  0
LINE
  5
2E7
100
AcDbEntity
  8
0
100
AcDbLine
 62
7
  6
CONTINUOUS
 10
174.5816732267
 20
252.3500895084
 11
172.7587566035
 21
251.2330683649
  0
LINE
  5
2E8
100
AcDbEntity
  8
0
100
AcDbLine
 62
7
  6
CONTINUOUS
 10
146.6541908811
 20
349.5338004866
 11
142.5859761277
 21
351.3481123749
  0
LINE
  5
2E9
100
AcDbEntity
  8
0
100
AcDbLine
 62
7
  6
CONTINUOUS
 10
142.0904371695
 20
350.3410494232
 11
145.7776735779
 21
348.6572831834
  0
LINE
  5
2EA
100
AcDbEntity
  8
0
100
AcDbLine
 62
7
  6
CONTINUOUS
 10
140.6650968602
 20
353.5194257718
 11
141.17395692
 21
353.2609998414
  0
LINE
  5
2EB
100
AcDbEntity
  8
0
100
AcDbLine
 62
7
  6
CONTINUOUS
 10
141.925257875
 20
354.0123007964
 11
141.4163978152
 21
354.2707267268
  0
LINE
  5
2EC
100
AcDbEntity
  8
0
100
AcDbLine
 62
7
  6
CONTINUOUS
 10
147.2536338223
 20
352.6908637535
 11
146.744773046
 21
352.9492889674
  0
LINE
  5
2ED
100
AcDbEntity
  8
0
100
AcDbLine
 62
7
  6
CONTINUOUS
 10
145.0716641532
 20
355.6241343776
 11
144.5628033769
 21
355.8825595915
  0
LINE
  5
2EE
100
AcDbEntity
  8
0
100
AcDbLine
 62
7
  6
CONTINUOUS
 10
145.9934728075
 20
352.1979887289
 11
146.6302131491
 21
351.8116810836
  0
LINE
  5
2EF
100
AcDbEntity
  8
0
100
AcDbLine
 62
7
  6
CONTINUOUS
 10
143.9393834203
 20
355.0033776382
 11
144.5761251949
 21
354.6170714258
  0
LINE
  5
2F0
100
AcDbEntity
  8
0
100
AcDbLine
 62
7
  6
CONTINUOUS
 10
181.5608387286
 20
364.8500895233
 11
181.2066713864
 21
365.3926426501
  0
LINE
  5
2F1
100
AcDbEntity
  8
0
100
AcDbLine
 62
7
  6
CONTINUOUS
 10
180.1441718931
 20
365.2117916078
 11
180.4983387286
 21
364.4883873121
  0
LINE
  5
2F2
100
AcDbEntity
  8
0
100
AcDbLine
 62
7
  6
CONTINUOUS
 10
193.6025050575
 20
369.5522168756
 11
193.7795877153
 21
368.8288127065
  0
LINE
  5
2F3
100
AcDbEntity
  8
RUNDUNGEN
100
AcDbLine
 62
7
  6
CONTINUOUS
 10
223.8819891446
 20
294.9975778185
 11
223.8256525382
 21
294.8236326239
  0
LINE
  5
2F4
100
AcDbEntity
  8
0
100
AcDbLine
 62
7
  6
CONTINUOUS
 10
180.7795899803
 20
244.5309404612
 11
179.6858399803
 21
243.7862596989
  0
LINE
  5
2F5
100
AcDbEntity
  8
0
100
AcDbLine
 62
7
  6
CONTINUOUS
 10
180.0504229659
 20
241.9245577932
 11
182.2379229659
 21
243.4139193178
  0
LINE
  5
2F6
100
AcDbEntity
  8
0
100
AcDbLine
 62
7
  6
CONTINUOUS
 10
180.7795899803
 20
238.2011531994
 11
179.6858399803
 21
237.4564724371
  0
LINE
  5
2F7
100
AcDbEntity
  8
0
100
AcDbLine
 62
7
  6
CONTINUOUS
 10
180.0504229659
 20
235.5947703032
 11
181.8733399803
 21
236.7117915445
  0
LINE
  5
2F8
100
AcDbEntity
  8
0
100
AcDbLine
 62
7
  6
CONTINUOUS
 10
174.9462567339
 20
250.4883876026
 11
176.0400064731
 21
250.8607279838
  0
LINE
  5
2F9
100
AcDbEntity
  8
0
100
AcDbLine
 62
7
  6
CONTINUOUS
 10
179.6858399803
 20
243.7862596989
 11
178.5920899803
 21
243.4139193178
  0
LINE
  5
2FA
100
AcDbEntity
  8
0
100
AcDbLine
 62
7
  6
CONTINUOUS
 10
141.4163978152
 20
354.2707267268
 11
140.5292233442
 21
354.4066002428
  0
LINE
  5
2FB
100
AcDbEntity
  8
0
100
AcDbLine
 62
7
  6
CONTINUOUS
 10
146.6302131491
 20
351.8116810836
 11
147.6452694694
 21
351.5479271514
  0
LINE
  5
2FC
100
AcDbEntity
  8
0
100
AcDbLine
 62
7
  6
CONTINUOUS
 10
150.2428526071
 20
357.2146545188
 11
149.4808943051
 21
357.475744562
  0
LINE
  5
2FD
100
AcDbEntity
  8
0
100
AcDbLine
 62
7
  6
CONTINUOUS
 10
146.1773008918
 20
358.7758678067
 11
146.5582806697
 21
358.6453235911
  0
LINE
  5
2FE
100
AcDbEntity
  8
0
100
AcDbLine
 62
7
  6
CONTINUOUS
 10
147.3095816247
 20
359.3966245461
 11
146.8007208484
 21
359.6550497601
  0
LINE
  5
2FF
100
AcDbEntity
  8
0
100
AcDbLine
 62
7
  6
CONTINUOUS
 10
180.4983387286
 20
364.4883873121
 11
181.2066713864
 21
363.7649830796
  0
LINE
  5
300
100
AcDbEntity
  8
0
100
AcDbLine
 62
7
  6
CONTINUOUS
 10
176.779588222
 20
370.6373236359
 11
177.1337550575
 21
370.2756215513
  0
LINE
  5
301
100
AcDbEntity
  8
0
100
AcDbLine
 62
7
  6
CONTINUOUS
 10
178.1962550575
 20
370.2756215513
 11
177.6650050575
 21
370.9990257204
  0
LINE
  5
302
100
AcDbEntity
  8
0
100
AcDbLine
 62
7
  6
CONTINUOUS
 10
193.2483377153
 20
370.0947705091
 11
193.6025050575
 21
369.5522168756
  0
LINE
  5
303
100
AcDbEntity
  8
0
100
AcDbLine
 62
7
  6
CONTINUOUS
 10
194.6650050575
 20
369.7330684245
 11
194.3108377153
 21
370.4564725936
  0
LINE
  5
304
100
AcDbEntity
  8
0
100
AcDbLine
 62
7
  6
CONTINUOUS
 10
179.6858399803
 20
237.4564724371
 11
178.5920899803
 21
237.084132056
  0
LINE
  5
305
100
AcDbEntity
  8
0
100
AcDbLine
 62
7
  6
CONTINUOUS
 10
192.7170877153
 20
364.4883873121
 11
192.0087550575
 21
364.3075362698
  0
LINE
  5
306
100
AcDbEntity
  8
0
100
AcDbLine
 62
7
  6
CONTINUOUS
 10
147.6452694694
 20
351.5479271514
 11
148.6549956719
 21
351.7903672965
  0
LINE
  5
307
100
AcDbEntity
  8
0
100
AcDbLine
 62
7
  6
CONTINUOUS
 10
192.0087550575
 20
363.2224298895
 11
192.8941723997
 21
363.4032809476
  0
LINE
  5
308
100
AcDbEntity
  8
0
100
AcDbLine
 62
7
  6
CONTINUOUS
 10
140.5292233442
 20
354.4066002428
 11
139.6447128069
 21
354.2893756958
  0
LINE
  5
309
100
AcDbEntity
  8
0
100
AcDbLine
 62
7
  6
CONTINUOUS
 10
148.0129273845
 20
352.6828711463
 11
147.2536338223
 21
352.6908637535
  0
LINE
  5
30A
100
AcDbEntity
  8
0
100
AcDbLine
 62
7
  6
CONTINUOUS
 10
140.1589014506
 20
353.5247543557
 11
140.6650968602
 21
353.5194257718
  0
LINE
  5
30B
100
AcDbEntity
  8
0
100
AcDbLine
 62
7
  6
CONTINUOUS
 10
144.5761251949
 20
354.6170714258
 11
145.5885160141
 21
354.606414258
  0
LINE
  5
30C
100
AcDbEntity
  8
0
100
AcDbLine
 62
7
  6
CONTINUOUS
 10
149.4808943051
 20
357.475744562
 11
148.468503486
 21
357.4864017299
  0
LINE
  5
30D
100
AcDbEntity
  8
0
100
AcDbLine
 62
7
  6
CONTINUOUS
 10
145.6711061987
 20
358.7811971071
 11
146.1773008918
 21
358.7758678067
  0
LINE
  5
30E
100
AcDbEntity
  8
0
100
AcDbLine
 62
7
  6
CONTINUOUS
 10
146.8007208484
 20
359.6550497601
 11
145.9135463774
 21
359.7909232761
  0
LINE
  5
30F
100
AcDbEntity
  8
0
100
AcDbLine
 62
7
  6
CONTINUOUS
 10
148.9853553469
 20
356.4686816103
 11
149.6194326504
 21
356.3354725654
  0
LINE
  5
310
100
AcDbEntity
  8
0
100
AcDbLine
 62
7
  6
CONTINUOUS
 10
181.2066713864
 20
363.7649830796
 11
181.9150050575
 21
363.4032809476
  0
LINE
  5
311
100
AcDbEntity
  8
0
100
AcDbLine
 62
7
  6
CONTINUOUS
 10
182.0920887286
 20
364.4883873121
 11
181.5608387286
 21
364.8500895233
  0
LINE
  5
312
100
AcDbEntity
  8
0
100
AcDbLine
 62
7
  6
CONTINUOUS
 10
177.6650050575
 20
370.9990257204
 11
176.9566718931
 21
371.5415788472
  0
LINE
  5
313
100
AcDbEntity
  8
0
100
AcDbLine
 62
7
  6
CONTINUOUS
 10
194.3108377153
 20
370.4564725936
 11
193.6025050575
 21
371.1798767627
  0
LINE
  5
314
100
AcDbEntity
  8
BEZUGSACHSEN
100
AcDbLine
 62
7
  6
CONTINUOUS
 10
261.4633874231
 20
305.0631445032
 11
253.3667078531
 21
285.5224298895
  0
LINE
  5
315
100
AcDbEntity
  8
BEZUGSACHSEN
100
AcDbLine
 62
7
  6
CONTINUOUS
 10
250.4662634165
 20
278.5224298895
 11
236.342186405
 21
244.4350542339
  0
LINE
  5
316
100
AcDbEntity
  8
0
100
AcDbLine
 62
7
  6
CONTINUOUS
 10
184.2170887286
 20
364.4883873121
 11
183.5087550575
 21
364.3075362698
  0
LINE
  5
317
100
AcDbEntity
  8
0
100
AcDbLine
 62
7
  6
CONTINUOUS
 10
183.5087550575
 20
363.2224298895
 11
184.3941713864
 21
363.4032809476
  0
LINE
  5
318
100
AcDbEntity
  8
0
100
AcDbLine
 62
7
  6
CONTINUOUS
 10
145.7030766274
 20
355.7440228583
 11
145.0716641532
 21
355.6241343776
  0
LINE
  5
319
100
AcDbEntity
  8
0
100
AcDbLine
 62
7
  6
CONTINUOUS
 10
148.3539428726
 20
356.3487931295
 11
148.9853553469
 21
356.4686816103
  0
LINE
  5
31A
100
AcDbEntity
  8
0
100
AcDbLine
 62
7
  6
CONTINUOUS
 10
145.9135463774
 20
359.7909232761
 11
145.0290365566
 21
359.6736994455
  0
LINE
  5
31B
100
AcDbEntity
  8
0
100
AcDbLine
 62
7
  6
CONTINUOUS
 10
171.8212550575
 20
363.2224298895
 11
172.8837550575
 21
363.2224298895
  0
LINE
  5
31C
100
AcDbEntity
  8
0
100
AcDbLine
 62
7
  6
CONTINUOUS
 10
177.310838222
 20
363.2224298895
 11
178.5504218931
 21
363.2224298895
  0
LINE
  5
31D
100
AcDbEntity
  8
0
100
AcDbLine
 62
7
  6
CONTINUOUS
 10
182.8004213864
 20
363.2224298895
 11
183.5087550575
 21
363.2224298895
  0
LINE
  5
31E
100
AcDbEntity
  8
0
100
AcDbLine
 62
7
  6
CONTINUOUS
 10
187.7587550575
 20
363.2224298895
 11
192.0087550575
 21
363.2224298895
  0
LINE
  5
31F
100
AcDbEntity
  8
0
100
AcDbLine
 62
7
  6
CONTINUOUS
 10
192.0087550575
 20
364.3075362698
 11
188.8212550575
 21
364.3075362698
  0
LINE
  5
320
100
AcDbEntity
  8
0
100
AcDbLine
 62
7
  6
CONTINUOUS
 10
183.5087550575
 20
364.3075362698
 11
182.8004213864
 21
364.3075362698
  0
LINE
  5
321
100
AcDbEntity
  8
0
100
AcDbLine
 62
7
  6
CONTINUOUS
 10
172.8837550575
 20
367.0203022838
 11
175.8941716397
 21
367.0203022838
  0
LINE
  5
322
100
AcDbEntity
  8
0
100
AcDbLine
 62
7
  6
CONTINUOUS
 10
176.248338222
 20
368.1054085374
 11
172.8837550575
 21
368.1054085374
  0
LINE
  5
323
100
AcDbEntity
  8
0
100
AcDbLine
 62
7
  6
CONTINUOUS
 10
188.8212550575
 20
370.6373236359
 11
192.0087550575
 21
370.6373236359
  0
LINE
  5
324
100
AcDbEntity
  8
0
100
AcDbLine
 62
7
  6
CONTINUOUS
 10
172.8837550575
 20
370.8181746781
 11
176.248338222
 21
370.8181746781
  0
LINE
  5
325
100
AcDbEntity
  8
0
100
AcDbLine
 62
7
  6
CONTINUOUS
 10
192.0087550575
 20
371.7224298895
 11
187.7587550575
 21
371.7224298895
  0
LINE
  5
326
100
AcDbEntity
  8
0
100
AcDbLine
 62
7
  6
CONTINUOUS
 10
186.3420887286
 20
371.7224298895
 11
185.2795887286
 21
371.7224298895
  0
LINE
  5
327
100
AcDbEntity
  8
0
100
AcDbLine
 62
7
  6
CONTINUOUS
 10
181.0295887286
 20
371.7224298895
 11
179.967088222
 21
371.7224298895
  0
LINE
  5
328
100
AcDbEntity
  8
0
100
AcDbLine
 62
7
  6
CONTINUOUS
 10
176.0712550575
 20
371.7224298895
 11
171.8212550575
 21
371.7224298895
  0
LINE
  5
329
100
AcDbEntity
  8
0
100
AcDbLine
 62
7
  6
CONTINUOUS
 10
181.9150050575
 20
363.4032809476
 11
182.8004213864
 21
363.2224298895
  0
LINE
  5
32A
100
AcDbEntity
  8
0
100
AcDbLine
 62
7
  6
CONTINUOUS
 10
176.9566718931
 20
371.5415788472
 11
176.0712550575
 21
371.7224298895
  0
LINE
  5
32B
100
AcDbEntity
  8
0
100
AcDbLine
 62
7
  6
CONTINUOUS
 10
192.8941723997
 20
371.5415788472
 11
192.0087550575
 21
371.7224298895
  0
LINE
  5
32C
100
AcDbEntity
  8
0
100
AcDbLine
 62
7
  6
CONTINUOUS
 10
182.8004213864
 20
364.3075362698
 11
182.0920887286
 21
364.4883873121
  0
LINE
  5
32D
100
AcDbEntity
  8
0
100
AcDbLine
 62
7
  6
CONTINUOUS
 10
192.0087550575
 20
370.6373236359
 11
192.7170877153
 21
370.4564725936
  0
LINE
  5
32E
100
AcDbEntity
  8
0
100
AcDbLine
 62
7
  6
CONTINUOUS
 10
176.248338222
 20
370.8181746781
 11
176.779588222
 21
370.6373236359
  0
LINE
  5
32F
100
AcDbEntity
  8
0
100
AcDbLine
 62
7
  6
CONTINUOUS
 10
193.6025050575
 20
371.1798767627
 11
192.8941723997
 21
371.5415788472
  0
LINE
  5
330
100
AcDbEntity
  8
0
100
AcDbLine
 62
7
  6
CONTINUOUS
 10
192.7170877153
 20
370.4564725936
 11
193.2483377153
 21
370.0947705091
  0
LINE
  5
331
100
AcDbEntity
  8
0
100
AcDbLine
 62
7
  6
CONTINUOUS
 10
227.3449228374
 20
349.9762073526
 11
229.1409266043
 21
348.1802035858
  0
LINE
  5
332
100
AcDbEntity
  8
0
100
AcDbLine
 62
7
  6
CONTINUOUS
 10
230.0669497481
 20
349.1062267295
 11
228.2724372671
 21
350.9007392105
  0
LINE
  5
333
100
AcDbEntity
  8
RUNDUNGEN
100
AcDbLine
 62
7
  6
CONTINUOUS
 10
270.8316729958
 20
284.5224298895
 11
270.8316729958
 21
279.5224298895
  0
LINE
  5
334
100
AcDbEntity
  8
RUNDUNGEN
100
AcDbLine
 62
7
  6
CONTINUOUS
 10
185.8402486426
 20
385.7594779195
 11
235.8476768702
 21
366.5634247383
  0
LINE
  5
335
100
AcDbEntity
  8
RUNDUNGEN
100
AcDbLine
 62
7
  6
CONTINUOUS
 10
239.8062579509
 20
362.7071457794
 11
260.9979713607
 21
311.5458238557
  0
LINE
  5
336
100
AcDbEntity
  8
BEZUGSACHSEN
100
AcDbLine
 62
7
  6
CONTINUOUS
 10
260.9979713607
 20
311.5458238557
 11
261.4636975969
 21
310.4214612597
  0
LINE
  5
337
100
AcDbEntity
  8
KONSTRUKTIONSELEMENTE
100
AcDbLine
 62
7
  6
CONTINUOUS
 10
204.3316729958
 20
168.5224298895
 11
201.3316729958
 21
165.5224298895
  0
LINE
  5
338
100
AcDbEntity
  8
KONSTRUKTIONSELEMENTE
100
AcDbLine
 62
7
  6
CONTINUOUS
 10
403.6532071342
 20
165.5224298895
 11
439.6525779042
 21
165.5224298895
  0
LINE
  5
339
100
AcDbEntity
  8
KONSTRUKTIONSELEMENTE
100
AcDbLine
 62
7
  6
CONTINUOUS
 10
400.6528925192
 20
168.5224298895
 11
442.6528925192
 21
168.5224298895
  0
LINE
  5
33A
100
AcDbEntity
  8
KONSTRUKTIONSELEMENTE
100
AcDbLine
 62
7
  6
CONTINUOUS
 10
400.6528925192
 20
168.5224298895
 11
403.6528925192
 21
165.5224298895
  0
LINE
  5
33B
100
AcDbEntity
  8
BEZUGSACHSEN
100
AcDbLine
 62
7
  6
CONTINUOUS
 10
367.5570408918
 20
255.5101853746
 11
369.7913660721
 21
250.1160472215
  0
LINE
  5
33C
100
AcDbEntity
  8
BEZUGSACHSEN
100
AcDbLine
 62
7
  6
CONTINUOUS
 10
375.4376639953
 20
236.4846781982
 11
378.6528925192
 21
228.7224298895
  0
LINE
  5
33D
100
AcDbEntity
  8
0
100
AcDbLine
 62
7
  6
CONTINUOUS
 10
381.6528925192
 20
279.5224298895
 11
381.6528925192
 21
284.5224298895
  0
LINE
  5
33E
100
AcDbEntity
  8
RUNDUNGEN
100
AcDbLine
 62
7
  6
CONTINUOUS
 10
381.6528925192
 20
279.5224298895
 11
381.6528925192
 21
284.5224298895
  0
LINE
  5
33F
100
AcDbEntity
  8
KONSTRUKTIONSELEMENTE
100
AcDbLine
 62
7
  6
CONTINUOUS
 10
390.9028925192
 20
228.7224298895
 11
390.9028925192
 21
228.5224298895
  0
LINE
  5
340
100
AcDbEntity
  8
0
100
AcDbLine
 62
7
  6
CONTINUOUS
 10
394.1528925192
 20
279.5224298895
 11
394.1528925192
 21
284.5224298895
  0
LINE
  5
341
100
AcDbEntity
  8
RUNDUNGEN
100
AcDbLine
 62
7
  6
CONTINUOUS
 10
394.1528925192
 20
279.5224298895
 11
394.1528925192
 21
284.5224298895
  0
LINE
  5
342
100
AcDbEntity
  8
KONSTRUKTIONSELEMENTE
100
AcDbLine
 62
7
  6
CONTINUOUS
 10
390.9028925192
 20
228.5224298895
 11
452.4028925192
 21
228.5224298895
  0
LINE
  5
343
100
AcDbEntity
  8
BEZUGSACHSEN
100
AcDbLine
 62
7
  6
CONTINUOUS
 10
378.6528925192
 20
228.7224298895
 11
464.6528925192
 21
228.7224298895
  0
LINE
  5
344
100
AcDbEntity
  8
KONSTRUKTIONSELEMENTE
100
AcDbLine
 62
7
  6
CONTINUOUS
 10
400.6528925192
 20
228.5224298895
 11
400.6528925192
 21
168.5224298895
  0
LINE
  5
345
100
AcDbEntity
  8
BEZUGSACHSEN
100
AcDbLine
 62
7
  6
CONTINUOUS
 10
404.6528925192
 20
291.655604589
 11
404.6528925192
 21
380.224414934
  0
LINE
  5
346
100
AcDbEntity
  8
0
100
AcDbLine
 62
7
  6
CONTINUOUS
 10
377.2637569722
 20
235.2224298895
 11
376.7089670913
 21
235.2224298895
  0
LINE
  5
347
100
AcDbEntity
  8
0
100
AcDbLine
 62
7
  6
CONTINUOUS
 10
375.9605043638
 20
235.2224298895
 11
375.6635028333
 21
235.2224298895
  0
LINE
  5
348
100
AcDbEntity
  8
0
100
AcDbLine
 62
7
  6
CONTINUOUS
 10
466.9368887029
 20
235.2224298895
 11
467.6422822051
 21
235.2224298895
  0
LINE
  5
349
100
AcDbEntity
  8
0
100
AcDbLine
 62
7
  6
CONTINUOUS
 10
375.8062759146
 20
235.5947703032
 11
375.3656133366
 21
235.5947703032
  0
LINE
  5
34A
100
AcDbEntity
  8
0
100
AcDbLine
 62
7
  6
CONTINUOUS
 10
466.8329480186
 20
235.5947703032
 11
467.3809659942
 21
235.5947703032
  0
LINE
  5
34B
100
AcDbEntity
  8
0
100
AcDbLine
 62
7
  6
CONTINUOUS
 10
376.6313600375
 20
236.7117915445
 11
376.0768951534
 21
236.7117915445
  0
LINE
  5
34C
100
AcDbEntity
  8
0
100
AcDbLine
 62
7
  6
CONTINUOUS
 10
375.2961357324
 20
236.7117915445
 11
374.8220819127
 21
236.7117915445
  0
LINE
  5
34D
100
AcDbEntity
  8
0
100
AcDbLine
 62
7
  6
CONTINUOUS
 10
466.9795843841
 20
236.7117915445
 11
467.5308312703
 21
236.7117915445
  0
LINE
  5
34E
100
AcDbEntity
  8
0
100
AcDbLine
 62
7
  6
CONTINUOUS
 10
468.4501230326
 20
237.084132056
 11
468.2135004502
 21
237.084132056
  0
LINE
  5
34F
100
AcDbEntity
  8
0
100
AcDbLine
 62
7
  6
CONTINUOUS
 10
376.0996595815
 20
237.084132056
 11
375.5491967839
 21
237.084132056
  0
LINE
  5
350
100
AcDbEntity
  8
0
100
AcDbLine
 62
7
  6
CONTINUOUS
 10
468.2172424965
 20
237.4564724371
 11
468.6894831503
 21
237.4564724371
  0
LINE
  5
351
100
AcDbEntity
  8
0
100
AcDbLine
 62
7
  6
CONTINUOUS
 10
375.5945026613
 20
237.8288128183
 11
375.0461210015
 21
237.8288128183
  0
LINE
  5
352
100
AcDbEntity
  8
0
100
AcDbLine
 62
7
  6
CONTINUOUS
 10
374.5805153699
 20
238.2011531994
 11
374.1866976836
 21
238.2011531994
  0
LINE
  5
353
100
AcDbEntity
  8
0
100
AcDbLine
 62
7
  6
CONTINUOUS
 10
467.3857901486
 20
238.2011531994
 11
467.9391118362
 21
238.2011531994
  0
LINE
  5
354
100
AcDbEntity
  8
0
100
AcDbLine
 62
7
  6
CONTINUOUS
 10
468.5189054579
 20
238.2011531994
 11
469.0606980397
 21
238.2011531994
  0
LINE
  5
355
100
AcDbEntity
  8
0
100
AcDbLine
 62
7
  6
CONTINUOUS
 10
375.067550078
 20
238.9458342225
 11
374.5198819254
 21
238.9458342225
  0
LINE
  5
356
100
AcDbEntity
  8
0
100
AcDbLine
 62
7
  6
CONTINUOUS
 10
467.7802379152
 20
239.3181746036
 11
468.6973790825
 21
239.3181746036
  0
LINE
  5
357
100
AcDbEntity
  8
0
100
AcDbLine
 62
7
  6
CONTINUOUS
 10
469.0113381594
 20
239.3181746036
 11
469.5528334769
 21
239.3181746036
  0
LINE
  5
358
100
AcDbEntity
  8
0
100
AcDbLine
 62
7
  6
CONTINUOUS
 10
373.8038469687
 20
240.0628553659
 11
373.4155384284
 21
240.0628553659
  0
LINE
  5
359
100
AcDbEntity
  8
0
100
AcDbLine
 62
7
  6
CONTINUOUS
 10
469.4851504157
 20
240.4351957471
 11
470.0265348555
 21
240.4351957471
  0
LINE
  5
35A
100
AcDbEntity
  8
0
100
AcDbLine
 62
7
  6
CONTINUOUS
 10
469.5336121397
 20
241.5522168905
 11
470.2756342749
 21
241.5522168905
  0
LINE
  5
35B
100
AcDbEntity
  8
0
100
AcDbLine
 62
7
  6
CONTINUOUS
 10
469.4298577873
 20
241.9245577932
 11
469.9777996294
 21
241.9245577932
  0
LINE
  5
35C
100
AcDbEntity
  8
0
100
AcDbLine
 62
7
  6
CONTINUOUS
 10
372.7167548486
 20
242.6692385555
 11
372.3394466468
 21
242.6692385555
  0
LINE
  5
35D
100
AcDbEntity
  8
0
100
AcDbLine
 62
7
  6
CONTINUOUS
 10
470.9286750674
 20
242.6692385555
 11
470.9604552288
 21
242.6692385555
  0
LINE
  5
35E
100
AcDbEntity
  8
0
100
AcDbLine
 62
7
  6
CONTINUOUS
 10
469.5795711114
 20
243.0415789366
 11
470.130558954
 21
243.0415789366
  0
LINE
  5
35F
100
AcDbEntity
  8
0
100
AcDbLine
 62
7
  6
CONTINUOUS
 10
471.0816130905
 20
243.4139193178
 11
470.8100990334
 21
243.4139193178
  0
LINE
  5
360
100
AcDbEntity
  8
0
100
AcDbLine
 62
7
  6
CONTINUOUS
 10
470.8137731946
 20
243.7862596989
 11
471.3170097492
 21
243.7862596989
  0
LINE
  5
361
100
AcDbEntity
  8
0
100
AcDbLine
 62
7
  6
CONTINUOUS
 10
469.9887383398
 20
244.5309404612
 11
470.5416762208
 21
244.5309404612
  0
LINE
  5
362
100
AcDbEntity
  8
0
100
AcDbLine
 62
7
  6
CONTINUOUS
 10
471.1435753989
 20
244.5309404612
 11
471.6853143218
 21
244.5309404612
  0
LINE
  5
363
100
AcDbEntity
  8
0
100
AcDbLine
 62
7
  6
CONTINUOUS
 10
371.6299466277
 20
245.2756212235
 11
371.2597591537
 21
245.2756212235
  0
LINE
  5
364
100
AcDbEntity
  8
0
100
AcDbLine
 62
7
  6
CONTINUOUS
 10
371.2160712362
 20
245.6479616047
 11
371.4747042866
 21
245.6479616047
  0
LINE
  5
365
100
AcDbEntity
  8
0
100
AcDbLine
 62
7
  6
CONTINUOUS
 10
371.7124941644
 20
245.6479616047
 11
373.0014712362
 21
245.6479616047
  0
LINE
  5
366
100
AcDbEntity
  8
0
100
AcDbLine
 62
7
  6
CONTINUOUS
 10
471.6346199163
 20
245.6479616047
 11
472.176088531
 21
245.6479616047
  0
LINE
  5
367
100
AcDbEntity
  8
0
100
AcDbLine
 62
7
  6
CONTINUOUS
 10
470.6202735984
 20
246.3926423669
 11
471.1744234448
 21
246.3926423669
  0
LINE
  5
368
100
AcDbEntity
  8
0
100
AcDbLine
 62
7
  6
CONTINUOUS
 10
472.1079143528
 20
246.7649827481
 11
472.6492821136
 21
246.7649827481
  0
LINE
  5
369
100
AcDbEntity
  8
0
100
AcDbLine
 62
7
  6
CONTINUOUS
 10
372.3696353732
 20
247.1373231292
 11
371.0890424164
 21
247.1373231292
  0
LINE
  5
36A
100
AcDbEntity
  8
0
100
AcDbLine
 62
7
  6
CONTINUOUS
 10
370.8538144174
 20
247.1373231292
 11
370.597937724
 21
247.1373231292
  0
LINE
  5
36B
100
AcDbEntity
  8
0
100
AcDbLine
 62
7
  6
CONTINUOUS
 10
472.41646955
 20
247.5096635104
 11
472.9578354954
 21
247.5096635104
  0
LINE
  5
36C
100
AcDbEntity
  8
0
100
AcDbLine
 62
7
  6
CONTINUOUS
 10
370.5434023042
 20
247.8820038915
 11
370.1766746503
 21
247.8820038915
  0
LINE
  5
36D
100
AcDbEntity
  8
0
100
AcDbLine
 62
7
  6
CONTINUOUS
 10
471.251943365
 20
247.8820038915
 11
471.8058086757
 21
247.8820038915
  0
LINE
  5
36E
100
AcDbEntity
  8
0
100
AcDbLine
 62
7
  6
CONTINUOUS
 10
472.8690623268
 20
248.6266856969
 11
473.410519596
 21
248.6266856969
  0
LINE
  5
36F
100
AcDbEntity
  8
0
100
AcDbLine
 62
7
  6
CONTINUOUS
 10
369.7674580892
 20
249.7437068403
 11
369.4055172903
 21
249.7437068403
  0
LINE
  5
370
100
AcDbEntity
  8
0
100
AcDbLine
 62
7
  6
CONTINUOUS
 10
472.1934752005
 20
249.7437068403
 11
472.745538568
 21
249.7437068403
  0
LINE
  5
371
100
AcDbEntity
  8
0
100
AcDbLine
 62
7
  6
CONTINUOUS
 10
473.3048820123
 20
249.7437068403
 11
473.8465820002
 21
249.7437068403
  0
LINE
  5
372
100
AcDbEntity
  8
0
100
AcDbLine
 62
7
  6
CONTINUOUS
 10
370.3892316705
 20
250.1160472215
 11
369.6122836213
 21
250.1160472215
  0
LINE
  5
373
100
AcDbEntity
  8
0
100
AcDbLine
 62
7
  6
CONTINUOUS
 10
473.6190067895
 20
250.4883876026
 11
474.0985559313
 21
250.4883876026
  0
LINE
  5
374
100
AcDbEntity
  8
0
100
AcDbLine
 62
7
  6
CONTINUOUS
 10
473.9190282089
 20
250.8607279838
 11
474.1764027036
 21
250.8607279838
  0
LINE
  5
375
100
AcDbEntity
  8
0
100
AcDbLine
 62
7
  6
CONTINUOUS
 10
369.328680765
 20
251.2330683649
 11
368.8051970892
 21
251.2330683649
  0
LINE
  5
376
100
AcDbEntity
  8
0
100
AcDbLine
 62
7
  6
CONTINUOUS
 10
473.0309858015
 20
251.2330683649
 11
473.5808584043
 21
251.2330683649
  0
LINE
  5
377
100
AcDbEntity
  8
0
100
AcDbLine
 62
7
  6
CONTINUOUS
 10
368.865995458
 20
252.3500895084
 11
368.4137840553
 21
252.3500895084
  0
LINE
  5
378
100
AcDbEntity
  8
0
100
AcDbLine
 62
7
  6
CONTINUOUS
 10
473.798656368
 20
252.3500895084
 11
474.3456469746
 21
252.3500895084
  0
LINE
  5
379
100
AcDbEntity
  8
0
100
AcDbLine
 62
7
  6
CONTINUOUS
 10
368.7117670223
 20
252.7224298895
 11
368.3854888529
 21
252.7224298895
  0
LINE
  5
37A
100
AcDbEntity
  8
0
100
AcDbLine
 62
7
  6
CONTINUOUS
 10
474.1940580858
 20
252.7224298895
 11
474.9202961856
 21
252.7224298895
  0
LINE
  5
37B
100
AcDbEntity
  8
RUNDUNGEN
100
AcDbLine
 62
7
  6
CONTINUOUS
 10
471.7583812222
 20
263.6018409265
 11
457.1825017315
 21
267.507436065
  0
LINE
  5
37C
100
AcDbEntity
  8
RUNDUNGEN
100
AcDbLine
 62
7
  6
CONTINUOUS
 10
438.6528925192
 20
291.6554707958
 11
438.6528925192
 21
380.224414934
  0
LINE
  5
37D
100
AcDbEntity
  8
0
100
AcDbLine
 62
7
  6
CONTINUOUS
 10
439.1528925192
 20
371.7224298895
 11
439.1528925192
 21
363.2224298895
  0
LINE
  5
37E
100
AcDbEntity
  8
0
100
AcDbLine
 62
7
  6
CONTINUOUS
 10
439.1528925192
 20
359.7909232761
 11
439.1528925192
 21
340.7686229767
  0
LINE
  5
37F
100
AcDbEntity
  8
KONSTRUKTIONSELEMENTE
100
AcDbLine
 62
7
  6
CONTINUOUS
 10
442.6528925192
 20
228.5224298895
 11
442.6528925192
 21
168.5224298895
  0
LINE
  5
380
100
AcDbEntity
  8
BEZUGSACHSEN
100
AcDbLine
 62
7
  6
CONTINUOUS
 10
371.5474038162
 20
263.6018409265
 11
386.123283307
 21
267.507436065
  0
LINE
  5
381
100
AcDbEntity
  8
RUNDUNGEN
100
AcDbLine
 62
7
  6
CONTINUOUS
 10
460.6528925192
 20
278.5224298895
 11
442.3806261849
 21
278.5224298895
  0
LINE
  5
382
100
AcDbEntity
  8
RUNDUNGEN
100
AcDbLine
 62
7
  6
CONTINUOUS
 10
400.9234612632
 20
278.5224298895
 11
382.6528925192
 21
278.5224298895
  0
LINE
  5
383
100
AcDbEntity
  8
RUNDUNGEN
100
AcDbLine
 62
7
  6
CONTINUOUS
 10
382.6528925192
 20
285.5224298895
 11
403.8880714177
 21
285.5224298895
  0
LINE
  5
384
100
AcDbEntity
  8
RUNDUNGEN
100
AcDbLine
 62
7
  6
CONTINUOUS
 10
439.4175958353
 20
285.5224298895
 11
460.6528925192
 21
285.5224298895
  0
LINE
  5
385
100
AcDbEntity
  8
RUNDUNGEN
100
AcDbLine
 62
7
  6
CONTINUOUS
 10
449.1528925192
 20
279.5224298895
 11
449.1528925192
 21
284.5224298895
  0
LINE
  5
386
100
AcDbEntity
  8
KONSTRUKTIONSELEMENTE
100
AcDbLine
 62
7
  6
CONTINUOUS
 10
452.4028925192
 20
228.7224298895
 11
452.4028925192
 21
228.5224298895
  0
LINE
  5
387
100
AcDbEntity
  8
RUNDUNGEN
100
AcDbLine
 62
7
  6
CONTINUOUS
 10
461.6528925192
 20
279.5224298895
 11
461.6528925192
 21
284.5224298895
  0
LINE
  5
388
100
AcDbEntity
  8
0
100
AcDbLine
 62
7
  6
CONTINUOUS
 10
464.6528925192
 20
228.7224298895
 11
467.3452806746
 21
235.2224298895
  0
LINE
  5
389
100
AcDbEntity
  8
0
100
AcDbLine
 62
7
  6
CONTINUOUS
 10
474.5940180162
 20
252.7224298895
 11
475.7487441467
 21
255.5101853746
  0
LINE
  5
38A
100
AcDbEntity
  8
0
100
AcDbLine
 62
7
  6
CONTINUOUS
 10
469.5058749915
 20
239.1320030272
 11
473.5158158456
 21
248.8128566214
  0
LINE
  5
38B
100
AcDbEntity
  8
0
100
AcDbLine
 62
7
  6
CONTINUOUS
 10
471.268969707
 20
243.4139193178
 11
470.9604552288
 21
242.6692385555
  0
LINE
  5
38C
100
AcDbEntity
  8
0
100
AcDbLine
 62
7
  6
CONTINUOUS
 10
438.6528925192
 20
340.7686229767
 11
439.1528925192
 21
340.7686229767
  0
LINE
  5
38D
100
AcDbEntity
  8
0
100
AcDbLine
 62
7
  6
CONTINUOUS
 10
438.6528925192
 20
344.7755613437
 11
439.1528925192
 21
344.7755613437
  0
LINE
  5
38E
100
AcDbEntity
  8
0
100
AcDbLine
 62
7
  6
CONTINUOUS
 10
438.6528925192
 20
345.5268622987
 11
439.1528925192
 21
345.5268622987
  0
LINE
  5
38F
100
AcDbEntity
  8
0
100
AcDbLine
 62
7
  6
CONTINUOUS
 10
438.6528925192
 20
349.0329333026
 11
439.1528925192
 21
349.0329333026
  0
LINE
  5
390
100
AcDbEntity
  8
0
100
AcDbLine
 62
7
  6
CONTINUOUS
 10
438.6528925192
 20
349.7842342577
 11
439.1528925192
 21
349.7842342577
  0
LINE
  5
391
100
AcDbEntity
  8
0
100
AcDbLine
 62
7
  6
CONTINUOUS
 10
438.6528925192
 20
350.7859689838
 11
439.1528925192
 21
350.7859689838
  0
LINE
  5
392
100
AcDbEntity
  8
0
100
AcDbLine
 62
7
  6
CONTINUOUS
 10
438.6528925192
 20
353.7911728038
 11
439.1528925192
 21
353.7911728038
  0
LINE
  5
393
100
AcDbEntity
  8
0
100
AcDbLine
 62
7
  6
CONTINUOUS
 10
438.6528925192
 20
354.2893756958
 11
439.1528925192
 21
354.2893756958
  0
LINE
  5
394
100
AcDbEntity
  8
0
100
AcDbLine
 62
7
  6
CONTINUOUS
 10
438.6528925192
 20
354.4066002428
 11
439.1528925192
 21
354.4066002428
  0
LINE
  5
395
100
AcDbEntity
  8
0
100
AcDbLine
 62
7
  6
CONTINUOUS
 10
438.6528925192
 20
354.606414258
 11
439.1528925192
 21
354.606414258
  0
LINE
  5
396
100
AcDbEntity
  8
0
100
AcDbLine
 62
7
  6
CONTINUOUS
 10
438.6528925192
 20
354.6170714258
 11
439.1528925192
 21
354.6170714258
  0
LINE
  5
397
100
AcDbEntity
  8
0
100
AcDbLine
 62
7
  6
CONTINUOUS
 10
438.6528925192
 20
355.0033776382
 11
439.1528925192
 21
355.0033776382
  0
LINE
  5
398
100
AcDbEntity
  8
0
100
AcDbLine
 62
7
  6
CONTINUOUS
 10
438.6528925192
 20
355.5149019899
 11
439.1528925192
 21
355.5149019899
  0
LINE
  5
399
100
AcDbEntity
  8
0
100
AcDbLine
 62
7
  6
CONTINUOUS
 10
438.6528925192
 20
356.1516437646
 11
439.1528925192
 21
356.1516437646
  0
LINE
  5
39A
100
AcDbEntity
  8
0
100
AcDbLine
 62
7
  6
CONTINUOUS
 10
438.6528925192
 20
357.1640345837
 11
439.1528925192
 21
357.1640345837
  0
LINE
  5
39B
100
AcDbEntity
  8
0
100
AcDbLine
 62
7
  6
CONTINUOUS
 10
438.6528925192
 20
357.9206634062
 11
439.1528925192
 21
357.9206634062
  0
LINE
  5
39C
100
AcDbEntity
  8
0
100
AcDbLine
 62
7
  6
CONTINUOUS
 10
438.6528925192
 20
358.5494126632
 11
439.1528925192
 21
358.5494126632
  0
LINE
  5
39D
100
AcDbEntity
  8
0
100
AcDbLine
 62
7
  6
CONTINUOUS
 10
438.6528925192
 20
359.175495837
 11
439.1528925192
 21
359.175495837
  0
LINE
  5
39E
100
AcDbEntity
  8
0
100
AcDbLine
 62
7
  6
CONTINUOUS
 10
438.6528925192
 20
359.6736994455
 11
439.1528925192
 21
359.6736994455
  0
LINE
  5
39F
100
AcDbEntity
  8
0
100
AcDbLine
 62
7
  6
CONTINUOUS
 10
438.6528925192
 20
359.7909232761
 11
439.1528925192
 21
359.7909232761
  0
LINE
  5
3A0
100
AcDbEntity
  8
0
100
AcDbLine
 62
7
  6
CONTINUOUS
 10
438.6528925192
 20
363.2224298895
 11
439.1528925192
 21
363.2224298895
  0
LINE
  5
3A1
100
AcDbEntity
  8
0
100
AcDbLine
 62
7
  6
CONTINUOUS
 10
438.6528925192
 20
371.7224298895
 11
439.1528925192
 21
371.7224298895
  0
LINE
  5
3A2
100
AcDbEntity
  8
KONSTRUKTIONSELEMENTE
100
AcDbLine
 62
7
  6
CONTINUOUS
 10
442.6528925192
 20
168.5224298895
 11
439.6528925192
 21
165.5224298895
  0
LINE
  5
3A3
100
AcDbEntity
  8
RUNDUNGEN
100
AcDbLine
 62
7
  6
CONTINUOUS
 10
432.6528925192
 20
386.224414934
 11
410.6528925192
 21
386.224414934
  0
LWPOLYLINE
  5
3A4
100
AcDbEntity
  8
BEZUGSACHSEN
100
AcDbPolyline
 62
7
  6
CONTINUOUS
 90
10
 70
0
 10
139.8763543729
 20
111.5185833164
 10
138.3574024448
 20
110.1562369581
 10
136.7826286004
 20
108.6798420185
 10
135.2780222431
 20
107.2085374013
 10
133.8509819123
 20
105.7594149585
 10
132.5047068153
 20
104.3465857819
 10
131.2423688402
 20
102.9845973473
 10
130.0667059588
 20
101.6876780018
 10
128.9755695627
 20
100.4640429442
 10
127.9716004761
 20
99.326186685
  0
LWPOLYLINE
  5
3A5
100
AcDbEntity
  8
RUNDUNGEN
100
AcDbPolyline
 62
7
  6
CONTINUOUS
 90
7
 70
0
 10
104.6668161399
 20
73.0310051973
 10
104.6785755908
 20
71.2369614092
 10
104.7185876601
 20
69.2672727484
 10
104.7874102917
 20
67.2857420114
 10
104.8854417755
 20
65.2950084333
 10
105.0128750239
 20
63.2976525262
 10
105.1499932541
 20
61.5289301709
  0
LWPOLYLINE
  5
3A6
100
AcDbEntity
  8
BEZUGSACHSEN
100
AcDbPolyline
 62
7
  6
CONTINUOUS
 90
7
 70
0
 10
105.1499932541
 20
84.5330802238
 10
105.0128750239
 20
82.7643578684
 10
104.8854417755
 20
80.7670019613
 10
104.7874102917
 20
78.7762683832
 10
104.7185876601
 20
76.7947376462
 10
104.6785755908
 20
74.8250489854
 10
104.6668161399
 20
73.0310051973
  0
LWPOLYLINE
  5
3A7
100
AcDbEntity
  8
BEZUGSACHSEN
100
AcDbPolyline
 62
7
  6
CONTINUOUS
 90
18
 70
0
 10
127.9716004761
 20
99.326186685
 10
126.1738145411
 20
97.2798020748
 10
125.3615200737
 20
96.3617207788
 10
124.5926434517
 20
95.503569988
 10
123.8669093546
 20
94.7086562205
 10
123.1801842069
 20
93.9752996865
 10
122.5360145379
 20
93.309215224
 10
121.9364980899
 20
92.7132132812
 10
121.3823482059
 20
92.1874135701
 10
120.8768163947
 20
91.732966615
 10
120.4153369665
 20
91.3429685211
 10
119.9965927522
 20
91.0131759267
 10
119.6182239193
 20
90.738290628
 10
119.2785995085
 20
90.5135903445
 10
118.9800413825
 20
90.3366715599
 10
118.7244515239
 20
90.204036233
 10
118.5177107459
 20
90.1130442704
 10
118.4745932955
 20
90.0963917267
  0
LWPOLYLINE
  5
3A8
100
AcDbEntity
  8
BEZUGSACHSEN
100
AcDbPolyline
 62
7
  6
CONTINUOUS
 90
4
 70
0
 10
118.4745932955
 20
90.0963917267
 10
118.3659883425
 20
90.0590534337
 10
118.2741012368
 20
90.0346156393
 10
118.2539816383
 20
90.0310051973
  0
LINE
  5
3A9
100
AcDbEntity
  8
0
100
AcDbLine
 62
7
  6
CONTINUOUS
 10
129.875136458
 20
56.0310051973
 11
129.875136458
 21
55.5310051973
  0
LINE
  5
3AA
100
AcDbEntity
  8
0
100
AcDbLine
 62
7
  6
CONTINUOUS
 10
130.6264374131
 20
56.0310051973
 11
130.6264374131
 21
55.5310051973
  0
LINE
  5
3AB
100
AcDbEntity
  8
0
100
AcDbLine
 62
7
  6
CONTINUOUS
 10
134.132508417
 20
56.0310051973
 11
134.132508417
 21
55.5310051973
  0
LINE
  5
3AC
100
AcDbEntity
  8
0
100
AcDbLine
 62
7
  6
CONTINUOUS
 10
134.883809372
 20
56.0310051973
 11
134.883809372
 21
55.5310051973
  0
LINE
  5
3AD
100
AcDbEntity
  8
0
100
AcDbLine
 62
7
  6
CONTINUOUS
 10
135.8855440981
 20
56.0310051973
 11
135.8855440981
 21
55.5310051973
  0
LINE
  5
3AE
100
AcDbEntity
  8
0
100
AcDbLine
 62
7
  6
CONTINUOUS
 10
138.8907479182
 20
56.0310051973
 11
138.8907479182
 21
55.5310051973
  0
LINE
  5
3AF
100
AcDbEntity
  8
0
100
AcDbLine
 62
7
  6
CONTINUOUS
 10
139.6447128069
 20
56.0310051973
 11
139.6447128069
 21
55.5310051973
  0
LINE
  5
3B0
100
AcDbEntity
  8
0
100
AcDbLine
 62
7
  6
CONTINUOUS
 10
140.5292233442
 20
56.0310051973
 11
140.5292233442
 21
55.5310051973
  0
LINE
  5
3B1
100
AcDbEntity
  8
0
100
AcDbLine
 62
7
  6
CONTINUOUS
 10
141.4163978152
 20
56.0310051973
 11
141.4163978152
 21
55.5310051973
  0
LINE
  5
3B2
100
AcDbEntity
  8
0
100
AcDbLine
 62
7
  6
CONTINUOUS
 10
141.925257875
 20
56.0310051973
 11
141.925257875
 21
55.5310051973
  0
LINE
  5
3B3
100
AcDbEntity
  8
0
100
AcDbLine
 62
7
  6
CONTINUOUS
 10
142.4367822267
 20
56.0310051973
 11
142.4367822267
 21
55.5310051973
  0
LINE
  5
3B4
100
AcDbEntity
  8
0
100
AcDbLine
 62
7
  6
CONTINUOUS
 10
142.6952081572
 20
56.0310051973
 11
142.6952081572
 21
55.5310051973
  0
LINE
  5
3B5
100
AcDbEntity
  8
0
100
AcDbLine
 62
7
  6
CONTINUOUS
 10
142.8310816732
 20
56.0310051973
 11
142.8310816732
 21
55.5310051973
  0
LINE
  5
3B6
100
AcDbEntity
  8
0
100
AcDbLine
 62
7
  6
CONTINUOUS
 10
143.0308956884
 20
56.0310051973
 11
143.0308956884
 21
55.5310051973
  0
LINE
  5
3B7
100
AcDbEntity
  8
0
100
AcDbLine
 62
7
  6
CONTINUOUS
 10
143.2760005173
 20
56.0310051973
 11
143.2760005173
 21
55.5310051973
  0
LINE
  5
3B8
100
AcDbEntity
  8
0
100
AcDbLine
 62
7
  6
CONTINUOUS
 10
143.6489877776
 20
56.0310051973
 11
143.6489877776
 21
55.5310051973
  0
LINE
  5
3B9
100
AcDbEntity
  8
0
100
AcDbLine
 62
7
  6
CONTINUOUS
 10
144.2750709514
 20
56.0310051973
 11
144.2750709514
 21
55.5310051973
  0
LINE
  5
3BA
100
AcDbEntity
  8
0
100
AcDbLine
 62
7
  6
CONTINUOUS
 10
145.0290365566
 20
56.0310051973
 11
145.0290365566
 21
55.5310051973
  0
LINE
  5
3BB
100
AcDbEntity
  8
0
100
AcDbLine
 62
7
  6
CONTINUOUS
 10
145.9135463774
 20
56.0310051973
 11
145.9135463774
 21
55.5310051973
  0
LINE
  5
3BC
100
AcDbEntity
  8
0
100
AcDbLine
 62
7
  6
CONTINUOUS
 10
146.8007208484
 20
56.0310051973
 11
146.8007208484
 21
55.5310051973
  0
LINE
  5
3BD
100
AcDbEntity
  8
0
100
AcDbLine
 62
7
  6
CONTINUOUS
 10
147.3095816247
 20
56.0310051973
 11
147.3095816247
 21
55.5310051973
  0
LINE
  5
3BE
100
AcDbEntity
  8
0
100
AcDbLine
 62
7
  6
CONTINUOUS
 10
147.7118732305
 20
56.0310051973
 11
147.7118732305
 21
55.5310051973
  0
LINE
  5
3BF
100
AcDbEntity
  8
0
100
AcDbLine
 62
7
  6
CONTINUOUS
 10
148.468503486
 20
56.0310051973
 11
148.468503486
 21
55.5310051973
  0
LINE
  5
3C0
100
AcDbEntity
  8
0
100
AcDbLine
 62
7
  6
CONTINUOUS
 10
149.4808943051
 20
56.0310051973
 11
149.4808943051
 21
55.5310051973
  0
LINE
  5
3C1
100
AcDbEntity
  8
0
100
AcDbLine
 62
7
  6
CONTINUOUS
 10
150.2428526071
 20
56.0310051973
 11
150.2428526071
 21
55.5310051973
  0
LINE
  5
3C2
100
AcDbEntity
  8
0
100
AcDbLine
 62
7
  6
CONTINUOUS
 10
150.882257599
 20
56.0310051973
 11
150.882257599
 21
55.5310051973
  0
LINE
  5
3C3
100
AcDbEntity
  8
0
100
AcDbLine
 62
7
  6
CONTINUOUS
 10
151.1433475527
 20
56.0310051973
 11
151.1433475527
 21
55.5310051973
  0
LINE
  5
3C4
100
AcDbEntity
  8
0
100
AcDbLine
 62
7
  6
CONTINUOUS
 10
151.1540047653
 20
56.0310051973
 11
151.1540047653
 21
55.5310051973
  0
LWPOLYLINE
  5
3C5
100
AcDbEntity
  8
RUNDUNGEN
100
AcDbPolyline
 62
7
  6
CONTINUOUS
 90
37
 70
0
 10
139.8763568924
 20
34.5434211173
 10
141.7136251761
 20
32.9939779811
 10
143.7391838796
 20
31.4191147114
 10
145.8375497686
 20
29.9209753523
 10
148.005401953
 20
28.5027510654
 10
150.2394966165
 20
27.1673712047
 10
152.5357854697
 20
25.9181299273
 10
154.8901258838
 20
24.7581278767
 10
157.2983863623
 20
23.6898061715
 10
159.756360463
 20
22.7154252087
 10
162.259522423
 20
21.8373593981
 10
164.80326647
 20
21.0578104391
 10
167.382969878
 20
20.3784039289
 10
169.994075412
 20
19.8005677306
 10
172.6313797821
 20
19.325876822
 10
175.2897530822
 20
18.9556595983
 10
177.9639604376
 20
18.6906657331
 10
180.648774687
 20
18.531419265
 10
183.3388948977
 20
18.4784311491
 10
186.0290022705
 20
18.5319908516
 10
188.7137768775
 20
18.6918066326
 10
191.3879175718
 20
18.957367431
 10
194.046196447
 20
19.328148954
 10
196.6833775726
 20
19.803398771
 10
199.2943304168
 20
20.3817856224
 10
201.8738515837
 20
21.0617339047
 10
204.4173851585
 20
21.8418155463
 10
206.920308243
 20
22.7204020169
 10
209.3780153303
 20
23.6952886621
 10
211.7859824398
 20
24.7641010817
 10
214.1400052997
 20
25.9245791457
 10
216.4359521376
 20
27.1742785035
 10
218.6696811774
 20
28.5100956518
 10
220.8371480314
 20
29.9287378571
 10
222.9351135547
 20
31.4272779886
 10
224.9602561591
 20
33.0025227689
 10
224.9940220401
 20
33.0310051973
  0
LWPOLYLINE
  5
3C6
100
AcDbEntity
  8
RUNDUNGEN
100
AcDbPolyline
 62
7
  6
CONTINUOUS
 90
11
 70
0
 10
126.1745251981
 20
48.7814016971
 10
127.9724334625
 20
46.7348764565
 10
128.9762466159
 20
45.5972033513
 10
130.0669478407
 20
44.3740630801
 10
131.24202889
 20
43.0777843145
 10
132.5037064579
 20
41.7164901935
 10
133.8493903472
 20
40.3042400212
 10
135.2760671757
 20
38.8554229188
 10
136.7806948568
 20
37.3840214522
 10
138.3561248055
 20
35.9069448026
 10
139.8763543429
 20
34.5434271046
  0
LINE
  5
3C7
100
AcDbEntity
  8
0
100
AcDbLine
 62
7
  6
CONTINUOUS
 10
176.8733390266
 20
100.5310051973
 11
176.575084327
 21
99.6781236754
  0
LINE
  5
3C8
100
AcDbEntity
  8
0
100
AcDbLine
 62
7
  6
CONTINUOUS
 10
168.7483390266
 20
100.5310051973
 11
168.7483390266
 21
96.3285034393
  0
LINE
  5
3C9
100
AcDbEntity
  8
0
100
AcDbLine
 62
7
  6
CONTINUOUS
 10
169.9983390266
 20
97.0694164349
 11
169.9983390266
 21
98.4033458765
  0
LINE
  5
3CA
100
AcDbEntity
  8
0
100
AcDbLine
 62
7
  6
CONTINUOUS
 10
171.8212550575
 20
56.0310051973
 11
171.8212550575
 21
55.5310051973
  0
LINE
  5
3CB
100
AcDbEntity
  8
0
100
AcDbLine
 62
7
  6
CONTINUOUS
 10
176.0712550575
 20
56.0310051973
 11
176.0712550575
 21
55.5310051973
  0
LINE
  5
3CC
100
AcDbEntity
  8
0
100
AcDbLine
 62
7
  6
CONTINUOUS
 10
176.9566718931
 20
56.0310051973
 11
176.9566718931
 21
55.5310051973
  0
LINE
  5
3CD
100
AcDbEntity
  8
0
100
AcDbLine
 62
7
  6
CONTINUOUS
 10
177.6650050575
 20
56.0310051973
 11
177.6650050575
 21
55.5310051973
  0
LINE
  5
3CE
100
AcDbEntity
  8
0
100
AcDbLine
 62
7
  6
CONTINUOUS
 10
178.1962550575
 20
56.0310051973
 11
178.1962550575
 21
55.5310051973
  0
LINE
  5
3CF
100
AcDbEntity
  8
0
100
AcDbLine
 62
7
  6
CONTINUOUS
 10
178.373338222
 20
56.0310051973
 11
178.373338222
 21
55.5310051973
  0
LINE
  5
3D0
100
AcDbEntity
  8
0
100
AcDbLine
 62
7
  6
CONTINUOUS
 10
178.5504218931
 20
56.0310051973
 11
178.5504218931
 21
55.5310051973
  0
LINE
  5
3D1
100
AcDbEntity
  8
0
100
AcDbLine
 62
7
  6
CONTINUOUS
 10
178.7483390266
 20
100.1316513269
 11
178.7483390266
 21
100.5310051973
  0
LINE
  5
3D2
100
AcDbEntity
  8
0
100
AcDbLine
 62
7
  6
CONTINUOUS
 10
179.967088222
 20
56.0310051973
 11
179.967088222
 21
55.5310051973
  0
LINE
  5
3D3
100
AcDbEntity
  8
0
100
AcDbLine
 62
7
  6
CONTINUOUS
 10
181.0295887286
 20
56.0310051973
 11
181.0295887286
 21
55.5310051973
  0
LINE
  5
3D4
100
AcDbEntity
  8
0
100
AcDbLine
 62
7
  6
CONTINUOUS
 10
181.2066713864
 20
56.0310051973
 11
181.2066713864
 21
55.5310051973
  0
LINE
  5
3D5
100
AcDbEntity
  8
0
100
AcDbLine
 62
7
  6
CONTINUOUS
 10
181.5608387286
 20
56.0310051973
 11
181.5608387286
 21
55.5310051973
  0
LINE
  5
3D6
100
AcDbEntity
  8
0
100
AcDbLine
 62
7
  6
CONTINUOUS
 10
182.0920887286
 20
56.0310051973
 11
182.0920887286
 21
55.5310051973
  0
LINE
  5
3D7
100
AcDbEntity
  8
0
100
AcDbLine
 62
7
  6
CONTINUOUS
 10
182.8004213864
 20
56.0310051973
 11
182.8004213864
 21
55.5310051973
  0
LINE
  5
3D8
100
AcDbEntity
  8
0
100
AcDbLine
 62
7
  6
CONTINUOUS
 10
183.5087550575
 20
56.0310051973
 11
183.5087550575
 21
55.5310051973
  0
LINE
  5
3D9
100
AcDbEntity
  8
0
100
AcDbLine
 62
7
  6
CONTINUOUS
 10
184.2170887286
 20
56.0310051973
 11
184.2170887286
 21
55.5310051973
  0
LINE
  5
3DA
100
AcDbEntity
  8
RUNDUNGEN
100
AcDbLine
 62
7
  6
CONTINUOUS
 10
207.6986588578
 20
33.0310051973
 11
255.8316729958
 21
33.0310051973
  0
LWPOLYLINE
  5
3DB
100
AcDbEntity
  8
RUNDUNGEN
100
AcDbPolyline
 62
7
  6
CONTINUOUS
 90
17
 70
0
 10
118.3660365967
 20
56.0029420878
 10
118.5177993077
 20
55.9489309857
 10
118.7245832859
 20
55.8579110403
 10
118.9802141484
 20
55.7252428306
 10
119.2788058338
 20
55.5482906674
 10
119.6184548466
 20
55.3235594649
 10
119.9968358965
 20
55.0486503707
 10
120.4155838275
 20
54.7188403166
 10
120.877061425
 20
54.3288300481
 10
121.3825890507
 20
53.8743742348
 10
121.9367340192
 20
53.3485677771
 10
122.5362545613
 20
52.752551595
 10
123.1804454151
 20
52.0864359612
 10
123.8672204709
 20
51.3530173591
 10
124.593058418
 20
50.5579811518
 10
125.362067086
 20
49.6996746526
 10
126.1745251981
 20
48.7814016971
  0
LINE
  5
3DC
100
AcDbEntity
  8
0
100
AcDbLine
 62
7
  6
CONTINUOUS
 10
184.7483387286
 20
56.0310051973
 11
184.7483387286
 21
55.5310051973
  0
LINE
  5
3DD
100
AcDbEntity
  8
0
100
AcDbLine
 62
7
  6
CONTINUOUS
 10
185.1025050575
 20
56.0310051973
 11
185.1025050575
 21
55.5310051973
  0
LINE
  5
3DE
100
AcDbEntity
  8
0
100
AcDbLine
 62
7
  6
CONTINUOUS
 10
185.2795887286
 20
56.0310051973
 11
185.2795887286
 21
55.5310051973
  0
LINE
  5
3DF
100
AcDbEntity
  8
0
100
AcDbLine
 62
7
  6
CONTINUOUS
 10
186.3420887286
 20
56.0310051973
 11
186.3420887286
 21
55.5310051973
  0
LINE
  5
3E0
100
AcDbEntity
  8
0
100
AcDbLine
 62
7
  6
CONTINUOUS
 10
187.7587550575
 20
56.0310051973
 11
187.7587550575
 21
55.5310051973
  0
LINE
  5
3E1
100
AcDbEntity
  8
0
100
AcDbLine
 62
7
  6
CONTINUOUS
 10
192.0087550575
 20
56.0310051973
 11
192.0087550575
 21
55.5310051973
  0
LINE
  5
3E2
100
AcDbEntity
  8
0
100
AcDbLine
 62
7
  6
CONTINUOUS
 10
192.8941723997
 20
56.0310051973
 11
192.8941723997
 21
55.5310051973
  0
LINE
  5
3E3
100
AcDbEntity
  8
0
100
AcDbLine
 62
7
  6
CONTINUOUS
 10
193.6025050575
 20
56.0310051973
 11
193.6025050575
 21
55.5310051973
  0
LINE
  5
3E4
100
AcDbEntity
  8
0
100
AcDbLine
 62
7
  6
CONTINUOUS
 10
194.3108377153
 20
56.0310051973
 11
194.3108377153
 21
55.5310051973
  0
LINE
  5
3E5
100
AcDbEntity
  8
0
100
AcDbLine
 62
7
  6
CONTINUOUS
 10
194.6650050575
 20
56.0310051973
 11
194.6650050575
 21
55.5310051973
  0
LINE
  5
3E6
100
AcDbEntity
  8
0
100
AcDbLine
 62
7
  6
CONTINUOUS
 10
194.8420877153
 20
56.0310051973
 11
194.8420877153
 21
55.5310051973
  0
LWPOLYLINE
  5
3E7
100
AcDbEntity
  8
RUNDUNGEN
100
AcDbPolyline
 62
7
  6
CONTINUOUS
 90
4
 70
0
 10
248.190277931
 20
55.966190546
 10
248.2984529401
 20
56.003294034
 10
248.3897595209
 20
56.0275031398
 10
248.4093311293
 20
56.0310051973
  0
LINE
  5
3E8
100
AcDbEntity
  8
RUNDUNGEN
100
AcDbLine
 62
7
  6
CONTINUOUS
 10
260.3316729958
 20
48.0310051973
 11
222.8316729958
 21
48.0310051973
  0
LWPOLYLINE
  5
3E9
100
AcDbEntity
  8
RUNDUNGEN
100
AcDbPolyline
 62
7
  6
CONTINUOUS
 90
3
 70
0
 10
118.2672160191
 20
56.0288055422
 10
118.2741176492
 20
56.0273912911
 10
118.3660365967
 20
56.0029420878
  0
LINE
  5
3EA
100
AcDbEntity
  8
0
100
AcDbLine
 62
7
  6
CONTINUOUS
 10
169.9983390266
 20
98.4033458765
 11
170.4108605704
 21
97.2899137939
  0
LINE
  5
3EB
100
AcDbEntity
  8
0
100
AcDbLine
 62
7
  6
CONTINUOUS
 10
171.5540433215
 20
97.8695869651
 11
170.6233390266
 21
100.5310051973
  0
LINE
  5
3EC
100
AcDbEntity
  8
0
100
AcDbLine
 62
7
  6
CONTINUOUS
 10
233.2829388652
 20
55.5310051973
 11
220.3317297245
 21
55.5310051973
  0
LINE
  5
3ED
100
AcDbEntity
  8
0
100
AcDbLine
 62
7
  6
CONTINUOUS
 10
194.8420877153
 20
55.5310051973
 11
187.7587550575
 21
55.5310051973
  0
LINE
  5
3EE
100
AcDbEntity
  8
0
100
AcDbLine
 62
7
  6
CONTINUOUS
 10
186.3420887286
 20
55.5310051973
 11
179.967088222
 21
55.5310051973
  0
LINE
  5
3EF
100
AcDbEntity
  8
0
100
AcDbLine
 62
7
  6
CONTINUOUS
 10
178.5504218931
 20
55.5310051973
 11
171.8212550575
 21
55.5310051973
  0
LINE
  5
3F0
100
AcDbEntity
  8
0
100
AcDbLine
 62
7
  6
CONTINUOUS
 10
151.1540047653
 20
55.5310051973
 11
129.875136458
 21
55.5310051973
  0
LINE
  5
3F1
100
AcDbEntity
  8
RUNDUNGEN
100
AcDbLine
 62
7
  6
CONTINUOUS
 10
111.1289497871
 20
56.0310051973
 11
255.5344015542
 21
56.0310051973
  0
LINE
  5
3F2
100
AcDbEntity
  8
RUNDUNGEN
100
AcDbLine
 62
7
  6
CONTINUOUS
 10
268.3316729958
 20
60.0310051973
 11
265.3316729958
 21
60.0310051973
  0
LINE
  5
3F3
100
AcDbEntity
  8
0
100
AcDbLine
 62
7
  6
CONTINUOUS
 10
220.3316729958
 20
56.0310051973
 11
220.3316729958
 21
55.5310051973
  0
LWPOLYLINE
  5
3F4
100
AcDbEntity
  8
RUNDUNGEN
100
AcDbPolyline
 62
7
  6
CONTINUOUS
 90
18
 70
0
 10
239.8292720115
 20
48.0310051973
 10
240.4955553386
 20
48.7890454169
 10
241.3078415867
 20
49.7070521607
 10
242.0766641748
 20
50.5650377554
 10
242.802301259
 20
51.3597025418
 10
243.4888475765
 20
52.0926903374
 10
244.1327875173
 20
52.758330816
 10
244.7320383292
 20
53.3538415681
 10
245.2858926534
 20
53.879119535
 10
245.7911067306
 20
54.3330348579
 10
246.2522475739
 20
54.7225013084
 10
246.6706384613
 20
55.0517750226
 10
247.0486316033
 20
55.3261546234
 10
247.3878520255
 20
55.5503663183
 10
247.6859710496
 20
55.7268195253
 10
247.941079815
 20
55.8590201413
 10
248.1472980612
 20
55.9496252124
 10
248.190277931
 20
55.966190546
  0
LINE
  5
3F5
100
AcDbEntity
  8
0
100
AcDbLine
 62
7
  6
CONTINUOUS
 10
228.0529388652
 20
56.0310051973
 11
228.0529388652
 21
55.5310051973
  0
LINE
  5
3F6
100
AcDbEntity
  8
0
100
AcDbLine
 62
7
  6
CONTINUOUS
 10
233.2829388652
 20
56.0310051973
 11
233.2829388652
 21
55.5310051973
  0
LINE
  5
3F7
100
AcDbEntity
  8
RUNDUNGEN
100
AcDbLine
 62
7
  6
CONTINUOUS
 10
265.3316729958
 20
86.0310051973
 11
268.3316729958
 21
86.0310051973
  0
LINE
  5
3F8
100
AcDbEntity
  8
BEZUGSACHSEN
100
AcDbLine
 62
7
  6
CONTINUOUS
 10
111.1289497871
 20
90.0310051973
 11
255.5344015542
 21
90.0310051973
  0
LINE
  5
3F9
100
AcDbEntity
  8
RUNDUNGEN
100
AcDbLine
 62
7
  6
CONTINUOUS
 10
222.8316729958
 20
98.0310051973
 11
260.3316729958
 21
98.0310051973
  0
LINE
  5
3FA
100
AcDbEntity
  8
0
100
AcDbLine
 62
7
  6
CONTINUOUS
 10
178.7483390266
 20
100.5310051973
 11
176.8733390266
 21
100.5310051973
  0
LINE
  5
3FB
100
AcDbEntity
  8
0
100
AcDbLine
 62
7
  6
CONTINUOUS
 10
170.6233390266
 20
100.5310051973
 11
168.7483390266
 21
100.5310051973
  0
LWPOLYLINE
  5
3FC
100
AcDbEntity
  8
BEZUGSACHSEN
100
AcDbPolyline
 62
7
  6
CONTINUOUS
 90
3
 70
0
 10
248.3966006625
 20
90.0331117344
 10
248.3897752274
 20
90.0345039538
 10
248.298499342
 20
90.0587020984
  0
LWPOLYLINE
  5
3FD
100
AcDbEntity
  8
BEZUGSACHSEN
100
AcDbPolyline
 62
7
  6
CONTINUOUS
 90
18
 70
0
 10
248.298499342
 20
90.0587020984
 10
248.1473833356
 20
90.1123514188
 10
247.9412067582
 20
90.202929541
 10
247.6861375119
 20
90.3350984937
 10
247.388050759
 20
90.511519597
 10
247.0488538733
 20
90.7357016293
 10
246.6708721505
 20
91.0100585815
 10
246.2524844429
 20
91.3393158275
 10
245.7913414854
 20
91.7287708943
 10
245.2861231837
 20
92.1826779141
 10
244.7322641902
 20
92.7079493737
 10
244.1330178299
 20
93.303445942
 10
243.489099427
 20
93.9690552296
 10
242.8026031528
 20
94.7019810947
 10
242.0770694372
 20
95.4965241962
 10
241.3083781177
 20
96.3543551172
 10
240.4962543067
 20
97.2721716638
 10
239.8292715021
 20
98.0310051973
  0
LWPOLYLINE
  5
3FE
100
AcDbEntity
  8
BEZUGSACHSEN
100
AcDbPolyline
 62
7
  6
CONTINUOUS
 90
7
 70
0
 10
261.9965401337
 20
73.0310051973
 10
261.9846266414
 20
74.8354628859
 10
261.9445271863
 20
76.8034097966
 10
261.8755771729
 20
78.7843195967
 10
261.777405131
 20
80.7756249529
 10
261.6497535321
 20
82.7746514904
 10
261.5133604743
 20
84.5330517962
  0
LINE
  5
3FF
100
AcDbEntity
  8
RUNDUNGEN
100
AcDbLine
 62
7
  6
CONTINUOUS
 10
262.8316729958
 20
95.5310051973
 11
262.8316729958
 21
88.5310051973
  0
LINE
  5
400
100
AcDbEntity
  8
RUNDUNGEN
100
AcDbLine
 62
7
  6
CONTINUOUS
 10
262.8316729958
 20
57.5310051973
 11
262.8316729958
 21
50.5310051973
  0
LWPOLYLINE
  5
401
100
AcDbEntity
  8
RUNDUNGEN
100
AcDbPolyline
 62
7
  6
CONTINUOUS
 90
7
 70
0
 10
261.5133604743
 20
61.5289585984
 10
261.6497535321
 20
63.2873589042
 10
261.777405131
 20
65.2863854417
 10
261.8755771729
 20
67.2776907979
 10
261.9445271863
 20
69.258600598
 10
261.9846266414
 20
71.2265475087
 10
261.9965401337
 20
73.0310051973
  0
LINE
  5
402
100
AcDbEntity
  8
RUNDUNGEN
100
AcDbLine
 62
7
  6
CONTINUOUS
 10
255.8316729958
 20
113.0310051973
 11
207.6986588578
 21
113.0310051973
  0
LWPOLYLINE
  5
403
100
AcDbEntity
  8
BEZUGSACHSEN
100
AcDbPolyline
 62
7
  6
CONTINUOUS
 90
37
 70
0
 10
224.9940220401
 20
113.0310051973
 10
224.9602561591
 20
113.0594876257
 10
222.9351135547
 20
114.634732406
 10
220.8371480314
 20
116.1332725375
 10
218.6696811774
 20
117.5519147428
 10
216.4359521376
 20
118.8877318911
 10
214.1400052997
 20
120.1374312489
 10
211.7859824398
 20
121.2979093129
 10
209.3780153303
 20
122.3667217325
 10
206.920308243
 20
123.3416083777
 10
204.4173851585
 20
124.2201948483
 10
201.8738515837
 20
125.0002764899
 10
199.2943304168
 20
125.6802247722
 10
196.6833775726
 20
126.2586116236
 10
194.046196447
 20
126.7338614407
 10
191.3879175718
 20
127.1046429636
 10
188.7137768775
 20
127.370203762
 10
186.0290022705
 20
127.530019543
 10
183.3388948977
 20
127.5835792456
 10
180.648774687
 20
127.5305911296
 10
177.9639604376
 20
127.3713446615
 10
175.2897530822
 20
127.1063507964
 10
172.6313797821
 20
126.7361335726
 10
169.994075412
 20
126.261442664
 10
167.382969878
 20
125.6836064657
 10
164.80326647
 20
125.0041999555
 10
162.259522423
 20
124.2246509966
 10
159.756360463
 20
123.3465851859
 10
157.2983863623
 20
122.3722042232
 10
154.8901258838
 20
121.3038825179
 10
152.5357854697
 20
120.1438804673
 10
150.2394966165
 20
118.8946391899
 10
148.005401953
 20
117.5592593292
 10
145.8375497686
 20
116.1410350423
 10
143.7391838796
 20
114.6428956832
 10
141.7136251761
 20
113.0680324135
 10
139.8763568924
 20
111.5185892773
  0
LINE
  5
404
100
AcDbEntity
  8
RUNDUNGEN
100
AcDbLine
 62
7
  6
CONTINUOUS
 10
270.8316729958
 20
48.0310051973
 11
270.8316729958
 21
57.5310051973
  0
LINE
  5
405
100
AcDbEntity
  8
RUNDUNGEN
100
AcDbLine
 62
7
  6
CONTINUOUS
 10
270.8316729958
 20
88.5310051973
 11
270.8316729958
 21
98.0310051973
  0
ARC
  5
406
100
AcDbEntity
  8
0
100
AcDbCircle
 62
7
  6
CONTINUOUS
 10
157.9779882513
 20
306.9764205881
 40
65.8590030372
100
AcDbArc
 50
332.2467323065
 51
334.402410754
  0
ARC
  5
407
100
AcDbEntity
  8
0
100
AcDbCircle
 62
7
  6
CONTINUOUS
 10
183.3316729958
 20
314.2224298895
 40
45.0
100
AcDbArc
 50
330.2532183156
 51
332.3714860311
  0
ARC
  5
408
100
AcDbEntity
  8
0
100
AcDbCircle
 62
7
  6
CONTINUOUS
 10
183.3316729958
 20
314.2224298895
 40
45.0
100
AcDbArc
 50
207.6285211096
 51
209.746786026
  0
ARC
  5
409
100
AcDbEntity
  8
RUNDUNGEN
100
AcDbCircle
 62
7
  6
CONTINUOUS
 10
183.3316729958
 20
307.7224298895
 40
42.5
100
AcDbArc
 50
342.5779332335
 51
197.4220667665
  0
ARC
  5
40A
100
AcDbEntity
  8
BEZUGSACHSEN
100
AcDbCircle
 62
7
  6
CONTINUOUS
 10
123.8316729958
 20
228.7224298895
 40
17.0
100
AcDbArc
 50
0.0208930804
 51
67.5588366348
  0
ARC
  5
40B
100
AcDbEntity
  8
BEZUGSACHSEN
100
AcDbCircle
 62
7
  6
CONTINUOUS
 10
242.8316729958
 20
228.7224298895
 40
17.0
100
AcDbArc
 50
112.4411633652
 51
179.9791069314
  0
ARC
  5
40C
100
AcDbEntity
  8
RUNDUNGEN
100
AcDbCircle
 62
7
  6
CONTINUOUS
 10
152.3226077055
 20
297.9916606587
 40
10.0
100
AcDbArc
 50
197.4220667665
 51
207.6287145943
  0
ARC
  5
40D
100
AcDbEntity
  8
RUNDUNGEN
100
AcDbCircle
 62
7
  6
CONTINUOUS
 10
214.340738286
 20
297.9916606587
 40
10.0
100
AcDbArc
 50
332.3713175386
 51
342.5779332335
  0
ARC
  5
40E
100
AcDbEntity
  8
BEZUGSACHSEN
100
AcDbCircle
 62
7
  6
CONTINUOUS
 10
183.3316729958
 20
379.224414934
 40
7.0
100
AcDbArc
 50
68.9999999994
 51
72.889082437
  0
ARC
  5
40F
100
AcDbEntity
  8
BEZUGSACHSEN
100
AcDbCircle
 62
7
  6
CONTINUOUS
 10
133.3242447682
 20
360.0283617529
 40
7.0
100
AcDbArc
 50
110.9999999991
 51
157.5000000011
  0
ARC
  5
410
100
AcDbEntity
  8
BEZUGSACHSEN
100
AcDbCircle
 62
7
  6
CONTINUOUS
 10
254.9965400546
 20
307.7426792002
 40
7.0
100
AcDbArc
 50
337.4933543816
 51
22.4999825728
  0
ARC
  5
411
100
AcDbEntity
  8
RUNDUNGEN
100
AcDbCircle
 62
7
  6
CONTINUOUS
 10
233.3391012233
 20
360.0283617529
 40
7.0
100
AcDbArc
 50
22.5
 51
69.0
  0
ARC
  5
412
100
AcDbEntity
  8
RUNDUNGEN
100
AcDbCircle
 62
7
  6
CONTINUOUS
 10
183.3316729958
 20
379.224414934
 40
7.0
100
AcDbArc
 50
69.0
 51
111.0
  0
ARC
  5
413
100
AcDbEntity
  8
RUNDUNGEN
100
AcDbCircle
 62
7
  6
CONTINUOUS
 10
133.3242447682
 20
360.0283617529
 40
7.0
100
AcDbArc
 50
111.0
 51
157.5
  0
ARC
  5
414
100
AcDbEntity
  8
BEZUGSACHSEN
100
AcDbCircle
 62
7
  6
CONTINUOUS
 10
111.6668150263
 20
307.7427011438
 40
7.0
100
AcDbArc
 50
157.5002118367
 51
202.5067830702
  0
ARC
  5
415
100
AcDbEntity
  8
0
100
AcDbCircle
 62
7
  6
CONTINUOUS
 10
229.9116729958
 20
348.3286960098
 40
4.35
100
AcDbArc
 50
39.1946366708
 51
230.8053633292
  0
ARC
  5
416
100
AcDbEntity
  8
0
100
AcDbCircle
 62
7
  6
CONTINUOUS
 10
224.6816729958
 20
353.5586960098
 40
4.35
100
AcDbArc
 50
39.1946366708
 51
230.8053633292
  0
ARC
  5
417
100
AcDbEntity
  8
0
100
AcDbCircle
 62
7
  6
CONTINUOUS
 10
229.9116729958
 20
348.3286960098
 40
3.05
100
AcDbArc
 50
147.3049475335
 51
233.2945626727
  0
ARC
  5
418
100
AcDbEntity
  8
0
100
AcDbCircle
 62
7
  6
CONTINUOUS
 10
229.9116729958
 20
348.3286960098
 40
3.05
100
AcDbArc
 50
36.7054373273
 51
122.510512119
  0
ARC
  5
419
100
AcDbEntity
  8
0
100
AcDbCircle
 62
7
  6
CONTINUOUS
 10
224.6816729958
 20
353.5586960098
 40
3.05
100
AcDbArc
 50
36.7054373273
 51
233.2945626727
  0
ARC
  5
41A
100
AcDbEntity
  8
RUNDUNGEN
100
AcDbCircle
 62
7
  6
CONTINUOUS
 10
269.8316729958
 20
279.5224298895
 40
1.0
100
AcDbArc
 50
270.0
 51
360.0
  0
ARC
  5
41B
100
AcDbEntity
  8
RUNDUNGEN
100
AcDbCircle
 62
7
  6
CONTINUOUS
 10
156.8316729958
 20
279.5224298895
 40
1.0
100
AcDbArc
 50
180.0
 51
270.0
  0
ARC
  5
41C
100
AcDbEntity
  8
RUNDUNGEN
100
AcDbCircle
 62
7
  6
CONTINUOUS
 10
156.8316729958
 20
284.5224298895
 40
1.0
100
AcDbArc
 50
90.0
 51
180.0
  0
ARC
  5
41D
100
AcDbEntity
  8
RUNDUNGEN
100
AcDbCircle
 62
7
  6
CONTINUOUS
 10
269.8316729958
 20
284.5224298895
 40
1.0
100
AcDbArc
 50
0.0
 51
90.0
  0
ARC
  5
41E
100
AcDbEntity
  8
0
100
AcDbCircle
 62
7
  6
CONTINUOUS
 10
294.5125780761
 20
299.3078063949
 40
184.7477023239
100
AcDbArc
 50
342.7527630607
 51
343.115141844
  0
ARC
  5
41F
100
AcDbEntity
  8
0
100
AcDbCircle
 62
7
  6
CONTINUOUS
 10
305.842094124
 20
314.6856267041
 40
180.1192963071
100
AcDbArc
 50
338.4846149033
 51
338.8660542759
  0
ARC
  5
420
100
AcDbEntity
  8
0
100
AcDbCircle
 62
7
  6
CONTINUOUS
 10
306.993176936
 20
313.9884442401
 40
178.2890036823
100
AcDbArc
 50
338.4935685479
 51
338.8143533947
  0
ARC
  5
421
100
AcDbEntity
  8
0
100
AcDbCircle
 62
7
  6
CONTINUOUS
 10
299.9285715134
 20
290.3585813062
 40
176.317989793
100
AcDbArc
 50
342.793611783
 51
343.1732154835
  0
ARC
  5
422
100
AcDbEntity
  8
0
100
AcDbCircle
 62
7
  6
CONTINUOUS
 10
318.5447021104
 20
312.4810961765
 40
167.5388634622
100
AcDbArc
 50
336.0726179469
 51
336.4898679865
  0
ARC
  5
423
100
AcDbEntity
  8
0
100
AcDbCircle
 62
7
  6
CONTINUOUS
 10
319.4901058266
 20
311.8645228934
 40
165.9294613879
100
AcDbArc
 50
336.0589550647
 51
336.4802897159
  0
ARC
  5
424
100
AcDbEntity
  8
0
100
AcDbCircle
 62
7
  6
CONTINUOUS
 10
323.1304512796
 20
303.1617820337
 40
159.7357825223
100
AcDbArc
 50
336.0038348701
 51
336.4416643563
  0
ARC
  5
425
100
AcDbEntity
  8
0
100
AcDbCircle
 62
7
  6
CONTINUOUS
 10
324.0757592376
 20
302.5451682972
 40
158.1264518319
100
AcDbArc
 50
335.9888173035
 51
336.4311462562
  0
ARC
  5
426
100
AcDbEntity
  8
0
100
AcDbCircle
 62
7
  6
CONTINUOUS
 10
-170.2286223634
 20
463.3515679559
 40
677.1034208781
100
AcDbArc
 50
341.1451585053
 51
341.3115440996
  0
ARC
  5
427
100
AcDbEntity
  8
0
100
AcDbCircle
 62
7
  6
CONTINUOUS
 10
-167.042103819
 20
461.6654998499
 40
673.0198442412
100
AcDbArc
 50
341.1781139329
 51
341.3454759059
  0
ARC
  5
428
100
AcDbEntity
  8
0
100
AcDbCircle
 62
7
  6
CONTINUOUS
 10
-93.9886763881
 20
478.7876115997
 40
611.8125755783
100
AcDbArc
 50
336.9577503326
 51
337.0713802703
  0
ARC
  5
429
100
AcDbEntity
  8
0
100
AcDbCircle
 62
7
  6
CONTINUOUS
 10
18.9371823322
 20
437.1039078371
 40
492.0317611789
100
AcDbArc
 50
337.5001704066
 51
337.6174465448
  0
ARC
  5
42A
100
AcDbEntity
  8
0
100
AcDbCircle
 62
7
  6
CONTINUOUS
 10
44.3836277637
 20
453.266910565
 40
474.5558553188
100
AcDbArc
 50
334.3051197598
 51
334.4546897055
  0
ARC
  5
42B
100
AcDbEntity
  8
0
100
AcDbCircle
 62
7
  6
CONTINUOUS
 10
53.2948778098
 20
411.5306183883
 40
450.5029153583
100
AcDbArc
 50
337.3719901861
 51
337.5001908775
  0
ARC
  5
42C
100
AcDbEntity
  8
0
100
AcDbCircle
 62
7
  6
CONTINUOUS
 10
168.28607914
 20
402.257371893
 40
340.5230982811
100
AcDbArc
 50
333.0413264934
 51
333.3922180707
  0
ARC
  5
42D
100
AcDbEntity
  8
0
100
AcDbCircle
 62
7
  6
CONTINUOUS
 10
171.6862044711
 20
400.5523803272
 40
336.2259296368
100
AcDbArc
 50
332.9948362882
 51
333.3503509597
  0
ARC
  5
42E
100
AcDbEntity
  8
0
100
AcDbCircle
 62
7
  6
CONTINUOUS
 10
394.5663955609
 20
260.8870835223
 40
27.5107134651
100
AcDbArc
 50
198.0782301318
 51
200.5434979685
  0
ARC
  5
42F
100
AcDbEntity
  8
0
100
AcDbCircle
 62
7
  6
CONTINUOUS
 10
399.5710381453
 20
248.0636383333
 40
27.2282070676
100
AcDbArc
 50
204.6399684857
 51
207.2542186389
  0
ARC
  5
430
100
AcDbEntity
  8
0
100
AcDbCircle
 62
7
  6
CONTINUOUS
 10
386.2722487502
 20
245.2479079504
 40
14.0163598782
100
AcDbArc
 50
221.4633119462
 51
223.5276885359
  0
ARC
  5
431
100
AcDbEntity
  8
BEZUGSACHSEN
100
AcDbCircle
 62
7
  6
CONTINUOUS
 10
373.1003180868
 20
257.8062859688
 40
6.0
100
AcDbArc
 50
105.0
 51
202.5
  0
ARC
  5
432
100
AcDbEntity
  8
0
100
AcDbCircle
 62
7
  6
CONTINUOUS
 10
370.9612426834
 20
252.7309234272
 40
2.5757678342
100
AcDbArc
 50
180.1889319133
 51
188.5025008513
  0
ARC
  5
433
100
AcDbEntity
  8
0
100
AcDbCircle
 62
7
  6
CONTINUOUS
 10
335.9862870885
 20
280.8716376868
 40
139.3764650842
100
AcDbArc
 50
344.2510044333
 51
344.8861615847
  0
ARC
  5
434
100
AcDbEntity
  8
0
100
AcDbCircle
 62
7
  6
CONTINUOUS
 10
336.6488503899
 20
280.3620692535
 40
138.0702556999
100
AcDbArc
 50
344.3178374379
 51
344.958788687
  0
ARC
  5
435
100
AcDbEntity
  8
0
100
AcDbCircle
 62
7
  6
CONTINUOUS
 10
339.525785961
 20
272.6026161425
 40
132.9415018531
100
AcDbArc
 50
344.3372464651
 51
345.0028241848
  0
ARC
  5
436
100
AcDbEntity
  8
0
100
AcDbCircle
 62
7
  6
CONTINUOUS
 10
340.1902302941
 20
272.0921620346
 40
131.6332440023
100
AcDbArc
 50
344.4083231581
 51
345.0802777052
  0
ARC
  5
437
100
AcDbEntity
  8
0
100
AcDbCircle
 62
7
  6
CONTINUOUS
 10
351.9380483049
 20
287.3121453382
 40
127.0562295272
100
AcDbArc
 50
336.53107355
 51
337.2612681256
  0
ARC
  5
438
100
AcDbEntity
  8
RUNDUNGEN
100
AcDbCircle
 62
7
  6
CONTINUOUS
 10
382.6528925192
 20
279.5224298895
 40
1.0
100
AcDbArc
 50
180.0
 51
270.0
  0
ARC
  5
439
100
AcDbEntity
  8
RUNDUNGEN
100
AcDbCircle
 62
7
  6
CONTINUOUS
 10
395.1528925192
 20
279.5224298895
 40
1.0
100
AcDbArc
 50
180.0
 51
269.9999999999
  0
ARC
  5
43A
100
AcDbEntity
  8
RUNDUNGEN
100
AcDbCircle
 62
7
  6
CONTINUOUS
 10
395.1528925192
 20
284.5224298895
 40
1.0
100
AcDbArc
 50
90.0
 51
180.0
  0
ARC
  5
43B
100
AcDbEntity
  8
RUNDUNGEN
100
AcDbCircle
 62
7
  6
CONTINUOUS
 10
382.6528925192
 20
284.5224298895
 40
1.0
100
AcDbArc
 50
90.0
 51
180.0
  0
ARC
  5
43C
100
AcDbEntity
  8
0
100
AcDbCircle
 62
7
  6
CONTINUOUS
 10
407.0427327319
 20
258.9021424013
 40
38.3127704811
100
AcDbArc
 50
213.3693512442
 51
214.7133427106
  0
ARC
  5
43D
100
AcDbEntity
  8
0
100
AcDbCircle
 62
7
  6
CONTINUOUS
 10
407.2881746933
 20
258.7846533167
 40
37.9952115124
100
AcDbArc
 50
213.4726581532
 51
214.8296424525
  0
ARC
  5
43E
100
AcDbEntity
  8
0
100
AcDbCircle
 62
7
  6
CONTINUOUS
 10
406.6922044904
 20
256.1118185266
 40
36.9062891709
100
AcDbArc
 50
211.7124420757
 51
213.0816753927
  0
ARC
  5
43F
100
AcDbEntity
  8
0
100
AcDbCircle
 62
7
  6
CONTINUOUS
 10
439.6142522018
 20
259.9292434119
 40
35.5761262544
100
AcDbArc
 50
333.0148922985
 51
334.3529061081
  0
ARC
  5
440
100
AcDbEntity
  8
0
100
AcDbCircle
 62
7
  6
CONTINUOUS
 10
439.3664580217
 20
259.8085745962
 40
35.258921507
100
AcDbArc
 50
333.197776095
 51
334.0980824581
  0
ARC
  5
441
100
AcDbEntity
  8
0
100
AcDbCircle
 62
7
  6
CONTINUOUS
 10
439.3774435202
 20
257.5437508663
 40
34.8816899511
100
AcDbArc
 50
333.398898891
 51
334.7532620502
  0
ARC
  5
442
100
AcDbEntity
  8
0
100
AcDbCircle
 62
7
  6
CONTINUOUS
 10
439.8733567388
 20
257.3099771936
 40
34.3334376103
100
AcDbArc
 50
334.7813654807
 51
336.1252700008
  0
ARC
  5
443
100
AcDbEntity
  8
0
100
AcDbCircle
 62
7
  6
CONTINUOUS
 10
438.4542861586
 20
252.9932378013
 40
33.9935025425
100
AcDbArc
 50
332.8030210191
 51
334.2055130013
  0
ARC
  5
444
100
AcDbEntity
  8
0
100
AcDbCircle
 62
7
  6
CONTINUOUS
 10
438.1974679298
 20
252.877243216
 40
33.686456996
100
AcDbArc
 50
333.1824245136
 51
333.9365206789
  0
ARC
  5
445
100
AcDbEntity
  8
0
100
AcDbCircle
 62
7
  6
CONTINUOUS
 10
442.3362169491
 20
260.820682531
 40
33.4006361633
100
AcDbArc
 50
340.6316734461
 51
341.9802832621
  0
ARC
  5
446
100
AcDbEntity
  8
0
100
AcDbCircle
 62
7
  6
CONTINUOUS
 10
442.040364688
 20
260.7159972327
 40
33.1339885914
100
AcDbArc
 50
340.6614641773
 51
341.6436404847
  0
ARC
  5
447
100
AcDbEntity
  8
0
100
AcDbCircle
 62
7
  6
CONTINUOUS
 10
442.1134325725
 20
249.5359422949
 40
29.270606447
100
AcDbArc
 50
348.6716131371
 51
350.1545738759
  0
ARC
  5
448
100
AcDbEntity
  8
0
100
AcDbCircle
 62
7
  6
CONTINUOUS
 10
440.857043817
 20
242.9219998197
 40
27.9007609457
100
AcDbArc
 50
348.7031813054
 51
350.2586124633
  0
ARC
  5
449
100
AcDbEntity
  8
0
100
AcDbCircle
 62
7
  6
CONTINUOUS
 10
448.7393894776
 20
260.8870835223
 40
27.5107134651
100
AcDbArc
 50
339.4565020315
 51
341.9217698682
  0
ARC
  5
44A
100
AcDbEntity
  8
0
100
AcDbCircle
 62
7
  6
CONTINUOUS
 10
443.7347468932
 20
248.0636383333
 40
27.2282070676
100
AcDbArc
 50
332.7457813611
 51
335.3600315143
  0
ARC
  5
44B
100
AcDbEntity
  8
0
100
AcDbCircle
 62
7
  6
CONTINUOUS
 10
447.6430282855
 20
245.5479273532
 40
22.6267721506
100
AcDbArc
 50
350.7851872569
 51
353.6403441666
  0
ARC
  5
44C
100
AcDbEntity
  8
0
100
AcDbCircle
 62
7
  6
CONTINUOUS
 10
447.3306421035
 20
245.4550390377
 40
22.3794466343
100
AcDbArc
 50
350.9233574794
 51
353.8090280515
  0
ARC
  5
44D
100
AcDbEntity
  8
0
100
AcDbCircle
 62
7
  6
CONTINUOUS
 10
446.1128688567
 20
239.0167708318
 40
21.5416351159
100
AcDbArc
 50
350.8595464187
 51
353.8575275232
  0
ARC
  5
44E
100
AcDbEntity
  8
0
100
AcDbCircle
 62
7
  6
CONTINUOUS
 10
445.8000873801
 20
238.9239832503
 40
21.2947149661
100
AcDbArc
 50
351.0054874756
 51
354.0370959483
  0
ARC
  5
44F
100
AcDbEntity
  8
0
100
AcDbCircle
 62
7
  6
CONTINUOUS
 10
462.9851531652
 20
259.3638927368
 40
13.8511167164
100
AcDbArc
 50
320.1500656375
 51
322.1281518503
  0
ARC
  5
450
100
AcDbEntity
  8
0
100
AcDbCircle
 62
7
  6
CONTINUOUS
 10
462.2677144722
 20
249.2467187332
 40
10.5691228527
100
AcDbArc
 50
326.5044880727
 51
328.8926884923
  0
ARC
  5
451
100
AcDbEntity
  8
0
100
AcDbCircle
 62
7
  6
CONTINUOUS
 10
459.9853822347
 20
242.7888226392
 40
10.2076114457
100
AcDbArc
 50
326.0225652859
 51
328.507320998
  0
ARC
  5
452
100
AcDbEntity
  8
0
100
AcDbCircle
 62
7
  6
CONTINUOUS
 10
464.1623061719
 20
243.6657063831
 40
6.6525594064
100
AcDbArc
 50
357.8309426843
 51
1.0383333495
  0
ARC
  5
453
100
AcDbEntity
  8
0
100
AcDbCircle
 62
7
  6
CONTINUOUS
 10
461.8728448395
 20
237.3340450727
 40
6.3455787829
100
AcDbArc
 50
357.742890628
 51
1.1054951434
  0
ARC
  5
454
100
AcDbEntity
  8
0
100
AcDbCircle
 62
7
  6
CONTINUOUS
 10
438.7689036922
 20
272.3210453786
 40
41.1241368475
100
AcDbArc
 50
326.7012517978
 51
327.9339564268
  0
ARC
  5
455
100
AcDbEntity
  8
0
100
AcDbCircle
 62
7
  6
CONTINUOUS
 10
444.6735788735
 20
271.8452797065
 40
35.5034373865
100
AcDbArc
 50
324.5093948627
 51
326.6942208935
  0
ARC
  5
456
100
AcDbEntity
  8
0
100
AcDbCircle
 62
7
  6
CONTINUOUS
 10
444.3678467956
 20
271.7540544335
 40
35.2517575009
100
AcDbArc
 50
324.3997435591
 51
326.602820239
  0
ARC
  5
457
100
AcDbEntity
  8
RUNDUNGEN
100
AcDbCircle
 62
7
  6
CONTINUOUS
 10
460.6528925192
 20
279.5224298895
 40
1.0
100
AcDbArc
 50
270.0
 51
360.0
  0
ARC
  5
458
100
AcDbEntity
  8
RUNDUNGEN
100
AcDbCircle
 62
7
  6
CONTINUOUS
 10
448.1528925192
 20
279.5224298895
 40
1.0
100
AcDbArc
 50
270.0
 51
360.0
  0
ARC
  5
459
100
AcDbEntity
  8
RUNDUNGEN
100
AcDbCircle
 62
7
  6
CONTINUOUS
 10
460.6528925192
 20
284.5224298895
 40
1.0
100
AcDbArc
 50
0.0
 51
90.0
  0
ARC
  5
45A
100
AcDbEntity
  8
RUNDUNGEN
100
AcDbCircle
 62
7
  6
CONTINUOUS
 10
448.1528925192
 20
284.5224298895
 40
1.0
100
AcDbArc
 50
0.0
 51
89.9999999998
  0
ARC
  5
45B
100
AcDbEntity
  8
0
100
AcDbCircle
 62
7
  6
CONTINUOUS
 10
334.0235374034
 20
322.7819202495
 40
157.1251714013
100
AcDbArc
 50
331.8390460214
 51
332.3000711267
  0
ARC
  5
45C
100
AcDbEntity
  8
0
100
AcDbCircle
 62
7
  6
CONTINUOUS
 10
343.1843763854
 20
303.2973134839
 40
141.2608687475
100
AcDbArc
 50
337.7213480044
 51
338.3726667523
  0
ARC
  5
45D
100
AcDbEntity
  8
0
100
AcDbCircle
 62
7
  6
CONTINUOUS
 10
360.959633546
 20
313.418617735
 40
128.649068551
100
AcDbArc
 50
330.3335187742
 51
331.0940371826
  0
ARC
  5
45E
100
AcDbEntity
  8
0
100
AcDbCircle
 62
7
  6
CONTINUOUS
 10
361.6062242093
 20
312.9102412082
 40
127.356001609
100
AcDbArc
 50
330.2653450908
 51
331.0340679041
  0
ARC
  5
45F
100
AcDbEntity
  8
RUNDUNGEN
100
AcDbCircle
 62
7
  6
CONTINUOUS
 10
463.6528925192
 20
291.655604589
 40
25.0
100
AcDbArc
 50
179.9998801574
 51
255.000202484
  0
ARC
  5
460
100
AcDbEntity
  8
BEZUGSACHSEN
100
AcDbCircle
 62
7
  6
CONTINUOUS
 10
379.6528925192
 20
291.655604589
 40
25.0
100
AcDbArc
 50
284.999797516
 51
0.0001198426
  0
ARC
  5
461
100
AcDbEntity
  8
0
100
AcDbCircle
 62
7
  6
CONTINUOUS
 10
491.3677367336
 20
287.3121453382
 40
127.0562295272
100
AcDbArc
 50
202.7387318744
 51
203.46892645
  0
ARC
  5
462
100
AcDbEntity
  8
0
100
AcDbCircle
 62
7
  6
CONTINUOUS
 10
466.7970917756
 20
252.2092435447
 40
7.5015147797
100
AcDbArc
 50
346.7381838561
 51
349.6438832805
  0
ARC
  5
463
100
AcDbEntity
  8
RUNDUNGEN
100
AcDbCircle
 62
7
  6
CONTINUOUS
 10
470.2054669516
 20
257.8062859688
 40
6.0
100
AcDbArc
 50
337.5
 51
75.0
  0
ARC
  5
464
100
AcDbEntity
  8
0
100
AcDbCircle
 62
7
  6
CONTINUOUS
 10
472.3445423551
 20
252.7309234272
 40
2.5757678342
100
AcDbArc
 50
351.4974991487
 51
359.8110680867
  0
ARC
  5
465
100
AcDbEntity
  8
0
100
AcDbCircle
 62
7
  6
CONTINUOUS
 10
596.5305803485
 20
343.9288856848
 40
245.8458556912
100
AcDbArc
 50
205.4711779013
 51
205.8562717569
  0
ARC
  5
466
100
AcDbEntity
  8
0
100
AcDbCircle
 62
7
  6
CONTINUOUS
 10
500.121408653
 20
303.2973134839
 40
141.2608687475
100
AcDbArc
 50
201.6273332477
 51
202.2786519956
  0
ARC
  5
467
100
AcDbEntity
  8
0
100
AcDbCircle
 62
7
  6
CONTINUOUS
 10
824.36860275
 20
437.1039078552
 40
492.0317612262
100
AcDbArc
 50
202.3825534552
 51
202.4998295934
  0
ARC
  5
468
100
AcDbEntity
  8
0
100
AcDbCircle
 62
7
  6
CONTINUOUS
 10
816.6759963032
 20
433.9175923691
 40
483.7053694314
100
AcDbArc
 50
202.4998339303
 51
202.6192312624
  0
ARC
  5
469
100
AcDbEntity
  8
0
100
AcDbCircle
 62
7
  6
CONTINUOUS
 10
793.6888027314
 20
435.7377064372
 40
463.0654652848
100
AcDbArc
 50
205.1491665862
 51
205.3019469344
  0
ARC
  5
46A
100
AcDbEntity
  8
0
100
AcDbCircle
 62
7
  6
CONTINUOUS
 10
797.7031340478
 20
414.7167643339
 40
458.8288915427
100
AcDbArc
 50
202.3740443286
 51
202.4998035035
  0
ARC
  5
46B
100
AcDbEntity
  8
0
100
AcDbCircle
 62
7
  6
CONTINUOUS
 10
788.4901077066
 20
433.2942826819
 40
456.8254924747
100
AcDbArc
 50
205.178047467
 51
205.3329528678
  0
ARC
  5
46C
100
AcDbEntity
  8
0
100
AcDbCircle
 62
7
  6
CONTINUOUS
 10
790.010907265
 20
411.5306184035
 40
450.5029153978
100
AcDbArc
 50
202.4998091225
 51
202.6280098139
  0
ARC
  5
46D
100
AcDbEntity
  8
BEZUGSACHSEN
100
AcDbCircle
 62
7
  6
CONTINUOUS
 10
410.6528925192
 20
380.224414934
 40
6.0
100
AcDbArc
 50
90.0
 51
180.0
  0
ARC
  5
46E
100
AcDbEntity
  8
RUNDUNGEN
100
AcDbCircle
 62
7
  6
CONTINUOUS
 10
432.6528925192
 20
380.224414934
 40
6.0
100
AcDbArc
 50
0.0
 51
90.0
  0
ARC
  5
46F
100
AcDbEntity
  8
RUNDUNGEN
100
AcDbCircle
 62
7
  6
CONTINUOUS
 10
183.3316729958
 20
30.5310051973
 40
15.0
100
AcDbArc
 50
35.6853347127
 51
90.0
  0
ARC
  5
470
100
AcDbEntity
  8
RUNDUNGEN
100
AcDbCircle
 62
7
  6
CONTINUOUS
 10
111.1289497871
 20
62.0310051973
 40
6.0
100
AcDbArc
 50
184.8002509548
 51
269.9999999999
  0
ARC
  5
471
100
AcDbEntity
  8
0
100
AcDbCircle
 62
7
  6
CONTINUOUS
 10
183.3316729958
 20
73.0310051973
 40
39.75
100
AcDbArc
 50
325.0227665762
 51
334.6841769455
  0
ARC
  5
472
100
AcDbEntity
  8
0
100
AcDbCircle
 62
7
  6
CONTINUOUS
 10
183.3316729958
 20
73.0310051973
 40
39.75
100
AcDbArc
 50
206.1130818705
 51
292.2950710258
  0
ARC
  5
473
100
AcDbEntity
  8
0
100
AcDbCircle
 62
7
  6
CONTINUOUS
 10
183.3316729958
 20
73.0310051973
 40
39.75
100
AcDbArc
 50
25.315708754
 51
34.9772358538
  0
ARC
  5
474
100
AcDbEntity
  8
0
100
AcDbCircle
 62
7
  6
CONTINUOUS
 10
183.3316729958
 20
73.0310051973
 40
39.75
100
AcDbArc
 50
67.704928919
 51
154.6841592224
  0
ARC
  5
475
100
AcDbEntity
  8
RUNDUNGEN
100
AcDbCircle
 62
7
  6
CONTINUOUS
 10
183.3316729958
 20
73.0310051973
 40
39.5
100
AcDbArc
 50
25.5033876653
 51
34.977835566
  0
ARC
  5
476
100
AcDbEntity
  8
RUNDUNGEN
100
AcDbCircle
 62
7
  6
CONTINUOUS
 10
183.3316729958
 20
73.0310051973
 40
39.5
100
AcDbArc
 50
67.9124563694
 51
154.4966123342
  0
ARC
  5
477
100
AcDbEntity
  8
RUNDUNGEN
100
AcDbCircle
 62
7
  6
CONTINUOUS
 10
183.3316729958
 20
73.0310051973
 40
39.5
100
AcDbArc
 50
206.3101754801
 51
292.0875436259
  0
ARC
  5
478
100
AcDbEntity
  8
RUNDUNGEN
100
AcDbCircle
 62
7
  6
CONTINUOUS
 10
183.3316729958
 20
73.0310051973
 40
39.5
100
AcDbArc
 50
325.0221644296
 51
334.4966123342
  0
ARC
  5
479
100
AcDbEntity
  8
RUNDUNGEN
100
AcDbCircle
 62
7
  6
CONTINUOUS
 10
183.3316729958
 20
73.0310051973
 40
27.5
100
AcDbArc
 50
218.198365682
 51
270.0
  0
ARC
  5
47A
100
AcDbEntity
  8
RUNDUNGEN
100
AcDbCircle
 62
7
  6
CONTINUOUS
 10
183.3316729958
 20
73.0310051973
 40
27.5
100
AcDbArc
 50
90.0
 51
141.8016343221
  0
ARC
  5
47B
100
AcDbEntity
  8
RUNDUNGEN
100
AcDbCircle
 62
7
  6
CONTINUOUS
 10
183.3316729958
 20
115.5310051973
 40
15.0
100
AcDbArc
 50
270.0
 51
324.3146652873
  0
ARC
  5
47C
100
AcDbEntity
  8
BEZUGSACHSEN
100
AcDbCircle
 62
7
  6
CONTINUOUS
 10
111.1289497871
 20
84.0310051973
 40
6.0
100
AcDbArc
 50
90.0000000001
 51
175.1997490452
  0
ARC
  5
47D
100
AcDbEntity
  8
RUNDUNGEN
100
AcDbCircle
 62
7
  6
CONTINUOUS
 10
207.6986588578
 20
48.0310051973
 40
15.0
100
AcDbArc
 50
215.6853347127
 51
270.0
  0
ARC
  5
47E
100
AcDbEntity
  8
RUNDUNGEN
100
AcDbCircle
 62
7
  6
CONTINUOUS
 10
255.8316729958
 20
48.0310051973
 40
15.0
100
AcDbArc
 50
270.0
 51
360.0
  0
ARC
  5
47F
100
AcDbEntity
  8
RUNDUNGEN
100
AcDbCircle
 62
7
  6
CONTINUOUS
 10
222.8316729958
 20
60.0310051973
 40
12.0
100
AcDbArc
 50
199.4853919019
 51
270.0
  0
ARC
  5
480
100
AcDbEntity
  8
RUNDUNGEN
100
AcDbCircle
 62
7
  6
CONTINUOUS
 10
255.5344015541
 20
62.0310051973
 40
6.0
100
AcDbArc
 50
270.0000000001
 51
355.200009525
  0
ARC
  5
481
100
AcDbEntity
  8
RUNDUNGEN
100
AcDbCircle
 62
7
  6
CONTINUOUS
 10
268.3316729958
 20
57.5310051973
 40
2.5
100
AcDbArc
 50
0.0
 51
90.0
  0
ARC
  5
482
100
AcDbEntity
  8
RUNDUNGEN
100
AcDbCircle
 62
7
  6
CONTINUOUS
 10
265.3316729958
 20
57.5310051973
 40
2.5
100
AcDbArc
 50
90.0
 51
180.0
  0
ARC
  5
483
100
AcDbEntity
  8
RUNDUNGEN
100
AcDbCircle
 62
7
  6
CONTINUOUS
 10
260.3316729958
 20
50.5310051973
 40
2.5
100
AcDbArc
 50
270.0
 51
360.0
  0
ARC
  5
484
100
AcDbEntity
  8
RUNDUNGEN
100
AcDbCircle
 62
7
  6
CONTINUOUS
 10
255.8316729958
 20
98.0310051973
 40
15.0
100
AcDbArc
 50
0.0
 51
90.0
  0
ARC
  5
485
100
AcDbEntity
  8
RUNDUNGEN
100
AcDbCircle
 62
7
  6
CONTINUOUS
 10
207.6986588578
 20
98.0310051973
 40
15.0
100
AcDbArc
 50
90.0
 51
144.3146652873
  0
ARC
  5
486
100
AcDbEntity
  8
RUNDUNGEN
100
AcDbCircle
 62
7
  6
CONTINUOUS
 10
222.8316729958
 20
86.0310051973
 40
12.0
100
AcDbArc
 50
90.0
 51
160.5146081037
  0
ARC
  5
487
100
AcDbEntity
  8
BEZUGSACHSEN
100
AcDbCircle
 62
7
  6
CONTINUOUS
 10
255.5344015541
 20
84.0310051973
 40
6.0
100
AcDbArc
 50
4.799990475
 51
89.9999999999
  0
ARC
  5
488
100
AcDbEntity
  8
RUNDUNGEN
100
AcDbCircle
 62
7
  6
CONTINUOUS
 10
268.3316729958
 20
88.5310051973
 40
2.5
100
AcDbArc
 50
270.0
 51
360.0
  0
ARC
  5
489
100
AcDbEntity
  8
RUNDUNGEN
100
AcDbCircle
 62
7
  6
CONTINUOUS
 10
265.3316729958
 20
88.5310051973
 40
2.5
100
AcDbArc
 50
180.0
 51
270.0
  0
ARC
  5
48A
100
AcDbEntity
  8
RUNDUNGEN
100
AcDbCircle
 62
7
  6
CONTINUOUS
 10
260.3316729958
 20
95.5310051973
 40
2.5
100
AcDbArc
 50
0.0
 51
90.0
  0
SPLINE
  5
48B
100
AcDbEntity
  8
0
100
AcDbSpline
 62
7
  6
CONTINUOUS
 70
0
 71
3
 72
15
 73
11
 74
0
 42
0.0000001
 43
0.0000001
 44
0.0000000001
 40
0.0
 40
0.0
 40
0.0
 40
0.0
 40
0.1247867842
 40
0.2453376094
 40
0.3640635253
 40
0.4835072862
 40
0.6057892924
 40
0.7322942224
 40
0.8636728436
 40
1.0
 40
1.0
 40
1.0
 40
1.0
 10
216.2606570087
 20
276.3082137054
 30
0.0
 10
215.9074046715
 20
275.6364301742
 30
0.0
 10
215.1259286197
 20
274.3583303757
 30
0.0
 10
213.6948850446
 20
272.6570899049
 30
0.0
 10
212.0375702311
 20
271.224033959
 30
0.0
 10
210.1740546851
 20
270.054634055
 30
0.0
 10
208.1289659131
 20
269.1276177168
 30
0.0
 10
205.9261014613
 20
268.4122518182
 30
0.0
 10
203.5869975986
 20
267.87485728
 30
0.0
 10
201.9780474123
 20
267.6179300245
 30
0.0
 10
201.1562468588
 20
267.5074589317
 30
0.0
  0
SPLINE
  5
48C
100
AcDbEntity
  8
0
100
AcDbSpline
 62
7
  6
CONTINUOUS
 70
0
 71
3
 72
15
 73
11
 74
0
 42
0.0000001
 43
0.0000001
 44
0.0000000001
 40
0.0
 40
0.0
 40
0.0
 40
0.0
 40
0.1363271704
 40
0.2677058172
 40
0.3942107693
 40
0.5164927993
 40
0.6359365464
 40
0.7546624203
 40
0.8752132218
 40
1.0
 40
1.0
 40
1.0
 40
1.0
 10
165.5070991327
 20
267.5074589317
 30
0.0
 10
164.6852988036
 20
267.6179299944
 30
0.0
 10
163.0763489834
 20
267.8748571813
 30
0.0
 10
160.7372456162
 20
268.412251523
 30
0.0
 10
158.5343815453
 20
269.1276171757
 30
0.0
 10
156.4892932643
 20
270.054633013
 30
0.0
 10
154.6257783788
 20
271.2240320348
 30
0.0
 10
152.9684641935
 20
272.6570866822
 30
0.0
 10
151.5374207954
 20
274.358325633
 30
0.0
 10
150.7559446771
 20
275.6364245169
 30
0.0
 10
150.4026922108
 20
276.3082076167
 30
0.0
  0
SPLINE
  5
48D
100
AcDbEntity
  8
0
100
AcDbSpline
 62
7
  6
CONTINUOUS
 70
0
 71
3
 72
15
 73
11
 74
0
 42
0.0000001
 43
0.0000001
 44
0.0000000001
 40
0.0
 40
0.0
 40
0.0
 40
0.0
 40
0.0375254088
 40
0.0825030519
 40
0.1886282045
 40
0.3091123948
 40
0.4385828582
 40
0.5739414985
 40
0.7133319553
 40
1.0
 40
1.0
 40
1.0
 40
1.0
 10
222.4018523285
 20
291.8948588741
 30
0.0
 10
222.3600692087
 20
291.8217440443
 30
0.0
 10
222.2791887603
 20
291.6548212357
 30
0.0
 10
222.1179886789
 20
291.2633632153
 30
0.0
 10
221.9164114023
 20
290.6878408294
 30
0.0
 10
221.6700495623
 20
289.9277397929
 30
0.0
 10
221.4109437201
 20
289.102756095
 30
0.0
 10
221.139075761
 20
288.2373406858
 30
0.0
 10
220.7554771808
 20
287.0372654693
 30
0.0
 10
220.4526851271
 20
286.1302518221
 30
0.0
 10
220.2414845372
 20
285.5225896628
 30
0.0
  0
SPLINE
  5
48E
100
AcDbEntity
  8
0
100
AcDbSpline
 62
7
  6
CONTINUOUS
 70
0
 71
3
 72
19
 73
15
 74
0
 42
0.0000001
 43
0.0000001
 44
0.0000000001
 40
0.0
 40
0.0
 40
0.0
 40
0.0
 40
0.1382564931
 40
0.2748472267
 40
0.4097641191
 40
0.5427324719
 40
0.6729366514
 40
0.7364413105
 40
0.7982915507
 40
0.8576750954
 40
0.9131765305
 40
0.9622129322
 40
0.9829292848
 40
1.0
 40
1.0
 40
1.0
 40
1.0
 10
150.4027070463
 20
276.3081812859
 30
0.0
 10
150.0428113162
 20
276.9925979346
 30
0.0
 10
149.3504462197
 20
278.3654953127
 30
0.0
 10
148.3919453182
 20
280.4477747061
 30
0.0
 10
147.5194122968
 20
282.5354903133
 30
0.0
 10
146.7306840557
 20
284.6180518653
 30
0.0
 10
146.1354826439
 20
286.345746628
 30
0.0
 10
145.6933120849
 20
287.7050009058
 30
0.0
 10
145.3815554929
 20
288.6900929681
 30
0.0
 10
145.086338961
 20
289.6334952741
 30
0.0
 10
144.8073664186
 20
290.5067472243
 30
0.0
 10
144.5807345911
 20
291.1700167962
 30
0.0
 10
144.3997628641
 20
291.6206581155
 30
0.0
 10
144.3088681582
 20
291.8119603332
 30
0.0
 10
144.2614955183
 20
291.8948560557
 30
0.0
  0
SPLINE
  5
48F
100
AcDbEntity
  8
BEZUGSACHSEN
100
AcDbSpline
 62
7
  6
CONTINUOUS
 70
0
 71
3
 72
32
 73
28
 74
0
 42
0.0000001
 43
0.0000001
 44
0.0000000001
 40
0.0
 40
0.0
 40
0.0
 40
0.0
 40
0.0200405469
 40
0.079164309
 40
0.1744814511
 40
0.3014782095
 40
0.4544238961
 40
0.5386255537
 40
0.5822977995
 40
0.6268797064
 40
0.6722644918
 40
0.7183471588
 40
0.7650243119
 40
0.7885541024
 40
0.8121928958
 40
0.8359258437
 40
0.8597365068
 40
0.8836048876
 40
0.9075019798
 40
0.9313735603
 40
0.9432705715
 40
0.9550977409
 40
0.9667847691
 40
0.9781942602
 40
0.9837716402
 40
0.9892507812
 40
1.0
 40
1.0
 40
1.0
 40
1.0
 10
130.3211595865
 20
244.4350542339
 30
0.0
 10
130.6220235683
 20
244.376133577
 30
0.0
 10
131.8101173169
 20
244.1414314162
 30
0.0
 10
134.4253091865
 20
243.6069461639
 30
0.0
 10
138.6319479802
 20
242.6890077074
 30
0.0
 10
144.2152664263
 20
241.3518220695
 30
0.0
 10
149.5949950768
 20
239.9013597547
 30
0.0
 10
153.7094128211
 20
238.6644747625
 30
0.0
 10
156.2217507122
 20
237.8590262161
 30
0.0
 10
158.1596685195
 20
237.2075944927
 30
0.0
 10
160.1217222549
 20
236.5129752358
 30
0.0
 10
162.1003690144
 20
235.7702097685
 30
0.0
 10
163.7511796831
 20
235.1065207078
 30
0.0
 10
165.0707382001
 20
234.5408159149
 30
0.0
 10
166.0598465804
 20
234.0955337596
 30
0.0
 10
167.0430426741
 20
233.6271797237
 30
0.0
 10
168.0165155964
 20
233.1310501714
 30
0.0
 10
168.9745724233
 20
232.6001949093
 30
0.0
 10
169.9070286464
 20
232.0236186597
 30
0.0
 10
170.6488922615
 20
231.4890939999
 30
0.0
 10
171.1983976668
 20
231.0104938861
 30
0.0
 10
171.5745108578
 20
230.6190942051
 30
0.0
 10
171.8919270155
 20
230.1869734831
 30
0.0
 10
172.0723753041
 20
229.7797249093
 30
0.0
 10
172.1245861317
 20
229.4378098663
 30
0.0
 10
172.1069585066
 20
229.1025295857
 30
0.0
 10
172.014011941
 20
228.8638636802
 30
0.0
 10
171.9301231186
 20
228.7224298895
 30
0.0
  0
SPLINE
  5
490
100
AcDbEntity
  8
BEZUGSACHSEN
100
AcDbSpline
 62
7
  6
CONTINUOUS
 70
0
 71
3
 72
31
 73
27
 74
0
 42
0.0000001
 43
0.0000001
 44
0.0000000001
 40
0.0
 40
0.0
 40
0.0
 40
0.0
 40
0.0107462097
 40
0.0217476724
 40
0.0331592342
 40
0.0448472836
 40
0.0566754712
 40
0.0685732946
 40
0.0924461415
 40
0.116344479
 40
0.1402141356
 40
0.1640261152
 40
0.1877603909
 40
0.2114005119
 40
0.2349316282
 40
0.2816114106
 40
0.3276966708
 40
0.3730840021
 40
0.4176684207
 40
0.4613431168
 40
0.5455495312
 40
0.6985039191
 40
0.8255080031
 40
0.9208308588
 40
0.9799582406
 40
1.0
 40
1.0
 40
1.0
 40
1.0
 10
194.7332228729
 20
228.7224298895
 30
0.0
 10
194.6493622164
 20
228.8638161934
 30
0.0
 10
194.5239818598
 20
229.1828361954
 30
0.0
 10
194.5561864305
 20
229.703782428
 30
0.0
 10
194.7715325518
 20
230.1865391145
 30
0.0
 10
195.088736871
 20
230.6191310301
 30
0.0
 10
195.4649149933
 20
231.0104263222
 30
0.0
 10
196.0144034098
 20
231.4890726582
 30
0.0
 10
196.7562736732
 20
232.0235821113
 30
0.0
 10
197.6887219286
 20
232.6001662975
 30
0.0
 10
198.6467760157
 20
233.1310213679
 30
0.0
 10
199.6202472123
 20
233.6271520736
 30
0.0
 10
200.6034427276
 20
234.0955072379
 30
0.0
 10
201.5925509056
 20
234.5407906807
 30
0.0
 10
202.9121094143
 20
235.1064971579
 30
0.0
 10
204.5629203826
 20
235.7701877521
 30
0.0
 10
206.5415674526
 20
236.5129547965
 30
0.0
 10
208.5036216551
 20
237.2075752294
 30
0.0
 10
210.4415396657
 20
237.8590085854
 30
0.0
 10
212.9538790038
 20
238.6644571275
 30
0.0
 10
217.068299315
 20
239.9013457165
 30
0.0
 10
222.448034585
 20
241.351810096
 30
0.0
 10
228.0313641337
 20
242.6890011567
 30
0.0
 10
232.238017317
 20
243.6069415063
 30
0.0
 10
234.8532210954
 20
244.1414298721
 30
0.0
 10
236.0413210167
 20
244.376133314
 30
0.0
 10
236.342186405
 20
244.4350542339
 30
0.0
  0
LINE
  5
491
100
AcDbEntity
  8
0
100
AcDbLine
 62
7
  6
CONTINUOUS
 10
369.6122836213
 20
250.1160472215
 11
370.8538144174
 21
247.1373231292
  0
LINE
  5
492
100
AcDbEntity
  8
0
100
AcDbLine
 62
7
  6
CONTINUOUS
 10
370.597937724
 20
247.1373231292
 11
370.6355353407
 21
247.0467317884
  0
LINE
  5
493
100
AcDbEntity
  8
0
100
AcDbLine
 62
7
  6
CONTINUOUS
 10
370.6355353407
 20
247.0467317884
 11
371.2160712362
 21
245.6479616047
  0
SPLINE
  5
494
100
AcDbEntity
  8
0
100
AcDbSpline
 62
7
  6
CONTINUOUS
 70
0
 71
3
 72
8
 73
4
 74
0
 42
0.0000001
 43
0.0000001
 44
0.0000000001
 40
0.0
 40
0.0
 40
0.0
 40
0.0
 40
1.0
 40
1.0
 40
1.0
 40
1.0
 10
371.4747042866
 20
245.6479616047
 30
0.0
 10
372.5096489863
 20
243.165556339
 30
0.0
 10
373.5449006955
 20
240.6832790384
 30
0.0
 10
374.5805153699
 20
238.2011531994
 30
0.0
  0
SPLINE
  5
495
100
AcDbEntity
  8
0
100
AcDbSpline
 62
7
  6
CONTINUOUS
 70
0
 71
3
 72
9
 73
5
 74
0
 42
0.0000001
 43
0.0000001
 44
0.0000000001
 40
0.0
 40
0.0
 40
0.0
 40
0.0
 40
0.2399812614
 40
1.0
 40
1.0
 40
1.0
 40
1.0
 10
376.1098042707
 20
235.5947703032
 30
0.0
 10
376.156544129
 20
235.5631384132
 30
0.0
 10
376.352681431
 20
235.4333602861
 30
0.0
 10
376.5539487305
 20
235.3114032398
 30
0.0
 10
376.7089670913
 20
235.2224298895
 30
0.0
  0
SPLINE
  5
496
100
AcDbEntity
  8
0
100
AcDbSpline
 62
7
  6
CONTINUOUS
 70
0
 71
3
 72
9
 73
5
 74
0
 42
0.0000001
 43
0.0000001
 44
0.0000000001
 40
0.0
 40
0.0
 40
0.0
 40
0.0
 40
0.2574029012
 40
1.0
 40
1.0
 40
1.0
 40
1.0
 10
375.6635028333
 20
235.2224298895
 30
0.0
 10
375.6363734417
 20
235.2530684453
 30
0.0
 10
375.5323994022
 20
235.3733437379
 30
0.0
 10
375.4342890524
 20
235.4987371142
 30
0.0
 10
375.3656133366
 20
235.5947703032
 30
0.0
  0
SPLINE
  5
497
100
AcDbEntity
  8
0
100
AcDbSpline
 62
7
  6
CONTINUOUS
 70
0
 71
3
 72
8
 73
4
 74
0
 42
0.0000001
 43
0.0000001
 44
0.0000000001
 40
0.0
 40
0.0
 40
0.0
 40
0.0
 40
1.0
 40
1.0
 40
1.0
 40
1.0
 10
471.2958764135
 20
245.6479616047
 30
0.0
 10
471.430709289
 20
246.0202245395
 30
0.0
 10
471.5653268088
 20
246.3925655436
 30
0.0
 10
471.6997329947
 20
246.7649827481
 30
0.0
  0
LINE
  5
498
100
AcDbEntity
  8
0
100
AcDbLine
 62
7
  6
CONTINUOUS
 10
471.6997329947
 20
246.7649827481
 11
472.0133918142
 21
247.5096635104
  0
SPLINE
  5
499
100
AcDbEntity
  8
0
100
AcDbSpline
 62
7
  6
CONTINUOUS
 70
0
 71
3
 72
9
 73
5
 74
0
 42
0.0000001
 43
0.0000001
 44
0.0000000001
 40
0.0
 40
0.0
 40
0.0
 40
0.0
 40
0.2574029012
 40
1.0
 40
1.0
 40
1.0
 40
1.0
 10
467.6422822051
 20
235.2224298895
 30
0.0
 10
467.6694115968
 20
235.2530684453
 30
0.0
 10
467.7733856363
 20
235.3733437379
 30
0.0
 10
467.8714959861
 20
235.4987371142
 30
0.0
 10
467.9401717018
 20
235.5947703032
 30
0.0
  0
LINE
  5
49A
100
AcDbEntity
  8
0
100
AcDbLine
 62
7
  6
CONTINUOUS
 10
470.9272145662
 20
242.6661085535
 11
470.9344238315
 21
242.6814075711
  0
SPLINE
  5
49B
100
AcDbEntity
  8
0
100
AcDbSpline
 62
7
  6
CONTINUOUS
 70
0
 71
3
 72
9
 73
5
 74
0
 42
0.0000001
 43
0.0000001
 44
0.0000000001
 40
0.0
 40
0.0
 40
0.0
 40
0.0
 40
0.2570166269
 40
1.0
 40
1.0
 40
1.0
 40
1.0
 10
470.2756342749
 20
241.5522168905
 30
0.0
 10
470.3020983965
 20
241.5828767291
 30
0.0
 10
470.4036782178
 20
241.7033524323
 30
0.0
 10
470.4995470857
 20
241.8286862288
 30
0.0
 10
470.5667542145
 20
241.9245577932
 30
0.0
  0
SPLINE
  5
49C
100
AcDbEntity
  8
0
100
AcDbSpline
 62
7
  6
CONTINUOUS
 70
0
 71
3
 72
9
 73
5
 74
0
 42
0.0000001
 43
0.0000001
 44
0.0000000001
 40
0.0
 40
0.0
 40
0.0
 40
0.0
 40
0.243352164
 40
1.0
 40
1.0
 40
1.0
 40
1.0
 10
474.1940580858
 20
252.7224298895
 30
0.0
 10
474.1631509456
 20
252.6910256897
 30
0.0
 10
474.0348656507
 20
252.5632395626
 30
0.0
 10
473.9016598435
 20
252.4404201415
 30
0.0
 10
473.798656368
 20
252.3500895084
 30
0.0
  0
SPLINE
  5
49D
100
AcDbEntity
  8
0
100
AcDbSpline
 62
7
  6
CONTINUOUS
 70
0
 71
3
 72
8
 73
4
 74
0
 42
0.0000001
 43
0.0000001
 44
0.0000000001
 40
0.0
 40
0.0
 40
0.0
 40
0.0
 40
1.0
 40
1.0
 40
1.0
 40
1.0
 10
374.5198819254
 20
238.9458342225
 30
0.0
 10
373.5836282779
 20
241.1796848953
 30
0.0
 10
372.6478549713
 20
243.4137369334
 30
0.0
 10
371.7124941644
 20
245.6479616047
 30
0.0
  0
LINE
  5
49E
100
AcDbEntity
  8
0
100
AcDbLine
 62
7
  6
CONTINUOUS
 10
372.447175461
 20
245.6479616047
 11
371.8156289965
 21
247.1373231292
  0
LINE
  5
49F
100
AcDbEntity
  8
0
100
AcDbLine
 62
7
  6
CONTINUOUS
 10
371.0890424164
 20
247.1373231292
 11
369.8425521401
 21
250.1160472215
  0
LINE
  5
4A0
100
AcDbEntity
  8
0
100
AcDbLine
 62
7
  6
CONTINUOUS
 10
376.7089670913
 20
235.2224298895
 11
376.0768951534
 21
236.7117915445
  0
SPLINE
  5
4A1
100
AcDbEntity
  8
0
100
AcDbSpline
 62
7
  6
CONTINUOUS
 70
0
 71
3
 72
9
 73
5
 74
0
 42
0.0000001
 43
0.0000001
 44
0.0000000001
 40
0.0
 40
0.0
 40
0.0
 40
0.0
 40
0.2572064526
 40
1.0
 40
1.0
 40
1.0
 40
1.0
 10
376.0768951534
 20
236.7117915445
 30
0.0
 10
376.030734012
 20
236.7423793907
 30
0.0
 10
375.8520980268
 20
236.8625543317
 30
0.0
 10
375.6768891529
 20
236.9878544492
 30
0.0
 10
375.5491967839
 20
237.084132056
 30
0.0
  0
LINE
  5
4A2
100
AcDbEntity
  8
0
100
AcDbLine
 62
7
  6
CONTINUOUS
 10
473.3048820123
 20
249.7437068403
 11
473.2835950477
 21
249.6886300434
  0
LINE
  5
4A3
100
AcDbEntity
  8
0
100
AcDbLine
 62
7
  6
CONTINUOUS
 10
473.2835950477
 20
249.6886300434
 11
473.2324049084
 21
249.5564031644
  0
SPLINE
  5
4A4
100
AcDbEntity
  8
0
100
AcDbSpline
 62
7
  6
CONTINUOUS
 70
0
 71
3
 72
8
 73
4
 74
0
 42
0.0000001
 43
0.0000001
 44
0.0000000001
 40
0.0
 40
0.0
 40
0.0
 40
0.0
 40
1.0
 40
1.0
 40
1.0
 40
1.0
 10
472.8690623268
 20
248.6266856969
 30
0.0
 10
472.7185010278
 20
248.2542223588
 30
0.0
 10
472.5676388618
 20
247.881880493
 30
0.0
 10
472.41646955
 20
247.5096635104
 30
0.0
  0
LINE
  5
4A5
100
AcDbEntity
  8
0
100
AcDbLine
 62
7
  6
CONTINUOUS
 10
472.41646955
 20
247.5096635104
 11
472.1079143528
 21
246.7649827481
  0
LINE
  5
4A6
100
AcDbEntity
  8
0
100
AcDbLine
 62
7
  6
CONTINUOUS
 10
471.251943365
 20
247.8820038915
 11
470.6202735984
 21
246.3926423669
  0
SPLINE
  5
4A7
100
AcDbEntity
  8
BEZUGSACHSEN
100
AcDbSpline
 62
7
  6
CONTINUOUS
 70
0
 71
3
 72
24
 73
20
 74
0
 42
0.0000001
 43
0.0000001
 44
0.0000000001
 40
0.0
 40
0.0
 40
0.0
 40
0.0
 40
0.1717081102
 40
0.3362021505
 40
0.4136578282
 40
0.4869374787
 40
0.5554309887
 40
0.6186572641
 40
0.6762937461
 40
0.7282250183
 40
0.7746375712
 40
0.8161214259
 40
0.8539737592
 40
0.8723002993
 40
0.8908448825
 40
0.9103989475
 40
0.9323725553
 40
0.9602244383
 40
1.0
 40
1.0
 40
1.0
 40
1.0
 10
421.6528925192
 20
244.4350542339
 30
0.0
 10
418.7475261985
 20
244.4350542339
 30
0.0
 10
413.0582945931
 20
244.3226802954
 30
0.0
 10
406.0696683364
 20
243.8850537308
 30
0.0
 10
400.7643590147
 20
243.3270637865
 30
0.0
 10
397.0893830545
 20
242.8166240378
 30
0.0
 10
393.6745412757
 20
242.201420506
 30
0.0
 10
390.5520848604
 20
241.4759332482
 30
0.0
 10
387.7495054426
 20
240.6340930368
 30
0.0
 10
385.2898950883
 20
239.6665810533
 30
0.0
 10
383.1899778621
 20
238.5628035657
 30
0.0
 10
381.4655392286
 20
237.2998624427
 30
0.0
 10
380.3450389773
 20
236.0624247789
 30
0.0
 10
379.6981914721
 20
234.9715421195
 30
0.0
 10
379.3356926058
 20
234.0841934066
 30
0.0
 10
379.1047831992
 20
233.0897471186
 30
0.0
 10
379.0360851426
 20
231.9116204064
 30
0.0
 10
379.2301062416
 20
230.4002351305
 30
0.0
 10
379.6349269374
 20
229.3085987645
 30
0.0
 10
379.9656212346
 20
228.7224298895
 30
0.0
  0
SPLINE
  5
4A8
100
AcDbEntity
  8
0
100
AcDbSpline
 62
7
  6
CONTINUOUS
 70
0
 71
3
 72
8
 73
4
 74
0
 42
0.0000001
 43
0.0000001
 44
0.0000000001
 40
0.0
 40
0.0
 40
0.0
 40
0.0
 40
1.0
 40
1.0
 40
1.0
 40
1.0
 10
373.4155384284
 20
240.0628553659
 30
0.0
 10
373.0565191347
 20
240.9315167355
 30
0.0
 10
372.6978279264
 20
241.8003137679
 30
0.0
 10
372.3394466468
 20
242.6692385555
 30
0.0
  0
LINE
  5
4A9
100
AcDbEntity
  8
0
100
AcDbLine
 62
7
  6
CONTINUOUS
 10
372.3394466468
 20
242.6692385555
 11
371.2597591537
 21
245.2756212235
  0
LINE
  5
4AA
100
AcDbEntity
  8
0
100
AcDbLine
 62
7
  6
CONTINUOUS
 10
371.2597591537
 20
245.2756212235
 11
371.1212811314
 21
245.6085346152
  0
LINE
  5
4AB
100
AcDbEntity
  8
0
100
AcDbLine
 62
7
  6
CONTINUOUS
 10
371.1212811314
 20
245.6085346152
 11
371.0805811753
 21
245.706399341
  0
LINE
  5
4AC
100
AcDbEntity
  8
0
100
AcDbLine
 62
7
  6
CONTINUOUS
 10
371.0805811753
 20
245.706399341
 11
370.5398453736
 21
247.0074072713
  0
LINE
  5
4AD
100
AcDbEntity
  8
0
100
AcDbLine
 62
7
  6
CONTINUOUS
 10
370.5398453736
 20
247.0074072713
 11
370.5023680796
 21
247.0976311695
  0
LINE
  5
4AE
100
AcDbEntity
  8
0
100
AcDbLine
 62
7
  6
CONTINUOUS
 10
370.5023680796
 20
247.0976311695
 11
370.1766746503
 21
247.8820038915
  0
SPLINE
  5
4AF
100
AcDbEntity
  8
0
100
AcDbSpline
 62
7
  6
CONTINUOUS
 70
0
 71
3
 72
9
 73
5
 74
0
 42
0.0000001
 43
0.0000001
 44
0.0000000001
 40
0.0
 40
0.0
 40
0.0
 40
0.0
 40
0.2540093511
 40
1.0
 40
1.0
 40
1.0
 40
1.0
 10
469.4298577873
 20
241.9245577932
 30
0.0
 10
469.440943247
 20
241.893747075
 30
0.0
 10
469.4824139346
 20
241.7716830832
 30
0.0
 10
469.5149546861
 20
241.6465550838
 30
0.0
 10
469.5336121397
 20
241.5522168905
 30
0.0
  0
LINE
  5
4B0
100
AcDbEntity
  8
0
100
AcDbLine
 62
7
  6
CONTINUOUS
 10
469.9502393313
 20
241.5468363316
 11
469.4851504157
 21
240.4351957471
  0
LINE
  5
4B1
100
AcDbEntity
  8
0
100
AcDbLine
 62
7
  6
CONTINUOUS
 10
468.5189054579
 20
238.2011531994
 11
468.4877060271
 21
238.1368634655
  0
LINE
  5
4B2
100
AcDbEntity
  8
0
100
AcDbLine
 62
7
  6
CONTINUOUS
 10
468.4877060271
 20
238.1368634655
 11
468.458275449
 21
238.0765367049
  0
SPLINE
  5
4B3
100
AcDbEntity
  8
0
100
AcDbSpline
 62
7
  6
CONTINUOUS
 70
0
 71
3
 72
9
 73
5
 74
0
 42
0.0000001
 43
0.0000001
 44
0.0000000001
 40
0.0
 40
0.0
 40
0.0
 40
0.0
 40
0.2572648095
 40
1.0
 40
1.0
 40
1.0
 40
1.0
 10
376.6313600375
 20
236.7117915445
 30
0.0
 10
376.5848440741
 20
236.7423743868
 30
0.0
 10
376.4048702348
 20
236.8625136285
 30
0.0
 10
376.2283263484
 20
236.9878226539
 30
0.0
 10
376.0996595815
 20
237.084132056
 30
0.0
  0
SPLINE
  5
4B4
100
AcDbEntity
  8
0
100
AcDbSpline
 62
7
  6
CONTINUOUS
 70
0
 71
3
 72
8
 73
4
 74
0
 42
0.0000001
 43
0.0000001
 44
0.0000000001
 40
0.0
 40
0.0
 40
0.0
 40
0.0
 40
1.0
 40
1.0
 40
1.0
 40
1.0
 10
375.067550078
 20
238.9458342225
 30
0.0
 10
374.1404154605
 20
241.157398191
 30
0.0
 10
373.2137663086
 20
243.3691657228
 30
0.0
 10
372.2875340178
 20
245.5811077495
 30
0.0
  0
LINE
  5
4B5
100
AcDbEntity
  8
0
100
AcDbLine
 62
7
  6
CONTINUOUS
 10
372.2875340178
 20
245.5811077495
 11
372.2595396725
 21
245.6479616047
  0
LINE
  5
4B6
100
AcDbEntity
  8
0
100
AcDbLine
 62
7
  6
CONTINUOUS
 10
373.0014712362
 20
245.6479616047
 11
372.3696353732
 21
247.1373231292
  0
LINE
  5
4B7
100
AcDbEntity
  8
0
100
AcDbLine
 62
7
  6
CONTINUOUS
 10
371.6359619199
 20
247.1373231292
 11
370.3892316705
 21
250.1160472215
  0
SPLINE
  5
4B8
100
AcDbEntity
  8
0
100
AcDbSpline
 62
7
  6
CONTINUOUS
 70
0
 71
3
 72
8
 73
4
 74
0
 42
0.0000001
 43
0.0000001
 44
0.0000000001
 40
0.0
 40
0.0
 40
0.0
 40
0.0
 40
1.0
 40
1.0
 40
1.0
 40
1.0
 10
467.7802379152
 20
239.3181746036
 30
0.0
 10
467.648964023
 20
238.9457605054
 30
0.0
 10
467.517482869
 20
238.5734193982
 30
0.0
 10
467.3857901486
 20
238.2011531994
 30
0.0
  0
SPLINE
  5
4B9
100
AcDbEntity
  8
0
100
AcDbSpline
 62
7
  6
CONTINUOUS
 70
0
 71
3
 72
9
 73
5
 74
0
 42
0.0000001
 43
0.0000001
 44
0.0000000001
 40
0.0
 40
0.0
 40
0.0
 40
0.0
 40
0.2542274251
 40
1.0
 40
1.0
 40
1.0
 40
1.0
 10
466.8329480186
 20
235.5947703032
 30
0.0
 10
466.8441689076
 20
235.5639724074
 30
0.0
 10
466.8860365416
 20
235.4420188467
 30
0.0
 10
466.9185525072
 20
235.3168201546
 30
0.0
 10
466.9368887029
 20
235.2224298895
 30
0.0
  0
SPLINE
  5
4BA
100
AcDbEntity
  8
BEZUGSACHSEN
100
AcDbSpline
 62
7
  6
CONTINUOUS
 70
0
 71
3
 72
24
 73
20
 74
0
 42
0.0000001
 43
0.0000001
 44
0.0000000001
 40
0.0
 40
0.0
 40
0.0
 40
0.0
 40
0.1717081102
 40
0.3362021505
 40
0.4136578282
 40
0.4869374787
 40
0.5554309887
 40
0.6186572641
 40
0.6762937461
 40
0.7282250183
 40
0.7746375712
 40
0.8161214259
 40
0.8539737592
 40
0.8723002993
 40
0.8908448825
 40
0.9103989475
 40
0.9323725553
 40
0.9602244383
 40
1.0
 40
1.0
 40
1.0
 40
1.0
 10
421.6528925192
 20
244.4350542339
 30
0.0
 10
424.5582588399
 20
244.4350542339
 30
0.0
 10
430.2474904454
 20
244.3226802954
 30
0.0
 10
437.2361167021
 20
243.8850537308
 30
0.0
 10
442.5414260238
 20
243.3270637865
 30
0.0
 10
446.2164019839
 20
242.8166240378
 30
0.0
 10
449.6312437627
 20
242.201420506
 30
0.0
 10
452.753700178
 20
241.4759332482
 30
0.0
 10
455.5562795958
 20
240.6340930368
 30
0.0
 10
458.0158899501
 20
239.6665810533
 30
0.0
 10
460.1158071763
 20
238.5628035657
 30
0.0
 10
461.8402458099
 20
237.2998624427
 30
0.0
 10
462.9607460612
 20
236.0624247789
 30
0.0
 10
463.6075935664
 20
234.9715421195
 30
0.0
 10
463.9700924327
 20
234.0841934066
 30
0.0
 10
464.2010018392
 20
233.0897471186
 30
0.0
 10
464.2696998958
 20
231.9116204064
 30
0.0
 10
464.0756787969
 20
230.4002351305
 30
0.0
 10
463.670858101
 20
229.3085987645
 30
0.0
 10
463.3401638039
 20
228.7224298895
 30
0.0
  0
LINE
  5
4BB
100
AcDbEntity
  8
0
100
AcDbLine
 62
7
  6
CONTINUOUS
 10
377.2637569722
 20
235.2224298895
 11
376.6313600375
 21
236.7117915445
  0
SPLINE
  5
4BC
100
AcDbEntity
  8
0
100
AcDbSpline
 62
7
  6
CONTINUOUS
 70
0
 71
3
 72
8
 73
4
 74
0
 42
0.0000001
 43
0.0000001
 44
0.0000000001
 40
0.0
 40
0.0
 40
0.0
 40
0.0
 40
1.0
 40
1.0
 40
1.0
 40
1.0
 10
472.1079143528
 20
246.7649827481
 30
0.0
 10
471.950499599
 20
246.3924942373
 30
0.0
 10
471.7927372249
 20
246.0201524322
 30
0.0
 10
471.6346199163
 20
245.6479616047
 30
0.0
  0
LINE
  5
4BD
100
AcDbEntity
  8
0
100
AcDbLine
 62
7
  6
CONTINUOUS
 10
471.1435753989
 20
244.5309404612
 11
471.1075668557
 21
244.4562625705
  0
LINE
  5
4BE
100
AcDbEntity
  8
0
100
AcDbLine
 62
7
  6
CONTINUOUS
 10
471.1075668557
 20
244.4562625705
 11
471.083379686
 21
244.4063531339
  0
SPLINE
  5
4BF
100
AcDbEntity
  8
0
100
AcDbSpline
 62
7
  6
CONTINUOUS
 70
0
 71
3
 72
8
 73
4
 74
0
 42
0.0000001
 43
0.0000001
 44
0.0000000001
 40
0.0
 40
0.0
 40
0.0
 40
0.0
 40
1.0
 40
1.0
 40
1.0
 40
1.0
 10
473.410519596
 20
248.6266856969
 30
0.0
 10
473.2599252613
 20
248.254223383
 30
0.0
 10
473.109032617
 20
247.881881537
 30
0.0
 10
472.9578354954
 20
247.5096635104
 30
0.0
  0
LINE
  5
4C0
100
AcDbEntity
  8
0
100
AcDbLine
 62
7
  6
CONTINUOUS
 10
472.9578354954
 20
247.5096635104
 11
472.6492821136
 21
246.7649827481
  0
SPLINE
  5
4C1
100
AcDbEntity
  8
0
100
AcDbSpline
 62
7
  6
CONTINUOUS
 70
0
 71
3
 72
8
 73
4
 74
0
 42
0.0000001
 43
0.0000001
 44
0.0000000001
 40
0.0
 40
0.0
 40
0.0
 40
0.0
 40
1.0
 40
1.0
 40
1.0
 40
1.0
 10
472.6492821136
 20
246.7649827481
 30
0.0
 10
472.4918975157
 20
246.3924957317
 30
0.0
 10
472.3341687128
 20
246.0201539544
 30
0.0
 10
472.176088531
 20
245.6479616047
 30
0.0
  0
SPLINE
  5
4C2
100
AcDbEntity
  8
0
100
AcDbSpline
 62
7
  6
CONTINUOUS
 70
0
 71
3
 72
9
 73
5
 74
0
 42
0.0000001
 43
0.0000001
 44
0.0000000001
 40
0.0
 40
0.0
 40
0.0
 40
0.0
 40
0.2540961738
 40
1.0
 40
1.0
 40
1.0
 40
1.0
 10
467.3809659942
 20
235.5947703032
 30
0.0
 10
467.3919413232
 20
235.5639657672
 30
0.0
 10
467.4328764986
 20
235.4419453213
 30
0.0
 10
467.4645114331
 20
235.3167720234
 30
0.0
 10
467.4822503351
 20
235.2224298895
 30
0.0
  0
SPLINE
  5
4C3
100
AcDbEntity
  8
0
100
AcDbSpline
 62
7
  6
CONTINUOUS
 70
0
 71
3
 72
9
 73
5
 74
0
 42
0.0000001
 43
0.0000001
 44
0.0000000001
 40
0.0
 40
0.0
 40
0.0
 40
0.0
 40
0.243411452
 40
1.0
 40
1.0
 40
1.0
 40
1.0
 10
474.73884211
 20
252.7224298895
 30
0.0
 10
474.7081014668
 20
252.6910297025
 30
0.0
 10
474.5805373641
 20
252.5632787366
 30
0.0
 10
474.4480747417
 20
252.4404455215
 30
0.0
 10
474.3456469746
 20
252.3500895084
 30
0.0
  0
LINE
  5
4C4
100
AcDbEntity
  8
0
100
AcDbLine
 62
7
  6
CONTINUOUS
 10
471.8058086757
 20
247.8820038915
 11
471.1744234448
 21
246.3926423669
  0
SPLINE
  5
4C5
100
AcDbEntity
  8
0
100
AcDbSpline
 62
7
  6
CONTINUOUS
 70
0
 71
3
 72
8
 73
4
 74
0
 42
0.0000001
 43
0.0000001
 44
0.0000000001
 40
0.0
 40
0.0
 40
0.0
 40
0.0
 40
1.0
 40
1.0
 40
1.0
 40
1.0
 10
468.3341618289
 20
239.3181746036
 30
0.0
 10
468.202686265
 20
238.9457607211
 30
0.0
 10
468.0710043501
 20
238.5734196209
 30
0.0
 10
467.9391118362
 20
238.2011531994
 30
0.0
  0
SPLINE
  5
4C6
100
AcDbEntity
  8
0
100
AcDbSpline
 62
7
  6
CONTINUOUS
 70
0
 71
3
 72
8
 73
4
 74
0
 42
0.0000001
 43
0.0000001
 44
0.0000000001
 40
0.0
 40
0.0
 40
0.0
 40
0.0
 40
1.0
 40
1.0
 40
1.0
 40
1.0
 10
470.0265348555
 20
240.4351957471
 30
0.0
 10
469.8689984483
 20
240.0627011901
 30
0.0
 10
469.71110062
 20
239.6903592701
 30
0.0
 10
469.5528334769
 20
239.3181746036
 30
0.0
  0
LINE
  5
4C7
100
AcDbEntity
  8
0
100
AcDbLine
 62
7
  6
CONTINUOUS
 10
470.9604552288
 20
242.6692385555
 11
470.647450149
 21
241.9197892389
  0
LINE
  5
4C8
100
AcDbEntity
  8
0
100
AcDbLine
 62
7
  6
CONTINUOUS
 10
470.647450149
 20
241.9197892389
 11
470.6371491393
 21
241.8951368198
  0
LINE
  5
4C9
100
AcDbEntity
  8
0
100
AcDbLine
 62
7
  6
CONTINUOUS
 10
470.6371491393
 20
241.8951368198
 11
470.4613605154
 21
241.4745573683
  0
LINE
  5
4CA
100
AcDbEntity
  8
0
100
AcDbLine
 62
7
  6
CONTINUOUS
 10
470.4613605154
 20
241.4745573683
 11
470.0265348555
 21
240.4351957471
  0
SPLINE
  5
4CB
100
AcDbEntity
  8
0
100
AcDbSpline
 62
7
  6
CONTINUOUS
 70
0
 71
3
 72
9
 73
5
 74
0
 42
0.0000001
 43
0.0000001
 44
0.0000000001
 40
0.0
 40
0.0
 40
0.0
 40
0.0
 40
0.2538903988
 40
1.0
 40
1.0
 40
1.0
 40
1.0
 10
469.9777996294
 20
241.9245577932
 30
0.0
 10
469.98865228
 20
241.89374106
 30
0.0
 10
470.0292368097
 20
241.7716163962
 30
0.0
 10
470.0609388033
 20
241.6465112727
 30
0.0
 10
470.0790241123
 20
241.5522168905
 30
0.0
  0
ELLIPSE
  5
4CC
100
AcDbEntity
  8
0
100
AcDbEllipse
 62
7
  6
CONTINUOUS
 10
183.3316729958
 20
277.0275661608
 30
0.0
 11
39.75
 21
0.0
 31
0.0
 40
0.2679491924
 41
-2.0357897831
 42
-1.1058028705
  0
ENDSEC
  0
SECTION
  2
OBJECTS
  0
DICTIONARY
  5
C
100
AcDbDictionary
280
0
281
1
  3
ACAD_GROUP
350
D
  3
ACAD_MLINESTYLE
350
17
  3
ACAD_LAYOUT
350
1A
  3
ACAD_PLOTSETTINGS
350
19
  3
ACAD_PLOTSTYLENAME
350
E
  0
DICTIONARY
  5
D
102
{ACAD_REACTORS
330
C
102
}
100
AcDbDictionary
280
0
281
1
  0
ACDBDICTIONARYWDFLT
  5
E
102
{ACAD_REACTORS
330
C
102
}
100
AcDbDictionary
281
1
  3
Normal
350
F
100
AcDbDictionaryWithDefault
340
F
  0
DICTIONARY
  5
17
102
{ACAD_REACTORS
330
C
102
}
100
AcDbDictionary
280
0
281
1
  3
Standard
350
18
  0
DICTIONARY
  5
19
102
{ACAD_REACTORS
330
C
102
}
100
AcDbDictionary
281
1
  0
DICTIONARY
  5
1A
102
{ACAD_REACTORS
330
C
102
}
100
AcDbDictionary
281
1
  3
Model
350
4CD
  3
Layout1
350
4CE
  0
ACDBPLACEHOLDER
  5
F
102
{ACAD_REACTORS
330
E
102
}
  0
MLINESTYLE
  5
18
102
{ACAD_REACTORS
330
17
102
}
100
AcDbMlineStyle
  2
STANDARD
 70
0
  3

 62
256
 51
90.0
 52
90.0
 71
2
 49
0.5
 62
256
  6
BYLAYER
 49
-0.5
 62
256
  6
BYLAYER
  0
LAYOUT
  5
4CD
102
{ACAD_REACTORS
330
1A
102
}
100
AcDbPlotSettings
  1

  2
none_device
  4
ISO_A2_(594.00_x_420.00_MM)
  6

 40
0.0
 41
0.0
 42
0.0
 43
0.0
 44
594.0
 45
420.0
 46
0.0
 47
0.0
 48
0.0
 49
0.0
140
0.0
141
0.0
142
1.0
143
1.0
 70
1024
 72
1
 73
0
 74
0
  7

 75
0
147
1.0
148
0.0
149
0.0
100
AcDbLayout
  1
Model
 70
0
 71
0
 10
0.0
 20
0.0
 11
594.0
 21
420.0
 12
0.0
 22
0.0
 32
0.0
 14
0.0
 24
0.0
 34
0.0
 15
0.0
 25
0.0
 35
0.0
146
0.0
 13
0.0
 23
0.0
 33
0.0
 16
1.0
 26
0.0
 36
0.0
 17
0.0
 27
1.0
 37
0.0
 76
0
330
20E
345
0
346
0
  0
LAYOUT
  5
4CE
102
{ACAD_REACTORS
330
1A
102
}
100
AcDbPlotSettings
  1

  2
none_device
  4
ISO_A2_(594.00_x_420.00_MM)
  6

 40
0.0
 41
0.0
 42
0.0
 43
0.0
 44
594.0
 45
420.0
 46
0.0
 47
0.0
 48
0.0
 49
0.0
140
0.0
141
0.0
142
1.0
143
1.0
 70
0
 72
1
 73
0
 74
0
  7

 75
0
147
1.0
148
0.0
149
0.0
100
AcDbLayout
  1
Layout1
 70
0
 71
1
 10
0.0
 20
0.0
 11
594.0
 21
420.0
 12
0.0
 22
0.0
 32
0.0
 14
0.0
 24
0.0
 34
0.0
 15
0.0
 25
0.0
 35
0.0
146
0.0
 13
0.0
 23
0.0
 33
0.0
 16
1.0
 26
0.0
 36
0.0
 17
0.0
 27
1.0
 37
0.0
 76
0
330
20F
345
0
346
0
  0
ENDSEC
  0
EOF
