999
DXF file: 001-m32986-p-2.dxf
999
Pro/ENGINEER 2011490 by Parametric Technology Corporation
  0
SECTION
  2
HEADER
  9
$ACADVER
  1
AC1015
  9
$DWGCODEPAGE
  3
ANSI_1252
  9
$EXTMAX
 10
594.0
 20
420.0
 30
0.0
  9
$EXTMIN
 10
0.0
 20
0.0
 30
0.0
  9
$LIMMIN
 10
0.0
 20
0.0
  9
$LIMMAX
 10
594.0
 20
420.0
  9
$VIEWCTR
 10
297.0
 20
210.0
  9
$VIEWSIZE
 40
420.0
  9
$CLAYER
  8
0
  9
$LTSCALE
 40
32.67
  9
$CELTYPE
  6
BYLAYER
  9
$DIMSCALE
 40
1.0
  9
$DIMASZ
 40
3.5
  9
$DIMEXO
 40
3.7125
  9
$DIMDLI
 40
22.572
  9
$DIMEXE
 40
10.692
  9
$DIMCEN
 40
5.346
  9
$DIMLFAC
 40
1.0
  9
$DIMBLK
  1
_FILLED
  9
$DIMTXT
 40
3.5
  9
$DIMTOL
 70
1
  9
$DIMLIM
 70
0
  9
$DIMTFAC
 40
1.0
  9
$DIMTP
 40
0.005
  9
$DIMTM
 40
0.005
  9
$PDMODE
 70
3
  9
$PDSIZE
 40
0.3125
  9
$HANDSEED
  5
422
  9
$TILEMODE
 70
1
  9
$MEASUREMENT
 70
1
  9
$INSUNITS
 70
4
  0
ENDSEC
  0
SECTION
  2
CLASSES
  0
CLASS
  1
ACDBDICTIONARYWDFLT
  2
AcDbDictionaryWithDefault
  3
AutoCAD 2000
 90
0
280
0
281
0
  0
CLASS
  1
ACDBPLACEHOLDER
  2
AcDbPlaceHolder
  3
AutoCAD 2000
 90
0
280
0
281
0
  0
CLASS
  1
LAYOUT
  2
AcDbLayout
  3
AutoCAD 2000
 90
0
280
0
281
0
  0
ENDSEC
  0
SECTION
  2
TABLES
  0
TABLE
  2
VPORT
  5
8
100
AcDbSymbolTable
 70
2
  0
VPORT
  5
1F4
100
AcDbSymbolTableRecord
100
AcDbViewportTableRecord
  2
*ACTIVE
 70
0
 10
0.0
 20
0.0
 11
1.0
 21
1.0
 12
297.0
 22
210.0
 13
0.0
 23
0.0
 14
1.0
 24
1.0
 15
0.0
 25
0.0
 16
0.0
 26
0.0
 36
1.0
 17
0.0
 27
0.0
 37
0.0
 40
420.0
 41
1.4142857143
 42
50.0
 43
0.0
 44
0.0
 50
0.0
 51
0.0
 71
0
 72
100
 73
1
 74
1
 75
0
 76
0
 77
0
 78
0
  0
ENDTAB
  0
TABLE
  2
LTYPE
  5
5
100
AcDbSymbolTable
 70
6
  0
LTYPE
  5
14
100
AcDbSymbolTableRecord
100
AcDbLinetypeTableRecord
  2
BYBLOCK
 70
0
  3

 72
65
 73
0
 40
0.0
  0
LTYPE
  5
15
100
AcDbSymbolTableRecord
100
AcDbLinetypeTableRecord
  2
BYLAYER
 70
0
  3

 72
65
 73
0
 40
0.0
  0
LTYPE
  5
16
100
AcDbSymbolTableRecord
100
AcDbLinetypeTableRecord
  2
CONTINUOUS
 70
64
  3
Solid line
 72
65
 73
0
 40
0.0
  0
LTYPE
  5
1F5
100
AcDbSymbolTableRecord
100
AcDbLinetypeTableRecord
  2
CENTER
 70
64
  3
____ _ ____ _ ____ _ ____ _ ____ _ ____ _ ____
 72
65
 73
4
 40
0.6
 49
0.375
 74
0
 49
-0.075
 74
0
 49
0.075
 74
0
 49
-0.075
 74
0
  0
LTYPE
  5
1F6
100
AcDbSymbolTableRecord
100
AcDbLinetypeTableRecord
  2
HIDDEN
 70
64
  3
- - - - - - - - - - - - - - - - - - - -
 72
65
 73
2
 40
0.2
 49
0.1
 74
0
 49
-0.1
 74
0
  0
LTYPE
  5
1F7
100
AcDbSymbolTableRecord
100
AcDbLinetypeTableRecord
  2
PHANTOM
 70
64
  3
_____ _ _ _____ _ _ _____ _ _ _____
 72
65
 73
6
 40
0.8
 49
0.45
 74
0
 49
-0.05
 74
0
 49
0.1
 74
0
 49
-0.05
 74
0
 49
0.1
 74
0
 49
-0.05
 74
0
  0
LTYPE
  5
1F8
100
AcDbSymbolTableRecord
100
AcDbLinetypeTableRecord
  2
DOT
 70
64
  3
. . . . . . . . . . . . . . . . . . . .
 72
65
 73
2
 40
0.2
 49
0.1
 74
0
 49
-0.1
 74
0
  0
LTYPE
  5
1F9
100
AcDbSymbolTableRecord
100
AcDbLinetypeTableRecord
  2
DASHED
 70
64
  3
- - - - - - - - - - - - - - - - - - - -
 72
65
 73
2
 40
0.2
 49
0.1
 74
0
 49
-0.1
 74
0
  0
ENDTAB
  0
TABLE
  2
LAYER
  5
2
100
AcDbSymbolTable
 70
36
  0
LAYER
  5
10
100
AcDbSymbolTableRecord
100
AcDbLayerTableRecord
  2
0
 70
0
 62
7
  6
CONTINUOUS
370
-3
390
F
  0
LAYER
  5
1FA
100
AcDbSymbolTableRecord
100
AcDbLayerTableRecord
  2
DEFAULT_1
 70
0
 62
7
  6
CENTER
370
-3
390
F
  0
LAYER
  5
1FB
100
AcDbSymbolTableRecord
100
AcDbLayerTableRecord
  2
DEFAULT_2
 70
0
 62
8
  6
HIDDEN
370
-3
390
F
  0
LAYER
  5
1FC
100
AcDbSymbolTableRecord
100
AcDbLayerTableRecord
  2
DEFAULT_3
 70
0
 62
7
  6
PHANTOM
370
-3
390
F
  0
LAYER
  5
1FD
100
AcDbSymbolTableRecord
100
AcDbLayerTableRecord
  2
BEZUGSACHSEN
 70
0
 62
7
  6
CONTINUOUS
370
-3
390
F
  0
LAYER
  5
1FE
100
AcDbSymbolTableRecord
100
AcDbLayerTableRecord
  2
BEZUGSEBENEN
 70
0
 62
7
  6
CONTINUOUS
370
-3
390
F
  0
LAYER
  5
1FF
100
AcDbSymbolTableRecord
100
AcDbLayerTableRecord
  2
BG_STARTBEZUEGE
 70
0
 62
7
  6
CONTINUOUS
370
-3
390
F
  0
LAYER
  5
200
100
AcDbSymbolTableRecord
100
AcDbLayerTableRecord
  2
FASEN
 70
0
 62
7
  6
CONTINUOUS
370
-3
390
F
  0
LAYER
  5
201
100
AcDbSymbolTableRecord
100
AcDbLayerTableRecord
  2
FLAECHEN
 70
0
 62
7
  6
CONTINUOUS
370
-3
390
F
  0
LAYER
  5
202
100
AcDbSymbolTableRecord
100
AcDbLayerTableRecord
  2
GEWINDE
 70
0
 62
7
  6
CONTINUOUS
370
-3
390
F
  0
LAYER
  5
203
100
AcDbSymbolTableRecord
100
AcDbLayerTableRecord
  2
HILFEN
 70
0
 62
7
  6
CONTINUOUS
370
-3
390
F
  0
LAYER
  5
204
100
AcDbSymbolTableRecord
100
AcDbLayerTableRecord
  2
KONSTRUKTIONSELEMENTE
 70
0
 62
7
  6
CONTINUOUS
370
-3
390
F
  0
LAYER
  5
205
100
AcDbSymbolTableRecord
100
AcDbLayerTableRecord
  2
KURVEN
 70
0
 62
7
  6
CONTINUOUS
370
-3
390
F
  0
LAYER
  5
206
100
AcDbSymbolTableRecord
100
AcDbLayerTableRecord
  2
NORM
 70
0
 62
7
  6
CONTINUOUS
370
-3
390
F
  0
LAYER
  5
207
100
AcDbSymbolTableRecord
100
AcDbLayerTableRecord
  2
PLATZIERUNG
 70
0
 62
7
  6
CONTINUOUS
370
-3
390
F
  0
LAYER
  5
208
100
AcDbSymbolTableRecord
100
AcDbLayerTableRecord
  2
RUNDUNGEN
 70
0
 62
7
  6
CONTINUOUS
370
-3
390
F
  0
LAYER
  5
209
100
AcDbSymbolTableRecord
100
AcDbLayerTableRecord
  2
TEIL_STARTBEZUEGE
 70
0
 62
7
  6
CONTINUOUS
370
-3
390
F
  0
LAYER
  5
20A
100
AcDbSymbolTableRecord
100
AcDbLayerTableRecord
  2
T_STARTBEZUEGE
 70
0
 62
7
  6
CONTINUOUS
370
-3
390
F
  0
LAYER
  5
20B
100
AcDbSymbolTableRecord
100
AcDbLayerTableRecord
  2
ZEICHNUNGSBEMASSUNGEN
 70
0
 62
7
  6
CONTINUOUS
370
-3
390
F
  0
ENDTAB
  0
TABLE
  2
STYLE
  5
3
100
AcDbSymbolTable
 70
1
  0
STYLE
  5
11
100
AcDbSymbolTableRecord
100
AcDbTextStyleTableRecord
  2
STANDARD
 70
0
 40
0.0
 41
0.7
 50
0.0
 71
0
 42
0.2
  3
txt
  4

  0
STYLE
  5
20C
100
AcDbSymbolTableRecord
100
AcDbTextStyleTableRecord
  2
TEXTSTYLE_1
 70
0
 40
0.0
 41
0.8
 50
0.0
 71
0
 42
0.2
  3
gdt
  4

  0
ENDTAB
  0
TABLE
  2
VIEW
  5
6
100
AcDbSymbolTable
 70
0
  0
ENDTAB
  0
TABLE
  2
UCS
  5
7
100
AcDbSymbolTable
 70
0
  0
ENDTAB
  0
TABLE
  2
APPID
  5
9
100
AcDbSymbolTable
 70
1
  0
APPID
  5
20D
100
AcDbSymbolTableRecord
100
AcDbRegAppTableRecord
  2
ACAD
 70
0
  0
ENDTAB
  0
TABLE
  2
BLOCK_RECORD
  5
1
100
AcDbSymbolTable
 70
0
  0
BLOCK_RECORD
  5
20E
100
AcDbSymbolTableRecord
100
AcDbBlockTableRecord
  2
*Model_Space
  0
BLOCK_RECORD
  5
20F
100
AcDbSymbolTableRecord
100
AcDbBlockTableRecord
  2
*Paper_Space
  0
ENDTAB
  0
TABLE
  2
DIMSTYLE
  5
A
100
AcDbSymbolTable
 70
1
100
AcDbDimStyleTable
 71
0
  0
DIMSTYLE
105
210
100
AcDbSymbolTableRecord
100
AcDbDimStyleTableRecord
  2
STANDARD
 70
0
  3

  4

 40
1.0
 41
3.5
 42
0.0625
 43
0.38
 44
0.18
 45
0.0
 46
0.0
 47
0.005
 48
0.005
140
3.5
141
0.09
142
0.0
143
25.4
144
1.0
145
0.0
146
1.0
147
0.09
 71
1.0
 72
0.0
 73
0
 74
0
 75
0
 76
0
 77
1
 78
8
170
0
171
2
172
0
173
0
174
0
175
0
176
0
177
0
178
5
270
2
271
3
272
3
273
2
274
2
275
0
280
0
281
0
282
0
283
1
284
8
285
0
286
0
287
3
288
0
340
11
  0
ENDTAB
  0
ENDSEC
  0
SECTION
  2
BLOCKS
  0
BLOCK
  5
20
100
AcDbEntity
  8
0
100
AcDbBlockBegin
  2
*Model_Space
 70
0
 10
0.0
 20
0.0
 30
0.0
  3
*Model_Space
  1

  0
ENDBLK
  5
21
100
AcDbEntity
  8
0
100
AcDbBlockEnd
  0
BLOCK
  5
1C
100
AcDbEntity
  8
0
100
AcDbBlockBegin
  2
*Paper_Space
 70
0
 10
0.0
 20
0.0
 30
0.0
  3
*Paper_Space
  1

  0
ENDBLK
  5
1D
100
AcDbEntity
  8
0
100
AcDbBlockEnd
  0
ENDSEC
  0
SECTION
  2
ENTITIES
  0
MTEXT
  5
211
100
AcDbEntity
  8
0
100
AcDbMText
 62
5
  6
CONTINUOUS
  7
STANDARD
 71
1
 72
1
 10
418.8899255162
 20
296.0924347952
 30
0.0
 11
0.0
 21
1.0
 31
0.0
 44
0.9
  1
VRS 7t RUD
 40
8.0
 41
64.0
  0
MTEXT
  5
212
100
AcDbEntity
  8
0
100
AcDbMText
 62
5
  6
CONTINUOUS
  7
STANDARD
 71
1
 72
1
 10
109.1630094627
 20
76.0787217826
 30
0.0
 11
1.0
 21
0.0
 31
0.0
 44
0.9
  1
VRS 7t RUD
 40
8.0
 41
64.0
  0
LINE
  5
213
100
AcDbEntity
  8
0
100
AcDbLine
 62
7
  6
CONTINUOUS
 10
0.0
 20
0.0
 11
0.0
 21
420.0
  0
LINE
  5
214
100
AcDbEntity
  8
0
100
AcDbLine
 62
7
  6
CONTINUOUS
 10
0.0
 20
0.0
 11
594.0
 21
0.0
  0
LINE
  5
215
100
AcDbEntity
  8
0
100
AcDbLine
 62
7
  6
CONTINUOUS
 10
0.0
 20
420.0
 11
594.0
 21
420.0
  0
LINE
  5
216
100
AcDbEntity
  8
0
100
AcDbLine
 62
7
  6
CONTINUOUS
 10
594.0
 20
0.0
 11
594.0
 21
420.0
  0
LINE
  5
217
100
AcDbEntity
  8
KONSTRUKTIONSELEMENTE
100
AcDbLine
 62
7
  6
CONTINUOUS
 10
125.1694941834
 20
187.2584076023
 11
155.6694941834
 21
187.2584076023
  0
LINE
  5
218
100
AcDbEntity
  8
KONSTRUKTIONSELEMENTE
100
AcDbLine
 62
7
  6
CONTINUOUS
 10
122.4194941834
 20
190.0084076023
 11
158.4194941834
 21
190.0084076023
  0
LINE
  5
219
100
AcDbEntity
  8
KONSTRUKTIONSELEMENTE
100
AcDbLine
 62
7
  6
CONTINUOUS
 10
122.4194941834
 20
190.0084076023
 11
125.1694941834
 21
187.2584076023
  0
LINE
  5
21A
100
AcDbEntity
  8
KONSTRUKTIONSELEMENTE
100
AcDbLine
 62
7
  6
CONTINUOUS
 10
114.0194941834
 20
241.2584076023
 11
166.8194941834
 21
241.2584076023
  0
LINE
  5
21B
100
AcDbEntity
  8
BEZUGSACHSEN
100
AcDbLine
 62
7
  6
CONTINUOUS
 10
177.9194941834
 20
241.4584076023
 11
102.9194941834
 21
241.4584076023
  0
LINE
  5
21C
100
AcDbEntity
  8
BEZUGSACHSEN
100
AcDbLine
 62
7
  6
CONTINUOUS
 10
73.1352728197
 20
311.5917801797
 11
73.5262558795
 21
312.5356967853
  0
LINE
  5
21D
100
AcDbEntity
  8
RUNDUNGEN
100
AcDbLine
 62
7
  6
CONTINUOUS
 10
73.5262558795
 20
312.5356967853
 11
91.8688601097
 21
356.8186606871
  0
LINE
  5
21E
100
AcDbEntity
  8
RUNDUNGEN
100
AcDbLine
 62
7
  6
CONTINUOUS
 10
95.2619296075
 20
360.1240426518
 11
138.2692864861
 21
376.6330201995
  0
LINE
  5
21F
100
AcDbEntity
  8
0
100
AcDbLine
 62
7
  6
CONTINUOUS
 10
132.9194941089
 20
247.4584076023
 11
134.7944943324
 21
247.4584076023
  0
LINE
  5
220
100
AcDbEntity
  8
0
100
AcDbLine
 62
7
  6
CONTINUOUS
 10
143.5444944814
 20
256.3945776439
 11
146.0444947794
 21
256.3945776439
  0
LINE
  5
221
100
AcDbEntity
  8
0
100
AcDbLine
 62
7
  6
CONTINUOUS
 10
147.6069941834
 20
256.3945776439
 11
151.0444935873
 21
256.3945776439
  0
LINE
  5
222
100
AcDbEntity
  8
0
100
AcDbLine
 62
7
  6
CONTINUOUS
 10
148.5444941834
 20
247.7775565284
 11
150.4194941834
 21
247.4584076023
  0
LINE
  5
223
100
AcDbEntity
  8
0
100
AcDbLine
 62
7
  6
CONTINUOUS
 10
150.4194941834
 20
248.7350033066
 11
148.8569947794
 21
249.0541523165
  0
LINE
  5
224
100
AcDbEntity
  8
0
100
AcDbLine
 62
7
  6
CONTINUOUS
 10
147.6069941834
 20
248.0967054544
 11
148.5444941834
 21
247.7775565284
  0
LINE
  5
225
100
AcDbEntity
  8
BEZUGSACHSEN
100
AcDbLine
 62
7
  6
CONTINUOUS
 10
94.890387011
 20
254.7402242396
 11
73.1393509349
 21
306.9897581744
  0
LINE
  5
226
100
AcDbEntity
  8
0
100
AcDbLine
 62
7
  6
CONTINUOUS
 10
106.9036203991
 20
351.6445732981
 11
107.1222405278
 21
352.0888657768
  0
LINE
  5
227
100
AcDbEntity
  8
0
100
AcDbLine
 62
7
  6
CONTINUOUS
 10
104.8326061335
 20
346.8654901994
 11
104.6139860049
 21
346.4211977207
  0
LINE
  5
228
100
AcDbEntity
  8
0
100
AcDbLine
 62
7
  6
CONTINUOUS
 10
106.4452234775
 20
352.765882827
 11
106.1161170714
 21
352.2111040708
  0
LINE
  5
229
100
AcDbEntity
  8
0
100
AcDbLine
 62
7
  6
CONTINUOUS
 10
106.9976498074
 20
353.3183091569
 11
106.4452234775
 21
352.765882827
  0
LINE
  5
22A
100
AcDbEntity
  8
0
100
AcDbLine
 62
7
  6
CONTINUOUS
 10
102.2467765428
 20
348.5674358922
 11
99.5951261133
 21
345.9157854628
  0
LINE
  5
22B
100
AcDbEntity
  8
0
100
AcDbLine
 62
7
  6
CONTINUOUS
 10
98.7112425315
 20
345.0319018809
 11
98.0483299241
 21
344.3689892736
  0
LINE
  5
22C
100
AcDbEntity
  8
0
100
AcDbLine
 62
7
  6
CONTINUOUS
 10
94.9547378618
 20
341.2753972112
 11
94.2918252544
 21
340.6124846039
  0
LINE
  5
22D
100
AcDbEntity
  8
0
100
AcDbLine
 62
7
  6
CONTINUOUS
 10
100.8222195959
 20
346.014517195
 11
102.9214430633
 21
348.1137406623
  0
LINE
  5
22E
100
AcDbEntity
  8
0
100
AcDbLine
 62
7
  6
CONTINUOUS
 10
107.1222405278
 20
352.0888657768
 11
107.7851531351
 21
352.7517783841
  0
LINE
  5
22F
100
AcDbEntity
  8
0
100
AcDbLine
 62
7
  6
CONTINUOUS
 10
109.0122466177
 20
352.8505101163
 11
109.675159225
 21
353.5134227237
  0
LINE
  5
230
100
AcDbEntity
  8
0
100
AcDbLine
 62
7
  6
CONTINUOUS
 10
109.3648599017
 20
351.1720716175
 11
108.7019472944
 21
350.5091590102
  0
LINE
  5
231
100
AcDbEntity
  8
0
100
AcDbLine
 62
7
  6
CONTINUOUS
 10
104.6139860049
 20
346.4211977207
 11
102.5147625375
 21
344.3219742533
  0
LINE
  5
232
100
AcDbEntity
  8
0
100
AcDbLine
 62
7
  6
CONTINUOUS
 10
103.1917795877
 20
343.6449572031
 11
105.0700317645
 21
345.5232093799
  0
LINE
  5
233
100
AcDbEntity
  8
0
100
AcDbLine
 62
7
  6
CONTINUOUS
 10
109.3789643446
 20
349.8321419599
 11
110.0418769519
 21
350.4950545673
  0
LINE
  5
234
100
AcDbEntity
  8
0
100
AcDbLine
 62
7
  6
CONTINUOUS
 10
109.1767987144
 20
347.8245972131
 11
108.5138867392
 21
347.1616852379
  0
LINE
  5
235
100
AcDbEntity
  8
0
100
AcDbLine
 62
7
  6
CONTINUOUS
 10
107.6629135767
 20
353.7579005761
 11
106.9976498074
 21
353.3183091569
  0
LINE
  5
236
100
AcDbEntity
  8
0
100
AcDbLine
 62
7
  6
CONTINUOUS
 10
102.9120396799
 20
349.0070266793
 11
102.2467765428
 21
348.5674358922
  0
LINE
  5
237
100
AcDbEntity
  8
0
100
AcDbLine
 62
7
  6
CONTINUOUS
 10
110.0301224066
 20
351.6116617724
 11
109.3648599017
 21
351.1720716175
  0
LINE
  5
238
100
AcDbEntity
  8
0
100
AcDbLine
 62
7
  6
CONTINUOUS
 10
110.0418769519
 20
350.4950545673
 11
110.5966544438
 21
350.824159709
  0
LINE
  5
239
100
AcDbEntity
  8
0
100
AcDbLine
 62
7
  6
CONTINUOUS
 10
108.8241855884
 20
349.5030355538
 11
109.3789643446
 21
349.8321419599
  0
LINE
  5
23A
100
AcDbEntity
  8
0
100
AcDbLine
 62
7
  6
CONTINUOUS
 10
107.7851531351
 20
352.7517783841
 11
108.2294456138
 21
352.9703985128
  0
LINE
  5
23B
100
AcDbEntity
  8
0
100
AcDbLine
 62
7
  6
CONTINUOUS
 10
102.9214430633
 20
348.1137406623
 11
103.365735542
 21
348.332360791
  0
LINE
  5
23C
100
AcDbEntity
  8
0
100
AcDbLine
 62
7
  6
CONTINUOUS
 10
108.7019472944
 20
350.5091590102
 11
108.2576548156
 21
350.2905388815
  0
LINE
  5
23D
100
AcDbEntity
  8
0
100
AcDbLine
 62
7
  6
CONTINUOUS
 10
134.6382440344
 20
360.9264926231
 11
134.1694940344
 21
360.766918174
  0
LINE
  5
23E
100
AcDbEntity
  8
0
100
AcDbLine
 62
7
  6
CONTINUOUS
 10
151.0444935873
 20
257.6711732364
 11
147.6069941834
 21
257.6711732364
  0
LINE
  5
23F
100
AcDbEntity
  8
0
100
AcDbLine
 62
7
  6
CONTINUOUS
 10
146.0444947794
 20
257.6711732364
 11
143.5444944814
 21
257.6711732364
  0
LINE
  5
240
100
AcDbEntity
  8
0
100
AcDbLine
 62
7
  6
CONTINUOUS
 10
147.6069941834
 20
260.2243653154
 11
146.0444947794
 21
260.2243653154
  0
LINE
  5
241
100
AcDbEntity
  8
0
100
AcDbLine
 62
7
  6
CONTINUOUS
 10
129.7944941834
 20
260.8626631117
 11
139.1694941834
 21
260.8626631117
  0
LINE
  5
242
100
AcDbEntity
  8
0
100
AcDbLine
 62
7
  6
CONTINUOUS
 10
141.0444941834
 20
262.4584076023
 11
129.7944941834
 21
262.4584076023
  0
LINE
  5
243
100
AcDbEntity
  8
0
100
AcDbLine
 62
7
  6
CONTINUOUS
 10
146.6694941834
 20
248.7350033066
 11
147.6069941834
 21
248.0967054544
  0
LINE
  5
244
100
AcDbEntity
  8
0
100
AcDbLine
 62
7
  6
CONTINUOUS
 10
148.8569947794
 20
249.0541523165
 11
147.9194947794
 21
249.6924501127
  0
LINE
  5
245
100
AcDbEntity
  8
0
100
AcDbLine
 62
7
  6
CONTINUOUS
 10
104.8279044419
 20
347.3121332079
 11
104.8326061335
 21
346.8654901994
  0
LINE
  5
246
100
AcDbEntity
  8
0
100
AcDbLine
 62
7
  6
CONTINUOUS
 10
105.8998481047
 20
351.5434904039
 11
105.9092514881
 21
350.650204387
  0
LINE
  5
247
100
AcDbEntity
  8
0
100
AcDbLine
 62
7
  6
CONTINUOUS
 10
106.7978364455
 20
351.0874446443
 11
106.9036203991
 21
351.6445732981
  0
LINE
  5
248
100
AcDbEntity
  8
0
100
AcDbLine
 62
7
  6
CONTINUOUS
 10
112.1693088309
 20
349.9144179293
 11
112.0635249563
 21
349.3572891965
  0
LINE
  5
249
100
AcDbEntity
  8
0
100
AcDbLine
 62
7
  6
CONTINUOUS
 10
106.1161170714
 20
352.2111040708
 11
105.8998481047
 21
351.5434904039
  0
LINE
  5
24A
100
AcDbEntity
  8
0
100
AcDbLine
 62
7
  6
CONTINUOUS
 10
105.5072720218
 20
346.4117943373
 11
105.7235416207
 21
347.0794086364
  0
LINE
  5
24B
100
AcDbEntity
  8
0
100
AcDbLine
 62
7
  6
CONTINUOUS
 10
112.8510270888
 20
348.7907570902
 11
113.0672972902
 21
349.4583720511
  0
LINE
  5
24C
100
AcDbEntity
  8
0
100
AcDbLine
 62
7
  6
CONTINUOUS
 10
112.0635249563
 20
349.3572891965
 11
111.7344198146
 21
348.8025117047
  0
LINE
  5
24D
100
AcDbEntity
  8
0
100
AcDbLine
 62
7
  6
CONTINUOUS
 10
112.4114369438
 20
348.1254945754
 11
112.8510270888
 21
348.7907570902
  0
LINE
  5
24E
100
AcDbEntity
  8
0
100
AcDbLine
 62
7
  6
CONTINUOUS
 10
134.9507441834
 20
361.2456415212
 11
134.6382440344
 21
360.9264926231
  0
LINE
  5
24F
100
AcDbEntity
  8
0
100
AcDbLine
 62
7
  6
CONTINUOUS
 10
111.7344198146
 20
348.8025117047
 11
110.8505359166
 21
347.9186278067
  0
LINE
  5
250
100
AcDbEntity
  8
0
100
AcDbLine
 62
7
  6
CONTINUOUS
 10
101.362893119
 20
337.0769507506
 11
102.2467765428
 21
337.9608341744
  0
LINE
  5
251
100
AcDbEntity
  8
0
100
AcDbLine
 62
7
  6
CONTINUOUS
 10
104.8984269722
 20
340.6124846039
 11
105.5613395796
 21
341.2753972112
  0
LINE
  5
252
100
AcDbEntity
  8
0
100
AcDbLine
 62
7
  6
CONTINUOUS
 10
108.3234756543
 20
344.037533286
 11
109.0968732748
 21
344.8109309064
  0
LINE
  5
253
100
AcDbEntity
  8
0
100
AcDbLine
 62
7
  6
CONTINUOUS
 10
111.5275530459
 20
347.2416106775
 11
112.4114369438
 21
348.1254945754
  0
LINE
  5
254
100
AcDbEntity
  8
0
100
AcDbLine
 62
7
  6
CONTINUOUS
 10
141.6694944814
 20
357.8945778674
 11
141.2007444814
 21
357.5754288575
  0
LINE
  5
255
100
AcDbEntity
  8
0
100
AcDbLine
 62
7
  6
CONTINUOUS
 10
110.8622892667
 20
346.8020192681
 11
111.5275530459
 21
347.2416106775
  0
LINE
  5
256
100
AcDbEntity
  8
0
100
AcDbLine
 62
7
  6
CONTINUOUS
 10
110.8505359166
 20
347.9186278067
 11
110.2957584248
 21
347.589522665
  0
LINE
  5
257
100
AcDbEntity
  8
0
100
AcDbLine
 62
7
  6
CONTINUOUS
 10
134.7944943324
 20
360.1286203778
 11
135.4194941834
 21
360.4477692759
  0
LINE
  5
258
100
AcDbEntity
  8
0
100
AcDbLine
 62
7
  6
CONTINUOUS
 10
141.3569938854
 20
356.6179820654
 11
141.9819941834
 21
356.9371310054
  0
LINE
  5
259
100
AcDbEntity
  8
0
100
AcDbLine
 62
7
  6
CONTINUOUS
 10
110.6977373379
 20
351.8279320035
 11
110.0301224066
 21
351.6116617724
  0
LINE
  5
25A
100
AcDbEntity
  8
0
100
AcDbLine
 62
7
  6
CONTINUOUS
 10
108.1565719215
 20
349.2867665871
 11
108.8241855884
 21
349.5030355538
  0
LINE
  5
25B
100
AcDbEntity
  8
0
100
AcDbLine
 62
7
  6
CONTINUOUS
 10
113.0672972902
 20
349.4583720511
 11
113.0578938673
 21
350.3516581075
  0
LINE
  5
25C
100
AcDbEntity
  8
KONSTRUKTIONSELEMENTE
100
AcDbLine
 62
7
  6
CONTINUOUS
 10
114.0194941834
 20
241.4584076023
 11
114.0194941834
 21
241.2584076023
  0
LINE
  5
25D
100
AcDbEntity
  8
0
100
AcDbLine
 62
7
  6
CONTINUOUS
 10
115.4194941834
 20
286.7584076023
 11
115.4194941834
 21
290.7584076023
  0
LINE
  5
25E
100
AcDbEntity
  8
0
100
AcDbLine
 62
7
  6
CONTINUOUS
 10
141.9819941834
 20
358.3733012146
 11
141.6694944814
 21
357.8945778674
  0
LINE
  5
25F
100
AcDbEntity
  8
0
100
AcDbLine
 62
7
  6
CONTINUOUS
 10
135.4194941834
 20
360.4477692759
 11
135.8882441834
 21
361.0860670722
  0
LINE
  5
260
100
AcDbEntity
  8
0
100
AcDbLine
 62
7
  6
CONTINUOUS
 10
141.9819941834
 20
356.9371310054
 11
142.6069944814
 21
357.5754288575
  0
LINE
  5
261
100
AcDbEntity
  8
0
100
AcDbLine
 62
7
  6
CONTINUOUS
 10
149.4819941834
 20
356.9371310054
 11
150.1069935873
 21
357.5754288575
  0
LINE
  5
262
100
AcDbEntity
  8
0
100
AcDbLine
 62
7
  6
CONTINUOUS
 10
149.1694935873
 20
357.8945778674
 11
148.7007435873
 21
357.5754288575
  0
LINE
  5
263
100
AcDbEntity
  8
0
100
AcDbLine
 62
7
  6
CONTINUOUS
 10
148.8569947794
 20
356.6179820654
 11
149.4819941834
 21
356.9371310054
  0
LINE
  5
264
100
AcDbEntity
  8
RUNDUNGEN
100
AcDbLine
 62
7
  6
CONTINUOUS
 10
210.9194941834
 20
285.7584076023
 11
116.4194941834
 21
285.7584076023
  0
LINE
  5
265
100
AcDbEntity
  8
RUNDUNGEN
100
AcDbLine
 62
7
  6
CONTINUOUS
 10
116.4194941834
 20
291.7584076023
 11
210.9194941834
 21
291.7584076023
  0
LINE
  5
266
100
AcDbEntity
  8
0
100
AcDbLine
 62
7
  6
CONTINUOUS
 10
136.9194941834
 20
292.0584076023
 11
143.9194941834
 21
292.0584076023
  0
LINE
  5
267
100
AcDbEntity
  8
0
100
AcDbLine
 62
7
  6
CONTINUOUS
 10
102.2467765428
 20
337.9608341744
 11
98.7112425315
 21
345.0319018809
  0
LINE
  5
268
100
AcDbEntity
  8
0
100
AcDbLine
 62
7
  6
CONTINUOUS
 10
98.0483299241
 20
344.3689892736
 11
101.1278176226
 21
338.1959095127
  0
LINE
  5
269
100
AcDbEntity
  8
0
100
AcDbLine
 62
7
  6
CONTINUOUS
 10
146.0444947794
 20
250.0115990108
 11
146.6694941834
 21
248.7350033066
  0
LINE
  5
26A
100
AcDbEntity
  8
0
100
AcDbLine
 62
7
  6
CONTINUOUS
 10
105.7235416207
 20
347.0794086364
 11
105.6036532243
 21
347.8622096402
  0
LINE
  5
26B
100
AcDbEntity
  8
KONSTRUKTIONSELEMENTE
100
AcDbLine
 62
7
  6
CONTINUOUS
 10
122.4194941834
 20
241.2584076023
 11
122.4194941834
 21
190.0084076023
  0
LINE
  5
26C
100
AcDbEntity
  8
0
100
AcDbLine
 62
7
  6
CONTINUOUS
 10
127.8332583151
 20
285.7584076023
 11
127.8332583151
 21
276.8827959876
  0
LINE
  5
26D
100
AcDbEntity
  8
BEZUGSACHSEN
100
AcDbLine
 62
7
  6
CONTINUOUS
 10
128.5923500049
 20
285.7584076023
 11
128.5923500049
 21
276.8032768462
  0
LINE
  5
26E
100
AcDbEntity
  8
0
100
AcDbLine
 62
7
  6
CONTINUOUS
 10
129.7944941834
 20
262.4584076023
 11
129.7944941834
 21
260.8626631117
  0
LINE
  5
26F
100
AcDbEntity
  8
0
100
AcDbLine
 62
7
  6
CONTINUOUS
 10
135.1069940344
 20
361.7243648684
 11
134.9507441834
 21
361.2456415212
  0
LINE
  5
270
100
AcDbEntity
  8
0
100
AcDbLine
 62
7
  6
CONTINUOUS
 10
135.8882441834
 20
361.0860670722
 11
136.0444940344
 21
361.5647904194
  0
LINE
  5
271
100
AcDbEntity
  8
0
100
AcDbLine
 62
7
  6
CONTINUOUS
 10
142.6069944814
 20
357.5754288575
 11
142.9194941834
 21
358.2137267655
  0
LINE
  5
272
100
AcDbEntity
  8
0
100
AcDbLine
 62
7
  6
CONTINUOUS
 10
150.1069935873
 20
357.5754288575
 11
150.4194941834
 21
358.2137267655
  0
LINE
  5
273
100
AcDbEntity
  8
0
100
AcDbLine
 62
7
  6
CONTINUOUS
 10
149.4819941834
 20
358.3733012146
 11
149.1694935873
 21
357.8945778674
  0
LINE
  5
274
100
AcDbEntity
  8
0
100
AcDbLine
 62
7
  6
CONTINUOUS
 10
105.9092514881
 20
350.650204387
 11
106.2501099107
 21
350.0883734094
  0
LINE
  5
275
100
AcDbEntity
  8
0
100
AcDbLine
 62
7
  6
CONTINUOUS
 10
104.599881562
 20
347.7611273783
 11
104.8279044419
 21
347.3121332079
  0
LINE
  5
276
100
AcDbEntity
  8
0
100
AcDbLine
 62
7
  6
CONTINUOUS
 10
105.6036532243
 20
347.8622096402
 11
105.3756303444
 21
348.3112038106
  0
LINE
  5
277
100
AcDbEntity
  8
0
100
AcDbLine
 62
7
  6
CONTINUOUS
 10
107.0258590092
 20
350.6384495256
 11
106.7978364455
 21
351.0874446443
  0
LINE
  5
278
100
AcDbEntity
  8
0
100
AcDbLine
 62
7
  6
CONTINUOUS
 10
113.0578938673
 20
350.3516581075
 11
112.8275203788
 21
351.0239741773
  0
LINE
  5
279
100
AcDbEntity
  8
0
100
AcDbLine
 62
7
  6
CONTINUOUS
 10
147.9194947794
 20
249.6924501127
 11
147.6069941834
 21
250.6498970306
  0
LINE
  5
27A
100
AcDbEntity
  8
0
100
AcDbLine
 62
7
  6
CONTINUOUS
 10
112.0517715964
 20
350.473897745
 11
112.1693088309
 21
349.9144179293
  0
LINE
  5
27B
100
AcDbEntity
  8
0
100
AcDbLine
 62
7
  6
CONTINUOUS
 10
130.2632441834
 20
363.9584076023
 11
130.2632441834
 21
356.4584076023
  0
LINE
  5
27C
100
AcDbEntity
  8
0
100
AcDbLine
 62
7
  6
CONTINUOUS
 10
131.2007441834
 20
356.4584076023
 11
131.2007441834
 21
359.8094714797
  0
LINE
  5
27D
100
AcDbEntity
  8
0
100
AcDbLine
 62
7
  6
CONTINUOUS
 10
131.2007441834
 20
360.766918174
 11
131.2007441834
 21
363.160535357
  0
LINE
  5
27E
100
AcDbEntity
  8
BEZUGSACHSEN
100
AcDbLine
 62
7
  6
CONTINUOUS
 10
133.3672845594
 20
285.7584076023
 11
133.3672845594
 21
276.4335690302
  0
LINE
  5
27F
100
AcDbEntity
  8
0
100
AcDbLine
 62
7
  6
CONTINUOUS
 10
134.1263762492
 20
285.7584076023
 11
134.1263762492
 21
276.3916289655
  0
LINE
  5
280
100
AcDbEntity
  8
0
100
AcDbLine
 62
7
  6
CONTINUOUS
 10
135.1069940344
 20
362.2030886626
 11
135.1069940344
 21
361.7243648684
  0
LINE
  5
281
100
AcDbEntity
  8
BEZUGSACHSEN
100
AcDbLine
 62
7
  6
CONTINUOUS
 10
135.6445596289
 20
285.7584076023
 11
135.6445596289
 21
276.3249082076
  0
LINE
  5
282
100
AcDbEntity
  8
0
100
AcDbLine
 62
7
  6
CONTINUOUS
 10
136.0444940344
 20
361.5647904194
 11
136.0444940344
 21
362.2030886626
  0
LINE
  5
283
100
AcDbEntity
  8
0
100
AcDbLine
 62
7
  6
CONTINUOUS
 10
136.9194941834
 20
291.7584076023
 11
136.9194941834
 21
292.0584076023
  0
LINE
  5
284
100
AcDbEntity
  8
0
100
AcDbLine
 62
7
  6
CONTINUOUS
 10
137.4507440344
 20
363.9584076023
 11
137.4507440344
 21
359.0115990108
  0
LINE
  5
285
100
AcDbEntity
  8
0
100
AcDbLine
 62
7
  6
CONTINUOUS
 10
138.3882444814
 20
359.0115990108
 11
138.3882444814
 21
363.9584076023
  0
LINE
  5
286
100
AcDbEntity
  8
0
100
AcDbLine
 62
7
  6
CONTINUOUS
 10
141.0444941834
 20
260.8626631117
 11
141.0444941834
 21
262.4584076023
  0
LINE
  5
287
100
AcDbEntity
  8
0
100
AcDbLine
 62
7
  6
CONTINUOUS
 10
142.9194941834
 20
358.2137267655
 11
143.0757444814
 21
359.0115990108
  0
LINE
  5
288
100
AcDbEntity
  8
0
100
AcDbLine
 62
7
  6
CONTINUOUS
 10
150.4194941834
 20
358.2137267655
 11
150.5757435873
 21
359.0115990108
  0
LINE
  5
289
100
AcDbEntity
  8
0
100
AcDbLine
 62
7
  6
CONTINUOUS
 10
142.1382444814
 20
359.0115990108
 11
141.9819941834
 21
358.3733012146
  0
LINE
  5
28A
100
AcDbEntity
  8
0
100
AcDbLine
 62
7
  6
CONTINUOUS
 10
149.6382435873
 20
359.0115990108
 11
149.4819941834
 21
358.3733012146
  0
LINE
  5
28B
100
AcDbEntity
  8
0
100
AcDbLine
 62
7
  6
CONTINUOUS
 10
172.2646577771
 20
345.3052752858
 11
173.0765825557
 21
346.1172000644
  0
LINE
  5
28C
100
AcDbEntity
  8
0
100
AcDbLine
 62
7
  6
CONTINUOUS
 10
176.7998069648
 20
349.8404244734
 11
177.6117317433
 21
350.652349252
  0
LINE
  5
28D
100
AcDbEntity
  8
0
100
AcDbLine
 62
7
  6
CONTINUOUS
 10
99.5951261133
 20
345.9157854628
 11
104.8984269722
 21
340.6124846039
  0
LINE
  5
28E
100
AcDbEntity
  8
0
100
AcDbLine
 62
7
  6
CONTINUOUS
 10
105.5613395796
 20
341.2753972112
 11
103.1917795877
 21
343.6449572031
  0
LINE
  5
28F
100
AcDbEntity
  8
0
100
AcDbLine
 62
7
  6
CONTINUOUS
 10
102.5147625375
 20
344.3219742533
 11
100.8222195959
 21
346.014517195
  0
LINE
  5
290
100
AcDbEntity
  8
0
100
AcDbLine
 62
7
  6
CONTINUOUS
 10
104.2613727208
 20
348.0996362195
 11
104.599881562
 21
347.7611273783
  0
LINE
  5
291
100
AcDbEntity
  8
0
100
AcDbLine
 62
7
  6
CONTINUOUS
 10
105.3756303444
 20
348.3112038106
 11
104.9242853282
 21
348.7625488268
  0
LINE
  5
292
100
AcDbEntity
  8
0
100
AcDbLine
 62
7
  6
CONTINUOUS
 10
106.2501099107
 20
350.0883734094
 11
106.701454927
 21
349.6370283931
  0
LINE
  5
293
100
AcDbEntity
  8
0
100
AcDbLine
 62
7
  6
CONTINUOUS
 10
142.1382444814
 20
363.9584076023
 11
142.1382444814
 21
359.0115990108
  0
LINE
  5
294
100
AcDbEntity
  8
0
100
AcDbLine
 62
7
  6
CONTINUOUS
 10
143.0757444814
 20
359.0115990108
 11
143.0757444814
 21
363.9584076023
  0
LINE
  5
295
100
AcDbEntity
  8
0
100
AcDbLine
 62
7
  6
CONTINUOUS
 10
143.5444944814
 20
257.6711732364
 11
143.5444944814
 21
256.3945776439
  0
LINE
  5
296
100
AcDbEntity
  8
0
100
AcDbLine
 62
7
  6
CONTINUOUS
 10
143.9194941834
 20
291.7584076023
 11
143.9194941834
 21
292.0584076023
  0
LINE
  5
297
100
AcDbEntity
  8
0
100
AcDbLine
 62
7
  6
CONTINUOUS
 10
144.3257441834
 20
363.9584076023
 11
144.3257441834
 21
356.4584076023
  0
LINE
  5
298
100
AcDbEntity
  8
BEZUGSACHSEN
100
AcDbLine
 62
7
  6
CONTINUOUS
 10
145.1944287379
 20
285.7584076023
 11
145.1944287379
 21
276.324908145
  0
LINE
  5
299
100
AcDbEntity
  8
0
100
AcDbLine
 62
7
  6
CONTINUOUS
 10
145.2632441834
 20
357.4158544085
 11
145.2632441834
 21
363.0009609079
  0
LINE
  5
29A
100
AcDbEntity
  8
0
100
AcDbLine
 62
7
  6
CONTINUOUS
 10
146.0444947794
 20
260.2243653154
 11
146.0444947794
 21
257.6711732364
  0
LINE
  5
29B
100
AcDbEntity
  8
0
100
AcDbLine
 62
7
  6
CONTINUOUS
 10
146.0444947794
 20
256.3945776439
 11
146.0444947794
 21
250.0115990108
  0
LINE
  5
29C
100
AcDbEntity
  8
0
100
AcDbLine
 62
7
  6
CONTINUOUS
 10
146.7126121176
 20
285.7584076023
 11
146.7126121176
 21
276.3916288999
  0
LINE
  5
29D
100
AcDbEntity
  8
BEZUGSACHSEN
100
AcDbLine
 62
7
  6
CONTINUOUS
 10
147.4717038074
 20
285.7584076023
 11
147.4717038074
 21
276.433569043
  0
LINE
  5
29E
100
AcDbEntity
  8
0
100
AcDbLine
 62
7
  6
CONTINUOUS
 10
147.6069941834
 20
250.6498970306
 11
147.6069941834
 21
256.3945776439
  0
LINE
  5
29F
100
AcDbEntity
  8
0
100
AcDbLine
 62
7
  6
CONTINUOUS
 10
147.6069941834
 20
257.6711732364
 11
147.6069941834
 21
260.2243653154
  0
LINE
  5
2A0
100
AcDbEntity
  8
0
100
AcDbLine
 62
7
  6
CONTINUOUS
 10
149.6382435873
 20
361.4052159703
 11
149.6382435873
 21
359.0115990108
  0
LINE
  5
2A1
100
AcDbEntity
  8
0
100
AcDbLine
 62
7
  6
CONTINUOUS
 10
150.4194941834
 20
247.4584076023
 11
150.4194941834
 21
248.7350033066
  0
LINE
  5
2A2
100
AcDbEntity
  8
0
100
AcDbLine
 62
7
  6
CONTINUOUS
 10
150.5757435873
 20
359.0115990108
 11
150.5757435873
 21
361.4052159703
  0
LINE
  5
2A3
100
AcDbEntity
  8
0
100
AcDbLine
 62
7
  6
CONTINUOUS
 10
151.0444935873
 20
256.3945776439
 11
151.0444935873
 21
257.6711732364
  0
LINE
  5
2A4
100
AcDbEntity
  8
BEZUGSACHSEN
100
AcDbLine
 62
7
  6
CONTINUOUS
 10
152.2466383619
 20
285.7584076023
 11
152.2466383619
 21
276.8032768089
  0
LINE
  5
2A5
100
AcDbEntity
  8
0
100
AcDbLine
 62
7
  6
CONTINUOUS
 10
153.0057300517
 20
285.7584076023
 11
153.0057300517
 21
276.8827960058
  0
LINE
  5
2A6
100
AcDbEntity
  8
0
100
AcDbLine
 62
7
  6
CONTINUOUS
 10
178.5677427413
 20
343.5431625573
 11
179.3796675199
 21
344.3550873359
  0
LINE
  5
2A7
100
AcDbEntity
  8
0
100
AcDbLine
 62
7
  6
CONTINUOUS
 10
176.8346577771
 20
340.7352752858
 11
177.6465825557
 21
341.5472000644
  0
LINE
  5
2A8
100
AcDbEntity
  8
0
100
AcDbLine
 62
7
  6
CONTINUOUS
 10
181.3698069648
 20
345.2704244734
 11
182.1817317433
 21
346.082349252
  0
LINE
  5
2A9
100
AcDbEntity
  8
0
100
AcDbLine
 62
7
  6
CONTINUOUS
 10
101.1278176226
 20
338.1959095127
 11
94.9547378618
 21
341.2753972112
  0
LINE
  5
2AA
100
AcDbEntity
  8
0
100
AcDbLine
 62
7
  6
CONTINUOUS
 10
94.2918252544
 20
340.6124846039
 11
101.362893119
 21
337.0769507506
  0
LINE
  5
2AB
100
AcDbEntity
  8
0
100
AcDbLine
 62
7
  6
CONTINUOUS
 10
108.5138867392
 20
347.1616852379
 11
109.0757164525
 21
346.8208255509
  0
LINE
  5
2AC
100
AcDbEntity
  8
0
100
AcDbLine
 62
7
  6
CONTINUOUS
 10
106.701454927
 20
349.6370283931
 11
107.2632859046
 21
349.2961699705
  0
LINE
  5
2AD
100
AcDbEntity
  8
0
100
AcDbLine
 62
7
  6
CONTINUOUS
 10
107.2515313593
 20
350.4127771755
 11
107.0258590092
 21
350.6384495256
  0
LINE
  5
2AE
100
AcDbEntity
  8
0
100
AcDbLine
 62
7
  6
CONTINUOUS
 10
111.7132630713
 20
350.8124062701
 11
112.0517715964
 21
350.473897745
  0
LINE
  5
2AF
100
AcDbEntity
  8
0
100
AcDbLine
 62
7
  6
CONTINUOUS
 10
112.8275203788
 20
351.0239741773
 11
112.2633395036
 21
351.5881550525
  0
LINE
  5
2B0
100
AcDbEntity
  8
0
100
AcDbLine
 62
7
  6
CONTINUOUS
 10
136.2007443324
 20
356.4584076023
 11
134.7944943324
 21
360.1286203778
  0
LINE
  5
2B1
100
AcDbEntity
  8
0
100
AcDbLine
 62
7
  6
CONTINUOUS
 10
133.8569941089
 20
359.8094714797
 11
135.1069940344
 21
356.4584076023
  0
LINE
  5
2B2
100
AcDbEntity
  8
0
100
AcDbLine
 62
7
  6
CONTINUOUS
 10
134.9507441834
 20
362.6818120098
 11
135.1069940344
 21
362.2030886626
  0
LINE
  5
2B3
100
AcDbEntity
  8
0
100
AcDbLine
 62
7
  6
CONTINUOUS
 10
136.0444940344
 20
362.2030886626
 11
135.8882441834
 21
362.6818120098
  0
LINE
  5
2B4
100
AcDbEntity
  8
0
100
AcDbLine
 62
7
  6
CONTINUOUS
 10
138.5444938854
 20
358.3733012146
 11
138.3882444814
 21
359.0115990108
  0
LINE
  5
2B5
100
AcDbEntity
  8
0
100
AcDbLine
 62
7
  6
CONTINUOUS
 10
137.4507440344
 20
359.0115990108
 11
137.6069943324
 21
358.2137267655
  0
LINE
  5
2B6
100
AcDbEntity
  8
KONSTRUKTIONSELEMENTE
100
AcDbLine
 62
7
  6
CONTINUOUS
 10
158.4194941834
 20
241.2584076023
 11
158.4194941834
 21
190.0084076023
  0
LINE
  5
2B7
100
AcDbEntity
  8
0
100
AcDbLine
 62
7
  6
CONTINUOUS
 10
139.1694941834
 20
260.8626631117
 11
132.9194941089
 21
247.4584076023
  0
LINE
  5
2B8
100
AcDbEntity
  8
0
100
AcDbLine
 62
7
  6
CONTINUOUS
 10
134.7944943324
 20
247.4584076023
 11
141.0444941834
 21
260.8626631117
  0
LINE
  5
2B9
100
AcDbEntity
  8
0
100
AcDbLine
 62
7
  6
CONTINUOUS
 10
109.0757164525
 20
346.8208255509
 11
109.9713543821
 21
346.588101493
  0
LINE
  5
2BA
100
AcDbEntity
  8
0
100
AcDbLine
 62
7
  6
CONTINUOUS
 10
109.0968732748
 20
344.8109309064
 11
105.5072720218
 21
346.4117943373
  0
LINE
  5
2BB
100
AcDbEntity
  8
0
100
AcDbLine
 62
7
  6
CONTINUOUS
 10
105.0700317645
 20
345.5232093799
 11
108.3234756543
 21
344.037533286
  0
LINE
  5
2BC
100
AcDbEntity
  8
0
100
AcDbLine
 62
7
  6
CONTINUOUS
 10
103.8123785504
 20
348.3276590993
 11
104.2613727208
 21
348.0996362195
  0
LINE
  5
2BD
100
AcDbEntity
  8
0
100
AcDbLine
 62
7
  6
CONTINUOUS
 10
104.9242853282
 20
348.7625488268
 11
104.4752911578
 21
348.9905717067
  0
LINE
  5
2BE
100
AcDbEntity
  8
0
100
AcDbLine
 62
7
  6
CONTINUOUS
 10
109.625793517
 20
347.5965749655
 11
109.1767987144
 21
347.8245972131
  0
LINE
  5
2BF
100
AcDbEntity
  8
0
100
AcDbLine
 62
7
  6
CONTINUOUS
 10
107.7005261619
 20
350.1847549279
 11
107.2515313593
 21
350.4127771755
  0
LINE
  5
2C0
100
AcDbEntity
  8
0
100
AcDbLine
 62
7
  6
CONTINUOUS
 10
109.675159225
 20
353.5134227237
 11
109.2261644224
 21
353.7414449713
  0
LINE
  5
2C1
100
AcDbEntity
  8
0
100
AcDbLine
 62
7
  6
CONTINUOUS
 10
135.8882441834
 20
362.6818120098
 11
135.4194941834
 21
363.3201098061
  0
LINE
  5
2C2
100
AcDbEntity
  8
0
100
AcDbLine
 62
7
  6
CONTINUOUS
 10
138.8569944814
 20
357.8945778674
 11
138.5444938854
 21
358.3733012146
  0
LINE
  5
2C3
100
AcDbEntity
  8
0
100
AcDbLine
 62
7
  6
CONTINUOUS
 10
137.6069943324
 20
358.2137267655
 11
137.9194944814
 21
357.5754288575
  0
LINE
  5
2C4
100
AcDbEntity
  8
0
100
AcDbLine
 62
7
  6
CONTINUOUS
 10
149.4819941834
 20
362.0435137665
 11
149.6382435873
 21
361.4052159703
  0
LINE
  5
2C5
100
AcDbEntity
  8
0
100
AcDbLine
 62
7
  6
CONTINUOUS
 10
150.5757435873
 20
361.4052159703
 11
150.4194941834
 21
362.2030886626
  0
LINE
  5
2C6
100
AcDbEntity
  8
KONSTRUKTIONSELEMENTE
100
AcDbLine
 62
7
  6
CONTINUOUS
 10
166.8194941834
 20
241.4584076023
 11
166.8194941834
 21
241.2584076023
  0
LINE
  5
2C7
100
AcDbEntity
  8
0
100
AcDbLine
 62
7
  6
CONTINUOUS
 10
110.2957584248
 20
347.589522665
 11
109.625793517
 21
347.5965749655
  0
LINE
  5
2C8
100
AcDbEntity
  8
0
100
AcDbLine
 62
7
  6
CONTINUOUS
 10
103.365735542
 20
348.332360791
 11
103.8123785504
 21
348.3276590993
  0
LINE
  5
2C9
100
AcDbEntity
  8
0
100
AcDbLine
 62
7
  6
CONTINUOUS
 10
107.2632859046
 20
349.2961699705
 11
108.1565719215
 21
349.2867665871
  0
LINE
  5
2CA
100
AcDbEntity
  8
0
100
AcDbLine
 62
7
  6
CONTINUOUS
 10
104.4752911578
 20
348.9905717067
 11
103.692490154
 21
349.1104601031
  0
LINE
  5
2CB
100
AcDbEntity
  8
0
100
AcDbLine
 62
7
  6
CONTINUOUS
 10
109.2261644224
 20
353.7414449713
 11
108.4433634186
 21
353.8613333678
  0
LINE
  5
2CC
100
AcDbEntity
  8
0
100
AcDbLine
 62
7
  6
CONTINUOUS
 10
111.1537830975
 20
350.9299436627
 11
111.7132630713
 21
350.8124062701
  0
LINE
  5
2CD
100
AcDbEntity
  8
0
100
AcDbLine
 62
7
  6
CONTINUOUS
 10
112.2633395036
 20
351.5881550525
 11
111.5910233548
 21
351.8185286201
  0
LINE
  5
2CE
100
AcDbEntity
  8
0
100
AcDbLine
 62
7
  6
CONTINUOUS
 10
108.6760879901
 20
352.9656961889
 11
109.0122466177
 21
352.8505101163
  0
LINE
  5
2CF
100
AcDbEntity
  8
0
100
AcDbLine
 62
7
  6
CONTINUOUS
 10
139.3257444814
 20
357.5754288575
 11
138.8569944814
 21
357.8945778674
  0
LINE
  5
2D0
100
AcDbEntity
  8
0
100
AcDbLine
 62
7
  6
CONTINUOUS
 10
135.4194941834
 20
363.3201098061
 11
134.7944943324
 21
363.7988331533
  0
LINE
  5
2D1
100
AcDbEntity
  8
0
100
AcDbLine
 62
7
  6
CONTINUOUS
 10
137.9194944814
 20
357.5754288575
 11
138.5444938854
 21
356.9371310054
  0
LINE
  5
2D2
100
AcDbEntity
  8
0
100
AcDbLine
 62
7
  6
CONTINUOUS
 10
134.6382440344
 20
363.0009609079
 11
134.9507441834
 21
362.6818120098
  0
LINE
  5
2D3
100
AcDbEntity
  8
0
100
AcDbLine
 62
7
  6
CONTINUOUS
 10
149.1694935873
 20
362.5222375608
 11
149.4819941834
 21
362.0435137665
  0
LINE
  5
2D4
100
AcDbEntity
  8
0
100
AcDbLine
 62
7
  6
CONTINUOUS
 10
150.4194941834
 20
362.2030886626
 11
150.1069935873
 21
362.8413864589
  0
LINE
  5
2D5
100
AcDbEntity
  8
0
100
AcDbLine
 62
7
  6
CONTINUOUS
 10
148.7007435873
 20
357.5754288575
 11
148.0757441834
 21
357.4158544085
  0
LINE
  5
2D6
100
AcDbEntity
  8
0
100
AcDbLine
 62
7
  6
CONTINUOUS
 10
141.2007444814
 20
357.5754288575
 11
140.5757441834
 21
357.4158544085
  0
LINE
  5
2D7
100
AcDbEntity
  8
0
100
AcDbLine
 62
7
  6
CONTINUOUS
 10
109.9713543821
 20
346.588101493
 11
110.8622892667
 21
346.8020192681
  0
LINE
  5
2D8
100
AcDbEntity
  8
0
100
AcDbLine
 62
7
  6
CONTINUOUS
 10
148.0757441834
 20
356.4584076023
 11
148.8569947794
 21
356.6179820654
  0
LINE
  5
2D9
100
AcDbEntity
  8
0
100
AcDbLine
 62
7
  6
CONTINUOUS
 10
140.5757441834
 20
356.4584076023
 11
141.3569938854
 21
356.6179820654
  0
LINE
  5
2DA
100
AcDbEntity
  8
0
100
AcDbLine
 62
7
  6
CONTINUOUS
 10
108.2576548156
 20
350.2905388815
 11
107.7005261619
 21
350.1847549279
  0
LINE
  5
2DB
100
AcDbEntity
  8
0
100
AcDbLine
 62
7
  6
CONTINUOUS
 10
110.5966544438
 20
350.824159709
 11
111.1537830975
 21
350.9299436627
  0
LINE
  5
2DC
100
AcDbEntity
  8
0
100
AcDbLine
 62
7
  6
CONTINUOUS
 10
103.692490154
 20
349.1104601031
 11
102.9120396799
 21
349.0070266793
  0
LINE
  5
2DD
100
AcDbEntity
  8
0
100
AcDbLine
 62
7
  6
CONTINUOUS
 10
108.4433634186
 20
353.8613333678
 11
107.6629135767
 21
353.7579005761
  0
LINE
  5
2DE
100
AcDbEntity
  8
0
100
AcDbLine
 62
7
  6
CONTINUOUS
 10
130.2632441834
 20
356.4584076023
 11
131.2007441834
 21
356.4584076023
  0
LINE
  5
2DF
100
AcDbEntity
  8
0
100
AcDbLine
 62
7
  6
CONTINUOUS
 10
135.1069940344
 20
356.4584076023
 11
136.2007443324
 21
356.4584076023
  0
LINE
  5
2E0
100
AcDbEntity
  8
0
100
AcDbLine
 62
7
  6
CONTINUOUS
 10
139.9507438854
 20
356.4584076023
 11
140.5757441834
 21
356.4584076023
  0
LINE
  5
2E1
100
AcDbEntity
  8
0
100
AcDbLine
 62
7
  6
CONTINUOUS
 10
144.3257441834
 20
356.4584076023
 11
148.0757441834
 21
356.4584076023
  0
LINE
  5
2E2
100
AcDbEntity
  8
0
100
AcDbLine
 62
7
  6
CONTINUOUS
 10
148.0757441834
 20
357.4158544085
 11
145.2632441834
 21
357.4158544085
  0
LINE
  5
2E3
100
AcDbEntity
  8
0
100
AcDbLine
 62
7
  6
CONTINUOUS
 10
140.5757441834
 20
357.4158544085
 11
139.9507438854
 21
357.4158544085
  0
LINE
  5
2E4
100
AcDbEntity
  8
0
100
AcDbLine
 62
7
  6
CONTINUOUS
 10
131.2007441834
 20
359.8094714797
 11
133.8569941089
 21
359.8094714797
  0
LINE
  5
2E5
100
AcDbEntity
  8
0
100
AcDbLine
 62
7
  6
CONTINUOUS
 10
134.1694940344
 20
360.766918174
 11
131.2007441834
 21
360.766918174
  0
LINE
  5
2E6
100
AcDbEntity
  8
0
100
AcDbLine
 62
7
  6
CONTINUOUS
 10
145.2632441834
 20
363.0009609079
 11
148.0757441834
 21
363.0009609079
  0
LINE
  5
2E7
100
AcDbEntity
  8
0
100
AcDbLine
 62
7
  6
CONTINUOUS
 10
111.5910233548
 20
351.8185286201
 11
110.6977373379
 21
351.8279320035
  0
LINE
  5
2E8
100
AcDbEntity
  8
0
100
AcDbLine
 62
7
  6
CONTINUOUS
 10
108.2294456138
 20
352.9703985128
 11
108.6760879901
 21
352.9656961889
  0
LINE
  5
2E9
100
AcDbEntity
  8
0
100
AcDbLine
 62
7
  6
CONTINUOUS
 10
139.1694941834
 20
356.6179820654
 11
139.9507438854
 21
356.4584076023
  0
LINE
  5
2EA
100
AcDbEntity
  8
0
100
AcDbLine
 62
7
  6
CONTINUOUS
 10
134.7944943324
 20
363.7988331533
 11
134.0132441834
 21
363.9584076023
  0
LINE
  5
2EB
100
AcDbEntity
  8
0
100
AcDbLine
 62
7
  6
CONTINUOUS
 10
139.9507438854
 20
357.4158544085
 11
139.3257444814
 21
357.5754288575
  0
LINE
  5
2EC
100
AcDbEntity
  8
0
100
AcDbLine
 62
7
  6
CONTINUOUS
 10
134.1694940344
 20
363.160535357
 11
134.6382440344
 21
363.0009609079
  0
LINE
  5
2ED
100
AcDbEntity
  8
0
100
AcDbLine
 62
7
  6
CONTINUOUS
 10
138.5444938854
 20
356.9371310054
 11
139.1694941834
 21
356.6179820654
  0
LINE
  5
2EE
100
AcDbEntity
  8
0
100
AcDbLine
 62
7
  6
CONTINUOUS
 10
149.4819941834
 20
363.4796842551
 11
148.8569947794
 21
363.7988331533
  0
LINE
  5
2EF
100
AcDbEntity
  8
0
100
AcDbLine
 62
7
  6
CONTINUOUS
 10
148.7007435873
 20
362.8413864589
 11
149.1694935873
 21
362.5222375608
  0
LINE
  5
2F0
100
AcDbEntity
  8
0
100
AcDbLine
 62
7
  6
CONTINUOUS
 10
176.9992307556
 20
345.111674543
 11
178.5677427413
 21
343.5431625573
  0
LINE
  5
2F1
100
AcDbEntity
  8
0
100
AcDbLine
 62
7
  6
CONTINUOUS
 10
179.3796675199
 20
344.3550873359
 11
177.8124426835
 21
345.9223121723
  0
LINE
  5
2F2
100
AcDbEntity
  8
0
100
AcDbLine
 62
7
  6
CONTINUOUS
 10
150.1069935873
 20
362.8413864589
 11
149.4819941834
 21
363.4796842551
  0
LINE
  5
2F3
100
AcDbEntity
  8
0
100
AcDbLine
 62
7
  6
CONTINUOUS
 10
131.2007441834
 20
363.160535357
 11
134.1694940344
 21
363.160535357
  0
LINE
  5
2F4
100
AcDbEntity
  8
0
100
AcDbLine
 62
7
  6
CONTINUOUS
 10
148.0757441834
 20
363.9584076023
 11
144.3257441834
 21
363.9584076023
  0
LINE
  5
2F5
100
AcDbEntity
  8
0
100
AcDbLine
 62
7
  6
CONTINUOUS
 10
143.0757444814
 20
363.9584076023
 11
142.1382444814
 21
363.9584076023
  0
LINE
  5
2F6
100
AcDbEntity
  8
0
100
AcDbLine
 62
7
  6
CONTINUOUS
 10
138.3882444814
 20
363.9584076023
 11
137.4507440344
 21
363.9584076023
  0
LINE
  5
2F7
100
AcDbEntity
  8
0
100
AcDbLine
 62
7
  6
CONTINUOUS
 10
134.0132441834
 20
363.9584076023
 11
130.2632441834
 21
363.9584076023
  0
LINE
  5
2F8
100
AcDbEntity
  8
0
100
AcDbLine
 62
7
  6
CONTINUOUS
 10
148.8569947794
 20
363.7988331533
 11
148.0757441834
 21
363.9584076023
  0
LINE
  5
2F9
100
AcDbEntity
  8
0
100
AcDbLine
 62
7
  6
CONTINUOUS
 10
148.0757441834
 20
363.0009609079
 11
148.7007435873
 21
362.8413864589
  0
LINE
  5
2FA
100
AcDbEntity
  8
RUNDUNGEN
100
AcDbLine
 62
7
  6
CONTINUOUS
 10
142.5697018807
 20
376.6330201995
 11
185.5770587593
 21
360.1240426518
  0
LINE
  5
2FB
100
AcDbEntity
  8
RUNDUNGEN
100
AcDbLine
 62
7
  6
CONTINUOUS
 10
211.9194941834
 20
290.7584076023
 11
211.9194941834
 21
286.7584076023
  0
LINE
  5
2FC
100
AcDbEntity
  8
BEZUGSACHSEN
100
AcDbLine
 62
7
  6
CONTINUOUS
 10
207.6996374318
 20
306.9897581744
 11
201.3589558825
 21
291.7584076023
  0
LINE
  5
2FD
100
AcDbEntity
  8
BEZUGSACHSEN
100
AcDbLine
 62
7
  6
CONTINUOUS
 10
198.8612069721
 20
285.7584076023
 11
185.9486013558
 21
254.7402242396
  0
LINE
  5
2FE
100
AcDbEntity
  8
RUNDUNGEN
100
AcDbLine
 62
7
  6
CONTINUOUS
 10
188.9701282571
 20
356.8186606871
 11
207.3127361317
 21
312.5356879868
  0
LINE
  5
2FF
100
AcDbEntity
  8
BEZUGSACHSEN
100
AcDbLine
 62
7
  6
CONTINUOUS
 10
207.3127361317
 20
312.5356879868
 11
207.7037155471
 21
311.5917801797
  0
LINE
  5
300
100
AcDbEntity
  8
KONSTRUKTIONSELEMENTE
100
AcDbLine
 62
7
  6
CONTINUOUS
 10
158.4194941834
 20
190.0084076023
 11
155.6694941834
 21
187.2584076023
  0
LINE
  5
301
100
AcDbEntity
  8
KONSTRUKTIONSELEMENTE
100
AcDbLine
 62
7
  6
CONTINUOUS
 10
407.8749669606
 20
187.2584076023
 11
438.3749669606
 21
187.2584076023
  0
LINE
  5
302
100
AcDbEntity
  8
KONSTRUKTIONSELEMENTE
100
AcDbLine
 62
7
  6
CONTINUOUS
 10
405.1249669606
 20
190.0084076023
 11
441.1249669606
 21
190.0084076023
  0
LINE
  5
303
100
AcDbEntity
  8
KONSTRUKTIONSELEMENTE
100
AcDbLine
 62
7
  6
CONTINUOUS
 10
405.1249669606
 20
190.0084076023
 11
407.8749669606
 21
187.2584076023
  0
LINE
  5
304
100
AcDbEntity
  8
BEZUGSACHSEN
100
AcDbLine
 62
7
  6
CONTINUOUS
 10
374.7411291074
 20
266.527209777
 11
376.4264821507
 21
262.4584076023
  0
LINE
  5
305
100
AcDbEntity
  8
BEZUGSACHSEN
100
AcDbLine
 62
7
  6
CONTINUOUS
 10
382.3204713186
 20
248.2290590167
 11
385.1249669606
 21
241.4584076023
  0
LINE
  5
306
100
AcDbEntity
  8
0
100
AcDbLine
 62
7
  6
CONTINUOUS
 10
377.1019958078
 20
259.5224105581
 11
376.5501195492
 21
260.8626631117
  0
LINE
  5
307
100
AcDbEntity
  8
KONSTRUKTIONSELEMENTE
100
AcDbLine
 62
7
  6
CONTINUOUS
 10
396.7252762945
 20
241.2584076023
 11
449.5246576266
 21
241.2584076023
  0
LINE
  5
308
100
AcDbEntity
  8
BEZUGSACHSEN
100
AcDbLine
 62
7
  6
CONTINUOUS
 10
385.1249669876
 20
241.4584076023
 11
461.1249669335
 21
241.4584076023
  0
LINE
  5
309
100
AcDbEntity
  8
0
100
AcDbLine
 62
7
  6
CONTINUOUS
 10
390.6249669606
 20
286.7584076023
 11
390.6249669606
 21
290.7584076023
  0
LINE
  5
30A
100
AcDbEntity
  8
RUNDUNGEN
100
AcDbLine
 62
7
  6
CONTINUOUS
 10
390.6249669606
 20
286.7584076023
 11
390.6249669606
 21
290.7584076023
  0
LINE
  5
30B
100
AcDbEntity
  8
KONSTRUKTIONSELEMENTE
100
AcDbLine
 62
7
  6
CONTINUOUS
 10
396.7249669606
 20
241.4584076023
 11
396.7249669606
 21
241.2584076023
  0
LINE
  5
30C
100
AcDbEntity
  8
0
100
AcDbLine
 62
7
  6
CONTINUOUS
 10
398.1249669606
 20
286.7584076023
 11
398.1249669606
 21
290.7584076023
  0
LINE
  5
30D
100
AcDbEntity
  8
RUNDUNGEN
100
AcDbLine
 62
7
  6
CONTINUOUS
 10
398.1249669606
 20
286.7584076023
 11
398.1249669606
 21
290.7584076023
  0
LINE
  5
30E
100
AcDbEntity
  8
0
100
AcDbLine
 62
7
  6
CONTINUOUS
 10
383.7762584374
 20
247.4584076023
 11
383.2210069772
 21
247.4584076023
  0
LINE
  5
30F
100
AcDbEntity
  8
0
100
AcDbLine
 62
7
  6
CONTINUOUS
 10
382.6396855863
 20
247.4584076023
 11
382.4503963924
 21
247.4584076023
  0
LINE
  5
310
100
AcDbEntity
  8
0
100
AcDbLine
 62
7
  6
CONTINUOUS
 10
462.9749483126
 20
247.4584076023
 11
463.7995375287
 21
247.4584076023
  0
LINE
  5
311
100
AcDbEntity
  8
0
100
AcDbLine
 62
7
  6
CONTINUOUS
 10
383.2335973516
 20
248.7350033066
 11
382.6786900931
 21
248.7350033066
  0
LINE
  5
312
100
AcDbEntity
  8
0
100
AcDbLine
 62
7
  6
CONTINUOUS
 10
382.7722990035
 20
249.0541523165
 11
382.2215248888
 21
249.0541523165
  0
LINE
  5
313
100
AcDbEntity
  8
0
100
AcDbLine
 62
7
  6
CONTINUOUS
 10
382.3363444541
 20
249.6924501127
 11
381.7877219306
 21
249.6924501127
  0
LINE
  5
314
100
AcDbEntity
  8
0
100
AcDbLine
 62
7
  6
CONTINUOUS
 10
381.8836038839
 20
250.6498970306
 11
381.3357214061
 21
250.6498970306
  0
LINE
  5
315
100
AcDbEntity
  8
KONSTRUKTIONSELEMENTE
100
AcDbLine
 62
7
  6
CONTINUOUS
 10
405.1249669606
 20
241.2584076023
 11
405.1249669606
 21
190.0084076023
  0
LINE
  5
316
100
AcDbEntity
  8
BEZUGSACHSEN
100
AcDbLine
 62
7
  6
CONTINUOUS
 10
408.6249669606
 20
296.8049911292
 11
408.6249669606
 21
372.0315376405
  0
LINE
  5
317
100
AcDbEntity
  8
0
100
AcDbLine
 62
7
  6
CONTINUOUS
 10
378.4970605769
 20
256.3945776439
 11
378.7217497476
 21
256.3945776439
  0
LINE
  5
318
100
AcDbEntity
  8
0
100
AcDbLine
 62
7
  6
CONTINUOUS
 10
378.9283116804
 20
256.3945776439
 11
380.1210940936
 21
256.3945776439
  0
LINE
  5
319
100
AcDbEntity
  8
0
100
AcDbLine
 62
7
  6
CONTINUOUS
 10
379.5789915271
 20
257.6711732364
 11
378.3937078986
 21
257.6711732364
  0
LINE
  5
31A
100
AcDbEntity
  8
0
100
AcDbLine
 62
7
  6
CONTINUOUS
 10
378.1894257231
 20
257.6711732364
 11
377.9671909267
 21
257.6711732364
  0
LINE
  5
31B
100
AcDbEntity
  8
0
100
AcDbLine
 62
7
  6
CONTINUOUS
 10
377.871714205
 20
260.2243653154
 11
377.1250046999
 21
260.2243653154
  0
LINE
  5
31C
100
AcDbEntity
  8
0
100
AcDbLine
 62
7
  6
CONTINUOUS
 10
377.0913573315
 20
260.8626631117
 11
376.5501195492
 21
260.8626631117
  0
LINE
  5
31D
100
AcDbEntity
  8
0
100
AcDbLine
 62
7
  6
CONTINUOUS
 10
468.024905413
 20
260.8626631117
 11
469.6882537731
 21
260.8626631117
  0
LINE
  5
31E
100
AcDbEntity
  8
0
100
AcDbLine
 62
7
  6
CONTINUOUS
 10
376.4303269628
 20
262.4584076023
 11
375.8890902654
 21
262.4584076023
  0
LINE
  5
31F
100
AcDbEntity
  8
0
100
AcDbLine
 62
7
  6
CONTINUOUS
 10
468.7012301808
 20
262.4584076023
 11
470.3645786875
 21
262.4584076023
  0
LINE
  5
320
100
AcDbEntity
  8
0
100
AcDbLine
 62
7
  6
CONTINUOUS
 10
457.4303516406
 20
276.1515707715
 11
456.9329606536
 21
276.2848462848
  0
LINE
  5
321
100
AcDbEntity
  8
RUNDUNGEN
100
AcDbLine
 62
7
  6
CONTINUOUS
 10
468.1833504215
 20
273.270313432
 11
452.4486030066
 21
277.4864262949
  0
LINE
  5
322
100
AcDbEntity
  8
RUNDUNGEN
100
AcDbLine
 62
7
  6
CONTINUOUS
 10
437.6249669606
 20
296.8049911292
 11
437.6249669606
 21
372.0315376405
  0
LINE
  5
323
100
AcDbEntity
  8
0
100
AcDbLine
 62
7
  6
CONTINUOUS
 10
438.1249669606
 20
363.9584076023
 11
438.1249669606
 21
356.4584076023
  0
LINE
  5
324
100
AcDbEntity
  8
0
100
AcDbLine
 62
7
  6
CONTINUOUS
 10
438.1249669606
 20
353.8613333678
 11
438.1249669606
 21
337.0769507506
  0
LINE
  5
325
100
AcDbEntity
  8
RUNDUNGEN
100
AcDbLine
 62
7
  6
CONTINUOUS
 10
454.6249669606
 20
285.7584076023
 11
440.9547609536
 21
285.7584076023
  0
LINE
  5
326
100
AcDbEntity
  8
RUNDUNGEN
100
AcDbLine
 62
7
  6
CONTINUOUS
 10
405.2967610826
 20
285.7584076023
 11
391.6249669606
 21
285.7584076023
  0
LINE
  5
327
100
AcDbEntity
  8
RUNDUNGEN
100
AcDbLine
 62
7
  6
CONTINUOUS
 10
391.6249669606
 20
291.7584076023
 11
407.9776289304
 21
291.7584076023
  0
LINE
  5
328
100
AcDbEntity
  8
RUNDUNGEN
100
AcDbLine
 62
7
  6
CONTINUOUS
 10
438.2734425572
 20
291.7584076023
 11
454.6249669606
 21
291.7584076023
  0
LINE
  5
329
100
AcDbEntity
  8
KONSTRUKTIONSELEMENTE
100
AcDbLine
 62
7
  6
CONTINUOUS
 10
441.1249669606
 20
241.2584076023
 11
441.1249669606
 21
190.0084076023
  0
LINE
  5
32A
100
AcDbEntity
  8
RUNDUNGEN
100
AcDbLine
 62
7
  6
CONTINUOUS
 10
448.1249669606
 20
286.7584076023
 11
448.1249669606
 21
290.7584076023
  0
LINE
  5
32B
100
AcDbEntity
  8
KONSTRUKTIONSELEMENTE
100
AcDbLine
 62
7
  6
CONTINUOUS
 10
449.5249669606
 20
241.4584076023
 11
449.5249669606
 21
241.2584076023
  0
LINE
  5
32C
100
AcDbEntity
  8
0
100
AcDbLine
 62
7
  6
CONTINUOUS
 10
389.3169718456
 20
276.2848459038
 11
388.8195822811
 21
276.1515707717
  0
LINE
  5
32D
100
AcDbEntity
  8
BEZUGSACHSEN
100
AcDbLine
 62
7
  6
CONTINUOUS
 10
378.0665834996
 20
273.270313432
 11
393.8013309146
 21
277.4864262949
  0
LINE
  5
32E
100
AcDbEntity
  8
RUNDUNGEN
100
AcDbLine
 62
7
  6
CONTINUOUS
 10
455.6249669606
 20
286.7584076023
 11
455.6249669606
 21
290.7584076023
  0
LINE
  5
32F
100
AcDbEntity
  8
0
100
AcDbLine
 62
7
  6
CONTINUOUS
 10
461.1249669606
 20
241.4584076023
 11
463.6102483348
 21
247.4584076023
  0
LINE
  5
330
100
AcDbEntity
  8
0
100
AcDbLine
 62
7
  6
CONTINUOUS
 10
469.8234517704
 20
262.4584076023
 11
471.5088048137
 21
266.527209777
  0
LINE
  5
331
100
AcDbEntity
  8
0
100
AcDbLine
 62
7
  6
CONTINUOUS
 10
469.1484464047
 20
259.5222375288
 11
470.3646478705
 21
262.4584076023
  0
LINE
  5
332
100
AcDbEntity
  8
0
100
AcDbLine
 62
7
  6
CONTINUOUS
 10
437.6249669606
 20
337.0769507506
 11
438.1249669606
 21
337.0769507506
  0
LINE
  5
333
100
AcDbEntity
  8
0
100
AcDbLine
 62
7
  6
CONTINUOUS
 10
437.6249669606
 20
340.6124846039
 11
438.1249669606
 21
340.6124846039
  0
LINE
  5
334
100
AcDbEntity
  8
0
100
AcDbLine
 62
7
  6
CONTINUOUS
 10
437.6249669606
 20
341.2753972112
 11
438.1249669606
 21
341.2753972112
  0
LINE
  5
335
100
AcDbEntity
  8
0
100
AcDbLine
 62
7
  6
CONTINUOUS
 10
437.6249669606
 20
344.3689892736
 11
438.1249669606
 21
344.3689892736
  0
LINE
  5
336
100
AcDbEntity
  8
0
100
AcDbLine
 62
7
  6
CONTINUOUS
 10
437.6249669606
 20
345.0319018809
 11
438.1249669606
 21
345.0319018809
  0
LINE
  5
337
100
AcDbEntity
  8
0
100
AcDbLine
 62
7
  6
CONTINUOUS
 10
437.6249669606
 20
345.9157854628
 11
438.1249669606
 21
345.9157854628
  0
LINE
  5
338
100
AcDbEntity
  8
0
100
AcDbLine
 62
7
  6
CONTINUOUS
 10
437.6249669606
 20
348.5674358922
 11
438.1249669606
 21
348.5674358922
  0
LINE
  5
339
100
AcDbEntity
  8
0
100
AcDbLine
 62
7
  6
CONTINUOUS
 10
437.6249669606
 20
349.0070266793
 11
438.1249669606
 21
349.0070266793
  0
LINE
  5
33A
100
AcDbEntity
  8
0
100
AcDbLine
 62
7
  6
CONTINUOUS
 10
437.6249669606
 20
349.1104601031
 11
438.1249669606
 21
349.1104601031
  0
LINE
  5
33B
100
AcDbEntity
  8
0
100
AcDbLine
 62
7
  6
CONTINUOUS
 10
437.6249669606
 20
349.2867665871
 11
438.1249669606
 21
349.2867665871
  0
LINE
  5
33C
100
AcDbEntity
  8
0
100
AcDbLine
 62
7
  6
CONTINUOUS
 10
437.6249669606
 20
349.2961699705
 11
438.1249669606
 21
349.2961699705
  0
LINE
  5
33D
100
AcDbEntity
  8
0
100
AcDbLine
 62
7
  6
CONTINUOUS
 10
437.6249669606
 20
349.6370283931
 11
438.1249669606
 21
349.6370283931
  0
LINE
  5
33E
100
AcDbEntity
  8
0
100
AcDbLine
 62
7
  6
CONTINUOUS
 10
437.6249669606
 20
350.0883734094
 11
438.1249669606
 21
350.0883734094
  0
LINE
  5
33F
100
AcDbEntity
  8
0
100
AcDbLine
 62
7
  6
CONTINUOUS
 10
437.6249669606
 20
350.650204387
 11
438.1249669606
 21
350.650204387
  0
LINE
  5
340
100
AcDbEntity
  8
0
100
AcDbLine
 62
7
  6
CONTINUOUS
 10
437.6249669606
 20
351.5434904039
 11
438.1249669606
 21
351.5434904039
  0
LINE
  5
341
100
AcDbEntity
  8
0
100
AcDbLine
 62
7
  6
CONTINUOUS
 10
437.6249669606
 20
352.2111040708
 11
438.1249669606
 21
352.2111040708
  0
LINE
  5
342
100
AcDbEntity
  8
0
100
AcDbLine
 62
7
  6
CONTINUOUS
 10
437.6249669606
 20
352.765882827
 11
438.1249669606
 21
352.765882827
  0
LINE
  5
343
100
AcDbEntity
  8
0
100
AcDbLine
 62
7
  6
CONTINUOUS
 10
437.6249669606
 20
353.3183091569
 11
438.1249669606
 21
353.3183091569
  0
LINE
  5
344
100
AcDbEntity
  8
0
100
AcDbLine
 62
7
  6
CONTINUOUS
 10
437.6249669606
 20
353.7579005761
 11
438.1249669606
 21
353.7579005761
  0
LINE
  5
345
100
AcDbEntity
  8
0
100
AcDbLine
 62
7
  6
CONTINUOUS
 10
437.6249669606
 20
353.8613333678
 11
438.1249669606
 21
353.8613333678
  0
LINE
  5
346
100
AcDbEntity
  8
0
100
AcDbLine
 62
7
  6
CONTINUOUS
 10
437.6249669606
 20
356.4584076023
 11
438.1249669606
 21
356.4584076023
  0
LINE
  5
347
100
AcDbEntity
  8
0
100
AcDbLine
 62
7
  6
CONTINUOUS
 10
437.6249669606
 20
363.9584076023
 11
438.1249669606
 21
363.9584076023
  0
LINE
  5
348
100
AcDbEntity
  8
RUNDUNGEN
100
AcDbLine
 62
7
  6
CONTINUOUS
 10
432.6249669606
 20
377.0315376405
 11
413.6249669606
 21
377.0315376405
  0
LINE
  5
349
100
AcDbEntity
  8
KONSTRUKTIONSELEMENTE
100
AcDbLine
 62
7
  6
CONTINUOUS
 10
441.1249669606
 20
190.0084076023
 11
438.3749669606
 21
187.2584076023
  0
LWPOLYLINE
  5
34A
100
AcDbEntity
  8
BEZUGSACHSEN
100
AcDbPolyline
 62
7
  6
CONTINUOUS
 90
7
 70
0
 10
73.0826771899
 20
81.6190322633
 10
72.9694224793
 20
80.1153590236
 10
72.8621244113
 20
78.3858021599
 10
72.779635528
 20
76.6625017747
 10
72.7217742018
 20
74.9475920559
 10
72.6882344519
 20
73.2432740746
 10
72.6785570573
 20
71.7128447452
  0
LWPOLYLINE
  5
34B
100
AcDbEntity
  8
BEZUGSACHSEN
100
AcDbPolyline
 62
7
  6
CONTINUOUS
 90
17
 70
0
 10
90.3657231411
 20
92.8134688143
 10
89.6607109407
 20
91.9601187547
 10
89.0009435484
 20
91.172626906
 10
88.3812918164
 20
90.4478537438
 10
87.7952220233
 20
89.7805115381
 10
87.2448005571
 20
89.1745706971
 10
86.7298603826
 20
88.6304403509
 10
86.252251123
 20
88.1496189773
 10
85.814648065
 20
87.7330907626
 10
85.4153613874
 20
87.3766170931
 10
85.0554328288
 20
87.0778245147
 10
84.7318299878
 20
86.8305099783
 10
84.4430265944
 20
86.6298523469
 10
84.1907151844
 20
86.4730601235
 10
83.9762634141
 20
86.3564871769
 10
83.8051277128
 20
86.2776592884
 10
83.7677280132
 20
86.262582339
  0
LWPOLYLINE
  5
34C
100
AcDbEntity
  8
BEZUGSACHSEN
100
AcDbPolyline
 62
7
  6
CONTINUOUS
 90
8
 70
0
 10
99.3322152034
 20
103.2064120037
 10
98.1885448388
 20
101.9952233798
 10
96.9895018998
 20
100.6813943115
 10
95.8513085175
 20
99.3942706002
 10
94.7769448703
 20
98.1465472716
 10
93.7666901926
 20
96.9480069037
 10
92.8210002997
 20
95.8082635898
 10
90.3657231411
 20
92.8134688143
  0
LWPOLYLINE
  5
34D
100
AcDbEntity
  8
RUNDUNGEN
100
AcDbPolyline
 62
7
  6
CONTINUOUS
 90
7
 70
0
 10
72.6785570573
 20
71.7128447452
 10
72.6882344519
 20
70.1824154157
 10
72.7217742018
 20
68.4780974344
 10
72.779635528
 20
66.7631877156
 10
72.8621244113
 20
65.0398873304
 10
72.9694224793
 20
63.3103304667
 10
73.0826771899
 20
61.806657227
  0
LWPOLYLINE
  5
34E
100
AcDbEntity
  8
BEZUGSACHSEN
100
AcDbPolyline
 62
7
  6
CONTINUOUS
 90
4
 70
0
 10
83.7677280132
 20
86.262582339
 10
83.6829847872
 20
86.2321879689
 10
83.6146073091
 20
86.2131192912
 10
83.6133620993
 20
86.2128447452
  0
LINE
  5
34F
100
AcDbEntity
  8
0
100
AcDbLine
 62
7
  6
CONTINUOUS
 10
94.2918252544
 20
57.2128447452
 11
94.2918252544
 21
56.7128447452
  0
LINE
  5
350
100
AcDbEntity
  8
0
100
AcDbLine
 62
7
  6
CONTINUOUS
 10
94.9547378618
 20
57.2128447452
 11
94.9547378618
 21
56.7128447452
  0
LINE
  5
351
100
AcDbEntity
  8
0
100
AcDbLine
 62
7
  6
CONTINUOUS
 10
98.0483299241
 20
57.2128447452
 11
98.0483299241
 21
56.7128447452
  0
LINE
  5
352
100
AcDbEntity
  8
0
100
AcDbLine
 62
7
  6
CONTINUOUS
 10
98.7112425315
 20
57.2128447452
 11
98.7112425315
 21
56.7128447452
  0
LINE
  5
353
100
AcDbEntity
  8
0
100
AcDbLine
 62
7
  6
CONTINUOUS
 10
99.5951261133
 20
57.2128447452
 11
99.5951261133
 21
56.7128447452
  0
LINE
  5
354
100
AcDbEntity
  8
0
100
AcDbLine
 62
7
  6
CONTINUOUS
 10
102.2467765428
 20
57.2128447452
 11
102.2467765428
 21
56.7128447452
  0
LINE
  5
355
100
AcDbEntity
  8
0
100
AcDbLine
 62
7
  6
CONTINUOUS
 10
102.9120396799
 20
57.2128447452
 11
102.9120396799
 21
56.7128447452
  0
LINE
  5
356
100
AcDbEntity
  8
0
100
AcDbLine
 62
7
  6
CONTINUOUS
 10
103.692490154
 20
57.2128447452
 11
103.692490154
 21
56.7128447452
  0
LINE
  5
357
100
AcDbEntity
  8
0
100
AcDbLine
 62
7
  6
CONTINUOUS
 10
104.4752911578
 20
57.2128447452
 11
104.4752911578
 21
56.7128447452
  0
LINE
  5
358
100
AcDbEntity
  8
0
100
AcDbLine
 62
7
  6
CONTINUOUS
 10
104.9242853282
 20
57.2128447452
 11
104.9242853282
 21
56.7128447452
  0
LINE
  5
359
100
AcDbEntity
  8
0
100
AcDbLine
 62
7
  6
CONTINUOUS
 10
105.3756303444
 20
57.2128447452
 11
105.3756303444
 21
56.7128447452
  0
LINE
  5
35A
100
AcDbEntity
  8
0
100
AcDbLine
 62
7
  6
CONTINUOUS
 10
105.6036532243
 20
57.2128447452
 11
105.6036532243
 21
56.7128447452
  0
LINE
  5
35B
100
AcDbEntity
  8
0
100
AcDbLine
 62
7
  6
CONTINUOUS
 10
105.7235416207
 20
57.2128447452
 11
105.7235416207
 21
56.7128447452
  0
LINE
  5
35C
100
AcDbEntity
  8
0
100
AcDbLine
 62
7
  6
CONTINUOUS
 10
105.8998481047
 20
57.2128447452
 11
105.8998481047
 21
56.7128447452
  0
LINE
  5
35D
100
AcDbEntity
  8
0
100
AcDbLine
 62
7
  6
CONTINUOUS
 10
106.1161170714
 20
57.2128447452
 11
106.1161170714
 21
56.7128447452
  0
LINE
  5
35E
100
AcDbEntity
  8
0
100
AcDbLine
 62
7
  6
CONTINUOUS
 10
106.4452234775
 20
57.2128447452
 11
106.4452234775
 21
56.7128447452
  0
LINE
  5
35F
100
AcDbEntity
  8
0
100
AcDbLine
 62
7
  6
CONTINUOUS
 10
106.9976498074
 20
57.2128447452
 11
106.9976498074
 21
56.7128447452
  0
LINE
  5
360
100
AcDbEntity
  8
0
100
AcDbLine
 62
7
  6
CONTINUOUS
 10
107.6629135767
 20
57.2128447452
 11
107.6629135767
 21
56.7128447452
  0
LINE
  5
361
100
AcDbEntity
  8
0
100
AcDbLine
 62
7
  6
CONTINUOUS
 10
108.4433634186
 20
57.2128447452
 11
108.4433634186
 21
56.7128447452
  0
LINE
  5
362
100
AcDbEntity
  8
0
100
AcDbLine
 62
7
  6
CONTINUOUS
 10
109.2261644224
 20
57.2128447452
 11
109.2261644224
 21
56.7128447452
  0
LINE
  5
363
100
AcDbEntity
  8
0
100
AcDbLine
 62
7
  6
CONTINUOUS
 10
109.675159225
 20
57.2128447452
 11
109.675159225
 21
56.7128447452
  0
LINE
  5
364
100
AcDbEntity
  8
0
100
AcDbLine
 62
7
  6
CONTINUOUS
 10
110.0301224066
 20
57.2128447452
 11
110.0301224066
 21
56.7128447452
  0
LINE
  5
365
100
AcDbEntity
  8
0
100
AcDbLine
 62
7
  6
CONTINUOUS
 10
110.6977373379
 20
57.2128447452
 11
110.6977373379
 21
56.7128447452
  0
LINE
  5
366
100
AcDbEntity
  8
0
100
AcDbLine
 62
7
  6
CONTINUOUS
 10
111.5910233548
 20
57.2128447452
 11
111.5910233548
 21
56.7128447452
  0
LWPOLYLINE
  5
367
100
AcDbEntity
  8
RUNDUNGEN
100
AcDbPolyline
 62
7
  6
CONTINUOUS
 90
7
 70
0
 10
92.8211736473
 20
47.6172157256
 10
93.7658669318
 20
46.4786680103
 10
94.7751591585
 20
45.2812404136
 10
95.8488433206
 20
44.0342468075
 10
96.9869024151
 20
42.7471914181
 10
98.1867772634
 20
41.4323700495
 10
99.3322151273
 20
40.2192775659
  0
LINE
  5
368
100
AcDbEntity
  8
RUNDUNGEN
100
AcDbLine
 62
7
  6
CONTINUOUS
 10
90.3672492633
 20
50.6103644092
 11
92.8211736473
 21
47.6172157256
  0
LINE
  5
369
100
AcDbEntity
  8
0
100
AcDbLine
 62
7
  6
CONTINUOUS
 10
112.2633395036
 20
57.2128447452
 11
112.2633395036
 21
56.7128447452
  0
LINE
  5
36A
100
AcDbEntity
  8
0
100
AcDbLine
 62
7
  6
CONTINUOUS
 10
112.8275203788
 20
57.2128447452
 11
112.8275203788
 21
56.7128447452
  0
LINE
  5
36B
100
AcDbEntity
  8
0
100
AcDbLine
 62
7
  6
CONTINUOUS
 10
113.0578938673
 20
57.2128447452
 11
113.0578938673
 21
56.7128447452
  0
LINE
  5
36C
100
AcDbEntity
  8
0
100
AcDbLine
 62
7
  6
CONTINUOUS
 10
113.0672972902
 20
57.2128447452
 11
113.0672972902
 21
56.7128447452
  0
LWPOLYLINE
  5
36D
100
AcDbEntity
  8
RUNDUNGEN
100
AcDbPolyline
 62
7
  6
CONTINUOUS
 90
39
 70
0
 10
99.3322335328
 20
40.2192646047
 10
100.9106163465
 20
38.642006916
 10
102.6665669657
 20
37.029002552
 10
104.4939630736
 20
35.4909649314
 10
106.3894382006
 20
34.0306436809
 10
108.3496666396
 20
32.6506538022
 10
110.3712305046
 20
31.3535223452
 10
112.450619599
 20
30.1416712287
 10
114.5839319612
 20
29.0174416389
 10
116.7672708861
 20
27.9830897203
 10
118.9968515604
 20
27.0405547342
 10
121.2689645827
 20
26.1916040879
 10
123.5789070951
 20
25.4381396885
 10
125.9220261341
 20
24.7818945234
 10
128.294139038
 20
24.2241614289
 10
130.6910967868
 20
23.7660772383
 10
133.1077301248
 20
23.4087318359
 10
135.539006975
 20
23.1530242473
 10
137.9801619036
 20
22.9994998851
 10
140.42641127
 20
22.9484948359
 10
142.8726434252
 20
23.0000797279
 10
145.3137479594
 20
23.1541821695
 10
147.7449467184
 20
23.4104645945
 10
150.1614748404
 20
23.7683800414
 10
152.558298624
 20
24.227027934
 10
154.9302525082
 20
24.7853180357
 10
157.2731907032
 20
25.442113232
 10
159.5829294081
 20
26.1961192808
 10
161.8548141352
 20
27.0456016827
 10
164.0841457226
 20
27.9886592333
 10
166.2672163698
 20
29.0235243373
 10
168.400238824
 20
30.1482555601
 10
170.4793142299
 20
31.360594569
 10
172.5005429366
 20
32.6582004125
 10
174.4604174613
 20
34.0386512245
 10
176.3555182743
 20
35.4994179111
 10
178.1825184666
 20
37.0378837192
 10
179.9380532627
 20
38.6512977081
 10
180.4998634232
 20
39.2128447452
  0
LINE
  5
36E
100
AcDbEntity
  8
0
100
AcDbLine
 62
7
  6
CONTINUOUS
 10
129.0861602143
 20
95.7128447452
 11
129.0861602143
 21
93.9791304123
  0
LINE
  5
36F
100
AcDbEntity
  8
0
100
AcDbLine
 62
7
  6
CONTINUOUS
 10
130.2632441834
 20
57.2128447452
 11
130.2632441834
 21
56.7128447452
  0
LINE
  5
370
100
AcDbEntity
  8
0
100
AcDbLine
 62
7
  6
CONTINUOUS
 10
134.0132441834
 20
57.2128447452
 11
134.0132441834
 21
56.7128447452
  0
LINE
  5
371
100
AcDbEntity
  8
0
100
AcDbLine
 62
7
  6
CONTINUOUS
 10
134.7944943324
 20
57.2128447452
 11
134.7944943324
 21
56.7128447452
  0
LINE
  5
372
100
AcDbEntity
  8
0
100
AcDbLine
 62
7
  6
CONTINUOUS
 10
135.4194941834
 20
57.2128447452
 11
135.4194941834
 21
56.7128447452
  0
LINE
  5
373
100
AcDbEntity
  8
0
100
AcDbLine
 62
7
  6
CONTINUOUS
 10
135.8882441834
 20
57.2128447452
 11
135.8882441834
 21
56.7128447452
  0
LINE
  5
374
100
AcDbEntity
  8
0
100
AcDbLine
 62
7
  6
CONTINUOUS
 10
136.0444940344
 20
57.2128447452
 11
136.0444940344
 21
56.7128447452
  0
LINE
  5
375
100
AcDbEntity
  8
0
100
AcDbLine
 62
7
  6
CONTINUOUS
 10
136.2007443324
 20
57.2128447452
 11
136.2007443324
 21
56.7128447452
  0
LINE
  5
376
100
AcDbEntity
  8
0
100
AcDbLine
 62
7
  6
CONTINUOUS
 10
137.4507440344
 20
57.2128447452
 11
137.4507440344
 21
56.7128447452
  0
LINE
  5
377
100
AcDbEntity
  8
0
100
AcDbLine
 62
7
  6
CONTINUOUS
 10
138.3882444814
 20
57.2128447452
 11
138.3882444814
 21
56.7128447452
  0
LINE
  5
378
100
AcDbEntity
  8
0
100
AcDbLine
 62
7
  6
CONTINUOUS
 10
138.5444938854
 20
57.2128447452
 11
138.5444938854
 21
56.7128447452
  0
LINE
  5
379
100
AcDbEntity
  8
0
100
AcDbLine
 62
7
  6
CONTINUOUS
 10
138.8569944814
 20
57.2128447452
 11
138.8569944814
 21
56.7128447452
  0
LINE
  5
37A
100
AcDbEntity
  8
0
100
AcDbLine
 62
7
  6
CONTINUOUS
 10
139.3257444814
 20
57.2128447452
 11
139.3257444814
 21
56.7128447452
  0
LINE
  5
37B
100
AcDbEntity
  8
0
100
AcDbLine
 62
7
  6
CONTINUOUS
 10
139.9507438854
 20
57.2128447452
 11
139.9507438854
 21
56.7128447452
  0
LINE
  5
37C
100
AcDbEntity
  8
0
100
AcDbLine
 62
7
  6
CONTINUOUS
 10
140.5757441834
 20
57.2128447452
 11
140.5757441834
 21
56.7128447452
  0
LINE
  5
37D
100
AcDbEntity
  8
0
100
AcDbLine
 62
7
  6
CONTINUOUS
 10
141.2007444814
 20
57.2128447452
 11
141.2007444814
 21
56.7128447452
  0
LINE
  5
37E
100
AcDbEntity
  8
0
100
AcDbLine
 62
7
  6
CONTINUOUS
 10
141.6694944814
 20
57.2128447452
 11
141.6694944814
 21
56.7128447452
  0
LWPOLYLINE
  5
37F
100
AcDbEntity
  8
RUNDUNGEN
100
AcDbPolyline
 62
7
  6
CONTINUOUS
 90
4
 70
0
 10
197.0726808645
 20
57.1636617001
 10
197.1570019023
 20
57.193822468
 10
197.2247794757
 20
57.2126575975
 10
197.2256196327
 20
57.2128447452
  0
LINE
  5
380
100
AcDbEntity
  8
RUNDUNGEN
100
AcDbLine
 62
7
  6
CONTINUOUS
 10
83.6830271572
 20
57.1934878792
 11
83.8052180976
 21
57.1479926976
  0
LWPOLYLINE
  5
381
100
AcDbEntity
  8
RUNDUNGEN
100
AcDbPolyline
 62
7
  6
CONTINUOUS
 90
16
 70
0
 10
83.8052180976
 20
57.1479926976
 10
83.9764167188
 20
57.0691254387
 10
84.1909391611
 20
56.9524989382
 10
84.443322705
 20
56.7956423001
 10
84.732194851
 20
56.5949133326
 10
85.0558572139
 20
56.3475266499
 10
85.4158349566
 20
56.0486644181
 10
85.8151549731
 20
55.6921310788
 10
86.2527858158
 20
55.2755467036
 10
86.7304188908
 20
54.7946725786
 10
87.2454065724
 20
54.2504645496
 10
87.7959332032
 20
53.644380936
 10
88.3821634273
 20
52.9768288513
 10
89.0020813294
 20
52.2517169435
 10
89.6620978174
 20
51.4639021475
 10
90.3672492633
 20
50.6103644092
  0
LINE
  5
382
100
AcDbEntity
  8
0
100
AcDbLine
 62
7
  6
CONTINUOUS
 10
141.9819941834
 20
57.2128447452
 11
141.9819941834
 21
56.7128447452
  0
LINE
  5
383
100
AcDbEntity
  8
0
100
AcDbLine
 62
7
  6
CONTINUOUS
 10
142.1382444814
 20
57.2128447452
 11
142.1382444814
 21
56.7128447452
  0
LINE
  5
384
100
AcDbEntity
  8
0
100
AcDbLine
 62
7
  6
CONTINUOUS
 10
143.0757444814
 20
57.2128447452
 11
143.0757444814
 21
56.7128447452
  0
LINE
  5
385
100
AcDbEntity
  8
0
100
AcDbLine
 62
7
  6
CONTINUOUS
 10
144.3257441834
 20
57.2128447452
 11
144.3257441834
 21
56.7128447452
  0
LINE
  5
386
100
AcDbEntity
  8
0
100
AcDbLine
 62
7
  6
CONTINUOUS
 10
148.0757441834
 20
57.2128447452
 11
148.0757441834
 21
56.7128447452
  0
LINE
  5
387
100
AcDbEntity
  8
0
100
AcDbLine
 62
7
  6
CONTINUOUS
 10
148.8569947794
 20
57.2128447452
 11
148.8569947794
 21
56.7128447452
  0
LINE
  5
388
100
AcDbEntity
  8
0
100
AcDbLine
 62
7
  6
CONTINUOUS
 10
149.4819941834
 20
57.2128447452
 11
149.4819941834
 21
56.7128447452
  0
LINE
  5
389
100
AcDbEntity
  8
0
100
AcDbLine
 62
7
  6
CONTINUOUS
 10
150.1069935873
 20
57.2128447452
 11
150.1069935873
 21
56.7128447452
  0
LINE
  5
38A
100
AcDbEntity
  8
0
100
AcDbLine
 62
7
  6
CONTINUOUS
 10
150.4194941834
 20
57.2128447452
 11
150.4194941834
 21
56.7128447452
  0
LINE
  5
38B
100
AcDbEntity
  8
0
100
AcDbLine
 62
7
  6
CONTINUOUS
 10
150.5757435873
 20
57.2128447452
 11
150.5757435873
 21
56.7128447452
  0
LINE
  5
38C
100
AcDbEntity
  8
RUNDUNGEN
100
AcDbLine
 62
7
  6
CONTINUOUS
 10
156.0319891794
 20
39.2128447452
 11
199.4194941834
 21
39.2128447452
  0
LWPOLYLINE
  5
38D
100
AcDbEntity
  8
RUNDUNGEN
100
AcDbPolyline
 62
7
  6
CONTINUOUS
 90
3
 70
0
 10
83.6133189013
 20
57.2128447452
 10
83.6146178255
 20
57.2125678862
 10
83.6830271572
 20
57.1934878792
  0
LINE
  5
38E
100
AcDbEntity
  8
0
100
AcDbLine
 62
7
  6
CONTINUOUS
 10
130.9009445229
 20
94.8126955755
 11
130.5861602143
 21
95.7128447452
  0
LINE
  5
38F
100
AcDbEntity
  8
RUNDUNGEN
100
AcDbLine
 62
7
  6
CONTINUOUS
 10
202.4194941834
 20
51.7128447452
 11
175.4194941834
 21
51.7128447452
  0
LINE
  5
390
100
AcDbEntity
  8
0
100
AcDbLine
 62
7
  6
CONTINUOUS
 10
182.1817317433
 20
56.7128447452
 11
170.8694957115
 21
56.7128447452
  0
LINE
  5
391
100
AcDbEntity
  8
0
100
AcDbLine
 62
7
  6
CONTINUOUS
 10
150.5757435873
 20
56.7128447452
 11
144.3257441834
 21
56.7128447452
  0
LINE
  5
392
100
AcDbEntity
  8
0
100
AcDbLine
 62
7
  6
CONTINUOUS
 10
143.0757444814
 20
56.7128447452
 11
137.4507440344
 21
56.7128447452
  0
LINE
  5
393
100
AcDbEntity
  8
0
100
AcDbLine
 62
7
  6
CONTINUOUS
 10
136.2007443324
 20
56.7128447452
 11
130.2632441834
 21
56.7128447452
  0
LINE
  5
394
100
AcDbEntity
  8
0
100
AcDbLine
 62
7
  6
CONTINUOUS
 10
113.0672972902
 20
56.7128447452
 11
94.2918252544
 21
56.7128447452
  0
LINE
  5
395
100
AcDbEntity
  8
0
100
AcDbLine
 62
7
  6
CONTINUOUS
 10
170.8694941834
 20
57.2128447452
 11
170.8694941834
 21
56.7128447452
  0
LWPOLYLINE
  5
396
100
AcDbEntity
  8
RUNDUNGEN
100
AcDbPolyline
 62
7
  6
CONTINUOUS
 90
16
 70
0
 10
191.3854324318
 20
51.7128447452
 10
191.8430553483
 20
52.2589878845
 10
192.462744232
 20
52.983666125
 10
193.0487216063
 20
53.6507303571
 10
193.5989817354
 20
54.2562931459
 10
194.1136881576
 20
54.7999555684
 10
194.5910297593
 20
55.2802744105
 10
195.0283637508
 20
55.6963092739
 10
195.4273734975
 20
56.0522987885
 10
195.7870240013
 20
56.3506287429
 10
196.1103317605
 20
56.597493253
 10
196.3988147701
 20
56.7977132647
 10
196.6507614235
 20
56.9540772186
 10
196.8647836643
 20
57.0702336287
 10
197.0354250384
 20
57.148678544
 10
197.0726808645
 20
57.1636617001
  0
LINE
  5
397
100
AcDbEntity
  8
RUNDUNGEN
100
AcDbLine
 62
7
  6
CONTINUOUS
 10
78.0661510996
 20
57.2128447452
 11
202.7728396474
 21
57.2128447452
  0
LINE
  5
398
100
AcDbEntity
  8
RUNDUNGEN
100
AcDbLine
 62
7
  6
CONTINUOUS
 10
209.4194941834
 20
59.9628447452
 11
207.4194941834
 21
59.9628447452
  0
LINE
  5
399
100
AcDbEntity
  8
0
100
AcDbLine
 62
7
  6
CONTINUOUS
 10
177.6117317433
 20
57.2128447452
 11
177.6117317433
 21
56.7128447452
  0
LINE
  5
39A
100
AcDbEntity
  8
0
100
AcDbLine
 62
7
  6
CONTINUOUS
 10
182.1817317433
 20
57.2128447452
 11
182.1817317433
 21
56.7128447452
  0
LINE
  5
39B
100
AcDbEntity
  8
RUNDUNGEN
100
AcDbLine
 62
7
  6
CONTINUOUS
 10
207.4194941834
 20
83.4628447452
 11
209.4194941834
 21
83.4628447452
  0
LINE
  5
39C
100
AcDbEntity
  8
BEZUGSACHSEN
100
AcDbLine
 62
7
  6
CONTINUOUS
 10
78.0661510996
 20
86.2128447452
 11
202.7728396474
 21
86.2128447452
  0
LINE
  5
39D
100
AcDbEntity
  8
RUNDUNGEN
100
AcDbLine
 62
7
  6
CONTINUOUS
 10
175.4194941834
 20
91.7128447452
 11
202.4194941834
 21
91.7128447452
  0
LINE
  5
39E
100
AcDbEntity
  8
0
100
AcDbLine
 62
7
  6
CONTINUOUS
 10
130.5861602143
 20
95.7128447452
 11
129.0861602143
 21
95.7128447452
  0
LWPOLYLINE
  5
39F
100
AcDbEntity
  8
BEZUGSACHSEN
100
AcDbPolyline
 62
7
  6
CONTINUOUS
 90
7
 70
0
 10
208.1604373605
 20
71.7128447452
 10
208.1506002098
 20
73.2547383313
 10
208.1169353695
 20
74.9579623762
 10
208.0589474133
 20
76.6724846454
 10
207.9762903353
 20
78.39610645
 10
207.8687766638
 20
80.1267055747
 10
207.75631949
 20
81.6189594664
  0
LINE
  5
3A0
100
AcDbEntity
  8
RUNDUNGEN
100
AcDbLine
 62
7
  6
CONTINUOUS
 10
204.9194941834
 20
89.2128447452
 11
204.9194941834
 21
85.9628447452
  0
LINE
  5
3A1
100
AcDbEntity
  8
RUNDUNGEN
100
AcDbLine
 62
7
  6
CONTINUOUS
 10
204.9194941834
 20
57.4628447452
 11
204.9194941834
 21
54.2128447452
  0
LWPOLYLINE
  5
3A2
100
AcDbEntity
  8
RUNDUNGEN
100
AcDbPolyline
 62
7
  6
CONTINUOUS
 90
7
 70
0
 10
207.75631949
 20
61.8067300239
 10
207.8687766638
 20
63.2989839156
 10
207.9762903353
 20
65.0295830403
 10
208.0589474133
 20
66.7532048449
 10
208.1169353695
 20
68.4677271141
 10
208.1506002098
 20
70.170951159
 10
208.1604373605
 20
71.7128447452
  0
LINE
  5
3A3
100
AcDbEntity
  8
RUNDUNGEN
100
AcDbLine
 62
7
  6
CONTINUOUS
 10
199.4194941834
 20
104.2128447452
 11
156.0319891794
 21
104.2128447452
  0
LINE
  5
3A4
100
AcDbEntity
  8
BEZUGSACHSEN
100
AcDbLine
 62
7
  6
CONTINUOUS
 10
197.2256619547
 20
86.2128447452
 11
197.1570425745
 21
86.2318539695
  0
LINE
  5
3A5
100
AcDbEntity
  8
BEZUGSACHSEN
100
AcDbLine
 62
7
  6
CONTINUOUS
 10
197.1570425745
 20
86.2318539695
 11
197.0355125068
 21
86.2769747404
  0
LWPOLYLINE
  5
3A6
100
AcDbEntity
  8
BEZUGSACHSEN
100
AcDbPolyline
 62
7
  6
CONTINUOUS
 90
15
 70
0
 10
197.0355125068
 20
86.2769747404
 10
196.8649330288
 20
86.3553811054
 10
196.6509807657
 20
86.4714847403
 10
196.399106064
 20
86.6277848007
 10
196.1106920565
 20
86.8279336798
 10
195.7874444555
 20
87.0747258711
 10
195.4278440696
 20
87.372985633
 10
195.0288687756
 20
87.7289146294
 10
194.591563834
 20
88.1448921861
 10
194.1142474065
 20
88.6251568854
 10
193.599589939
 20
89.1687400116
 10
193.0494364875
 20
89.7741582394
 10
192.4636211385
 20
90.4410106201
 10
191.8442000355
 20
91.1653480617
 10
191.3854278818
 20
91.7128447452
  0
LINE
  5
3A7
100
AcDbEntity
  8
RUNDUNGEN
100
AcDbLine
 62
7
  6
CONTINUOUS
 10
211.9194941834
 20
51.7128447452
 11
211.9194941834
 21
57.4628447452
  0
LINE
  5
3A8
100
AcDbEntity
  8
RUNDUNGEN
100
AcDbLine
 62
7
  6
CONTINUOUS
 10
211.9194941834
 20
85.9628447452
 11
211.9194941834
 21
91.7128447452
  0
LWPOLYLINE
  5
3A9
100
AcDbEntity
  8
BEZUGSACHSEN
100
AcDbPolyline
 62
7
  6
CONTINUOUS
 90
39
 70
0
 10
180.4998634232
 20
104.2128447452
 10
179.9380532627
 20
104.7743917822
 10
178.1825184666
 20
106.3878057711
 10
176.3555182743
 20
107.9262715792
 10
174.4604174613
 20
109.3870382658
 10
172.5005429366
 20
110.7674890778
 10
170.4793142299
 20
112.0650949213
 10
168.400238824
 20
113.2774339302
 10
166.2672163698
 20
114.402165153
 10
164.0841457226
 20
115.437030257
 10
161.8548141352
 20
116.3800878077
 10
159.5829294081
 20
117.2295702095
 10
157.2731907032
 20
117.9835762583
 10
154.9302525082
 20
118.6403714546
 10
152.558298624
 20
119.1986615563
 10
150.1614748404
 20
119.6573094489
 10
147.7449467184
 20
120.0152248958
 10
145.3137479594
 20
120.2715073208
 10
142.8726434252
 20
120.4256097624
 10
140.42641127
 20
120.4771946544
 10
137.9801619036
 20
120.4261896052
 10
135.539006975
 20
120.272665243
 10
133.1077301248
 20
120.0169576544
 10
130.6910967868
 20
119.659612252
 10
128.294139038
 20
119.2015280614
 10
125.9220261341
 20
118.6437949669
 10
123.5789070951
 20
117.9875498018
 10
121.2689645827
 20
117.2340854024
 10
118.9968515604
 20
116.3851347562
 10
116.7672708861
 20
115.44259977
 10
114.5839319612
 20
114.4082478514
 10
112.450619599
 20
113.2840182616
 10
110.3712305046
 20
112.0721671451
 10
108.3496666396
 20
110.7750356881
 10
106.3894382006
 20
109.3950458095
 10
104.4939630736
 20
107.9347245589
 10
102.6665669657
 20
106.3966869383
 10
100.9106163465
 20
104.7836825743
 10
99.3322335328
 20
103.2064248856
  0
ARC
  5
3AA
100
AcDbEntity
  8
RUNDUNGEN
100
AcDbCircle
 62
7
  6
CONTINUOUS
 10
140.4194941834
 20
308.9584076023
 40
36.5
100
AcDbArc
 50
339.1470133794
 51
200.8529715132
  0
ARC
  5
3AB
100
AcDbEntity
  8
BEZUGSACHSEN
100
AcDbCircle
 62
7
  6
CONTINUOUS
 10
87.9194941834
 20
241.4584076023
 40
15.0
100
AcDbArc
 50
0.0
 51
62.3074971192
  0
ARC
  5
3AC
100
AcDbEntity
  8
BEZUGSACHSEN
100
AcDbCircle
 62
7
  6
CONTINUOUS
 10
192.9194941834
 20
241.4584076023
 40
15.0
100
AcDbArc
 50
117.6925028808
 51
180.0
  0
ARC
  5
3AD
100
AcDbEntity
  8
0
100
AcDbCircle
 62
7
  6
CONTINUOUS
 10
115.6553624154
 20
299.525074269
 40
10.0
100
AcDbArc
 50
200.8523605436
 51
210.1862551292
  0
ARC
  5
3AE
100
AcDbEntity
  8
0
100
AcDbCircle
 62
7
  6
CONTINUOUS
 10
165.1836259514
 20
299.525074269
 40
10.0
100
AcDbArc
 50
329.8137645171
 51
339.147584315
  0
ARC
  5
3AF
100
AcDbEntity
  8
BEZUGSACHSEN
100
AcDbCircle
 62
7
  6
CONTINUOUS
 10
97.4121373048
 20
354.5225600929
 40
6.0
100
AcDbArc
 50
110.9999999986
 51
157.5000000017
  0
ARC
  5
3B0
100
AcDbEntity
  8
BEZUGSACHSEN
100
AcDbCircle
 62
7
  6
CONTINUOUS
 10
202.1604374585
 20
309.2956817427
 40
6.0
100
AcDbArc
 50
337.3984381457
 51
22.4999777031
  0
ARC
  5
3B1
100
AcDbEntity
  8
RUNDUNGEN
100
AcDbCircle
 62
7
  6
CONTINUOUS
 10
183.426851062
 20
354.5225600929
 40
6.0
100
AcDbArc
 50
22.5
 51
69.0
  0
ARC
  5
3B2
100
AcDbEntity
  8
RUNDUNGEN
100
AcDbCircle
 62
7
  6
CONTINUOUS
 10
140.4194941834
 20
371.0315376405
 40
6.0
100
AcDbArc
 50
69.0
 51
111.0
  0
ARC
  5
3B3
100
AcDbEntity
  8
RUNDUNGEN
100
AcDbCircle
 62
7
  6
CONTINUOUS
 10
97.4121373048
 20
354.5225600929
 40
6.0
100
AcDbArc
 50
111.0
 51
157.5
  0
ARC
  5
3B4
100
AcDbEntity
  8
BEZUGSACHSEN
100
AcDbCircle
 62
7
  6
CONTINUOUS
 10
78.6785561906
 20
309.2956944952
 40
6.0
100
AcDbArc
 50
157.5001541076
 51
202.6016548929
  0
ARC
  5
3B5
100
AcDbEntity
  8
0
100
AcDbCircle
 62
7
  6
CONTINUOUS
 10
179.2394941834
 20
343.6775128457
 40
3.8
100
AcDbArc
 50
39.2608295227
 51
230.7391704773
  0
ARC
  5
3B6
100
AcDbEntity
  8
0
100
AcDbCircle
 62
7
  6
CONTINUOUS
 10
174.6694941834
 20
348.2475128457
 40
3.8
100
AcDbArc
 50
39.2608295227
 51
230.7391704773
  0
ARC
  5
3B7
100
AcDbEntity
  8
0
100
AcDbCircle
 62
7
  6
CONTINUOUS
 10
179.2394941834
 20
343.6775128457
 40
2.66
100
AcDbArc
 50
147.3736251162
 51
233.2132107017
  0
ARC
  5
3B8
100
AcDbEntity
  8
0
100
AcDbCircle
 62
7
  6
CONTINUOUS
 10
179.2394941834
 20
343.6775128457
 40
2.66
100
AcDbArc
 50
36.7867892983
 51
122.4447123387
  0
ARC
  5
3B9
100
AcDbEntity
  8
0
100
AcDbCircle
 62
7
  6
CONTINUOUS
 10
174.6694941834
 20
348.2475128457
 40
2.66
100
AcDbArc
 50
36.7867892983
 51
233.2132107017
  0
ARC
  5
3BA
100
AcDbEntity
  8
RUNDUNGEN
100
AcDbCircle
 62
7
  6
CONTINUOUS
 10
116.4194941834
 20
286.7584076023
 40
1.0
100
AcDbArc
 50
180.0
 51
270.0
  0
ARC
  5
3BB
100
AcDbEntity
  8
RUNDUNGEN
100
AcDbCircle
 62
7
  6
CONTINUOUS
 10
116.4194941834
 20
290.7584076023
 40
1.0
100
AcDbArc
 50
90.0
 51
180.0
  0
ARC
  5
3BC
100
AcDbEntity
  8
RUNDUNGEN
100
AcDbCircle
 62
7
  6
CONTINUOUS
 10
210.9194941834
 20
286.7584076023
 40
1.0
100
AcDbArc
 50
270.0
 51
360.0
  0
ARC
  5
3BD
100
AcDbEntity
  8
RUNDUNGEN
100
AcDbCircle
 62
7
  6
CONTINUOUS
 10
210.9194941834
 20
290.7584076023
 40
1.0
100
AcDbArc
 50
0.0
 51
90.0
  0
ARC
  5
3BE
100
AcDbEntity
  8
0
100
AcDbCircle
 62
7
  6
CONTINUOUS
 10
408.8727317285
 20
267.6335316845
 40
32.488154206
100
AcDbArc
 50
213.5204486491
 51
214.8815437241
  0
ARC
  5
3BF
100
AcDbEntity
  8
0
100
AcDbCircle
 62
7
  6
CONTINUOUS
 10
409.1195354178
 20
267.5172237414
 40
32.1723774862
100
AcDbArc
 50
213.6445955601
 51
215.0212082573
  0
ARC
  5
3C0
100
AcDbEntity
  8
0
100
AcDbCircle
 62
7
  6
CONTINUOUS
 10
408.5500237011
 20
265.2260467973
 40
31.2552435225
100
AcDbArc
 50
211.8451162155
 51
213.2331294897
  0
ARC
  5
3C1
100
AcDbEntity
  8
RUNDUNGEN
100
AcDbCircle
 62
7
  6
CONTINUOUS
 10
457.6249669606
 20
296.8049473619
 40
20.0
100
AcDbArc
 50
179.9998746158
 51
255.0000502653
  0
ARC
  5
3C2
100
AcDbEntity
  8
BEZUGSACHSEN
100
AcDbCircle
 62
7
  6
CONTINUOUS
 10
388.6249669606
 20
296.8049473619
 40
20.0
100
AcDbArc
 50
284.9999497347
 51
0.0001253842
  0
ARC
  5
3C3
100
AcDbEntity
  8
0
100
AcDbCircle
 62
7
  6
CONTINUOUS
 10
391.3401177986
 20
256.0556001204
 40
11.9645654061
100
AcDbArc
 50
221.69809242
 51
223.7791125378
  0
ARC
  5
3C4
100
AcDbEntity
  8
BEZUGSACHSEN
100
AcDbCircle
 62
7
  6
CONTINUOUS
 10
379.3605939102
 20
268.4406615744
 40
5.0
100
AcDbArc
 50
105.0
 51
202.5000722583
  0
ARC
  5
3C5
100
AcDbEntity
  8
RUNDUNGEN
100
AcDbCircle
 62
7
  6
CONTINUOUS
 10
466.8893400109
 20
268.4406615744
 40
5.0
100
AcDbArc
 50
337.4999277417
 51
75.0
  0
ARC
  5
3C6
100
AcDbEntity
  8
RUNDUNGEN
100
AcDbCircle
 62
7
  6
CONTINUOUS
 10
447.1249669606
 20
286.7584076023
 40
1.0
100
AcDbArc
 50
270.0
 51
360.0
  0
ARC
  5
3C7
100
AcDbEntity
  8
RUNDUNGEN
100
AcDbCircle
 62
7
  6
CONTINUOUS
 10
399.1249669606
 20
286.7584076023
 40
1.0
100
AcDbArc
 50
180.0
 51
270.0
  0
ARC
  5
3C8
100
AcDbEntity
  8
RUNDUNGEN
100
AcDbCircle
 62
7
  6
CONTINUOUS
 10
391.6249669606
 20
286.7584076023
 40
1.0
100
AcDbArc
 50
180.0
 51
270.0
  0
ARC
  5
3C9
100
AcDbEntity
  8
RUNDUNGEN
100
AcDbCircle
 62
7
  6
CONTINUOUS
 10
454.6249669606
 20
286.7584076023
 40
1.0
100
AcDbArc
 50
270.0
 51
360.0
  0
ARC
  5
3CA
100
AcDbEntity
  8
RUNDUNGEN
100
AcDbCircle
 62
7
  6
CONTINUOUS
 10
454.6249669606
 20
290.7584076023
 40
1.0
100
AcDbArc
 50
0.0
 51
90.0
  0
ARC
  5
3CB
100
AcDbEntity
  8
RUNDUNGEN
100
AcDbCircle
 62
7
  6
CONTINUOUS
 10
447.1249669606
 20
290.7584076023
 40
1.0
100
AcDbArc
 50
0.0
 51
90.0
  0
ARC
  5
3CC
100
AcDbEntity
  8
RUNDUNGEN
100
AcDbCircle
 62
7
  6
CONTINUOUS
 10
399.1249669606
 20
290.7584076023
 40
1.0
100
AcDbArc
 50
90.0
 51
180.0
  0
ARC
  5
3CD
100
AcDbEntity
  8
RUNDUNGEN
100
AcDbCircle
 62
7
  6
CONTINUOUS
 10
391.6249669606
 20
290.7584076023
 40
1.0
100
AcDbArc
 50
90.0
 51
180.0
  0
ARC
  5
3CE
100
AcDbEntity
  8
0
100
AcDbCircle
 62
7
  6
CONTINUOUS
 10
209.4386620344
 20
371.6834814501
 40
282.8623406843
100
AcDbArc
 50
336.6419003461
 51
336.9344759039
  0
ARC
  5
3CF
100
AcDbEntity
  8
BEZUGSACHSEN
100
AcDbCircle
 62
7
  6
CONTINUOUS
 10
413.6249669606
 20
372.0315376405
 40
5.0
100
AcDbArc
 50
90.0
 51
180.0
  0
ARC
  5
3D0
100
AcDbEntity
  8
RUNDUNGEN
100
AcDbCircle
 62
7
  6
CONTINUOUS
 10
432.6249669606
 20
372.0315376405
 40
5.0
100
AcDbArc
 50
0.0
 51
90.0
  0
ARC
  5
3D1
100
AcDbEntity
  8
0
100
AcDbCircle
 62
7
  6
CONTINUOUS
 10
732.8336470749
 20
416.0029200522
 40
388.4487275972
100
AcDbArc
 50
205.1934142691
 51
205.349582837
  0
ARC
  5
3D2
100
AcDbEntity
  8
0
100
AcDbCircle
 62
7
  6
CONTINUOUS
 10
727.6648198555
 20
413.5710393469
 40
382.240693716
100
AcDbArc
 50
205.2283264372
 51
205.3870787542
  0
ARC
  5
3D3
100
AcDbEntity
  8
0
100
AcDbCircle
 62
7
  6
CONTINUOUS
 10
641.9243161637
 20
369.2080646866
 40
286.6393407981
100
AcDbArc
 50
202.4986370732
 51
202.906804658
  0
ARC
  5
3D4
100
AcDbEntity
  8
0
100
AcDbCircle
 62
7
  6
CONTINUOUS
 10
633.6797689034
 20
365.7280227684
 40
277.6904168966
100
AcDbArc
 50
202.9075164498
 51
203.1927187054
  0
ARC
  5
3D5
100
AcDbEntity
  8
0
100
AcDbCircle
 62
7
  6
CONTINUOUS
 10
610.3038157627
 20
355.5819330056
 40
252.2078259528
100
AcDbArc
 50
203.1654346658
 51
204.7575689823
  0
ARC
  5
3D6
100
AcDbEntity
  8
0
100
AcDbCircle
 62
7
  6
CONTINUOUS
 10
592.9743534965
 20
347.6312655745
 40
233.1415765012
100
AcDbArc
 50
204.7667411826
 51
205.1152275443
  0
ARC
  5
3D7
100
AcDbEntity
  8
0
100
AcDbCircle
 62
7
  6
CONTINUOUS
 10
588.0102867226
 20
345.3072121514
 40
227.6604109121
100
AcDbArc
 50
205.1158871081
 51
205.3048820061
  0
ARC
  5
3D8
100
AcDbEntity
  8
0
100
AcDbCircle
 62
7
  6
CONTINUOUS
 10
568.0699548878
 20
339.1293003645
 40
206.8656112818
100
AcDbArc
 50
205.5183396446
 51
205.9107855347
  0
ARC
  5
3D9
100
AcDbEntity
  8
RUNDUNGEN
100
AcDbCircle
 62
7
  6
CONTINUOUS
 10
140.4194941834
 20
36.7128447452
 40
10.0
100
AcDbArc
 50
38.6821874535
 51
90.0
  0
ARC
  5
3DA
100
AcDbEntity
  8
RUNDUNGEN
100
AcDbCircle
 62
7
  6
CONTINUOUS
 10
78.0661510955
 20
62.2128447452
 40
5.0
100
AcDbArc
 50
184.6598787488
 51
269.9999999999
  0
ARC
  5
3DB
100
AcDbEntity
  8
0
100
AcDbCircle
 62
7
  6
CONTINUOUS
 10
140.4194941834
 20
71.7128447452
 40
34.0
100
AcDbArc
 50
328.2112194385
 51
333.8315799837
  0
ARC
  5
3DC
100
AcDbEntity
  8
0
100
AcDbCircle
 62
7
  6
CONTINUOUS
 10
140.4194941834
 20
71.7128447452
 40
34.0
100
AcDbArc
 50
206.1796277343
 51
290.6495202128
  0
ARC
  5
3DD
100
AcDbEntity
  8
0
100
AcDbCircle
 62
7
  6
CONTINUOUS
 10
140.4194941834
 20
71.7128447452
 40
34.0
100
AcDbArc
 50
25.2448997912
 51
31.7878795955
  0
ARC
  5
3DE
100
AcDbEntity
  8
0
100
AcDbCircle
 62
7
  6
CONTINUOUS
 10
140.4194941834
 20
71.7128447452
 40
34.0
100
AcDbArc
 50
69.3504796597
 51
154.7560583802
  0
ARC
  5
3DF
100
AcDbEntity
  8
RUNDUNGEN
100
AcDbCircle
 62
7
  6
CONTINUOUS
 10
140.4194941834
 20
71.7128447452
 40
33.75
100
AcDbArc
 50
25.4535685106
 51
31.7447737514
  0
ARC
  5
3E0
100
AcDbEntity
  8
RUNDUNGEN
100
AcDbCircle
 62
7
  6
CONTINUOUS
 10
140.4194941834
 20
71.7128447452
 40
33.75
100
AcDbArc
 50
69.8262624779
 51
154.5464314945
  0
ARC
  5
3E1
100
AcDbEntity
  8
RUNDUNGEN
100
AcDbCircle
 62
7
  6
CONTINUOUS
 10
140.4194941834
 20
71.7128447452
 40
33.75
100
AcDbArc
 50
206.3900783472
 51
290.1737375385
  0
ARC
  5
3E2
100
AcDbEntity
  8
RUNDUNGEN
100
AcDbCircle
 62
7
  6
CONTINUOUS
 10
140.4194941834
 20
71.7128447452
 40
33.75
100
AcDbArc
 50
328.2552262526
 51
334.4927958969
  0
ARC
  5
3E3
100
AcDbEntity
  8
RUNDUNGEN
100
AcDbCircle
 62
7
  6
CONTINUOUS
 10
140.4194941834
 20
71.7128447452
 40
25.0
100
AcDbArc
 50
215.4732395233
 51
270.0
  0
ARC
  5
3E4
100
AcDbEntity
  8
RUNDUNGEN
100
AcDbCircle
 62
7
  6
CONTINUOUS
 10
140.4194941834
 20
71.7128447452
 40
25.0
100
AcDbArc
 50
90.0
 51
144.5267604779
  0
ARC
  5
3E5
100
AcDbEntity
  8
RUNDUNGEN
100
AcDbCircle
 62
7
  6
CONTINUOUS
 10
140.4194941834
 20
106.7128447452
 40
10.0
100
AcDbArc
 50
270.0
 51
321.3178125465
  0
ARC
  5
3E6
100
AcDbEntity
  8
BEZUGSACHSEN
100
AcDbCircle
 62
7
  6
CONTINUOUS
 10
78.0661510955
 20
81.2128447452
 40
5.0
100
AcDbArc
 50
90.0000000001
 51
175.3401212512
  0
ARC
  5
3E7
100
AcDbEntity
  8
RUNDUNGEN
100
AcDbCircle
 62
7
  6
CONTINUOUS
 10
199.4194941834
 20
51.7128447452
 40
12.5
100
AcDbArc
 50
270.0
 51
360.0
  0
ARC
  5
3E8
100
AcDbEntity
  8
RUNDUNGEN
100
AcDbCircle
 62
7
  6
CONTINUOUS
 10
156.0319891794
 20
49.2128447452
 40
10.0
100
AcDbArc
 50
218.6821874535
 51
270.0
  0
ARC
  5
3E9
100
AcDbEntity
  8
RUNDUNGEN
100
AcDbCircle
 62
7
  6
CONTINUOUS
 10
175.4194941834
 20
61.7128447452
 40
10.0
100
AcDbArc
 50
206.7692634285
 51
270.0
  0
ARC
  5
3EA
100
AcDbEntity
  8
RUNDUNGEN
100
AcDbCircle
 62
7
  6
CONTINUOUS
 10
202.7728396515
 20
62.2128447452
 40
5.0
100
AcDbArc
 50
270.0000000001
 51
355.3409568466
  0
ARC
  5
3EB
100
AcDbEntity
  8
RUNDUNGEN
100
AcDbCircle
 62
7
  6
CONTINUOUS
 10
209.4194941834
 20
57.4628447452
 40
2.5
100
AcDbArc
 50
0.0
 51
90.0
  0
ARC
  5
3EC
100
AcDbEntity
  8
RUNDUNGEN
100
AcDbCircle
 62
7
  6
CONTINUOUS
 10
207.4194941834
 20
57.4628447452
 40
2.5
100
AcDbArc
 50
90.0
 51
94.3268744384
  0
ARC
  5
3ED
100
AcDbEntity
  8
RUNDUNGEN
100
AcDbCircle
 62
7
  6
CONTINUOUS
 10
207.4194941834
 20
57.4628447452
 40
2.5
100
AcDbArc
 50
174.4314474556
 51
180.0
  0
ARC
  5
3EE
100
AcDbEntity
  8
RUNDUNGEN
100
AcDbCircle
 62
7
  6
CONTINUOUS
 10
202.4194941834
 20
54.2128447452
 40
2.5
100
AcDbArc
 50
270.0
 51
360.0
  0
ARC
  5
3EF
100
AcDbEntity
  8
RUNDUNGEN
100
AcDbCircle
 62
7
  6
CONTINUOUS
 10
199.4194941834
 20
91.7128447452
 40
12.5
100
AcDbArc
 50
0.0
 51
90.0
  0
ARC
  5
3F0
100
AcDbEntity
  8
RUNDUNGEN
100
AcDbCircle
 62
7
  6
CONTINUOUS
 10
175.4194941834
 20
81.7128447452
 40
10.0
100
AcDbArc
 50
90.0
 51
153.2307365516
  0
ARC
  5
3F1
100
AcDbEntity
  8
RUNDUNGEN
100
AcDbCircle
 62
7
  6
CONTINUOUS
 10
156.0319891794
 20
94.2128447452
 40
10.0
100
AcDbArc
 50
90.0
 51
141.3178125465
  0
ARC
  5
3F2
100
AcDbEntity
  8
BEZUGSACHSEN
100
AcDbCircle
 62
7
  6
CONTINUOUS
 10
202.7728396515
 20
81.2128447452
 40
5.0
100
AcDbArc
 50
4.6590431533
 51
89.9999999999
  0
ARC
  5
3F3
100
AcDbEntity
  8
RUNDUNGEN
100
AcDbCircle
 62
7
  6
CONTINUOUS
 10
209.4194941834
 20
85.9628447452
 40
2.5
100
AcDbArc
 50
270.0
 51
360.0
  0
ARC
  5
3F4
100
AcDbEntity
  8
RUNDUNGEN
100
AcDbCircle
 62
7
  6
CONTINUOUS
 10
207.4194941834
 20
85.9628447452
 40
2.5
100
AcDbArc
 50
180.0
 51
185.5710113453
  0
ARC
  5
3F5
100
AcDbEntity
  8
RUNDUNGEN
100
AcDbCircle
 62
7
  6
CONTINUOUS
 10
207.4194941834
 20
85.9628447452
 40
2.5
100
AcDbArc
 50
265.666804253
 51
270.0
  0
ARC
  5
3F6
100
AcDbEntity
  8
RUNDUNGEN
100
AcDbCircle
 62
7
  6
CONTINUOUS
 10
202.4194941834
 20
89.2128447452
 40
2.5
100
AcDbArc
 50
0.0
 51
90.0
  0
SPLINE
  5
3F7
100
AcDbEntity
  8
0
100
AcDbSpline
 62
7
  6
CONTINUOUS
 70
0
 71
3
 72
9
 73
5
 74
0
 42
0.0000001
 43
0.0000001
 44
0.0000000001
 40
0.0
 40
0.0
 40
0.0
 40
0.0
 40
0.5172686616
 40
1.0
 40
1.0
 40
1.0
 40
1.0
 10
136.8112265593
 20
276.2848462848
 30
0.0
 10
134.4569377783
 20
276.3521716158
 30
0.0
 10
129.9082027235
 20
276.6097669108
 30
0.0
 10
125.3825155353
 20
277.1450057118
 30
0.0
 10
123.2112007468
 20
277.4864308361
 30
0.0
  0
SPLINE
  5
3F8
100
AcDbEntity
  8
0
100
AcDbSpline
 62
7
  6
CONTINUOUS
 70
0
 71
3
 72
9
 73
5
 74
0
 42
0.0000001
 43
0.0000001
 44
0.0000000001
 40
0.0
 40
0.0
 40
0.0
 40
0.0
 40
0.4827313337
 40
1.0
 40
1.0
 40
1.0
 40
1.0
 10
157.6277876199
 20
277.4864308361
 30
0.0
 10
155.4564707527
 20
277.1450053849
 30
0.0
 10
150.9307791611
 20
276.6097662483
 30
0.0
 10
146.3820396836
 20
276.3521710021
 30
0.0
 10
144.0277485955
 20
276.2848459038
 30
0.0
  0
SPLINE
  5
3F9
100
AcDbEntity
  8
0
100
AcDbSpline
 62
7
  6
CONTINUOUS
 70
0
 71
3
 72
12
 73
8
 74
0
 42
0.0000001
 43
0.0000001
 44
0.0000000001
 40
0.0
 40
0.0
 40
0.0
 40
0.0
 40
0.1206948616
 40
0.2403960248
 40
0.4819711982
 40
0.7338276012
 40
1.0
 40
1.0
 40
1.0
 40
1.0
 10
167.1488858805
 20
282.0368483423
 30
0.0
 10
166.8660533308
 20
281.7082743865
 30
0.0
 10
166.2645769914
 20
281.0854380959
 30
0.0
 10
164.9229036678
 20
279.986015197
 30
0.0
 10
162.991490984
 20
278.8910107609
 30
0.0
 10
160.4005098412
 20
278.0029185347
 30
0.0
 10
158.5722779463
 20
277.6349457953
 30
0.0
 10
157.6277876199
 20
277.4864308361
 30
0.0
  0
SPLINE
  5
3FA
100
AcDbEntity
  8
0
100
AcDbSpline
 62
7
  6
CONTINUOUS
 70
0
 71
3
 72
12
 73
8
 74
0
 42
0.0000001
 43
0.0000001
 44
0.0000000001
 40
0.0
 40
0.0
 40
0.0
 40
0.0
 40
0.2661724222
 40
0.5180288068
 40
0.7596039561
 40
0.8793051269
 40
1.0
 40
1.0
 40
1.0
 40
1.0
 10
123.2112007468
 20
277.4864308361
 30
0.0
 10
122.2667099352
 20
277.6349458716
 30
0.0
 10
120.4384772523
 20
278.0029188299
 30
0.0
 10
117.847495143
 20
278.8910116678
 30
0.0
 10
115.9160819743
 20
279.9860169319
 30
0.0
 10
114.5744084334
 20
281.085440746
 30
0.0
 10
113.9729322568
 20
281.7082777867
 30
0.0
 10
113.6900996049
 20
282.0368519523
 30
0.0
  0
SPLINE
  5
3FB
100
AcDbEntity
  8
0
100
AcDbSpline
 62
7
  6
CONTINUOUS
 70
0
 71
3
 72
9
 73
5
 74
0
 42
0.0000001
 43
0.0000001
 44
0.0000000001
 40
0.0
 40
0.0
 40
0.0
 40
0.0
 40
0.222837136
 40
1.0
 40
1.0
 40
1.0
 40
1.0
 10
173.8275817839
 20
294.4969507094
 30
0.0
 10
173.8077303619
 20
294.4628236959
 30
0.0
 10
173.7224570905
 20
294.3074647107
 30
0.0
 10
173.646029391
 20
294.1475011099
 30
0.0
 10
173.5872053892
 20
294.0230063157
 30
0.0
  0
SPLINE
  5
3FC
100
AcDbEntity
  8
0
100
AcDbSpline
 62
7
  6
CONTINUOUS
 70
0
 71
3
 72
10
 73
6
 74
0
 42
0.0000001
 43
0.0000001
 44
0.0000000001
 40
0.0
 40
0.0
 40
0.0
 40
0.0
 40
0.2153926486
 40
0.459386031
 40
1.0
 40
1.0
 40
1.0
 40
1.0
 10
173.5872053892
 20
294.0230063157
 30
0.0
 10
173.5121669701
 20
293.8642059014
 30
0.0
 10
173.3636109915
 20
293.5201566601
 30
0.0
 10
173.0583557641
 20
292.7640526976
 30
0.0
 10
172.825744439
 20
292.1680156408
 30
0.0
 10
172.6623153149
 20
291.7585977508
 30
0.0
  0
SPLINE
  5
3FD
100
AcDbEntity
  8
0
100
AcDbSpline
 62
7
  6
CONTINUOUS
 70
0
 71
3
 72
9
 73
5
 74
0
 42
0.0000001
 43
0.0000001
 44
0.0000000001
 40
0.0
 40
0.0
 40
0.0
 40
0.0
 40
0.2480318956
 40
1.0
 40
1.0
 40
1.0
 40
1.0
 10
169.7916687134
 20
285.7579574612
 30
0.0
 10
169.5991463363
 20
285.4331357002
 30
0.0
 10
168.7993789666
 20
284.1379349687
 30
0.0
 10
167.89579446
 20
282.9045431876
 30
0.0
 10
167.1489770131
 20
282.0369458657
 30
0.0
  0
SPLINE
  5
3FE
100
AcDbEntity
  8
0
100
AcDbSpline
 62
7
  6
CONTINUOUS
 70
0
 71
3
 72
9
 73
5
 74
0
 42
0.0000001
 43
0.0000001
 44
0.0000000001
 40
0.0
 40
0.0
 40
0.0
 40
0.0
 40
0.5000000255
 40
1.0
 40
1.0
 40
1.0
 40
1.0
 10
144.0276388854
 20
276.2848415302
 30
0.0
 10
142.8252621354
 20
276.2504574499
 30
0.0
 10
140.4194862056
 20
276.2049907416
 30
0.0
 10
138.0137102826
 20
276.2504577861
 30
0.0
 10
136.8113336594
 20
276.2848420153
 30
0.0
  0
SPLINE
  5
3FF
100
AcDbEntity
  8
0
100
AcDbSpline
 62
7
  6
CONTINUOUS
 70
0
 71
3
 72
15
 73
11
 74
0
 42
0.0000001
 43
0.0000001
 44
0.0000000001
 40
0.0
 40
0.0
 40
0.0
 40
0.0
 40
0.2695066259
 40
0.4024453585
 40
0.5335924422
 40
0.6620859612
 40
0.7861861823
 40
0.902048365
 40
0.954318098
 40
1.0
 40
1.0
 40
1.0
 40
1.0
 10
113.6900140057
 20
282.0369435462
 30
0.0
 10
112.8887889418
 20
282.9677478755
 30
0.0
 10
111.8081756132
 20
284.460206011
 30
0.0
 10
110.571954444
 20
286.5545832512
 30
0.0
 10
109.7465166675
 20
288.1428215418
 30
0.0
 10
109.0119882651
 20
289.7302991159
 30
0.0
 10
108.3626588742
 20
291.2790173739
 30
0.0
 10
107.876877843
 20
292.5190321262
 30
0.0
 10
107.5156465574
 20
293.4238779649
 30
0.0
 10
107.3407201929
 20
293.8347900926
 30
0.0
 10
107.2517811681
 20
294.0230090197
 30
0.0
  0
SPLINE
  5
400
100
AcDbEntity
  8
0
100
AcDbSpline
 62
7
  6
CONTINUOUS
 70
0
 71
3
 72
9
 73
5
 74
0
 42
0.0000001
 43
0.0000001
 44
0.0000000001
 40
0.0
 40
0.0
 40
0.0
 40
0.0
 40
0.2740951362
 40
1.0
 40
1.0
 40
1.0
 40
1.0
 10
107.2517811681
 20
294.0230090197
 30
0.0
 10
107.2310368778
 20
294.0669121869
 30
0.0
 10
107.1547159387
 20
294.2267398655
 30
0.0
 10
107.0760706331
 20
294.3857859098
 30
0.0
 10
107.0114101018
 20
294.4969451551
 30
0.0
  0
SPLINE
  5
401
100
AcDbEntity
  8
BEZUGSACHSEN
100
AcDbSpline
 62
7
  6
CONTINUOUS
 70
0
 71
3
 72
32
 73
28
 74
0
 42
0.0000001
 43
0.0000001
 44
0.0000000001
 40
0.0
 40
0.0
 40
0.0
 40
0.0
 40
0.0197005919
 40
0.0779041173
 40
0.1720043892
 40
0.2978895663
 40
0.3711278323
 40
0.4502597074
 40
0.534490472
 40
0.6230231309
 40
0.668649747
 40
0.715044067
 40
0.7621041108
 40
0.7858525484
 40
0.8097287628
 40
0.8337183843
 40
0.8578056238
 40
0.8819716967
 40
0.9061904172
 40
0.9304124375
 40
0.9424974628
 40
0.9545211878
 40
0.966406076
 40
0.9779812288
 40
0.9836215085
 40
0.9891492131
 40
1.0
 40
1.0
 40
1.0
 40
1.0
 10
94.890387011
 20
254.7402242396
 30
0.0
 10
95.141374844
 20
254.6877036687
 30
0.0
 10
96.1336142872
 20
254.4787295258
 30
0.0
 10
98.3219677188
 20
254.0059339208
 30
0.0
 10
101.8529949061
 20
253.2036317645
 30
0.0
 10
105.5604976026
 20
252.296314002
 30
0.0
 10
109.0635449689
 20
251.376162034
 30
0.0
 10
112.0306108131
 20
250.5507197012
 30
0.0
 10
115.173990763
 20
249.6179158137
 30
0.0
 10
117.8813085928
 20
248.7503889868
 30
0.0
 10
120.1035072936
 20
247.9853924435
 30
0.0
 10
121.8049043181
 20
247.3667224425
 30
0.0
 10
123.2272827404
 20
246.8148313364
 30
0.0
 10
124.3665714506
 20
246.3447263827
 30
0.0
 10
125.2221314895
 20
245.9745999731
 30
0.0
 10
126.0740029562
 20
245.5852594763
 30
0.0
 10
126.9191262424
 20
245.1727222148
 30
0.0
 10
127.7529201946
 20
244.7310206765
 30
0.0
 10
128.5671768649
 20
244.250679483
 30
0.0
 10
129.2180052256
 20
243.8044166792
 30
0.0
 10
129.7030059777
 20
243.4030165539
 30
0.0
 10
130.0367758379
 20
243.0728329481
 30
0.0
 10
130.3195918838
 20
242.7056150486
 30
0.0
 10
130.478442787
 20
242.3537479667
 30
0.0
 10
130.5146887832
 20
242.0574212882
 30
0.0
 10
130.4820319073
 20
241.770175222
 30
0.0
 10
130.3831720766
 20
241.5728241604
 30
0.0
 10
130.300370764
 20
241.4584076023
 30
0.0
  0
SPLINE
  5
402
100
AcDbEntity
  8
BEZUGSACHSEN
100
AcDbSpline
 62
7
  6
CONTINUOUS
 70
0
 71
3
 72
32
 73
28
 74
0
 42
0.0000001
 43
0.0000001
 44
0.0000000001
 40
0.0
 40
0.0
 40
0.0
 40
0.0
 40
0.010848761
 40
0.0163767277
 40
0.0220200601
 40
0.0335986794
 40
0.0454850619
 40
0.0575102032
 40
0.0695957509
 40
0.0938178891
 40
0.1180364764
 40
0.1422024851
 40
0.1662895809
 40
0.1902790571
 40
0.2141551199
 40
0.2379034101
 40
0.2849631266
 40
0.3313570991
 40
0.3769833687
 40
0.4655153531
 40
0.5497454633
 40
0.6288767013
 40
0.7021144229
 40
0.8279982254
 40
0.9220969703
 40
0.9802996362
 40
1.0
 40
1.0
 40
1.0
 40
1.0
 10
150.5386176027
 20
241.4584076023
 30
0.0
 10
150.4558317577
 20
241.5728027871
 30
0.0
 10
150.3569284337
 20
241.7701175411
 30
0.0
 10
150.3243504305
 20
242.0573878985
 30
0.0
 10
150.3605267278
 20
242.3538091119
 30
0.0
 10
150.5194802327
 20
242.7057642671
 30
0.0
 10
150.8023620771
 20
243.0730282356
 30
0.0
 10
151.1362079954
 20
243.4032016565
 30
0.0
 10
151.621242916
 20
243.8045994076
 30
0.0
 10
152.2720893211
 20
244.2508479354
 30
0.0
 10
153.0863464143
 20
244.731185826
 30
0.0
 10
153.9201495877
 20
245.1728606172
 30
0.0
 10
154.7652695217
 20
245.585393488
 30
0.0
 10
155.6171378076
 20
245.9747271892
 30
0.0
 10
156.4726957962
 20
246.3448434613
 30
0.0
 10
157.6119780256
 20
246.8149424349
 30
0.0
 10
159.0343502234
 20
247.3668195966
 30
0.0
 10
160.735735013
 20
247.9854837218
 30
0.0
 10
162.9579194735
 20
248.7504662944
 30
0.0
 10
165.6652169199
 20
249.6179841649
 30
0.0
 10
168.8085735801
 20
250.5507756085
 30
0.0
 10
171.7756172229
 20
251.3762073879
 30
0.0
 10
175.2786320462
 20
252.2963509224
 30
0.0
 10
178.9860916198
 20
253.2036547359
 30
0.0
 10
182.5170709885
 20
254.0059447499
 30
0.0
 10
184.7053908044
 20
254.4787338009
 30
0.0
 10
185.6976164092
 20
254.6877044906
 30
0.0
 10
185.9486013558
 20
254.7402242396
 30
0.0
  0
LINE
  5
403
100
AcDbEntity
  8
0
100
AcDbLine
 62
7
  6
CONTINUOUS
 10
377.1250046999
 20
260.2243653154
 11
378.1894257231
 21
257.6711732364
  0
LINE
  5
404
100
AcDbEntity
  8
0
100
AcDbLine
 62
7
  6
CONTINUOUS
 10
377.9671909267
 20
257.6711732364
 11
377.9998495585
 21
257.5924883427
  0
LINE
  5
405
100
AcDbEntity
  8
0
100
AcDbLine
 62
7
  6
CONTINUOUS
 10
377.9998495585
 20
257.5924883427
 11
378.4970605769
 21
256.3945776439
  0
SPLINE
  5
406
100
AcDbEntity
  8
0
100
AcDbSpline
 62
7
  6
CONTINUOUS
 70
0
 71
3
 72
8
 73
4
 74
0
 42
0.0000001
 43
0.0000001
 44
0.0000000001
 40
0.0
 40
0.0
 40
0.0
 40
0.0
 40
1.0
 40
1.0
 40
1.0
 40
1.0
 10
378.7217497476
 20
256.3945776439
 30
0.0
 10
379.6090735898
 20
254.2667939563
 30
0.0
 10
380.4966776002
 20
252.1391270736
 30
0.0
 10
381.3846141767
 20
250.0115990108
 30
0.0
  0
SPLINE
  5
407
100
AcDbEntity
  8
0
100
AcDbSpline
 62
7
  6
CONTINUOUS
 70
0
 71
3
 72
9
 73
5
 74
0
 42
0.0000001
 43
0.0000001
 44
0.0000000001
 40
0.0
 40
0.0
 40
0.0
 40
0.0
 40
0.2398936449
 40
1.0
 40
1.0
 40
1.0
 40
1.0
 10
382.701551966
 20
247.7775565284
 30
0.0
 10
382.7420712206
 20
247.7504361247
 30
0.0
 10
382.9121537961
 20
247.6391464818
 30
0.0
 10
383.086633206
 20
247.5346362752
 30
0.0
 10
383.2210069772
 20
247.4584076023
 30
0.0
  0
LINE
  5
408
100
AcDbEntity
  8
0
100
AcDbLine
 62
7
  6
CONTINUOUS
 10
382.4503963924
 20
247.4584076023
 11
382.1947727227
 21
247.9972080738
  0
SPLINE
  5
409
100
AcDbEntity
  8
0
100
AcDbSpline
 62
7
  6
CONTINUOUS
 70
0
 71
3
 72
9
 73
5
 74
0
 42
0.0000001
 43
0.0000001
 44
0.0000000001
 40
0.0
 40
0.0
 40
0.0
 40
0.0
 40
0.2503486555
 40
1.0
 40
1.0
 40
1.0
 40
1.0
 10
463.7995375287
 20
247.4584076023
 30
0.0
 10
464.2729252426
 20
248.4527869971
 30
0.0
 10
466.1343368031
 20
252.4387893875
 30
0.0
 10
467.8864372438
 20
256.4754676777
 30
0.0
 10
469.1484471665
 20
259.5222373571
 30
0.0
  0
LINE
  5
40A
100
AcDbEntity
  8
0
100
AcDbLine
 62
7
  6
CONTINUOUS
 10
377.3488390131
 20
260.2343094151
 11
377.3199164026
 21
260.3046865358
  0
LINE
  5
40B
100
AcDbEntity
  8
0
100
AcDbLine
 62
7
  6
CONTINUOUS
 10
377.3199164026
 20
260.3046865358
 11
377.0913573315
 21
260.8626631117
  0
SPLINE
  5
40C
100
AcDbEntity
  8
0
100
AcDbSpline
 62
7
  6
CONTINUOUS
 70
0
 71
3
 72
8
 73
4
 74
0
 42
0.0000001
 43
0.0000001
 44
0.0000000001
 40
0.0
 40
0.0
 40
0.0
 40
0.0
 40
1.0
 40
1.0
 40
1.0
 40
1.0
 10
381.3357214061
 20
250.6498970306
 30
0.0
 10
380.5328332831
 20
252.5646152545
 30
0.0
 10
379.7303844744
 20
254.4795177367
 30
0.0
 10
378.9283116804
 20
256.3945776439
 30
0.0
  0
LINE
  5
40D
100
AcDbEntity
  8
0
100
AcDbLine
 62
7
  6
CONTINUOUS
 10
379.5664085984
 20
256.3945776439
 11
379.0246107839
 21
257.6711732364
  0
LINE
  5
40E
100
AcDbEntity
  8
0
100
AcDbLine
 62
7
  6
CONTINUOUS
 10
378.3937078986
 20
257.6711732364
 11
377.3248767616
 21
260.2243653154
  0
LINE
  5
40F
100
AcDbEntity
  8
0
100
AcDbLine
 62
7
  6
CONTINUOUS
 10
383.2210069772
 20
247.4584076023
 11
382.6786900931
 21
248.7350033066
  0
SPLINE
  5
410
100
AcDbEntity
  8
0
100
AcDbSpline
 62
7
  6
CONTINUOUS
 70
0
 71
3
 72
9
 73
5
 74
0
 42
0.0000001
 43
0.0000001
 44
0.0000000001
 40
0.0
 40
0.0
 40
0.0
 40
0.0
 40
0.2572761494
 40
1.0
 40
1.0
 40
1.0
 40
1.0
 10
382.6786900931
 20
248.7350033066
 30
0.0
 10
382.6386965489
 20
248.761216175
 30
0.0
 10
382.4839618441
 20
248.8641857455
 30
0.0
 10
382.3321626688
 20
248.9715939379
 30
0.0
 10
382.2215248888
 20
249.0541523165
 30
0.0
  0
LINE
  5
411
100
AcDbEntity
  8
0
100
AcDbLine
 62
7
  6
CONTINUOUS
 10
376.5501195492
 20
260.8626631117
 11
375.8890902654
 21
262.4584076023
  0
SPLINE
  5
412
100
AcDbEntity
  8
BEZUGSACHSEN
100
AcDbSpline
 62
7
  6
CONTINUOUS
 70
0
 71
3
 72
23
 73
19
 74
0
 42
0.0000001
 43
0.0000001
 44
0.0000000001
 40
0.0
 40
0.0
 40
0.0
 40
0.0
 40
0.1704855403
 40
0.3342628816
 40
0.4851445891
 40
0.5541066083
 40
0.6180381982
 40
0.6765863714
 40
0.7295495727
 40
0.7769885161
 40
0.819313443
 40
0.8575637915
 40
0.8758237909
 40
0.8940740892
 40
0.9130744277
 40
0.9342097847
 40
0.9610006311
 40
1.0
 40
1.0
 40
1.0
 40
1.0
 10
423.1249669606
 20
254.7402242396
 30
0.0
 10
420.617187949
 20
254.7402242396
 30
0.0
 10
415.6995468334
 20
254.6398425469
 30
0.0
 10
408.5757862417
 20
254.1808888936
 30
0.0
 10
402.9676273186
 20
253.5160411944
 30
0.0
 10
398.8566734034
 20
252.785185668
 30
0.0
 10
396.1092247633
 20
252.161732892
 30
0.0
 10
393.6281796965
 20
251.4447029182
 30
0.0
 10
391.4349863755
 20
250.6263612985
 30
0.0
 10
389.5460420211
 20
249.6993107268
 30
0.0
 10
387.9762482935
 20
248.6467094895
 30
0.0
 10
386.9307548332
 20
247.6174772932
 30
0.0
 10
386.3079243596
 20
246.707208456
 30
0.0
 10
385.9485902017
 20
245.9702973631
 30
0.0
 10
385.7022899038
 20
245.1432467127
 30
0.0
 10
385.5950384214
 20
244.1584684705
 30
0.0
 10
385.7181880024
 20
242.8779680779
 30
0.0
 10
386.0635538464
 20
241.9488517689
 30
0.0
 10
386.3611399255
 20
241.4584076023
 30
0.0
  0
LINE
  5
413
100
AcDbEntity
  8
0
100
AcDbLine
 62
7
  6
CONTINUOUS
 10
377.0913573315
 20
260.8626631117
 11
376.4303269628
 21
262.4584076023
  0
SPLINE
  5
414
100
AcDbEntity
  8
0
100
AcDbSpline
 62
7
  6
CONTINUOUS
 70
0
 71
3
 72
9
 73
5
 74
0
 42
0.0000001
 43
0.0000001
 44
0.0000000001
 40
0.0
 40
0.0
 40
0.0
 40
0.0
 40
0.2573446167
 40
1.0
 40
1.0
 40
1.0
 40
1.0
 10
383.2335973516
 20
248.7350033066
 30
0.0
 10
383.1932376055
 20
248.7612110544
 30
0.0
 10
383.0371217692
 20
248.8641444617
 30
0.0
 10
382.8839437295
 20
248.9715615681
 30
0.0
 10
382.7722990035
 20
249.0541523165
 30
0.0
  0
SPLINE
  5
415
100
AcDbEntity
  8
0
100
AcDbSpline
 62
7
  6
CONTINUOUS
 70
0
 71
3
 72
8
 73
4
 74
0
 42
0.0000001
 43
0.0000001
 44
0.0000000001
 40
0.0
 40
0.0
 40
0.0
 40
0.0
 40
1.0
 40
1.0
 40
1.0
 40
1.0
 10
381.8836038839
 20
250.6498970306
 30
0.0
 10
381.0850085453
 20
252.5538146939
 30
0.0
 10
380.2868636134
 20
254.4579213249
 30
0.0
 10
379.4891037855
 20
256.3621892264
 30
0.0
  0
LINE
  5
416
100
AcDbEntity
  8
0
100
AcDbLine
 62
7
  6
CONTINUOUS
 10
379.4891037855
 20
256.3621892264
 11
379.4755352666
 21
256.3945776439
  0
LINE
  5
417
100
AcDbEntity
  8
0
100
AcDbLine
 62
7
  6
CONTINUOUS
 10
380.1210940936
 20
256.3945776439
 11
379.5789915271
 21
257.6711732364
  0
LINE
  5
418
100
AcDbEntity
  8
0
100
AcDbLine
 62
7
  6
CONTINUOUS
 10
378.9407984394
 20
257.6711732364
 11
377.871714205
 21
260.2243653154
  0
LINE
  5
419
100
AcDbEntity
  8
0
100
AcDbLine
 62
7
  6
CONTINUOUS
 10
469.2545563134
 20
262.4584076023
 11
468.5785684215
 21
260.8626631117
  0
SPLINE
  5
41A
100
AcDbEntity
  8
0
100
AcDbSpline
 62
7
  6
CONTINUOUS
 70
0
 71
3
 72
9
 73
5
 74
0
 42
0.0000001
 43
0.0000001
 44
0.0000000001
 40
0.0
 40
0.0
 40
0.0
 40
0.0
 40
0.2496667275
 40
1.0
 40
1.0
 40
1.0
 40
1.0
 10
469.1189670054
 20
259.5351734488
 30
0.0
 10
468.6837752491
 20
258.5275178132
 30
0.0
 10
466.9168191353
 20
254.5019212916
 30
0.0
 10
465.0487896956
 20
250.5202292837
 30
0.0
 10
463.5782336349
 20
247.5674421741
 30
0.0
  0
LINE
  5
41B
100
AcDbEntity
  8
0
100
AcDbLine
 62
7
  6
CONTINUOUS
 10
463.5782336349
 20
247.5674421741
 11
463.5238924217
 21
247.4584076023
  0
LINE
  5
41C
100
AcDbEntity
  8
0
100
AcDbLine
 62
7
  6
CONTINUOUS
 10
468.7012301808
 20
262.4584076023
 11
468.024905413
 21
260.8626631117
  0
LINE
  5
41D
100
AcDbEntity
  8
0
100
AcDbLine
 62
7
  6
CONTINUOUS
 10
383.7762584374
 20
247.4584076023
 11
383.2335973516
 21
248.7350033066
  0
SPLINE
  5
41E
100
AcDbEntity
  8
0
100
AcDbSpline
 62
7
  6
CONTINUOUS
 70
0
 71
3
 72
9
 73
5
 74
0
 42
0.0000001
 43
0.0000001
 44
0.0000000001
 40
0.0
 40
0.0
 40
0.0
 40
0.0
 40
0.2496313068
 40
1.0
 40
1.0
 40
1.0
 40
1.0
 10
469.1468910297
 20
260.8626631117
 30
0.0
 10
468.6656332204
 20
259.7328620016
 30
0.0
 10
466.7083143504
 20
255.2196720213
 30
0.0
 10
464.6254650322
 20
250.7602010182
 30
0.0
 10
462.9749483126
 20
247.4584076023
 30
0.0
  0
SPLINE
  5
41F
100
AcDbEntity
  8
BEZUGSACHSEN
100
AcDbSpline
 62
7
  6
CONTINUOUS
 70
0
 71
3
 72
23
 73
19
 74
0
 42
0.0000001
 43
0.0000001
 44
0.0000000001
 40
0.0
 40
0.0
 40
0.0
 40
0.0
 40
0.1704855403
 40
0.3342628816
 40
0.4851445891
 40
0.5541066083
 40
0.6180381982
 40
0.6765863714
 40
0.7295495727
 40
0.7769885161
 40
0.819313443
 40
0.8575637915
 40
0.8758237909
 40
0.8940740892
 40
0.9130744277
 40
0.9342097847
 40
0.9610006311
 40
1.0
 40
1.0
 40
1.0
 40
1.0
 10
423.1249669606
 20
254.7402242396
 30
0.0
 10
425.6327459721
 20
254.7402242396
 30
0.0
 10
430.5503870877
 20
254.6398425469
 30
0.0
 10
437.6741476794
 20
254.1808888936
 30
0.0
 10
443.2823066025
 20
253.5160411944
 30
0.0
 10
447.3932605177
 20
252.785185668
 30
0.0
 10
450.1407091578
 20
252.161732892
 30
0.0
 10
452.6217542246
 20
251.4447029182
 30
0.0
 10
454.8149475456
 20
250.6263612985
 30
0.0
 10
456.7038919
 20
249.6993107268
 30
0.0
 10
458.2736856276
 20
248.6467094895
 30
0.0
 10
459.3191790879
 20
247.6174772932
 30
0.0
 10
459.9420095615
 20
246.707208456
 30
0.0
 10
460.3013437194
 20
245.9702973631
 30
0.0
 10
460.5476440173
 20
245.1432467127
 30
0.0
 10
460.6548954997
 20
244.1584684705
 30
0.0
 10
460.5317459187
 20
242.8779680779
 30
0.0
 10
460.1863800748
 20
241.9488517689
 30
0.0
 10
459.8887939956
 20
241.4584076023
 30
0.0
  0
ENDSEC
  0
SECTION
  2
OBJECTS
  0
DICTIONARY
  5
C
100
AcDbDictionary
280
0
281
1
  3
ACAD_GROUP
350
D
  3
ACAD_MLINESTYLE
350
17
  3
ACAD_LAYOUT
350
1A
  3
ACAD_PLOTSETTINGS
350
19
  3
ACAD_PLOTSTYLENAME
350
E
  0
DICTIONARY
  5
D
102
{ACAD_REACTORS
330
C
102
}
100
AcDbDictionary
280
0
281
1
  0
ACDBDICTIONARYWDFLT
  5
E
102
{ACAD_REACTORS
330
C
102
}
100
AcDbDictionary
281
1
  3
Normal
350
F
100
AcDbDictionaryWithDefault
340
F
  0
DICTIONARY
  5
17
102
{ACAD_REACTORS
330
C
102
}
100
AcDbDictionary
280
0
281
1
  3
Standard
350
18
  0
DICTIONARY
  5
19
102
{ACAD_REACTORS
330
C
102
}
100
AcDbDictionary
281
1
  0
DICTIONARY
  5
1A
102
{ACAD_REACTORS
330
C
102
}
100
AcDbDictionary
281
1
  3
Model
350
420
  3
Layout1
350
421
  0
ACDBPLACEHOLDER
  5
F
102
{ACAD_REACTORS
330
E
102
}
  0
MLINESTYLE
  5
18
102
{ACAD_REACTORS
330
17
102
}
100
AcDbMlineStyle
  2
STANDARD
 70
0
  3

 62
256
 51
90.0
 52
90.0
 71
2
 49
0.5
 62
256
  6
BYLAYER
 49
-0.5
 62
256
  6
BYLAYER
  0
LAYOUT
  5
420
102
{ACAD_REACTORS
330
1A
102
}
100
AcDbPlotSettings
  1

  2
none_device
  4
ISO_A2_(594.00_x_420.00_MM)
  6

 40
0.0
 41
0.0
 42
0.0
 43
0.0
 44
594.0
 45
420.0
 46
0.0
 47
0.0
 48
0.0
 49
0.0
140
0.0
141
0.0
142
1.0
143
1.0
 70
1024
 72
1
 73
0
 74
0
  7

 75
0
147
1.0
148
0.0
149
0.0
100
AcDbLayout
  1
Model
 70
0
 71
0
 10
0.0
 20
0.0
 11
594.0
 21
420.0
 12
0.0
 22
0.0
 32
0.0
 14
0.0
 24
0.0
 34
0.0
 15
0.0
 25
0.0
 35
0.0
146
0.0
 13
0.0
 23
0.0
 33
0.0
 16
1.0
 26
0.0
 36
0.0
 17
0.0
 27
1.0
 37
0.0
 76
0
330
20E
345
0
346
0
  0
LAYOUT
  5
421
102
{ACAD_REACTORS
330
1A
102
}
100
AcDbPlotSettings
  1

  2
none_device
  4
ISO_A2_(594.00_x_420.00_MM)
  6

 40
0.0
 41
0.0
 42
0.0
 43
0.0
 44
594.0
 45
420.0
 46
0.0
 47
0.0
 48
0.0
 49
0.0
140
0.0
141
0.0
142
1.0
143
1.0
 70
0
 72
1
 73
0
 74
0
  7

 75
0
147
1.0
148
0.0
149
0.0
100
AcDbLayout
  1
Layout1
 70
0
 71
1
 10
0.0
 20
0.0
 11
594.0
 21
420.0
 12
0.0
 22
0.0
 32
0.0
 14
0.0
 24
0.0
 34
0.0
 15
0.0
 25
0.0
 35
0.0
146
0.0
 13
0.0
 23
0.0
 33
0.0
 16
1.0
 26
0.0
 36
0.0
 17
0.0
 27
1.0
 37
0.0
 76
0
330
20F
345
0
346
0
  0
ENDSEC
  0
EOF
