999
DXF file: 001-m35310-p-2.dxf
999
Pro/ENGINEER 2011490 by Parametric Technology Corporation
  0
SECTION
  2
HEADER
  9
$ACADVER
  1
AC1015
  9
$DWGCODEPAGE
  3
ANSI_1252
  9
$EXTMAX
 10
420.0
 20
297.0
 30
0.0
  9
$EXTMIN
 10
0.0
 20
0.0
 30
0.0
  9
$LIMMIN
 10
0.0
 20
0.0
  9
$LIMMAX
 10
420.0
 20
297.0
  9
$VIEWCTR
 10
210.0
 20
148.5
  9
$VIEWSIZE
 40
297.0
  9
$CLAYER
  8
0
  9
$LTSCALE
 40
23.1
  9
$CELTYPE
  6
BYLAYER
  9
$DIMSCALE
 40
1.0
  9
$DIMASZ
 40
3.5
  9
$DIMEXO
 40
2.625
  9
$DIMDLI
 40
15.96
  9
$DIMEXE
 40
7.56
  9
$DIMCEN
 40
3.78
  9
$DIMLFAC
 40
1.0
  9
$DIMBLK
  1
_FILLED
  9
$DIMTXT
 40
3.5
  9
$DIMTOL
 70
1
  9
$DIMLIM
 70
0
  9
$DIMTFAC
 40
1.0
  9
$DIMTP
 40
0.005
  9
$DIMTM
 40
0.005
  9
$PDMODE
 70
3
  9
$PDSIZE
 40
0.3125
  9
$HANDSEED
  5
4D3
  9
$TILEMODE
 70
1
  9
$MEASUREMENT
 70
1
  9
$INSUNITS
 70
4
  0
ENDSEC
  0
SECTION
  2
CLASSES
  0
CLASS
  1
ACDBDICTIONARYWDFLT
  2
AcDbDictionaryWithDefault
  3
AutoCAD 2000
 90
0
280
0
281
0
  0
CLASS
  1
ACDBPLACEHOLDER
  2
AcDbPlaceHolder
  3
AutoCAD 2000
 90
0
280
0
281
0
  0
CLASS
  1
LAYOUT
  2
AcDbLayout
  3
AutoCAD 2000
 90
0
280
0
281
0
  0
ENDSEC
  0
SECTION
  2
TABLES
  0
TABLE
  2
VPORT
  5
8
100
AcDbSymbolTable
 70
2
  0
VPORT
  5
1F4
100
AcDbSymbolTableRecord
100
AcDbViewportTableRecord
  2
*ACTIVE
 70
0
 10
0.0
 20
0.0
 11
1.0
 21
1.0
 12
210.0
 22
148.5
 13
0.0
 23
0.0
 14
1.0
 24
1.0
 15
0.0
 25
0.0
 16
0.0
 26
0.0
 36
1.0
 17
0.0
 27
0.0
 37
0.0
 40
297.0
 41
1.4141414141
 42
50.0
 43
0.0
 44
0.0
 50
0.0
 51
0.0
 71
0
 72
100
 73
1
 74
1
 75
0
 76
0
 77
0
 78
0
  0
ENDTAB
  0
TABLE
  2
LTYPE
  5
5
100
AcDbSymbolTable
 70
6
  0
LTYPE
  5
14
100
AcDbSymbolTableRecord
100
AcDbLinetypeTableRecord
  2
BYBLOCK
 70
0
  3

 72
65
 73
0
 40
0.0
  0
LTYPE
  5
15
100
AcDbSymbolTableRecord
100
AcDbLinetypeTableRecord
  2
BYLAYER
 70
0
  3

 72
65
 73
0
 40
0.0
  0
LTYPE
  5
16
100
AcDbSymbolTableRecord
100
AcDbLinetypeTableRecord
  2
CONTINUOUS
 70
64
  3
Solid line
 72
65
 73
0
 40
0.0
  0
LTYPE
  5
1F5
100
AcDbSymbolTableRecord
100
AcDbLinetypeTableRecord
  2
CENTER
 70
64
  3
____ _ ____ _ ____ _ ____ _ ____ _ ____ _ ____
 72
65
 73
4
 40
0.6
 49
0.375
 74
0
 49
-0.075
 74
0
 49
0.075
 74
0
 49
-0.075
 74
0
  0
LTYPE
  5
1F6
100
AcDbSymbolTableRecord
100
AcDbLinetypeTableRecord
  2
HIDDEN
 70
64
  3
- - - - - - - - - - - - - - - - - - - -
 72
65
 73
2
 40
0.2
 49
0.1
 74
0
 49
-0.1
 74
0
  0
LTYPE
  5
1F7
100
AcDbSymbolTableRecord
100
AcDbLinetypeTableRecord
  2
PHANTOM
 70
64
  3
_____ _ _ _____ _ _ _____ _ _ _____
 72
65
 73
6
 40
0.8
 49
0.45
 74
0
 49
-0.05
 74
0
 49
0.1
 74
0
 49
-0.05
 74
0
 49
0.1
 74
0
 49
-0.05
 74
0
  0
LTYPE
  5
1F8
100
AcDbSymbolTableRecord
100
AcDbLinetypeTableRecord
  2
DOT
 70
64
  3
. . . . . . . . . . . . . . . . . . . .
 72
65
 73
2
 40
0.2
 49
0.1
 74
0
 49
-0.1
 74
0
  0
LTYPE
  5
1F9
100
AcDbSymbolTableRecord
100
AcDbLinetypeTableRecord
  2
DASHED
 70
64
  3
- - - - - - - - - - - - - - - - - - - -
 72
65
 73
2
 40
0.2
 49
0.1
 74
0
 49
-0.1
 74
0
  0
ENDTAB
  0
TABLE
  2
LAYER
  5
2
100
AcDbSymbolTable
 70
36
  0
LAYER
  5
10
100
AcDbSymbolTableRecord
100
AcDbLayerTableRecord
  2
0
 70
0
 62
7
  6
CONTINUOUS
370
-3
390
F
  0
LAYER
  5
1FA
100
AcDbSymbolTableRecord
100
AcDbLayerTableRecord
  2
DEFAULT_1
 70
0
 62
7
  6
CENTER
370
-3
390
F
  0
LAYER
  5
1FB
100
AcDbSymbolTableRecord
100
AcDbLayerTableRecord
  2
DEFAULT_2
 70
0
 62
8
  6
HIDDEN
370
-3
390
F
  0
LAYER
  5
1FC
100
AcDbSymbolTableRecord
100
AcDbLayerTableRecord
  2
DEFAULT_3
 70
0
 62
7
  6
PHANTOM
370
-3
390
F
  0
LAYER
  5
1FD
100
AcDbSymbolTableRecord
100
AcDbLayerTableRecord
  2
BEZUGSACHSEN
 70
0
 62
7
  6
CONTINUOUS
370
-3
390
F
  0
LAYER
  5
1FE
100
AcDbSymbolTableRecord
100
AcDbLayerTableRecord
  2
BEZUGSEBENEN
 70
0
 62
7
  6
CONTINUOUS
370
-3
390
F
  0
LAYER
  5
1FF
100
AcDbSymbolTableRecord
100
AcDbLayerTableRecord
  2
BG_STARTBEZUEGE
 70
0
 62
7
  6
CONTINUOUS
370
-3
390
F
  0
LAYER
  5
200
100
AcDbSymbolTableRecord
100
AcDbLayerTableRecord
  2
FASEN
 70
0
 62
7
  6
CONTINUOUS
370
-3
390
F
  0
LAYER
  5
201
100
AcDbSymbolTableRecord
100
AcDbLayerTableRecord
  2
FLAECHEN
 70
0
 62
7
  6
CONTINUOUS
370
-3
390
F
  0
LAYER
  5
202
100
AcDbSymbolTableRecord
100
AcDbLayerTableRecord
  2
GEWINDE
 70
0
 62
7
  6
CONTINUOUS
370
-3
390
F
  0
LAYER
  5
203
100
AcDbSymbolTableRecord
100
AcDbLayerTableRecord
  2
HILFEN
 70
0
 62
7
  6
CONTINUOUS
370
-3
390
F
  0
LAYER
  5
204
100
AcDbSymbolTableRecord
100
AcDbLayerTableRecord
  2
KONSTRUKTIONSELEMENTE
 70
0
 62
7
  6
CONTINUOUS
370
-3
390
F
  0
LAYER
  5
205
100
AcDbSymbolTableRecord
100
AcDbLayerTableRecord
  2
KURVEN
 70
0
 62
7
  6
CONTINUOUS
370
-3
390
F
  0
LAYER
  5
206
100
AcDbSymbolTableRecord
100
AcDbLayerTableRecord
  2
NORM
 70
0
 62
7
  6
CONTINUOUS
370
-3
390
F
  0
LAYER
  5
207
100
AcDbSymbolTableRecord
100
AcDbLayerTableRecord
  2
PLATZIERUNG
 70
0
 62
7
  6
CONTINUOUS
370
-3
390
F
  0
LAYER
  5
208
100
AcDbSymbolTableRecord
100
AcDbLayerTableRecord
  2
RUNDUNGEN
 70
0
 62
7
  6
CONTINUOUS
370
-3
390
F
  0
LAYER
  5
209
100
AcDbSymbolTableRecord
100
AcDbLayerTableRecord
  2
TEIL_STARTBEZUEGE
 70
0
 62
7
  6
CONTINUOUS
370
-3
390
F
  0
LAYER
  5
20A
100
AcDbSymbolTableRecord
100
AcDbLayerTableRecord
  2
T_STARTBEZUEGE
 70
0
 62
7
  6
CONTINUOUS
370
-3
390
F
  0
LAYER
  5
20B
100
AcDbSymbolTableRecord
100
AcDbLayerTableRecord
  2
ZEICHNUNGSBEMASSUNGEN
 70
0
 62
7
  6
CONTINUOUS
370
-3
390
F
  0
ENDTAB
  0
TABLE
  2
STYLE
  5
3
100
AcDbSymbolTable
 70
1
  0
STYLE
  5
11
100
AcDbSymbolTableRecord
100
AcDbTextStyleTableRecord
  2
STANDARD
 70
0
 40
0.0
 41
0.7
 50
0.0
 71
0
 42
0.2
  3
txt
  4

  0
STYLE
  5
20C
100
AcDbSymbolTableRecord
100
AcDbTextStyleTableRecord
  2
TEXTSTYLE_1
 70
0
 40
0.0
 41
0.8
 50
0.0
 71
0
 42
0.2
  3
gdt
  4

  0
ENDTAB
  0
TABLE
  2
VIEW
  5
6
100
AcDbSymbolTable
 70
0
  0
ENDTAB
  0
TABLE
  2
UCS
  5
7
100
AcDbSymbolTable
 70
0
  0
ENDTAB
  0
TABLE
  2
APPID
  5
9
100
AcDbSymbolTable
 70
1
  0
APPID
  5
20D
100
AcDbSymbolTableRecord
100
AcDbRegAppTableRecord
  2
ACAD
 70
0
  0
ENDTAB
  0
TABLE
  2
BLOCK_RECORD
  5
1
100
AcDbSymbolTable
 70
0
  0
BLOCK_RECORD
  5
20E
100
AcDbSymbolTableRecord
100
AcDbBlockTableRecord
  2
*Model_Space
  0
BLOCK_RECORD
  5
20F
100
AcDbSymbolTableRecord
100
AcDbBlockTableRecord
  2
*Paper_Space
  0
ENDTAB
  0
TABLE
  2
DIMSTYLE
  5
A
100
AcDbSymbolTable
 70
1
100
AcDbDimStyleTable
 71
0
  0
DIMSTYLE
105
210
100
AcDbSymbolTableRecord
100
AcDbDimStyleTableRecord
  2
STANDARD
 70
0
  3

  4

 40
1.0
 41
3.5
 42
0.0625
 43
0.38
 44
0.18
 45
0.0
 46
0.0
 47
0.005
 48
0.005
140
3.5
141
0.09
142
0.0
143
25.4
144
1.0
145
0.0
146
1.0
147
0.09
 71
1.0
 72
0.0
 73
0
 74
0
 75
0
 76
0
 77
1
 78
8
170
0
171
2
172
0
173
0
174
0
175
0
176
0
177
0
178
5
270
2
271
3
272
3
273
2
274
2
275
0
280
0
281
0
282
0
283
1
284
8
285
0
286
0
287
3
288
0
340
11
  0
ENDTAB
  0
ENDSEC
  0
SECTION
  2
BLOCKS
  0
BLOCK
  5
20
100
AcDbEntity
  8
0
100
AcDbBlockBegin
  2
*Model_Space
 70
0
 10
0.0
 20
0.0
 30
0.0
  3
*Model_Space
  1

  0
ENDBLK
  5
21
100
AcDbEntity
  8
0
100
AcDbBlockEnd
  0
BLOCK
  5
1C
100
AcDbEntity
  8
0
100
AcDbBlockBegin
  2
*Paper_Space
 70
0
 10
0.0
 20
0.0
 30
0.0
  3
*Paper_Space
  1

  0
ENDBLK
  5
1D
100
AcDbEntity
  8
0
100
AcDbBlockEnd
  0
ENDSEC
  0
SECTION
  2
ENTITIES
  0
MTEXT
  5
211
100
AcDbEntity
  8
0
100
AcDbMText
 62
5
  6
CONTINUOUS
  7
STANDARD
 71
1
 72
1
 10
291.5062190101
 20
213.0838480137
 30
0.0
 11
0.0
 21
1.0
 31
0.0
 44
0.9
  1
VRS 4,5t RUD
 40
6.0
 41
55.7142857143
  0
MTEXT
  5
212
100
AcDbEntity
  8
0
100
AcDbMText
 62
5
  6
CONTINUOUS
  7
STANDARD
 71
1
 72
1
 10
101.7207310595
 20
57.4270528433
 30
0.0
 11
1.0
 21
0.0
 31
0.0
 44
0.9
  1
VRS 4,5t RUD
 40
6.0
 41
55.7142857143
  0
LINE
  5
213
100
AcDbEntity
  8
0
100
AcDbLine
 62
7
  6
CONTINUOUS
 10
0.0
 20
0.0
 11
0.0
 21
297.0
  0
LINE
  5
214
100
AcDbEntity
  8
0
100
AcDbLine
 62
7
  6
CONTINUOUS
 10
0.0
 20
0.0
 11
420.0
 21
0.0
  0
LINE
  5
215
100
AcDbEntity
  8
0
100
AcDbLine
 62
7
  6
CONTINUOUS
 10
0.0
 20
297.0
 11
420.0
 21
297.0
  0
LINE
  5
216
100
AcDbEntity
  8
0
100
AcDbLine
 62
7
  6
CONTINUOUS
 10
420.0
 20
0.0
 11
420.0
 21
297.0
  0
LINE
  5
217
100
AcDbEntity
  8
KONSTRUKTIONSELEMENTE
100
AcDbLine
 62
7
  6
CONTINUOUS
 10
117.2956346943
 20
118.8183536724
 11
142.2956346943
 21
118.8183536724
  0
LINE
  5
218
100
AcDbEntity
  8
KONSTRUKTIONSELEMENTE
100
AcDbLine
 62
7
  6
CONTINUOUS
 10
114.7956346943
 20
121.3183536724
 11
144.7956346943
 21
121.3183536724
  0
LINE
  5
219
100
AcDbEntity
  8
KONSTRUKTIONSELEMENTE
100
AcDbLine
 62
7
  6
CONTINUOUS
 10
114.7956346943
 20
121.3183536724
 11
117.2956346943
 21
118.8183536724
  0
LINE
  5
21A
100
AcDbEntity
  8
KONSTRUKTIONSELEMENTE
100
AcDbLine
 62
7
  6
CONTINUOUS
 10
107.7956346943
 20
163.8183536724
 11
151.7956346943
 21
163.8183536724
  0
LINE
  5
21B
100
AcDbEntity
  8
0
100
AcDbLine
 62
7
  6
CONTINUOUS
 10
134.8998009636
 20
171.294949414
 11
134.066468425
 21
171.0821834819
  0
LINE
  5
21C
100
AcDbEntity
  8
0
100
AcDbLine
 62
7
  6
CONTINUOUS
 10
134.066468425
 20
170.0183536724
 11
135.1081346943
 21
170.2311196232
  0
LINE
  5
21D
100
AcDbEntity
  8
BEZUGSACHSEN
100
AcDbLine
 62
7
  6
CONTINUOUS
 10
162.7955710117
 20
164.0183536724
 11
96.7956983787
 21
164.0183536724
  0
LINE
  5
21E
100
AcDbEntity
  8
0
100
AcDbLine
 62
7
  6
CONTINUOUS
 10
125.7331346943
 20
168.7417579309
 11
126.7748009636
 21
168.7417579309
  0
LINE
  5
21F
100
AcDbEntity
  8
0
100
AcDbLine
 62
7
  6
CONTINUOUS
 10
120.7331346943
 20
170.0183536724
 11
121.9831346943
 21
170.0183536724
  0
LINE
  5
220
100
AcDbEntity
  8
0
100
AcDbLine
 62
7
  6
CONTINUOUS
 10
132.816468425
 20
170.0183536724
 11
134.066468425
 21
170.0183536724
  0
LINE
  5
221
100
AcDbEntity
  8
0
100
AcDbLine
 62
7
  6
CONTINUOUS
 10
134.066468425
 20
171.0821834819
 11
132.816468425
 21
171.0821834819
  0
LINE
  5
222
100
AcDbEntity
  8
0
100
AcDbLine
 62
7
  6
CONTINUOUS
 10
128.0248009636
 20
171.0821834819
 11
126.9831346943
 21
171.0821834819
  0
LINE
  5
223
100
AcDbEntity
  8
0
100
AcDbLine
 62
7
  6
CONTINUOUS
 10
130.941468425
 20
172.5715451555
 11
129.691468425
 21
172.5715451555
  0
LINE
  5
224
100
AcDbEntity
  8
0
100
AcDbLine
 62
7
  6
CONTINUOUS
 10
115.7331346943
 20
172.9970770196
 11
120.7331346943
 21
172.9970770196
  0
LINE
  5
225
100
AcDbEntity
  8
0
100
AcDbLine
 62
7
  6
CONTINUOUS
 10
121.9831346943
 20
172.9970770196
 11
124.066467829
 21
172.9970770196
  0
LINE
  5
226
100
AcDbEntity
  8
0
100
AcDbLine
 62
7
  6
CONTINUOUS
 10
124.066467829
 20
174.2736729102
 11
121.9831346943
 21
174.2736729102
  0
LINE
  5
227
100
AcDbEntity
  8
0
100
AcDbLine
 62
7
  6
CONTINUOUS
 10
120.7331346943
 20
174.2736729102
 11
117.191467978
 21
174.2736729102
  0
LINE
  5
228
100
AcDbEntity
  8
0
100
AcDbLine
 62
7
  6
CONTINUOUS
 10
129.691468425
 20
174.4864388422
 11
131.1498009636
 21
174.4864388422
  0
LINE
  5
229
100
AcDbEntity
  8
0
100
AcDbLine
 62
7
  6
CONTINUOUS
 10
142.1914672329
 20
170.2311196232
 11
143.4414672329
 21
170.0183536724
  0
LINE
  5
22A
100
AcDbEntity
  8
0
100
AcDbLine
 62
7
  6
CONTINUOUS
 10
131.7748009636
 20
170.2311196232
 11
132.816468425
 21
170.0183536724
  0
LINE
  5
22B
100
AcDbEntity
  8
0
100
AcDbLine
 62
7
  6
CONTINUOUS
 10
143.4414672329
 20
170.8694174753
 11
142.3998021557
 21
171.0821834819
  0
LINE
  5
22C
100
AcDbEntity
  8
0
100
AcDbLine
 62
7
  6
CONTINUOUS
 10
132.816468425
 20
171.0821834819
 11
131.9831346943
 21
171.294949414
  0
LINE
  5
22D
100
AcDbEntity
  8
0
100
AcDbLine
 62
7
  6
CONTINUOUS
 10
131.9831346943
 20
175.1247366385
 11
132.816468425
 21
175.3375025706
  0
LINE
  5
22E
100
AcDbEntity
  8
0
100
AcDbLine
 62
7
  6
CONTINUOUS
 10
132.816468425
 20
176.401332231
 11
131.7748009636
 21
176.1885662989
  0
LINE
  5
22F
100
AcDbEntity
  8
0
100
AcDbLine
 62
7
  6
CONTINUOUS
 10
132.816468425
 20
175.3375025706
 11
134.066468425
 21
175.3375025706
  0
LINE
  5
230
100
AcDbEntity
  8
0
100
AcDbLine
 62
7
  6
CONTINUOUS
 10
138.8581346943
 20
175.9758003668
 11
140.5248021557
 21
175.9758003668
  0
LINE
  5
231
100
AcDbEntity
  8
0
100
AcDbLine
 62
7
  6
CONTINUOUS
 10
141.5664672329
 20
175.9758003668
 11
143.8581346943
 21
175.9758003668
  0
LINE
  5
232
100
AcDbEntity
  8
0
100
AcDbLine
 62
7
  6
CONTINUOUS
 10
134.066468425
 20
176.401332231
 11
132.816468425
 21
176.401332231
  0
LINE
  5
233
100
AcDbEntity
  8
0
100
AcDbLine
 62
7
  6
CONTINUOUS
 10
143.8581346943
 20
176.8268640952
 11
141.5664672329
 21
176.8268640952
  0
LINE
  5
234
100
AcDbEntity
  8
0
100
AcDbLine
 62
7
  6
CONTINUOUS
 10
140.5248021557
 20
176.8268640952
 11
138.8581346943
 21
176.8268640952
  0
LINE
  5
235
100
AcDbEntity
  8
0
100
AcDbLine
 62
7
  6
CONTINUOUS
 10
141.5664672329
 20
178.5289921479
 11
140.5248021557
 21
178.5289921479
  0
LINE
  5
236
100
AcDbEntity
  8
0
100
AcDbLine
 62
7
  6
CONTINUOUS
 10
130.7331346943
 20
178.954524012
 11
136.7748021557
 21
178.954524012
  0
LINE
  5
237
100
AcDbEntity
  8
0
100
AcDbLine
 62
7
  6
CONTINUOUS
 10
136.7748021557
 20
180.0183536724
 11
129.691468425
 21
180.0183536724
  0
LINE
  5
238
100
AcDbEntity
  8
0
100
AcDbLine
 62
7
  6
CONTINUOUS
 10
121.9831346943
 20
180.0183536724
 11
120.7331346943
 21
180.0183536724
  0
LINE
  5
239
100
AcDbEntity
  8
0
100
AcDbLine
 62
7
  6
CONTINUOUS
 10
81.7956346943
 20
186.0183536724
 11
84.6686350026
 21
186.0183536724
  0
LINE
  5
23A
100
AcDbEntity
  8
0
100
AcDbLine
 62
7
  6
CONTINUOUS
 10
174.922634386
 20
186.0183536724
 11
177.7956346943
 21
186.0183536724
  0
LINE
  5
23B
100
AcDbEntity
  8
0
100
AcDbLine
 62
7
  6
CONTINUOUS
 10
135.1081346943
 20
176.1885662989
 11
134.066468425
 21
176.401332231
  0
LINE
  5
23C
100
AcDbEntity
  8
0
100
AcDbLine
 62
7
  6
CONTINUOUS
 10
134.066468425
 20
175.3375025706
 11
134.8998009636
 21
175.1247366385
  0
LINE
  5
23D
100
AcDbEntity
  8
0
100
AcDbLine
 62
7
  6
CONTINUOUS
 10
141.5664672329
 20
170.4438855739
 11
142.1914672329
 21
170.2311196232
  0
LINE
  5
23E
100
AcDbEntity
  8
0
100
AcDbLine
 62
7
  6
CONTINUOUS
 10
130.7331346943
 20
170.8694174753
 11
131.7748009636
 21
170.2311196232
  0
LINE
  5
23F
100
AcDbEntity
  8
0
100
AcDbLine
 62
7
  6
CONTINUOUS
 10
131.9831346943
 20
171.294949414
 11
131.3581346943
 21
171.7204812781
  0
LINE
  5
240
100
AcDbEntity
  8
BEZUGSACHSEN
100
AcDbLine
 62
7
  6
CONTINUOUS
 10
88.5898315453
 20
181.3943697977
 11
87.4397985069
 21
184.1675502755
  0
LINE
  5
241
100
AcDbEntity
  8
BEZUGSACHSEN
100
AcDbLine
 62
7
  6
CONTINUOUS
 10
79.7846059293
 20
202.6272204775
 11
73.1242081433
 21
218.6880504692
  0
LINE
  5
242
100
AcDbEntity
  8
BEZUGSACHSEN
100
AcDbLine
 62
7
  6
CONTINUOUS
 10
79.7956346943
 20
188.0183536724
 11
79.7956346943
 21
200.0183536724
  0
LINE
  5
243
100
AcDbEntity
  8
BEZUGSACHSEN
100
AcDbLine
 62
7
  6
CONTINUOUS
 10
73.1234163212
 20
222.5167953027
 11
73.4744428844
 21
223.3642483924
  0
LINE
  5
244
100
AcDbEntity
  8
RUNDUNGEN
100
AcDbLine
 62
7
  6
CONTINUOUS
 10
73.4744428844
 20
223.3642483924
 11
88.3070309429
 21
259.1732836483
  0
LINE
  5
245
100
AcDbEntity
  8
0
100
AcDbLine
 62
7
  6
CONTINUOUS
 10
136.1498021557
 20
175.5502685027
 11
135.1081346943
 21
176.1885662989
  0
LINE
  5
246
100
AcDbEntity
  8
0
100
AcDbLine
 62
7
  6
CONTINUOUS
 10
140.9414672329
 20
170.8694174753
 11
141.5664672329
 21
170.4438855739
  0
LINE
  5
247
100
AcDbEntity
  8
0
100
AcDbLine
 62
7
  6
CONTINUOUS
 10
134.8998009636
 20
175.1247366385
 11
135.5248009636
 21
174.6992047743
  0
LINE
  5
248
100
AcDbEntity
  8
0
100
AcDbLine
 62
7
  6
CONTINUOUS
 10
142.3998021557
 20
171.0821834819
 11
141.7748021557
 21
171.507715346
  0
LINE
  5
249
100
AcDbEntity
  8
RUNDUNGEN
100
AcDbLine
 62
7
  6
CONTINUOUS
 10
91.1345888577
 20
261.9277686189
 11
128.0037949466
 21
276.0805308367
  0
LINE
  5
24A
100
AcDbEntity
  8
RUNDUNGEN
100
AcDbLine
 62
7
  6
CONTINUOUS
 10
190.2956346943
 20
202.0683536724
 11
114.2958926756
 21
202.0683536724
  0
LINE
  5
24B
100
AcDbEntity
  8
0
100
AcDbLine
 62
7
  6
CONTINUOUS
 10
130.1081346943
 20
171.7204812781
 11
130.7331346943
 21
170.8694174753
  0
LINE
  5
24C
100
AcDbEntity
  8
0
100
AcDbLine
 62
7
  6
CONTINUOUS
 10
136.7748021557
 20
174.6992047743
 11
136.1498021557
 21
175.5502685027
  0
LINE
  5
24D
100
AcDbEntity
  8
0
100
AcDbLine
 62
7
  6
CONTINUOUS
 10
100.6584307404
 20
252.0494069103
 11
100.6625055399
 21
251.6623163029
  0
LINE
  5
24E
100
AcDbEntity
  8
0
100
AcDbLine
 62
7
  6
CONTINUOUS
 10
101.5874485815
 20
255.7165831468
 11
101.5955981805
 21
254.9424019322
  0
LINE
  5
24F
100
AcDbEntity
  8
0
100
AcDbLine
 62
7
  6
CONTINUOUS
 10
107.7992378757
 20
253.9094805744
 11
107.7910882425
 21
254.6836618233
  0
LINE
  5
250
100
AcDbEntity
  8
KONSTRUKTIONSELEMENTE
100
AcDbLine
 62
7
  6
CONTINUOUS
 10
107.7956346943
 20
164.0183536724
 11
107.7956346943
 21
163.8183536724
  0
LINE
  5
251
100
AcDbEntity
  8
0
100
AcDbLine
 62
7
  6
CONTINUOUS
 10
102.3657051436
 20
255.3213434885
 11
102.45738457
 21
255.8041883217
  0
LINE
  5
252
100
AcDbEntity
  8
0
100
AcDbLine
 62
7
  6
CONTINUOUS
 10
107.0209812109
 20
254.3047203355
 11
106.9293018529
 21
253.8218754337
  0
LINE
  5
253
100
AcDbEntity
  8
0
100
AcDbLine
 62
7
  6
CONTINUOUS
 10
101.774881686
 20
256.2951816581
 11
101.5874485815
 21
255.7165831468
  0
LINE
  5
254
100
AcDbEntity
  8
0
100
AcDbLine
 62
7
  6
CONTINUOUS
 10
101.2472159764
 20
251.2691132224
 11
101.4346496288
 21
251.8477122816
  0
LINE
  5
255
100
AcDbEntity
  8
0
100
AcDbLine
 62
7
  6
CONTINUOUS
 10
107.6118037011
 20
253.3308809416
 11
107.7992378757
 21
253.9094805744
  0
LINE
  5
256
100
AcDbEntity
  8
0
100
AcDbLine
 62
7
  6
CONTINUOUS
 10
102.45738457
 20
255.8041883217
 11
102.6468553482
 21
256.1892418033
  0
LINE
  5
257
100
AcDbEntity
  8
0
100
AcDbLine
 62
7
  6
CONTINUOUS
 10
100.6625055399
 20
251.6623163029
 11
100.4730347617
 21
251.2772628214
  0
LINE
  5
258
100
AcDbEntity
  8
0
100
AcDbLine
 62
7
  6
CONTINUOUS
 10
102.060107238
 20
256.7759899135
 11
101.774881686
 21
256.2951816581
  0
LINE
  5
259
100
AcDbEntity
  8
0
100
AcDbLine
 62
7
  6
CONTINUOUS
 10
106.9293018529
 20
253.8218754337
 11
106.6440773968
 21
253.3410682742
  0
LINE
  5
25A
100
AcDbEntity
  8
0
100
AcDbLine
 62
7
  6
CONTINUOUS
 10
107.2308255754
 20
252.7543200955
 11
107.6118037011
 21
253.3308809416
  0
LINE
  5
25B
100
AcDbEntity
  8
0
100
AcDbLine
 62
7
  6
CONTINUOUS
 10
102.5388767239
 20
257.2547593994
 11
102.060107238
 21
256.7759899135
  0
LINE
  5
25C
100
AcDbEntity
  8
0
100
AcDbLine
 62
7
  6
CONTINUOUS
 10
98.4214532279
 20
253.1373359034
 11
96.123356189
 21
250.8392388645
  0
LINE
  5
25D
100
AcDbEntity
  8
0
100
AcDbLine
 62
7
  6
CONTINUOUS
 10
95.3573237514
 20
250.0732064269
 11
94.7827994917
 21
249.4986821672
  0
LINE
  5
25E
100
AcDbEntity
  8
0
100
AcDbLine
 62
7
  6
CONTINUOUS
 10
92.101686371
 20
246.8175690465
 11
91.5271621113
 21
246.2430447868
  0
LINE
  5
25F
100
AcDbEntity
  8
0
100
AcDbLine
 62
7
  6
CONTINUOUS
 10
97.1868372072
 20
250.9248063657
 11
99.0061642123
 21
252.7441333708
  0
LINE
  5
260
100
AcDbEntity
  8
0
100
AcDbLine
 62
7
  6
CONTINUOUS
 10
102.6468553482
 20
256.1892418033
 11
103.2213796079
 21
256.763766063
  0
LINE
  5
261
100
AcDbEntity
  8
0
100
AcDbLine
 62
7
  6
CONTINUOUS
 10
104.2848606261
 20
256.8493335642
 11
104.8593848858
 21
257.423857824
  0
LINE
  5
262
100
AcDbEntity
  8
0
100
AcDbLine
 62
7
  6
CONTINUOUS
 10
104.5904588056
 20
255.3946868653
 11
104.0159345459
 21
254.8201626056
  0
LINE
  5
263
100
AcDbEntity
  8
0
100
AcDbLine
 62
7
  6
CONTINUOUS
 10
100.4730347617
 20
251.2772628214
 11
98.6537077566
 21
249.4579358163
  0
LINE
  5
264
100
AcDbEntity
  8
0
100
AcDbLine
 62
7
  6
CONTINUOUS
 10
99.2404558668
 20
248.8711877061
 11
100.8682744201
 21
250.4990062593
  0
LINE
  5
265
100
AcDbEntity
  8
0
100
AcDbLine
 62
7
  6
CONTINUOUS
 10
104.6026826561
 20
254.2334144954
 11
105.1772069158
 21
254.8079387551
  0
LINE
  5
266
100
AcDbEntity
  8
0
100
AcDbLine
 62
7
  6
CONTINUOUS
 10
104.4274724433
 20
252.4935423814
 11
103.8529487315
 21
251.9190186696
  0
LINE
  5
267
100
AcDbEntity
  8
0
100
AcDbLine
 62
7
  6
CONTINUOUS
 10
106.6440773968
 20
253.3410682742
 11
105.8780446852
 21
252.5750355626
  0
LINE
  5
268
100
AcDbEntity
  8
0
100
AcDbLine
 62
7
  6
CONTINUOUS
 10
97.6554209272
 20
243.1789154473
 11
98.4214532279
 21
243.9449477479
  0
LINE
  5
269
100
AcDbEntity
  8
0
100
AcDbLine
 62
7
  6
CONTINUOUS
 10
100.7195502667
 20
246.2430447868
 11
101.2940745264
 21
246.8175690465
  0
LINE
  5
26A
100
AcDbEntity
  8
0
100
AcDbLine
 62
7
  6
CONTINUOUS
 10
103.6879257912
 20
249.2114203113
 11
104.358203729
 21
249.881698249
  0
LINE
  5
26B
100
AcDbEntity
  8
0
100
AcDbLine
 62
7
  6
CONTINUOUS
 10
106.4647928639
 20
251.9882873839
 11
107.2308255754
 21
252.7543200955
  0
LINE
  5
26C
100
AcDbEntity
  8
0
100
AcDbLine
 62
7
  6
CONTINUOUS
 10
103.1154386573
 20
257.6357386294
 11
102.5388767239
 21
257.2547593994
  0
LINE
  5
26D
100
AcDbEntity
  8
0
100
AcDbLine
 62
7
  6
CONTINUOUS
 10
98.9980146134
 20
253.5183145855
 11
98.4214532279
 21
253.1373359034
  0
LINE
  5
26E
100
AcDbEntity
  8
0
100
AcDbLine
 62
7
  6
CONTINUOUS
 10
105.1670196432
 20
255.7756649995
 11
104.5904588056
 21
255.3946868653
  0
LINE
  5
26F
100
AcDbEntity
  8
0
100
AcDbLine
 62
7
  6
CONTINUOUS
 10
105.8882309219
 20
251.6073081625
 11
106.4647928639
 21
251.9882873839
  0
LINE
  5
270
100
AcDbEntity
  8
0
100
AcDbLine
 62
7
  6
CONTINUOUS
 10
105.1772069158
 20
254.8079387551
 11
105.6580140754
 21
255.0931632113
  0
LINE
  5
271
100
AcDbEntity
  8
0
100
AcDbLine
 62
7
  6
CONTINUOUS
 10
104.1218744007
 20
253.9481889434
 11
104.6026826561
 21
254.2334144954
  0
LINE
  5
272
100
AcDbEntity
  8
0
100
AcDbLine
 62
7
  6
CONTINUOUS
 10
105.8780446852
 20
252.5750355626
 11
105.3972375256
 21
252.2898111064
  0
LINE
  5
273
100
AcDbEntity
  8
0
100
AcDbLine
 62
7
  6
CONTINUOUS
 10
103.2213796079
 20
256.763766063
 11
103.6064330895
 21
256.9532368412
  0
LINE
  5
274
100
AcDbEntity
  8
0
100
AcDbLine
 62
7
  6
CONTINUOUS
 10
99.0061642123
 20
252.7441333708
 11
99.3912176938
 21
252.933604149
  0
LINE
  5
275
100
AcDbEntity
  8
0
100
AcDbLine
 62
7
  6
CONTINUOUS
 10
104.0159345459
 20
254.8201626056
 11
103.6308810644
 21
254.6306918274
  0
LINE
  5
276
100
AcDbEntity
  8
0
100
AcDbLine
 62
7
  6
CONTINUOUS
 10
124.7852191701
 20
263.1406940238
 11
124.3789691701
 21
263.0023961679
  0
LINE
  5
277
100
AcDbEntity
  8
0
100
AcDbLine
 62
7
  6
CONTINUOUS
 10
105.7456192503
 20
255.9630991998
 11
105.1670196432
 21
255.7756649995
  0
LINE
  5
278
100
AcDbEntity
  8
RUNDUNGEN
100
AcDbLine
 62
7
  6
CONTINUOUS
 10
114.2958926756
 20
209.0683536724
 11
190.2956346943
 21
209.0683536724
  0
LINE
  5
279
100
AcDbEntity
  8
0
100
AcDbLine
 62
7
  6
CONTINUOUS
 10
123.5456346943
 20
209.3683536724
 11
136.0456346943
 21
209.3683536724
  0
LINE
  5
27A
100
AcDbEntity
  8
0
100
AcDbLine
 62
7
  6
CONTINUOUS
 10
135.5248009636
 20
174.6992047743
 11
135.9414672329
 21
174.0609069781
  0
LINE
  5
27B
100
AcDbEntity
  8
0
100
AcDbLine
 62
7
  6
CONTINUOUS
 10
100.4608109112
 20
252.4385351913
 11
100.6584307404
 21
252.0494069103
  0
LINE
  5
27C
100
AcDbEntity
  8
0
100
AcDbLine
 62
7
  6
CONTINUOUS
 10
98.4214532279
 20
243.9449477479
 11
95.3573237514
 21
250.0732064269
  0
LINE
  5
27D
100
AcDbEntity
  8
0
100
AcDbLine
 62
7
  6
CONTINUOUS
 10
94.7827994917
 20
249.4986821672
 11
97.4516888304
 21
244.1486797078
  0
LINE
  5
27E
100
AcDbEntity
  8
0
100
AcDbLine
 62
7
  6
CONTINUOUS
 10
129.691468425
 20
172.5715451555
 11
130.1081346943
 21
171.7204812781
  0
LINE
  5
27F
100
AcDbEntity
  8
0
100
AcDbLine
 62
7
  6
CONTINUOUS
 10
131.3581346943
 20
171.7204812781
 11
130.941468425
 21
172.5715451555
  0
LINE
  5
280
100
AcDbEntity
  8
0
100
AcDbLine
 62
7
  6
CONTINUOUS
 10
101.4346496288
 20
251.8477122816
 11
101.3307463518
 21
252.5261398183
  0
LINE
  5
281
100
AcDbEntity
  8
0
100
AcDbLine
 62
7
  6
CONTINUOUS
 10
112.2956346943
 20
204.0683536724
 11
112.2956346943
 21
207.0683536724
  0
LINE
  5
282
100
AcDbEntity
  8
KONSTRUKTIONSELEMENTE
100
AcDbLine
 62
7
  6
CONTINUOUS
 10
114.7956346943
 20
163.8183536724
 11
114.7956346943
 21
121.3183536724
  0
LINE
  5
283
100
AcDbEntity
  8
0
100
AcDbLine
 62
7
  6
CONTINUOUS
 10
115.7331346943
 20
174.2736729102
 11
115.7331346943
 21
172.9970770196
  0
LINE
  5
284
100
AcDbEntity
  8
0
100
AcDbLine
 62
7
  6
CONTINUOUS
 10
125.1914691701
 20
263.8321833031
 11
125.0560526326
 21
263.4172897355
  0
LINE
  5
285
100
AcDbEntity
  8
0
100
AcDbLine
 62
7
  6
CONTINUOUS
 10
125.8685526326
 20
263.2789918796
 11
126.0039691701
 21
263.6938854472
  0
LINE
  5
286
100
AcDbEntity
  8
0
100
AcDbLine
 62
7
  6
CONTINUOUS
 10
125.4623026326
 20
262.7258004562
 11
125.8685526326
 21
263.2789918796
  0
LINE
  5
287
100
AcDbEntity
  8
0
100
AcDbLine
 62
7
  6
CONTINUOUS
 10
125.0560526326
 20
263.4172897355
 11
124.7852191701
 21
263.1406940238
  0
LINE
  5
288
100
AcDbEntity
  8
0
100
AcDbLine
 62
7
  6
CONTINUOUS
 10
131.1498026326
 20
259.6832472884
 11
131.6914695575
 21
260.2364387603
  0
LINE
  5
289
100
AcDbEntity
  8
0
100
AcDbLine
 62
7
  6
CONTINUOUS
 10
130.8789695575
 20
260.5130345688
 11
130.4727195575
 21
260.2364387603
  0
LINE
  5
28A
100
AcDbEntity
  8
0
100
AcDbLine
 62
7
  6
CONTINUOUS
 10
137.3789687827
 20
260.5130345688
 11
136.9727187827
 21
260.2364387603
  0
LINE
  5
28B
100
AcDbEntity
  8
0
100
AcDbLine
 62
7
  6
CONTINUOUS
 10
124.9206360951
 20
262.4492047445
 11
125.4623026326
 21
262.7258004562
  0
LINE
  5
28C
100
AcDbEntity
  8
0
100
AcDbLine
 62
7
  6
CONTINUOUS
 10
130.6081357076
 20
259.4066515404
 11
131.1498026326
 21
259.6832472884
  0
LINE
  5
28D
100
AcDbEntity
  8
0
100
AcDbLine
 62
7
  6
CONTINUOUS
 10
137.1081364825
 20
259.4066515404
 11
137.6498026326
 21
259.6832472884
  0
LINE
  5
28E
100
AcDbEntity
  8
0
100
AcDbLine
 62
7
  6
CONTINUOUS
 10
103.5432758895
 20
253.7607558389
 11
104.1218744007
 21
253.9481889434
  0
LINE
  5
28F
100
AcDbEntity
  8
0
100
AcDbLine
 62
7
  6
CONTINUOUS
 10
97.4516888304
 20
244.1486797078
 11
92.101686371
 21
246.8175690465
  0
LINE
  5
290
100
AcDbEntity
  8
0
100
AcDbLine
 62
7
  6
CONTINUOUS
 10
91.5271621113
 20
246.2430447868
 11
97.6554209272
 21
243.1789154473
  0
LINE
  5
291
100
AcDbEntity
  8
0
100
AcDbLine
 62
7
  6
CONTINUOUS
 10
96.123356189
 20
250.8392388645
 11
100.7195502667
 21
246.2430447868
  0
LINE
  5
292
100
AcDbEntity
  8
0
100
AcDbLine
 62
7
  6
CONTINUOUS
 10
101.2940745264
 20
246.8175690465
 11
99.2404558668
 21
248.8711877061
  0
LINE
  5
293
100
AcDbEntity
  8
0
100
AcDbLine
 62
7
  6
CONTINUOUS
 10
98.6537077566
 20
249.4579358163
 11
97.1868372072
 21
250.9248063657
  0
LINE
  5
294
100
AcDbEntity
  8
0
100
AcDbLine
 62
7
  6
CONTINUOUS
 10
100.1674365822
 20
252.7319095203
 11
100.4608109112
 21
252.4385351913
  0
LINE
  5
295
100
AcDbEntity
  8
0
100
AcDbLine
 62
7
  6
CONTINUOUS
 10
101.1331265226
 20
252.9152680993
 11
100.7419608419
 21
253.30643378
  0
LINE
  5
296
100
AcDbEntity
  8
0
100
AcDbLine
 62
7
  6
CONTINUOUS
 10
101.8910088134
 20
254.4554817516
 11
102.2821744942
 21
254.0643160708
  0
LINE
  5
297
100
AcDbEntity
  8
0
100
AcDbLine
 62
7
  6
CONTINUOUS
 10
101.5955981805
 20
254.9424019322
 11
101.8910088134
 21
254.4554817516
  0
LINE
  5
298
100
AcDbEntity
  8
0
100
AcDbLine
 62
7
  6
CONTINUOUS
 10
101.3307463518
 20
252.5261398183
 11
101.1331265226
 21
252.9152680993
  0
LINE
  5
299
100
AcDbEntity
  8
0
100
AcDbLine
 62
7
  6
CONTINUOUS
 10
102.5633246988
 20
254.9322143856
 11
102.3657051436
 21
255.3213434885
  0
LINE
  5
29A
100
AcDbEntity
  8
0
100
AcDbLine
 62
7
  6
CONTINUOUS
 10
140.5248021557
 20
171.7204812781
 11
140.9414672329
 21
170.8694174753
  0
LINE
  5
29B
100
AcDbEntity
  8
0
100
AcDbLine
 62
7
  6
CONTINUOUS
 10
137.1914672329
 20
173.6353748159
 11
136.7748021557
 21
174.6992047743
  0
LINE
  5
29C
100
AcDbEntity
  8
0
100
AcDbLine
 62
7
  6
CONTINUOUS
 10
107.7910882425
 20
254.6836618233
 11
107.5914312191
 21
255.2663357504
  0
LINE
  5
29D
100
AcDbEntity
  8
0
100
AcDbLine
 62
7
  6
CONTINUOUS
 10
135.9414672329
 20
174.0609069781
 11
136.1498021557
 21
173.4226088838
  0
LINE
  5
29E
100
AcDbEntity
  8
0
100
AcDbLine
 62
7
  6
CONTINUOUS
 10
141.7748021557
 20
171.507715346
 11
141.5664672329
 21
172.1460132913
  0
LINE
  5
29F
100
AcDbEntity
  8
0
100
AcDbLine
 62
7
  6
CONTINUOUS
 10
106.9191156076
 20
254.7896028424
 11
107.0209812109
 21
254.3047203355
  0
LINE
  5
2A0
100
AcDbEntity
  8
0
100
AcDbLine
 62
7
  6
CONTINUOUS
 10
120.096150172
 20
202.0683536724
 11
120.096150172
 21
192.4799426021
  0
LINE
  5
2A1
100
AcDbEntity
  8
0
100
AcDbLine
 62
7
  6
CONTINUOUS
 10
120.7331346943
 20
178.3162262158
 11
120.7331346943
 21
174.2736729102
  0
LINE
  5
2A2
100
AcDbEntity
  8
0
100
AcDbLine
 62
7
  6
CONTINUOUS
 10
120.7331346943
 20
172.9970770196
 11
120.7331346943
 21
170.0183536724
  0
LINE
  5
2A3
100
AcDbEntity
  8
BEZUGSACHSEN
100
AcDbLine
 62
7
  6
CONTINUOUS
 10
120.9054718604
 20
202.0683536724
 11
120.9054718604
 21
192.3795931196
  0
LINE
  5
2A4
100
AcDbEntity
  8
0
100
AcDbLine
 62
7
  6
CONTINUOUS
 10
120.9935526326
 20
265.7683536724
 11
120.9935526326
 21
259.2683536724
  0
LINE
  5
2A5
100
AcDbEntity
  8
0
100
AcDbLine
 62
7
  6
CONTINUOUS
 10
121.8060526326
 20
259.2683536724
 11
121.8060526326
 21
262.1726090328
  0
LINE
  5
2A6
100
AcDbEntity
  8
0
100
AcDbLine
 62
7
  6
CONTINUOUS
 10
121.8060526326
 20
263.0023961679
 11
121.8060526326
 21
265.0768643932
  0
LINE
  5
2A7
100
AcDbEntity
  8
0
100
AcDbLine
 62
7
  6
CONTINUOUS
 10
121.9831346943
 20
170.0183536724
 11
121.9831346943
 21
172.9970770196
  0
LINE
  5
2A8
100
AcDbEntity
  8
0
100
AcDbLine
 62
7
  6
CONTINUOUS
 10
121.9831346943
 20
174.2736729102
 11
121.9831346943
 21
180.0183536724
  0
LINE
  5
2A9
100
AcDbEntity
  8
0
100
AcDbLine
 62
7
  6
CONTINUOUS
 10
123.5456346943
 20
209.0683536724
 11
123.5456346943
 21
209.3683536724
  0
LINE
  5
2AA
100
AcDbEntity
  8
0
100
AcDbLine
 62
7
  6
CONTINUOUS
 10
124.066467829
 20
172.9970770196
 11
124.066467829
 21
174.2736729102
  0
LINE
  5
2AB
100
AcDbEntity
  8
BEZUGSACHSEN
100
AcDbLine
 62
7
  6
CONTINUOUS
 10
124.1365707447
 20
202.0683536724
 11
124.1365707447
 21
192.063265699
  0
LINE
  5
2AC
100
AcDbEntity
  8
0
100
AcDbLine
 62
7
  6
CONTINUOUS
 10
124.9458924332
 20
202.0683536724
 11
124.9458924332
 21
192.0096781389
  0
LINE
  5
2AD
100
AcDbEntity
  8
0
100
AcDbLine
 62
7
  6
CONTINUOUS
 10
125.1914691701
 20
264.2470772581
 11
125.1914691701
 21
263.8321833031
  0
LINE
  5
2AE
100
AcDbEntity
  8
0
100
AcDbLine
 62
7
  6
CONTINUOUS
 10
126.0039691701
 20
263.6938854472
 11
126.0039691701
 21
264.2470772581
  0
LINE
  5
2AF
100
AcDbEntity
  8
BEZUGSACHSEN
100
AcDbLine
 62
7
  6
CONTINUOUS
 10
126.5645358101
 20
202.0683536724
 11
126.5645358101
 21
191.9240814582
  0
LINE
  5
2B0
100
AcDbEntity
  8
0
100
AcDbLine
 62
7
  6
CONTINUOUS
 10
127.2227191701
 20
265.7683536724
 11
127.2227191701
 21
261.4811195598
  0
LINE
  5
2B1
100
AcDbEntity
  8
0
100
AcDbLine
 62
7
  6
CONTINUOUS
 10
128.0352195575
 20
261.4811195598
 11
128.0352195575
 21
265.7683536724
  0
LINE
  5
2B2
100
AcDbEntity
  8
0
100
AcDbLine
 62
7
  6
CONTINUOUS
 10
129.691468425
 20
180.0183536724
 11
129.691468425
 21
174.4864388422
  0
LINE
  5
2B3
100
AcDbEntity
  8
0
100
AcDbLine
 62
7
  6
CONTINUOUS
 10
129.7956346943
 20
209.0683536724
 11
129.7956346943
 21
209.3683536724
  0
LINE
  5
2B4
100
AcDbEntity
  8
0
100
AcDbLine
 62
7
  6
CONTINUOUS
 10
130.7331346943
 20
175.5502685027
 11
130.7331346943
 21
178.954524012
  0
LINE
  5
2B5
100
AcDbEntity
  8
0
100
AcDbLine
 62
7
  6
CONTINUOUS
 10
131.2852195575
 20
265.7683536724
 11
131.2852195575
 21
261.4811195598
  0
LINE
  5
2B6
100
AcDbEntity
  8
0
100
AcDbLine
 62
7
  6
CONTINUOUS
 10
131.9623026326
 20
260.7896302806
 11
132.0977195575
 21
261.4811195598
  0
LINE
  5
2B7
100
AcDbEntity
  8
0
100
AcDbLine
 62
7
  6
CONTINUOUS
 10
131.2852195575
 20
261.4811195598
 11
131.1498026326
 21
260.9279281364
  0
LINE
  5
2B8
100
AcDbEntity
  8
0
100
AcDbLine
 62
7
  6
CONTINUOUS
 10
131.6914695575
 20
260.2364387603
 11
131.9623026326
 21
260.7896302806
  0
LINE
  5
2B9
100
AcDbEntity
  8
0
100
AcDbLine
 62
7
  6
CONTINUOUS
 10
138.1914687827
 20
260.2364387603
 11
138.4623026326
 21
260.7896302806
  0
LINE
  5
2BA
100
AcDbEntity
  8
0
100
AcDbLine
 62
7
  6
CONTINUOUS
 10
131.1498026326
 20
260.9279281364
 11
130.8789695575
 21
260.5130345688
  0
LINE
  5
2BB
100
AcDbEntity
  8
0
100
AcDbLine
 62
7
  6
CONTINUOUS
 10
137.6498026326
 20
260.9279281364
 11
137.3789687827
 21
260.5130345688
  0
LINE
  5
2BC
100
AcDbEntity
  8
0
100
AcDbLine
 62
7
  6
CONTINUOUS
 10
137.6498026326
 20
259.6832472884
 11
138.1914687827
 21
260.2364387603
  0
LINE
  5
2BD
100
AcDbEntity
  8
0
100
AcDbLine
 62
7
  6
CONTINUOUS
 10
104.358203729
 20
249.881698249
 11
101.2472159764
 21
251.2691132224
  0
LINE
  5
2BE
100
AcDbEntity
  8
0
100
AcDbLine
 62
7
  6
CONTINUOUS
 10
100.8682744201
 20
250.4990062593
 11
103.6879257912
 21
249.2114203113
  0
LINE
  5
2BF
100
AcDbEntity
  8
0
100
AcDbLine
 62
7
  6
CONTINUOUS
 10
99.7783083012
 20
252.9295293495
 11
100.1674365822
 21
252.7319095203
  0
LINE
  5
2C0
100
AcDbEntity
  8
0
100
AcDbLine
 62
7
  6
CONTINUOUS
 10
100.7419608419
 20
253.30643378
 11
100.3528325609
 21
253.5040536092
  0
LINE
  5
2C1
100
AcDbEntity
  8
0
100
AcDbLine
 62
7
  6
CONTINUOUS
 10
104.8166012722
 20
252.2959231002
 11
104.4274724433
 21
252.4935423814
  0
LINE
  5
2C2
100
AcDbEntity
  8
0
100
AcDbLine
 62
7
  6
CONTINUOUS
 10
103.1480362311
 20
254.539012401
 11
102.7589074022
 21
254.7366316822
  0
LINE
  5
2C3
100
AcDbEntity
  8
0
100
AcDbLine
 62
7
  6
CONTINUOUS
 10
103.8529487315
 20
251.9190186696
 11
104.3398678163
 21
251.6236069408
  0
LINE
  5
2C4
100
AcDbEntity
  8
0
100
AcDbLine
 62
7
  6
CONTINUOUS
 10
102.2821744942
 20
254.0643160708
 11
102.7690946748
 21
253.7689054378
  0
LINE
  5
2C5
100
AcDbEntity
  8
0
100
AcDbLine
 62
7
  6
CONTINUOUS
 10
102.7589074022
 20
254.7366316822
 11
102.5633246988
 21
254.9322143856
  0
LINE
  5
2C6
100
AcDbEntity
  8
0
100
AcDbLine
 62
7
  6
CONTINUOUS
 10
106.6257415526
 20
255.0829768975
 11
106.9191156076
 21
254.7896028424
  0
LINE
  5
2C7
100
AcDbEntity
  8
0
100
AcDbLine
 62
7
  6
CONTINUOUS
 10
107.5914312191
 20
255.2663357504
 11
107.1024744606
 21
255.7552925089
  0
LINE
  5
2C8
100
AcDbEntity
  8
0
100
AcDbLine
 62
7
  6
CONTINUOUS
 10
127.2227191701
 20
261.4811195598
 11
127.3581360951
 21
260.7896302806
  0
LINE
  5
2C9
100
AcDbEntity
  8
0
100
AcDbLine
 62
7
  6
CONTINUOUS
 10
132.0977195575
 20
261.4811195598
 11
132.0977195575
 21
265.7683536724
  0
LINE
  5
2CA
100
AcDbEntity
  8
BEZUGSACHSEN
100
AcDbLine
 62
7
  6
CONTINUOUS
 10
133.0267335786
 20
202.0683536724
 11
133.0267335786
 21
191.9240819611
  0
LINE
  5
2CB
100
AcDbEntity
  8
0
100
AcDbLine
 62
7
  6
CONTINUOUS
 10
133.1810526326
 20
265.7683536724
 11
133.1810526326
 21
259.2683536724
  0
LINE
  5
2CC
100
AcDbEntity
  8
0
100
AcDbLine
 62
7
  6
CONTINUOUS
 10
133.9935526326
 20
260.0981409044
 11
133.9935526326
 21
264.9385665373
  0
LINE
  5
2CD
100
AcDbEntity
  8
0
100
AcDbLine
 62
7
  6
CONTINUOUS
 10
134.6453769555
 20
202.0683536724
 11
134.6453769555
 21
192.0096781897
  0
LINE
  5
2CE
100
AcDbEntity
  8
BEZUGSACHSEN
100
AcDbLine
 62
7
  6
CONTINUOUS
 10
135.454698644
 20
202.0683536724
 11
135.454698644
 21
192.063266751
  0
LINE
  5
2CF
100
AcDbEntity
  8
0
100
AcDbLine
 62
7
  6
CONTINUOUS
 10
136.0456346943
 20
209.0683536724
 11
136.0456346943
 21
209.3683536724
  0
LINE
  5
2D0
100
AcDbEntity
  8
0
100
AcDbLine
 62
7
  6
CONTINUOUS
 10
136.1498021557
 20
173.4226088838
 11
136.1498021557
 21
172.9970770196
  0
LINE
  5
2D1
100
AcDbEntity
  8
0
100
AcDbLine
 62
7
  6
CONTINUOUS
 10
136.7748021557
 20
178.954524012
 11
136.7748021557
 21
180.0183536724
  0
LINE
  5
2D2
100
AcDbEntity
  8
0
100
AcDbLine
 62
7
  6
CONTINUOUS
 10
137.1914672329
 20
172.7843110875
 11
137.1914672329
 21
173.6353748159
  0
LINE
  5
2D3
100
AcDbEntity
  8
0
100
AcDbLine
 62
7
  6
CONTINUOUS
 10
137.7852187827
 20
263.5555875914
 11
137.7852187827
 21
261.4811195598
  0
LINE
  5
2D4
100
AcDbEntity
  8
0
100
AcDbLine
 62
7
  6
CONTINUOUS
 10
138.5977187827
 20
261.4811195598
 11
138.5977187827
 21
263.5555875914
  0
LINE
  5
2D5
100
AcDbEntity
  8
BEZUGSACHSEN
100
AcDbLine
 62
7
  6
CONTINUOUS
 10
138.6857975283
 20
202.0683536724
 11
138.6857975283
 21
192.3795932418
  0
LINE
  5
2D6
100
AcDbEntity
  8
0
100
AcDbLine
 62
7
  6
CONTINUOUS
 10
138.8581346943
 20
176.8268640952
 11
138.8581346943
 21
175.9758003668
  0
LINE
  5
2D7
100
AcDbEntity
  8
0
100
AcDbLine
 62
7
  6
CONTINUOUS
 10
139.4951192167
 20
202.0683536724
 11
139.4951192167
 21
192.479943406
  0
LINE
  5
2D8
100
AcDbEntity
  8
0
100
AcDbLine
 62
7
  6
CONTINUOUS
 10
140.5248021557
 20
178.5289921479
 11
140.5248021557
 21
176.8268640952
  0
LINE
  5
2D9
100
AcDbEntity
  8
0
100
AcDbLine
 62
7
  6
CONTINUOUS
 10
140.5248021557
 20
175.9758003668
 11
140.5248021557
 21
171.7204812781
  0
LINE
  5
2DA
100
AcDbEntity
  8
0
100
AcDbLine
 62
7
  6
CONTINUOUS
 10
141.5664672329
 20
172.1460132913
 11
141.5664672329
 21
175.9758003668
  0
LINE
  5
2DB
100
AcDbEntity
  8
0
100
AcDbLine
 62
7
  6
CONTINUOUS
 10
141.5664672329
 20
176.8268640952
 11
141.5664672329
 21
178.5289921479
  0
LINE
  5
2DC
100
AcDbEntity
  8
0
100
AcDbLine
 62
7
  6
CONTINUOUS
 10
138.4623026326
 20
260.7896302806
 11
138.5977187827
 21
261.4811195598
  0
LINE
  5
2DD
100
AcDbEntity
  8
0
100
AcDbLine
 62
7
  6
CONTINUOUS
 10
137.7852187827
 20
261.4811195598
 11
137.6498026326
 21
260.9279281364
  0
LINE
  5
2DE
100
AcDbEntity
  8
0
100
AcDbLine
 62
7
  6
CONTINUOUS
 10
105.3972375256
 20
252.2898111064
 11
104.8166012722
 21
252.2959231002
  0
LINE
  5
2DF
100
AcDbEntity
  8
0
100
AcDbLine
 62
7
  6
CONTINUOUS
 10
99.3912176938
 20
252.933604149
 11
99.7783083012
 21
252.9295293495
  0
LINE
  5
2E0
100
AcDbEntity
  8
0
100
AcDbLine
 62
7
  6
CONTINUOUS
 10
102.7690946748
 20
253.7689054378
 11
103.5432758895
 21
253.7607558389
  0
LINE
  5
2E1
100
AcDbEntity
  8
0
100
AcDbLine
 62
7
  6
CONTINUOUS
 10
100.3528325609
 20
253.5040536092
 11
99.6744050242
 21
253.6079568861
  0
LINE
  5
2E2
100
AcDbEntity
  8
0
100
AcDbLine
 62
7
  6
CONTINUOUS
 10
104.4702560569
 20
257.6214771052
 11
103.7918285203
 21
257.7253803822
  0
LINE
  5
2E3
100
AcDbEntity
  8
0
100
AcDbLine
 62
7
  6
CONTINUOUS
 10
106.1408589086
 20
255.1848426377
 11
106.6257415526
 21
255.0829768975
  0
LINE
  5
2E4
100
AcDbEntity
  8
0
100
AcDbLine
 62
7
  6
CONTINUOUS
 10
104.3398678163
 20
251.6236069408
 11
105.1160873553
 21
251.4219127574
  0
LINE
  5
2E5
100
AcDbEntity
  8
0
100
AcDbLine
 62
7
  6
CONTINUOUS
 10
107.1024744606
 20
255.7552925089
 11
106.519800465
 21
255.9549496008
  0
LINE
  5
2E6
100
AcDbEntity
  8
0
100
AcDbLine
 62
7
  6
CONTINUOUS
 10
103.9935231489
 20
256.9491614938
 11
104.2848606261
 21
256.8493335642
  0
LINE
  5
2E7
100
AcDbEntity
  8
0
100
AcDbLine
 62
7
  6
CONTINUOUS
 10
104.8593848858
 20
257.423857824
 11
104.4702560569
 21
257.6214771052
  0
LINE
  5
2E8
100
AcDbEntity
  8
0
100
AcDbLine
 62
7
  6
CONTINUOUS
 10
127.6289695575
 20
260.2364387603
 11
128.1706357076
 21
259.6832472884
  0
LINE
  5
2E9
100
AcDbEntity
  8
0
100
AcDbLine
 62
7
  6
CONTINUOUS
 10
125.8685526326
 20
264.6619708256
 11
125.4623026326
 21
265.215162249
  0
LINE
  5
2EA
100
AcDbEntity
  8
0
100
AcDbLine
 62
7
  6
CONTINUOUS
 10
128.4414695575
 20
260.5130345688
 11
128.1706357076
 21
260.9279281364
  0
LINE
  5
2EB
100
AcDbEntity
  8
0
100
AcDbLine
 62
7
  6
CONTINUOUS
 10
127.3581360951
 20
260.7896302806
 11
127.6289695575
 21
260.2364387603
  0
LINE
  5
2EC
100
AcDbEntity
  8
0
100
AcDbLine
 62
7
  6
CONTINUOUS
 10
126.1393860951
 20
259.2683536724
 11
124.9206360951
 21
262.4492047445
  0
LINE
  5
2ED
100
AcDbEntity
  8
0
100
AcDbLine
 62
7
  6
CONTINUOUS
 10
124.1081359013
 20
262.1726090328
 11
125.1914691701
 21
259.2683536724
  0
LINE
  5
2EE
100
AcDbEntity
  8
0
100
AcDbLine
 62
7
  6
CONTINUOUS
 10
125.0560526326
 20
264.6619708256
 11
125.1914691701
 21
264.2470772581
  0
LINE
  5
2EF
100
AcDbEntity
  8
0
100
AcDbLine
 62
7
  6
CONTINUOUS
 10
126.0039691701
 20
264.2470772581
 11
125.8685526326
 21
264.6619708256
  0
LINE
  5
2F0
100
AcDbEntity
  8
0
100
AcDbLine
 62
7
  6
CONTINUOUS
 10
128.1706357076
 20
260.9279281364
 11
128.0352195575
 21
261.4811195598
  0
LINE
  5
2F1
100
AcDbEntity
  8
0
100
AcDbLine
 62
7
  6
CONTINUOUS
 10
143.4414672329
 20
170.0183536724
 11
143.4414672329
 21
170.8694174753
  0
LINE
  5
2F2
100
AcDbEntity
  8
0
100
AcDbLine
 62
7
  6
CONTINUOUS
 10
143.8581346943
 20
175.9758003668
 11
143.8581346943
 21
176.8268640952
  0
LINE
  5
2F3
100
AcDbEntity
  8
KONSTRUKTIONSELEMENTE
100
AcDbLine
 62
7
  6
CONTINUOUS
 10
144.7956346943
 20
163.8183536724
 11
144.7956346943
 21
121.3183536724
  0
LINE
  5
2F4
100
AcDbEntity
  8
KONSTRUKTIONSELEMENTE
100
AcDbLine
 62
7
  6
CONTINUOUS
 10
151.7956346943
 20
164.0183536724
 11
151.7956346943
 21
163.8183536724
  0
LINE
  5
2F5
100
AcDbEntity
  8
0
100
AcDbLine
 62
7
  6
CONTINUOUS
 10
157.7427603451
 20
250.2241855921
 11
158.4337526756
 21
250.9151779225
  0
LINE
  5
2F6
100
AcDbEntity
  8
0
100
AcDbLine
 62
7
  6
CONTINUOUS
 10
161.6242071887
 20
254.1056324356
 11
162.3151995191
 21
254.7966247661
  0
LINE
  5
2F7
100
AcDbEntity
  8
0
100
AcDbLine
 62
7
  6
CONTINUOUS
 10
163.1258071338
 20
248.7206133319
 11
163.8167994642
 21
249.4116056623
  0
LINE
  5
2F8
100
AcDbEntity
  8
0
100
AcDbLine
 62
7
  6
CONTINUOUS
 10
161.6527603451
 20
246.3141855921
 11
162.3437526756
 21
247.0051779225
  0
LINE
  5
2F9
100
AcDbEntity
  8
0
100
AcDbLine
 62
7
  6
CONTINUOUS
 10
165.5342071887
 20
250.1956324356
 11
166.2251995191
 21
250.8866247661
  0
LINE
  5
2FA
100
AcDbEntity
  8
0
100
AcDbLine
 62
7
  6
CONTINUOUS
 10
136.9727187827
 20
260.2364387603
 11
136.4310526326
 21
260.0981409044
  0
LINE
  5
2FB
100
AcDbEntity
  8
0
100
AcDbLine
 62
7
  6
CONTINUOUS
 10
130.4727195575
 20
260.2364387603
 11
129.9310526326
 21
260.0981409044
  0
LINE
  5
2FC
100
AcDbEntity
  8
0
100
AcDbLine
 62
7
  6
CONTINUOUS
 10
105.1160873553
 20
251.4219127574
 11
105.8882309219
 21
251.6073081625
  0
LINE
  5
2FD
100
AcDbEntity
  8
0
100
AcDbLine
 62
7
  6
CONTINUOUS
 10
136.4310526326
 20
259.2683536724
 11
137.1081364825
 21
259.4066515404
  0
LINE
  5
2FE
100
AcDbEntity
  8
0
100
AcDbLine
 62
7
  6
CONTINUOUS
 10
129.9310526326
 20
259.2683536724
 11
130.6081357076
 21
259.4066515404
  0
LINE
  5
2FF
100
AcDbEntity
  8
0
100
AcDbLine
 62
7
  6
CONTINUOUS
 10
103.6308810644
 20
254.6306918274
 11
103.1480362311
 21
254.539012401
  0
LINE
  5
300
100
AcDbEntity
  8
0
100
AcDbLine
 62
7
  6
CONTINUOUS
 10
105.6580140754
 20
255.0931632113
 11
106.1408589086
 21
255.1848426377
  0
LINE
  5
301
100
AcDbEntity
  8
0
100
AcDbLine
 62
7
  6
CONTINUOUS
 10
99.6744050242
 20
253.6079568861
 11
98.9980146134
 21
253.5183145855
  0
LINE
  5
302
100
AcDbEntity
  8
0
100
AcDbLine
 62
7
  6
CONTINUOUS
 10
103.7918285203
 20
257.7253803822
 11
103.1154386573
 21
257.6357386294
  0
LINE
  5
303
100
AcDbEntity
  8
0
100
AcDbLine
 62
7
  6
CONTINUOUS
 10
120.9935526326
 20
259.2683536724
 11
121.8060526326
 21
259.2683536724
  0
LINE
  5
304
100
AcDbEntity
  8
0
100
AcDbLine
 62
7
  6
CONTINUOUS
 10
125.1914691701
 20
259.2683536724
 11
126.1393860951
 21
259.2683536724
  0
LINE
  5
305
100
AcDbEntity
  8
0
100
AcDbLine
 62
7
  6
CONTINUOUS
 10
129.3893857076
 20
259.2683536724
 11
129.9310526326
 21
259.2683536724
  0
LINE
  5
306
100
AcDbEntity
  8
0
100
AcDbLine
 62
7
  6
CONTINUOUS
 10
133.1810526326
 20
259.2683536724
 11
136.4310526326
 21
259.2683536724
  0
LINE
  5
307
100
AcDbEntity
  8
0
100
AcDbLine
 62
7
  6
CONTINUOUS
 10
136.4310526326
 20
260.0981409044
 11
133.9935526326
 21
260.0981409044
  0
LINE
  5
308
100
AcDbEntity
  8
0
100
AcDbLine
 62
7
  6
CONTINUOUS
 10
129.9310526326
 20
260.0981409044
 11
129.3893857076
 21
260.0981409044
  0
LINE
  5
309
100
AcDbEntity
  8
0
100
AcDbLine
 62
7
  6
CONTINUOUS
 10
121.8060526326
 20
262.1726090328
 11
124.1081359013
 21
262.1726090328
  0
LINE
  5
30A
100
AcDbEntity
  8
0
100
AcDbLine
 62
7
  6
CONTINUOUS
 10
124.3789691701
 20
263.0023961679
 11
121.8060526326
 21
263.0023961679
  0
LINE
  5
30B
100
AcDbEntity
  8
0
100
AcDbLine
 62
7
  6
CONTINUOUS
 10
133.9935526326
 20
264.9385665373
 11
136.4310526326
 21
264.9385665373
  0
LINE
  5
30C
100
AcDbEntity
  8
0
100
AcDbLine
 62
7
  6
CONTINUOUS
 10
121.8060526326
 20
265.0768643932
 11
124.3789691701
 21
265.0768643932
  0
LINE
  5
30D
100
AcDbEntity
  8
0
100
AcDbLine
 62
7
  6
CONTINUOUS
 10
106.519800465
 20
255.9549496008
 11
105.7456192503
 21
255.9630991998
  0
LINE
  5
30E
100
AcDbEntity
  8
0
100
AcDbLine
 62
7
  6
CONTINUOUS
 10
103.6064330895
 20
256.9532368412
 11
103.9935231489
 21
256.9491614938
  0
LINE
  5
30F
100
AcDbEntity
  8
0
100
AcDbLine
 62
7
  6
CONTINUOUS
 10
128.7123026326
 20
259.4066515404
 11
129.3893857076
 21
259.2683536724
  0
LINE
  5
310
100
AcDbEntity
  8
0
100
AcDbLine
 62
7
  6
CONTINUOUS
 10
124.9206360951
 20
265.6300558166
 11
124.2435526326
 21
265.7683536724
  0
LINE
  5
311
100
AcDbEntity
  8
0
100
AcDbLine
 62
7
  6
CONTINUOUS
 10
129.3893857076
 20
260.0981409044
 11
128.8477195575
 21
260.2364387603
  0
LINE
  5
312
100
AcDbEntity
  8
0
100
AcDbLine
 62
7
  6
CONTINUOUS
 10
124.3789691701
 20
265.0768643932
 11
124.7852191701
 21
264.9385665373
  0
LINE
  5
313
100
AcDbEntity
  8
0
100
AcDbLine
 62
7
  6
CONTINUOUS
 10
128.1706357076
 20
259.6832472884
 11
128.7123026326
 21
259.4066515404
  0
LINE
  5
314
100
AcDbEntity
  8
0
100
AcDbLine
 62
7
  6
CONTINUOUS
 10
128.8477195575
 20
260.2364387603
 11
128.4414695575
 21
260.5130345688
  0
LINE
  5
315
100
AcDbEntity
  8
0
100
AcDbLine
 62
7
  6
CONTINUOUS
 10
136.9727187827
 20
264.8002686815
 11
137.3789687827
 21
264.5236729698
  0
LINE
  5
316
100
AcDbEntity
  8
0
100
AcDbLine
 62
7
  6
CONTINUOUS
 10
125.4623026326
 20
265.215162249
 11
124.9206360951
 21
265.6300558166
  0
LINE
  5
317
100
AcDbEntity
  8
0
100
AcDbLine
 62
7
  6
CONTINUOUS
 10
124.7852191701
 20
264.9385665373
 11
125.0560526326
 21
264.6619708256
  0
LINE
  5
318
100
AcDbEntity
  8
0
100
AcDbLine
 62
7
  6
CONTINUOUS
 10
138.1914687827
 20
264.8002686815
 11
137.6498026326
 21
265.3534601049
  0
LINE
  5
319
100
AcDbEntity
  8
0
100
AcDbLine
 62
7
  6
CONTINUOUS
 10
137.3789687827
 20
264.5236729698
 11
137.6498026326
 21
264.1087790148
  0
LINE
  5
31A
100
AcDbEntity
  8
0
100
AcDbLine
 62
7
  6
CONTINUOUS
 10
138.4623026326
 20
264.2470772581
 11
138.1914687827
 21
264.8002686815
  0
LINE
  5
31B
100
AcDbEntity
  8
0
100
AcDbLine
 62
7
  6
CONTINUOUS
 10
137.6498026326
 20
264.1087790148
 11
137.7852187827
 21
263.5555875914
  0
LINE
  5
31C
100
AcDbEntity
  8
0
100
AcDbLine
 62
7
  6
CONTINUOUS
 10
138.5977187827
 20
263.5555875914
 11
138.4623026326
 21
264.2470772581
  0
LINE
  5
31D
100
AcDbEntity
  8
0
100
AcDbLine
 62
7
  6
CONTINUOUS
 10
136.1498021557
 20
172.9970770196
 11
135.9414672329
 21
172.3587792234
  0
LINE
  5
31E
100
AcDbEntity
  8
0
100
AcDbLine
 62
7
  6
CONTINUOUS
 10
136.7748021557
 20
171.7204812781
 11
137.1914672329
 21
172.7843110875
  0
LINE
  5
31F
100
AcDbEntity
  8
0
100
AcDbLine
 62
7
  6
CONTINUOUS
 10
126.9831346943
 20
171.0821834819
 11
125.7331346943
 21
168.7417579309
  0
LINE
  5
320
100
AcDbEntity
  8
0
100
AcDbLine
 62
7
  6
CONTINUOUS
 10
126.7748009636
 20
168.7417579309
 11
128.0248009636
 21
171.0821834819
  0
LINE
  5
321
100
AcDbEntity
  8
0
100
AcDbLine
 62
7
  6
CONTINUOUS
 10
120.7331346943
 20
180.0183536724
 11
115.7331346943
 21
174.2736729102
  0
LINE
  5
322
100
AcDbEntity
  8
0
100
AcDbLine
 62
7
  6
CONTINUOUS
 10
117.191467978
 20
174.2736729102
 11
120.7331346943
 21
178.3162262158
  0
LINE
  5
323
100
AcDbEntity
  8
0
100
AcDbLine
 62
7
  6
CONTINUOUS
 10
136.4310526326
 20
265.7683536724
 11
133.1810526326
 21
265.7683536724
  0
LINE
  5
324
100
AcDbEntity
  8
0
100
AcDbLine
 62
7
  6
CONTINUOUS
 10
132.0977195575
 20
265.7683536724
 11
131.2852195575
 21
265.7683536724
  0
LINE
  5
325
100
AcDbEntity
  8
0
100
AcDbLine
 62
7
  6
CONTINUOUS
 10
128.0352195575
 20
265.7683536724
 11
127.2227191701
 21
265.7683536724
  0
LINE
  5
326
100
AcDbEntity
  8
0
100
AcDbLine
 62
7
  6
CONTINUOUS
 10
124.2435526326
 20
265.7683536724
 11
120.9935526326
 21
265.7683536724
  0
LINE
  5
327
100
AcDbEntity
  8
0
100
AcDbLine
 62
7
  6
CONTINUOUS
 10
137.1081364825
 20
265.6300558166
 11
136.4310526326
 21
265.7683536724
  0
LINE
  5
328
100
AcDbEntity
  8
0
100
AcDbLine
 62
7
  6
CONTINUOUS
 10
136.4310526326
 20
264.9385665373
 11
136.9727187827
 21
264.8002686815
  0
LINE
  5
329
100
AcDbEntity
  8
RUNDUNGEN
100
AcDbLine
 62
7
  6
CONTINUOUS
 10
131.5874744421
 20
276.0805308367
 11
168.4566805309
 21
261.9277686189
  0
LINE
  5
32A
100
AcDbEntity
  8
0
100
AcDbLine
 62
7
  6
CONTINUOUS
 10
137.6498026326
 20
265.3534601049
 11
137.1081364825
 21
265.6300558166
  0
LINE
  5
32B
100
AcDbEntity
  8
0
100
AcDbLine
 62
7
  6
CONTINUOUS
 10
161.7846206952
 20
250.0617997705
 11
163.1258071338
 21
248.7206133319
  0
LINE
  5
32C
100
AcDbEntity
  8
0
100
AcDbLine
 62
7
  6
CONTINUOUS
 10
163.8167994642
 20
249.4116056623
 11
162.4751803041
 21
250.7532248224
  0
LINE
  5
32D
100
AcDbEntity
  8
0
100
AcDbLine
 62
7
  6
CONTINUOUS
 10
135.9414672329
 20
172.3587792234
 11
135.5248009636
 21
171.7204812781
  0
LINE
  5
32E
100
AcDbEntity
  8
RUNDUNGEN
100
AcDbLine
 62
7
  6
CONTINUOUS
 10
171.2842384458
 20
259.1732836483
 11
186.1168292522
 21
223.3642417582
  0
LINE
  5
32F
100
AcDbEntity
  8
BEZUGSACHSEN
100
AcDbLine
 62
7
  6
CONTINUOUS
 10
186.1168292522
 20
223.3642417582
 11
186.4678530675
 21
222.5167953027
  0
LINE
  5
330
100
AcDbEntity
  8
BEZUGSACHSEN
100
AcDbLine
 62
7
  6
CONTINUOUS
 10
179.7956346943
 20
200.0183536724
 11
179.7956346943
 21
188.0183536724
  0
LINE
  5
331
100
AcDbEntity
  8
0
100
AcDbLine
 62
7
  6
CONTINUOUS
 10
136.1498021557
 20
170.8694174753
 11
136.7748021557
 21
171.7204812781
  0
LINE
  5
332
100
AcDbEntity
  8
0
100
AcDbLine
 62
7
  6
CONTINUOUS
 10
131.1498009636
 20
174.4864388422
 11
131.9831346943
 21
175.1247366385
  0
LINE
  5
333
100
AcDbEntity
  8
0
100
AcDbLine
 62
7
  6
CONTINUOUS
 10
131.7748009636
 20
176.1885662989
 11
130.7331346943
 21
175.5502685027
  0
LINE
  5
334
100
AcDbEntity
  8
RUNDUNGEN
100
AcDbLine
 62
7
  6
CONTINUOUS
 10
192.2956346943
 20
207.0683536724
 11
192.2956346943
 21
204.0683536724
  0
LINE
  5
335
100
AcDbEntity
  8
BEZUGSACHSEN
100
AcDbLine
 62
7
  6
CONTINUOUS
 10
186.4670612454
 20
218.6880504692
 11
182.477790001
 21
209.0683536724
  0
LINE
  5
336
100
AcDbEntity
  8
BEZUGSACHSEN
100
AcDbLine
 62
7
  6
CONTINUOUS
 10
172.1514708818
 20
184.1675502755
 11
171.0014378434
 21
181.3943697977
  0
LINE
  5
337
100
AcDbEntity
  8
0
100
AcDbLine
 62
7
  6
CONTINUOUS
 10
135.5248009636
 20
171.7204812781
 11
134.8998009636
 21
171.294949414
  0
LINE
  5
338
100
AcDbEntity
  8
0
100
AcDbLine
 62
7
  6
CONTINUOUS
 10
135.1081346943
 20
170.2311196232
 11
136.1498021557
 21
170.8694174753
  0
LINE
  5
339
100
AcDbEntity
  8
KONSTRUKTIONSELEMENTE
100
AcDbLine
 62
7
  6
CONTINUOUS
 10
144.7956346943
 20
121.3183536724
 11
142.2956346943
 21
118.8183536724
  0
LINE
  5
33A
100
AcDbEntity
  8
KONSTRUKTIONSELEMENTE
100
AcDbLine
 62
7
  6
CONTINUOUS
 10
281.7975381381
 20
118.8183536724
 11
306.7975381381
 21
118.8183536724
  0
LINE
  5
33B
100
AcDbEntity
  8
KONSTRUKTIONSELEMENTE
100
AcDbLine
 62
7
  6
CONTINUOUS
 10
279.2975381381
 20
121.3183536724
 11
309.2975381381
 21
121.3183536724
  0
LINE
  5
33C
100
AcDbEntity
  8
KONSTRUKTIONSELEMENTE
100
AcDbLine
 62
7
  6
CONTINUOUS
 10
279.2975381381
 20
121.3183536724
 11
281.7975381381
 21
118.8183536724
  0
LINE
  5
33D
100
AcDbEntity
  8
KONSTRUKTIONSELEMENTE
100
AcDbLine
 62
7
  6
CONTINUOUS
 10
272.2979226675
 20
163.8183536724
 11
316.2971536087
 21
163.8183536724
  0
LINE
  5
33E
100
AcDbEntity
  8
BEZUGSACHSEN
100
AcDbLine
 62
7
  6
CONTINUOUS
 10
261.2975381384
 20
164.0183536724
 11
327.2975381378
 21
164.0183536724
  0
LINE
  5
33F
100
AcDbEntity
  8
0
100
AcDbLine
 62
7
  6
CONTINUOUS
 10
260.2935475695
 20
168.7417579309
 11
259.8991031013
 21
168.7417579309
  0
LINE
  5
340
100
AcDbEntity
  8
0
100
AcDbLine
 62
7
  6
CONTINUOUS
 10
328.086795856
 20
168.7417579309
 11
328.6959731749
 21
168.7417579309
  0
LINE
  5
341
100
AcDbEntity
  8
0
100
AcDbLine
 62
7
  6
CONTINUOUS
 10
262.4833037253
 20
170.0183536724
 11
261.933911674
 21
170.0183536724
  0
LINE
  5
342
100
AcDbEntity
  8
0
100
AcDbLine
 62
7
  6
CONTINUOUS
 10
259.6247682577
 20
170.0183536724
 11
260.2535433816
 21
170.0183536724
  0
LINE
  5
343
100
AcDbEntity
  8
0
100
AcDbLine
 62
7
  6
CONTINUOUS
 10
327.5137897123
 20
170.0183536724
 11
328.3125397358
 21
170.0183536724
  0
LINE
  5
344
100
AcDbEntity
  8
0
100
AcDbLine
 62
7
  6
CONTINUOUS
 10
260.3344223718
 20
170.2311196232
 11
259.8180907614
 21
170.2311196232
  0
LINE
  5
345
100
AcDbEntity
  8
0
100
AcDbLine
 62
7
  6
CONTINUOUS
 10
329.0678253536
 20
170.2311196232
 11
329.0807577862
 21
170.2311196232
  0
LINE
  5
346
100
AcDbEntity
  8
0
100
AcDbLine
 62
7
  6
CONTINUOUS
 10
262.2613069994
 20
170.8694174753
 11
261.7130669265
 21
170.8694174753
  0
LINE
  5
347
100
AcDbEntity
  8
0
100
AcDbLine
 62
7
  6
CONTINUOUS
 10
260.3477958054
 20
170.8694174753
 11
259.829347728
 21
170.8694174753
  0
LINE
  5
348
100
AcDbEntity
  8
0
100
AcDbLine
 62
7
  6
CONTINUOUS
 10
329.2213872567
 20
170.8694174753
 11
329.2542215
 21
170.8694174753
  0
LINE
  5
349
100
AcDbEntity
  8
0
100
AcDbLine
 62
7
  6
CONTINUOUS
 10
261.8388675315
 20
171.0821834819
 11
261.2968911349
 21
171.0821834819
  0
LINE
  5
34A
100
AcDbEntity
  8
0
100
AcDbLine
 62
7
  6
CONTINUOUS
 10
259.5080737587
 20
171.0821834819
 11
259.396209803
 21
171.0821834819
  0
LINE
  5
34B
100
AcDbEntity
  8
0
100
AcDbLine
 62
7
  6
CONTINUOUS
 10
328.7011831873
 20
171.0821834819
 11
329.2720200952
 21
171.0821834819
  0
LINE
  5
34C
100
AcDbEntity
  8
0
100
AcDbLine
 62
7
  6
CONTINUOUS
 10
259.5578219236
 20
171.294949414
 11
259.2976893798
 21
171.294949414
  0
LINE
  5
34D
100
AcDbEntity
  8
0
100
AcDbLine
 62
7
  6
CONTINUOUS
 10
261.5287736182
 20
171.507715346
 11
260.9904785051
 21
171.507715346
  0
LINE
  5
34E
100
AcDbEntity
  8
0
100
AcDbLine
 62
7
  6
CONTINUOUS
 10
260.2624030929
 20
171.7204812781
 11
259.742667473
 21
171.7204812781
  0
LINE
  5
34F
100
AcDbEntity
  8
0
100
AcDbLine
 62
7
  6
CONTINUOUS
 10
259.5474194514
 20
171.7204812781
 11
259.1785335538
 21
171.7204812781
  0
LINE
  5
350
100
AcDbEntity
  8
0
100
AcDbLine
 62
7
  6
CONTINUOUS
 10
328.9334895788
 20
171.7204812781
 11
329.4446764652
 21
171.7204812781
  0
LINE
  5
351
100
AcDbEntity
  8
0
100
AcDbLine
 62
7
  6
CONTINUOUS
 10
261.3061279249
 20
172.1460132913
 11
260.7694409151
 21
172.1460132913
  0
LINE
  5
352
100
AcDbEntity
  8
0
100
AcDbLine
 62
7
  6
CONTINUOUS
 10
259.4298020346
 20
172.5715451555
 11
258.9838022147
 21
172.5715451555
  0
LINE
  5
353
100
AcDbEntity
  8
0
100
AcDbLine
 62
7
  6
CONTINUOUS
 10
258.9684584991
 20
172.5715451555
 11
258.9683312115
 21
172.5715451555
  0
LINE
  5
354
100
AcDbEntity
  8
0
100
AcDbLine
 62
7
  6
CONTINUOUS
 10
329.1154456937
 20
172.5715451555
 11
329.6266177771
 21
172.5715451555
  0
LINE
  5
355
100
AcDbEntity
  8
0
100
AcDbLine
 62
7
  6
CONTINUOUS
 10
260.0970783964
 20
172.7843110875
 11
259.5766104353
 21
172.7843110875
  0
LINE
  5
356
100
AcDbEntity
  8
0
100
AcDbLine
 62
7
  6
CONTINUOUS
 10
259.3563589414
 20
172.9970770196
 11
259.2660177966
 21
172.9970770196
  0
LINE
  5
357
100
AcDbEntity
  8
0
100
AcDbLine
 62
7
  6
CONTINUOUS
 10
326.7349359285
 20
172.9970770196
 11
328.7332365369
 21
172.9970770196
  0
LINE
  5
358
100
AcDbEntity
  8
0
100
AcDbLine
 62
7
  6
CONTINUOUS
 10
328.9898470858
 20
172.9970770196
 11
329.3290584796
 21
172.9970770196
  0
LINE
  5
359
100
AcDbEntity
  8
0
100
AcDbLine
 62
7
  6
CONTINUOUS
 10
259.9049442988
 20
173.6353748159
 11
259.3847557544
 21
173.6353748159
  0
LINE
  5
35A
100
AcDbEntity
  8
0
100
AcDbLine
 62
7
  6
CONTINUOUS
 10
329.6102290453
 20
174.2736729102
 11
329.2793807561
 21
174.2736729102
  0
LINE
  5
35B
100
AcDbEntity
  8
0
100
AcDbLine
 62
7
  6
CONTINUOUS
 10
329.0290388592
 20
174.2736729102
 11
328.0979381229
 21
174.2736729102
  0
LINE
  5
35C
100
AcDbEntity
  8
0
100
AcDbLine
 62
7
  6
CONTINUOUS
 10
259.0228364279
 20
174.2736729102
 11
258.9848472309
 21
174.2736729102
  0
LINE
  5
35D
100
AcDbEntity
  8
0
100
AcDbLine
 62
7
  6
CONTINUOUS
 10
327.0675953677
 20
174.2736729102
 11
327.6139214066
 21
174.2736729102
  0
LINE
  5
35E
100
AcDbEntity
  8
0
100
AcDbLine
 62
7
  6
CONTINUOUS
 10
258.5613083111
 20
174.4864388422
 11
258.9566907603
 21
174.4864388422
  0
LINE
  5
35F
100
AcDbEntity
  8
0
100
AcDbLine
 62
7
  6
CONTINUOUS
 10
329.5224740819
 20
174.4864388422
 11
330.033646042
 21
174.4864388422
  0
LINE
  5
360
100
AcDbEntity
  8
0
100
AcDbLine
 62
7
  6
CONTINUOUS
 10
259.594211329
 20
174.6992047743
 11
259.0753454406
 21
174.6992047743
  0
LINE
  5
361
100
AcDbEntity
  8
0
100
AcDbLine
 62
7
  6
CONTINUOUS
 10
258.7201522543
 20
175.1247366385
 11
258.4792412002
 21
175.1247366385
  0
LINE
  5
362
100
AcDbEntity
  8
0
100
AcDbLine
 62
7
  6
CONTINUOUS
 10
258.4824343851
 20
175.3375025706
 11
258.5851408548
 21
175.3375025706
  0
LINE
  5
363
100
AcDbEntity
  8
0
100
AcDbLine
 62
7
  6
CONTINUOUS
 10
259.3071307024
 20
175.5502685027
 11
258.7898140645
 21
175.5502685027
  0
LINE
  5
364
100
AcDbEntity
  8
0
100
AcDbLine
 62
7
  6
CONTINUOUS
 10
259.1725195451
 20
175.9758003668
 11
259.5560976751
 21
175.9758003668
  0
LINE
  5
365
100
AcDbEntity
  8
0
100
AcDbLine
 62
7
  6
CONTINUOUS
 10
259.8321258602
 20
175.9758003668
 11
261.0864171438
 21
175.9758003668
  0
LINE
  5
366
100
AcDbEntity
  8
0
100
AcDbLine
 62
7
  6
CONTINUOUS
 10
259.0273224372
 20
176.1885662989
 11
258.5119968937
 21
176.1885662989
  0
LINE
  5
367
100
AcDbEntity
  8
0
100
AcDbLine
 62
7
  6
CONTINUOUS
 10
258.8684322606
 20
176.401332231
 11
258.2540979037
 21
176.401332231
  0
LINE
  5
368
100
AcDbEntity
  8
0
100
AcDbLine
 62
7
  6
CONTINUOUS
 10
260.8669002622
 20
176.8268640952
 11
259.6250383578
 21
176.8268640952
  0
LINE
  5
369
100
AcDbEntity
  8
0
100
AcDbLine
 62
7
  6
CONTINUOUS
 10
259.3534731717
 20
176.8268640952
 11
258.9761245395
 21
176.8268640952
  0
LINE
  5
36A
100
AcDbEntity
  8
0
100
AcDbLine
 62
7
  6
CONTINUOUS
 10
259.7436541256
 20
178.5289921479
 11
258.949221453
 21
178.5289921479
  0
LINE
  5
36B
100
AcDbEntity
  8
0
100
AcDbLine
 62
7
  6
CONTINUOUS
 10
257.62063866
 20
178.954524012
 11
258.6428638211
 21
178.954524012
  0
LINE
  5
36C
100
AcDbEntity
  8
0
100
AcDbLine
 62
7
  6
CONTINUOUS
 10
257.3854628539
 20
180.0183536724
 11
257.6119781147
 21
178.9526831563
  0
LINE
  5
36D
100
AcDbEntity
  8
0
100
AcDbLine
 62
7
  6
CONTINUOUS
 10
258.3356041736
 20
175.5482902119
 11
258.5613076497
 21
174.4864388422
  0
LINE
  5
36E
100
AcDbEntity
  8
0
100
AcDbLine
 62
7
  6
CONTINUOUS
 10
258.9683308677
 20
172.5715451555
 11
259.0135555412
 21
172.3587797949
  0
LINE
  5
36F
100
AcDbEntity
  8
BEZUGSACHSEN
100
AcDbLine
 62
7
  6
CONTINUOUS
 10
257.0505781333
 20
183.9987295847
 11
257.8966331514
 21
180.0183536724
  0
LINE
  5
370
100
AcDbEntity
  8
BEZUGSACHSEN
100
AcDbLine
 62
7
  6
CONTINUOUS
 10
260.0221987681
 20
170.0183536724
 11
261.2975381381
 21
164.0183536724
  0
LINE
  5
371
100
AcDbEntity
  8
0
100
AcDbLine
 62
7
  6
CONTINUOUS
 10
258.4055674678
 20
180.0183536724
 11
257.3855055603
 21
180.0183536724
  0
LINE
  5
372
100
AcDbEntity
  8
0
100
AcDbLine
 62
7
  6
CONTINUOUS
 10
329.8312055559
 20
180.0183536724
 11
330.577331744
 21
180.0183536724
  0
LINE
  5
373
100
AcDbEntity
  8
0
100
AcDbLine
 62
7
  6
CONTINUOUS
 10
330.6983328492
 20
180.0183536724
 11
331.2095044994
 21
180.0183536724
  0
LINE
  5
374
100
AcDbEntity
  8
0
100
AcDbLine
 62
7
  6
CONTINUOUS
 10
264.7975381381
 20
204.0683536724
 11
264.7975381381
 21
207.0683536724
  0
LINE
  5
375
100
AcDbEntity
  8
KONSTRUKTIONSELEMENTE
100
AcDbLine
 62
7
  6
CONTINUOUS
 10
272.2975381381
 20
164.0183536724
 11
272.2975381381
 21
163.8183536724
  0
LINE
  5
376
100
AcDbEntity
  8
RUNDUNGEN
100
AcDbLine
 62
7
  6
CONTINUOUS
 10
321.7973240861
 20
202.0683536724
 11
307.8650498114
 21
202.0683536724
  0
LINE
  5
377
100
AcDbEntity
  8
RUNDUNGEN
100
AcDbLine
 62
7
  6
CONTINUOUS
 10
280.7282699428
 20
202.0683536724
 11
266.7977516355
 21
202.0683536724
  0
LINE
  5
378
100
AcDbEntity
  8
RUNDUNGEN
100
AcDbLine
 62
7
  6
CONTINUOUS
 10
328.3634529788
 20
189.7370174786
 11
316.8253707819
 21
193.9365359588
  0
LINE
  5
379
100
AcDbEntity
  8
BEZUGSACHSEN
100
AcDbLine
 62
7
  6
CONTINUOUS
 10
286.2981510617
 20
193.9193264455
 11
286.2981483929
 21
193.9195422144
  0
LINE
  5
37A
100
AcDbEntity
  8
KONSTRUKTIONSELEMENTE
100
AcDbLine
 62
7
  6
CONTINUOUS
 10
279.2975381381
 20
163.8183536724
 11
279.2975381381
 21
121.3183536724
  0
LINE
  5
37B
100
AcDbEntity
  8
BEZUGSACHSEN
100
AcDbLine
 62
7
  6
CONTINUOUS
 10
282.2975381381
 20
208.9717316233
 11
282.2975381381
 21
271.4126287043
  0
LINE
  5
37C
100
AcDbEntity
  8
RUNDUNGEN
100
AcDbLine
 62
7
  6
CONTINUOUS
 10
266.7977516358
 20
209.0683536724
 11
282.2975381381
 21
209.0683536724
  0
LINE
  5
37D
100
AcDbEntity
  8
RUNDUNGEN
100
AcDbLine
 62
7
  6
CONTINUOUS
 10
306.2975381381
 20
209.0683536724
 11
321.7973240865
 21
209.0683536724
  0
LINE
  5
37E
100
AcDbEntity
  8
RUNDUNGEN
100
AcDbLine
 62
7
  6
CONTINUOUS
 10
306.2975381381
 20
208.9717316233
 11
306.2975381381
 21
271.4126287043
  0
LINE
  5
37F
100
AcDbEntity
  8
0
100
AcDbLine
 62
7
  6
CONTINUOUS
 10
306.7975381381
 20
265.7683536724
 11
306.7975381381
 21
259.2683536724
  0
LINE
  5
380
100
AcDbEntity
  8
0
100
AcDbLine
 62
7
  6
CONTINUOUS
 10
306.7975381381
 20
257.7253803822
 11
306.7975381381
 21
253.7689054378
  0
LINE
  5
381
100
AcDbEntity
  8
0
100
AcDbLine
 62
7
  6
CONTINUOUS
 10
306.7975381381
 20
253.7607558389
 11
306.7975381381
 21
243.1789154473
  0
LINE
  5
382
100
AcDbEntity
  8
KONSTRUKTIONSELEMENTE
100
AcDbLine
 62
7
  6
CONTINUOUS
 10
309.2975381381
 20
163.8183536724
 11
309.2975381381
 21
121.3183536724
  0
LINE
  5
383
100
AcDbEntity
  8
KONSTRUKTIONSELEMENTE
100
AcDbLine
 62
7
  6
CONTINUOUS
 10
316.2975381381
 20
164.0183536724
 11
316.2975381381
 21
163.8183536724
  0
LINE
  5
384
100
AcDbEntity
  8
0
100
AcDbLine
 62
7
  6
CONTINUOUS
 10
306.2975381381
 20
243.1789154473
 11
306.7975381381
 21
243.1789154473
  0
LINE
  5
385
100
AcDbEntity
  8
0
100
AcDbLine
 62
7
  6
CONTINUOUS
 10
306.2975381381
 20
246.2430447868
 11
306.7975381381
 21
246.2430447868
  0
LINE
  5
386
100
AcDbEntity
  8
0
100
AcDbLine
 62
7
  6
CONTINUOUS
 10
306.2975381381
 20
246.8175690465
 11
306.7975381381
 21
246.8175690465
  0
LINE
  5
387
100
AcDbEntity
  8
0
100
AcDbLine
 62
7
  6
CONTINUOUS
 10
306.2975381381
 20
249.4986821672
 11
306.7975381381
 21
249.4986821672
  0
LINE
  5
388
100
AcDbEntity
  8
0
100
AcDbLine
 62
7
  6
CONTINUOUS
 10
306.2975381381
 20
250.0732064269
 11
306.7975381381
 21
250.0732064269
  0
LINE
  5
389
100
AcDbEntity
  8
0
100
AcDbLine
 62
7
  6
CONTINUOUS
 10
306.2975381381
 20
250.8392388645
 11
306.7975381381
 21
250.8392388645
  0
LINE
  5
38A
100
AcDbEntity
  8
0
100
AcDbLine
 62
7
  6
CONTINUOUS
 10
323.7975381381
 20
204.0683536724
 11
323.7975381381
 21
207.0683536724
  0
LINE
  5
38B
100
AcDbEntity
  8
0
100
AcDbLine
 62
7
  6
CONTINUOUS
 10
306.2975381381
 20
253.1373359034
 11
306.7975381381
 21
253.1373359034
  0
LINE
  5
38C
100
AcDbEntity
  8
0
100
AcDbLine
 62
7
  6
CONTINUOUS
 10
306.2975381381
 20
253.5183145855
 11
306.7975381381
 21
253.5183145855
  0
LINE
  5
38D
100
AcDbEntity
  8
0
100
AcDbLine
 62
7
  6
CONTINUOUS
 10
306.2975381381
 20
253.6079568861
 11
306.7975381381
 21
253.6079568861
  0
LINE
  5
38E
100
AcDbEntity
  8
0
100
AcDbLine
 62
7
  6
CONTINUOUS
 10
306.2975381381
 20
253.7607558389
 11
306.7975381381
 21
253.7607558389
  0
LINE
  5
38F
100
AcDbEntity
  8
0
100
AcDbLine
 62
7
  6
CONTINUOUS
 10
306.2975381381
 20
253.7689054378
 11
306.7975381381
 21
253.7689054378
  0
LINE
  5
390
100
AcDbEntity
  8
0
100
AcDbLine
 62
7
  6
CONTINUOUS
 10
306.2975381381
 20
254.0643160708
 11
306.7975381381
 21
254.0643160708
  0
LINE
  5
391
100
AcDbEntity
  8
0
100
AcDbLine
 62
7
  6
CONTINUOUS
 10
306.2975381381
 20
254.4554817516
 11
306.7975381381
 21
254.4554817516
  0
LINE
  5
392
100
AcDbEntity
  8
0
100
AcDbLine
 62
7
  6
CONTINUOUS
 10
306.2975381381
 20
254.9424019322
 11
306.7975381381
 21
254.9424019322
  0
LINE
  5
393
100
AcDbEntity
  8
0
100
AcDbLine
 62
7
  6
CONTINUOUS
 10
306.2975381381
 20
255.7165831468
 11
306.7975381381
 21
255.7165831468
  0
LINE
  5
394
100
AcDbEntity
  8
0
100
AcDbLine
 62
7
  6
CONTINUOUS
 10
306.2975381381
 20
256.2951816581
 11
306.7975381381
 21
256.2951816581
  0
LINE
  5
395
100
AcDbEntity
  8
0
100
AcDbLine
 62
7
  6
CONTINUOUS
 10
306.2975381381
 20
256.7759899135
 11
306.7975381381
 21
256.7759899135
  0
LINE
  5
396
100
AcDbEntity
  8
0
100
AcDbLine
 62
7
  6
CONTINUOUS
 10
306.2975381381
 20
257.2547593994
 11
306.7975381381
 21
257.2547593994
  0
LINE
  5
397
100
AcDbEntity
  8
0
100
AcDbLine
 62
7
  6
CONTINUOUS
 10
306.2975381381
 20
257.6357386294
 11
306.7975381381
 21
257.6357386294
  0
LINE
  5
398
100
AcDbEntity
  8
0
100
AcDbLine
 62
7
  6
CONTINUOUS
 10
306.2975381381
 20
257.7253803822
 11
306.7975381381
 21
257.7253803822
  0
LINE
  5
399
100
AcDbEntity
  8
0
100
AcDbLine
 62
7
  6
CONTINUOUS
 10
306.2975381381
 20
259.2683536724
 11
306.7975381381
 21
259.2683536724
  0
LINE
  5
39A
100
AcDbEntity
  8
0
100
AcDbLine
 62
7
  6
CONTINUOUS
 10
306.2975381381
 20
265.7683536724
 11
306.7975381381
 21
265.7683536724
  0
LINE
  5
39B
100
AcDbEntity
  8
0
100
AcDbLine
 62
7
  6
CONTINUOUS
 10
327.2975381381
 20
164.0183536724
 11
328.3015287067
 21
168.7417579309
  0
LINE
  5
39C
100
AcDbEntity
  8
0
100
AcDbLine
 62
7
  6
CONTINUOUS
 10
328.7990015146
 20
171.0821834819
 11
329.0703504375
 21
172.3587797949
  0
LINE
  5
39D
100
AcDbEntity
  8
0
100
AcDbLine
 62
7
  6
CONTINUOUS
 10
329.115575111
 20
172.5715451555
 11
329.206024701
 21
172.9970770196
  0
LINE
  5
39E
100
AcDbEntity
  8
0
100
AcDbLine
 62
7
  6
CONTINUOUS
 10
329.4773735341
 20
174.2736729102
 11
329.5225983291
 21
174.4864388422
  0
LINE
  5
39F
100
AcDbEntity
  8
0
100
AcDbLine
 62
7
  6
CONTINUOUS
 10
330.6984431248
 20
180.0183536724
 11
331.5444981429
 21
183.9987295847
  0
LINE
  5
3A0
100
AcDbEntity
  8
0
100
AcDbLine
 62
7
  6
CONTINUOUS
 10
331.2095044994
 20
180.0183536724
 11
330.033646042
 21
174.4864388422
  0
LINE
  5
3A1
100
AcDbEntity
  8
BEZUGSACHSEN
100
AcDbLine
 62
7
  6
CONTINUOUS
 10
260.2316232973
 20
189.7370174786
 11
271.7697054943
 21
193.9365359588
  0
LINE
  5
3A2
100
AcDbEntity
  8
RUNDUNGEN
100
AcDbLine
 62
7
  6
CONTINUOUS
 10
301.2975381381
 20
276.4126287043
 11
287.2975381381
 21
276.4126287043
  0
LINE
  5
3A3
100
AcDbEntity
  8
KONSTRUKTIONSELEMENTE
100
AcDbLine
 62
7
  6
CONTINUOUS
 10
309.2975381381
 20
121.3183536724
 11
306.7975381381
 21
118.8183536724
  0
LWPOLYLINE
  5
3A4
100
AcDbEntity
  8
RUNDUNGEN
100
AcDbPolyline
 62
7
  6
CONTINUOUS
 90
7
 70
0
 10
72.7428173647
 20
53.9755536457
 10
72.7511405678
 20
52.8623779986
 10
72.7814981787
 20
51.5743773525
 10
72.8345566086
 20
50.2750845363
 10
72.9107260919
 20
48.9669625794
 10
73.0102374619
 20
47.6524192984
 10
73.118742658
 20
46.4771622099
  0
LWPOLYLINE
  5
3A5
100
AcDbEntity
  8
BEZUGSACHSEN
100
AcDbPolyline
 62
7
  6
CONTINUOUS
 90
7
 70
0
 10
73.118742658
 20
61.4739450792
 10
73.0102374619
 20
60.2986879906
 10
72.9107260919
 20
58.9841447096
 10
72.8345566086
 20
57.6760227528
 10
72.7814981787
 20
56.3767299366
 10
72.7511405678
 20
55.0887292904
 10
72.7428173647
 20
53.9755536457
  0
LWPOLYLINE
  5
3A6
100
AcDbEntity
  8
BEZUGSACHSEN
100
AcDbPolyline
 62
7
  6
CONTINUOUS
 90
13
 70
0
 10
89.5797132456
 20
72.2202284167
 10
87.6592940029
 20
70.0899304379
 10
87.0939337449
 20
69.4723188354
 10
86.5653705196
 20
68.9055622278
 10
86.0732687701
 20
68.3912521042
 10
85.6185355129
 20
67.9313709541
 10
85.2021278649
 20
67.526883473
 10
84.8243569234
 20
67.177077209
 10
84.487186699
 20
66.8817134058
 10
84.187447917
 20
66.6352664604
 10
83.9241467093
 20
66.4338619128
 10
83.6958557421
 20
66.273052778
 10
83.5015970558
 20
66.1486452516
  0
LWPOLYLINE
  5
3A7
100
AcDbEntity
  8
BEZUGSACHSEN
100
AcDbPolyline
 62
7
  6
CONTINUOUS
 90
8
 70
0
 10
95.6358449709
 20
78.4600801038
 10
94.690701337
 20
77.5670050129
 10
93.6880099846
 20
76.583272357
 10
92.7544570865
 20
75.6350723433
 10
91.8823505054
 20
74.7233224174
 10
91.0659766909
 20
73.8495352938
 10
90.3001462673
 20
73.0150345927
 10
89.5797132456
 20
72.2202284167
  0
LINE
  5
3A8
100
AcDbEntity
  8
BEZUGSACHSEN
100
AcDbLine
 62
7
  6
CONTINUOUS
 10
83.5015970558
 20
66.1486452516
 11
83.343412979
 21
66.0580408275
  0
LWPOLYLINE
  5
3A9
100
AcDbEntity
  8
BEZUGSACHSEN
100
AcDbPolyline
 62
7
  6
CONTINUOUS
 90
3
 70
0
 10
83.343412979
 20
66.0580408275
 10
83.2229373204
 20
65.9976685537
 10
83.1709454303
 20
65.9755536445
  0
LINE
  5
3AA
100
AcDbEntity
  8
0
100
AcDbLine
 62
7
  6
CONTINUOUS
 10
91.5271621113
 20
41.9755536445
 11
91.5271621113
 21
41.4755536445
  0
LINE
  5
3AB
100
AcDbEntity
  8
0
100
AcDbLine
 62
7
  6
CONTINUOUS
 10
92.101686371
 20
41.9755536445
 11
92.101686371
 21
41.4755536445
  0
LINE
  5
3AC
100
AcDbEntity
  8
0
100
AcDbLine
 62
7
  6
CONTINUOUS
 10
94.7827994917
 20
41.9755536445
 11
94.7827994917
 21
41.4755536445
  0
LINE
  5
3AD
100
AcDbEntity
  8
0
100
AcDbLine
 62
7
  6
CONTINUOUS
 10
95.3573237514
 20
41.9755536445
 11
95.3573237514
 21
41.4755536445
  0
LINE
  5
3AE
100
AcDbEntity
  8
0
100
AcDbLine
 62
7
  6
CONTINUOUS
 10
96.123356189
 20
41.9755536445
 11
96.123356189
 21
41.4755536445
  0
LINE
  5
3AF
100
AcDbEntity
  8
0
100
AcDbLine
 62
7
  6
CONTINUOUS
 10
98.4214532279
 20
41.9755536445
 11
98.4214532279
 21
41.4755536445
  0
LINE
  5
3B0
100
AcDbEntity
  8
0
100
AcDbLine
 62
7
  6
CONTINUOUS
 10
98.9980146134
 20
41.9755536445
 11
98.9980146134
 21
41.4755536445
  0
LINE
  5
3B1
100
AcDbEntity
  8
0
100
AcDbLine
 62
7
  6
CONTINUOUS
 10
99.6744050242
 20
41.9755536445
 11
99.6744050242
 21
41.4755536445
  0
LINE
  5
3B2
100
AcDbEntity
  8
0
100
AcDbLine
 62
7
  6
CONTINUOUS
 10
100.3528325609
 20
41.9755536445
 11
100.3528325609
 21
41.4755536445
  0
LINE
  5
3B3
100
AcDbEntity
  8
0
100
AcDbLine
 62
7
  6
CONTINUOUS
 10
100.7419608419
 20
41.9755536445
 11
100.7419608419
 21
41.4755536445
  0
LINE
  5
3B4
100
AcDbEntity
  8
0
100
AcDbLine
 62
7
  6
CONTINUOUS
 10
101.1331265226
 20
41.9755536445
 11
101.1331265226
 21
41.4755536445
  0
LINE
  5
3B5
100
AcDbEntity
  8
0
100
AcDbLine
 62
7
  6
CONTINUOUS
 10
101.3307463518
 20
41.9755536445
 11
101.3307463518
 21
41.4755536445
  0
LINE
  5
3B6
100
AcDbEntity
  8
0
100
AcDbLine
 62
7
  6
CONTINUOUS
 10
101.4346496288
 20
41.9755536445
 11
101.4346496288
 21
41.4755536445
  0
LINE
  5
3B7
100
AcDbEntity
  8
0
100
AcDbLine
 62
7
  6
CONTINUOUS
 10
101.5874485815
 20
41.9755536445
 11
101.5874485815
 21
41.4755536445
  0
LINE
  5
3B8
100
AcDbEntity
  8
0
100
AcDbLine
 62
7
  6
CONTINUOUS
 10
101.774881686
 20
41.9755536445
 11
101.774881686
 21
41.4755536445
  0
LINE
  5
3B9
100
AcDbEntity
  8
0
100
AcDbLine
 62
7
  6
CONTINUOUS
 10
102.060107238
 20
41.9755536445
 11
102.060107238
 21
41.4755536445
  0
LINE
  5
3BA
100
AcDbEntity
  8
0
100
AcDbLine
 62
7
  6
CONTINUOUS
 10
102.5388767239
 20
41.9755536445
 11
102.5388767239
 21
41.4755536445
  0
LINE
  5
3BB
100
AcDbEntity
  8
0
100
AcDbLine
 62
7
  6
CONTINUOUS
 10
103.1154386573
 20
41.9755536445
 11
103.1154386573
 21
41.4755536445
  0
LINE
  5
3BC
100
AcDbEntity
  8
0
100
AcDbLine
 62
7
  6
CONTINUOUS
 10
103.7918285203
 20
41.9755536445
 11
103.7918285203
 21
41.4755536445
  0
LINE
  5
3BD
100
AcDbEntity
  8
0
100
AcDbLine
 62
7
  6
CONTINUOUS
 10
104.4702560569
 20
41.9755536445
 11
104.4702560569
 21
41.4755536445
  0
LINE
  5
3BE
100
AcDbEntity
  8
0
100
AcDbLine
 62
7
  6
CONTINUOUS
 10
104.8593848858
 20
41.9755536445
 11
104.8593848858
 21
41.4755536445
  0
LWPOLYLINE
  5
3BF
100
AcDbEntity
  8
RUNDUNGEN
100
AcDbPolyline
 62
7
  6
CONTINUOUS
 90
32
 70
0
 10
95.6358589334
 20
29.4910003239
 10
97.1044003674
 20
28.1873444182
 10
98.7460575776
 20
26.8552872789
 10
100.4460254788
 20
25.5997699136
 10
102.2051304845
 20
24.4193569962
 10
104.0231393557
 20
23.3142862474
 10
105.8998758303
 20
22.2853184405
 10
107.8354495065
 20
21.3336849447
 10
109.8297282065
 20
20.4611075509
 10
111.8843850338
 20
19.6691519803
 10
113.9942067832
 20
18.9621252076
 10
116.1565821631
 20
18.3430833504
 10
118.3633758782
 20
17.8159232698
 10
120.6073889549
 20
17.3833985417
 10
122.8811248396
 20
17.0473189398
 10
125.1770446049
 20
16.8084955323
 10
127.4865080474
 20
16.6660274657
 10
129.8028982017
 20
16.6187092991
 10
132.1192790161
 20
16.6666243586
 10
134.4286971772
 20
16.8096934013
 10
136.7245226503
 20
17.0491285758
 10
138.998119868
 20
17.385823311
 10
141.2419544017
 20
17.8189578092
 10
143.4485335195
 20
18.3467191938
 10
145.610661355
 20
18.966350423
 10
147.7202082976
 20
19.6739523371
 10
149.7745640589
 20
20.4664661846
 10
151.7685180858
 20
21.3395836747
 10
153.7037440816
 20
22.2917387117
 10
155.5801105781
 20
23.3212094711
 10
157.3977275135
 20
24.4267639128
 10
158.341897167
 20
25.0607289799
  0
LWPOLYLINE
  5
3C0
100
AcDbEntity
  8
RUNDUNGEN
100
AcDbPolyline
 62
7
  6
CONTINUOUS
 90
8
 70
0
 10
89.631906227
 20
35.6730609621
 10
90.3418048965
 20
34.8903692747
 10
91.0905125065
 20
34.0750542887
 10
91.8878438551
 20
33.221968649
 10
92.7412880654
 20
32.3296225133
 10
93.6631970292
 20
31.3926424157
 10
94.670662124
 20
30.4034004684
 10
95.6358444189
 20
29.491027697
  0
LINE
  5
3C1
100
AcDbEntity
  8
RUNDUNGEN
100
AcDbLine
 62
7
  6
CONTINUOUS
 10
87.7256691024
 20
37.7881121154
 11
89.631906227
 21
35.6730609621
  0
LINE
  5
3C2
100
AcDbEntity
  8
0
100
AcDbLine
 62
7
  6
CONTINUOUS
 10
105.1670196432
 20
41.9755536445
 11
105.1670196432
 21
41.4755536445
  0
LINE
  5
3C3
100
AcDbEntity
  8
0
100
AcDbLine
 62
7
  6
CONTINUOUS
 10
105.7456192503
 20
41.9755536445
 11
105.7456192503
 21
41.4755536445
  0
LINE
  5
3C4
100
AcDbEntity
  8
0
100
AcDbLine
 62
7
  6
CONTINUOUS
 10
106.519800465
 20
41.9755536445
 11
106.519800465
 21
41.4755536445
  0
LINE
  5
3C5
100
AcDbEntity
  8
0
100
AcDbLine
 62
7
  6
CONTINUOUS
 10
107.1024744606
 20
41.9755536445
 11
107.1024744606
 21
41.4755536445
  0
LINE
  5
3C6
100
AcDbEntity
  8
0
100
AcDbLine
 62
7
  6
CONTINUOUS
 10
107.5914312191
 20
41.9755536445
 11
107.5914312191
 21
41.4755536445
  0
LINE
  5
3C7
100
AcDbEntity
  8
0
100
AcDbLine
 62
7
  6
CONTINUOUS
 10
107.7910882425
 20
41.9755536445
 11
107.7910882425
 21
41.4755536445
  0
LINE
  5
3C8
100
AcDbEntity
  8
0
100
AcDbLine
 62
7
  6
CONTINUOUS
 10
107.7992378757
 20
41.9755536445
 11
107.7992378757
 21
41.4755536445
  0
LINE
  5
3C9
100
AcDbEntity
  8
RUNDUNGEN
100
AcDbLine
 62
7
  6
CONTINUOUS
 10
83.3373597069
 20
41.8963018516
 11
83.4939900892
 21
41.8070613204
  0
LWPOLYLINE
  5
3CA
100
AcDbEntity
  8
RUNDUNGEN
100
AcDbPolyline
 62
7
  6
CONTINUOUS
 90
12
 70
0
 10
83.4939900892
 20
41.8070613204
 10
83.6883374734
 20
41.6830993538
 10
83.9195895682
 20
41.5205899809
 10
84.1885867637
 20
41.3149370238
 10
84.4972360425
 20
41.060851596
 10
84.8452825674
 20
40.7551414462
 10
85.2348857303
 20
40.3930703492
 10
85.6629285739
 20
39.9756076611
 10
86.1275907356
 20
39.5038489283
 10
86.6272918591
 20
38.9798278203
 10
87.1596488956
 20
38.4075133956
 10
87.7256691024
 20
37.7881121154
  0
LINE
  5
3CB
100
AcDbEntity
  8
0
100
AcDbLine
 62
7
  6
CONTINUOUS
 10
120.9935526326
 20
41.9755536445
 11
120.9935526326
 21
41.4755536445
  0
LINE
  5
3CC
100
AcDbEntity
  8
0
100
AcDbLine
 62
7
  6
CONTINUOUS
 10
126.7748016789
 20
72.9755536445
 11
126.2170148535
 21
71.3805206839
  0
LINE
  5
3CD
100
AcDbEntity
  8
0
100
AcDbLine
 62
7
  6
CONTINUOUS
 10
127.0311272117
 20
71.7601041509
 11
127.0873016789
 21
71.9117239841
  0
LINE
  5
3CE
100
AcDbEntity
  8
RUNDUNGEN
100
AcDbLine
 62
7
  6
CONTINUOUS
 10
156.8237627368
 20
24.8202801079
 11
190.6085036179
 21
30.1712573838
  0
LWPOLYLINE
  5
3CF
100
AcDbEntity
  8
RUNDUNGEN
100
AcDbPolyline
 62
7
  6
CONTINUOUS
 90
3
 70
0
 10
83.1709514856
 20
41.9755536445
 10
83.2191496869
 20
41.9551798086
 10
83.3373597069
 20
41.8963018516
  0
LINE
  5
3D0
100
AcDbEntity
  8
0
100
AcDbLine
 62
7
  6
CONTINUOUS
 10
122.7123016789
 20
72.9755536445
 11
122.7123016789
 21
69.9753744924
  0
LINE
  5
3D1
100
AcDbEntity
  8
0
100
AcDbLine
 62
7
  6
CONTINUOUS
 10
123.3373016789
 20
70.226350204
 11
123.3373016789
 21
71.9117239841
  0
LINE
  5
3D2
100
AcDbEntity
  8
0
100
AcDbLine
 62
7
  6
CONTINUOUS
 10
124.2435526326
 20
41.9755536445
 11
124.2435526326
 21
41.4755536445
  0
LINE
  5
3D3
100
AcDbEntity
  8
0
100
AcDbLine
 62
7
  6
CONTINUOUS
 10
124.9206360951
 20
41.9755536445
 11
124.9206360951
 21
41.4755536445
  0
LINE
  5
3D4
100
AcDbEntity
  8
0
100
AcDbLine
 62
7
  6
CONTINUOUS
 10
125.4623026326
 20
41.9755536445
 11
125.4623026326
 21
41.4755536445
  0
LINE
  5
3D5
100
AcDbEntity
  8
0
100
AcDbLine
 62
7
  6
CONTINUOUS
 10
125.8685526326
 20
41.9755536445
 11
125.8685526326
 21
41.4755536445
  0
LINE
  5
3D6
100
AcDbEntity
  8
0
100
AcDbLine
 62
7
  6
CONTINUOUS
 10
126.0039691701
 20
41.9755536445
 11
126.0039691701
 21
41.4755536445
  0
LINE
  5
3D7
100
AcDbEntity
  8
0
100
AcDbLine
 62
7
  6
CONTINUOUS
 10
126.1393860951
 20
41.9755536445
 11
126.1393860951
 21
41.4755536445
  0
LINE
  5
3D8
100
AcDbEntity
  8
0
100
AcDbLine
 62
7
  6
CONTINUOUS
 10
127.0873016789
 20
71.9117239841
 11
127.0873016789
 21
71.7862957433
  0
LINE
  5
3D9
100
AcDbEntity
  8
0
100
AcDbLine
 62
7
  6
CONTINUOUS
 10
127.2227191701
 20
41.9755536445
 11
127.2227191701
 21
41.4755536445
  0
LINE
  5
3DA
100
AcDbEntity
  8
0
100
AcDbLine
 62
7
  6
CONTINUOUS
 10
127.7123016789
 20
72.0981196139
 11
127.7123016789
 21
72.9755536445
  0
LINE
  5
3DB
100
AcDbEntity
  8
0
100
AcDbLine
 62
7
  6
CONTINUOUS
 10
128.0352195575
 20
41.9755536445
 11
128.0352195575
 21
41.4755536445
  0
LINE
  5
3DC
100
AcDbEntity
  8
0
100
AcDbLine
 62
7
  6
CONTINUOUS
 10
128.1706357076
 20
41.9755536445
 11
128.1706357076
 21
41.4755536445
  0
LINE
  5
3DD
100
AcDbEntity
  8
0
100
AcDbLine
 62
7
  6
CONTINUOUS
 10
128.4414695575
 20
41.9755536445
 11
128.4414695575
 21
41.4755536445
  0
LINE
  5
3DE
100
AcDbEntity
  8
0
100
AcDbLine
 62
7
  6
CONTINUOUS
 10
128.8477195575
 20
41.9755536445
 11
128.8477195575
 21
41.4755536445
  0
LINE
  5
3DF
100
AcDbEntity
  8
0
100
AcDbLine
 62
7
  6
CONTINUOUS
 10
129.3893857076
 20
41.9755536445
 11
129.3893857076
 21
41.4755536445
  0
LINE
  5
3E0
100
AcDbEntity
  8
0
100
AcDbLine
 62
7
  6
CONTINUOUS
 10
129.9310526326
 20
41.9755536445
 11
129.9310526326
 21
41.4755536445
  0
LINE
  5
3E1
100
AcDbEntity
  8
0
100
AcDbLine
 62
7
  6
CONTINUOUS
 10
130.4727195575
 20
41.9755536445
 11
130.4727195575
 21
41.4755536445
  0
LINE
  5
3E2
100
AcDbEntity
  8
0
100
AcDbLine
 62
7
  6
CONTINUOUS
 10
130.8789695575
 20
41.9755536445
 11
130.8789695575
 21
41.4755536445
  0
LINE
  5
3E3
100
AcDbEntity
  8
0
100
AcDbLine
 62
7
  6
CONTINUOUS
 10
131.1498026326
 20
41.9755536445
 11
131.1498026326
 21
41.4755536445
  0
LINE
  5
3E4
100
AcDbEntity
  8
0
100
AcDbLine
 62
7
  6
CONTINUOUS
 10
131.2852195575
 20
41.9755536445
 11
131.2852195575
 21
41.4755536445
  0
LINE
  5
3E5
100
AcDbEntity
  8
0
100
AcDbLine
 62
7
  6
CONTINUOUS
 10
132.0977195575
 20
41.9755536445
 11
132.0977195575
 21
41.4755536445
  0
LINE
  5
3E6
100
AcDbEntity
  8
0
100
AcDbLine
 62
7
  6
CONTINUOUS
 10
133.1810526326
 20
41.9755536445
 11
133.1810526326
 21
41.4755536445
  0
LINE
  5
3E7
100
AcDbEntity
  8
0
100
AcDbLine
 62
7
  6
CONTINUOUS
 10
136.4310526326
 20
41.9755536445
 11
136.4310526326
 21
41.4755536445
  0
LINE
  5
3E8
100
AcDbEntity
  8
0
100
AcDbLine
 62
7
  6
CONTINUOUS
 10
137.1081364825
 20
41.9755536445
 11
137.1081364825
 21
41.4755536445
  0
LINE
  5
3E9
100
AcDbEntity
  8
0
100
AcDbLine
 62
7
  6
CONTINUOUS
 10
137.6498026326
 20
41.9755536445
 11
137.6498026326
 21
41.4755536445
  0
LINE
  5
3EA
100
AcDbEntity
  8
0
100
AcDbLine
 62
7
  6
CONTINUOUS
 10
138.1914687827
 20
41.9755536445
 11
138.1914687827
 21
41.4755536445
  0
LINE
  5
3EB
100
AcDbEntity
  8
0
100
AcDbLine
 62
7
  6
CONTINUOUS
 10
138.4623026326
 20
41.9755536445
 11
138.4623026326
 21
41.4755536445
  0
LINE
  5
3EC
100
AcDbEntity
  8
0
100
AcDbLine
 62
7
  6
CONTINUOUS
 10
138.5977187827
 20
41.9755536445
 11
138.5977187827
 21
41.4755536445
  0
LINE
  5
3ED
100
AcDbEntity
  8
RUNDUNGEN
100
AcDbLine
 62
7
  6
CONTINUOUS
 10
183.4956346943
 20
36.9755536445
 11
153.7956346943
 21
36.9755536445
  0
LINE
  5
3EE
100
AcDbEntity
  8
0
100
AcDbLine
 62
7
  6
CONTINUOUS
 10
166.2251995191
 20
41.4755536445
 11
156.5456791128
 21
41.4755536445
  0
LINE
  5
3EF
100
AcDbEntity
  8
0
100
AcDbLine
 62
7
  6
CONTINUOUS
 10
138.5977187827
 20
41.4755536445
 11
133.1810526326
 21
41.4755536445
  0
LINE
  5
3F0
100
AcDbEntity
  8
0
100
AcDbLine
 62
7
  6
CONTINUOUS
 10
132.0977195575
 20
41.4755536445
 11
127.2227191701
 21
41.4755536445
  0
LINE
  5
3F1
100
AcDbEntity
  8
0
100
AcDbLine
 62
7
  6
CONTINUOUS
 10
126.1393860951
 20
41.4755536445
 11
120.9935526326
 21
41.4755536445
  0
LINE
  5
3F2
100
AcDbEntity
  8
0
100
AcDbLine
 62
7
  6
CONTINUOUS
 10
107.7992378757
 20
41.4755536445
 11
91.5271621113
 21
41.4755536445
  0
LINE
  5
3F3
100
AcDbEntity
  8
RUNDUNGEN
100
AcDbLine
 62
7
  6
CONTINUOUS
 10
78.0938392665
 20
41.9755536445
 11
181.497431889
 21
41.9755536445
  0
LINE
  5
3F4
100
AcDbEntity
  8
0
100
AcDbLine
 62
7
  6
CONTINUOUS
 10
123.3373016789
 20
71.9117239841
 11
123.8812834384
 21
70.4434691682
  0
LINE
  5
3F5
100
AcDbEntity
  8
0
100
AcDbLine
 62
7
  6
CONTINUOUS
 10
124.4580347396
 20
70.6643510257
 11
123.6498016789
 21
72.9755536445
  0
LINE
  5
3F6
100
AcDbEntity
  8
RUNDUNGEN
100
AcDbLine
 62
7
  6
CONTINUOUS
 10
176.0996994802
 20
41.8085198839
 11
176.2558363765
 21
41.8973276253
  0
LWPOLYLINE
  5
3F7
100
AcDbEntity
  8
RUNDUNGEN
100
AcDbPolyline
 62
7
  6
CONTINUOUS
 90
3
 70
0
 10
176.2558363765
 20
41.8973276253
 10
176.373488644
 20
41.9558062871
 10
176.4203246379
 20
41.9755536445
  0
LINE
  5
3F8
100
AcDbEntity
  8
RUNDUNGEN
100
AcDbLine
 62
7
  6
CONTINUOUS
 10
190.2956346943
 20
45.2255536445
 11
187.4956346943
 21
45.2255536445
  0
LINE
  5
3F9
100
AcDbEntity
  8
0
100
AcDbLine
 62
7
  6
CONTINUOUS
 10
156.5456346943
 20
41.9755536445
 11
156.5456346943
 21
41.4755536445
  0
LINE
  5
3FA
100
AcDbEntity
  8
0
100
AcDbLine
 62
7
  6
CONTINUOUS
 10
162.3151995191
 20
41.9755536445
 11
162.3151995191
 21
41.4755536445
  0
LWPOLYLINE
  5
3FB
100
AcDbEntity
  8
RUNDUNGEN
100
AcDbPolyline
 62
7
  6
CONTINUOUS
 90
13
 70
0
 10
171.1318719617
 20
36.9755536445
 10
171.8721514023
 20
37.7953276992
 10
172.4379380292
 20
38.4143721547
 10
172.9700265695
 20
38.9862564594
 10
173.4693997516
 20
39.5097571789
 10
173.9336939163
 20
39.980938352
 10
174.3613291503
 20
40.3977814282
 10
174.7505079929
 20
40.7592276689
 10
175.0981295414
 20
41.0643355603
 10
175.4063585664
 20
41.317853351
 10
175.6749572243
 20
41.5229921791
 10
175.9057979525
 20
41.6850179506
 10
176.0996994802
 20
41.8085198839
  0
LINE
  5
3FC
100
AcDbEntity
  8
RUNDUNGEN
100
AcDbLine
 62
7
  6
CONTINUOUS
 10
187.4956346943
 20
62.7255536445
 11
190.2956346943
 21
62.7255536445
  0
LINE
  5
3FD
100
AcDbEntity
  8
BEZUGSACHSEN
100
AcDbLine
 62
7
  6
CONTINUOUS
 10
78.0938392665
 20
65.9755536445
 11
181.497431889
 21
65.9755536445
  0
LINE
  5
3FE
100
AcDbEntity
  8
0
100
AcDbLine
 62
7
  6
CONTINUOUS
 10
166.2251995191
 20
41.9755536445
 11
166.2251995191
 21
41.4755536445
  0
LINE
  5
3FF
100
AcDbEntity
  8
RUNDUNGEN
100
AcDbLine
 62
7
  6
CONTINUOUS
 10
153.7956346943
 20
70.9755536445
 11
183.4956346943
 21
70.9755536445
  0
LINE
  5
400
100
AcDbEntity
  8
0
100
AcDbLine
 62
7
  6
CONTINUOUS
 10
127.7123016789
 20
72.9755536445
 11
126.7748016789
 21
72.9755536445
  0
LINE
  5
401
100
AcDbEntity
  8
0
100
AcDbLine
 62
7
  6
CONTINUOUS
 10
123.6498016789
 20
72.9755536445
 11
122.7123016789
 21
72.9755536445
  0
LINE
  5
402
100
AcDbEntity
  8
RUNDUNGEN
100
AcDbLine
 62
7
  6
CONTINUOUS
 10
190.6085036244
 20
77.7798499042
 11
156.8237627368
 21
83.1308271812
  0
LWPOLYLINE
  5
403
100
AcDbEntity
  8
BEZUGSACHSEN
100
AcDbPolyline
 62
7
  6
CONTINUOUS
 90
3
 70
0
 10
176.4203375697
 20
65.9755536445
 10
176.3697848137
 20
65.996999444
 10
176.2498963133
 20
66.0569484
  0
LINE
  5
404
100
AcDbEntity
  8
BEZUGSACHSEN
100
AcDbLine
 62
7
  6
CONTINUOUS
 10
176.2498963133
 20
66.0569484
 11
176.0922302203
 21
66.1470962178
  0
LWPOLYLINE
  5
405
100
AcDbEntity
  8
BEZUGSACHSEN
100
AcDbPolyline
 62
7
  6
CONTINUOUS
 90
12
 70
0
 10
176.0922302203
 20
66.1470962178
 10
175.8984410367
 20
66.2710192938
 10
175.6705892548
 20
66.4313172312
 10
175.4077166215
 20
66.6321772167
 10
175.1084271428
 20
66.8780257636
 10
174.7717136467
 20
67.1727520337
 10
174.3944056821
 20
67.5218885641
 10
173.9784482436
 20
67.9257036983
 10
173.524129327
 20
68.3849465175
 10
173.0324011306
 20
68.89867308
 10
172.5041451985
 20
69.4649421495
 10
171.9390536451
 20
70.0821445119
  0
LWPOLYLINE
  5
406
100
AcDbEntity
  8
BEZUGSACHSEN
100
AcDbPolyline
 62
7
  6
CONTINUOUS
 90
7
 70
0
 10
186.8484550046
 20
53.9755536453
 10
186.8399426756
 20
55.1005501189
 10
186.8094253182
 20
56.3876490308
 10
186.7561851352
 20
57.6865749682
 10
186.679821862
 20
58.9949294393
 10
186.580054804
 20
60.3102347971
 10
186.4725328347
 20
61.4739158154
  0
LINE
  5
407
100
AcDbEntity
  8
RUNDUNGEN
100
AcDbLine
 62
7
  6
CONTINUOUS
 10
185.4956346943
 20
68.9755536445
 11
185.4956346943
 21
64.7255536445
  0
LINE
  5
408
100
AcDbEntity
  8
RUNDUNGEN
100
AcDbLine
 62
7
  6
CONTINUOUS
 10
185.4956346943
 20
43.2255536445
 11
185.4956346943
 21
38.9755536445
  0
LWPOLYLINE
  5
409
100
AcDbEntity
  8
RUNDUNGEN
100
AcDbPolyline
 62
7
  6
CONTINUOUS
 90
7
 70
0
 10
186.4725328347
 20
46.4771914736
 10
186.580054804
 20
47.6408724918
 10
186.679821862
 20
48.9561778494
 10
186.7561851352
 20
50.2645323204
 10
186.8094253182
 20
51.5634582575
 10
186.8399426755
 20
52.8505571693
 10
186.8484550046
 20
53.9755536453
  0
LWPOLYLINE
  5
40A
100
AcDbEntity
  8
BEZUGSACHSEN
100
AcDbPolyline
 62
7
  6
CONTINUOUS
 90
32
 70
0
 10
158.341897167
 20
82.8903783091
 10
157.3977275135
 20
83.5243433762
 10
155.5801105781
 20
84.629897818
 10
153.7037440816
 20
85.6593685773
 10
151.7685180858
 20
86.6115236143
 10
149.7745640589
 20
87.4846411045
 10
147.7202082976
 20
88.277154952
 10
145.610661355
 20
88.9847568661
 10
143.4485335195
 20
89.6043880952
 10
141.2419544017
 20
90.1321494799
 10
138.998119868
 20
90.565283978
 10
136.7245226503
 20
90.9019787132
 10
134.4286971772
 20
91.1414138878
 10
132.1192790161
 20
91.2844829305
 10
129.8028982017
 20
91.3323979899
 10
127.4865080474
 20
91.2850798234
 10
125.1770446049
 20
91.1426117568
 10
122.8811248396
 20
90.9037883492
 10
120.6073889549
 20
90.5677087473
 10
118.3633758782
 20
90.1351840192
 10
116.1565821631
 20
89.6080239387
 10
113.9942067832
 20
88.9889820815
 10
111.8843850338
 20
88.2819553087
 10
109.8297282065
 20
87.4899997381
 10
107.8354495065
 20
86.6174223444
 10
105.8998758303
 20
85.6657888485
 10
104.0231393557
 20
84.6368210417
 10
102.2051304845
 20
83.5317502928
 10
100.4460254788
 20
82.3513373755
 10
98.7460575776
 20
81.0958200102
 10
97.1044003674
 20
79.7637628709
 10
95.6358589334
 20
78.4601069652
  0
LINE
  5
40B
100
AcDbEntity
  8
BEZUGSACHSEN
100
AcDbLine
 62
7
  6
CONTINUOUS
 10
171.9390536451
 20
70.0821445119
 11
171.131935362
 21
70.9755536445
  0
LINE
  5
40C
100
AcDbEntity
  8
RUNDUNGEN
100
AcDbLine
 62
7
  6
CONTINUOUS
 10
192.2956346943
 20
32.1466340661
 11
192.2956346943
 21
43.2255536445
  0
LINE
  5
40D
100
AcDbEntity
  8
RUNDUNGEN
100
AcDbLine
 62
7
  6
CONTINUOUS
 10
192.2956346943
 20
64.7255536445
 11
192.2956346943
 21
75.804473223
  0
ARC
  5
40E
100
AcDbEntity
  8
BEZUGSACHSEN
100
AcDbCircle
 62
7
  6
CONTINUOUS
 10
74.2956346943
 20
164.0183536724
 40
22.5
100
AcDbArc
 50
0.0145306444
 51
50.5579367954
  0
ARC
  5
40F
100
AcDbEntity
  8
BEZUGSACHSEN
100
AcDbCircle
 62
7
  6
CONTINUOUS
 10
77.0134423284
 20
201.4780240821
 40
3.0000001343
100
AcDbArc
 50
343.0262170109
 51
22.5236942909
  0
ARC
  5
410
100
AcDbEntity
  8
BEZUGSACHSEN
100
AcDbCircle
 62
7
  6
CONTINUOUS
 10
84.6686358564
 20
183.0183551637
 40
2.9999995933
100
AcDbArc
 50
22.5236785986
 51
90.0000163054
  0
ARC
  5
411
100
AcDbEntity
  8
RUNDUNGEN
100
AcDbCircle
 62
7
  6
CONTINUOUS
 10
114.2956346943
 20
204.0683536724
 40
2.0
100
AcDbArc
 50
180.0
 51
270.0
  0
ARC
  5
412
100
AcDbEntity
  8
RUNDUNGEN
100
AcDbCircle
 62
7
  6
CONTINUOUS
 10
114.2956346943
 20
207.0683536724
 40
2.0
100
AcDbArc
 50
90.0
 51
180.0
  0
ARC
  5
413
100
AcDbEntity
  8
BEZUGSACHSEN
100
AcDbCircle
 62
7
  6
CONTINUOUS
 10
81.7956346943
 20
200.0183536724
 40
2.0
100
AcDbArc
 50
163.0262202659
 51
180.0
  0
ARC
  5
414
100
AcDbEntity
  8
RUNDUNGEN
100
AcDbCircle
 62
7
  6
CONTINUOUS
 10
81.7956346943
 20
200.0183536724
 40
2.0
100
AcDbArc
 50
163.0262202659
 51
180.0
  0
ARC
  5
415
100
AcDbEntity
  8
BEZUGSACHSEN
100
AcDbCircle
 62
7
  6
CONTINUOUS
 10
81.7956346943
 20
188.0183536724
 40
2.0
100
AcDbArc
 50
180.0
 51
270.0
  0
ARC
  5
416
100
AcDbEntity
  8
0
100
AcDbCircle
 62
7
  6
CONTINUOUS
 10
129.7956346943
 20
220.5183536724
 40
30.0
100
AcDbArc
 50
337.8234335984
 51
341.8158316324
  0
ARC
  5
417
100
AcDbEntity
  8
0
100
AcDbCircle
 62
7
  6
CONTINUOUS
 10
129.7956346943
 20
220.5183536724
 40
30.0
100
AcDbArc
 50
198.1841683676
 51
202.1765674265
  0
ARC
  5
418
100
AcDbEntity
  8
RUNDUNGEN
100
AcDbCircle
 62
7
  6
CONTINUOUS
 10
129.7956346943
 20
220.5183536724
 40
30.0
100
AcDbArc
 50
341.8158316324
 51
198.1841683676
  0
ARC
  5
419
100
AcDbEntity
  8
BEZUGSACHSEN
100
AcDbCircle
 62
7
  6
CONTINUOUS
 10
129.7956346943
 20
271.4126287043
 40
5.0
100
AcDbArc
 50
69.0
 51
111.0
  0
ARC
  5
41A
100
AcDbEntity
  8
RUNDUNGEN
100
AcDbCircle
 62
7
  6
CONTINUOUS
 10
129.7956346943
 20
271.4126287043
 40
5.0
100
AcDbArc
 50
69.0
 51
111.0
  0
ARC
  5
41B
100
AcDbEntity
  8
RUNDUNGEN
100
AcDbCircle
 62
7
  6
CONTINUOUS
 10
92.9264286055
 20
257.2598664864
 40
5.0
100
AcDbArc
 50
111.0
 51
157.5
  0
ARC
  5
41C
100
AcDbEntity
  8
BEZUGSACHSEN
100
AcDbCircle
 62
7
  6
CONTINUOUS
 10
77.7428170038
 20
220.6033854319
 40
5.0
100
AcDbArc
 50
157.5000904318
 51
202.5237625788
  0
ARC
  5
41D
100
AcDbEntity
  8
BEZUGSACHSEN
100
AcDbCircle
 62
7
  6
CONTINUOUS
 10
185.2956346943
 20
164.0183536724
 40
22.5
100
AcDbArc
 50
129.4420632046
 51
179.9854693595
  0
ARC
  5
41E
100
AcDbEntity
  8
BEZUGSACHSEN
100
AcDbCircle
 62
7
  6
CONTINUOUS
 10
182.5778270853
 20
201.4780241359
 40
3.000000169
100
AcDbArc
 50
168.6438068855
 51
196.9737838313
  0
ARC
  5
41F
100
AcDbEntity
  8
BEZUGSACHSEN
100
AcDbCircle
 62
7
  6
CONTINUOUS
 10
174.9226337787
 20
183.0183547472
 40
2.9999997069
100
AcDbArc
 50
89.9999883995
 51
157.4763158572
  0
ARC
  5
420
100
AcDbEntity
  8
RUNDUNGEN
100
AcDbCircle
 62
7
  6
CONTINUOUS
 10
190.2956346943
 20
204.0683536724
 40
2.0
100
AcDbArc
 50
270.0
 51
360.0
  0
ARC
  5
421
100
AcDbEntity
  8
RUNDUNGEN
100
AcDbCircle
 62
7
  6
CONTINUOUS
 10
190.2956346943
 20
207.0683536724
 40
2.0
100
AcDbArc
 50
0.0
 51
90.0
  0
ARC
  5
422
100
AcDbEntity
  8
BEZUGSACHSEN
100
AcDbCircle
 62
7
  6
CONTINUOUS
 10
177.7956346943
 20
200.0183536724
 40
2.0
100
AcDbArc
 50
0.0
 51
16.9737797341
  0
ARC
  5
423
100
AcDbEntity
  8
BEZUGSACHSEN
100
AcDbCircle
 62
7
  6
CONTINUOUS
 10
177.7956346943
 20
188.0183536724
 40
2.0
100
AcDbArc
 50
270.0
 51
360.0
  0
ARC
  5
424
100
AcDbEntity
  8
RUNDUNGEN
100
AcDbCircle
 62
7
  6
CONTINUOUS
 10
177.7956346943
 20
200.0183536724
 40
2.0
100
AcDbArc
 50
0.0
 51
16.9737797341
  0
ARC
  5
425
100
AcDbEntity
  8
BEZUGSACHSEN
100
AcDbCircle
 62
7
  6
CONTINUOUS
 10
166.6648407832
 20
257.2598664864
 40
5.0
100
AcDbArc
 50
22.4999999982
 51
69.0000000021
  0
ARC
  5
426
100
AcDbEntity
  8
BEZUGSACHSEN
100
AcDbCircle
 62
7
  6
CONTINUOUS
 10
181.8484551215
 20
220.603378825
 40
5.0
100
AcDbArc
 50
337.476295342
 51
22.4999915146
  0
ARC
  5
427
100
AcDbEntity
  8
RUNDUNGEN
100
AcDbCircle
 62
7
  6
CONTINUOUS
 10
166.6648407832
 20
257.2598664864
 40
5.0
100
AcDbArc
 50
22.5
 51
69.0
  0
ARC
  5
428
100
AcDbEntity
  8
0
100
AcDbCircle
 62
7
  6
CONTINUOUS
 10
163.7056346943
 20
248.8337504169
 40
3.25
100
AcDbArc
 50
39.1722311796
 51
230.8277688204
  0
ARC
  5
429
100
AcDbEntity
  8
0
100
AcDbCircle
 62
7
  6
CONTINUOUS
 10
159.7956346943
 20
252.7437504169
 40
3.25
100
AcDbArc
 50
39.1722311796
 51
230.8277688204
  0
ARC
  5
42A
100
AcDbEntity
  8
0
100
AcDbCircle
 62
7
  6
CONTINUOUS
 10
163.7056346943
 20
248.8337504169
 40
2.28
100
AcDbArc
 50
147.4103810592
 51
233.3220405992
  0
ARC
  5
42B
100
AcDbEntity
  8
0
100
AcDbCircle
 62
7
  6
CONTINUOUS
 10
163.7056346943
 20
248.8337504169
 40
2.28
100
AcDbArc
 50
36.6779594008
 51
122.6613798279
  0
ARC
  5
42C
100
AcDbEntity
  8
0
100
AcDbCircle
 62
7
  6
CONTINUOUS
 10
159.7956346943
 20
252.7437504169
 40
2.28
100
AcDbArc
 50
36.6779594008
 51
233.3220405992
  0
ARC
  5
42D
100
AcDbEntity
  8
0
100
AcDbCircle
 62
7
  6
CONTINUOUS
 10
148.6009679193
 20
210.8252274221
 40
185.023317697
100
AcDbArc
 50
347.798501045
 51
348.0006531781
  0
ARC
  5
42E
100
AcDbEntity
  8
0
100
AcDbCircle
 62
7
  6
CONTINUOUS
 10
204.4352144371
 20
200.5669132504
 40
128.2714959497
100
AcDbArc
 50
345.6344317986
 51
346.7050320422
  0
ARC
  5
42F
100
AcDbEntity
  8
0
100
AcDbCircle
 62
7
  6
CONTINUOUS
 10
210.0427320859
 20
200.9598177298
 40
122.3621716301
100
AcDbArc
 50
345.3390529977
 51
345.8669879058
  0
ARC
  5
430
100
AcDbEntity
  8
0
100
AcDbCircle
 62
7
  6
CONTINUOUS
 10
212.2151017062
 20
200.4559399226
 40
120.6295883165
100
AcDbArc
 50
344.7692433376
 51
345.9065730937
  0
ARC
  5
431
100
AcDbEntity
  8
0
100
AcDbCircle
 62
7
  6
CONTINUOUS
 10
216.8030278652
 20
199.1895236207
 40
115.3739288303
100
AcDbArc
 50
344.6980974892
 51
345.3398638878
  0
ARC
  5
432
100
AcDbEntity
  8
0
100
AcDbCircle
 62
7
  6
CONTINUOUS
 10
251.1175629737
 20
188.8004778523
 40
80.167717885
100
AcDbArc
 50
347.2819407013
 51
347.6986564938
  0
ARC
  5
433
100
AcDbEntity
  8
0
100
AcDbCircle
 62
7
  6
CONTINUOUS
 10
286.5396597095
 20
179.3182976475
 40
28.3720468217
100
AcDbArc
 50
188.4998069936
 51
189.805465506
  0
ARC
  5
434
100
AcDbEntity
  8
0
100
AcDbCircle
 62
7
  6
CONTINUOUS
 10
279.5232728167
 20
184.5295350384
 40
22.6502152991
100
AcDbArc
 50
215.0932815013
 51
216.4197579631
  0
ARC
  5
435
100
AcDbEntity
  8
0
100
AcDbCircle
 62
7
  6
CONTINUOUS
 10
279.8077529703
 20
184.5022356258
 40
22.4271853664
100
AcDbArc
 50
215.4090082515
 51
216.7541942402
  0
ARC
  5
436
100
AcDbEntity
  8
0
100
AcDbCircle
 62
7
  6
CONTINUOUS
 10
279.240300549
 20
183.1255483855
 40
22.0606163238
100
AcDbArc
 50
213.7497162463
 51
215.08950129
  0
ARC
  5
437
100
AcDbEntity
  8
0
100
AcDbCircle
 62
7
  6
CONTINUOUS
 10
278.6683058792
 20
182.894764555
 40
21.4079930602
100
AcDbArc
 50
201.2814674479
 51
202.5089097057
  0
ARC
  5
438
100
AcDbEntity
  8
0
100
AcDbCircle
 62
7
  6
CONTINUOUS
 10
280.8608183088
 20
172.0286115547
 40
21.3156260786
100
AcDbArc
 50
180.8282740204
 51
181.9724519583
  0
ARC
  5
439
100
AcDbEntity
  8
0
100
AcDbCircle
 62
7
  6
CONTINUOUS
 10
278.7807984175
 20
176.9799847648
 40
20.295594712
100
AcDbArc
 50
195.019340189
 51
196.2668767574
  0
ARC
  5
43A
100
AcDbEntity
  8
0
100
AcDbCircle
 62
7
  6
CONTINUOUS
 10
275.3961686048
 20
183.157742152
 40
18.2659428019
100
AcDbArc
 50
202.4290658722
 51
204.6128083602
  0
ARC
  5
43B
100
AcDbEntity
  8
0
100
AcDbCircle
 62
7
  6
CONTINUOUS
 10
276.3070429881
 20
178.762154401
 40
18.2470377273
100
AcDbArc
 50
188.1081131744
 51
190.1381562464
  0
ARC
  5
43C
100
AcDbEntity
  8
0
100
AcDbCircle
 62
7
  6
CONTINUOUS
 10
275.6946009938
 20
183.1145217221
 40
18.0490196221
100
AcDbArc
 50
203.3058324921
 51
204.777461932
  0
ARC
  5
43D
100
AcDbEntity
  8
0
100
AcDbCircle
 62
7
  6
CONTINUOUS
 10
275.6822231749
 20
183.1091073672
 40
18.0355096277
100
AcDbArc
 50
202.5641424855
 51
203.3055928677
  0
ARC
  5
43E
100
AcDbEntity
  8
0
100
AcDbCircle
 62
7
  6
CONTINUOUS
 10
276.5627374349
 20
170.2550606493
 40
16.7446637886
100
AcDbArc
 50
177.8973626577
 51
180.0819198427
  0
ARC
  5
43F
100
AcDbEntity
  8
0
100
AcDbCircle
 62
7
  6
CONTINUOUS
 10
276.8502278384
 20
170.2043742271
 40
16.5158271221
100
AcDbArc
 50
177.6922453971
 51
179.9072163343
  0
ARC
  5
440
100
AcDbEntity
  8
0
100
AcDbCircle
 62
7
  6
CONTINUOUS
 10
275.1808502031
 20
174.8313727294
 40
16.32796817
100
AcDbArc
 50
194.042903604
 51
196.3641223539
  0
ARC
  5
441
100
AcDbEntity
  8
0
100
AcDbCircle
 62
7
  6
CONTINUOUS
 10
313.4142260727
 20
174.8313727295
 40
16.3279681704
100
AcDbArc
 50
343.6358776462
 51
345.957096396
  0
ARC
  5
442
100
AcDbEntity
  8
0
100
AcDbCircle
 62
7
  6
CONTINUOUS
 10
267.1016952899
 20
182.6387217575
 40
13.6374366397
100
AcDbArc
 50
245.4803827184
 51
247.7319000094
  0
ARC
  5
443
100
AcDbEntity
  8
0
100
AcDbCircle
 62
7
  6
CONTINUOUS
 10
268.1828775605
 20
183.1522412105
 40
13.6357162196
100
AcDbArc
 50
242.2736301361
 51
244.2612036715
  0
ARC
  5
444
100
AcDbEntity
  8
0
100
AcDbCircle
 62
7
  6
CONTINUOUS
 10
267.624529995
 20
182.9457998597
 40
13.4456092129
100
AcDbArc
 50
241.9260963376
 51
243.91796902
  0
ARC
  5
445
100
AcDbEntity
  8
0
100
AcDbCircle
 62
7
  6
CONTINUOUS
 10
269.4426926708
 20
180.0016090695
 40
12.6282241026
100
AcDbArc
 50
229.1876438568
 51
230.6875507571
  0
ARC
  5
446
100
AcDbEntity
  8
BEZUGSACHSEN
100
AcDbCircle
 62
7
  6
CONTINUOUS
 10
261.9408339158
 20
185.0382304054
 40
5.0
100
AcDbArc
 50
110.0
 51
192.0005028743
  0
ARC
  5
447
100
AcDbEntity
  8
0
100
AcDbCircle
 62
7
  6
CONTINUOUS
 10
262.3722364089
 20
177.591398935
 40
4.4070558831
100
AcDbArc
 50
210.7590644149
 51
214.0355728653
  0
ARC
  5
448
100
AcDbEntity
  8
0
100
AcDbCircle
 62
7
  6
CONTINUOUS
 10
262.4974822737
 20
172.6474081436
 40
3.4738766788
100
AcDbArc
 50
202.9123566813
 51
206.7802613003
  0
ARC
  5
449
100
AcDbEntity
  8
0
100
AcDbCircle
 62
7
  6
CONTINUOUS
 10
261.4282714928
 20
175.1868846052
 40
2.9496850741
100
AcDbArc
 50
177.0730677707
 51
181.2072745429
  0
ARC
  5
44A
100
AcDbEntity
  8
0
100
AcDbCircle
 62
7
  6
CONTINUOUS
 10
262.396253099
 20
170.5190787119
 40
2.9425612795
100
AcDbArc
 50
164.7119486222
 51
168.9675148748
  0
ARC
  5
44B
100
AcDbEntity
  8
0
100
AcDbCircle
 62
7
  6
CONTINUOUS
 10
260.1710335045
 20
176.1893085852
 40
1.9286254493
100
AcDbArc
 50
173.6884251928
 51
180.0220519085
  0
ARC
  5
44C
100
AcDbEntity
  8
BEZUGSACHSEN
100
AcDbCircle
 62
7
  6
CONTINUOUS
 10
266.2975381381
 20
208.9716742838
 40
16.0
100
AcDbArc
 50
289.9994095659
 51
0.0002053317
  0
ARC
  5
44D
100
AcDbEntity
  8
BEZUGSACHSEN
100
AcDbCircle
 62
7
  6
CONTINUOUS
 10
294.2975381381
 20
194.0183536724
 40
8.0
100
AcDbArc
 50
180.7083999235
 51
359.2916000765
  0
ARC
  5
44E
100
AcDbEntity
  8
RUNDUNGEN
100
AcDbCircle
 62
7
  6
CONTINUOUS
 10
266.7975381381
 20
204.0683536724
 40
2.0
100
AcDbArc
 50
180.0
 51
270.0
  0
ARC
  5
44F
100
AcDbEntity
  8
RUNDUNGEN
100
AcDbCircle
 62
7
  6
CONTINUOUS
 10
266.7975381381
 20
207.0683536724
 40
2.0
100
AcDbArc
 50
90.0
 51
180.0
  0
ARC
  5
450
100
AcDbEntity
  8
BEZUGSACHSEN
100
AcDbCircle
 62
7
  6
CONTINUOUS
 10
287.2975381381
 20
271.4126287043
 40
5.0
100
AcDbArc
 50
90.0
 51
180.0
  0
ARC
  5
451
100
AcDbEntity
  8
RUNDUNGEN
100
AcDbCircle
 62
7
  6
CONTINUOUS
 10
301.2975381381
 20
271.4126287043
 40
5.0
100
AcDbArc
 50
0.0
 51
90.0
  0
ARC
  5
452
100
AcDbEntity
  8
0
100
AcDbCircle
 62
7
  6
CONTINUOUS
 10
439.9941083406
 20
210.8252274186
 40
185.0233176804
100
AcDbArc
 50
191.9993468219
 51
192.201498955
  0
ARC
  5
453
100
AcDbEntity
  8
0
100
AcDbCircle
 62
7
  6
CONTINUOUS
 10
423.7663454084
 20
209.8275151622
 40
168.9416876989
100
AcDbArc
 50
192.7399069069
 51
193.0360007053
  0
ARC
  5
454
100
AcDbEntity
  8
0
100
AcDbCircle
 62
7
  6
CONTINUOUS
 10
400.7271567517
 20
189.9237071197
 40
142.3484304629
100
AcDbArc
 50
187.0880149423
 51
187.346984466
  0
ARC
  5
455
100
AcDbEntity
  8
0
100
AcDbCircle
 62
7
  6
CONTINUOUS
 10
380.739232156
 20
199.7081639458
 40
124.7447597754
100
AcDbArc
 50
193.7862309327
 51
194.3732783145
  0
ARC
  5
456
100
AcDbEntity
  8
0
100
AcDbCircle
 62
7
  6
CONTINUOUS
 10
367.1025851034
 20
182.2250679792
 40
107.8726019681
100
AcDbArc
 50
185.5882938362
 51
186.0426701272
  0
ARC
  5
457
100
AcDbEntity
  8
0
100
AcDbCircle
 62
7
  6
CONTINUOUS
 10
366.3985837121
 20
181.9399919261
 40
106.6270473862
100
AcDbArc
 50
185.4998710082
 51
185.9594854968
  0
ARC
  5
458
100
AcDbEntity
  8
0
100
AcDbCircle
 62
7
  6
CONTINUOUS
 10
350.7157226155
 20
205.4346529217
 40
96.2396343678
100
AcDbArc
 50
200.5065730398
 51
201.0484954691
  0
ARC
  5
459
100
AcDbEntity
  8
0
100
AcDbCircle
 62
7
  6
CONTINUOUS
 10
337.4213375859
 20
198.7639662592
 40
82.1346420401
100
AcDbArc
 50
197.0371448654
 51
197.5034349175
  0
ARC
  5
45A
100
AcDbEntity
  8
0
100
AcDbCircle
 62
7
  6
CONTINUOUS
 10
337.1702933874
 20
188.7326087756
 40
79.8530918354
100
AcDbArc
 50
192.3007288641
 51
192.8229344936
  0
ARC
  5
45B
100
AcDbEntity
  8
0
100
AcDbCircle
 62
7
  6
CONTINUOUS
 10
322.1534297211
 20
196.3352943029
 40
66.6855688031
100
AcDbArc
 50
198.1609272186
 51
198.9322174399
  0
ARC
  5
45C
100
AcDbEntity
  8
0
100
AcDbCircle
 62
7
  6
CONTINUOUS
 10
321.6301392065
 20
196.0991009486
 40
65.6232573398
100
AcDbArc
 50
198.2481644291
 51
199.0323718195
  0
ARC
  5
45D
100
AcDbEntity
  8
RUNDUNGEN
100
AcDbCircle
 62
7
  6
CONTINUOUS
 10
322.2975381381
 20
208.9716742838
 40
16.0
100
AcDbArc
 50
179.9997946683
 51
250.0005904341
  0
ARC
  5
45E
100
AcDbEntity
  8
RUNDUNGEN
100
AcDbCircle
 62
7
  6
CONTINUOUS
 10
326.6542423604
 20
185.0382304054
 40
5.0
100
AcDbArc
 50
347.9994971257
 51
70.0
  0
ARC
  5
45F
100
AcDbEntity
  8
0
100
AcDbCircle
 62
7
  6
CONTINUOUS
 10
327.062956699
 20
171.1473644192
 40
2.2160834266
100
AcDbArc
 50
333.959844436
 51
335.5781116266
  0
ARC
  5
460
100
AcDbEntity
  8
RUNDUNGEN
100
AcDbCircle
 62
7
  6
CONTINUOUS
 10
321.7975381381
 20
204.0683536724
 40
2.0
100
AcDbArc
 50
270.0
 51
360.0
  0
ARC
  5
461
100
AcDbEntity
  8
RUNDUNGEN
100
AcDbCircle
 62
7
  6
CONTINUOUS
 10
321.7975381381
 20
207.0683536724
 40
2.0
100
AcDbArc
 50
0.0
 51
90.0
  0
ARC
  5
462
100
AcDbEntity
  8
0
100
AcDbCircle
 62
7
  6
CONTINUOUS
 10
488.8278173211
 20
235.7116468788
 40
237.8664623984
100
AcDbArc
 50
195.0215390541
 51
195.1807876158
  0
ARC
  5
463
100
AcDbEntity
  8
0
100
AcDbCircle
 62
7
  6
CONTINUOUS
 10
423.4518707376
 20
221.9304915247
 40
171.0275899287
100
AcDbArc
 50
196.031261704
 51
196.4024228173
  0
ARC
  5
464
100
AcDbEntity
  8
0
100
AcDbCircle
 62
7
  6
CONTINUOUS
 10
420.7685521648
 20
221.1991520675
 40
167.748064794
100
AcDbArc
 50
196.093228117
 51
196.4717719828
  0
ARC
  5
465
100
AcDbEntity
  8
0
100
AcDbCircle
 62
7
  6
CONTINUOUS
 10
408.0813236645
 20
222.8015462503
 40
155.7779631994
100
AcDbArc
 50
198.9763463582
 51
199.2247932479
  0
ARC
  5
466
100
AcDbEntity
  8
0
100
AcDbCircle
 62
7
  6
CONTINUOUS
 10
404.8955273652
 20
221.8736740641
 40
151.9564275625
100
AcDbArc
 50
199.1019144355
 51
199.3568085551
  0
ARC
  5
467
100
AcDbEntity
  8
0
100
AcDbCircle
 62
7
  6
CONTINUOUS
 10
2324.74561983
 20
668.0256942422
 40
2122.998083014
100
AcDbArc
 50
193.4013743864
 51
193.5194613083
  0
ARC
  5
468
100
AcDbEntity
  8
0
100
AcDbCircle
 62
7
  6
CONTINUOUS
 10
1958.0834921714
 20
589.581994943
 40
1747.8923843789
100
AcDbArc
 50
193.6878068259
 51
193.8170521891
  0
ARC
  5
469
100
AcDbEntity
  8
0
100
AcDbCircle
 62
7
  6
CONTINUOUS
 10
1873.099724407
 20
570.0074541475
 40
1660.172377731
100
AcDbArc
 50
193.7312706301
 51
193.8659241954
  0
ARC
  5
46A
100
AcDbEntity
  8
RUNDUNGEN
100
AcDbCircle
 62
7
  6
CONTINUOUS
 10
114.7956346943
 20
11.019180427
 40
28.0
100
AcDbArc
 50
47.7563277221
 51
70.7512329275
  0
ARC
  5
46B
100
AcDbEntity
  8
RUNDUNGEN
100
AcDbCircle
 62
7
  6
CONTINUOUS
 10
78.0938675852
 20
46.9755831279
 40
5.0000294835
100
AcDbArc
 50
185.7209696525
 51
269.9995705839
  0
ARC
  5
46C
100
AcDbEntity
  8
BEZUGSACHSEN
100
AcDbCircle
 62
7
  6
CONTINUOUS
 10
78.0938675852
 20
60.9755241611
 40
5.0000294835
100
AcDbArc
 50
90.0004294161
 51
174.2790303475
  0
ARC
  5
46D
100
AcDbEntity
  8
0
100
AcDbCircle
 62
7
  6
CONTINUOUS
 10
129.7956346943
 20
53.9755536445
 40
28.25
100
AcDbArc
 50
323.2762661217
 51
334.8657049324
  0
ARC
  5
46E
100
AcDbEntity
  8
0
100
AcDbCircle
 62
7
  6
CONTINUOUS
 10
129.7956346943
 20
53.9755536445
 40
28.25
100
AcDbArc
 50
206.2659450483
 51
290.5921334594
  0
ARC
  5
46F
100
AcDbEntity
  8
0
100
AcDbCircle
 62
7
  6
CONTINUOUS
 10
129.7956346943
 20
53.9755536445
 40
28.25
100
AcDbArc
 50
25.1343102986
 51
36.7237346537
  0
ARC
  5
470
100
AcDbEntity
  8
0
100
AcDbCircle
 62
7
  6
CONTINUOUS
 10
129.7956346943
 20
53.9755536445
 40
28.25
100
AcDbArc
 50
69.4078633634
 51
154.8657150149
  0
ARC
  5
471
100
AcDbEntity
  8
RUNDUNGEN
100
AcDbCircle
 62
7
  6
CONTINUOUS
 10
129.7956346943
 20
53.9755536445
 40
28.0
100
AcDbArc
 50
25.3886058145
 51
36.9935054685
  0
ARC
  5
472
100
AcDbEntity
  8
RUNDUNGEN
100
AcDbCircle
 62
7
  6
CONTINUOUS
 10
129.7956346943
 20
53.9755536445
 40
28.0
100
AcDbArc
 50
69.8841188993
 51
154.6113941857
  0
ARC
  5
473
100
AcDbEntity
  8
RUNDUNGEN
100
AcDbCircle
 62
7
  6
CONTINUOUS
 10
129.7956346943
 20
53.9755536445
 40
28.0
100
AcDbArc
 50
206.5330110932
 51
290.1158810985
  0
ARC
  5
474
100
AcDbEntity
  8
RUNDUNGEN
100
AcDbCircle
 62
7
  6
CONTINUOUS
 10
129.7956346943
 20
53.9755536445
 40
28.0
100
AcDbArc
 50
323.0064945303
 51
334.6113941857
  0
ARC
  5
475
100
AcDbEntity
  8
RUNDUNGEN
100
AcDbCircle
 62
7
  6
CONTINUOUS
 10
129.7956346943
 20
53.9755536445
 40
17.5
100
AcDbArc
 50
223.3175015152
 51
250.7512329275
  0
ARC
  5
476
100
AcDbEntity
  8
RUNDUNGEN
100
AcDbCircle
 62
7
  6
CONTINUOUS
 10
129.7956346943
 20
53.9755536445
 40
17.5
100
AcDbArc
 50
109.2487670725
 51
136.6824984558
  0
ARC
  5
477
100
AcDbEntity
  8
RUNDUNGEN
100
AcDbCircle
 62
7
  6
CONTINUOUS
 10
114.7956346943
 20
96.931926862
 40
28.0
100
AcDbArc
 50
289.2487670725
 51
312.2436722779
  0
ARC
  5
478
100
AcDbEntity
  8
RUNDUNGEN
100
AcDbCircle
 62
7
  6
CONTINUOUS
 10
152.4435977156
 20
52.4755536445
 40
28.0
100
AcDbArc
 50
227.7563277221
 51
279.0
  0
ARC
  5
479
100
AcDbEntity
  8
RUNDUNGEN
100
AcDbCircle
 62
7
  6
CONTINUOUS
 10
153.7956346943
 20
45.9755536445
 40
9.0
100
AcDbArc
 50
206.4102927865
 51
270.0
  0
ARC
  5
47A
100
AcDbEntity
  8
RUNDUNGEN
100
AcDbCircle
 62
7
  6
CONTINUOUS
 10
181.4974049586
 20
46.9755831281
 40
5.0000294837
100
AcDbArc
 50
270.0003318997
 51
354.2793508018
  0
ARC
  5
47B
100
AcDbEntity
  8
RUNDUNGEN
100
AcDbCircle
 62
7
  6
CONTINUOUS
 10
190.2956346943
 20
32.1466340661
 40
2.0
100
AcDbArc
 50
279.0
 51
360.0
  0
ARC
  5
47C
100
AcDbEntity
  8
RUNDUNGEN
100
AcDbCircle
 62
7
  6
CONTINUOUS
 10
187.4956346943
 20
43.2255536445
 40
2.0
100
AcDbArc
 50
90.0
 51
180.0
  0
ARC
  5
47D
100
AcDbEntity
  8
RUNDUNGEN
100
AcDbCircle
 62
7
  6
CONTINUOUS
 10
190.2956346943
 20
43.2255536445
 40
2.0
100
AcDbArc
 50
0.0
 51
90.0
  0
ARC
  5
47E
100
AcDbEntity
  8
RUNDUNGEN
100
AcDbCircle
 62
7
  6
CONTINUOUS
 10
183.4956346943
 20
38.9755536445
 40
2.0
100
AcDbArc
 50
270.0
 51
360.0
  0
ARC
  5
47F
100
AcDbEntity
  8
RUNDUNGEN
100
AcDbCircle
 62
7
  6
CONTINUOUS
 10
152.4435977156
 20
55.4755536445
 40
28.0
100
AcDbArc
 50
81.0
 51
132.2436722779
  0
ARC
  5
480
100
AcDbEntity
  8
RUNDUNGEN
100
AcDbCircle
 62
7
  6
CONTINUOUS
 10
153.7956346943
 20
61.9755536445
 40
9.0
100
AcDbArc
 50
90.0
 51
153.589707198
  0
ARC
  5
481
100
AcDbEntity
  8
BEZUGSACHSEN
100
AcDbCircle
 62
7
  6
CONTINUOUS
 10
181.4974049586
 20
60.9755241609
 40
5.0000294837
100
AcDbArc
 50
5.7206491982
 51
89.9996681003
  0
ARC
  5
482
100
AcDbEntity
  8
RUNDUNGEN
100
AcDbCircle
 62
7
  6
CONTINUOUS
 10
190.2956346943
 20
75.804473223
 40
2.0
100
AcDbArc
 50
0.0
 51
81.0
  0
ARC
  5
483
100
AcDbEntity
  8
RUNDUNGEN
100
AcDbCircle
 62
7
  6
CONTINUOUS
 10
187.4956346943
 20
64.7255536445
 40
2.0
100
AcDbArc
 50
180.0
 51
270.0
  0
ARC
  5
484
100
AcDbEntity
  8
RUNDUNGEN
100
AcDbCircle
 62
7
  6
CONTINUOUS
 10
190.2956346943
 20
64.7255536445
 40
2.0
100
AcDbArc
 50
270.0
 51
360.0
  0
ARC
  5
485
100
AcDbEntity
  8
RUNDUNGEN
100
AcDbCircle
 62
7
  6
CONTINUOUS
 10
183.4956346943
 20
68.9755536445
 40
2.0
100
AcDbArc
 50
0.0
 51
90.0
  0
SPLINE
  5
486
100
AcDbEntity
  8
0
100
AcDbSpline
 62
7
  6
CONTINUOUS
 70
0
 71
3
 72
11
 73
7
 74
0
 42
0.0000001
 43
0.0000001
 44
0.0000000001
 40
0.0
 40
0.0
 40
0.0
 40
0.0
 40
0.2468635005
 40
0.4920245707
 40
0.7416331173
 40
1.0
 40
1.0
 40
1.0
 40
1.0
 10
152.2017478141
 20
197.1615690756
 30
0.0
 10
151.8656286705
 20
196.7614827749
 30
0.0
 10
151.1252760594
 20
196.0199517111
 30
0.0
 10
149.8326118564
 20
195.116555673
 30
0.0
 10
148.3925630028
 20
194.4197352016
 30
0.0
 10
147.3688944802
 20
194.0818014201
 30
0.0
 10
146.8416382476
 20
193.9365923512
 30
0.0
  0
SPLINE
  5
487
100
AcDbEntity
  8
0
100
AcDbSpline
 62
7
  6
CONTINUOUS
 70
0
 71
3
 72
11
 73
7
 74
0
 42
0.0000001
 43
0.0000001
 44
0.0000000001
 40
0.0
 40
0.0
 40
0.0
 40
0.0
 40
0.2583668807
 40
0.5079754023
 40
0.7531364945
 40
1.0
 40
1.0
 40
1.0
 40
1.0
 10
112.749631141
 20
193.9365923512
 30
0.0
 10
112.2223747992
 20
194.0818014502
 30
0.0
 10
111.1987060605
 20
194.4197352338
 30
0.0
 10
109.7586571516
 20
195.1165561607
 30
0.0
 10
108.465992031
 20
196.0199517666
 30
0.0
 10
107.7256406869
 20
196.7614844117
 30
0.0
 10
107.3895210659
 20
197.1615704721
 30
0.0
  0
SPLINE
  5
488
100
AcDbEntity
  8
0
100
AcDbSpline
 62
7
  6
CONTINUOUS
 70
0
 71
3
 72
9
 73
5
 74
0
 42
0.0000001
 43
0.0000001
 44
0.0000000001
 40
0.0
 40
0.0
 40
0.0
 40
0.0
 40
0.2370136223
 40
1.0
 40
1.0
 40
1.0
 40
1.0
 10
157.5763820811
 20
209.1944859195
 30
0.0
 10
157.572400919
 20
209.1847189628
 30
0.0
 10
157.5559213112
 20
209.1433810762
 30
0.0
 10
157.5405614805
 20
209.1016029884
 30
0.0
 10
157.5292572065
 20
209.0695869075
 30
0.0
  0
SPLINE
  5
489
100
AcDbEntity
  8
0
100
AcDbSpline
 62
7
  6
CONTINUOUS
 70
0
 71
3
 72
9
 73
5
 74
0
 42
0.0000001
 43
0.0000001
 44
0.0000000001
 40
0.0
 40
0.0
 40
0.0
 40
0.0
 40
0.2534611787
 40
1.0
 40
1.0
 40
1.0
 40
1.0
 10
155.3153541264
 20
202.067725826
 30
0.0
 10
155.238023423
 20
201.8900672445
 30
0.0
 10
154.9195836617
 20
201.194962789
 30
0.0
 10
154.5498165132
 20
200.5238252618
 30
0.0
 10
154.2517900635
 20
200.0371306171
 30
0.0
  0
SPLINE
  5
48A
100
AcDbEntity
  8
0
100
AcDbSpline
 62
7
  6
CONTINUOUS
 70
0
 71
3
 72
9
 73
5
 74
0
 42
0.0000001
 43
0.0000001
 44
0.0000000001
 40
0.0
 40
0.0
 40
0.0
 40
0.0
 40
0.2469522583
 40
1.0
 40
1.0
 40
1.0
 40
1.0
 10
154.2517900635
 20
200.0371306171
 30
0.0
 10
154.0999169367
 20
199.7891196848
 30
0.0
 10
153.4698154488
 20
198.7943340055
 30
0.0
 10
152.7724054728
 20
197.8408091685
 30
0.0
 10
152.2019704133
 20
197.1618140661
 30
0.0
  0
SPLINE
  5
48B
100
AcDbEntity
  8
0
100
AcDbSpline
 62
7
  6
CONTINUOUS
 70
0
 71
3
 72
9
 73
5
 74
0
 42
0.0000001
 43
0.0000001
 44
0.0000000001
 40
0.0
 40
0.0
 40
0.0
 40
0.0
 40
0.2529330398
 40
1.0
 40
1.0
 40
1.0
 40
1.0
 10
107.3893179304
 20
197.1617940375
 30
0.0
 10
107.1977048012
 20
197.3898727841
 30
0.0
 10
106.4607341317
 20
198.3088898238
 30
0.0
 10
105.798956685
 20
199.2868000043
 30
0.0
 10
105.3394790767
 20
200.037130007
 30
0.0
  0
SPLINE
  5
48C
100
AcDbEntity
  8
0
100
AcDbSpline
 62
7
  6
CONTINUOUS
 70
0
 71
3
 72
9
 73
5
 74
0
 42
0.0000001
 43
0.0000001
 44
0.0000000001
 40
0.0
 40
0.0
 40
0.0
 40
0.0
 40
0.2475281029
 40
1.0
 40
1.0
 40
1.0
 40
1.0
 10
105.3394790767
 20
200.037130007
 30
0.0
 10
105.2371926882
 20
200.204169475
 30
0.0
 10
104.834399455
 20
200.885283657
 30
0.0
 10
104.4786283128
 20
201.5946274426
 30
0.0
 10
104.24389112
 20
202.1418356357
 30
0.0
  0
SPLINE
  5
48D
100
AcDbEntity
  8
0
100
AcDbSpline
 62
7
  6
CONTINUOUS
 70
0
 71
3
 72
16
 73
12
 74
0
 42
0.0000001
 43
0.0000001
 44
0.0000000001
 40
0.0
 40
0.0
 40
0.0
 40
0.0
 40
0.264587687
 40
0.3971271947
 40
0.5291549368
 40
0.6595939803
 40
0.786259798
 40
0.8468269974
 40
0.9041665717
 40
0.9563401135
 40
1.0
 40
1.0
 40
1.0
 40
1.0
 10
104.24389112
 20
202.1418356357
 30
0.0
 10
103.986484247
 20
202.7419075507
 30
0.0
 10
103.635795992
 20
203.6582184225
 30
0.0
 10
103.2273992222
 20
204.8986452846
 30
0.0
 10
102.947922765
 20
205.8326492619
 30
0.0
 10
102.6927554342
 20
206.7584793376
 30
0.0
 10
102.4953519643
 20
207.5171863634
 30
0.0
 10
102.3433427212
 20
208.1012737093
 30
0.0
 10
102.2348718322
 20
208.5067851872
 30
0.0
 10
102.1301710037
 20
208.86992632
 30
0.0
 10
102.0555569444
 20
209.09471147
 30
0.0
 10
102.0148876437
 20
209.1944851716
 30
0.0
  0
SPLINE
  5
48E
100
AcDbEntity
  8
BEZUGSACHSEN
100
AcDbSpline
 62
7
  6
CONTINUOUS
 70
0
 71
3
 72
35
 73
31
 74
0
 42
0.0000001
 43
0.0000001
 44
0.0000000001
 40
0.0
 40
0.0
 40
0.0
 40
0.0
 40
0.0102427054
 40
0.0206037411
 40
0.0311754
 40
0.0420915462
 40
0.0534045388
 40
0.0649886464
 40
0.0766840314
 40
0.0884027796
 40
0.1117762886
 40
0.1350335674
 40
0.158159844
 40
0.1811556666
 40
0.2267561865
 40
0.2718328478
 40
0.3163541739
 40
0.3602748186
 40
0.4035376269
 40
0.4460756278
 40
0.4878146208
 40
0.5286714472
 40
0.6073754837
 40
0.6814048982
 40
0.7498992096
 40
0.8119448846
 40
0.8666153297
 40
0.9129984029
 40
0.9775664156
 40
1.0
 40
1.0
 40
1.0
 40
1.0
 10
145.1107737337
 20
164.0183536724
 30
0.0
 10
145.0163187039
 20
164.0815178393
 30
0.0
 10
144.8328621865
 20
164.2190005111
 30
0.0
 10
144.5892670678
 20
164.4670128603
 30
0.0
 10
144.3995357171
 20
164.7696491739
 30
0.0
 10
144.300930984
 20
165.1260299968
 30
0.0
 10
144.3145287937
 20
165.5059098996
 30
0.0
 10
144.4203209362
 20
165.8774456413
 30
0.0
 10
144.5876407289
 20
166.2291202504
 30
0.0
 10
144.8634250346
 20
166.6697348766
 30
0.0
 10
145.2714744428
 20
167.1746851567
 30
0.0
 10
145.810512497
 20
167.7305647043
 30
0.0
 10
146.3783347179
 20
168.2506688882
 30
0.0
 10
147.1569210833
 20
168.9060811197
 30
0.0
 10
148.1586111143
 20
169.6731375589
 30
0.0
 10
149.3843626929
 20
170.5378366608
 30
0.0
 10
150.6188822356
 20
171.3566304114
 30
0.0
 10
151.8544332801
 20
172.1366671141
 30
0.0
 10
153.0856258521
 20
172.8818721531
 30
0.0
 10
154.308027911
 20
173.594452335
 30
0.0
 10
155.5175824533
 20
174.2757549715
 30
0.0
 10
157.0885965254
 20
175.1325045388
 30
0.0
 10
158.9933376725
 20
176.1250793688
 30
0.0
 10
161.1951900348
 20
177.2094783843
 30
0.0
 10
163.2512942919
 20
178.1703776071
 30
0.0
 10
165.1283476821
 20
179.006248724
 30
0.0
 10
166.7927110776
 20
179.7161102895
 30
0.0
 10
168.4920807799
 20
180.4147724303
 30
0.0
 10
169.8686381039
 20
180.9577424368
 30
0.0
 10
170.7691101176
 20
181.3051587859
 30
0.0
 10
171.0014378434
 20
181.3943697977
 30
0.0
  0
SPLINE
  5
48F
100
AcDbEntity
  8
BEZUGSACHSEN
100
AcDbSpline
 62
7
  6
CONTINUOUS
 70
0
 71
3
 72
35
 73
31
 74
0
 42
0.0000001
 43
0.0000001
 44
0.0000000001
 40
0.0
 40
0.0
 40
0.0
 40
0.0
 40
0.0224329558
 40
0.0869983166
 40
0.1333797488
 40
0.1880488742
 40
0.2500936102
 40
0.3185869852
 40
0.3926157151
 40
0.4713187273
 40
0.5121749304
 40
0.5539132952
 40
0.5964505575
 40
0.6397126822
 40
0.6836325649
 40
0.7281531363
 40
0.7732290918
 40
0.8188290407
 40
0.8418247276
 40
0.8649511069
 40
0.8882087565
 40
0.9115837341
 40
0.9233039184
 40
0.935000908
 40
0.9465875513
 40
0.9579059091
 40
0.9688262752
 40
0.9793980362
 40
0.9897579372
 40
1.0
 40
1.0
 40
1.0
 40
1.0
 10
88.5898315453
 20
181.3943697977
 30
0.0
 10
88.8221526404
 20
181.3051611525
 30
0.0
 10
89.7225903581
 20
180.9577577165
 30
0.0
 10
91.0990969711
 20
180.414809018
 30
0.0
 10
92.7984093797
 20
179.7161725413
 30
0.0
 10
94.4627335412
 20
179.0063304314
 30
0.0
 10
96.3397546421
 20
178.1704753818
 30
0.0
 10
98.3958382402
 20
177.2096003539
 30
0.0
 10
100.5976613294
 20
176.1252096167
 30
0.0
 10
102.5023822534
 20
175.1326535566
 30
0.0
 10
104.0733797958
 20
174.2759272637
 30
0.0
 10
105.2829139719
 20
173.5946342611
 30
0.0
 10
106.5053031757
 20
172.8820778812
 30
0.0
 10
107.7364740825
 20
172.1368846709
 30
0.0
 10
108.9720158509
 20
171.3568796511
 30
0.0
 10
110.2065128994
 20
170.5380972913
 30
0.0
 10
111.4322608987
 20
169.6734333595
 30
0.0
 10
112.4339504236
 20
168.9064022033
 30
0.0
 10
113.2125443637
 20
168.2510105874
 30
0.0
 10
113.7803967667
 20
167.7309333783
 30
0.0
 10
114.3194500055
 20
167.1750394594
 30
0.0
 10
114.727581022
 20
166.6701127611
 30
0.0
 10
115.0034550576
 20
166.2294934389
 30
0.0
 10
115.1708321259
 20
165.8777801548
 30
0.0
 10
115.2767313869
 20
165.5061609684
 30
0.0
 10
115.2903188425
 20
165.1261429078
 30
0.0
 10
115.1917263322
 20
164.769646669
 30
0.0
 10
115.0019682872
 20
164.4669812165
 30
0.0
 10
114.7583853352
 20
164.2189850462
 30
0.0
 10
114.5749447351
 20
164.0815138607
 30
0.0
 10
114.480495655
 20
164.0183536724
 30
0.0
  0
LINE
  5
490
100
AcDbEntity
  8
0
100
AcDbLine
 62
7
  6
CONTINUOUS
 10
329.1154456937
 20
172.5715451555
 11
329.0703504404
 21
172.3587797944
  0
SPLINE
  5
491
100
AcDbEntity
  8
0
100
AcDbSpline
 62
7
  6
CONTINUOUS
 70
0
 71
3
 72
8
 73
4
 74
0
 42
0.0000001
 43
0.0000001
 44
0.0000000001
 40
0.0
 40
0.0
 40
0.0
 40
0.0
 40
1.0
 40
1.0
 40
1.0
 40
1.0
 10
258.949221453
 20
178.5289921479
 30
0.0
 10
259.083767945
 20
177.9615677003
 30
0.0
 10
259.2185147615
 20
177.3941907116
 30
0.0
 10
259.3534731717
 20
176.8268640952
 30
0.0
  0
LINE
  5
492
100
AcDbEntity
  8
0
100
AcDbLine
 62
7
  6
CONTINUOUS
 10
258.9761245395
 20
176.8268640952
 11
259.1725195451
 21
175.9758003668
  0
LINE
  5
493
100
AcDbEntity
  8
0
100
AcDbLine
 62
7
  6
CONTINUOUS
 10
259.2618579988
 20
173.4226088838
 11
259.3563589414
 21
172.9970770196
  0
LINE
  5
494
100
AcDbEntity
  8
0
100
AcDbLine
 62
7
  6
CONTINUOUS
 10
259.3563589414
 20
172.9970770196
 11
259.466585596
 21
172.3587792234
  0
LINE
  5
495
100
AcDbEntity
  8
0
100
AcDbLine
 62
7
  6
CONTINUOUS
 10
258.9684584991
 20
172.5715451555
 11
259.0135555383
 21
172.3587797944
  0
LINE
  5
496
100
AcDbEntity
  8
0
100
AcDbLine
 62
7
  6
CONTINUOUS
 10
259.3086902124
 20
171.0101081988
 11
259.3408547762
 21
170.8694174753
  0
SPLINE
  5
497
100
AcDbEntity
  8
0
100
AcDbSpline
 62
7
  6
CONTINUOUS
 70
0
 71
3
 72
9
 73
5
 74
0
 42
0.0000001
 43
0.0000001
 44
0.0000000001
 40
0.0
 40
0.0
 40
0.0
 40
0.0
 40
0.245368643
 40
1.0
 40
1.0
 40
1.0
 40
1.0
 10
259.51431849
 20
170.2311196232
 30
0.0
 10
259.5224256515
 20
170.2132617316
 30
0.0
 10
259.5564478805
 20
170.1409299646
 30
0.0
 10
259.5943230647
 20
170.0704228035
 30
0.0
 10
259.6247682577
 20
170.0183536724
 30
0.0
  0
LINE
  5
498
100
AcDbEntity
  8
0
100
AcDbLine
 62
7
  6
CONTINUOUS
 10
259.5881724157
 20
169.9814787078
 11
259.5817072089
 21
170.0078334637
  0
LINE
  5
499
100
AcDbEntity
  8
0
100
AcDbLine
 62
7
  6
CONTINUOUS
 10
259.5817072089
 20
170.0078334637
 11
259.5409623312
 21
170.174479006
  0
LINE
  5
49A
100
AcDbEntity
  8
0
100
AcDbLine
 62
7
  6
CONTINUOUS
 10
259.2660177966
 20
172.9970770196
 11
259.1764153148
 21
173.4037863127
  0
LINE
  5
49B
100
AcDbEntity
  8
0
100
AcDbLine
 62
7
  6
CONTINUOUS
 10
259.1764153148
 20
173.4037863127
 11
259.1724252576
 21
173.4218998
  0
LINE
  5
49C
100
AcDbEntity
  8
0
100
AcDbLine
 62
7
  6
CONTINUOUS
 10
259.1724252576
 20
173.4218998
 11
259.034372058
 21
174.0487414817
  0
LINE
  5
49D
100
AcDbEntity
  8
0
100
AcDbLine
 62
7
  6
CONTINUOUS
 10
259.034372058
 20
174.0487414817
 11
259.0317909376
 21
174.0604636146
  0
LINE
  5
49E
100
AcDbEntity
  8
0
100
AcDbLine
 62
7
  6
CONTINUOUS
 10
259.0317909376
 20
174.0604636146
 11
258.9848472309
 21
174.2736729102
  0
LINE
  5
49F
100
AcDbEntity
  8
0
100
AcDbLine
 62
7
  6
CONTINUOUS
 10
329.6383862747
 20
174.4864386776
 11
329.6282306063
 21
174.4536391243
  0
LINE
  5
4A0
100
AcDbEntity
  8
0
100
AcDbLine
 62
7
  6
CONTINUOUS
 10
329.6282306063
 20
174.4536391243
 11
329.6050070611
 21
174.3788157273
  0
LINE
  5
4A1
100
AcDbEntity
  8
0
100
AcDbLine
 62
7
  6
CONTINUOUS
 10
329.6050070611
 20
174.3788157273
 11
329.571896423
 21
174.2725709333
  0
LINE
  5
4A2
100
AcDbEntity
  8
0
100
AcDbLine
 62
7
  6
CONTINUOUS
 10
329.2387173348
 20
172.9970770196
 11
329.1835836363
 21
172.6775416189
  0
LINE
  5
4A3
100
AcDbEntity
  8
0
100
AcDbLine
 62
7
  6
CONTINUOUS
 10
329.1835836363
 20
172.6775416189
 11
329.1638330923
 21
172.5632045031
  0
LINE
  5
4A4
100
AcDbEntity
  8
0
100
AcDbLine
 62
7
  6
CONTINUOUS
 10
329.6266177771
 20
172.5715451555
 11
329.5815207379
 21
172.3587797944
  0
LINE
  5
4A5
100
AcDbEntity
  8
0
100
AcDbLine
 62
7
  6
CONTINUOUS
 10
329.318382033
 20
171.1512600411
 11
329.2863860637
 21
171.0101081988
  0
LINE
  5
4A6
100
AcDbEntity
  8
0
100
AcDbLine
 62
7
  6
CONTINUOUS
 10
329.2863860637
 20
171.0101081988
 11
329.2542215
 21
170.8694174753
  0
LINE
  5
4A7
100
AcDbEntity
  8
0
100
AcDbLine
 62
7
  6
CONTINUOUS
 10
329.2689154267
 20
171.0690528123
 11
329.2720200952
 21
171.0821834819
  0
SPLINE
  5
4A8
100
AcDbEntity
  8
0
100
AcDbSpline
 62
7
  6
CONTINUOUS
 70
0
 71
3
 72
9
 73
5
 74
0
 42
0.0000001
 43
0.0000001
 44
0.0000000001
 40
0.0
 40
0.0
 40
0.0
 40
0.0
 40
0.2516905664
 40
1.0
 40
1.0
 40
1.0
 40
1.0
 10
328.0979381229
 20
174.2736729102
 30
0.0
 10
328.2707853241
 20
174.6048422739
 30
0.0
 10
328.9406913711
 20
175.9293707595
 30
0.0
 10
329.5448934059
 20
177.2869058214
 30
0.0
 10
329.9620840561
 20
178.3162262158
 30
0.0
  0
SPLINE
  5
4A9
100
AcDbEntity
  8
0
100
AcDbSpline
 62
7
  6
CONTINUOUS
 70
0
 71
3
 72
8
 73
4
 74
0
 42
0.0000001
 43
0.0000001
 44
0.0000000001
 40
0.0
 40
0.0
 40
0.0
 40
0.0
 40
1.0
 40
1.0
 40
1.0
 40
1.0
 10
328.3125397358
 20
170.0183536724
 30
0.0
 10
328.5387102251
 20
171.0111701047
 30
0.0
 10
328.7644668098
 20
172.004080902
 30
0.0
 10
328.9898470858
 20
172.9970770196
 30
0.0
  0
LINE
  5
4AA
100
AcDbEntity
  8
0
100
AcDbLine
 62
7
  6
CONTINUOUS
 10
329.3290584796
 20
172.9970770196
 11
329.6102290453
 21
174.2736729102
  0
SPLINE
  5
4AB
100
AcDbEntity
  8
0
100
AcDbSpline
 62
7
  6
CONTINUOUS
 70
0
 71
3
 72
8
 73
4
 74
0
 42
0.0000001
 43
0.0000001
 44
0.0000000001
 40
0.0
 40
0.0
 40
0.0
 40
0.0
 40
1.0
 40
1.0
 40
1.0
 40
1.0
 10
329.2793807561
 20
174.2736729102
 30
0.0
 10
329.7132977639
 20
176.1882798643
 30
0.0
 10
330.1458747174
 20
178.1031908614
 30
0.0
 10
330.577331744
 20
180.0183536724
 30
0.0
  0
LINE
  5
4AC
100
AcDbEntity
  8
0
100
AcDbLine
 62
7
  6
CONTINUOUS
 10
330.6983328492
 20
180.0183536724
 11
330.6931021878
 21
179.9937456243
  0
LINE
  5
4AD
100
AcDbEntity
  8
0
100
AcDbLine
 62
7
  6
CONTINUOUS
 10
330.6931021878
 20
179.9937456243
 11
329.5224740819
 21
174.4864388422
  0
LINE
  5
4AE
100
AcDbEntity
  8
0
100
AcDbLine
 62
7
  6
CONTINUOUS
 10
328.8597815433
 20
175.8076959191
 11
328.50437111
 21
174.2736729102
  0
SPLINE
  5
4AF
100
AcDbEntity
  8
0
100
AcDbSpline
 62
7
  6
CONTINUOUS
 70
0
 71
3
 72
9
 73
5
 74
0
 42
0.0000001
 43
0.0000001
 44
0.0000000001
 40
0.0
 40
0.0
 40
0.0
 40
0.0
 40
0.2464519919
 40
1.0
 40
1.0
 40
1.0
 40
1.0
 10
259.7390355798
 20
170.0183536724
 30
0.0
 10
259.7445329561
 20
170.0361769709
 30
0.0
 10
259.7678849877
 20
170.1081711986
 30
0.0
 10
259.79535476
 20
170.1788181072
 30
0.0
 10
259.8180907614
 20
170.2311196232
 30
0.0
  0
SPLINE
  5
4B0
100
AcDbEntity
  8
0
100
AcDbSpline
 62
7
  6
CONTINUOUS
 70
0
 71
3
 72
8
 73
4
 74
0
 42
0.0000001
 43
0.0000001
 44
0.0000000001
 40
0.0
 40
0.0
 40
0.0
 40
0.0
 40
1.0
 40
1.0
 40
1.0
 40
1.0
 10
259.742667473
 20
171.7204812781
 30
0.0
 10
259.6870379519
 20
172.0750478384
 30
0.0
 10
259.6316936204
 20
172.4296592414
 30
0.0
 10
259.5766104353
 20
172.7843110875
 30
0.0
  0
LINE
  5
4B1
100
AcDbEntity
  8
0
100
AcDbLine
 62
7
  6
CONTINUOUS
 10
259.5766104353
 20
172.7843110875
 11
259.3847557544
 21
173.6353748159
  0
SPLINE
  5
4B2
100
AcDbEntity
  8
0
100
AcDbSpline
 62
7
  6
CONTINUOUS
 70
0
 71
3
 72
9
 73
5
 74
0
 42
0.0000001
 43
0.0000001
 44
0.0000000001
 40
0.0
 40
0.0
 40
0.0
 40
0.0
 40
0.2551720116
 40
1.0
 40
1.0
 40
1.0
 40
1.0
 10
258.5119968937
 20
176.1885662989
 30
0.0
 10
258.4979277381
 20
176.2061417931
 30
0.0
 10
258.443431876
 20
176.2755276236
 30
0.0
 10
258.3915495067
 20
176.3469753565
 30
0.0
 10
258.3546217078
 20
176.401332231
 30
0.0
  0
LINE
  5
4B3
100
AcDbEntity
  8
0
100
AcDbLine
 62
7
  6
CONTINUOUS
 10
258.3449112996
 20
175.5502685027
 11
258.224450594
 21
176.1164497989
  0
LINE
  5
4B4
100
AcDbEntity
  8
0
100
AcDbLine
 62
7
  6
CONTINUOUS
 10
258.224450594
 20
176.1164497989
 11
258.2105493006
 21
176.1817880644
  0
LINE
  5
4B5
100
AcDbEntity
  8
0
100
AcDbLine
 62
7
  6
CONTINUOUS
 10
258.2105493006
 20
176.1817880644
 11
258.1721014064
 21
176.3624995812
  0
LINE
  5
4B6
100
AcDbEntity
  8
0
100
AcDbLine
 62
7
  6
CONTINUOUS
 10
258.1721014064
 20
176.3624995812
 11
258.1677481529
 21
176.3829606328
  0
LINE
  5
4B7
100
AcDbEntity
  8
0
100
AcDbLine
 62
7
  6
CONTINUOUS
 10
258.1677481529
 20
176.3829606328
 11
257.62063866
 21
178.954524012
  0
LINE
  5
4B8
100
AcDbEntity
  8
0
100
AcDbLine
 62
7
  6
CONTINUOUS
 10
258.1250836551
 20
178.954524012
 11
257.8880331593
 21
180.0183536724
  0
SPLINE
  5
4B9
100
AcDbEntity
  8
BEZUGSACHSEN
100
AcDbSpline
 62
7
  6
CONTINUOUS
 70
0
 71
3
 72
28
 73
24
 74
0
 42
0.0000001
 43
0.0000001
 44
0.0000000001
 40
0.0
 40
0.0
 40
0.0
 40
0.0
 40
0.1571892835
 40
0.2334489876
 40
0.3070960128
 40
0.3775511992
 40
0.4444257128
 40
0.50753942
 40
0.5669267739
 40
0.6228391882
 40
0.6757245081
 40
0.726208317
 40
0.7750969859
 40
0.7992803294
 40
0.8235145406
 40
0.8480579995
 40
0.8733163826
 40
0.9000435843
 40
0.9299666797
 40
0.9473689951
 40
0.966800512
 40
0.9850813953
 40
1.0
 40
1.0
 40
1.0
 40
1.0
 10
294.2975381381
 20
181.3943697977
 30
0.0
 10
292.2345823634
 20
181.3943697977
 30
0.0
 10
289.1683949865
 20
181.2634862201
 30
0.0
 10
285.1612209144
 20
180.822752639
 30
0.0
 10
282.3038432012
 20
180.3678966818
 30
0.0
 10
279.5952415615
 20
179.7862796964
 30
0.0
 10
277.0599003018
 20
179.0777335211
 30
0.0
 10
274.716618466
 20
178.2424933241
 30
0.0
 10
272.5786848161
 20
177.2805338439
 30
0.0
 10
270.654138698
 20
176.1926474276
 30
0.0
 10
268.9468071486
 20
174.9792398329
 30
0.0
 10
267.4576608552
 20
173.6399030808
 30
0.0
 10
266.3938099309
 20
172.4093289768
 30
0.0
 10
265.6621039672
 20
171.3615758588
 30
0.0
 10
265.171622511
 20
170.5381127325
 30
0.0
 10
264.7406474988
 20
169.6661041678
 30
0.0
 10
264.3747855491
 20
168.7291025175
 30
0.0
 10
264.0880164596
 20
167.6910858804
 30
0.0
 10
263.9573148207
 20
166.7225613324
 30
0.0
 10
263.9812774708
 20
165.8444211874
 30
0.0
 10
264.1222352121
 20
165.1294235135
 30
0.0
 10
264.4161589667
 20
164.4955497393
 30
0.0
 10
264.6954126276
 20
164.1556390701
 30
0.0
 10
264.8350094421
 20
164.0183536724
 30
0.0
  0
SPLINE
  5
4BA
100
AcDbEntity
  8
0
100
AcDbSpline
 62
7
  6
CONTINUOUS
 70
0
 71
3
 72
9
 73
5
 74
0
 42
0.0000001
 43
0.0000001
 44
0.0000000001
 40
0.0
 40
0.0
 40
0.0
 40
0.0
 40
0.2463357092
 40
1.0
 40
1.0
 40
1.0
 40
1.0
 10
260.2535433816
 20
170.0183536724
 30
0.0
 10
260.2591778206
 20
170.0361802723
 30
0.0
 10
260.2831085656
 20
170.1082103024
 30
0.0
 10
260.3112007038
 20
170.1788454598
 30
0.0
 10
260.3344223718
 20
170.2311196232
 30
0.0
  0
SPLINE
  5
4BB
100
AcDbEntity
  8
0
100
AcDbSpline
 62
7
  6
CONTINUOUS
 70
0
 71
3
 72
8
 73
4
 74
0
 42
0.0000001
 43
0.0000001
 44
0.0000000001
 40
0.0
 40
0.0
 40
0.0
 40
0.0
 40
1.0
 40
1.0
 40
1.0
 40
1.0
 10
260.2624030929
 20
171.7204812781
 30
0.0
 10
260.2070169587
 20
172.0750479156
 30
0.0
 10
260.1519168513
 20
172.4296593314
 30
0.0
 10
260.0970783964
 20
172.7843110875
 30
0.0
  0
LINE
  5
4BC
100
AcDbEntity
  8
0
100
AcDbLine
 62
7
  6
CONTINUOUS
 10
260.0970783964
 20
172.7843110875
 11
259.9049442988
 21
173.6353748159
  0
SPLINE
  5
4BD
100
AcDbEntity
  8
0
100
AcDbSpline
 62
7
  6
CONTINUOUS
 70
0
 71
3
 72
9
 73
5
 74
0
 42
0.0000001
 43
0.0000001
 44
0.0000000001
 40
0.0
 40
0.0
 40
0.0
 40
0.0
 40
0.255258777
 40
1.0
 40
1.0
 40
1.0
 40
1.0
 10
259.0273224372
 20
176.1885662989
 30
0.0
 10
259.0131148732
 20
176.2061390322
 30
0.0
 10
258.9580994659
 20
176.2754988444
 30
0.0
 10
258.9057143357
 20
176.346954593
 30
0.0
 10
258.8684322606
 20
176.401332231
 30
0.0
  0
LINE
  5
4BE
100
AcDbEntity
  8
0
100
AcDbLine
 62
7
  6
CONTINUOUS
 10
258.6751350903
 20
176.4013322002
 11
258.1319229365
 21
178.954524012
  0
LINE
  5
4BF
100
AcDbEntity
  8
0
100
AcDbLine
 62
7
  6
CONTINUOUS
 10
258.6428638211
 20
178.954524012
 11
258.4055674678
 21
180.0183536724
  0
LINE
  5
4C0
100
AcDbEntity
  8
0
100
AcDbLine
 62
7
  6
CONTINUOUS
 10
260.3755466142
 20
175.9350621389
 11
260.3655915518
 21
175.9758003668
  0
LINE
  5
4C1
100
AcDbEntity
  8
0
100
AcDbLine
 62
7
  6
CONTINUOUS
 10
261.0864171438
 20
175.9758003668
 11
260.8669002622
 21
176.8268640952
  0
SPLINE
  5
4C2
100
AcDbEntity
  8
0
100
AcDbSpline
 62
7
  6
CONTINUOUS
 70
0
 71
3
 72
8
 73
4
 74
0
 42
0.0000001
 43
0.0000001
 44
0.0000000001
 40
0.0
 40
0.0
 40
0.0
 40
0.0
 40
1.0
 40
1.0
 40
1.0
 40
1.0
 10
260.157850995
 20
176.8268640952
 30
0.0
 10
260.0195185615
 20
177.3941751205
 30
0.0
 10
259.8814579277
 20
177.9615524826
 30
0.0
 10
259.7436541256
 20
178.5289921479
 30
0.0
  0
SPLINE
  5
4C3
100
AcDbEntity
  8
BEZUGSACHSEN
100
AcDbSpline
 62
7
  6
CONTINUOUS
 70
0
 71
3
 72
28
 73
24
 74
0
 42
0.0000001
 43
0.0000001
 44
0.0000000001
 40
0.0
 40
0.0
 40
0.0
 40
0.0
 40
0.1571892835
 40
0.2334489876
 40
0.3070960128
 40
0.3775511992
 40
0.4444257128
 40
0.50753942
 40
0.5669267739
 40
0.6228391882
 40
0.6757245081
 40
0.726208317
 40
0.7750969859
 40
0.7992803294
 40
0.8235145406
 40
0.8480579995
 40
0.8733163826
 40
0.9000435843
 40
0.9299666797
 40
0.9473689951
 40
0.966800512
 40
0.9850813953
 40
1.0
 40
1.0
 40
1.0
 40
1.0
 10
294.2975381381
 20
181.3943697977
 30
0.0
 10
296.3604939128
 20
181.3943697977
 30
0.0
 10
299.4266812897
 20
181.2634862201
 30
0.0
 10
303.4338553618
 20
180.822752639
 30
0.0
 10
306.291233075
 20
180.3678966818
 30
0.0
 10
308.9998347147
 20
179.7862796964
 30
0.0
 10
311.5351759744
 20
179.0777335211
 30
0.0
 10
313.8784578102
 20
178.2424933241
 30
0.0
 10
316.0163914601
 20
177.280533844
 30
0.0
 10
317.9409375782
 20
176.1926474276
 30
0.0
 10
319.6482691276
 20
174.9792398329
 30
0.0
 10
321.137415421
 20
173.6399030808
 30
0.0
 10
322.2012663452
 20
172.4093289768
 30
0.0
 10
322.932972309
 20
171.3615758588
 30
0.0
 10
323.4234537652
 20
170.5381127325
 30
0.0
 10
323.8544287774
 20
169.6661041678
 30
0.0
 10
324.2202907271
 20
168.7291025175
 30
0.0
 10
324.5070598165
 20
167.6910858804
 30
0.0
 10
324.6377614555
 20
166.7225613324
 30
0.0
 10
324.6137988054
 20
165.8444211874
 30
0.0
 10
324.4728410641
 20
165.1294235135
 30
0.0
 10
324.1789173095
 20
164.4955497393
 30
0.0
 10
323.8996636486
 20
164.1556390701
 30
0.0
 10
323.7600668341
 20
164.0183536724
 30
0.0
  0
LINE
  5
4C4
100
AcDbEntity
  8
0
100
AcDbLine
 62
7
  6
CONTINUOUS
 10
328.6076494343
 20
168.7656825745
 11
328.6011277769
 21
168.7417579309
  0
LINE
  5
4C5
100
AcDbEntity
  8
0
100
AcDbLine
 62
7
  6
CONTINUOUS
 10
262.4833037253
 20
170.0183536724
 11
262.2613069994
 21
170.8694174753
  0
SPLINE
  5
4C6
100
AcDbEntity
  8
0
100
AcDbSpline
 62
7
  6
CONTINUOUS
 70
0
 71
3
 72
8
 73
4
 74
0
 42
0.0000001
 43
0.0000001
 44
0.0000000001
 40
0.0
 40
0.0
 40
0.0
 40
0.0
 40
1.0
 40
1.0
 40
1.0
 40
1.0
 10
329.9620840561
 20
178.3162262158
 30
0.0
 10
329.6519009524
 20
176.968516696
 30
0.0
 10
329.3409222924
 20
175.6209899596
 30
0.0
 10
329.0290388592
 20
174.2736729102
 30
0.0
  0
SPLINE
  5
4C7
100
AcDbEntity
  8
0
100
AcDbSpline
 62
7
  6
CONTINUOUS
 70
0
 71
3
 72
9
 73
5
 74
0
 42
0.0000001
 43
0.0000001
 44
0.0000000001
 40
0.0
 40
0.0
 40
0.0
 40
0.0
 40
0.2477922933
 40
1.0
 40
1.0
 40
1.0
 40
1.0
 10
329.8312055559
 20
180.0183536724
 30
0.0
 10
329.6352923246
 20
179.5293630781
 30
0.0
 10
328.8139518232
 20
177.5685203842
 30
0.0
 10
327.8617351988
 20
175.6616478745
 30
0.0
 10
327.0675953677
 20
174.2736729102
 30
0.0
  0
SPLINE
  5
4C8
100
AcDbEntity
  8
0
100
AcDbSpline
 62
7
  6
CONTINUOUS
 70
0
 71
3
 72
8
 73
4
 74
0
 42
0.0000001
 43
0.0000001
 44
0.0000000001
 40
0.0
 40
0.0
 40
0.0
 40
0.0
 40
1.0
 40
1.0
 40
1.0
 40
1.0
 10
327.0675953677
 20
174.2736729102
 30
0.0
 10
326.9569631901
 20
173.8480747609
 30
0.0
 10
326.8460806393
 20
173.4225416088
 30
0.0
 10
326.7349359285
 20
172.9970770196
 30
0.0
  0
LINE
  5
4C9
100
AcDbEntity
  8
0
100
AcDbLine
 62
7
  6
CONTINUOUS
 10
260.5421298959
 20
175.9758003668
 11
260.3235815565
 21
176.8268640952
  0
SPLINE
  5
4CA
100
AcDbEntity
  8
0
100
AcDbSpline
 62
7
  6
CONTINUOUS
 70
0
 71
3
 72
8
 73
4
 74
0
 42
0.0000001
 43
0.0000001
 44
0.0000000001
 40
0.0
 40
0.0
 40
0.0
 40
0.0
 40
1.0
 40
1.0
 40
1.0
 40
1.0
 10
259.6250383578
 20
176.8268640952
 30
0.0
 10
259.4871333721
 20
177.3941784119
 30
0.0
 10
259.3494871217
 20
177.9615556788
 30
0.0
 10
259.2120856202
 20
178.5289921479
 30
0.0
  0
SPLINE
  5
4CB
100
AcDbEntity
  8
0
100
AcDbSpline
 62
7
  6
CONTINUOUS
 70
0
 71
3
 72
8
 73
4
 74
0
 42
0.0000001
 43
0.0000001
 44
0.0000000001
 40
0.0
 40
0.0
 40
0.0
 40
0.0
 40
1.0
 40
1.0
 40
1.0
 40
1.0
 10
327.6139214066
 20
174.2736729102
 30
0.0
 10
327.5038176222
 20
173.8480784183
 30
0.0
 10
327.3934760842
 20
173.4225453571
 30
0.0
 10
327.2828858102
 20
172.9970770196
 30
0.0
  0
SPLINE
  5
4CC
100
AcDbEntity
  8
0
100
AcDbSpline
 62
7
  6
CONTINUOUS
 70
0
 71
3
 72
8
 73
4
 74
0
 42
0.0000001
 43
0.0000001
 44
0.0000000001
 40
0.0
 40
0.0
 40
0.0
 40
0.0
 40
1.0
 40
1.0
 40
1.0
 40
1.0
 10
328.7332365369
 20
172.9970770196
 30
0.0
 10
328.502911019
 20
172.0040461259
 30
0.0
 10
328.2720727589
 20
171.0111339895
 30
0.0
 10
328.0406695563
 20
170.0183536724
 30
0.0
  0
SPLINE
  5
4CD
100
AcDbEntity
  8
0
100
AcDbSpline
 62
7
  6
CONTINUOUS
 70
0
 71
3
 72
8
 73
4
 74
0
 42
0.0000001
 43
0.0000001
 44
0.0000000001
 40
0.0
 40
0.0
 40
0.0
 40
0.0
 40
1.0
 40
1.0
 40
1.0
 40
1.0
 10
328.2079427226
 20
172.9970770196
 30
0.0
 10
327.9771166557
 20
172.0040393051
 30
0.0
 10
327.7457510135
 20
171.011126824
 30
0.0
 10
327.5137897123
 20
170.0183536724
 30
0.0
  0
LINE
  5
4CE
100
AcDbEntity
  8
0
100
AcDbLine
 62
7
  6
CONTINUOUS
 10
261.933911674
 20
170.0183536724
 11
261.7130669265
 21
170.8694174753
  0
SPLINE
  5
4CF
100
AcDbEntity
  8
0
100
AcDbSpline
 62
7
  6
CONTINUOUS
 70
0
 71
3
 72
9
 73
5
 74
0
 42
0.0000001
 43
0.0000001
 44
0.0000000001
 40
0.0
 40
0.0
 40
0.0
 40
0.0
 40
0.2478432117
 40
1.0
 40
1.0
 40
1.0
 40
1.0
 10
330.3534001869
 20
180.0183536724
 30
0.0
 10
330.1588807103
 20
179.5296260096
 30
0.0
 10
329.3438409433
 20
177.5699542321
 30
0.0
 10
328.4002272584
 20
175.6629459458
 30
0.0
 10
327.6139214066
 20
174.2736729102
 30
0.0
  0
ELLIPSE
  5
4D0
100
AcDbEntity
  8
0
100
AcDbEllipse
 62
7
  6
CONTINUOUS
 10
129.7956346943
 20
202.1359964836
 30
0.0
 11
28.25
 21
-0.0
 31
0.0
 40
0.3639702343
 41
-2.2185521818
 42
-0.9230404718
  0
ENDSEC
  0
SECTION
  2
OBJECTS
  0
DICTIONARY
  5
C
100
AcDbDictionary
280
0
281
1
  3
ACAD_GROUP
350
D
  3
ACAD_MLINESTYLE
350
17
  3
ACAD_LAYOUT
350
1A
  3
ACAD_PLOTSETTINGS
350
19
  3
ACAD_PLOTSTYLENAME
350
E
  0
DICTIONARY
  5
D
102
{ACAD_REACTORS
330
C
102
}
100
AcDbDictionary
280
0
281
1
  0
ACDBDICTIONARYWDFLT
  5
E
102
{ACAD_REACTORS
330
C
102
}
100
AcDbDictionary
281
1
  3
Normal
350
F
100
AcDbDictionaryWithDefault
340
F
  0
DICTIONARY
  5
17
102
{ACAD_REACTORS
330
C
102
}
100
AcDbDictionary
280
0
281
1
  3
Standard
350
18
  0
DICTIONARY
  5
19
102
{ACAD_REACTORS
330
C
102
}
100
AcDbDictionary
281
1
  0
DICTIONARY
  5
1A
102
{ACAD_REACTORS
330
C
102
}
100
AcDbDictionary
281
1
  3
Model
350
4D1
  3
Layout1
350
4D2
  0
ACDBPLACEHOLDER
  5
F
102
{ACAD_REACTORS
330
E
102
}
  0
MLINESTYLE
  5
18
102
{ACAD_REACTORS
330
17
102
}
100
AcDbMlineStyle
  2
STANDARD
 70
0
  3

 62
256
 51
90.0
 52
90.0
 71
2
 49
0.5
 62
256
  6
BYLAYER
 49
-0.5
 62
256
  6
BYLAYER
  0
LAYOUT
  5
4D1
102
{ACAD_REACTORS
330
1A
102
}
100
AcDbPlotSettings
  1

  2
none_device
  4
ISO_A3_(420.00_x_297.00_MM)
  6

 40
0.0
 41
0.0
 42
0.0
 43
0.0
 44
420.0
 45
297.0
 46
0.0
 47
0.0
 48
0.0
 49
0.0
140
0.0
141
0.0
142
1.0
143
1.0
 70
1024
 72
1
 73
0
 74
0
  7

 75
0
147
1.0
148
0.0
149
0.0
100
AcDbLayout
  1
Model
 70
0
 71
0
 10
0.0
 20
0.0
 11
420.0
 21
297.0
 12
0.0
 22
0.0
 32
0.0
 14
0.0
 24
0.0
 34
0.0
 15
0.0
 25
0.0
 35
0.0
146
0.0
 13
0.0
 23
0.0
 33
0.0
 16
1.0
 26
0.0
 36
0.0
 17
0.0
 27
1.0
 37
0.0
 76
0
330
20E
345
0
346
0
  0
LAYOUT
  5
4D2
102
{ACAD_REACTORS
330
1A
102
}
100
AcDbPlotSettings
  1

  2
none_device
  4
ISO_A3_(420.00_x_297.00_MM)
  6

 40
0.0
 41
0.0
 42
0.0
 43
0.0
 44
420.0
 45
297.0
 46
0.0
 47
0.0
 48
0.0
 49
0.0
140
0.0
141
0.0
142
1.0
143
1.0
 70
0
 72
1
 73
0
 74
0
  7

 75
0
147
1.0
148
0.0
149
0.0
100
AcDbLayout
  1
Layout1
 70
0
 71
1
 10
0.0
 20
0.0
 11
420.0
 21
297.0
 12
0.0
 22
0.0
 32
0.0
 14
0.0
 24
0.0
 34
0.0
 15
0.0
 25
0.0
 35
0.0
146
0.0
 13
0.0
 23
0.0
 33
0.0
 16
1.0
 26
0.0
 36
0.0
 17
0.0
 27
1.0
 37
0.0
 76
0
330
20F
345
0
346
0
  0
ENDSEC
  0
EOF
