999
DXF file: 001-m35309-p-2.dxf
999
Pro/ENGINEER 2011490 by Parametric Technology Corporation
  0
SECTION
  2
HEADER
  9
$ACADVER
  1
AC1015
  9
$DWGCODEPAGE
  3
ANSI_1252
  9
$EXTMAX
 10
420.0
 20
297.0
 30
0.0
  9
$EXTMIN
 10
0.0
 20
0.0
 30
0.0
  9
$LIMMIN
 10
0.0
 20
0.0
  9
$LIMMAX
 10
420.0
 20
297.0
  9
$VIEWCTR
 10
210.0
 20
148.5
  9
$VIEWSIZE
 40
297.0
  9
$CLAYER
  8
0
  9
$LTSCALE
 40
23.1
  9
$CELTYPE
  6
BYLAYER
  9
$DIMSCALE
 40
1.0
  9
$DIMASZ
 40
3.5
  9
$DIMEXO
 40
2.625
  9
$DIMDLI
 40
15.96
  9
$DIMEXE
 40
7.56
  9
$DIMCEN
 40
3.78
  9
$DIMLFAC
 40
1.0
  9
$DIMBLK
  1
_FILLED
  9
$DIMTXT
 40
3.5
  9
$DIMTOL
 70
1
  9
$DIMLIM
 70
0
  9
$DIMTFAC
 40
1.0
  9
$DIMTP
 40
0.005
  9
$DIMTM
 40
0.005
  9
$PDMODE
 70
3
  9
$PDSIZE
 40
0.3125
  9
$HANDSEED
  5
530
  9
$TILEMODE
 70
1
  9
$MEASUREMENT
 70
1
  9
$INSUNITS
 70
4
  0
ENDSEC
  0
SECTION
  2
CLASSES
  0
CLASS
  1
ACDBDICTIONARYWDFLT
  2
AcDbDictionaryWithDefault
  3
AutoCAD 2000
 90
0
280
0
281
0
  0
CLASS
  1
ACDBPLACEHOLDER
  2
AcDbPlaceHolder
  3
AutoCAD 2000
 90
0
280
0
281
0
  0
CLASS
  1
LAYOUT
  2
AcDbLayout
  3
AutoCAD 2000
 90
0
280
0
281
0
  0
ENDSEC
  0
SECTION
  2
TABLES
  0
TABLE
  2
VPORT
  5
8
100
AcDbSymbolTable
 70
2
  0
VPORT
  5
1F4
100
AcDbSymbolTableRecord
100
AcDbViewportTableRecord
  2
*ACTIVE
 70
0
 10
0.0
 20
0.0
 11
1.0
 21
1.0
 12
210.0
 22
148.5
 13
0.0
 23
0.0
 14
1.0
 24
1.0
 15
0.0
 25
0.0
 16
0.0
 26
0.0
 36
1.0
 17
0.0
 27
0.0
 37
0.0
 40
297.0
 41
1.4141414141
 42
50.0
 43
0.0
 44
0.0
 50
0.0
 51
0.0
 71
0
 72
100
 73
1
 74
1
 75
0
 76
0
 77
0
 78
0
  0
ENDTAB
  0
TABLE
  2
LTYPE
  5
5
100
AcDbSymbolTable
 70
6
  0
LTYPE
  5
14
100
AcDbSymbolTableRecord
100
AcDbLinetypeTableRecord
  2
BYBLOCK
 70
0
  3

 72
65
 73
0
 40
0.0
  0
LTYPE
  5
15
100
AcDbSymbolTableRecord
100
AcDbLinetypeTableRecord
  2
BYLAYER
 70
0
  3

 72
65
 73
0
 40
0.0
  0
LTYPE
  5
16
100
AcDbSymbolTableRecord
100
AcDbLinetypeTableRecord
  2
CONTINUOUS
 70
64
  3
Solid line
 72
65
 73
0
 40
0.0
  0
LTYPE
  5
1F5
100
AcDbSymbolTableRecord
100
AcDbLinetypeTableRecord
  2
CENTER
 70
64
  3
____ _ ____ _ ____ _ ____ _ ____ _ ____ _ ____
 72
65
 73
4
 40
0.6
 49
0.375
 74
0
 49
-0.075
 74
0
 49
0.075
 74
0
 49
-0.075
 74
0
  0
LTYPE
  5
1F6
100
AcDbSymbolTableRecord
100
AcDbLinetypeTableRecord
  2
HIDDEN
 70
64
  3
- - - - - - - - - - - - - - - - - - - -
 72
65
 73
2
 40
0.2
 49
0.1
 74
0
 49
-0.1
 74
0
  0
LTYPE
  5
1F7
100
AcDbSymbolTableRecord
100
AcDbLinetypeTableRecord
  2
PHANTOM
 70
64
  3
_____ _ _ _____ _ _ _____ _ _ _____
 72
65
 73
6
 40
0.8
 49
0.45
 74
0
 49
-0.05
 74
0
 49
0.1
 74
0
 49
-0.05
 74
0
 49
0.1
 74
0
 49
-0.05
 74
0
  0
LTYPE
  5
1F8
100
AcDbSymbolTableRecord
100
AcDbLinetypeTableRecord
  2
DOT
 70
64
  3
. . . . . . . . . . . . . . . . . . . .
 72
65
 73
2
 40
0.2
 49
0.1
 74
0
 49
-0.1
 74
0
  0
LTYPE
  5
1F9
100
AcDbSymbolTableRecord
100
AcDbLinetypeTableRecord
  2
DASHED
 70
64
  3
- - - - - - - - - - - - - - - - - - - -
 72
65
 73
2
 40
0.2
 49
0.1
 74
0
 49
-0.1
 74
0
  0
ENDTAB
  0
TABLE
  2
LAYER
  5
2
100
AcDbSymbolTable
 70
36
  0
LAYER
  5
10
100
AcDbSymbolTableRecord
100
AcDbLayerTableRecord
  2
0
 70
0
 62
7
  6
CONTINUOUS
370
-3
390
F
  0
LAYER
  5
1FA
100
AcDbSymbolTableRecord
100
AcDbLayerTableRecord
  2
DEFAULT_1
 70
0
 62
7
  6
CENTER
370
-3
390
F
  0
LAYER
  5
1FB
100
AcDbSymbolTableRecord
100
AcDbLayerTableRecord
  2
DEFAULT_2
 70
0
 62
8
  6
HIDDEN
370
-3
390
F
  0
LAYER
  5
1FC
100
AcDbSymbolTableRecord
100
AcDbLayerTableRecord
  2
DEFAULT_3
 70
0
 62
7
  6
PHANTOM
370
-3
390
F
  0
LAYER
  5
1FD
100
AcDbSymbolTableRecord
100
AcDbLayerTableRecord
  2
BEZUGSACHSEN
 70
0
 62
7
  6
CONTINUOUS
370
-3
390
F
  0
LAYER
  5
1FE
100
AcDbSymbolTableRecord
100
AcDbLayerTableRecord
  2
BEZUGSEBENEN
 70
0
 62
7
  6
CONTINUOUS
370
-3
390
F
  0
LAYER
  5
1FF
100
AcDbSymbolTableRecord
100
AcDbLayerTableRecord
  2
BG_STARTBEZUEGE
 70
0
 62
7
  6
CONTINUOUS
370
-3
390
F
  0
LAYER
  5
200
100
AcDbSymbolTableRecord
100
AcDbLayerTableRecord
  2
FASEN
 70
0
 62
7
  6
CONTINUOUS
370
-3
390
F
  0
LAYER
  5
201
100
AcDbSymbolTableRecord
100
AcDbLayerTableRecord
  2
FLAECHEN
 70
0
 62
7
  6
CONTINUOUS
370
-3
390
F
  0
LAYER
  5
202
100
AcDbSymbolTableRecord
100
AcDbLayerTableRecord
  2
GEWINDE
 70
0
 62
7
  6
CONTINUOUS
370
-3
390
F
  0
LAYER
  5
203
100
AcDbSymbolTableRecord
100
AcDbLayerTableRecord
  2
HILFEN
 70
0
 62
7
  6
CONTINUOUS
370
-3
390
F
  0
LAYER
  5
204
100
AcDbSymbolTableRecord
100
AcDbLayerTableRecord
  2
KONSTRUKTIONSELEMENTE
 70
0
 62
7
  6
CONTINUOUS
370
-3
390
F
  0
LAYER
  5
205
100
AcDbSymbolTableRecord
100
AcDbLayerTableRecord
  2
KURVEN
 70
0
 62
7
  6
CONTINUOUS
370
-3
390
F
  0
LAYER
  5
206
100
AcDbSymbolTableRecord
100
AcDbLayerTableRecord
  2
NORM
 70
0
 62
7
  6
CONTINUOUS
370
-3
390
F
  0
LAYER
  5
207
100
AcDbSymbolTableRecord
100
AcDbLayerTableRecord
  2
PLATZIERUNG
 70
0
 62
7
  6
CONTINUOUS
370
-3
390
F
  0
LAYER
  5
208
100
AcDbSymbolTableRecord
100
AcDbLayerTableRecord
  2
RUNDUNGEN
 70
0
 62
7
  6
CONTINUOUS
370
-3
390
F
  0
LAYER
  5
209
100
AcDbSymbolTableRecord
100
AcDbLayerTableRecord
  2
TEIL_STARTBEZUEGE
 70
0
 62
7
  6
CONTINUOUS
370
-3
390
F
  0
LAYER
  5
20A
100
AcDbSymbolTableRecord
100
AcDbLayerTableRecord
  2
T_STARTBEZUEGE
 70
0
 62
7
  6
CONTINUOUS
370
-3
390
F
  0
LAYER
  5
20B
100
AcDbSymbolTableRecord
100
AcDbLayerTableRecord
  2
ZEICHNUNGSBEMASSUNGEN
 70
0
 62
7
  6
CONTINUOUS
370
-3
390
F
  0
ENDTAB
  0
TABLE
  2
STYLE
  5
3
100
AcDbSymbolTable
 70
1
  0
STYLE
  5
11
100
AcDbSymbolTableRecord
100
AcDbTextStyleTableRecord
  2
STANDARD
 70
0
 40
0.0
 41
0.7
 50
0.0
 71
0
 42
0.2
  3
txt
  4

  0
STYLE
  5
20C
100
AcDbSymbolTableRecord
100
AcDbTextStyleTableRecord
  2
TEXTSTYLE_1
 70
0
 40
0.0
 41
0.8
 50
0.0
 71
0
 42
0.2
  3
gdt
  4

  0
ENDTAB
  0
TABLE
  2
VIEW
  5
6
100
AcDbSymbolTable
 70
0
  0
ENDTAB
  0
TABLE
  2
UCS
  5
7
100
AcDbSymbolTable
 70
0
  0
ENDTAB
  0
TABLE
  2
APPID
  5
9
100
AcDbSymbolTable
 70
1
  0
APPID
  5
20D
100
AcDbSymbolTableRecord
100
AcDbRegAppTableRecord
  2
ACAD
 70
0
  0
ENDTAB
  0
TABLE
  2
BLOCK_RECORD
  5
1
100
AcDbSymbolTable
 70
0
  0
BLOCK_RECORD
  5
20E
100
AcDbSymbolTableRecord
100
AcDbBlockTableRecord
  2
*Model_Space
  0
BLOCK_RECORD
  5
20F
100
AcDbSymbolTableRecord
100
AcDbBlockTableRecord
  2
*Paper_Space
  0
ENDTAB
  0
TABLE
  2
DIMSTYLE
  5
A
100
AcDbSymbolTable
 70
1
100
AcDbDimStyleTable
 71
0
  0
DIMSTYLE
105
210
100
AcDbSymbolTableRecord
100
AcDbDimStyleTableRecord
  2
STANDARD
 70
0
  3

  4

 40
1.0
 41
3.5
 42
0.0625
 43
0.38
 44
0.18
 45
0.0
 46
0.0
 47
0.005
 48
0.005
140
3.5
141
0.09
142
0.0
143
25.4
144
1.0
145
0.0
146
1.0
147
0.09
 71
1.0
 72
0.0
 73
0
 74
0
 75
0
 76
0
 77
1
 78
8
170
0
171
2
172
0
173
0
174
0
175
0
176
0
177
0
178
5
270
2
271
3
272
3
273
2
274
2
275
0
280
0
281
0
282
0
283
1
284
8
285
0
286
0
287
3
288
0
340
11
  0
ENDTAB
  0
ENDSEC
  0
SECTION
  2
BLOCKS
  0
BLOCK
  5
20
100
AcDbEntity
  8
0
100
AcDbBlockBegin
  2
*Model_Space
 70
0
 10
0.0
 20
0.0
 30
0.0
  3
*Model_Space
  1

  0
ENDBLK
  5
21
100
AcDbEntity
  8
0
100
AcDbBlockEnd
  0
BLOCK
  5
1C
100
AcDbEntity
  8
0
100
AcDbBlockBegin
  2
*Paper_Space
 70
0
 10
0.0
 20
0.0
 30
0.0
  3
*Paper_Space
  1

  0
ENDBLK
  5
1D
100
AcDbEntity
  8
0
100
AcDbBlockEnd
  0
ENDSEC
  0
SECTION
  2
ENTITIES
  0
MTEXT
  5
211
100
AcDbEntity
  8
0
100
AcDbMText
 62
5
  6
CONTINUOUS
  7
STANDARD
 71
1
 72
1
 10
283.9789324447
 20
208.8314115391
 30
0.0
 11
0.0
 21
1.0
 31
0.0
 44
0.9
  1
VRS 3,2t RUD
 40
5.0
 41
46.4285714286
  0
MTEXT
  5
212
100
AcDbEntity
  8
0
100
AcDbMText
 62
5
  6
CONTINUOUS
  7
STANDARD
 71
1
 72
1
 10
109.9436808188
 20
66.2005413655
 30
0.0
 11
1.0
 21
0.0
 31
0.0
 44
0.9
  1
VRS 3,2t RUD
 40
5.0
 41
46.4285714286
  0
LINE
  5
213
100
AcDbEntity
  8
0
100
AcDbLine
 62
7
  6
CONTINUOUS
 10
0.0
 20
0.0
 11
0.0
 21
297.0
  0
LINE
  5
214
100
AcDbEntity
  8
0
100
AcDbLine
 62
7
  6
CONTINUOUS
 10
0.0
 20
0.0
 11
420.0
 21
0.0
  0
LINE
  5
215
100
AcDbEntity
  8
0
100
AcDbLine
 62
7
  6
CONTINUOUS
 10
0.0
 20
297.0
 11
420.0
 21
297.0
  0
LINE
  5
216
100
AcDbEntity
  8
0
100
AcDbLine
 62
7
  6
CONTINUOUS
 10
420.0
 20
0.0
 11
420.0
 21
297.0
  0
LINE
  5
217
100
AcDbEntity
  8
KONSTRUKTIONSELEMENTE
100
AcDbLine
 62
7
  6
CONTINUOUS
 10
122.6825530338
 20
136.3845460766
 11
142.6825530338
 21
136.3845460766
  0
LINE
  5
218
100
AcDbEntity
  8
KONSTRUKTIONSELEMENTE
100
AcDbLine
 62
7
  6
CONTINUOUS
 10
120.6825530338
 20
138.3845460766
 11
144.6825530338
 21
138.3845460766
  0
LINE
  5
219
100
AcDbEntity
  8
KONSTRUKTIONSELEMENTE
100
AcDbLine
 62
7
  6
CONTINUOUS
 10
120.6825530338
 20
138.3845460766
 11
122.6825530338
 21
136.3845460766
  0
LINE
  5
21A
100
AcDbEntity
  8
KONSTRUKTIONSELEMENTE
100
AcDbLine
 62
7
  6
CONTINUOUS
 10
115.1825530338
 20
172.3845460766
 11
150.1825530338
 21
172.3845460766
  0
LINE
  5
21B
100
AcDbEntity
  8
BEZUGSACHSEN
100
AcDbLine
 62
7
  6
CONTINUOUS
 10
158.1824800347
 20
172.5845460766
 11
107.1826260331
 21
172.5845460766
  0
LINE
  5
21C
100
AcDbEntity
  8
0
100
AcDbLine
 62
7
  6
CONTINUOUS
 10
129.0992195415
 20
176.5632694834
 11
129.9325530338
 21
176.5632694834
  0
LINE
  5
21D
100
AcDbEntity
  8
0
100
AcDbLine
 62
7
  6
CONTINUOUS
 10
124.0992193031
 20
177.5845460766
 11
125.4325527953
 21
177.5845460766
  0
LINE
  5
21E
100
AcDbEntity
  8
0
100
AcDbLine
 62
7
  6
CONTINUOUS
 10
132.2658860492
 20
177.5845460766
 11
138.2658860492
 21
177.5845460766
  0
LINE
  5
21F
100
AcDbEntity
  8
0
100
AcDbLine
 62
7
  6
CONTINUOUS
 10
138.2658860492
 20
178.4356099242
 11
133.5992190646
 21
178.4356099242
  0
LINE
  5
220
100
AcDbEntity
  8
0
100
AcDbLine
 62
7
  6
CONTINUOUS
 10
130.9325530338
 20
178.4356099242
 11
130.0992190646
 21
178.4356099242
  0
LINE
  5
221
100
AcDbEntity
  8
0
100
AcDbLine
 62
7
  6
CONTINUOUS
 10
125.2658860492
 20
178.4356099242
 11
124.2658860492
 21
178.4356099242
  0
LINE
  5
222
100
AcDbEntity
  8
0
100
AcDbLine
 62
7
  6
CONTINUOUS
 10
122.5992193627
 20
179.4568865174
 11
121.7658860492
 21
179.4568865174
  0
LINE
  5
223
100
AcDbEntity
  8
0
100
AcDbLine
 62
7
  6
CONTINUOUS
 10
124.2658860492
 20
178.4356099242
 11
123.4325526761
 21
178.6058226699
  0
LINE
  5
224
100
AcDbEntity
  8
0
100
AcDbLine
 62
7
  6
CONTINUOUS
 10
123.4325526761
 20
177.7547588372
 11
124.0992193031
 21
177.5845460766
  0
LINE
  5
225
100
AcDbEntity
  8
0
100
AcDbLine
 62
7
  6
CONTINUOUS
 10
125.4325527953
 20
177.5845460766
 11
126.0992195415
 21
177.7547588372
  0
LINE
  5
226
100
AcDbEntity
  8
0
100
AcDbLine
 62
7
  6
CONTINUOUS
 10
126.0992195415
 20
178.6058226699
 11
125.2658860492
 21
178.4356099242
  0
LINE
  5
227
100
AcDbEntity
  8
0
100
AcDbLine
 62
7
  6
CONTINUOUS
 10
134.0992190646
 20
184.5632696026
 11
134.9325530338
 21
184.7334823483
  0
LINE
  5
228
100
AcDbEntity
  8
0
100
AcDbLine
 62
7
  6
CONTINUOUS
 10
123.5992194223
 20
184.5632696026
 11
124.4325527953
 21
184.7334823483
  0
LINE
  5
229
100
AcDbEntity
  8
0
100
AcDbLine
 62
7
  6
CONTINUOUS
 10
135.0992190646
 20
185.5845460766
 11
133.9325530338
 21
185.414333331
  0
LINE
  5
22A
100
AcDbEntity
  8
0
100
AcDbLine
 62
7
  6
CONTINUOUS
 10
124.5992193031
 20
185.5845460766
 11
123.4325526761
 21
185.414333331
  0
LINE
  5
22B
100
AcDbEntity
  8
0
100
AcDbLine
 62
7
  6
CONTINUOUS
 10
124.4325527953
 20
181.3292269581
 11
125.0992193031
 21
181.3292269581
  0
LINE
  5
22C
100
AcDbEntity
  8
0
100
AcDbLine
 62
7
  6
CONTINUOUS
 10
125.0992193031
 20
182.0100779408
 11
124.4325527953
 21
182.0100779408
  0
LINE
  5
22D
100
AcDbEntity
  8
0
100
AcDbLine
 62
7
  6
CONTINUOUS
 10
139.5992200183
 20
182.3505034321
 11
140.9325520801
 21
182.3505034321
  0
LINE
  5
22E
100
AcDbEntity
  8
0
100
AcDbLine
 62
7
  6
CONTINUOUS
 10
141.7658860492
 20
182.3505034321
 11
143.5992200183
 21
182.3505034321
  0
LINE
  5
22F
100
AcDbEntity
  8
0
100
AcDbLine
 62
7
  6
CONTINUOUS
 10
143.5992200183
 20
183.0313544148
 11
141.7658860492
 21
183.0313544148
  0
LINE
  5
230
100
AcDbEntity
  8
0
100
AcDbLine
 62
7
  6
CONTINUOUS
 10
140.9325520801
 20
183.0313544148
 11
139.5992200183
 21
183.0313544148
  0
LINE
  5
231
100
AcDbEntity
  8
0
100
AcDbLine
 62
7
  6
CONTINUOUS
 10
121.9325527208
 20
183.7122058743
 11
122.7658860492
 21
183.7122058743
  0
LINE
  5
232
100
AcDbEntity
  8
0
100
AcDbLine
 62
7
  6
CONTINUOUS
 10
132.4325530338
 20
183.7122058743
 11
133.2658860492
 21
183.7122058743
  0
LINE
  5
233
100
AcDbEntity
  8
0
100
AcDbLine
 62
7
  6
CONTINUOUS
 10
141.7658860492
 20
184.393056857
 11
140.9325520801
 21
184.393056857
  0
LINE
  5
234
100
AcDbEntity
  8
0
100
AcDbLine
 62
7
  6
CONTINUOUS
 10
124.4325527953
 20
184.7334823483
 11
125.0992193031
 21
184.7334823483
  0
LINE
  5
235
100
AcDbEntity
  8
0
100
AcDbLine
 62
7
  6
CONTINUOUS
 10
134.9325530338
 20
184.7334823483
 11
135.5992190646
 21
184.7334823483
  0
LINE
  5
236
100
AcDbEntity
  8
0
100
AcDbLine
 62
7
  6
CONTINUOUS
 10
135.7658860492
 20
185.5845460766
 11
135.0992190646
 21
185.5845460766
  0
LINE
  5
237
100
AcDbEntity
  8
0
100
AcDbLine
 62
7
  6
CONTINUOUS
 10
124.9325527953
 20
185.5845460766
 11
124.5992193031
 21
185.5845460766
  0
LINE
  5
238
100
AcDbEntity
  8
0
100
AcDbLine
 62
7
  6
CONTINUOUS
 10
94.1825530338
 20
189.5845460766
 11
96.1185564473
 21
189.5845460766
  0
LINE
  5
239
100
AcDbEntity
  8
0
100
AcDbLine
 62
7
  6
CONTINUOUS
 10
169.2465496203
 20
189.5845460766
 11
171.1825530338
 21
189.5845460766
  0
LINE
  5
23A
100
AcDbEntity
  8
0
100
AcDbLine
 62
7
  6
CONTINUOUS
 10
126.0992195415
 20
185.414333331
 11
124.9325527953
 21
185.5845460766
  0
LINE
  5
23B
100
AcDbEntity
  8
0
100
AcDbLine
 62
7
  6
CONTINUOUS
 10
142.2658860492
 20
177.7547588372
 11
143.2658860492
 21
177.5845460766
  0
LINE
  5
23C
100
AcDbEntity
  8
0
100
AcDbLine
 62
7
  6
CONTINUOUS
 10
125.0992193031
 20
181.3292269581
 11
126.0992195415
 21
181.1590142125
  0
LINE
  5
23D
100
AcDbEntity
  8
0
100
AcDbLine
 62
7
  6
CONTINUOUS
 10
136.7658860492
 20
185.414333331
 11
135.7658860492
 21
185.5845460766
  0
LINE
  5
23E
100
AcDbEntity
  8
0
100
AcDbLine
 62
7
  6
CONTINUOUS
 10
143.2658860492
 20
178.2653971189
 11
142.4325520801
 21
178.4356099242
  0
LINE
  5
23F
100
AcDbEntity
  8
0
100
AcDbLine
 62
7
  6
CONTINUOUS
 10
125.0992193031
 20
184.7334823483
 11
125.9325525569
 21
184.5632696026
  0
LINE
  5
240
100
AcDbEntity
  8
0
100
AcDbLine
 62
7
  6
CONTINUOUS
 10
135.5992190646
 20
184.7334823483
 11
136.4325530338
 21
184.5632696026
  0
LINE
  5
241
100
AcDbEntity
  8
0
100
AcDbLine
 62
7
  6
CONTINUOUS
 10
141.7658860492
 20
177.9249715978
 11
142.2658860492
 21
177.7547588372
  0
LINE
  5
242
100
AcDbEntity
  8
0
100
AcDbLine
 62
7
  6
CONTINUOUS
 10
127.2658860492
 20
181.3292269581
 11
126.4325525569
 21
181.6696524495
  0
LINE
  5
243
100
AcDbEntity
  8
0
100
AcDbLine
 62
7
  6
CONTINUOUS
 10
122.7658860492
 20
178.0951843732
 11
123.4325526761
 21
177.7547588372
  0
LINE
  5
244
100
AcDbEntity
  8
0
100
AcDbLine
 62
7
  6
CONTINUOUS
 10
123.4325526761
 20
178.6058226699
 11
123.0992194223
 21
178.7760354155
  0
LINE
  5
245
100
AcDbEntity
  8
0
100
AcDbLine
 62
7
  6
CONTINUOUS
 10
126.7658860492
 20
185.0739078396
 11
126.0992195415
 21
185.414333331
  0
LINE
  5
246
100
AcDbEntity
  8
0
100
AcDbLine
 62
7
  6
CONTINUOUS
 10
122.2658860492
 20
178.4356099242
 11
122.7658860492
 21
178.0951843732
  0
LINE
  5
247
100
AcDbEntity
  8
0
100
AcDbLine
 62
7
  6
CONTINUOUS
 10
126.0992195415
 20
181.1590142125
 11
126.5992195415
 21
180.8185887211
  0
LINE
  5
248
100
AcDbEntity
  8
0
100
AcDbLine
 62
7
  6
CONTINUOUS
 10
137.4325530338
 20
185.0739078396
 11
136.7658860492
 21
185.414333331
  0
LINE
  5
249
100
AcDbEntity
  8
0
100
AcDbLine
 62
7
  6
CONTINUOUS
 10
125.9325525569
 20
184.5632696026
 11
126.4325525569
 21
184.2228441113
  0
LINE
  5
24A
100
AcDbEntity
  8
0
100
AcDbLine
 62
7
  6
CONTINUOUS
 10
141.2658860492
 20
178.2653971189
 11
141.7658860492
 21
177.9249715978
  0
LINE
  5
24B
100
AcDbEntity
  8
0
100
AcDbLine
 62
7
  6
CONTINUOUS
 10
142.4325520801
 20
178.4356099242
 11
141.9325520801
 21
178.7760354155
  0
LINE
  5
24C
100
AcDbEntity
  8
0
100
AcDbLine
 62
7
  6
CONTINUOUS
 10
136.4325530338
 20
184.5632696026
 11
136.9325530338
 21
184.2228441113
  0
LINE
  5
24D
100
AcDbEntity
  8
0
100
AcDbLine
 62
7
  6
CONTINUOUS
 10
123.0992194223
 20
178.7760354155
 11
122.7658860492
 21
179.1164610261
  0
LINE
  5
24E
100
AcDbEntity
  8
0
100
AcDbLine
 62
7
  6
CONTINUOUS
 10
127.4325525569
 20
184.393056857
 11
126.7658860492
 21
185.0739078396
  0
LINE
  5
24F
100
AcDbEntity
  8
BEZUGSACHSEN
100
AcDbLine
 62
7
  6
CONTINUOUS
 10
99.1949128512
 20
186.9990308236
 11
98.8890408097
 21
187.7353789912
  0
LINE
  5
250
100
AcDbEntity
  8
BEZUGSACHSEN
100
AcDbLine
 62
7
  6
CONTINUOUS
 10
92.122319299
 20
204.0254032797
 11
87.1942499627
 21
215.8891055254
  0
LINE
  5
251
100
AcDbEntity
  8
RUNDUNGEN
100
AcDbLine
 62
7
  6
CONTINUOUS
 10
181.1825530338
 20
204.8845460766
 11
120.1825530338
 21
204.8845460766
  0
LINE
  5
252
100
AcDbEntity
  8
RUNDUNGEN
100
AcDbLine
 62
7
  6
CONTINUOUS
 10
120.1825530338
 20
210.3845460766
 11
181.1825530338
 21
210.3845460766
  0
LINE
  5
253
100
AcDbEntity
  8
0
100
AcDbLine
 62
7
  6
CONTINUOUS
 10
127.6825530338
 20
210.6845460766
 11
137.6825530338
 21
210.6845460766
  0
LINE
  5
254
100
AcDbEntity
  8
0
100
AcDbLine
 62
7
  6
CONTINUOUS
 10
138.0992200183
 20
184.393056857
 11
137.4325530338
 21
185.0739078396
  0
LINE
  5
255
100
AcDbEntity
  8
0
100
AcDbLine
 62
7
  6
CONTINUOUS
 10
121.9325527208
 20
178.9462481612
 11
122.2658860492
 21
178.4356099242
  0
LINE
  5
256
100
AcDbEntity
  8
0
100
AcDbLine
 62
7
  6
CONTINUOUS
 10
127.5992195415
 20
180.8185887211
 11
127.2658860492
 21
181.3292269581
  0
LINE
  5
257
100
AcDbEntity
  8
0
100
AcDbLine
 62
7
  6
CONTINUOUS
 10
126.4325525569
 20
184.2228441113
 11
126.7658860492
 21
183.7122058743
  0
LINE
  5
258
100
AcDbEntity
  8
0
100
AcDbLine
 62
7
  6
CONTINUOUS
 10
122.7658860492
 20
179.1164610261
 11
122.5992193627
 21
179.4568865174
  0
LINE
  5
259
100
AcDbEntity
  8
RUNDUNGEN
100
AcDbLine
 62
7
  6
CONTINUOUS
 10
92.1825530338
 20
201.5845460766
 11
92.1825530338
 21
191.5845460766
  0
LINE
  5
25A
100
AcDbEntity
  8
BEZUGSACHSEN
100
AcDbLine
 62
7
  6
CONTINUOUS
 10
92.1825530338
 20
191.5845460766
 11
92.1825530338
 21
201.5845460766
  0
LINE
  5
25B
100
AcDbEntity
  8
0
100
AcDbLine
 62
7
  6
CONTINUOUS
 10
136.9325530338
 20
184.2228441113
 11
137.2658860492
 21
183.7122058743
  0
LINE
  5
25C
100
AcDbEntity
  8
0
100
AcDbLine
 62
7
  6
CONTINUOUS
 10
104.9065138159
 20
240.7201951042
 11
106.9595056149
 21
236.604808597
  0
LINE
  5
25D
100
AcDbEntity
  8
0
100
AcDbLine
 62
7
  6
CONTINUOUS
 10
126.5992195415
 20
180.8185887211
 11
126.9325525569
 21
180.1377375001
  0
LINE
  5
25E
100
AcDbEntity
  8
0
100
AcDbLine
 62
7
  6
CONTINUOUS
 10
121.7658860492
 20
179.4568865174
 11
121.9325527208
 21
178.9462481612
  0
LINE
  5
25F
100
AcDbEntity
  8
0
100
AcDbLine
 62
7
  6
CONTINUOUS
 10
109.4262301611
 20
242.6822910604
 11
109.4293646222
 21
242.3845290548
  0
LINE
  5
260
100
AcDbEntity
  8
0
100
AcDbLine
 62
7
  6
CONTINUOUS
 10
110.1408592696
 20
245.5031958578
 11
110.1471281919
 21
244.9076718465
  0
LINE
  5
261
100
AcDbEntity
  8
BEZUGSACHSEN
100
AcDbLine
 62
7
  6
CONTINUOUS
 10
87.1923262376
 20
219.7205775449
 11
87.4560828043
 21
220.3573422255
  0
LINE
  5
262
100
AcDbEntity
  8
RUNDUNGEN
100
AcDbLine
 62
7
  6
CONTINUOUS
 10
87.4560828043
 20
220.3573422255
 11
98.2854127173
 21
246.5016573729
  0
LINE
  5
263
100
AcDbEntity
  8
0
100
AcDbLine
 62
7
  6
CONTINUOUS
 10
112.272209383
 20
241.0148228595
 11
109.879141881
 21
242.0820651467
  0
LINE
  5
264
100
AcDbEntity
  8
0
100
AcDbLine
 62
7
  6
CONTINUOUS
 10
109.5876483762
 20
241.4896751751
 11
111.7566109694
 21
240.4992244458
  0
LINE
  5
265
100
AcDbEntity
  8
0
100
AcDbLine
 62
7
  6
CONTINUOUS
 10
106.9595056149
 20
236.604808597
 11
102.8441191077
 21
238.657800396
  0
LINE
  5
266
100
AcDbEntity
  8
0
100
AcDbLine
 62
7
  6
CONTINUOUS
 10
102.4021773694
 20
238.2158586578
 11
107.1162226125
 21
235.8588360889
  0
LINE
  5
267
100
AcDbEntity
  8
0
100
AcDbLine
 62
7
  6
CONTINUOUS
 10
108.7492129001
 20
243.3593083214
 11
109.048542347
 21
243.2072930682
  0
LINE
  5
268
100
AcDbEntity
  8
0
100
AcDbLine
 62
7
  6
CONTINUOUS
 10
109.4904840853
 20
243.6492348064
 11
109.1911546383
 21
243.8012500596
  0
LINE
  5
269
100
AcDbEntity
  8
0
100
AcDbLine
 62
7
  6
CONTINUOUS
 10
111.8835516926
 20
242.5819924138
 11
112.2581048348
 21
242.3547526224
  0
LINE
  5
26A
100
AcDbEntity
  8
0
100
AcDbLine
 62
7
  6
CONTINUOUS
 10
110.6752638178
 20
244.2322211839
 11
111.0498178029
 21
244.0049822355
  0
LINE
  5
26B
100
AcDbEntity
  8
0
100
AcDbLine
 62
7
  6
CONTINUOUS
 10
105.9377112754
 20
241.7513925637
 11
109.4732451813
 21
238.2158586578
  0
LINE
  5
26C
100
AcDbEntity
  8
0
100
AcDbLine
 62
7
  6
CONTINUOUS
 10
109.9151869195
 20
238.657800396
 11
108.3354802583
 21
240.2375070572
  0
LINE
  5
26D
100
AcDbEntity
  8
0
100
AcDbLine
 62
7
  6
CONTINUOUS
 10
107.8841355582
 20
240.6888517574
 11
106.7557735971
 21
241.8172137185
  0
LINE
  5
26E
100
AcDbEntity
  8
0
100
AcDbLine
 62
7
  6
CONTINUOUS
 10
109.048542347
 20
243.2072930682
 11
109.2742149078
 21
242.9816205074
  0
LINE
  5
26F
100
AcDbEntity
  8
0
100
AcDbLine
 62
7
  6
CONTINUOUS
 10
109.7913807628
 20
243.3483381289
 11
109.4904840853
 21
243.6492348064
  0
LINE
  5
270
100
AcDbEntity
  8
0
100
AcDbLine
 62
7
  6
CONTINUOUS
 10
110.3743671403
 20
244.5331178614
 11
110.6752638178
 21
244.2322211839
  0
LINE
  5
271
100
AcDbEntity
  8
0
100
AcDbLine
 62
7
  6
CONTINUOUS
 10
111.0419814393
 20
244.7493870389
 11
110.891533206
 21
244.8998352722
  0
LINE
  5
272
100
AcDbEntity
  8
0
100
AcDbLine
 62
7
  6
CONTINUOUS
 10
110.1471281919
 20
244.9076718465
 11
110.3743671403
 21
244.5331178614
  0
LINE
  5
273
100
AcDbEntity
  8
0
100
AcDbLine
 62
7
  6
CONTINUOUS
 10
109.2742149078
 20
242.9816205074
 11
109.4262301611
 21
242.6822910604
  0
LINE
  5
274
100
AcDbEntity
  8
0
100
AcDbLine
 62
7
  6
CONTINUOUS
 10
109.943396016
 20
243.049008682
 11
109.7913807628
 21
243.3483381289
  0
LINE
  5
275
100
AcDbEntity
  8
0
100
AcDbLine
 62
7
  6
CONTINUOUS
 10
110.891533206
 20
244.8998352722
 11
110.7395181635
 21
245.1991653514
  0
LINE
  5
276
100
AcDbEntity
  8
0
100
AcDbLine
 62
7
  6
CONTINUOUS
 10
107.7054782283
 20
236.4480917048
 11
105.3484555541
 21
241.1621368425
  0
LINE
  5
277
100
AcDbEntity
  8
0
100
AcDbLine
 62
7
  6
CONTINUOUS
 10
140.9325520801
 20
178.9462481612
 11
141.2658860492
 21
178.2653971189
  0
LINE
  5
278
100
AcDbEntity
  8
0
100
AcDbLine
 62
7
  6
CONTINUOUS
 10
127.7658860492
 20
180.1377375001
 11
127.5992195415
 21
180.8185887211
  0
LINE
  5
279
100
AcDbEntity
  8
0
100
AcDbLine
 62
7
  6
CONTINUOUS
 10
127.5992195415
 20
183.7122058743
 11
127.4325525569
 21
184.393056857
  0
LINE
  5
27A
100
AcDbEntity
  8
0
100
AcDbLine
 62
7
  6
CONTINUOUS
 10
110.0233216136
 20
242.5271413461
 11
109.943396016
 21
243.049008682
  0
LINE
  5
27B
100
AcDbEntity
  8
0
100
AcDbLine
 62
7
  6
CONTINUOUS
 10
114.9191587266
 20
244.1131169559
 11
114.912889778
 21
244.7086409935
  0
LINE
  5
27C
100
AcDbEntity
  8
KONSTRUKTIONSELEMENTE
100
AcDbLine
 62
7
  6
CONTINUOUS
 10
115.1825530338
 20
172.5845460766
 11
115.1825530338
 21
172.3845460766
  0
LINE
  5
27D
100
AcDbEntity
  8
0
100
AcDbLine
 62
7
  6
CONTINUOUS
 10
118.6825530338
 20
206.3845460766
 11
118.6825530338
 21
208.8845460766
  0
LINE
  5
27E
100
AcDbEntity
  8
KONSTRUKTIONSELEMENTE
100
AcDbLine
 62
7
  6
CONTINUOUS
 10
120.6825530338
 20
172.3845460766
 11
120.6825530338
 21
138.3845460766
  0
LINE
  5
27F
100
AcDbEntity
  8
0
100
AcDbLine
 62
7
  6
CONTINUOUS
 10
110.7395181635
 20
245.1991653514
 11
110.8100407992
 21
245.5705844539
  0
LINE
  5
280
100
AcDbEntity
  8
0
100
AcDbLine
 62
7
  6
CONTINUOUS
 10
114.3204997537
 20
244.4171475414
 11
114.2499771707
 21
244.0457283862
  0
LINE
  5
281
100
AcDbEntity
  8
0
100
AcDbLine
 62
7
  6
CONTINUOUS
 10
110.2850385808
 20
245.9482716357
 11
110.1408592696
 21
245.5031958578
  0
LINE
  5
282
100
AcDbEntity
  8
0
100
AcDbLine
 62
7
  6
CONTINUOUS
 10
109.879141881
 20
242.0820651467
 11
110.0233216136
 21
242.5271413461
  0
LINE
  5
283
100
AcDbEntity
  8
0
100
AcDbLine
 62
7
  6
CONTINUOUS
 10
114.7749785923
 20
243.6680403153
 11
114.9191587266
 21
244.1131169559
  0
LINE
  5
284
100
AcDbEntity
  8
0
100
AcDbLine
 62
7
  6
CONTINUOUS
 10
110.8100407992
 20
245.5705844539
 11
110.9557875517
 21
245.8667794397
  0
LINE
  5
285
100
AcDbEntity
  8
0
100
AcDbLine
 62
7
  6
CONTINUOUS
 10
109.4293646222
 20
242.3845290548
 11
109.2836178698
 21
242.088334069
  0
LINE
  5
286
100
AcDbEntity
  8
0
100
AcDbLine
 62
7
  6
CONTINUOUS
 10
110.5044428515
 20
246.3181241398
 11
110.2850385808
 21
245.9482716357
  0
LINE
  5
287
100
AcDbEntity
  8
0
100
AcDbLine
 62
7
  6
CONTINUOUS
 10
114.2499771707
 20
244.0457283862
 11
114.0305737429
 21
243.675876725
  0
LINE
  5
288
100
AcDbEntity
  8
0
100
AcDbLine
 62
7
  6
CONTINUOUS
 10
110.8727270714
 20
246.6864083597
 11
110.5044428515
 21
246.3181241398
  0
LINE
  5
289
100
AcDbEntity
  8
0
100
AcDbLine
 62
7
  6
CONTINUOUS
 10
107.7054782283
 20
243.5191595167
 11
105.9377112754
 21
241.7513925637
  0
LINE
  5
28A
100
AcDbEntity
  8
0
100
AcDbLine
 62
7
  6
CONTINUOUS
 10
105.3484555541
 20
241.1621368425
 11
104.9065138159
 21
240.7201951042
  0
LINE
  5
28B
100
AcDbEntity
  8
0
100
AcDbLine
 62
7
  6
CONTINUOUS
 10
102.8441191077
 20
238.657800396
 11
102.4021773694
 21
238.2158586578
  0
LINE
  5
28C
100
AcDbEntity
  8
0
100
AcDbLine
 62
7
  6
CONTINUOUS
 10
106.7557735971
 20
241.8172137185
 11
108.1552559087
 21
243.2166960301
  0
LINE
  5
28D
100
AcDbEntity
  8
0
100
AcDbLine
 62
7
  6
CONTINUOUS
 10
113.0714661497
 20
242.8672173652
 11
112.6248228778
 21
242.8719188988
  0
LINE
  5
28E
100
AcDbEntity
  8
0
100
AcDbLine
 62
7
  6
CONTINUOUS
 10
108.4514508945
 20
243.3624427825
 11
108.7492129001
 21
243.3593083214
  0
LINE
  5
28F
100
AcDbEntity
  8
0
100
AcDbLine
 62
7
  6
CONTINUOUS
 10
111.0498178029
 20
244.0049822355
 11
111.6453418142
 21
243.9987133132
  0
LINE
  5
290
100
AcDbEntity
  8
0
100
AcDbLine
 62
7
  6
CONTINUOUS
 10
109.1911546383
 20
243.8012500596
 11
108.6692873025
 21
243.8811756573
  0
LINE
  5
291
100
AcDbEntity
  8
0
100
AcDbLine
 62
7
  6
CONTINUOUS
 10
112.3584034814
 20
246.9684989027
 11
111.8365361456
 21
247.0484245003
  0
LINE
  5
292
100
AcDbEntity
  8
0
100
AcDbLine
 62
7
  6
CONTINUOUS
 10
113.6434825982
 20
245.0941646969
 11
114.0164692473
 21
245.0158064352
  0
LINE
  5
293
100
AcDbEntity
  8
0
100
AcDbLine
 62
7
  6
CONTINUOUS
 10
112.2581048348
 20
242.3547526224
 11
112.8551967879
 21
242.1996032505
  0
LINE
  5
294
100
AcDbEntity
  8
0
100
AcDbLine
 62
7
  6
CONTINUOUS
 10
114.3831868689
 20
245.5329722902
 11
113.934976103
 21
245.6865546686
  0
LINE
  5
295
100
AcDbEntity
  8
0
100
AcDbLine
 62
7
  6
CONTINUOUS
 10
111.9916858599
 20
246.4513330478
 11
112.2157916116
 21
246.3745423327
  0
LINE
  5
296
100
AcDbEntity
  8
0
100
AcDbLine
 62
7
  6
CONTINUOUS
 10
112.6248228778
 20
242.8719188988
 11
112.3254930094
 21
243.0239337305
  0
LINE
  5
297
100
AcDbEntity
  8
0
100
AcDbLine
 62
7
  6
CONTINUOUS
 10
111.3413113077
 20
244.5973722071
 11
111.0419814393
 21
244.7493870389
  0
LINE
  5
298
100
AcDbEntity
  8
0
100
AcDbLine
 62
7
  6
CONTINUOUS
 10
112.6577333498
 20
246.816484071
 11
112.3584034814
 21
246.9684989027
  0
LINE
  5
299
100
AcDbEntity
  8
0
100
AcDbLine
 62
7
  6
CONTINUOUS
 10
114.0164692473
 20
245.0158064352
 11
114.2421415974
 21
244.7901340852
  0
LINE
  5
29A
100
AcDbEntity
  8
0
100
AcDbLine
 62
7
  6
CONTINUOUS
 10
114.7593074523
 20
245.1568517067
 11
114.3831868689
 21
245.5329722902
  0
LINE
  5
29B
100
AcDbEntity
  8
0
100
AcDbLine
 62
7
  6
CONTINUOUS
 10
114.912889778
 20
244.7086409935
 11
114.7593074523
 21
245.1568517067
  0
LINE
  5
29C
100
AcDbEntity
  8
0
100
AcDbLine
 62
7
  6
CONTINUOUS
 10
141.9325520801
 20
178.7760354155
 11
141.7658860492
 21
179.2866737717
  0
LINE
  5
29D
100
AcDbEntity
  8
0
100
AcDbLine
 62
7
  6
CONTINUOUS
 10
138.2658860492
 20
183.7122058743
 11
138.0992200183
 21
184.393056857
  0
LINE
  5
29E
100
AcDbEntity
  8
0
100
AcDbLine
 62
7
  6
CONTINUOUS
 10
114.2421415974
 20
244.7901340852
 11
114.3204997537
 21
244.4171475414
  0
LINE
  5
29F
100
AcDbEntity
  8
0
100
AcDbLine
 62
7
  6
CONTINUOUS
 10
124.4325527953
 20
182.0100779408
 11
124.4325527953
 21
181.3292269581
  0
LINE
  5
2A0
100
AcDbEntity
  8
0
100
AcDbLine
 62
7
  6
CONTINUOUS
 10
124.7151193189
 20
204.8845460766
 11
124.7151193189
 21
195.7818031394
  0
LINE
  5
2A1
100
AcDbEntity
  8
BEZUGSACHSEN
100
AcDbLine
 62
7
  6
CONTINUOUS
 10
125.5153402189
 20
204.8845460766
 11
125.5153402189
 21
195.6674701957
  0
LINE
  5
2A2
100
AcDbEntity
  8
0
100
AcDbLine
 62
7
  6
CONTINUOUS
 10
125.911720972
 20
253.5845460766
 11
125.911720972
 21
248.5845460766
  0
LINE
  5
2A3
100
AcDbEntity
  8
0
100
AcDbLine
 62
7
  6
CONTINUOUS
 10
126.536720972
 20
248.5845460766
 11
126.536720972
 21
250.8185886615
  0
LINE
  5
2A4
100
AcDbEntity
  8
0
100
AcDbLine
 62
7
  6
CONTINUOUS
 10
126.536720972
 20
251.4568864578
 11
126.536720972
 21
253.0526312464
  0
LINE
  5
2A5
100
AcDbEntity
  8
0
100
AcDbLine
 62
7
  6
CONTINUOUS
 10
126.7658860492
 20
183.7122058743
 11
126.7658860492
 21
183.3717799061
  0
LINE
  5
2A6
100
AcDbEntity
  8
0
100
AcDbLine
 62
7
  6
CONTINUOUS
 10
126.9325525569
 20
180.1377375001
 11
126.9325525569
 21
179.4568865174
  0
LINE
  5
2A7
100
AcDbEntity
  8
0
100
AcDbLine
 62
7
  6
CONTINUOUS
 10
127.5992195415
 20
183.3717799061
 11
127.5992195415
 21
183.7122058743
  0
LINE
  5
2A8
100
AcDbEntity
  8
0
100
AcDbLine
 62
7
  6
CONTINUOUS
 10
127.6825530338
 20
210.3845460766
 11
127.6825530338
 21
210.6845460766
  0
LINE
  5
2A9
100
AcDbEntity
  8
0
100
AcDbLine
 62
7
  6
CONTINUOUS
 10
127.7658860492
 20
179.4568865174
 11
127.7658860492
 21
180.1377375001
  0
LINE
  5
2AA
100
AcDbEntity
  8
BEZUGSACHSEN
100
AcDbLine
 62
7
  6
CONTINUOUS
 10
127.8986152764
 20
204.8845460766
 11
127.8986152764
 21
195.364971658
  0
LINE
  5
2AB
100
AcDbEntity
  8
0
100
AcDbLine
 62
7
  6
CONTINUOUS
 10
128.6988361764
 20
204.8845460766
 11
128.6988361764
 21
195.2805004033
  0
LINE
  5
2AC
100
AcDbEntity
  8
0
100
AcDbLine
 62
7
  6
CONTINUOUS
 10
129.1408875393
 20
252.4143334502
 11
129.1408875393
 21
252.095184254
  0
LINE
  5
2AD
100
AcDbEntity
  8
0
100
AcDbLine
 62
7
  6
CONTINUOUS
 10
129.7658875393
 20
251.988801288
 11
129.7658875393
 21
252.4143334502
  0
LINE
  5
2AE
100
AcDbEntity
  8
BEZUGSACHSEN
100
AcDbLine
 62
7
  6
CONTINUOUS
 10
130.2992779762
 20
204.8845460766
 11
130.2992779762
 21
195.1488571452
  0
LINE
  5
2AF
100
AcDbEntity
  8
0
100
AcDbLine
 62
7
  6
CONTINUOUS
 10
130.7033875393
 20
253.5845460766
 11
130.7033875393
 21
250.2866736823
  0
LINE
  5
2B0
100
AcDbEntity
  8
0
100
AcDbLine
 62
7
  6
CONTINUOUS
 10
131.3283878373
 20
250.2866736823
 11
131.3283878373
 21
253.5845460766
  0
LINE
  5
2B1
100
AcDbEntity
  8
0
100
AcDbLine
 62
7
  6
CONTINUOUS
 10
132.2658860492
 20
178.4356099242
 11
132.2658860492
 21
177.5845460766
  0
LINE
  5
2B2
100
AcDbEntity
  8
0
100
AcDbLine
 62
7
  6
CONTINUOUS
 10
132.6825530338
 20
210.3845460766
 11
132.6825530338
 21
210.6845460766
  0
LINE
  5
2B3
100
AcDbEntity
  8
0
100
AcDbLine
 62
7
  6
CONTINUOUS
 10
133.8283878373
 20
253.5845460766
 11
133.8283878373
 21
250.2866736823
  0
LINE
  5
2B4
100
AcDbEntity
  8
0
100
AcDbLine
 62
7
  6
CONTINUOUS
 10
129.1408875393
 20
252.095184254
 11
129.036720972
 21
251.7760353559
  0
LINE
  5
2B5
100
AcDbEntity
  8
0
100
AcDbLine
 62
7
  6
CONTINUOUS
 10
129.661720972
 20
251.6696523899
 11
129.7658875393
 21
251.988801288
  0
LINE
  5
2B6
100
AcDbEntity
  8
0
100
AcDbLine
 62
7
  6
CONTINUOUS
 10
114.4819184957
 20
243.2245319721
 11
114.7749785923
 21
243.6680403153
  0
LINE
  5
2B7
100
AcDbEntity
  8
0
100
AcDbLine
 62
7
  6
CONTINUOUS
 10
129.349220972
 20
251.2441205257
 11
129.661720972
 21
251.6696523899
  0
LINE
  5
2B8
100
AcDbEntity
  8
0
100
AcDbLine
 62
7
  6
CONTINUOUS
 10
129.036720972
 20
251.7760353559
 11
128.8283875393
 21
251.5632694238
  0
LINE
  5
2B9
100
AcDbEntity
  8
0
100
AcDbLine
 62
7
  6
CONTINUOUS
 10
110.9557875517
 20
245.8667794397
 11
111.3977292899
 21
246.3087211779
  0
LINE
  5
2BA
100
AcDbEntity
  8
0
100
AcDbLine
 62
7
  6
CONTINUOUS
 10
112.2157916116
 20
246.3745423327
 11
112.6577333498
 21
246.816484071
  0
LINE
  5
2BB
100
AcDbEntity
  8
0
100
AcDbLine
 62
7
  6
CONTINUOUS
 10
112.4508671343
 20
245.2555833335
 11
112.0089253961
 21
244.8136415953
  0
LINE
  5
2BC
100
AcDbEntity
  8
0
100
AcDbLine
 62
7
  6
CONTINUOUS
 10
109.2836178698
 20
242.088334069
 11
107.8841355582
 21
240.6888517574
  0
LINE
  5
2BD
100
AcDbEntity
  8
0
100
AcDbLine
 62
7
  6
CONTINUOUS
 10
108.3354802583
 20
240.2375070572
 11
109.5876483762
 21
241.4896751751
  0
LINE
  5
2BE
100
AcDbEntity
  8
0
100
AcDbLine
 62
7
  6
CONTINUOUS
 10
112.4602700962
 20
244.3622968951
 11
112.9022118344
 21
244.8042386334
  0
LINE
  5
2BF
100
AcDbEntity
  8
0
100
AcDbLine
 62
7
  6
CONTINUOUS
 10
112.3254930094
 20
243.0239337305
 11
111.8835516926
 21
242.5819924138
  0
LINE
  5
2C0
100
AcDbEntity
  8
0
100
AcDbLine
 62
7
  6
CONTINUOUS
 10
114.0305737429
 20
243.675876725
 11
113.4413178109
 21
243.086620793
  0
LINE
  5
2C1
100
AcDbEntity
  8
0
100
AcDbLine
 62
7
  6
CONTINUOUS
 10
107.1162226125
 20
235.8588360889
 11
107.7054782283
 21
236.4480917048
  0
LINE
  5
2C2
100
AcDbEntity
  8
0
100
AcDbLine
 62
7
  6
CONTINUOUS
 10
109.4732451813
 20
238.2158586578
 11
109.9151869195
 21
238.657800396
  0
LINE
  5
2C3
100
AcDbEntity
  8
0
100
AcDbLine
 62
7
  6
CONTINUOUS
 10
111.7566109694
 20
240.4992244458
 11
112.272209383
 21
241.0148228595
  0
LINE
  5
2C4
100
AcDbEntity
  8
0
100
AcDbLine
 62
7
  6
CONTINUOUS
 10
113.8926625637
 20
242.6352760402
 11
114.4819184957
 21
243.2245319721
  0
LINE
  5
2C5
100
AcDbEntity
  8
0
100
AcDbLine
 62
7
  6
CONTINUOUS
 10
111.316236251
 20
246.9794693059
 11
110.8727270714
 21
246.6864083597
  0
LINE
  5
2C6
100
AcDbEntity
  8
0
100
AcDbLine
 62
7
  6
CONTINUOUS
 10
108.1489869864
 20
243.8122200413
 11
107.7054782283
 21
243.5191595167
  0
LINE
  5
2C7
100
AcDbEntity
  8
0
100
AcDbLine
 62
7
  6
CONTINUOUS
 10
112.8943754709
 20
245.5486434367
 11
112.4508671343
 21
245.2555833335
  0
LINE
  5
2C8
100
AcDbEntity
  8
0
100
AcDbLine
 62
7
  6
CONTINUOUS
 10
113.4491533776
 20
242.3422151006
 11
113.8926625637
 21
242.6352760402
  0
LINE
  5
2C9
100
AcDbEntity
  8
0
100
AcDbLine
 62
7
  6
CONTINUOUS
 10
112.9022118344
 20
244.8042386334
 11
113.2720634957
 21
245.0236420612
  0
LINE
  5
2CA
100
AcDbEntity
  8
0
100
AcDbLine
 62
7
  6
CONTINUOUS
 10
112.0904175921
 20
244.1428926244
 11
112.4602700962
 21
244.3622968951
  0
LINE
  5
2CB
100
AcDbEntity
  8
0
100
AcDbLine
 62
7
  6
CONTINUOUS
 10
113.4413178109
 20
243.086620793
 11
113.0714661497
 21
242.8672173652
  0
LINE
  5
2CC
100
AcDbEntity
  8
0
100
AcDbLine
 62
7
  6
CONTINUOUS
 10
128.9325544047
 20
251.0313545936
 11
129.349220972
 21
251.2441205257
  0
LINE
  5
2CD
100
AcDbEntity
  8
0
100
AcDbLine
 62
7
  6
CONTINUOUS
 10
111.3977292899
 20
246.3087211779
 11
111.6939242757
 21
246.4544679304
  0
LINE
  5
2CE
100
AcDbEntity
  8
0
100
AcDbLine
 62
7
  6
CONTINUOUS
 10
108.1552559087
 20
243.2166960301
 11
108.4514508945
 21
243.3624427825
  0
LINE
  5
2CF
100
AcDbEntity
  8
0
100
AcDbLine
 62
7
  6
CONTINUOUS
 10
112.0089253961
 20
244.8136415953
 11
111.7127304103
 21
244.6678948429
  0
LINE
  5
2D0
100
AcDbEntity
  8
RUNDUNGEN
100
AcDbLine
 62
7
  6
CONTINUOUS
 10
100.9913932181
 20
249.2076378736
 11
130.7691358719
 21
261.5419827377
  0
LINE
  5
2D1
100
AcDbEntity
  8
0
100
AcDbLine
 62
7
  6
CONTINUOUS
 10
138.2033872413
 20
249.3292269134
 11
137.786720972
 21
249.2228439474
  0
LINE
  5
2D2
100
AcDbEntity
  8
0
100
AcDbLine
 62
7
  6
CONTINUOUS
 10
133.2033878373
 20
249.3292269134
 11
132.786720972
 21
249.2228439474
  0
LINE
  5
2D3
100
AcDbEntity
  8
0
100
AcDbLine
 62
7
  6
CONTINUOUS
 10
112.8551967879
 20
242.1996032505
 11
113.4491533776
 21
242.3422151006
  0
LINE
  5
2D4
100
AcDbEntity
  8
0
100
AcDbLine
 62
7
  6
CONTINUOUS
 10
137.786720972
 20
248.5845460766
 11
138.3075547027
 21
248.690929052
  0
LINE
  5
2D5
100
AcDbEntity
  8
0
100
AcDbLine
 62
7
  6
CONTINUOUS
 10
132.786720972
 20
248.5845460766
 11
133.3075541066
 21
248.690929052
  0
LINE
  5
2D6
100
AcDbEntity
  8
0
100
AcDbLine
 62
7
  6
CONTINUOUS
 10
111.7127304103
 20
244.6678948429
 11
111.3413113077
 21
244.5973722071
  0
LINE
  5
2D7
100
AcDbEntity
  8
0
100
AcDbLine
 62
7
  6
CONTINUOUS
 10
113.2720634957
 20
245.0236420612
 11
113.6434825982
 21
245.0941646969
  0
LINE
  5
2D8
100
AcDbEntity
  8
0
100
AcDbLine
 62
7
  6
CONTINUOUS
 10
108.6692873025
 20
243.8811756573
 11
108.1489869864
 21
243.8122200413
  0
LINE
  5
2D9
100
AcDbEntity
  8
0
100
AcDbLine
 62
7
  6
CONTINUOUS
 10
111.8365361456
 20
247.0484245003
 11
111.316236251
 21
246.9794693059
  0
LINE
  5
2DA
100
AcDbEntity
  8
0
100
AcDbLine
 62
7
  6
CONTINUOUS
 10
125.911720972
 20
248.5845460766
 11
126.536720972
 21
248.5845460766
  0
LINE
  5
2DB
100
AcDbEntity
  8
0
100
AcDbLine
 62
7
  6
CONTINUOUS
 10
129.1408875393
 20
248.5845460766
 11
129.8700544047
 21
248.5845460766
  0
LINE
  5
2DC
100
AcDbEntity
  8
0
100
AcDbLine
 62
7
  6
CONTINUOUS
 10
132.3700541066
 20
248.5845460766
 11
132.786720972
 21
248.5845460766
  0
LINE
  5
2DD
100
AcDbEntity
  8
0
100
AcDbLine
 62
7
  6
CONTINUOUS
 10
135.286720972
 20
248.5845460766
 11
137.786720972
 21
248.5845460766
  0
LINE
  5
2DE
100
AcDbEntity
  8
0
100
AcDbLine
 62
7
  6
CONTINUOUS
 10
137.786720972
 20
249.2228439474
 11
135.911720972
 21
249.2228439474
  0
LINE
  5
2DF
100
AcDbEntity
  8
0
100
AcDbLine
 62
7
  6
CONTINUOUS
 10
132.786720972
 20
249.2228439474
 11
132.3700541066
 21
249.2228439474
  0
LINE
  5
2E0
100
AcDbEntity
  8
0
100
AcDbLine
 62
7
  6
CONTINUOUS
 10
126.536720972
 20
250.8185886615
 11
128.3075542557
 21
250.8185886615
  0
LINE
  5
2E1
100
AcDbEntity
  8
0
100
AcDbLine
 62
7
  6
CONTINUOUS
 10
128.5158875393
 20
251.4568864578
 11
126.536720972
 21
251.4568864578
  0
LINE
  5
2E2
100
AcDbEntity
  8
0
100
AcDbLine
 62
7
  6
CONTINUOUS
 10
135.911720972
 20
252.9462482804
 11
137.786720972
 21
252.9462482804
  0
LINE
  5
2E3
100
AcDbEntity
  8
0
100
AcDbLine
 62
7
  6
CONTINUOUS
 10
126.536720972
 20
253.0526312464
 11
128.5158875393
 21
253.0526312464
  0
LINE
  5
2E4
100
AcDbEntity
  8
0
100
AcDbLine
 62
7
  6
CONTINUOUS
 10
137.786720972
 20
253.5845460766
 11
135.286720972
 21
253.5845460766
  0
LINE
  5
2E5
100
AcDbEntity
  8
0
100
AcDbLine
 62
7
  6
CONTINUOUS
 10
134.4533878373
 20
253.5845460766
 11
133.8283878373
 21
253.5845460766
  0
LINE
  5
2E6
100
AcDbEntity
  8
0
100
AcDbLine
 62
7
  6
CONTINUOUS
 10
131.3283878373
 20
253.5845460766
 11
130.7033875393
 21
253.5845460766
  0
LINE
  5
2E7
100
AcDbEntity
  8
0
100
AcDbLine
 62
7
  6
CONTINUOUS
 10
128.411720972
 20
253.5845460766
 11
125.911720972
 21
253.5845460766
  0
LINE
  5
2E8
100
AcDbEntity
  8
0
100
AcDbLine
 62
7
  6
CONTINUOUS
 10
113.934976103
 20
245.6865546686
 11
113.3394520917
 21
245.6928235908
  0
LINE
  5
2E9
100
AcDbEntity
  8
0
100
AcDbLine
 62
7
  6
CONTINUOUS
 10
111.6939242757
 20
246.4544679304
 11
111.9916858599
 21
246.4513330478
  0
LINE
  5
2EA
100
AcDbEntity
  8
0
100
AcDbLine
 62
7
  6
CONTINUOUS
 10
131.849220972
 20
248.690929052
 11
132.3700541066
 21
248.5845460766
  0
LINE
  5
2EB
100
AcDbEntity
  8
0
100
AcDbLine
 62
7
  6
CONTINUOUS
 10
128.9325544047
 20
253.4781631106
 11
128.411720972
 21
253.5845460766
  0
LINE
  5
2EC
100
AcDbEntity
  8
0
100
AcDbLine
 62
7
  6
CONTINUOUS
 10
138.3075547027
 20
253.4781631106
 11
137.786720972
 21
253.5845460766
  0
LINE
  5
2ED
100
AcDbEntity
  8
0
100
AcDbLine
 62
7
  6
CONTINUOUS
 10
132.3700541066
 20
249.2228439474
 11
131.9533878373
 21
249.3292269134
  0
LINE
  5
2EE
100
AcDbEntity
  8
0
100
AcDbLine
 62
7
  6
CONTINUOUS
 10
137.786720972
 20
252.9462482804
 11
138.2033872413
 21
252.8398653144
  0
LINE
  5
2EF
100
AcDbEntity
  8
0
100
AcDbLine
 62
7
  6
CONTINUOUS
 10
128.5158875393
 20
253.0526312464
 11
128.8283875393
 21
252.9462482804
  0
LINE
  5
2F0
100
AcDbEntity
  8
0
100
AcDbLine
 62
7
  6
CONTINUOUS
 10
131.4325541066
 20
248.903695012
 11
131.849220972
 21
248.690929052
  0
LINE
  5
2F1
100
AcDbEntity
  8
0
100
AcDbLine
 62
7
  6
CONTINUOUS
 10
131.9533878373
 20
249.3292269134
 11
131.6408878373
 21
249.54199292
  0
LINE
  5
2F2
100
AcDbEntity
  8
0
100
AcDbLine
 62
7
  6
CONTINUOUS
 10
129.349220972
 20
253.1590142125
 11
128.9325544047
 21
253.4781631106
  0
LINE
  5
2F3
100
AcDbEntity
  8
0
100
AcDbLine
 62
7
  6
CONTINUOUS
 10
131.0158878373
 20
249.3292269134
 11
131.4325541066
 21
248.903695012
  0
LINE
  5
2F4
100
AcDbEntity
  8
0
100
AcDbLine
 62
7
  6
CONTINUOUS
 10
128.8283875393
 20
252.9462482804
 11
129.036720972
 21
252.7334823483
  0
LINE
  5
2F5
100
AcDbEntity
  8
0
100
AcDbLine
 62
7
  6
CONTINUOUS
 10
129.661720972
 20
252.7334823483
 11
129.349220972
 21
253.1590142125
  0
LINE
  5
2F6
100
AcDbEntity
  8
0
100
AcDbLine
 62
7
  6
CONTINUOUS
 10
131.6408878373
 20
249.54199292
 11
131.4325541066
 21
249.8611418182
  0
LINE
  5
2F7
100
AcDbEntity
  8
0
100
AcDbLine
 62
7
  6
CONTINUOUS
 10
130.8075544047
 20
249.7547588521
 11
131.0158878373
 21
249.3292269134
  0
LINE
  5
2F8
100
AcDbEntity
  8
0
100
AcDbLine
 62
7
  6
CONTINUOUS
 10
129.8700544047
 20
248.5845460766
 11
128.9325544047
 21
251.0313545936
  0
LINE
  5
2F9
100
AcDbEntity
  8
0
100
AcDbLine
 62
7
  6
CONTINUOUS
 10
128.3075542557
 20
250.8185886615
 11
129.1408875393
 21
248.5845460766
  0
LINE
  5
2FA
100
AcDbEntity
  8
0
100
AcDbLine
 62
7
  6
CONTINUOUS
 10
129.036720972
 20
252.7334823483
 11
129.1408875393
 21
252.4143334502
  0
LINE
  5
2FB
100
AcDbEntity
  8
0
100
AcDbLine
 62
7
  6
CONTINUOUS
 10
129.7658875393
 20
252.4143334502
 11
129.661720972
 21
252.7334823483
  0
LINE
  5
2FC
100
AcDbEntity
  8
0
100
AcDbLine
 62
7
  6
CONTINUOUS
 10
131.4325541066
 20
249.8611418182
 11
131.3283878373
 21
250.2866736823
  0
LINE
  5
2FD
100
AcDbEntity
  8
0
100
AcDbLine
 62
7
  6
CONTINUOUS
 10
130.7033875393
 20
250.2866736823
 11
130.8075544047
 21
249.7547588521
  0
LINE
  5
2FE
100
AcDbEntity
  8
0
100
AcDbLine
 62
7
  6
CONTINUOUS
 10
134.4533878373
 20
250.2866736823
 11
134.4533878373
 21
253.5845460766
  0
LINE
  5
2FF
100
AcDbEntity
  8
BEZUGSACHSEN
100
AcDbLine
 62
7
  6
CONTINUOUS
 10
135.0658280913
 20
204.8845460766
 11
135.0658280913
 21
195.1488394553
  0
LINE
  5
300
100
AcDbEntity
  8
0
100
AcDbLine
 62
7
  6
CONTINUOUS
 10
135.286720972
 20
253.5845460766
 11
135.286720972
 21
248.5845460766
  0
LINE
  5
301
100
AcDbEntity
  8
0
100
AcDbLine
 62
7
  6
CONTINUOUS
 10
135.911720972
 20
249.2228439474
 11
135.911720972
 21
252.9462482804
  0
LINE
  5
302
100
AcDbEntity
  8
0
100
AcDbLine
 62
7
  6
CONTINUOUS
 10
136.6662698912
 20
204.8845460766
 11
136.6662698912
 21
195.2805081589
  0
LINE
  5
303
100
AcDbEntity
  8
0
100
AcDbLine
 62
7
  6
CONTINUOUS
 10
137.2658860492
 20
183.7122058743
 11
137.2658860492
 21
183.3717799061
  0
LINE
  5
304
100
AcDbEntity
  8
BEZUGSACHSEN
100
AcDbLine
 62
7
  6
CONTINUOUS
 10
137.4664907911
 20
204.8845460766
 11
137.4664907911
 21
195.3649723802
  0
LINE
  5
305
100
AcDbEntity
  8
0
100
AcDbLine
 62
7
  6
CONTINUOUS
 10
137.6825530338
 20
210.3845460766
 11
137.6825530338
 21
210.6845460766
  0
LINE
  5
306
100
AcDbEntity
  8
0
100
AcDbLine
 62
7
  6
CONTINUOUS
 10
138.2658860492
 20
177.5845460766
 11
138.2658860492
 21
178.4356099242
  0
LINE
  5
307
100
AcDbEntity
  8
0
100
AcDbLine
 62
7
  6
CONTINUOUS
 10
138.2658860492
 20
183.3717799061
 11
138.2658860492
 21
183.7122058743
  0
LINE
  5
308
100
AcDbEntity
  8
0
100
AcDbLine
 62
7
  6
CONTINUOUS
 10
138.8283872413
 20
251.882418322
 11
138.8283872413
 21
250.2866736823
  0
LINE
  5
309
100
AcDbEntity
  8
0
100
AcDbLine
 62
7
  6
CONTINUOUS
 10
139.4533872413
 20
250.2866736823
 11
139.4533872413
 21
251.882418322
  0
LINE
  5
30A
100
AcDbEntity
  8
0
100
AcDbLine
 62
7
  6
CONTINUOUS
 10
139.5992200183
 20
183.0313544148
 11
139.5992200183
 21
182.3505034321
  0
LINE
  5
30B
100
AcDbEntity
  8
BEZUGSACHSEN
100
AcDbLine
 62
7
  6
CONTINUOUS
 10
139.8497658487
 20
204.8845460766
 11
139.8497658487
 21
195.6674669302
  0
LINE
  5
30C
100
AcDbEntity
  8
0
100
AcDbLine
 62
7
  6
CONTINUOUS
 10
140.6499867486
 20
204.8845460766
 11
140.6499867486
 21
195.7818007063
  0
LINE
  5
30D
100
AcDbEntity
  8
0
100
AcDbLine
 62
7
  6
CONTINUOUS
 10
140.9325520801
 20
184.393056857
 11
140.9325520801
 21
183.0313544148
  0
LINE
  5
30E
100
AcDbEntity
  8
0
100
AcDbLine
 62
7
  6
CONTINUOUS
 10
140.9325520801
 20
182.3505034321
 11
140.9325520801
 21
178.9462481612
  0
LINE
  5
30F
100
AcDbEntity
  8
0
100
AcDbLine
 62
7
  6
CONTINUOUS
 10
141.7658860492
 20
179.2866737717
 11
141.7658860492
 21
182.3505034321
  0
LINE
  5
310
100
AcDbEntity
  8
0
100
AcDbLine
 62
7
  6
CONTINUOUS
 10
141.7658860492
 20
183.0313544148
 11
141.7658860492
 21
184.393056857
  0
LINE
  5
311
100
AcDbEntity
  8
0
100
AcDbLine
 62
7
  6
CONTINUOUS
 10
143.2658860492
 20
177.5845460766
 11
143.2658860492
 21
178.2653971189
  0
LINE
  5
312
100
AcDbEntity
  8
0
100
AcDbLine
 62
7
  6
CONTINUOUS
 10
143.5992200183
 20
182.3505034321
 11
143.5992200183
 21
183.0313544148
  0
LINE
  5
313
100
AcDbEntity
  8
KONSTRUKTIONSELEMENTE
100
AcDbLine
 62
7
  6
CONTINUOUS
 10
144.6825530338
 20
172.3845460766
 11
144.6825530338
 21
138.3845460766
  0
LINE
  5
314
100
AcDbEntity
  8
0
100
AcDbLine
 62
7
  6
CONTINUOUS
 10
134.349220972
 20
249.7547588521
 11
134.4533878373
 21
250.2866736823
  0
LINE
  5
315
100
AcDbEntity
  8
0
100
AcDbLine
 62
7
  6
CONTINUOUS
 10
139.349220972
 20
249.7547588521
 11
139.4533872413
 21
250.2866736823
  0
LINE
  5
316
100
AcDbEntity
  8
0
100
AcDbLine
 62
7
  6
CONTINUOUS
 10
133.8283878373
 20
250.2866736823
 11
133.724220972
 21
249.8611418182
  0
LINE
  5
317
100
AcDbEntity
  8
0
100
AcDbLine
 62
7
  6
CONTINUOUS
 10
122.0992193925
 20
184.393056857
 11
121.9325527208
 21
183.7122058743
  0
LINE
  5
318
100
AcDbEntity
  8
0
100
AcDbLine
 62
7
  6
CONTINUOUS
 10
138.8283872413
 20
250.2866736823
 11
138.724220972
 21
249.8611418182
  0
LINE
  5
319
100
AcDbEntity
  8
0
100
AcDbLine
 62
7
  6
CONTINUOUS
 10
127.4325525569
 20
182.6909289235
 11
127.5992195415
 21
183.3717799061
  0
LINE
  5
31A
100
AcDbEntity
  8
0
100
AcDbLine
 62
7
  6
CONTINUOUS
 10
134.1408878373
 20
249.3292269134
 11
134.349220972
 21
249.7547588521
  0
LINE
  5
31B
100
AcDbEntity
  8
0
100
AcDbLine
 62
7
  6
CONTINUOUS
 10
139.1408872413
 20
249.3292269134
 11
139.349220972
 21
249.7547588521
  0
LINE
  5
31C
100
AcDbEntity
  8
0
100
AcDbLine
 62
7
  6
CONTINUOUS
 10
133.724220972
 20
249.8611418182
 11
133.5158878373
 21
249.54199292
  0
LINE
  5
31D
100
AcDbEntity
  8
0
100
AcDbLine
 62
7
  6
CONTINUOUS
 10
138.724220972
 20
249.8611418182
 11
138.5158872413
 21
249.54199292
  0
LINE
  5
31E
100
AcDbEntity
  8
0
100
AcDbLine
 62
7
  6
CONTINUOUS
 10
133.724220972
 20
248.903695012
 11
134.1408878373
 21
249.3292269134
  0
LINE
  5
31F
100
AcDbEntity
  8
0
100
AcDbLine
 62
7
  6
CONTINUOUS
 10
138.724220972
 20
248.903695012
 11
139.1408872413
 21
249.3292269134
  0
LINE
  5
320
100
AcDbEntity
  8
0
100
AcDbLine
 62
7
  6
CONTINUOUS
 10
133.5158878373
 20
249.54199292
 11
133.2033878373
 21
249.3292269134
  0
LINE
  5
321
100
AcDbEntity
  8
0
100
AcDbLine
 62
7
  6
CONTINUOUS
 10
138.5158872413
 20
249.54199292
 11
138.2033872413
 21
249.3292269134
  0
LINE
  5
322
100
AcDbEntity
  8
0
100
AcDbLine
 62
7
  6
CONTINUOUS
 10
133.3075541066
 20
248.690929052
 11
133.724220972
 21
248.903695012
  0
LINE
  5
323
100
AcDbEntity
  8
0
100
AcDbLine
 62
7
  6
CONTINUOUS
 10
138.3075547027
 20
248.690929052
 11
138.724220972
 21
248.903695012
  0
LINE
  5
324
100
AcDbEntity
  8
0
100
AcDbLine
 62
7
  6
CONTINUOUS
 10
128.8283875393
 20
251.5632694238
 11
128.5158875393
 21
251.4568864578
  0
LINE
  5
325
100
AcDbEntity
  8
0
100
AcDbLine
 62
7
  6
CONTINUOUS
 10
113.3394520917
 20
245.6928235908
 11
112.8943754709
 21
245.5486434367
  0
LINE
  5
326
100
AcDbEntity
  8
0
100
AcDbLine
 62
7
  6
CONTINUOUS
 10
111.6453418142
 20
243.9987133132
 11
112.0904175921
 21
244.1428926244
  0
LINE
  5
327
100
AcDbEntity
  8
RUNDUNGEN
100
AcDbLine
 62
7
  6
CONTINUOUS
 10
134.5959701956
 20
261.5419827377
 11
164.3737128495
 21
249.2076378736
  0
LINE
  5
328
100
AcDbEntity
  8
0
100
AcDbLine
 62
7
  6
CONTINUOUS
 10
138.724220972
 20
253.2653971785
 11
138.3075547027
 21
253.4781631106
  0
LINE
  5
329
100
AcDbEntity
  8
0
100
AcDbLine
 62
7
  6
CONTINUOUS
 10
138.2033872413
 20
252.8398653144
 11
138.5158872413
 21
252.6270993823
  0
LINE
  5
32A
100
AcDbEntity
  8
0
100
AcDbLine
 62
7
  6
CONTINUOUS
 10
158.9441304927
 20
236.8608218897
 11
159.1426756228
 21
236.680894432
  0
LINE
  5
32B
100
AcDbEntity
  8
0
100
AcDbLine
 62
7
  6
CONTINUOUS
 10
155.8741304927
 20
239.9308218897
 11
156.0726756228
 21
239.750894432
  0
LINE
  5
32C
100
AcDbEntity
  8
0
100
AcDbLine
 62
7
  6
CONTINUOUS
 10
159.2469814046
 20
239.6266378445
 11
160.3000046938
 21
238.5736145554
  0
LINE
  5
32D
100
AcDbEntity
  8
0
100
AcDbLine
 62
7
  6
CONTINUOUS
 10
160.84143198
 20
239.1150418415
 11
159.7892902035
 21
240.167183618
  0
LINE
  5
32E
100
AcDbEntity
  8
0
100
AcDbLine
 62
7
  6
CONTINUOUS
 10
139.1408872413
 20
252.8398653144
 11
138.724220972
 21
253.2653971785
  0
LINE
  5
32F
100
AcDbEntity
  8
0
100
AcDbLine
 62
7
  6
CONTINUOUS
 10
138.5158872413
 20
252.6270993823
 11
138.724220972
 21
252.3079501861
  0
LINE
  5
330
100
AcDbEntity
  8
0
100
AcDbLine
 62
7
  6
CONTINUOUS
 10
139.349220972
 20
252.4143334502
 11
139.1408872413
 21
252.8398653144
  0
LINE
  5
331
100
AcDbEntity
  8
0
100
AcDbLine
 62
7
  6
CONTINUOUS
 10
138.724220972
 20
252.3079501861
 11
138.8283872413
 21
251.882418322
  0
LINE
  5
332
100
AcDbEntity
  8
0
100
AcDbLine
 62
7
  6
CONTINUOUS
 10
139.4533872413
 20
251.882418322
 11
139.349220972
 21
252.4143334502
  0
LINE
  5
333
100
AcDbEntity
  8
KONSTRUKTIONSELEMENTE
100
AcDbLine
 62
7
  6
CONTINUOUS
 10
150.1825530338
 20
172.5845460766
 11
150.1825530338
 21
172.3845460766
  0
LINE
  5
334
100
AcDbEntity
  8
0
100
AcDbLine
 62
7
  6
CONTINUOUS
 10
132.5992190646
 20
184.393056857
 11
132.4325530338
 21
183.7122058743
  0
LINE
  5
335
100
AcDbEntity
  8
0
100
AcDbLine
 62
7
  6
CONTINUOUS
 10
138.0992200183
 20
182.6909289235
 11
138.2658860492
 21
183.3717799061
  0
LINE
  5
336
100
AcDbEntity
  8
0
100
AcDbLine
 62
7
  6
CONTINUOUS
 10
127.5992195415
 20
178.9462481612
 11
127.7658860492
 21
179.4568865174
  0
LINE
  5
337
100
AcDbEntity
  8
0
100
AcDbLine
 62
7
  6
CONTINUOUS
 10
126.7658860492
 20
183.3717799061
 11
126.4325525569
 21
182.6909289235
  0
LINE
  5
338
100
AcDbEntity
  8
0
100
AcDbLine
 62
7
  6
CONTINUOUS
 10
126.9325525569
 20
179.4568865174
 11
126.7658860492
 21
179.1164610261
  0
LINE
  5
339
100
AcDbEntity
  8
0
100
AcDbLine
 62
7
  6
CONTINUOUS
 10
130.0992190646
 20
178.4356099242
 11
129.0992195415
 21
176.5632694834
  0
LINE
  5
33A
100
AcDbEntity
  8
0
100
AcDbLine
 62
7
  6
CONTINUOUS
 10
122.7658860492
 20
183.7122058743
 11
123.0992194223
 21
184.2228441113
  0
LINE
  5
33B
100
AcDbEntity
  8
0
100
AcDbLine
 62
7
  6
CONTINUOUS
 10
156.0726756228
 20
239.750894432
 11
156.614102909
 21
240.2923217181
  0
LINE
  5
33C
100
AcDbEntity
  8
0
100
AcDbLine
 62
7
  6
CONTINUOUS
 10
159.1186986848
 20
242.7969174939
 11
159.6601259709
 21
243.33834478
  0
LINE
  5
33D
100
AcDbEntity
  8
0
100
AcDbLine
 62
7
  6
CONTINUOUS
 10
160.3000046938
 20
238.5736145554
 11
160.84143198
 21
239.1150418415
  0
LINE
  5
33E
100
AcDbEntity
  8
0
100
AcDbLine
 62
7
  6
CONTINUOUS
 10
159.1426756228
 20
236.680894432
 11
159.684102909
 21
237.2223217181
  0
LINE
  5
33F
100
AcDbEntity
  8
0
100
AcDbLine
 62
7
  6
CONTINUOUS
 10
162.1886986848
 20
239.7269174939
 11
162.7301259709
 21
240.26834478
  0
LINE
  5
340
100
AcDbEntity
  8
RUNDUNGEN
100
AcDbLine
 62
7
  6
CONTINUOUS
 10
167.0796933502
 20
246.5016573729
 11
177.9090271171
 21
220.3573329215
  0
LINE
  5
341
100
AcDbEntity
  8
BEZUGSACHSEN
100
AcDbLine
 62
7
  6
CONTINUOUS
 10
177.9090271171
 20
220.3573329215
 11
178.17277983
 21
219.7205775449
  0
LINE
  5
342
100
AcDbEntity
  8
BEZUGSACHSEN
100
AcDbLine
 62
7
  6
CONTINUOUS
 10
173.1825530338
 20
201.5845460766
 11
173.1825530338
 21
191.5845460766
  0
LINE
  5
343
100
AcDbEntity
  8
0
100
AcDbLine
 62
7
  6
CONTINUOUS
 10
137.2658860492
 20
183.3717799061
 11
136.9325530338
 21
182.6909289235
  0
LINE
  5
344
100
AcDbEntity
  8
0
100
AcDbLine
 62
7
  6
CONTINUOUS
 10
129.9325530338
 20
176.5632694834
 11
130.9325530338
 21
178.4356099242
  0
LINE
  5
345
100
AcDbEntity
  8
0
100
AcDbLine
 62
7
  6
CONTINUOUS
 10
127.0992195415
 20
182.1802906865
 11
127.4325525569
 21
182.6909289235
  0
LINE
  5
346
100
AcDbEntity
  8
0
100
AcDbLine
 62
7
  6
CONTINUOUS
 10
127.2658860492
 20
178.4356099242
 11
127.5992195415
 21
178.9462481612
  0
LINE
  5
347
100
AcDbEntity
  8
0
100
AcDbLine
 62
7
  6
CONTINUOUS
 10
133.2658860492
 20
183.7122058743
 11
133.5992190646
 21
184.2228441113
  0
LINE
  5
348
100
AcDbEntity
  8
0
100
AcDbLine
 62
7
  6
CONTINUOUS
 10
137.7658860492
 20
182.1802906865
 11
138.0992200183
 21
182.6909289235
  0
LINE
  5
349
100
AcDbEntity
  8
0
100
AcDbLine
 62
7
  6
CONTINUOUS
 10
122.7658860492
 20
185.0739078396
 11
122.0992193925
 21
184.393056857
  0
LINE
  5
34A
100
AcDbEntity
  8
RUNDUNGEN
100
AcDbLine
 62
7
  6
CONTINUOUS
 10
182.6825530338
 20
208.8845460766
 11
182.6825530338
 21
206.3845460766
  0
LINE
  5
34B
100
AcDbEntity
  8
0
100
AcDbLine
 62
7
  6
CONTINUOUS
 10
126.4325525569
 20
182.6909289235
 11
126.0992195415
 21
182.3505034321
  0
LINE
  5
34C
100
AcDbEntity
  8
0
100
AcDbLine
 62
7
  6
CONTINUOUS
 10
126.7658860492
 20
179.1164610261
 11
126.4325525569
 21
178.7760354155
  0
LINE
  5
34D
100
AcDbEntity
  8
0
100
AcDbLine
 62
7
  6
CONTINUOUS
 10
133.2658860492
 20
185.0739078396
 11
132.5992190646
 21
184.393056857
  0
LINE
  5
34E
100
AcDbEntity
  8
0
100
AcDbLine
 62
7
  6
CONTINUOUS
 10
126.4325525569
 20
181.6696524495
 11
127.0992195415
 21
182.1802906865
  0
LINE
  5
34F
100
AcDbEntity
  8
0
100
AcDbLine
 62
7
  6
CONTINUOUS
 10
123.0992194223
 20
184.2228441113
 11
123.5992194223
 21
184.5632696026
  0
LINE
  5
350
100
AcDbEntity
  8
BEZUGSACHSEN
100
AcDbLine
 62
7
  6
CONTINUOUS
 10
178.1708561048
 20
215.8891055254
 11
175.8843143435
 21
210.3845460766
  0
LINE
  5
351
100
AcDbEntity
  8
BEZUGSACHSEN
100
AcDbLine
 62
7
  6
CONTINUOUS
 10
173.5996665339
 20
204.8845460766
 11
173.2427867686
 21
204.0254032797
  0
LINE
  5
352
100
AcDbEntity
  8
BEZUGSACHSEN
100
AcDbLine
 62
7
  6
CONTINUOUS
 10
166.4760652578
 20
187.7353789912
 11
166.1701932163
 21
186.9990308236
  0
LINE
  5
353
100
AcDbEntity
  8
0
100
AcDbLine
 62
7
  6
CONTINUOUS
 10
136.9325530338
 20
182.6909289235
 11
132.2658860492
 21
178.4356099242
  0
LINE
  5
354
100
AcDbEntity
  8
0
100
AcDbLine
 62
7
  6
CONTINUOUS
 10
133.5992190646
 20
178.4356099242
 11
137.7658860492
 21
182.1802906865
  0
LINE
  5
355
100
AcDbEntity
  8
0
100
AcDbLine
 62
7
  6
CONTINUOUS
 10
133.5992190646
 20
184.2228441113
 11
134.0992190646
 21
184.5632696026
  0
LINE
  5
356
100
AcDbEntity
  8
0
100
AcDbLine
 62
7
  6
CONTINUOUS
 10
126.7658860492
 20
178.0951843732
 11
127.2658860492
 21
178.4356099242
  0
LINE
  5
357
100
AcDbEntity
  8
0
100
AcDbLine
 62
7
  6
CONTINUOUS
 10
123.4325526761
 20
185.414333331
 11
122.7658860492
 21
185.0739078396
  0
LINE
  5
358
100
AcDbEntity
  8
0
100
AcDbLine
 62
7
  6
CONTINUOUS
 10
133.9325530338
 20
185.414333331
 11
133.2658860492
 21
185.0739078396
  0
LINE
  5
359
100
AcDbEntity
  8
0
100
AcDbLine
 62
7
  6
CONTINUOUS
 10
126.4325525569
 20
178.7760354155
 11
126.0992195415
 21
178.6058226699
  0
LINE
  5
35A
100
AcDbEntity
  8
0
100
AcDbLine
 62
7
  6
CONTINUOUS
 10
126.0992195415
 20
177.7547588372
 11
126.7658860492
 21
178.0951843732
  0
LINE
  5
35B
100
AcDbEntity
  8
0
100
AcDbLine
 62
7
  6
CONTINUOUS
 10
126.0992195415
 20
182.3505034321
 11
125.0992193031
 21
182.0100779408
  0
LINE
  5
35C
100
AcDbEntity
  8
KONSTRUKTIONSELEMENTE
100
AcDbLine
 62
7
  6
CONTINUOUS
 10
144.6825530338
 20
138.3845460766
 11
142.6825530338
 21
136.3845460766
  0
LINE
  5
35D
100
AcDbEntity
  8
KONSTRUKTIONSELEMENTE
100
AcDbLine
 62
7
  6
CONTINUOUS
 10
276.3271538475
 20
136.3845460766
 11
296.3271538475
 21
136.3845460766
  0
LINE
  5
35E
100
AcDbEntity
  8
KONSTRUKTIONSELEMENTE
100
AcDbLine
 62
7
  6
CONTINUOUS
 10
274.3271538475
 20
138.3845460766
 11
298.3271538475
 21
138.3845460766
  0
LINE
  5
35F
100
AcDbEntity
  8
KONSTRUKTIONSELEMENTE
100
AcDbLine
 62
7
  6
CONTINUOUS
 10
274.3271538475
 20
138.3845460766
 11
276.3271538475
 21
136.3845460766
  0
LINE
  5
360
100
AcDbEntity
  8
KONSTRUKTIONSELEMENTE
100
AcDbLine
 62
7
  6
CONTINUOUS
 10
268.8274597232
 20
172.3845460766
 11
303.8268479718
 21
172.3845460766
  0
LINE
  5
361
100
AcDbEntity
  8
BEZUGSACHSEN
100
AcDbLine
 62
7
  6
CONTINUOUS
 10
260.8271538475
 20
172.5845460766
 11
311.8271538475
 21
172.5845460766
  0
LINE
  5
362
100
AcDbEntity
  8
0
100
AcDbLine
 62
7
  6
CONTINUOUS
 10
259.6862732694
 20
176.5632694834
 11
259.281547702
 21
176.5632694834
  0
LINE
  5
363
100
AcDbEntity
  8
0
100
AcDbLine
 62
7
  6
CONTINUOUS
 10
312.7681310906
 20
176.5632694834
 11
313.372759993
 21
176.5632694834
  0
LINE
  5
364
100
AcDbEntity
  8
0
100
AcDbLine
 62
7
  6
CONTINUOUS
 10
261.1611631695
 20
177.5845460766
 11
260.6084528679
 21
177.5845460766
  0
LINE
  5
365
100
AcDbEntity
  8
0
100
AcDbLine
 62
7
  6
CONTINUOUS
 10
258.8733282405
 20
177.5845460766
 11
259.8718610206
 21
177.5845460766
  0
LINE
  5
366
100
AcDbEntity
  8
0
100
AcDbLine
 62
7
  6
CONTINUOUS
 10
312.1133496045
 20
177.5845460766
 11
312.9826557027
 21
177.5845460766
  0
LINE
  5
367
100
AcDbEntity
  8
0
100
AcDbLine
 62
7
  6
CONTINUOUS
 10
313.7083690456
 20
177.5845460766
 11
313.7784450679
 21
177.5845460766
  0
LINE
  5
368
100
AcDbEntity
  8
0
100
AcDbLine
 62
7
  6
CONTINUOUS
 10
311.9761744673
 20
177.7547588372
 11
312.5203916097
 21
177.7547588372
  0
LINE
  5
369
100
AcDbEntity
  8
0
100
AcDbLine
 62
7
  6
CONTINUOUS
 10
311.8785771679
 20
178.0951843732
 11
312.4263763575
 21
178.0951843732
  0
LINE
  5
36A
100
AcDbEntity
  8
0
100
AcDbLine
 62
7
  6
CONTINUOUS
 10
260.9414774445
 20
178.2653971189
 11
260.3896126106
 21
178.2653971189
  0
LINE
  5
36B
100
AcDbEntity
  8
0
100
AcDbLine
 62
7
  6
CONTINUOUS
 10
313.2030087963
 20
178.4356099242
 11
312.9607980127
 21
178.4356099242
  0
LINE
  5
36C
100
AcDbEntity
  8
0
100
AcDbLine
 62
7
  6
CONTINUOUS
 10
260.615318959
 20
178.4356099242
 11
260.068872377
 21
178.4356099242
  0
LINE
  5
36D
100
AcDbEntity
  8
0
100
AcDbLine
 62
7
  6
CONTINUOUS
 10
259.6195910164
 20
178.4356099242
 11
258.6415407507
 21
178.4356099242
  0
LINE
  5
36E
100
AcDbEntity
  8
0
100
AcDbLine
 62
7
  6
CONTINUOUS
 10
311.8239712435
 20
178.4356099242
 11
312.3745383572
 21
178.4356099242
  0
LINE
  5
36F
100
AcDbEntity
  8
0
100
AcDbLine
 62
7
  6
CONTINUOUS
 10
313.5904269744
 20
178.4356099242
 11
314.0225288234
 21
178.4356099242
  0
LINE
  5
370
100
AcDbEntity
  8
0
100
AcDbLine
 62
7
  6
CONTINUOUS
 10
312.8994271801
 20
178.6058226699
 11
313.4309053377
 21
178.6058226699
  0
LINE
  5
371
100
AcDbEntity
  8
0
100
AcDbLine
 62
7
  6
CONTINUOUS
 10
260.3578996857
 20
178.7760354155
 11
259.8146017127
 21
178.7760354155
  0
LINE
  5
372
100
AcDbEntity
  8
0
100
AcDbLine
 62
7
  6
CONTINUOUS
 10
313.0157343063
 20
178.7760354155
 11
313.5459870869
 21
178.7760354155
  0
LINE
  5
373
100
AcDbEntity
  8
0
100
AcDbLine
 62
7
  6
CONTINUOUS
 10
311.8752969574
 20
178.9462481612
 11
312.4274380912
 21
178.9462481612
  0
LINE
  5
374
100
AcDbEntity
  8
0
100
AcDbLine
 62
7
  6
CONTINUOUS
 10
313.1786393338
 20
179.1164610261
 11
313.7076924759
 21
179.1164610261
  0
LINE
  5
375
100
AcDbEntity
  8
0
100
AcDbLine
 62
7
  6
CONTINUOUS
 10
260.1506260728
 20
179.2866737717
 11
259.6086464946
 21
179.2866737717
  0
LINE
  5
376
100
AcDbEntity
  8
0
100
AcDbLine
 62
7
  6
CONTINUOUS
 10
311.9828226816
 20
179.4568865174
 11
312.8058647514
 21
179.4568865174
  0
LINE
  5
377
100
AcDbEntity
  8
0
100
AcDbLine
 62
7
  6
CONTINUOUS
 10
313.3089388394
 20
179.4568865174
 11
313.8373746182
 21
179.4568865174
  0
LINE
  5
378
100
AcDbEntity
  8
0
100
AcDbLine
 62
7
  6
CONTINUOUS
 10
313.5108151907
 20
180.1377375001
 11
314.0390426919
 21
180.1377375001
  0
LINE
  5
379
100
AcDbEntity
  8
0
100
AcDbLine
 62
7
  6
CONTINUOUS
 10
313.6550459102
 20
180.8185887211
 11
314.1840460043
 21
180.8185887211
  0
LINE
  5
37A
100
AcDbEntity
  8
0
100
AcDbLine
 62
7
  6
CONTINUOUS
 10
313.6642014953
 20
181.1590142125
 11
314.1946503899
 21
181.1590142125
  0
LINE
  5
37B
100
AcDbEntity
  8
0
100
AcDbLine
 62
7
  6
CONTINUOUS
 10
313.3532532809
 20
181.3292269581
 11
314.0423840183
 21
181.3292269581
  0
LINE
  5
37C
100
AcDbEntity
  8
0
100
AcDbLine
 62
7
  6
CONTINUOUS
 10
313.5615832373
 20
182.0100779408
 11
314.2483093315
 21
182.0100779408
  0
LINE
  5
37D
100
AcDbEntity
  8
0
100
AcDbLine
 62
7
  6
CONTINUOUS
 10
258.4364506165
 20
182.1802906865
 11
257.9104899874
 21
182.1802906865
  0
LINE
  5
37E
100
AcDbEntity
  8
0
100
AcDbLine
 62
7
  6
CONTINUOUS
 10
258.1670309855
 20
182.3505034321
 11
258.4526478548
 21
182.3505034321
  0
LINE
  5
37F
100
AcDbEntity
  8
0
100
AcDbLine
 62
7
  6
CONTINUOUS
 10
258.6588866016
 20
182.3505034321
 11
259.7400625528
 21
182.3505034321
  0
LINE
  5
380
100
AcDbEntity
  8
0
100
AcDbLine
 62
7
  6
CONTINUOUS
 10
314.0203289958
 20
182.3505034321
 11
314.5503372482
 21
182.3505034321
  0
LINE
  5
381
100
AcDbEntity
  8
0
100
AcDbLine
 62
7
  6
CONTINUOUS
 10
258.0650755877
 20
182.6909289235
 11
257.8086972734
 21
182.6909289235
  0
LINE
  5
382
100
AcDbEntity
  8
0
100
AcDbLine
 62
7
  6
CONTINUOUS
 10
314.1823790176
 20
182.6909289235
 11
314.711267636
 21
182.6909289235
  0
LINE
  5
383
100
AcDbEntity
  8
0
100
AcDbLine
 62
7
  6
CONTINUOUS
 10
314.8700803546
 20
182.6909289235
 11
315.0003274173
 21
182.6909289235
  0
LINE
  5
384
100
AcDbEntity
  8
0
100
AcDbLine
 62
7
  6
CONTINUOUS
 10
259.5221034188
 20
183.0313544148
 11
258.4486208321
 21
183.0313544148
  0
LINE
  5
385
100
AcDbEntity
  8
0
100
AcDbLine
 62
7
  6
CONTINUOUS
 10
258.2450669306
 20
183.0313544148
 11
257.9631588927
 21
183.0313544148
  0
LINE
  5
386
100
AcDbEntity
  8
0
100
AcDbLine
 62
7
  6
CONTINUOUS
 10
258.1413626777
 20
183.3717799061
 11
257.6331626315
 21
183.3717799061
  0
LINE
  5
387
100
AcDbEntity
  8
0
100
AcDbLine
 62
7
  6
CONTINUOUS
 10
314.4411426911
 20
183.3717799061
 11
314.9689013844
 21
183.3717799061
  0
LINE
  5
388
100
AcDbEntity
  8
0
100
AcDbLine
 62
7
  6
CONTINUOUS
 10
315.0936041876
 20
183.3717799061
 11
315.159037153
 21
183.3717799061
  0
LINE
  5
389
100
AcDbEntity
  8
0
100
AcDbLine
 62
7
  6
CONTINUOUS
 10
258.0377067531
 20
183.7122058743
 11
257.532798988
 21
183.7122058743
  0
LINE
  5
38A
100
AcDbEntity
  8
0
100
AcDbLine
 62
7
  6
CONTINUOUS
 10
257.3958027577
 20
183.7122058743
 11
257.1206744762
 21
183.7122058743
  0
LINE
  5
38B
100
AcDbEntity
  8
0
100
AcDbLine
 62
7
  6
CONTINUOUS
 10
313.4022023893
 20
183.7122058743
 11
314.1933831628
 21
183.7122058743
  0
LINE
  5
38C
100
AcDbEntity
  8
0
100
AcDbLine
 62
7
  6
CONTINUOUS
 10
314.5419382344
 20
183.7122058743
 11
315.0696037035
 21
183.7122058743
  0
LINE
  5
38D
100
AcDbEntity
  8
0
100
AcDbLine
 62
7
  6
CONTINUOUS
 10
315.1934975269
 20
183.7122058743
 11
315.5372872057
 21
183.7122058743
  0
LINE
  5
38E
100
AcDbEntity
  8
0
100
AcDbLine
 62
7
  6
CONTINUOUS
 10
257.2075251185
 20
184.2228441113
 11
256.9807242329
 21
184.2228441113
  0
LINE
  5
38F
100
AcDbEntity
  8
0
100
AcDbLine
 62
7
  6
CONTINUOUS
 10
314.6376616389
 20
184.2228441113
 11
315.1660788045
 21
184.2228441113
  0
LINE
  5
390
100
AcDbEntity
  8
0
100
AcDbLine
 62
7
  6
CONTINUOUS
 10
258.5671386406
 20
184.393056857
 11
257.3076870223
 21
184.393056857
  0
LINE
  5
391
100
AcDbEntity
  8
0
100
AcDbLine
 62
7
  6
CONTINUOUS
 10
313.6694852264
 20
184.393056857
 11
314.2148810942
 21
184.393056857
  0
LINE
  5
392
100
AcDbEntity
  8
0
100
AcDbLine
 62
7
  6
CONTINUOUS
 10
315.37030671
 20
184.393056857
 11
315.7332495307
 21
184.393056857
  0
LINE
  5
393
100
AcDbEntity
  8
0
100
AcDbLine
 62
7
  6
CONTINUOUS
 10
257.0557094326
 20
184.5632696026
 11
256.8981672078
 21
184.5632696026
  0
LINE
  5
394
100
AcDbEntity
  8
0
100
AcDbLine
 62
7
  6
CONTINUOUS
 10
314.677804249
 20
184.5632696026
 11
315.1799300567
 21
184.5632696026
  0
LINE
  5
395
100
AcDbEntity
  8
0
100
AcDbLine
 62
7
  6
CONTINUOUS
 10
256.8888891633
 20
184.7334823483
 11
256.9337083745
 21
184.7334823483
  0
LINE
  5
396
100
AcDbEntity
  8
0
100
AcDbLine
 62
7
  6
CONTINUOUS
 10
314.9272395617
 20
184.7334823483
 11
315.0701353221
 21
184.7334823483
  0
LINE
  5
397
100
AcDbEntity
  8
0
100
AcDbLine
 62
7
  6
CONTINUOUS
 10
257.5431544974
 20
185.0739078396
 11
257.0184533308
 21
185.0739078396
  0
LINE
  5
398
100
AcDbEntity
  8
0
100
AcDbLine
 62
7
  6
CONTINUOUS
 10
314.0767636349
 20
185.0739078396
 11
314.6182722419
 21
185.0739078396
  0
LINE
  5
399
100
AcDbEntity
  8
0
100
AcDbLine
 62
7
  6
CONTINUOUS
 10
315.4721453971
 20
185.0739078396
 11
315.9242141648
 21
185.0739078396
  0
LINE
  5
39A
100
AcDbEntity
  8
0
100
AcDbLine
 62
7
  6
CONTINUOUS
 10
257.3659214279
 20
185.414333331
 11
256.8424713823
 21
185.414333331
  0
LINE
  5
39B
100
AcDbEntity
  8
0
100
AcDbLine
 62
7
  6
CONTINUOUS
 10
314.3598610655
 20
185.414333331
 11
314.8981540294
 21
185.414333331
  0
LINE
  5
39C
100
AcDbEntity
  8
0
100
AcDbLine
 62
7
  6
CONTINUOUS
 10
315.5060361429
 20
185.414333331
 11
316.0062824801
 21
185.414333331
  0
LINE
  5
39D
100
AcDbEntity
  8
0
100
AcDbLine
 62
7
  6
CONTINUOUS
 10
257.2226976671
 20
185.5845460766
 11
256.6537160686
 21
185.5845460766
  0
LINE
  5
39E
100
AcDbEntity
  8
0
100
AcDbLine
 62
7
  6
CONTINUOUS
 10
314.6884411544
 20
185.5845460766
 11
315.2924123974
 21
185.5845460766
  0
LINE
  5
39F
100
AcDbEntity
  8
0
100
AcDbLine
 62
7
  6
CONTINUOUS
 10
315.5548438623
 20
185.5845460766
 11
316.0005916264
 21
185.5845460766
  0
LINE
  5
3A0
100
AcDbEntity
  8
0
100
AcDbLine
 62
7
  6
CONTINUOUS
 10
256.8965632759
 20
184.4781637155
 11
256.9878390955
 21
184.1598501579
  0
LINE
  5
3A1
100
AcDbEntity
  8
0
100
AcDbLine
 62
7
  6
CONTINUOUS
 10
258.5202926824
 20
178.8155493845
 11
258.8732772008
 21
177.5845460766
  0
LINE
  5
3A2
100
AcDbEntity
  8
BEZUGSACHSEN
100
AcDbLine
 62
7
  6
CONTINUOUS
 10
256.2270684761
 20
188.6269502436
 11
257.0994638326
 21
185.5845460766
  0
LINE
  5
3A3
100
AcDbEntity
  8
BEZUGSACHSEN
100
AcDbLine
 62
7
  6
CONTINUOUS
 10
259.3934269187
 20
177.5845460766
 11
260.8271538475
 21
172.5845460766
  0
LINE
  5
3A4
100
AcDbEntity
  8
0
100
AcDbLine
 62
7
  6
CONTINUOUS
 10
310.3932933468
 20
194.7829048707
 11
307.3089049851
 21
195.9055304253
  0
LINE
  5
3A5
100
AcDbEntity
  8
RUNDUNGEN
100
AcDbLine
 62
7
  6
CONTINUOUS
 10
313.9502730084
 20
193.48827015
 11
304.3810285861
 21
196.9711902842
  0
LINE
  5
3A6
100
AcDbEntity
  8
0
100
AcDbLine
 62
7
  6
CONTINUOUS
 10
262.3271538475
 20
206.3845460766
 11
262.3271538475
 21
208.8845460766
  0
LINE
  5
3A7
100
AcDbEntity
  8
KONSTRUKTIONSELEMENTE
100
AcDbLine
 62
7
  6
CONTINUOUS
 10
268.8271538475
 20
172.5845460766
 11
268.8271538475
 21
172.3845460766
  0
LINE
  5
3A8
100
AcDbEntity
  8
RUNDUNGEN
100
AcDbLine
 62
7
  6
CONTINUOUS
 10
308.82713004
 20
204.8845460766
 11
296.5639559464
 21
204.8845460766
  0
LINE
  5
3A9
100
AcDbEntity
  8
RUNDUNGEN
100
AcDbLine
 62
7
  6
CONTINUOUS
 10
276.0905801819
 20
204.8845460766
 11
263.8271775644
 21
204.8845460766
  0
LINE
  5
3AA
100
AcDbEntity
  8
RUNDUNGEN
100
AcDbLine
 62
7
  6
CONTINUOUS
 10
263.8271775645
 20
210.3845460766
 11
276.8271538475
 21
210.3845460766
  0
LINE
  5
3AB
100
AcDbEntity
  8
RUNDUNGEN
100
AcDbLine
 62
7
  6
CONTINUOUS
 10
295.8271538475
 20
210.3845460766
 11
308.8271300402
 21
210.3845460766
  0
LINE
  5
3AC
100
AcDbEntity
  8
KONSTRUKTIONSELEMENTE
100
AcDbLine
 62
7
  6
CONTINUOUS
 10
274.3271538475
 20
172.3845460766
 11
274.3271538475
 21
138.3845460766
  0
LINE
  5
3AD
100
AcDbEntity
  8
BEZUGSACHSEN
100
AcDbLine
 62
7
  6
CONTINUOUS
 10
276.8271538475
 20
209.1873660104
 11
276.8271538475
 21
257.9225850752
  0
LINE
  5
3AE
100
AcDbEntity
  8
RUNDUNGEN
100
AcDbLine
 62
7
  6
CONTINUOUS
 10
295.8271538475
 20
209.1873660104
 11
295.8271538475
 21
257.9225850752
  0
LINE
  5
3AF
100
AcDbEntity
  8
0
100
AcDbLine
 62
7
  6
CONTINUOUS
 10
296.3271538475
 20
253.5845460766
 11
296.3271538475
 21
248.5845460766
  0
LINE
  5
3B0
100
AcDbEntity
  8
0
100
AcDbLine
 62
7
  6
CONTINUOUS
 10
296.3271538475
 20
247.0484245003
 11
296.3271538475
 21
244.0049822355
  0
LINE
  5
3B1
100
AcDbEntity
  8
0
100
AcDbLine
 62
7
  6
CONTINUOUS
 10
296.3271538475
 20
243.9987133132
 11
296.3271538475
 21
235.8588360889
  0
LINE
  5
3B2
100
AcDbEntity
  8
0
100
AcDbLine
 62
7
  6
CONTINUOUS
 10
295.8271538475
 20
235.8588360889
 11
296.3271538475
 21
235.8588360889
  0
LINE
  5
3B3
100
AcDbEntity
  8
KONSTRUKTIONSELEMENTE
100
AcDbLine
 62
7
  6
CONTINUOUS
 10
298.3271538475
 20
172.3845460766
 11
298.3271538475
 21
138.3845460766
  0
LINE
  5
3B4
100
AcDbEntity
  8
KONSTRUKTIONSELEMENTE
100
AcDbLine
 62
7
  6
CONTINUOUS
 10
303.8271538475
 20
172.5845460766
 11
303.8271538475
 21
172.3845460766
  0
LINE
  5
3B5
100
AcDbEntity
  8
0
100
AcDbLine
 62
7
  6
CONTINUOUS
 10
295.8271538475
 20
238.2158586578
 11
296.3271538475
 21
238.2158586578
  0
LINE
  5
3B6
100
AcDbEntity
  8
0
100
AcDbLine
 62
7
  6
CONTINUOUS
 10
295.8271538475
 20
238.657800396
 11
296.3271538475
 21
238.657800396
  0
LINE
  5
3B7
100
AcDbEntity
  8
0
100
AcDbLine
 62
7
  6
CONTINUOUS
 10
295.8271538475
 20
240.7201951042
 11
296.3271538475
 21
240.7201951042
  0
LINE
  5
3B8
100
AcDbEntity
  8
0
100
AcDbLine
 62
7
  6
CONTINUOUS
 10
295.8271538475
 20
241.1621368425
 11
296.3271538475
 21
241.1621368425
  0
LINE
  5
3B9
100
AcDbEntity
  8
0
100
AcDbLine
 62
7
  6
CONTINUOUS
 10
295.8271538475
 20
241.7513925637
 11
296.3271538475
 21
241.7513925637
  0
LINE
  5
3BA
100
AcDbEntity
  8
0
100
AcDbLine
 62
7
  6
CONTINUOUS
 10
295.8271538475
 20
243.5191595167
 11
296.3271538475
 21
243.5191595167
  0
LINE
  5
3BB
100
AcDbEntity
  8
0
100
AcDbLine
 62
7
  6
CONTINUOUS
 10
295.8271538475
 20
243.8122200413
 11
296.3271538475
 21
243.8122200413
  0
LINE
  5
3BC
100
AcDbEntity
  8
0
100
AcDbLine
 62
7
  6
CONTINUOUS
 10
295.8271538475
 20
243.8811756573
 11
296.3271538475
 21
243.8811756573
  0
LINE
  5
3BD
100
AcDbEntity
  8
0
100
AcDbLine
 62
7
  6
CONTINUOUS
 10
295.8271538475
 20
243.9987133132
 11
296.3271538475
 21
243.9987133132
  0
LINE
  5
3BE
100
AcDbEntity
  8
0
100
AcDbLine
 62
7
  6
CONTINUOUS
 10
295.8271538475
 20
244.0049822355
 11
296.3271538475
 21
244.0049822355
  0
LINE
  5
3BF
100
AcDbEntity
  8
0
100
AcDbLine
 62
7
  6
CONTINUOUS
 10
295.8271538475
 20
244.2322211839
 11
296.3271538475
 21
244.2322211839
  0
LINE
  5
3C0
100
AcDbEntity
  8
0
100
AcDbLine
 62
7
  6
CONTINUOUS
 10
295.8271538475
 20
244.5331178614
 11
296.3271538475
 21
244.5331178614
  0
LINE
  5
3C1
100
AcDbEntity
  8
0
100
AcDbLine
 62
7
  6
CONTINUOUS
 10
295.8271538475
 20
244.9076718465
 11
296.3271538475
 21
244.9076718465
  0
LINE
  5
3C2
100
AcDbEntity
  8
0
100
AcDbLine
 62
7
  6
CONTINUOUS
 10
295.8271538475
 20
245.5031958578
 11
296.3271538475
 21
245.5031958578
  0
LINE
  5
3C3
100
AcDbEntity
  8
0
100
AcDbLine
 62
7
  6
CONTINUOUS
 10
295.8271538475
 20
245.9482716357
 11
296.3271538475
 21
245.9482716357
  0
LINE
  5
3C4
100
AcDbEntity
  8
0
100
AcDbLine
 62
7
  6
CONTINUOUS
 10
295.8271538475
 20
246.3181241398
 11
296.3271538475
 21
246.3181241398
  0
LINE
  5
3C5
100
AcDbEntity
  8
0
100
AcDbLine
 62
7
  6
CONTINUOUS
 10
295.8271538475
 20
246.6864083597
 11
296.3271538475
 21
246.6864083597
  0
LINE
  5
3C6
100
AcDbEntity
  8
0
100
AcDbLine
 62
7
  6
CONTINUOUS
 10
310.3271538475
 20
206.3845460766
 11
310.3271538475
 21
208.8845460766
  0
LINE
  5
3C7
100
AcDbEntity
  8
0
100
AcDbLine
 62
7
  6
CONTINUOUS
 10
295.8271538475
 20
246.9794693059
 11
296.3271538475
 21
246.9794693059
  0
LINE
  5
3C8
100
AcDbEntity
  8
0
100
AcDbLine
 62
7
  6
CONTINUOUS
 10
295.8271538475
 20
247.0484245003
 11
296.3271538475
 21
247.0484245003
  0
LINE
  5
3C9
100
AcDbEntity
  8
0
100
AcDbLine
 62
7
  6
CONTINUOUS
 10
295.8271538475
 20
248.5845460766
 11
296.3271538475
 21
248.5845460766
  0
LINE
  5
3CA
100
AcDbEntity
  8
0
100
AcDbLine
 62
7
  6
CONTINUOUS
 10
295.8271538475
 20
253.5845460766
 11
296.3271538475
 21
253.5845460766
  0
LINE
  5
3CB
100
AcDbEntity
  8
RUNDUNGEN
100
AcDbLine
 62
7
  6
CONTINUOUS
 10
291.8271538475
 20
261.9225850752
 11
280.8271538475
 21
261.9225850752
  0
LINE
  5
3CC
100
AcDbEntity
  8
0
100
AcDbLine
 62
7
  6
CONTINUOUS
 10
311.8271538475
 20
172.5845460766
 11
312.9680344256
 21
176.5632694834
  0
LINE
  5
3CD
100
AcDbEntity
  8
0
100
AcDbLine
 62
7
  6
CONTINUOUS
 10
314.4153826989
 20
181.6107727569
 11
314.4618611747
 21
181.7728624649
  0
LINE
  5
3CE
100
AcDbEntity
  8
0
100
AcDbLine
 62
7
  6
CONTINUOUS
 10
315.4678564068
 20
185.2811847677
 11
316.4272392188
 21
188.6269502436
  0
LINE
  5
3CF
100
AcDbEntity
  8
0
100
AcDbLine
 62
7
  6
CONTINUOUS
 10
315.757744419
 20
184.4781637155
 11
315.7332495307
 21
184.393056857
  0
LINE
  5
3D0
100
AcDbEntity
  8
0
100
AcDbLine
 62
7
  6
CONTINUOUS
 10
314.1342802388
 20
178.8155148193
 11
314.0225288234
 21
178.4356099242
  0
LINE
  5
3D1
100
AcDbEntity
  8
0
100
AcDbLine
 62
7
  6
CONTINUOUS
 10
262.2610143481
 20
194.7829048707
 11
265.3454027099
 21
195.9055304253
  0
LINE
  5
3D2
100
AcDbEntity
  8
BEZUGSACHSEN
100
AcDbLine
 62
7
  6
CONTINUOUS
 10
258.7040346866
 20
193.48827015
 11
268.2732791089
 21
196.9711902842
  0
LINE
  5
3D3
100
AcDbEntity
  8
KONSTRUKTIONSELEMENTE
100
AcDbLine
 62
7
  6
CONTINUOUS
 10
298.3271538475
 20
138.3845460766
 11
296.3271538475
 21
136.3845460766
  0
LWPOLYLINE
  5
3D4
100
AcDbEntity
  8
BEZUGSACHSEN
100
AcDbPolyline
 62
7
  6
CONTINUOUS
 90
13
 70
0
 10
98.8143965951
 20
76.7259052018
 10
98.3149692866
 20
76.1668281168
 10
97.8573424811
 20
75.6608840362
 10
97.429670778
 20
75.1971363483
 10
97.0311721158
 20
74.7764742258
 10
96.6568262772
 20
74.3948929888
 10
96.3116911445
 20
74.0581387728
 10
95.9989167742
 20
73.7686374636
 10
95.7190226994
 20
73.5251429616
 10
95.4748313336
 20
73.3273651947
 10
95.2631579378
 20
73.1694100872
 10
95.0828987863
 20
73.0470283172
 10
94.9347157639
 20
72.9569880864
  0
LWPOLYLINE
  5
3D5
100
AcDbEntity
  8
BEZUGSACHSEN
100
AcDbPolyline
 62
7
  6
CONTINUOUS
 90
8
 70
0
 10
104.7052134544
 20
82.9605027045
 10
103.9217764183
 20
82.2088059406
 10
103.0476950993
 20
81.3369148727
 10
102.2054362983
 20
80.464914884
 10
101.4093652158
 20
79.6145959917
 10
100.6670082342
 20
78.8019101217
 10
99.9842112988
 20
78.0416350133
 10
98.8143965951
 20
76.7259052018
  0
LWPOLYLINE
  5
3D6
100
AcDbEntity
  8
BEZUGSACHSEN
100
AcDbPolyline
 62
7
  6
CONTINUOUS
 90
3
 70
0
 10
94.9347157639
 20
72.9569880864
 10
94.8191466069
 20
72.8954897262
 10
94.7449858857
 20
72.8619713806
  0
LWPOLYLINE
  5
3D7
100
AcDbEntity
  8
RUNDUNGEN
100
AcDbPolyline
 62
7
  6
CONTINUOUS
 90
7
 70
0
 10
86.8117347516
 20
63.3619713801
 10
86.8177623977
 20
62.4975724996
 10
86.8408517579
 20
61.4611856609
 10
86.8815677909
 20
60.4156725952
 10
86.9402260734
 20
59.3628282973
 10
87.0170380803
 20
58.3044472178
 10
87.088524358
 20
57.4875565706
  0
LWPOLYLINE
  5
3D8
100
AcDbEntity
  8
BEZUGSACHSEN
100
AcDbPolyline
 62
7
  6
CONTINUOUS
 90
7
 70
0
 10
87.088524358
 20
69.2363861907
 10
87.0170380803
 20
68.4194955434
 10
86.9402260734
 20
67.3611144639
 10
86.8815677909
 20
66.3082701661
 10
86.8408517579
 20
65.2627571003
 10
86.8177623977
 20
64.2263702617
 10
86.8117347516
 20
63.3619713801
  0
LINE
  5
3D9
100
AcDbEntity
  8
0
100
AcDbLine
 62
7
  6
CONTINUOUS
 10
102.4021773694
 20
53.8619713806
 11
102.4021773694
 21
53.3619713806
  0
LINE
  5
3DA
100
AcDbEntity
  8
0
100
AcDbLine
 62
7
  6
CONTINUOUS
 10
102.8441191077
 20
53.8619713806
 11
102.8441191077
 21
53.3619713806
  0
LINE
  5
3DB
100
AcDbEntity
  8
0
100
AcDbLine
 62
7
  6
CONTINUOUS
 10
104.9065138159
 20
53.8619713806
 11
104.9065138159
 21
53.3619713806
  0
LINE
  5
3DC
100
AcDbEntity
  8
0
100
AcDbLine
 62
7
  6
CONTINUOUS
 10
105.3484555541
 20
53.8619713806
 11
105.3484555541
 21
53.3619713806
  0
LINE
  5
3DD
100
AcDbEntity
  8
0
100
AcDbLine
 62
7
  6
CONTINUOUS
 10
105.9377112754
 20
53.8619713806
 11
105.9377112754
 21
53.3619713806
  0
LINE
  5
3DE
100
AcDbEntity
  8
0
100
AcDbLine
 62
7
  6
CONTINUOUS
 10
107.7054782283
 20
53.8619713806
 11
107.7054782283
 21
53.3619713806
  0
LINE
  5
3DF
100
AcDbEntity
  8
0
100
AcDbLine
 62
7
  6
CONTINUOUS
 10
108.1489869864
 20
53.8619713806
 11
108.1489869864
 21
53.3619713806
  0
LINE
  5
3E0
100
AcDbEntity
  8
0
100
AcDbLine
 62
7
  6
CONTINUOUS
 10
108.6692873025
 20
53.8619713806
 11
108.6692873025
 21
53.3619713806
  0
LINE
  5
3E1
100
AcDbEntity
  8
0
100
AcDbLine
 62
7
  6
CONTINUOUS
 10
109.1911546383
 20
53.8619713806
 11
109.1911546383
 21
53.3619713806
  0
LINE
  5
3E2
100
AcDbEntity
  8
0
100
AcDbLine
 62
7
  6
CONTINUOUS
 10
109.4904840853
 20
53.8619713806
 11
109.4904840853
 21
53.3619713806
  0
LINE
  5
3E3
100
AcDbEntity
  8
0
100
AcDbLine
 62
7
  6
CONTINUOUS
 10
109.7913807628
 20
53.8619713806
 11
109.7913807628
 21
53.3619713806
  0
LINE
  5
3E4
100
AcDbEntity
  8
0
100
AcDbLine
 62
7
  6
CONTINUOUS
 10
109.943396016
 20
53.8619713806
 11
109.943396016
 21
53.3619713806
  0
LINE
  5
3E5
100
AcDbEntity
  8
0
100
AcDbLine
 62
7
  6
CONTINUOUS
 10
110.0233216136
 20
53.8619713806
 11
110.0233216136
 21
53.3619713806
  0
LINE
  5
3E6
100
AcDbEntity
  8
0
100
AcDbLine
 62
7
  6
CONTINUOUS
 10
110.1408592696
 20
53.8619713806
 11
110.1408592696
 21
53.3619713806
  0
LINE
  5
3E7
100
AcDbEntity
  8
0
100
AcDbLine
 62
7
  6
CONTINUOUS
 10
110.2850385808
 20
53.8619713806
 11
110.2850385808
 21
53.3619713806
  0
LINE
  5
3E8
100
AcDbEntity
  8
0
100
AcDbLine
 62
7
  6
CONTINUOUS
 10
110.5044428515
 20
53.8619713806
 11
110.5044428515
 21
53.3619713806
  0
LINE
  5
3E9
100
AcDbEntity
  8
0
100
AcDbLine
 62
7
  6
CONTINUOUS
 10
110.8727270714
 20
53.8619713806
 11
110.8727270714
 21
53.3619713806
  0
LINE
  5
3EA
100
AcDbEntity
  8
0
100
AcDbLine
 62
7
  6
CONTINUOUS
 10
111.316236251
 20
53.8619713806
 11
111.316236251
 21
53.3619713806
  0
LINE
  5
3EB
100
AcDbEntity
  8
0
100
AcDbLine
 62
7
  6
CONTINUOUS
 10
111.8365361456
 20
53.8619713806
 11
111.8365361456
 21
53.3619713806
  0
LINE
  5
3EC
100
AcDbEntity
  8
0
100
AcDbLine
 62
7
  6
CONTINUOUS
 10
112.3584034814
 20
53.8619713806
 11
112.3584034814
 21
53.3619713806
  0
LINE
  5
3ED
100
AcDbEntity
  8
0
100
AcDbLine
 62
7
  6
CONTINUOUS
 10
112.6577333498
 20
53.8619713806
 11
112.6577333498
 21
53.3619713806
  0
LINE
  5
3EE
100
AcDbEntity
  8
0
100
AcDbLine
 62
7
  6
CONTINUOUS
 10
112.8943754709
 20
53.8619713806
 11
112.8943754709
 21
53.3619713806
  0
LINE
  5
3EF
100
AcDbEntity
  8
0
100
AcDbLine
 62
7
  6
CONTINUOUS
 10
113.3394520917
 20
53.8619713806
 11
113.3394520917
 21
53.3619713806
  0
LINE
  5
3F0
100
AcDbEntity
  8
0
100
AcDbLine
 62
7
  6
CONTINUOUS
 10
113.934976103
 20
53.8619713806
 11
113.934976103
 21
53.3619713806
  0
LINE
  5
3F1
100
AcDbEntity
  8
0
100
AcDbLine
 62
7
  6
CONTINUOUS
 10
114.3831868689
 20
53.8619713806
 11
114.3831868689
 21
53.3619713806
  0
LINE
  5
3F2
100
AcDbEntity
  8
0
100
AcDbLine
 62
7
  6
CONTINUOUS
 10
114.7593074523
 20
53.8619713806
 11
114.7593074523
 21
53.3619713806
  0
LINE
  5
3F3
100
AcDbEntity
  8
0
100
AcDbLine
 62
7
  6
CONTINUOUS
 10
114.912889778
 20
53.8619713806
 11
114.912889778
 21
53.3619713806
  0
LINE
  5
3F4
100
AcDbEntity
  8
0
100
AcDbLine
 62
7
  6
CONTINUOUS
 10
114.9191587266
 20
53.8619713806
 11
114.9191587266
 21
53.3619713806
  0
LINE
  5
3F5
100
AcDbEntity
  8
0
100
AcDbLine
 62
7
  6
CONTINUOUS
 10
130.0992200183
 20
78.3619713806
 11
129.6927423288
 21
77.1996181608
  0
LWPOLYLINE
  5
3F6
100
AcDbEntity
  8
RUNDUNGEN
100
AcDbPolyline
 62
7
  6
CONTINUOUS
 90
7
 70
0
 10
99.9894627229
 20
48.6764251125
 10
100.6691782265
 20
47.9196335759
 10
101.4079509272
 20
47.1108781897
 10
102.2008299411
 20
46.2638780144
 10
103.0413932818
 20
45.3934388043
 10
103.9170652429
 20
44.5197430731
 10
104.7052132087
 20
43.7634402879
  0
LINE
  5
3F7
100
AcDbEntity
  8
RUNDUNGEN
100
AcDbLine
 62
7
  6
CONTINUOUS
 10
98.3211010312
 20
50.5502855213
 11
99.9894627229
 21
48.6764251125
  0
LWPOLYLINE
  5
3F8
100
AcDbEntity
  8
RUNDUNGEN
100
AcDbPolyline
 62
7
  6
CONTINUOUS
 90
30
 70
0
 10
104.7052305568
 20
43.7634077095
 10
105.9491338954
 20
42.6452755943
 10
107.3668064374
 20
41.4875977051
 10
108.8455381513
 20
40.3963148889
 10
110.3847867695
 20
39.3719418651
 10
111.9833441384
 20
38.4159919786
 10
113.6398106993
 20
37.5303295444
 10
115.3530754118
 20
36.717014133
 10
117.1212011008
 20
35.9786020027
 10
118.9438780085
 20
35.3172625618
 10
120.8145673261
 20
34.737258327
 10
122.728474282
 20
34.2416969621
 10
124.6782325022
 20
33.8336266707
 10
126.6567125682
 20
33.5152355639
 10
128.6562988505
 20
33.2877866736
 10
130.6698267885
 20
33.1518168797
 10
132.6900498584
 20
33.1069334122
 10
134.710246839
 20
33.1524890639
 10
136.723701488
 20
33.2891373396
 10
138.7231634746
 20
33.5172646068
 10
140.7014646987
 20
33.836328074
 10
142.6509949521
 20
34.2450600114
 10
144.5646306013
 20
34.7412676423
 10
146.4350098405
 20
35.3218994466
 10
148.2573408854
 20
35.9838450102
 10
150.0250900708
 20
36.7228400116
 10
151.7379495039
 20
37.5367144056
 10
153.3939845056
 20
38.422911711
 10
154.9920849003
 20
39.3793713739
 10
155.7867319909
 20
39.9086262665
  0
LINE
  5
3F9
100
AcDbEntity
  8
0
100
AcDbLine
 62
7
  6
CONTINUOUS
 10
125.911720972
 20
53.8619713806
 11
125.911720972
 21
53.3619713806
  0
LINE
  5
3FA
100
AcDbEntity
  8
0
100
AcDbLine
 62
7
  6
CONTINUOUS
 10
126.8492200183
 20
78.3619713806
 11
126.8492200183
 21
76.0807050502
  0
LINE
  5
3FB
100
AcDbEntity
  8
0
100
AcDbLine
 62
7
  6
CONTINUOUS
 10
127.3492200183
 20
76.2942720033
 11
127.3492200183
 21
77.5109076523
  0
LINE
  5
3FC
100
AcDbEntity
  8
0
100
AcDbLine
 62
7
  6
CONTINUOUS
 10
128.411720972
 20
53.8619713806
 11
128.411720972
 21
53.3619713806
  0
LINE
  5
3FD
100
AcDbEntity
  8
0
100
AcDbLine
 62
7
  6
CONTINUOUS
 10
128.9325544047
 20
53.8619713806
 11
128.9325544047
 21
53.3619713806
  0
LINE
  5
3FE
100
AcDbEntity
  8
0
100
AcDbLine
 62
7
  6
CONTINUOUS
 10
129.349220972
 20
53.8619713806
 11
129.349220972
 21
53.3619713806
  0
LINE
  5
3FF
100
AcDbEntity
  8
0
100
AcDbLine
 62
7
  6
CONTINUOUS
 10
129.661720972
 20
53.8619713806
 11
129.661720972
 21
53.3619713806
  0
LINE
  5
400
100
AcDbEntity
  8
0
100
AcDbLine
 62
7
  6
CONTINUOUS
 10
129.7658875393
 20
53.8619713806
 11
129.7658875393
 21
53.3619713806
  0
LINE
  5
401
100
AcDbEntity
  8
0
100
AcDbLine
 62
7
  6
CONTINUOUS
 10
129.8700544047
 20
53.8619713806
 11
129.8700544047
 21
53.3619713806
  0
LINE
  5
402
100
AcDbEntity
  8
0
100
AcDbLine
 62
7
  6
CONTINUOUS
 10
130.7033875393
 20
53.8619713806
 11
130.7033875393
 21
53.3619713806
  0
LINE
  5
403
100
AcDbEntity
  8
0
100
AcDbLine
 62
7
  6
CONTINUOUS
 10
130.8492200183
 20
77.7411204056
 11
130.8492200183
 21
78.3619713806
  0
LINE
  5
404
100
AcDbEntity
  8
0
100
AcDbLine
 62
7
  6
CONTINUOUS
 10
131.3283878373
 20
53.8619713806
 11
131.3283878373
 21
53.3619713806
  0
LINE
  5
405
100
AcDbEntity
  8
0
100
AcDbLine
 62
7
  6
CONTINUOUS
 10
131.4325541066
 20
53.8619713806
 11
131.4325541066
 21
53.3619713806
  0
LINE
  5
406
100
AcDbEntity
  8
0
100
AcDbLine
 62
7
  6
CONTINUOUS
 10
131.6408878373
 20
53.8619713806
 11
131.6408878373
 21
53.3619713806
  0
LINE
  5
407
100
AcDbEntity
  8
0
100
AcDbLine
 62
7
  6
CONTINUOUS
 10
131.9533878373
 20
53.8619713806
 11
131.9533878373
 21
53.3619713806
  0
LINE
  5
408
100
AcDbEntity
  8
0
100
AcDbLine
 62
7
  6
CONTINUOUS
 10
132.3700541066
 20
53.8619713806
 11
132.3700541066
 21
53.3619713806
  0
LINE
  5
409
100
AcDbEntity
  8
0
100
AcDbLine
 62
7
  6
CONTINUOUS
 10
132.786720972
 20
53.8619713806
 11
132.786720972
 21
53.3619713806
  0
LINE
  5
40A
100
AcDbEntity
  8
0
100
AcDbLine
 62
7
  6
CONTINUOUS
 10
133.2033878373
 20
53.8619713806
 11
133.2033878373
 21
53.3619713806
  0
LINE
  5
40B
100
AcDbEntity
  8
0
100
AcDbLine
 62
7
  6
CONTINUOUS
 10
133.5158878373
 20
53.8619713806
 11
133.5158878373
 21
53.3619713806
  0
LINE
  5
40C
100
AcDbEntity
  8
0
100
AcDbLine
 62
7
  6
CONTINUOUS
 10
133.724220972
 20
53.8619713806
 11
133.724220972
 21
53.3619713806
  0
LINE
  5
40D
100
AcDbEntity
  8
RUNDUNGEN
100
AcDbLine
 62
7
  6
CONTINUOUS
 10
153.9676767996
 20
39.6205162281
 11
181.4172047313
 21
43.9680943468
  0
LWPOLYLINE
  5
40E
100
AcDbEntity
  8
RUNDUNGEN
100
AcDbPolyline
 62
7
  6
CONTINUOUS
 90
3
 70
0
 10
94.7449956526
 20
53.8619713806
 10
94.8194097783
 20
53.8283239748
 10
94.9351745001
 20
53.7666935442
  0
LWPOLYLINE
  5
40F
100
AcDbEntity
  8
RUNDUNGEN
100
AcDbPolyline
 62
7
  6
CONTINUOUS
 90
12
 70
0
 10
94.9351745001
 20
53.7666935442
 10
95.0835905589
 20
53.6764696656
 10
95.264103698
 20
53.5538588472
 10
95.4760356777
 20
53.3956405027
 10
95.7204818978
 20
53.1975739921
 10
96.0005911731
 20
52.9538012794
 10
96.3136147494
 20
52.6639738709
 10
96.6590757736
 20
52.3268036066
 10
97.0339371423
 20
51.9445965188
 10
97.4333702415
 20
51.5228435873
 10
97.8621623357
 20
51.0577751668
 10
98.3211010312
 20
50.5502855213
  0
LINE
  5
410
100
AcDbEntity
  8
0
100
AcDbLine
 62
7
  6
CONTINUOUS
 10
133.8283878373
 20
53.8619713806
 11
133.8283878373
 21
53.3619713806
  0
LINE
  5
411
100
AcDbEntity
  8
0
100
AcDbLine
 62
7
  6
CONTINUOUS
 10
134.4533878373
 20
53.8619713806
 11
134.4533878373
 21
53.3619713806
  0
LINE
  5
412
100
AcDbEntity
  8
0
100
AcDbLine
 62
7
  6
CONTINUOUS
 10
135.286720972
 20
53.8619713806
 11
135.286720972
 21
53.3619713806
  0
LINE
  5
413
100
AcDbEntity
  8
0
100
AcDbLine
 62
7
  6
CONTINUOUS
 10
137.786720972
 20
53.8619713806
 11
137.786720972
 21
53.3619713806
  0
LINE
  5
414
100
AcDbEntity
  8
0
100
AcDbLine
 62
7
  6
CONTINUOUS
 10
138.3075547027
 20
53.8619713806
 11
138.3075547027
 21
53.3619713806
  0
LINE
  5
415
100
AcDbEntity
  8
0
100
AcDbLine
 62
7
  6
CONTINUOUS
 10
138.724220972
 20
53.8619713806
 11
138.724220972
 21
53.3619713806
  0
LINE
  5
416
100
AcDbEntity
  8
0
100
AcDbLine
 62
7
  6
CONTINUOUS
 10
139.1408872413
 20
53.8619713806
 11
139.1408872413
 21
53.3619713806
  0
LINE
  5
417
100
AcDbEntity
  8
0
100
AcDbLine
 62
7
  6
CONTINUOUS
 10
139.349220972
 20
53.8619713806
 11
139.349220972
 21
53.3619713806
  0
LINE
  5
418
100
AcDbEntity
  8
0
100
AcDbLine
 62
7
  6
CONTINUOUS
 10
139.4533872413
 20
53.8619713806
 11
139.4533872413
 21
53.3619713806
  0
LWPOLYLINE
  5
419
100
AcDbEntity
  8
RUNDUNGEN
100
AcDbPolyline
 62
7
  6
CONTINUOUS
 90
3
 70
0
 10
170.4322753409
 20
53.7680264453
 10
170.5473919475
 20
53.8291545209
 10
170.6201980289
 20
53.8619713806
  0
LINE
  5
41A
100
AcDbEntity
  8
0
100
AcDbLine
 62
7
  6
CONTINUOUS
 10
127.3492200183
 20
77.5109076523
 11
127.7431157983
 21
76.4477481515
  0
LINE
  5
41B
100
AcDbEntity
  8
0
100
AcDbLine
 62
7
  6
CONTINUOUS
 10
128.2058784901
 20
76.6271863081
 11
127.5992200183
 21
78.3619713806
  0
LWPOLYLINE
  5
41C
100
AcDbEntity
  8
RUNDUNGEN
100
AcDbPolyline
 62
7
  6
CONTINUOUS
 90
13
 70
0
 10
166.4298315162
 20
49.8619713806
 10
167.0504049171
 20
50.5574132541
 10
167.5091744452
 20
51.0646051078
 10
167.9377729702
 20
51.5293100181
 10
168.3369827122
 20
51.9506344308
 10
168.7115572119
 20
52.3323212406
 10
169.0566867609
 20
52.6689155159
 10
169.3693371104
 20
52.9581313747
 10
169.6490329883
 20
53.2012761502
 10
169.8930295302
 20
53.3987194596
 10
170.1044696518
 20
53.5563276791
 10
170.2844471152
 20
53.6783531226
 10
170.4322753409
 20
53.7680264453
  0
LINE
  5
41D
100
AcDbEntity
  8
RUNDUNGEN
100
AcDbLine
 62
7
  6
CONTINUOUS
 10
174.6825530338
 20
49.8619713806
 11
152.6825530338
 21
49.8619713806
  0
LINE
  5
41E
100
AcDbEntity
  8
0
100
AcDbLine
 62
7
  6
CONTINUOUS
 10
162.7301259709
 20
53.3619713806
 11
155.132615071
 21
53.3619713806
  0
LINE
  5
41F
100
AcDbEntity
  8
0
100
AcDbLine
 62
7
  6
CONTINUOUS
 10
139.4533872413
 20
53.3619713806
 11
135.286720972
 21
53.3619713806
  0
LINE
  5
420
100
AcDbEntity
  8
0
100
AcDbLine
 62
7
  6
CONTINUOUS
 10
134.4533878373
 20
53.3619713806
 11
130.7033875393
 21
53.3619713806
  0
LINE
  5
421
100
AcDbEntity
  8
0
100
AcDbLine
 62
7
  6
CONTINUOUS
 10
129.8700544047
 20
53.3619713806
 11
125.911720972
 21
53.3619713806
  0
LINE
  5
422
100
AcDbEntity
  8
0
100
AcDbLine
 62
7
  6
CONTINUOUS
 10
114.9191587266
 20
53.3619713806
 11
102.4021773694
 21
53.3619713806
  0
LINE
  5
423
100
AcDbEntity
  8
RUNDUNGEN
100
AcDbLine
 62
7
  6
CONTINUOUS
 10
91.0709625823
 20
53.8619713806
 11
174.2941499456
 21
53.8619713806
  0
LINE
  5
424
100
AcDbEntity
  8
0
100
AcDbLine
 62
7
  6
CONTINUOUS
 10
155.1325530338
 20
53.8619713806
 11
155.1325530338
 21
53.3619713806
  0
LINE
  5
425
100
AcDbEntity
  8
RUNDUNGEN
100
AcDbLine
 62
7
  6
CONTINUOUS
 10
181.1825530338
 20
55.8619713806
 11
177.7582491174
 21
55.8619713806
  0
LINE
  5
426
100
AcDbEntity
  8
0
100
AcDbLine
 62
7
  6
CONTINUOUS
 10
159.6601259709
 20
53.8619713806
 11
159.6601259709
 21
53.3619713806
  0
LINE
  5
427
100
AcDbEntity
  8
0
100
AcDbLine
 62
7
  6
CONTINUOUS
 10
162.7301259709
 20
53.8619713806
 11
162.7301259709
 21
53.3619713806
  0
LINE
  5
428
100
AcDbEntity
  8
RUNDUNGEN
100
AcDbLine
 62
7
  6
CONTINUOUS
 10
177.7578705101
 20
70.8619713806
 11
181.1825530338
 21
70.8619713806
  0
LINE
  5
429
100
AcDbEntity
  8
BEZUGSACHSEN
100
AcDbLine
 62
7
  6
CONTINUOUS
 10
91.0709625823
 20
72.8619713806
 11
174.2941499455
 21
72.8619713806
  0
LINE
  5
42A
100
AcDbEntity
  8
RUNDUNGEN
100
AcDbLine
 62
7
  6
CONTINUOUS
 10
152.6825530338
 20
76.8619713806
 11
174.6825530338
 21
76.8619713806
  0
LINE
  5
42B
100
AcDbEntity
  8
0
100
AcDbLine
 62
7
  6
CONTINUOUS
 10
130.8492200183
 20
78.3619713806
 11
130.0992200183
 21
78.3619713806
  0
LINE
  5
42C
100
AcDbEntity
  8
0
100
AcDbLine
 62
7
  6
CONTINUOUS
 10
127.5992200183
 20
78.3619713806
 11
126.8492200183
 21
78.3619713806
  0
LWPOLYLINE
  5
42D
100
AcDbEntity
  8
BEZUGSACHSEN
100
AcDbPolyline
 62
7
  6
CONTINUOUS
 90
7
 70
0
 10
178.5533821805
 20
63.3619713784
 10
178.5471698331
 20
64.2386295428
 10
178.5239002526
 20
65.2743528098
 10
178.4830018701
 20
66.3195982444
 10
178.4241451974
 20
67.3726079259
 10
178.3470970101
 20
68.4315775207
 10
178.2765846014
 20
69.2364241438
  0
LINE
  5
42E
100
AcDbEntity
  8
RUNDUNGEN
100
AcDbLine
 62
7
  6
CONTINUOUS
 10
176.1825530338
 20
75.3619713806
 11
176.1825530338
 21
72.3619713806
  0
LINE
  5
42F
100
AcDbEntity
  8
RUNDUNGEN
100
AcDbLine
 62
7
  6
CONTINUOUS
 10
176.1825530338
 20
54.3371843132
 11
176.1825530338
 21
51.3619713806
  0
LINE
  5
430
100
AcDbEntity
  8
RUNDUNGEN
100
AcDbLine
 62
7
  6
CONTINUOUS
 10
182.6825530338
 20
45.4496268577
 11
182.6825530338
 21
54.3619713806
  0
LINE
  5
431
100
AcDbEntity
  8
RUNDUNGEN
100
AcDbLine
 62
7
  6
CONTINUOUS
 10
182.6825530338
 20
72.3619713806
 11
182.6825530338
 21
81.2743159036
  0
LWPOLYLINE
  5
432
100
AcDbEntity
  8
RUNDUNGEN
100
AcDbPolyline
 62
7
  6
CONTINUOUS
 90
7
 70
0
 10
178.2765846014
 20
57.4875186174
 10
178.3470970101
 20
58.2923652405
 10
178.4241451974
 20
59.3513348353
 10
178.4830018701
 20
60.4043445168
 10
178.5239002526
 20
61.4495899515
 10
178.5471698331
 20
62.4853132185
 10
178.5533821805
 20
63.3619713784
  0
LWPOLYLINE
  5
433
100
AcDbEntity
  8
BEZUGSACHSEN
100
AcDbPolyline
 62
7
  6
CONTINUOUS
 90
3
 70
0
 10
170.6202072713
 20
72.8619713806
 10
170.5476520461
 20
72.8946610562
 10
170.4327296173
 20
72.9556583362
  0
LWPOLYLINE
  5
434
100
AcDbEntity
  8
BEZUGSACHSEN
100
AcDbPolyline
 62
7
  6
CONTINUOUS
 90
12
 70
0
 10
170.4327296173
 20
72.9556583362
 10
170.2851330446
 20
73.0451494944
 10
170.1054084253
 20
73.1669473539
 10
169.8942262489
 20
73.3242935002
 10
169.6504845654
 20
73.5214486768
 10
169.3710050529
 20
73.7643146826
 10
169.0586053703
 20
74.0532034046
 10
168.7138029903
 20
74.3893805765
 10
168.3397439311
 20
74.7704417797
 10
167.9414648718
 20
75.1906795734
 10
167.5139814254
 20
75.6540696452
 10
167.0565165909
 20
76.1597238792
  0
LINE
  5
435
100
AcDbEntity
  8
RUNDUNGEN
100
AcDbLine
 62
7
  6
CONTINUOUS
 10
181.4172047313
 20
82.7558484145
 11
153.9676767996
 21
87.1034265331
  0
LWPOLYLINE
  5
436
100
AcDbEntity
  8
BEZUGSACHSEN
100
AcDbPolyline
 62
7
  6
CONTINUOUS
 90
30
 70
0
 10
155.7867319909
 20
86.8153164947
 10
154.9920849003
 20
87.3445713873
 10
153.3939845056
 20
88.3010310502
 10
151.7379495039
 20
89.1872283556
 10
150.0250900708
 20
90.0011027497
 10
148.2573408854
 20
90.7400977511
 10
146.4350098405
 20
91.4020433147
 10
144.5646306013
 20
91.9826751189
 10
142.6509949521
 20
92.4788827498
 10
140.7014646987
 20
92.8876146872
 10
138.7231634746
 20
93.2066781545
 10
136.723701488
 20
93.4348054217
 10
134.710246839
 20
93.5714536974
 10
132.6900498584
 20
93.6170093491
 10
130.6698267885
 20
93.5721258816
 10
128.6562988505
 20
93.4361560876
 10
126.6567125682
 20
93.2087071974
 10
124.6782325022
 20
92.8903160905
 10
122.728474282
 20
92.4822457991
 10
120.8145673261
 20
91.9866844342
 10
118.9438780085
 20
91.4066801994
 10
117.1212011008
 20
90.7453407585
 10
115.3530754118
 20
90.0069286282
 10
113.6398106993
 20
89.1936132169
 10
111.9833441384
 20
88.3079507826
 10
110.3847867695
 20
87.3520008962
 10
108.8455381513
 20
86.3276278724
 10
107.3668064374
 20
85.2363450562
 10
105.9491338954
 20
84.0786671669
 10
104.7052305568
 20
82.9605350518
  0
LINE
  5
437
100
AcDbEntity
  8
BEZUGSACHSEN
100
AcDbLine
 62
7
  6
CONTINUOUS
 10
167.0565165909
 20
76.1597238792
 11
166.4298399268
 21
76.8619713806
  0
ARC
  5
438
100
AcDbEntity
  8
BEZUGSACHSEN
100
AcDbCircle
 62
7
  6
CONTINUOUS
 10
90.1825530338
 20
172.5845460766
 40
17.0
100
AcDbArc
 50
0.018074332
 51
57.985165672
  0
ARC
  5
439
100
AcDbEntity
  8
BEZUGSACHSEN
100
AcDbCircle
 62
7
  6
CONTINUOUS
 10
89.3518266822
 20
202.8745875291
 40
3.0000109539
100
AcDbArc
 50
345.0480136354
 51
22.5571715082
  0
ARC
  5
43A
100
AcDbEntity
  8
BEZUGSACHSEN
100
AcDbCircle
 62
7
  6
CONTINUOUS
 10
96.1185577862
 20
186.5845480376
 40
2.9999994117
100
AcDbArc
 50
22.5575099356
 51
90.0000255715
  0
ARC
  5
43B
100
AcDbEntity
  8
BEZUGSACHSEN
100
AcDbCircle
 62
7
  6
CONTINUOUS
 10
94.1825530338
 20
201.5845460766
 40
2.0
100
AcDbArc
 50
165.0482896718
 51
180.0
  0
ARC
  5
43C
100
AcDbEntity
  8
RUNDUNGEN
100
AcDbCircle
 62
7
  6
CONTINUOUS
 10
94.1825530338
 20
201.5845460766
 40
2.0
100
AcDbArc
 50
165.0482896718
 51
180.0
  0
ARC
  5
43D
100
AcDbEntity
  8
BEZUGSACHSEN
100
AcDbCircle
 62
7
  6
CONTINUOUS
 10
94.1825530338
 20
191.5845460766
 40
2.0
100
AcDbArc
 50
180.0
 51
270.0
  0
ARC
  5
43E
100
AcDbEntity
  8
RUNDUNGEN
100
AcDbCircle
 62
7
  6
CONTINUOUS
 10
120.1825530338
 20
206.3845460766
 40
1.5
100
AcDbArc
 50
180.0
 51
270.0
  0
ARC
  5
43F
100
AcDbEntity
  8
RUNDUNGEN
100
AcDbCircle
 62
7
  6
CONTINUOUS
 10
120.1825530338
 20
208.8845460766
 40
1.5
100
AcDbArc
 50
90.0
 51
180.0
  0
ARC
  5
440
100
AcDbEntity
  8
0
100
AcDbCircle
 62
7
  6
CONTINUOUS
 10
132.6825530338
 20
217.5845460766
 40
24.5
100
AcDbArc
 50
342.9104048317
 51
343.4618141399
  0
ARC
  5
441
100
AcDbEntity
  8
0
100
AcDbCircle
 62
7
  6
CONTINUOUS
 10
132.6825530338
 20
217.5845460766
 40
24.5
100
AcDbArc
 50
196.5381858601
 51
205.0203562652
  0
ARC
  5
442
100
AcDbEntity
  8
RUNDUNGEN
100
AcDbCircle
 62
7
  6
CONTINUOUS
 10
132.6825530338
 20
217.5845460766
 40
24.5
100
AcDbArc
 50
343.4618141399
 51
196.5381858601
  0
ARC
  5
443
100
AcDbEntity
  8
BEZUGSACHSEN
100
AcDbCircle
 62
7
  6
CONTINUOUS
 10
132.6825530338
 20
256.9225850752
 40
5.0
100
AcDbArc
 50
101.9026400762
 51
112.5000000054
  0
ARC
  5
444
100
AcDbEntity
  8
BEZUGSACHSEN
100
AcDbCircle
 62
7
  6
CONTINUOUS
 10
132.6825530338
 20
256.9225850752
 40
5.0
100
AcDbArc
 50
83.1401185908
 51
99.0000000702
  0
ARC
  5
445
100
AcDbEntity
  8
BEZUGSACHSEN
100
AcDbCircle
 62
7
  6
CONTINUOUS
 10
132.6825530338
 20
256.9225850752
 40
5.0
100
AcDbArc
 50
78.0999759278
 51
80.9999999293
  0
ARC
  5
446
100
AcDbEntity
  8
BEZUGSACHSEN
100
AcDbCircle
 62
7
  6
CONTINUOUS
 10
102.9048103799
 20
244.5882402111
 40
5.0
100
AcDbArc
 50
123.0999413191
 51
157.5000000054
  0
ARC
  5
447
100
AcDbEntity
  8
RUNDUNGEN
100
AcDbCircle
 62
7
  6
CONTINUOUS
 10
132.6825530338
 20
256.9225850752
 40
5.0
100
AcDbArc
 50
67.5
 51
112.5
  0
ARC
  5
448
100
AcDbEntity
  8
RUNDUNGEN
100
AcDbCircle
 62
7
  6
CONTINUOUS
 10
102.9048103799
 20
244.5882402111
 40
5.0
100
AcDbArc
 50
112.5
 51
157.5
  0
ARC
  5
449
100
AcDbEntity
  8
BEZUGSACHSEN
100
AcDbCircle
 62
7
  6
CONTINUOUS
 10
91.8117330305
 20
217.8071824258
 40
5.0
100
AcDbArc
 50
157.5002734022
 51
202.5577278415
  0
ARC
  5
44A
100
AcDbEntity
  8
BEZUGSACHSEN
100
AcDbCircle
 62
7
  6
CONTINUOUS
 10
175.1825530338
 20
172.5845460766
 40
17.0
100
AcDbArc
 50
122.014834328
 51
179.981925675
  0
ARC
  5
44B
100
AcDbEntity
  8
BEZUGSACHSEN
100
AcDbCircle
 62
7
  6
CONTINUOUS
 10
176.0132788891
 20
202.8745864992
 40
3.00001029
100
AcDbArc
 50
157.4428066909
 51
194.9519698045
  0
ARC
  5
44C
100
AcDbEntity
  8
BEZUGSACHSEN
100
AcDbCircle
 62
7
  6
CONTINUOUS
 10
169.2465483305
 20
186.5845481603
 40
2.9999993749
100
AcDbArc
 50
89.9999753679
 51
157.4424925891
  0
ARC
  5
44D
100
AcDbEntity
  8
BEZUGSACHSEN
100
AcDbCircle
 62
7
  6
CONTINUOUS
 10
171.1825530338
 20
201.5845460766
 40
2.0
100
AcDbArc
 50
0.0
 51
14.9517103282
  0
ARC
  5
44E
100
AcDbEntity
  8
RUNDUNGEN
100
AcDbCircle
 62
7
  6
CONTINUOUS
 10
171.1825530338
 20
201.5845460766
 40
2.0
100
AcDbArc
 50
0.0
 51
14.9517103282
  0
ARC
  5
44F
100
AcDbEntity
  8
BEZUGSACHSEN
100
AcDbCircle
 62
7
  6
CONTINUOUS
 10
171.1825530338
 20
191.5845460766
 40
2.0
100
AcDbArc
 50
270.0
 51
360.0
  0
ARC
  5
450
100
AcDbEntity
  8
RUNDUNGEN
100
AcDbCircle
 62
7
  6
CONTINUOUS
 10
181.1825530338
 20
206.3845460766
 40
1.5
100
AcDbArc
 50
270.0
 51
360.0
  0
ARC
  5
451
100
AcDbEntity
  8
RUNDUNGEN
100
AcDbCircle
 62
7
  6
CONTINUOUS
 10
181.1825530338
 20
208.8845460766
 40
1.5
100
AcDbArc
 50
0.0
 51
90.0
  0
ARC
  5
452
100
AcDbEntity
  8
BEZUGSACHSEN
100
AcDbCircle
 62
7
  6
CONTINUOUS
 10
162.4602956876
 20
244.5882402111
 40
5.0
100
AcDbArc
 50
51.8553334161
 51
54.0000000702
  0
ARC
  5
453
100
AcDbEntity
  8
BEZUGSACHSEN
100
AcDbCircle
 62
7
  6
CONTINUOUS
 10
162.4602956876
 20
244.5882402111
 40
5.0
100
AcDbArc
 50
33.0997868536
 51
35.9999999293
  0
ARC
  5
454
100
AcDbEntity
  8
BEZUGSACHSEN
100
AcDbCircle
 62
7
  6
CONTINUOUS
 10
173.5533821901
 20
217.8071603282
 40
5.0
100
AcDbArc
 50
337.4424657684
 51
22.5000006808
  0
ARC
  5
455
100
AcDbEntity
  8
RUNDUNGEN
100
AcDbCircle
 62
7
  6
CONTINUOUS
 10
162.4602956876
 20
244.5882402111
 40
5.0
100
AcDbArc
 50
22.5
 51
67.5
  0
ARC
  5
456
100
AcDbEntity
  8
0
100
AcDbCircle
 62
7
  6
CONTINUOUS
 10
160.7525530338
 20
238.6584673691
 40
2.55
100
AcDbArc
 50
39.1479076285
 51
224.8287668717
  0
ARC
  5
457
100
AcDbEntity
  8
0
100
AcDbCircle
 62
7
  6
CONTINUOUS
 10
157.6825530338
 20
241.7284673691
 40
2.55
100
AcDbArc
 50
39.1479076285
 51
224.8287668717
  0
ARC
  5
458
100
AcDbEntity
  8
0
100
AcDbCircle
 62
7
  6
CONTINUOUS
 10
160.7525530338
 20
238.6584673691
 40
1.79
100
AcDbArc
 50
147.2566154263
 51
233.3518372791
  0
ARC
  5
459
100
AcDbEntity
  8
0
100
AcDbCircle
 62
7
  6
CONTINUOUS
 10
160.7525530338
 20
238.6584673691
 40
1.79
100
AcDbArc
 50
36.6481627209
 51
122.5568150643
  0
ARC
  5
45A
100
AcDbEntity
  8
0
100
AcDbCircle
 62
7
  6
CONTINUOUS
 10
157.6825530338
 20
241.7284673691
 40
1.79
100
AcDbArc
 50
36.6481627209
 51
233.3518372791
  0
ARC
  5
45B
100
AcDbEntity
  8
0
100
AcDbCircle
 62
7
  6
CONTINUOUS
 10
177.9200881071
 20
192.6225215717
 40
135.2008419135
100
AcDbArc
 50
353.976743992
 51
354.1943018805
  0
ARC
  5
45C
100
AcDbEntity
  8
0
100
AcDbCircle
 62
7
  6
CONTINUOUS
 10
179.2153838686
 20
192.0223779523
 40
133.302804588
100
AcDbArc
 50
354.1500206465
 51
354.3706075586
  0
ARC
  5
45D
100
AcDbEntity
  8
0
100
AcDbCircle
 62
7
  6
CONTINUOUS
 10
67.4074559558
 20
233.0196125463
 40
252.2372539582
100
AcDbArc
 50
347.8980800866
 51
348.0562042463
  0
ARC
  5
45E
100
AcDbEntity
  8
0
100
AcDbCircle
 62
7
  6
CONTINUOUS
 10
69.4473556527
 20
232.1955552908
 40
249.5535787657
100
AcDbArc
 50
347.9594577511
 51
348.1192455091
  0
ARC
  5
45F
100
AcDbEntity
  8
0
100
AcDbCircle
 62
7
  6
CONTINUOUS
 10
189.5048532896
 20
207.699640642
 40
127.8354550711
100
AcDbArc
 50
349.1847328246
 51
349.4176496274
  0
ARC
  5
460
100
AcDbEntity
  8
0
100
AcDbCircle
 62
7
  6
CONTINUOUS
 10
190.6467929721
 20
207.201611343
 40
126.1021775737
100
AcDbArc
 50
349.2646516507
 51
349.4845856934
  0
ARC
  5
461
100
AcDbEntity
  8
0
100
AcDbCircle
 62
7
  6
CONTINUOUS
 10
198.4939389318
 20
203.915436939
 40
118.129767266
100
AcDbArc
 50
348.7248404305
 51
348.977276472
  0
ARC
  5
462
100
AcDbEntity
  8
0
100
AcDbCircle
 62
7
  6
CONTINUOUS
 10
267.7276358795
 20
179.8438261067
 40
45.0277524627
100
AcDbArc
 50
358.641157236
 51
359.0744205589
  0
ARC
  5
463
100
AcDbEntity
  8
0
100
AcDbCircle
 62
7
  6
CONTINUOUS
 10
290.5261431696
 20
186.6016302216
 40
32.9139647534
100
AcDbArc
 50
187.719890512
 51
193.6722843687
  0
ARC
  5
464
100
AcDbEntity
  8
0
100
AcDbCircle
 62
7
  6
CONTINUOUS
 10
289.1626515535
 20
186.2826598983
 40
31.5137176153
100
AcDbArc
 50
193.6947457193
 51
194.4185973287
  0
ARC
  5
465
100
AcDbEntity
  8
0
100
AcDbCircle
 62
7
  6
CONTINUOUS
 10
276.3069296573
 20
189.089881806
 40
19.9296330129
100
AcDbArc
 50
193.2316581617
 51
194.1352172736
  0
ARC
  5
466
100
AcDbEntity
  8
0
100
AcDbCircle
 62
7
  6
CONTINUOUS
 10
295.826347415
 20
185.1802347635
 40
19.3634141379
100
AcDbArc
 50
357.1659533891
 51
358.1741089912
  0
ARC
  5
467
100
AcDbEntity
  8
0
100
AcDbCircle
 62
7
  6
CONTINUOUS
 10
295.6244997092
 20
185.0930419932
 40
19.0330652002
100
AcDbArc
 50
357.3795049755
 51
357.8916849512
  0
ARC
  5
468
100
AcDbEntity
  8
0
100
AcDbCircle
 62
7
  6
CONTINUOUS
 10
296.8272952294
 20
187.3806054985
 40
19.0004087252
100
AcDbArc
 50
330.7450996257
 51
331.9151176365
  0
ARC
  5
469
100
AcDbEntity
  8
0
100
AcDbCircle
 62
7
  6
CONTINUOUS
 10
295.9950432483
 20
181.5555610945
 40
18.2039267615
100
AcDbArc
 50
357.6797890876
 51
358.7517934837
  0
ARC
  5
46A
100
AcDbEntity
  8
0
100
AcDbCircle
 62
7
  6
CONTINUOUS
 10
295.7627082216
 20
181.470130678
 40
17.9041965719
100
AcDbArc
 50
357.9145197417
 51
359.0043363553
  0
ARC
  5
46B
100
AcDbEntity
  8
0
100
AcDbCircle
 62
7
  6
CONTINUOUS
 10
295.0458425838
 20
175.6227385015
 40
17.5555103271
100
AcDbArc
 50
8.0962183112
 51
9.2200877931
  0
ARC
  5
46C
100
AcDbEntity
  8
0
100
AcDbCircle
 62
7
  6
CONTINUOUS
 10
294.8014872795
 20
175.5305278876
 40
17.2685975674
100
AcDbArc
 50
8.5409143977
 51
9.6848758699
  0
ARC
  5
46D
100
AcDbEntity
  8
0
100
AcDbCircle
 62
7
  6
CONTINUOUS
 10
302.8185885845
 20
185.9048769461
 40
12.880118796
100
AcDbArc
 50
325.4801629246
 51
326.3941643547
  0
ARC
  5
46E
100
AcDbEntity
  8
0
100
AcDbCircle
 62
7
  6
CONTINUOUS
 10
302.4405996307
 20
185.8772290176
 40
12.7381483734
100
AcDbArc
 50
325.191387349
 51
326.1186742738
  0
ARC
  5
46F
100
AcDbEntity
  8
0
100
AcDbCircle
 62
7
  6
CONTINUOUS
 10
302.7431494721
 20
185.0030080355
 40
12.7034551151
100
AcDbArc
 50
325.2098036828
 51
327.0589962222
  0
ARC
  5
470
100
AcDbEntity
  8
0
100
AcDbCircle
 62
7
  6
CONTINUOUS
 10
267.6398490321
 20
187.8840899229
 40
11.2658727337
100
AcDbArc
 50
192.6634948878
 51
194.4444964357
  0
ARC
  5
471
100
AcDbEntity
  8
0
100
AcDbCircle
 62
7
  6
CONTINUOUS
 10
305.0144586628
 20
187.8840899229
 40
11.2658727337
100
AcDbArc
 50
345.5555035643
 51
347.3365051122
  0
ARC
  5
472
100
AcDbEntity
  8
0
100
AcDbCircle
 62
7
  6
CONTINUOUS
 10
265.7929894167
 20
187.9593662219
 40
10.8402124235
100
AcDbArc
 50
241.4689126056
 51
243.413545525
  0
ARC
  5
473
100
AcDbEntity
  8
0
100
AcDbCircle
 62
7
  6
CONTINUOUS
 10
267.1501583694
 20
186.0911313293
 40
10.8325152445
100
AcDbArc
 50
228.925534843
 51
230.3152390283
  0
ARC
  5
474
100
AcDbEntity
  8
0
100
AcDbCircle
 62
7
  6
CONTINUOUS
 10
265.2372625807
 20
187.7873583462
 40
10.6849172129
100
AcDbArc
 50
241.0720783719
 51
243.0192623941
  0
ARC
  5
475
100
AcDbEntity
  8
0
100
AcDbCircle
 62
7
  6
CONTINUOUS
 10
304.8920932244
 20
184.9604310304
 40
10.5806607055
100
AcDbArc
 50
0.6145048093
 51
2.4586999194
  0
ARC
  5
476
100
AcDbEntity
  8
0
100
AcDbCircle
 62
7
  6
CONTINUOUS
 10
264.770888052
 20
187.2674896896
 40
10.539699411
100
AcDbArc
 50
244.4968845532
 51
246.7384407247
  0
ARC
  5
477
100
AcDbEntity
  8
0
100
AcDbCircle
 62
7
  6
CONTINUOUS
 10
303.0785248581
 20
176.1976401373
 40
10.00224479
100
AcDbArc
 50
13.9316488409
 51
14.9384743879
  0
ARC
  5
478
100
AcDbEntity
  8
0
100
AcDbCircle
 62
7
  6
CONTINUOUS
 10
302.871688663
 20
175.2732733271
 40
9.9626923516
100
AcDbArc
 50
14.4229479627
 51
16.454141724
  0
ARC
  5
479
100
AcDbEntity
  8
0
100
AcDbCircle
 62
7
  6
CONTINUOUS
 10
302.4699445714
 20
175.2136011249
 40
9.8400147029
100
AcDbArc
 50
14.966091421
 51
17.028262463
  0
ARC
  5
47A
100
AcDbEntity
  8
0
100
AcDbCircle
 62
7
  6
CONTINUOUS
 10
308.1147881919
 20
187.7559749149
 40
8.4044877064
100
AcDbArc
 50
316.8688921811
 51
319.9717751013
  0
ARC
  5
47B
100
AcDbEntity
  8
0
100
AcDbCircle
 62
7
  6
CONTINUOUS
 10
307.6436081347
 20
187.7674331093
 40
8.3669406635
100
AcDbArc
 50
316.51950768
 51
319.6525933127
  0
ARC
  5
47C
100
AcDbEntity
  8
0
100
AcDbCircle
 62
7
  6
CONTINUOUS
 10
308.7637484854
 20
182.5670946606
 40
6.5287800162
100
AcDbArc
 50
310.2558171378
 51
312.5154001706
  0
ARC
  5
47D
100
AcDbEntity
  8
0
100
AcDbCircle
 62
7
  6
CONTINUOUS
 10
308.1708894038
 20
180.8256039662
 40
6.2936741143
100
AcDbArc
 50
4.5897444645
 51
7.7071940094
  0
ARC
  5
47E
100
AcDbEntity
  8
0
100
AcDbCircle
 62
7
  6
CONTINUOUS
 10
309.9312333451
 20
183.0538358546
 40
5.6597283811
100
AcDbArc
 50
305.3156089602
 51
308.1954714234
  0
ARC
  5
47F
100
AcDbEntity
  8
0
100
AcDbCircle
 62
7
  6
CONTINUOUS
 10
309.5680192355
 20
182.8972741894
 40
5.4327557499
100
AcDbArc
 50
306.9976948774
 51
307.8218075342
  0
ARC
  5
480
100
AcDbEntity
  8
0
100
AcDbCircle
 62
7
  6
CONTINUOUS
 10
308.7063283151
 20
174.9791955134
 40
4.2890145283
100
AcDbArc
 50
37.4051586397
 51
40.3257980071
  0
ARC
  5
481
100
AcDbEntity
  8
0
100
AcDbCircle
 62
7
  6
CONTINUOUS
 10
309.2445050816
 20
175.0435004544
 40
4.2523351894
100
AcDbArc
 50
36.6956842174
 51
39.6125554073
  0
ARC
  5
482
100
AcDbEntity
  8
0
100
AcDbCircle
 62
7
  6
CONTINUOUS
 10
310.2231406339
 20
175.8071954013
 40
3.795172042
100
AcDbArc
 50
43.8337297352
 51
47.5119104859
  0
ARC
  5
483
100
AcDbEntity
  8
0
100
AcDbCircle
 62
7
  6
CONTINUOUS
 10
259.2753344372
 20
186.2830286997
 40
2.8079007306
100
AcDbArc
 50
213.4941784631
 51
217.7684219062
  0
ARC
  5
484
100
AcDbEntity
  8
0
100
AcDbCircle
 62
7
  6
CONTINUOUS
 10
312.9293114014
 20
183.2320388201
 40
2.6148536724
100
AcDbArc
 50
30.6041232382
 51
35.0434810642
  0
ARC
  5
485
100
AcDbEntity
  8
0
100
AcDbCircle
 62
7
  6
CONTINUOUS
 10
258.515756462
 20
184.7368012343
 40
1.6268706841
100
AcDbArc
 50
180.1168859288
 51
186.1231548978
  0
ARC
  5
486
100
AcDbEntity
  8
0
100
AcDbCircle
 62
7
  6
CONTINUOUS
 10
257.490501975
 20
185.4710480086
 40
0.8444480236
100
AcDbArc
 50
172.2757825114
 51
178.0702165951
  0
ARC
  5
487
100
AcDbEntity
  8
0
100
AcDbCircle
 62
7
  6
CONTINUOUS
 10
315.1658022584
 20
185.471434415
 40
0.8424176736
100
AcDbArc
 50
356.1133750398
 51
7.7164261669
  0
ARC
  5
488
100
AcDbEntity
  8
0
100
AcDbCircle
 62
7
  6
CONTINUOUS
 10
257.4832547148
 20
185.4715599681
 40
0.8371876765
100
AcDbArc
 50
178.0885320601
 51
183.9195555162
  0
ARC
  5
489
100
AcDbEntity
  8
0
100
AcDbCircle
 62
7
  6
CONTINUOUS
 10
267.260548254
 20
191.9371441224
 40
48.6976602247
100
AcDbArc
 50
351.0880271638
 51
351.8980082498
  0
ARC
  5
48A
100
AcDbEntity
  8
0
100
AcDbCircle
 62
7
  6
CONTINUOUS
 10
301.1375786039
 20
197.1610975035
 40
46.0230907756
100
AcDbArc
 50
195.2263619588
 51
195.6879136278
  0
ARC
  5
48B
100
AcDbEntity
  8
0
100
AcDbCircle
 62
7
  6
CONTINUOUS
 10
271.6946692789
 20
197.1119741021
 40
45.838495614
100
AcDbArc
 50
344.0012892117
 51
344.7744704674
  0
ARC
  5
48C
100
AcDbEntity
  8
0
100
AcDbCircle
 62
7
  6
CONTINUOUS
 10
294.7201974691
 20
200.6882020219
 40
40.8072014954
100
AcDbArc
 50
202.4970429877
 51
203.535695896
  0
ARC
  5
48D
100
AcDbEntity
  8
0
100
AcDbCircle
 62
7
  6
CONTINUOUS
 10
294.5998026073
 20
200.4983290193
 40
40.1386090674
100
AcDbArc
 50
202.5989817784
 51
203.6558080782
  0
ARC
  5
48E
100
AcDbEntity
  8
0
100
AcDbCircle
 62
7
  6
CONTINUOUS
 10
279.8343081964
 20
198.9701697476
 40
38.4891670677
100
AcDbArc
 50
334.4180804134
 51
334.9786193051
  0
ARC
  5
48F
100
AcDbEntity
  8
0
100
AcDbCircle
 62
7
  6
CONTINUOUS
 10
279.9401391733
 20
198.7822058361
 40
37.8346426207
100
AcDbArc
 50
334.2590429534
 51
334.8300057419
  0
ARC
  5
490
100
AcDbEntity
  8
0
100
AcDbCircle
 62
7
  6
CONTINUOUS
 10
281.8264581958
 20
203.9034851176
 40
37.3448146519
100
AcDbArc
 50
328.5039294266
 51
329.7211674461
  0
ARC
  5
491
100
AcDbEntity
  8
0
100
AcDbCircle
 62
7
  6
CONTINUOUS
 10
280.7343299862
 20
194.5705018821
 40
36.4152442345
100
AcDbArc
 50
334.2953464858
 51
334.8883318415
  0
ARC
  5
492
100
AcDbEntity
  8
0
100
AcDbCircle
 62
7
  6
CONTINUOUS
 10
280.8344268006
 20
194.3850567076
 40
35.7669973366
100
AcDbArc
 50
334.125047816
 51
334.7296076783
  0
ARC
  5
493
100
AcDbEntity
  8
0
100
AcDbCircle
 62
7
  6
CONTINUOUS
 10
293.0185219289
 20
192.9653547521
 40
24.1886379308
100
AcDbArc
 50
332.1613134319
 51
333.5207841335
  0
ARC
  5
494
100
AcDbEntity
  8
0
100
AcDbCircle
 62
7
  6
CONTINUOUS
 10
296.3709517632
 20
196.9128234096
 40
22.0828514275
100
AcDbArc
 50
324.9246569525
 51
325.9969329043
  0
ARC
  5
495
100
AcDbEntity
  8
0
100
AcDbCircle
 62
7
  6
CONTINUOUS
 10
276.7076930081
 20
191.1286532729
 40
20.9275823125
100
AcDbArc
 50
216.17513218
 51
217.3384582592
  0
ARC
  5
496
100
AcDbEntity
  8
0
100
AcDbCircle
 62
7
  6
CONTINUOUS
 10
276.9724293273
 20
191.0718920854
 40
20.6695594161
100
AcDbArc
 50
216.5039027359
 51
217.6869952873
  0
ARC
  5
497
100
AcDbEntity
  8
0
100
AcDbCircle
 62
7
  6
CONTINUOUS
 10
276.5386635649
 20
189.967807787
 40
20.4321911804
100
AcDbArc
 50
214.941781242
 51
216.114798455
  0
ARC
  5
498
100
AcDbEntity
  8
0
100
AcDbCircle
 62
7
  6
CONTINUOUS
 10
275.739831037
 20
192.6915503798
 40
20.3756067031
100
AcDbArc
 50
203.5108139737
 51
204.5589747574
  0
ARC
  5
499
100
AcDbEntity
  8
0
100
AcDbCircle
 62
7
  6
CONTINUOUS
 10
302.4925374782
 20
195.3283807712
 40
15.8804174587
100
AcDbArc
 50
319.7795177358
 51
321.3696210879
  0
ARC
  5
49A
100
AcDbEntity
  8
0
100
AcDbCircle
 62
7
  6
CONTINUOUS
 10
302.1069676989
 20
195.3159002832
 40
15.753552741
100
AcDbArc
 50
319.4479488085
 51
321.0583116902
  0
ARC
  5
49B
100
AcDbEntity
  8
0
100
AcDbCircle
 62
7
  6
CONTINUOUS
 10
268.3078012686
 20
191.1256022047
 40
12.8090741878
100
AcDbArc
 50
206.4794491509
 51
208.1936890998
  0
ARC
  5
49C
100
AcDbEntity
  8
0
100
AcDbCircle
 62
7
  6
CONTINUOUS
 10
268.6703116684
 20
191.0833014098
 40
12.6462025047
100
AcDbArc
 50
206.6330211772
 51
208.3719512922
  0
ARC
  5
49D
100
AcDbEntity
  8
0
100
AcDbCircle
 62
7
  6
CONTINUOUS
 10
310.6105650887
 20
190.7914063055
 40
7.4385563907
100
AcDbArc
 50
303.1462514686
 51
305.4724043294
  0
ARC
  5
49E
100
AcDbEntity
  8
BEZUGSACHSEN
100
AcDbCircle
 62
7
  6
CONTINUOUS
 10
286.3271538475
 20
196.5845460766
 40
7.0
100
AcDbArc
 50
188.6450218488
 51
351.3549781512
  0
ARC
  5
49F
100
AcDbEntity
  8
BEZUGSACHSEN
100
AcDbCircle
 62
7
  6
CONTINUOUS
 10
260.0721152599
 20
189.7294996669
 40
4.0
100
AcDbArc
 50
110.0
 51
196.0
  0
ARC
  5
4A0
100
AcDbEntity
  8
RUNDUNGEN
100
AcDbCircle
 62
7
  6
CONTINUOUS
 10
312.5821924351
 20
189.7294996669
 40
4.0
100
AcDbArc
 50
344.0
 51
70.0
  0
ARC
  5
4A1
100
AcDbEntity
  8
0
100
AcDbCircle
 62
7
  6
CONTINUOUS
 10
203.9853554523
 20
224.9787409934
 40
118.5263121782
100
AcDbArc
 50
339.0974269224
 51
339.4493267962
  0
ARC
  5
4A2
100
AcDbEntity
  8
0
100
AcDbCircle
 62
7
  6
CONTINUOUS
 10
205.8154148996
 20
224.2663878705
 40
116.068590492
100
AcDbArc
 50
339.01047105
 51
339.3700201153
  0
ARC
  5
4A3
100
AcDbEntity
  8
0
100
AcDbCircle
 62
7
  6
CONTINUOUS
 10
204.6635834013
 20
212.8646173621
 40
114.6100908867
100
AcDbArc
 50
341.5342449726
 51
342.510285905
  0
ARC
  5
4A4
100
AcDbEntity
  8
0
100
AcDbCircle
 62
7
  6
CONTINUOUS
 10
209.6164342749
 20
218.964037613
 40
111.4577022629
100
AcDbArc
 50
339.0524613339
 51
339.2397276262
  0
ARC
  5
4A5
100
AcDbEntity
  8
0
100
AcDbCircle
 62
7
  6
CONTINUOUS
 10
210.204341481
 20
212.5833648621
 40
109.1992347909
100
AcDbArc
 50
340.7538800767
 51
341.7773418221
  0
ARC
  5
4A6
100
AcDbEntity
  8
0
100
AcDbCircle
 62
7
  6
CONTINUOUS
 10
211.4318913353
 20
218.2556707714
 40
109.0150378056
100
AcDbArc
 50
338.959621676
 51
339.1511997346
  0
ARC
  5
4A7
100
AcDbEntity
  8
0
100
AcDbCircle
 62
7
  6
CONTINUOUS
 10
214.260129465
 20
211.1141380339
 40
104.3915173846
100
AcDbArc
 50
340.6721015579
 51
341.2104263204
  0
ARC
  5
4A8
100
AcDbEntity
  8
0
100
AcDbCircle
 62
7
  6
CONTINUOUS
 10
243.7369467
 20
210.312690446
 40
76.3078266833
100
AcDbArc
 50
338.366389313
 51
338.7782727682
  0
ARC
  5
4A9
100
AcDbEntity
  8
0
100
AcDbCircle
 62
7
  6
CONTINUOUS
 10
247.2136487818
 20
205.0710656423
 40
71.5214945631
100
AcDbArc
 50
338.1355574576
 51
338.5756614039
  0
ARC
  5
4AA
100
AcDbEntity
  8
0
100
AcDbCircle
 62
7
  6
CONTINUOUS
 10
254.7033996845
 20
213.1668995926
 40
66.3825061013
100
AcDbArc
 50
333.6590577541
 51
334.149827159
  0
ARC
  5
4AB
100
AcDbEntity
  8
0
100
AcDbCircle
 62
7
  6
CONTINUOUS
 10
281.7346677663
 20
204.0968864951
 40
37.9895401424
100
AcDbArc
 50
328.7572819435
 51
329.9508620718
  0
ARC
  5
4AC
100
AcDbEntity
  8
RUNDUNGEN
100
AcDbCircle
 62
7
  6
CONTINUOUS
 10
308.8271538475
 20
209.1872440734
 40
13.0
100
AcDbArc
 50
179.9994625791
 51
250.0006406919
  0
ARC
  5
4AD
100
AcDbEntity
  8
BEZUGSACHSEN
100
AcDbCircle
 62
7
  6
CONTINUOUS
 10
263.8271538475
 20
209.1872440734
 40
13.0
100
AcDbArc
 50
289.9993593081
 51
0.0005374209
  0
ARC
  5
4AE
100
AcDbEntity
  8
RUNDUNGEN
100
AcDbCircle
 62
7
  6
CONTINUOUS
 10
263.8271538475
 20
206.3845460766
 40
1.5
100
AcDbArc
 50
180.0
 51
270.0
  0
ARC
  5
4AF
100
AcDbEntity
  8
RUNDUNGEN
100
AcDbCircle
 62
7
  6
CONTINUOUS
 10
308.8271538475
 20
206.3845460766
 40
1.5
100
AcDbArc
 50
270.0
 51
360.0
  0
ARC
  5
4B0
100
AcDbEntity
  8
RUNDUNGEN
100
AcDbCircle
 62
7
  6
CONTINUOUS
 10
308.8271538475
 20
208.8845460766
 40
1.5
100
AcDbArc
 50
0.0
 51
90.0
  0
ARC
  5
4B1
100
AcDbEntity
  8
RUNDUNGEN
100
AcDbCircle
 62
7
  6
CONTINUOUS
 10
263.8271538475
 20
208.8845460766
 40
1.5
100
AcDbArc
 50
90.0
 51
180.0
  0
ARC
  5
4B2
100
AcDbEntity
  8
0
100
AcDbCircle
 62
7
  6
CONTINUOUS
 10
84.8855935365
 20
236.6903433379
 40
236.3656648207
100
AcDbArc
 50
346.7937481965
 51
346.93487933
  0
ARC
  5
4B3
100
AcDbEntity
  8
0
100
AcDbCircle
 62
7
  6
CONTINUOUS
 10
107.0635906599
 20
264.8540556311
 40
222.2287772821
100
AcDbArc
 50
338.5845672295
 51
338.7730038567
  0
ARC
  5
4B4
100
AcDbEntity
  8
0
100
AcDbCircle
 62
7
  6
CONTINUOUS
 10
104.3725979525
 20
250.8502409314
 40
221.4206729477
100
AcDbArc
 50
341.050219118
 51
341.1898674329
  0
ARC
  5
4B5
100
AcDbEntity
  8
0
100
AcDbCircle
 62
7
  6
CONTINUOUS
 10
112.8397426377
 20
262.8402437436
 40
215.6073900372
100
AcDbArc
 50
338.469246023
 51
338.6636187594
  0
ARC
  5
4B6
100
AcDbEntity
  8
BEZUGSACHSEN
100
AcDbCircle
 62
7
  6
CONTINUOUS
 10
280.8271538475
 20
257.9225850752
 40
4.0
100
AcDbArc
 50
90.0
 51
180.0
  0
ARC
  5
4B7
100
AcDbEntity
  8
RUNDUNGEN
100
AcDbCircle
 62
7
  6
CONTINUOUS
 10
291.8271538475
 20
257.9225850752
 40
4.0
100
AcDbArc
 50
0.0
 51
90.0
  0
ARC
  5
4B8
100
AcDbEntity
  8
0
100
AcDbCircle
 62
7
  6
CONTINUOUS
 10
376.4686711026
 20
206.0796282725
 40
120.9430471188
100
AcDbArc
 50
191.1504571025
 51
191.3971276885
  0
ARC
  5
4B9
100
AcDbEntity
  8
0
100
AcDbCircle
 62
7
  6
CONTINUOUS
 10
365.3827601214
 20
212.0059953258
 40
111.8644451647
100
AcDbArc
 50
197.9715240423
 51
198.4717100234
  0
ARC
  5
4BA
100
AcDbEntity
  8
0
100
AcDbCircle
 62
7
  6
CONTINUOUS
 10
357.4065975668
 20
211.4717810083
 40
104.0570054429
100
AcDbArc
 50
195.22954606
 51
195.4723174765
  0
ARC
  5
4BB
100
AcDbEntity
  8
0
100
AcDbCircle
 62
7
  6
CONTINUOUS
 10
346.6950579814
 20
216.4023577476
 40
94.9050591891
100
AcDbArc
 50
203.2453483235
 51
203.6934617261
  0
ARC
  5
4BC
100
AcDbEntity
  8
0
100
AcDbCircle
 62
7
  6
CONTINUOUS
 10
334.1616077572
 20
212.3065872225
 40
81.918419552
100
AcDbArc
 50
200.0491274631
 51
200.4297848871
  0
ARC
  5
4BD
100
AcDbEntity
  8
0
100
AcDbCircle
 62
7
  6
CONTINUOUS
 10
598.4927057405
 20
296.8225244737
 40
359.2319615323
100
AcDbArc
 50
198.2384155398
 51
198.3527896951
  0
ARC
  5
4BE
100
AcDbEntity
  8
0
100
AcDbCircle
 62
7
  6
CONTINUOUS
 10
488.4149756876
 20
236.841383235
 40
237.0293414426
100
AcDbArc
 50
193.0371167188
 51
193.206107363
  0
ARC
  5
4BF
100
AcDbEntity
  8
0
100
AcDbCircle
 62
7
  6
CONTINUOUS
 10
405.3971492747
 20
237.7905405089
 40
157.0891147281
100
AcDbArc
 50
201.8652328641
 51
202.0660585307
  0
ARC
  5
4C0
100
AcDbEntity
  8
0
100
AcDbCircle
 62
7
  6
CONTINUOUS
 10
401.674054746
 20
236.4351724746
 40
152.6264451772
100
AcDbArc
 50
201.9893220846
 51
202.196205368
  0
ARC
  5
4C1
100
AcDbEntity
  8
RUNDUNGEN
100
AcDbCircle
 62
7
  6
CONTINUOUS
 10
121.4363361665
 20
30.2180035105
 40
21.0
100
AcDbArc
 50
45.8660256995
 51
71.2571991587
  0
ARC
  5
4C2
100
AcDbEntity
  8
RUNDUNGEN
100
AcDbCircle
 62
7
  6
CONTINUOUS
 10
91.0709625814
 20
57.8619713806
 40
4.0
100
AcDbArc
 50
185.3712154654
 51
269.9999999998
  0
ARC
  5
4C3
100
AcDbEntity
  8
BEZUGSACHSEN
100
AcDbCircle
 62
7
  6
CONTINUOUS
 10
91.0709625814
 20
68.8619713806
 40
4.0
100
AcDbArc
 50
90.0000000002
 51
174.6287845347
  0
ARC
  5
4C4
100
AcDbEntity
  8
0
100
AcDbCircle
 62
7
  6
CONTINUOUS
 10
132.6825530338
 20
63.3619713806
 40
22.75
100
AcDbArc
 50
324.0589790419
 51
335.3185872569
  0
ARC
  5
4C5
100
AcDbEntity
  8
0
100
AcDbCircle
 62
7
  6
CONTINUOUS
 10
132.6825530338
 20
63.3619713806
 40
22.75
100
AcDbArc
 50
206.1002658631
 51
290.1313695965
  0
ARC
  5
4C6
100
AcDbEntity
  8
0
100
AcDbCircle
 62
7
  6
CONTINUOUS
 10
132.6825530338
 20
63.3619713806
 40
22.75
100
AcDbArc
 50
24.678153065
 51
35.9410196487
  0
ARC
  5
4C7
100
AcDbEntity
  8
0
100
AcDbCircle
 62
7
  6
CONTINUOUS
 10
132.6825530338
 20
63.3619713806
 40
22.75
100
AcDbArc
 50
69.8686627018
 51
155.318652714
  0
ARC
  5
4C8
100
AcDbEntity
  8
RUNDUNGEN
100
AcDbCircle
 62
7
  6
CONTINUOUS
 10
132.6825530338
 20
63.3619713806
 40
22.5
100
AcDbArc
 50
24.9817062113
 51
36.2508275821
  0
ARC
  5
4C9
100
AcDbEntity
  8
RUNDUNGEN
100
AcDbCircle
 62
7
  6
CONTINUOUS
 10
132.6825530338
 20
63.3619713806
 40
22.5
100
AcDbArc
 50
70.4381254497
 51
155.0182937885
  0
ARC
  5
4CA
100
AcDbEntity
  8
RUNDUNGEN
100
AcDbCircle
 62
7
  6
CONTINUOUS
 10
132.6825530338
 20
63.3619713806
 40
22.5
100
AcDbArc
 50
206.4058549419
 51
289.5618745481
  0
ARC
  5
4CB
100
AcDbEntity
  8
RUNDUNGEN
100
AcDbCircle
 62
7
  6
CONTINUOUS
 10
132.6825530338
 20
63.3619713806
 40
22.5
100
AcDbArc
 50
323.7491724197
 51
335.0182937885
  0
ARC
  5
4CC
100
AcDbEntity
  8
RUNDUNGEN
100
AcDbCircle
 62
7
  6
CONTINUOUS
 10
132.6825530338
 20
63.3619713806
 40
14.0
100
AcDbArc
 50
222.7828254734
 51
251.2571991587
  0
ARC
  5
4CD
100
AcDbEntity
  8
RUNDUNGEN
100
AcDbCircle
 62
7
  6
CONTINUOUS
 10
132.6825530338
 20
63.3619713806
 40
14.0
100
AcDbArc
 50
108.7428008413
 51
137.2171745323
  0
ARC
  5
4CE
100
AcDbEntity
  8
RUNDUNGEN
100
AcDbCircle
 62
7
  6
CONTINUOUS
 10
121.4363361665
 20
96.5059392507
 40
21.0
100
AcDbArc
 50
288.7428008413
 51
314.1339743005
  0
ARC
  5
4CF
100
AcDbEntity
  8
RUNDUNGEN
100
AcDbCircle
 62
7
  6
CONTINUOUS
 10
150.6825530338
 20
60.3619713806
 40
21.0
100
AcDbArc
 50
225.8660256995
 51
279.0
  0
ARC
  5
4D0
100
AcDbEntity
  8
RUNDUNGEN
100
AcDbCircle
 62
7
  6
CONTINUOUS
 10
152.6825530338
 20
58.8619713806
 40
9.0
100
AcDbArc
 50
213.7490190106
 51
270.0
  0
ARC
  5
4D1
100
AcDbEntity
  8
RUNDUNGEN
100
AcDbCircle
 62
7
  6
CONTINUOUS
 10
174.2941499464
 20
57.8619713806
 40
4.0
100
AcDbArc
 50
270.0000000002
 51
354.6282260875
  0
ARC
  5
4D2
100
AcDbEntity
  8
RUNDUNGEN
100
AcDbCircle
 62
7
  6
CONTINUOUS
 10
181.1825530338
 20
45.4496268577
 40
1.5
100
AcDbArc
 50
279.0
 51
360.0
  0
ARC
  5
4D3
100
AcDbEntity
  8
RUNDUNGEN
100
AcDbCircle
 62
7
  6
CONTINUOUS
 10
181.1825530338
 20
54.3619713806
 40
1.5
100
AcDbArc
 50
0.0
 51
90.0
  0
ARC
  5
4D4
100
AcDbEntity
  8
RUNDUNGEN
100
AcDbCircle
 62
7
  6
CONTINUOUS
 10
174.6825530338
 20
51.3619713806
 40
1.5
100
AcDbArc
 50
270.0
 51
360.0
  0
ARC
  5
4D5
100
AcDbEntity
  8
RUNDUNGEN
100
AcDbCircle
 62
7
  6
CONTINUOUS
 10
150.6825530338
 20
66.3619713806
 40
21.0
100
AcDbArc
 50
81.0
 51
134.1339743005
  0
ARC
  5
4D6
100
AcDbEntity
  8
RUNDUNGEN
100
AcDbCircle
 62
7
  6
CONTINUOUS
 10
152.6825530338
 20
67.8619713806
 40
9.0
100
AcDbArc
 50
90.0
 51
146.2509809799
  0
ARC
  5
4D7
100
AcDbEntity
  8
BEZUGSACHSEN
100
AcDbCircle
 62
7
  6
CONTINUOUS
 10
174.2941499464
 20
68.8619713806
 40
4.0
100
AcDbArc
 50
5.3717739124
 51
89.9999999998
  0
ARC
  5
4D8
100
AcDbEntity
  8
RUNDUNGEN
100
AcDbCircle
 62
7
  6
CONTINUOUS
 10
181.1825530338
 20
81.2743159036
 40
1.5
100
AcDbArc
 50
0.0
 51
81.0
  0
ARC
  5
4D9
100
AcDbEntity
  8
RUNDUNGEN
100
AcDbCircle
 62
7
  6
CONTINUOUS
 10
181.1825530338
 20
72.3619713806
 40
1.5
100
AcDbArc
 50
270.0
 51
360.0
  0
ARC
  5
4DA
100
AcDbEntity
  8
RUNDUNGEN
100
AcDbCircle
 62
7
  6
CONTINUOUS
 10
174.6825530338
 20
75.3619713806
 40
1.5
100
AcDbArc
 50
0.0
 51
90.0
  0
SPLINE
  5
4DB
100
AcDbEntity
  8
0
100
AcDbSpline
 62
7
  6
CONTINUOUS
 70
0
 71
3
 72
9
 73
5
 74
0
 42
0.0000001
 43
0.0000001
 44
0.0000000001
 40
0.0
 40
0.0
 40
0.0
 40
0.0
 40
0.517278765
 40
1.0
 40
1.0
 40
1.0
 40
1.0
 10
123.8888894503
 20
195.9055304253
 30
0.0
 10
123.008873003
 20
196.0397765743
 30
0.0
 10
121.3140272102
 20
196.34382039
 30
0.0
 10
119.6398343002
 20
196.747935877
 30
0.0
 10
118.8396834147
 20
196.9712400032
 30
0.0
  0
SPLINE
  5
4DC
100
AcDbEntity
  8
0
100
AcDbSpline
 62
7
  6
CONTINUOUS
 70
0
 71
3
 72
9
 73
5
 74
0
 42
0.0000001
 43
0.0000001
 44
0.0000000001
 40
0.0
 40
0.0
 40
0.0
 40
0.0
 40
0.4827212324
 40
1.0
 40
1.0
 40
1.0
 40
1.0
 10
146.5254226528
 20
196.9712400032
 30
0.0
 10
145.7252716896
 20
196.7479358553
 30
0.0
 10
144.0510786088
 20
196.3438203181
 30
0.0
 10
142.3562326336
 20
196.0397765215
 30
0.0
 10
141.4762160931
 20
195.9055303486
 30
0.0
  0
SPLINE
  5
4DD
100
AcDbEntity
  8
0
100
AcDbSpline
 62
7
  6
CONTINUOUS
 70
0
 71
3
 72
10
 73
6
 74
0
 42
0.0000001
 43
0.0000001
 44
0.0000000001
 40
0.0
 40
0.0
 40
0.0
 40
0.0
 40
0.2440880833
 40
0.49048438
 40
1.0
 40
1.0
 40
1.0
 40
1.0
 10
149.8979433294
 20
198.6600386294
 30
0.0
 10
149.6612353542
 20
198.4615158583
 30
0.0
 10
149.1591643635
 20
198.0929881235
 30
0.0
 10
148.053468919
 20
197.4723204358
 30
0.0
 10
147.146569844
 20
197.1445882219
 30
0.0
 10
146.5254226528
 20
196.9712400032
 30
0.0
  0
SPLINE
  5
4DE
100
AcDbEntity
  8
0
100
AcDbSpline
 62
7
  6
CONTINUOUS
 70
0
 71
3
 72
10
 73
6
 74
0
 42
0.0000001
 43
0.0000001
 44
0.0000000001
 40
0.0
 40
0.0
 40
0.0
 40
0.0
 40
0.5095155958
 40
0.7559119029
 40
1.0
 40
1.0
 40
1.0
 40
1.0
 10
118.8396834147
 20
196.9712400032
 30
0.0
 10
118.2185378416
 20
197.1445877704
 30
0.0
 10
117.3116410595
 20
197.4723188987
 30
0.0
 10
116.205948031
 20
198.0929842286
 30
0.0
 10
115.7038778577
 20
198.4615104135
 30
0.0
 10
115.4671702058
 20
198.6600323677
 30
0.0
  0
SPLINE
  5
4DF
100
AcDbEntity
  8
0
100
AcDbSpline
 62
7
  6
CONTINUOUS
 70
0
 71
3
 72
9
 73
5
 74
0
 42
0.0000001
 43
0.0000001
 44
0.0000000001
 40
0.0
 40
0.0
 40
0.0
 40
0.0
 40
0.2484122221
 40
1.0
 40
1.0
 40
1.0
 40
1.0
 10
154.0571194449
 20
204.884620372
 30
0.0
 10
154.0002283094
 20
204.7282166604
 30
0.0
 10
153.7660529214
 20
204.1005264561
 30
0.0
 10
153.5068144973
 20
203.4818990723
 30
0.0
 10
153.293216074
 20
203.025904193
 30
0.0
  0
SPLINE
  5
4E0
100
AcDbEntity
  8
0
100
AcDbSpline
 62
7
  6
CONTINUOUS
 70
0
 71
3
 72
9
 73
5
 74
0
 42
0.0000001
 43
0.0000001
 44
0.0000000001
 40
0.0
 40
0.0
 40
0.0
 40
0.0
 40
0.5034493754
 40
1.0
 40
1.0
 40
1.0
 40
1.0
 10
153.293216074
 20
203.025904193
 30
0.0
 10
153.0807294556
 20
202.5722967263
 30
0.0
 10
152.6004350863
 20
201.697328807
 30
0.0
 10
152.0132173661
 20
200.8908084988
 30
0.0
 10
151.7001356963
 20
200.5086294218
 30
0.0
  0
SPLINE
  5
4E1
100
AcDbEntity
  8
0
100
AcDbSpline
 62
7
  6
CONTINUOUS
 70
0
 71
3
 72
9
 73
5
 74
0
 42
0.0000001
 43
0.0000001
 44
0.0000000001
 40
0.0
 40
0.0
 40
0.0
 40
0.0
 40
0.2464357088
 40
1.0
 40
1.0
 40
1.0
 40
1.0
 10
151.7001356963
 20
200.5086294218
 30
0.0
 10
151.5656357008
 20
200.344457511
 30
0.0
 10
151.0080109729
 20
199.688308056
 30
0.0
 10
150.395190104
 20
199.0770706565
 30
0.0
 10
149.8979433729
 20
198.6600386621
 30
0.0
  0
SPLINE
  5
4E2
100
AcDbEntity
  8
0
100
AcDbSpline
 62
7
  6
CONTINUOUS
 70
0
 71
3
 72
15
 73
11
 74
0
 42
0.0000001
 43
0.0000001
 44
0.0000000001
 40
0.0
 40
0.0
 40
0.0
 40
0.0
 40
0.1207392327
 40
0.2451038783
 40
0.3719261618
 40
0.500000044
 40
0.6280739326
 40
0.7548962087
 40
0.8792608025
 40
1.0
 40
1.0
 40
1.0
 40
1.0
 10
141.4765118952
 20
195.9055798611
 30
0.0
 10
140.772964903
 20
195.7982540471
 30
0.0
 10
139.3431781859
 20
195.5904483547
 30
0.0
 10
137.167620312
 20
195.3183188126
 30
0.0
 10
134.9402338657
 20
195.1191109244
 30
0.0
 10
132.6825524926
 20
195.0438277016
 30
0.0
 10
130.4248711588
 20
195.1191109345
 30
0.0
 10
128.1974850427
 20
195.3183189998
 30
0.0
 10
126.0219277059
 20
195.5904483405
 30
0.0
 10
124.5921414992
 20
195.7982539847
 30
0.0
 10
123.8885947106
 20
195.90557976
 30
0.0
  0
SPLINE
  5
4E3
100
AcDbEntity
  8
0
100
AcDbSpline
 62
7
  6
CONTINUOUS
 70
0
 71
3
 72
9
 73
5
 74
0
 42
0.0000001
 43
0.0000001
 44
0.0000000001
 40
0.0
 40
0.0
 40
0.0
 40
0.0
 40
0.2536001252
 40
1.0
 40
1.0
 40
1.0
 40
1.0
 10
115.4671702056
 20
198.6600323678
 30
0.0
 10
115.2998059913
 20
198.8003973735
 30
0.0
 10
114.6559860486
 20
199.3731338405
 30
0.0
 10
114.0723979247
 20
200.0113176019
 30
0.0
 10
113.6649696176
 20
200.5086282985
 30
0.0
  0
SPLINE
  5
4E4
100
AcDbEntity
  8
0
100
AcDbSpline
 62
7
  6
CONTINUOUS
 70
0
 71
3
 72
9
 73
5
 74
0
 42
0.0000001
 43
0.0000001
 44
0.0000000001
 40
0.0
 40
0.0
 40
0.0
 40
0.0
 40
0.4965500518
 40
1.0
 40
1.0
 40
1.0
 40
1.0
 10
113.6649696176
 20
200.5086282985
 30
0.0
 10
113.3518875596
 20
200.8908029787
 30
0.0
 10
112.7646842438
 20
201.6973272981
 30
0.0
 10
112.2843833556
 20
202.5722849416
 30
0.0
 10
112.0718969924
 20
203.0258902626
 30
0.0
  0
SPLINE
  5
4E5
100
AcDbEntity
  8
0
100
AcDbSpline
 62
7
  6
CONTINUOUS
 70
0
 71
3
 72
14
 73
10
 74
0
 42
0.0000001
 43
0.0000001
 44
0.0000000001
 40
0.0
 40
0.0
 40
0.0
 40
0.0
 40
0.2675593693
 40
0.5321849016
 40
0.6612743011
 40
0.7857384717
 40
0.9015364167
 40
0.9538022331
 40
1.0
 40
1.0
 40
1.0
 40
1.0
 10
112.0718969924
 20
203.0258902626
 30
0.0
 10
111.9020253964
 20
203.3885364713
 30
0.0
 10
111.5876539229
 20
204.1210169631
 30
0.0
 10
111.2444937331
 20
205.0496411194
 30
0.0
 10
110.9935863208
 20
205.783516702
 30
0.0
 10
110.8188992056
 20
206.3079864938
 30
0.0
 10
110.6787267034
 20
206.7228344748
 30
0.0
 10
110.5673548275
 20
207.0235684215
 30
0.0
 10
110.510945575
 20
207.159841131
 30
0.0
 10
110.4817013895
 20
207.222497361
 30
0.0
  0
SPLINE
  5
4E6
100
AcDbEntity
  8
BEZUGSACHSEN
100
AcDbSpline
 62
7
  6
CONTINUOUS
 70
0
 71
3
 72
32
 73
28
 74
0
 42
0.0000001
 43
0.0000001
 44
0.0000000001
 40
0.0
 40
0.0
 40
0.0
 40
0.0
 40
0.0223762522
 40
0.0871255682
 40
0.1889113693
 40
0.2515349295
 40
0.3207009386
 40
0.3954376561
 40
0.4748057118
 40
0.5579254788
 40
0.6006415374
 40
0.644004472
 40
0.6879289866
 40
0.7323351592
 40
0.7771473269
 40
0.8222896682
 40
0.867670341
 40
0.8904151573
 40
0.9131345746
 40
0.9244617997
 40
0.9357270235
 40
0.9468891115
 40
0.957875544
 40
0.9686358602
 40
0.9791996812
 40
0.9896339083
 40
1.0
 40
1.0
 40
1.0
 40
1.0
 10
166.1701932163
 20
186.9990308236
 30
0.0
 10
165.9558594544
 20
186.9338268277
 30
0.0
 10
165.1218857588
 20
186.6780538161
 30
0.0
 10
163.3189407197
 20
186.1061789323
 30
0.0
 10
161.1477496112
 20
185.3634573772
 30
0.0
 10
158.9533033726
 20
184.554829576
 30
0.0
 10
157.0273153525
 20
183.8019345178
 30
0.0
 10
154.9638259833
 20
182.9416914253
 30
0.0
 10
152.7951971847
 20
181.9724009534
 30
0.0
 10
150.9441772234
 20
181.0800228849
 30
0.0
 10
149.4373910576
 20
180.3056672666
 30
0.0
 10
148.2913055797
 20
179.6884876402
 30
0.0
 10
147.1443606104
 20
179.0378135548
 30
0.0
 10
146.0024947199
 20
178.3496334382
 30
0.0
 10
144.8736414546
 20
177.617265396
 30
0.0
 10
143.7710263842
 20
176.82902151
 30
0.0
 10
142.8932225609
 20
176.1078664314
 30
0.0
 10
142.2464117587
 20
175.4674747739
 30
0.0
 10
141.8805205762
 20
175.0300814798
 30
0.0
 10
141.6315142239
 20
174.6501428974
 30
0.0
 10
141.4768157093
 20
174.3487522666
 30
0.0
 10
141.3673354674
 20
174.0309841937
 30
0.0
 10
141.3222328233
 20
173.7018942837
 30
0.0
 10
141.3560808644
 20
173.3766570241
 30
0.0
 10
141.4684506187
 20
173.0758765974
 30
0.0
 10
141.640344804
 20
172.8108577361
 30
0.0
 10
141.7814930294
 20
172.6566529739
 30
0.0
 10
141.8561401896
 20
172.5845460766
 30
0.0
  0
SPLINE
  5
4E7
100
AcDbEntity
  8
BEZUGSACHSEN
100
AcDbSpline
 62
7
  6
CONTINUOUS
 70
0
 71
3
 72
32
 73
28
 74
0
 42
0.0000001
 43
0.0000001
 44
0.0000000001
 40
0.0
 40
0.0
 40
0.0
 40
0.0
 40
0.0223784195
 40
0.0871336918
 40
0.188927953
 40
0.2515553935
 40
0.3207249191
 40
0.3954654419
 40
0.4748375055
 40
0.5579618908
 40
0.600680288
 40
0.644045668
 40
0.6879726251
 40
0.7323812187
 40
0.7771957295
 40
0.8223401742
 40
0.8677219171
 40
0.8904662529
 40
0.9131836089
 40
0.9245081581
 40
0.935769831
 40
0.9469202028
 40
0.9578948052
 40
0.968647609
 40
0.9792026678
 40
0.9896339248
 40
1.0
 40
1.0
 40
1.0
 40
1.0
 10
99.1949128512
 20
186.9990308236
 30
0.0
 10
99.4092676567
 20
186.9338204108
 30
0.0
 10
100.2433202419
 20
186.6780232261
 30
0.0
 10
102.0464258291
 20
186.1060968466
 30
0.0
 10
104.2177899879
 20
185.3633051364
 30
0.0
 10
106.4123825471
 20
184.554606306
 30
0.0
 10
108.3384756321
 20
183.801664085
 30
0.0
 10
110.4020619477
 20
182.9413509128
 30
0.0
 10
112.5708020396
 20
181.9719963551
 30
0.0
 10
114.4219067086
 20
181.0795344859
 30
0.0
 10
115.9287676975
 20
180.3051135523
 30
0.0
 10
117.0749065156
 20
179.6878766301
 30
0.0
 10
118.2219034738
 20
179.0371420673
 30
0.0
 10
119.3638095607
 20
178.3488852583
 30
0.0
 10
120.4926920855
 20
177.616431717
 30
0.0
 10
121.595307218
 20
176.8280909893
 30
0.0
 10
122.4730650889
 20
176.1068256616
 30
0.0
 10
123.1197325373
 20
175.4663120621
 30
0.0
 10
123.4855057223
 20
175.0288758007
 30
0.0
 10
123.7342862931
 20
174.6488950161
 30
0.0
 10
123.8888266189
 20
174.347606867
 30
0.0
 10
123.9978303538
 20
174.0299881505
 30
0.0
 10
124.0431473768
 20
173.7012423902
 30
0.0
 10
124.008966383
 20
173.3762939925
 30
0.0
 10
123.8965426044
 20
173.0757745828
 30
0.0
 10
123.7247489123
 20
172.8108309359
 30
0.0
 10
123.5836130201
 20
172.6566529566
 30
0.0
 10
123.5089658779
 20
172.5845460766
 30
0.0
  0
LINE
  5
4E8
100
AcDbEntity
  8
0
100
AcDbLine
 62
7
  6
CONTINUOUS
 10
257.8305615601
 20
184.393056857
 11
258.2450669306
 21
183.0313544148
  0
LINE
  5
4E9
100
AcDbEntity
  8
0
100
AcDbLine
 62
7
  6
CONTINUOUS
 10
257.9631588927
 20
183.0313544148
 11
258.1670309855
 21
182.3505034321
  0
SPLINE
  5
4EA
100
AcDbEntity
  8
0
100
AcDbSpline
 62
7
  6
CONTINUOUS
 70
0
 71
3
 72
8
 73
4
 74
0
 42
0.0000001
 43
0.0000001
 44
0.0000000001
 40
0.0
 40
0.0
 40
0.0
 40
0.0
 40
1.0
 40
1.0
 40
1.0
 40
1.0
 10
258.4526478548
 20
182.3505034321
 30
0.0
 10
258.7988877531
 20
181.2154752097
 30
0.0
 10
259.1459910102
 20
180.0807098862
 30
0.0
 10
259.4940825606
 20
178.9462481612
 30
0.0
  0
LINE
  5
4EB
100
AcDbEntity
  8
0
100
AcDbLine
 62
7
  6
CONTINUOUS
 10
256.8289028488
 20
184.7165751192
 11
256.8321922408
 21
184.7048695872
  0
LINE
  5
4EC
100
AcDbEntity
  8
0
100
AcDbLine
 62
7
  6
CONTINUOUS
 10
256.8321922408
 20
184.7048695872
 11
256.856635425
 21
184.6182586251
  0
LINE
  5
4ED
100
AcDbEntity
  8
0
100
AcDbLine
 62
7
  6
CONTINUOUS
 10
256.856635425
 20
184.6182586251
 11
256.8965640986
 21
184.4781638359
  0
LINE
  5
4EE
100
AcDbEntity
  8
0
100
AcDbLine
 62
7
  6
CONTINUOUS
 10
257.3958027577
 20
183.7122058743
 11
257.4952705419
 21
183.3717799061
  0
SPLINE
  5
4EF
100
AcDbEntity
  8
0
100
AcDbSpline
 62
7
  6
CONTINUOUS
 70
0
 71
3
 72
9
 73
5
 74
0
 42
0.0000001
 43
0.0000001
 44
0.0000000001
 40
0.0
 40
0.0
 40
0.0
 40
0.0
 40
0.2488192516
 40
1.0
 40
1.0
 40
1.0
 40
1.0
 10
257.6539802777
 20
182.6909289235
 30
0.0
 10
257.7073505221
 20
182.3658218693
 30
0.0
 10
257.9397724452
 20
181.0622572623
 30
0.0
 10
258.2461275055
 20
179.7716466082
 30
0.0
 10
258.5202904808
 20
178.8155490607
 30
0.0
  0
LINE
  5
4F0
100
AcDbEntity
  8
0
100
AcDbLine
 62
7
  6
CONTINUOUS
 10
258.9761834697
 20
177.4908604241
 11
258.9458431154
 21
177.5845220333
  0
LINE
  5
4F1
100
AcDbEntity
  8
0
100
AcDbLine
 62
7
  6
CONTINUOUS
 10
315.2585049372
 20
183.7122058743
 11
315.2419171112
 21
183.6554306
  0
LINE
  5
4F2
100
AcDbEntity
  8
0
100
AcDbLine
 62
7
  6
CONTINUOUS
 10
315.2419171112
 20
183.6554306
 11
315.2087532953
 21
183.541925187
  0
LINE
  5
4F3
100
AcDbEntity
  8
0
100
AcDbLine
 62
7
  6
CONTINUOUS
 10
315.2087532953
 20
183.541925187
 11
315.159037153
 21
183.3717799061
  0
LINE
  5
4F4
100
AcDbEntity
  8
0
100
AcDbLine
 62
7
  6
CONTINUOUS
 10
315.159037153
 20
183.3717799061
 11
315.1557033078
 21
183.3573845473
  0
LINE
  5
4F5
100
AcDbEntity
  8
0
100
AcDbLine
 62
7
  6
CONTINUOUS
 10
315.1557033078
 20
183.3573845473
 11
315.1326407049
 21
183.2579114604
  0
LINE
  5
4F6
100
AcDbEntity
  8
0
100
AcDbLine
 62
7
  6
CONTINUOUS
 10
315.0003274173
 20
182.6909289235
 11
314.9966770248
 21
182.6687358014
  0
SPLINE
  5
4F7
100
AcDbEntity
  8
0
100
AcDbSpline
 62
7
  6
CONTINUOUS
 70
0
 71
3
 72
9
 73
5
 74
0
 42
0.0000001
 43
0.0000001
 44
0.0000000001
 40
0.0
 40
0.0
 40
0.0
 40
0.0
 40
0.2488232315
 40
1.0
 40
1.0
 40
1.0
 40
1.0
 10
314.9966770248
 20
182.6687358014
 30
0.0
 10
314.9434058084
 20
182.3454962451
 30
0.0
 10
314.7115779925
 20
181.049436031
 30
0.0
 10
314.406627554
 20
179.7662320514
 30
0.0
 10
314.1340172142
 20
178.8155490607
 30
0.0
  0
LINE
  5
4F8
100
AcDbEntity
  8
0
100
AcDbLine
 62
7
  6
CONTINUOUS
 10
313.9753551083
 20
178.4203217629
 11
313.9801736514
 21
178.4356099242
  0
LINE
  5
4F9
100
AcDbEntity
  8
0
100
AcDbLine
 62
7
  6
CONTINUOUS
 10
313.9676917742
 20
179.4568865174
 11
314.1676269855
 21
180.1377375001
  0
LINE
  5
4FA
100
AcDbEntity
  8
0
100
AcDbLine
 62
7
  6
CONTINUOUS
 10
314.1676269855
 20
180.1377375001
 11
314.3437447872
 21
180.8185887211
  0
SPLINE
  5
4FB
100
AcDbEntity
  8
0
100
AcDbSpline
 62
7
  6
CONTINUOUS
 70
0
 71
3
 72
8
 73
4
 74
0
 42
0.0000001
 43
0.0000001
 44
0.0000000001
 40
0.0
 40
0.0
 40
0.0
 40
0.0
 40
1.0
 40
1.0
 40
1.0
 40
1.0
 10
314.8700803546
 20
182.6909289235
 30
0.0
 10
314.9448131322
 20
182.9178053147
 30
0.0
 10
315.0193187137
 20
183.1447566621
 30
0.0
 10
315.0936041876
 20
183.3717799061
 30
0.0
  0
LINE
  5
4FC
100
AcDbEntity
  8
0
100
AcDbLine
 62
7
  6
CONTINUOUS
 10
315.0936041876
 20
183.3717799061
 11
315.1934975269
 21
183.7122058743
  0
LINE
  5
4FD
100
AcDbEntity
  8
0
100
AcDbLine
 62
7
  6
CONTINUOUS
 10
315.1934975269
 20
183.7122058743
 11
315.37030671
 21
184.393056857
  0
SPLINE
  5
4FE
100
AcDbEntity
  8
0
100
AcDbSpline
 62
7
  6
CONTINUOUS
 70
0
 71
3
 72
9
 73
5
 74
0
 42
0.0000001
 43
0.0000001
 44
0.0000000001
 40
0.0
 40
0.0
 40
0.0
 40
0.0
 40
0.2403658358
 40
1.0
 40
1.0
 40
1.0
 40
1.0
 10
315.4630134145
 20
185.414333331
 30
0.0
 10
315.4501417786
 20
185.4287333132
 30
0.0
 10
315.3956811381
 20
185.4878261744
 30
0.0
 10
315.3377876589
 20
185.5437188161
 30
0.0
 10
315.2924123974
 20
185.5845460766
 30
0.0
  0
LINE
  5
4FF
100
AcDbEntity
  8
0
100
AcDbLine
 62
7
  6
CONTINUOUS
 10
312.749513138
 20
179.1164610261
 11
312.8058647514
 21
179.4568865174
  0
SPLINE
  5
500
100
AcDbEntity
  8
BEZUGSACHSEN
100
AcDbSpline
 62
7
  6
CONTINUOUS
 70
0
 71
3
 72
23
 73
19
 74
0
 42
0.0000001
 43
0.0000001
 44
0.0000000001
 40
0.0
 40
0.0
 40
0.0
 40
0.0
 40
0.163642916
 40
0.2427223087
 40
0.3186971624
 40
0.3908199239
 40
0.4585465131
 40
0.5215737827
 40
0.579868402
 40
0.6336901251
 40
0.6836080787
 40
0.7305133865
 40
0.7756443389
 40
0.8207068146
 40
0.8684232005
 40
0.8949939543
 40
0.925551401
 40
1.0
 40
1.0
 40
1.0
 40
1.0
 10
286.3271538475
 20
186.9990308236
 30
0.0
 10
288.1329295287
 20
186.9990308236
 30
0.0
 10
290.8129115982
 20
186.904713421
 30
0.0
 10
294.3152529651
 20
186.5788094298
 30
0.0
 10
296.799987083
 20
186.23955215
 30
0.0
 10
299.1420185658
 20
185.8011665075
 30
0.0
 10
301.3161858101
 20
185.2611314906
 30
0.0
 10
303.302472819
 20
184.6168035579
 30
0.0
 10
305.0861417649
 20
183.8653880394
 30
0.0
 10
306.6572084752
 20
183.0038373082
 30
0.0
 10
308.0094145986
 20
182.0284307718
 30
0.0
 10
309.1387921067
 20
180.9339556594
 30
0.0
 10
310.0419364764
 20
179.7107567134
 30
0.0
 10
310.7132317936
 20
178.3351612174
 30
0.0
 10
311.0514084908
 20
177.0526240074
 30
0.0
 10
311.1670111537
 20
175.8981195755
 30
0.0
 10
311.1354025899
 20
174.4493441568
 30
0.0
 10
310.8179696786
 20
173.2709082697
 30
0.0
 10
310.3665081355
 20
172.5845460766
 30
0.0
  0
LINE
  5
501
100
AcDbEntity
  8
0
100
AcDbLine
 62
7
  6
CONTINUOUS
 10
313.1777781651
 20
177.7541015088
 11
313.1062180216
 21
177.5427188392
  0
LINE
  5
502
100
AcDbEntity
  8
0
100
AcDbLine
 62
7
  6
CONTINUOUS
 10
313.1062180216
 20
177.5427188392
 11
313.0884024442
 21
177.4903166895
  0
LINE
  5
503
100
AcDbEntity
  8
0
100
AcDbLine
 62
7
  6
CONTINUOUS
 10
260.6084528679
 20
177.5845460766
 11
260.3896126106
 21
178.2653971189
  0
LINE
  5
504
100
AcDbEntity
  8
0
100
AcDbLine
 62
7
  6
CONTINUOUS
 10
259.3433411158
 20
177.5845460766
 11
259.0913374292
 21
178.4356099242
  0
LINE
  5
505
100
AcDbEntity
  8
0
100
AcDbLine
 62
7
  6
CONTINUOUS
 10
257.8086972734
 20
182.6909289235
 11
257.6331626315
 21
183.3717799061
  0
LINE
  5
506
100
AcDbEntity
  8
0
100
AcDbLine
 62
7
  6
CONTINUOUS
 10
257.6331626315
 20
183.3717799061
 11
257.532798988
 21
183.7122058743
  0
SPLINE
  5
507
100
AcDbEntity
  8
0
100
AcDbSpline
 62
7
  6
CONTINUOUS
 70
0
 71
3
 72
9
 73
5
 74
0
 42
0.0000001
 43
0.0000001
 44
0.0000000001
 40
0.0
 40
0.0
 40
0.0
 40
0.0
 40
0.2570578586
 40
1.0
 40
1.0
 40
1.0
 40
1.0
 10
256.8424713823
 20
185.414333331
 30
0.0
 10
256.829674841
 20
185.4283580837
 30
0.0
 10
256.7804862379
 20
185.4834520378
 30
0.0
 10
256.7337309016
 20
185.540735259
 30
0.0
 10
256.7006937948
 20
185.5845460766
 30
0.0
  0
LINE
  5
508
100
AcDbEntity
  8
0
100
AcDbLine
 62
7
  6
CONTINUOUS
 10
257.0039532933
 20
184.1373813505
 11
256.9807242329
 21
184.2228441113
  0
LINE
  5
509
100
AcDbEntity
  8
0
100
AcDbLine
 62
7
  6
CONTINUOUS
 10
256.9063769532
 20
184.5282125057
 11
256.8981672078
 21
184.5632696026
  0
SPLINE
  5
50A
100
AcDbEntity
  8
BEZUGSACHSEN
100
AcDbSpline
 62
7
  6
CONTINUOUS
 70
0
 71
3
 72
23
 73
19
 74
0
 42
0.0000001
 43
0.0000001
 44
0.0000000001
 40
0.0
 40
0.0
 40
0.0
 40
0.0
 40
0.163642916
 40
0.2427223087
 40
0.3186971624
 40
0.3908199239
 40
0.4585465131
 40
0.5215737827
 40
0.579868402
 40
0.6336901251
 40
0.6836080787
 40
0.7305133865
 40
0.7756443389
 40
0.8207068146
 40
0.8684232005
 40
0.8949939543
 40
0.925551401
 40
1.0
 40
1.0
 40
1.0
 40
1.0
 10
286.3271538475
 20
186.9990308236
 30
0.0
 10
284.5213781663
 20
186.9990308236
 30
0.0
 10
281.8413960967
 20
186.904713421
 30
0.0
 10
278.3390547299
 20
186.5788094298
 30
0.0
 10
275.854320612
 20
186.23955215
 30
0.0
 10
273.5122891291
 20
185.8011665075
 30
0.0
 10
271.3381218849
 20
185.2611314906
 30
0.0
 10
269.351834876
 20
184.6168035579
 30
0.0
 10
267.5681659301
 20
183.8653880394
 30
0.0
 10
265.9970992197
 20
183.0038373082
 30
0.0
 10
264.6448930964
 20
182.0284307718
 30
0.0
 10
263.5155155882
 20
180.9339556594
 30
0.0
 10
262.6123712186
 20
179.7107567134
 30
0.0
 10
261.9410759013
 20
178.3351612174
 30
0.0
 10
261.6028992041
 20
177.0526240074
 30
0.0
 10
261.4872965413
 20
175.8981195755
 30
0.0
 10
261.518905105
 20
174.4493441568
 30
0.0
 10
261.8363380163
 20
173.2709082697
 30
0.0
 10
262.2877995594
 20
172.5845460766
 30
0.0
  0
SPLINE
  5
50B
100
AcDbEntity
  8
0
100
AcDbSpline
 62
7
  6
CONTINUOUS
 70
0
 71
3
 72
9
 73
5
 74
0
 42
0.0000001
 43
0.0000001
 44
0.0000000001
 40
0.0
 40
0.0
 40
0.0
 40
0.0
 40
0.2413380887
 40
1.0
 40
1.0
 40
1.0
 40
1.0
 10
314.6884411544
 20
185.5845460766
 30
0.0
 10
314.6623952532
 20
185.5701263699
 30
0.0
 10
314.5540365194
 20
185.5111659931
 30
0.0
 10
314.4440241263
 20
185.455262079
 30
0.0
 10
314.3598610655
 20
185.414333331
 30
0.0
  0
LINE
  5
50C
100
AcDbEntity
  8
0
100
AcDbLine
 62
7
  6
CONTINUOUS
 10
311.9828226816
 20
179.4568865174
 11
311.8752969574
 21
178.9462481612
  0
LINE
  5
50D
100
AcDbEntity
  8
0
100
AcDbLine
 62
7
  6
CONTINUOUS
 10
259.8718610206
 20
177.5845460766
 11
259.7037962596
 21
178.1514591216
  0
LINE
  5
50E
100
AcDbEntity
  8
0
100
AcDbLine
 62
7
  6
CONTINUOUS
 10
259.7037962596
 20
178.1514591216
 11
259.661708057
 21
178.2934766704
  0
LINE
  5
50F
100
AcDbEntity
  8
0
100
AcDbLine
 62
7
  6
CONTINUOUS
 10
259.661708057
 20
178.2934766704
 11
259.6195910164
 21
178.4356099242
  0
LINE
  5
510
100
AcDbEntity
  8
0
100
AcDbLine
 62
7
  6
CONTINUOUS
 10
314.6489548745
 20
184.5205760696
 11
314.6476254563
 21
184.4780002721
  0
LINE
  5
511
100
AcDbEntity
  8
0
100
AcDbLine
 62
7
  6
CONTINUOUS
 10
314.6476254563
 20
184.4780002721
 11
314.6446807679
 21
184.3928395854
  0
LINE
  5
512
100
AcDbEntity
  8
0
100
AcDbLine
 62
7
  6
CONTINUOUS
 10
259.1619026606
 20
178.4356099242
 11
259.157705572
 21
178.4519846562
  0
SPLINE
  5
513
100
AcDbEntity
  8
0
100
AcDbSpline
 62
7
  6
CONTINUOUS
 70
0
 71
3
 72
9
 73
5
 74
0
 42
0.0000001
 43
0.0000001
 44
0.0000000001
 40
0.0
 40
0.0
 40
0.0
 40
0.0
 40
0.2512788624
 40
1.0
 40
1.0
 40
1.0
 40
1.0
 10
259.157705572
 20
178.4519846562
 30
0.0
 10
259.0787906509
 20
178.7602185475
 30
0.0
 10
258.7837342995
 20
179.9916908216
 30
0.0
 10
258.5626529325
 20
181.2406787087
 30
0.0
 10
258.4364506165
 20
182.1802906865
 30
0.0
  0
LINE
  5
514
100
AcDbEntity
  8
0
100
AcDbLine
 62
7
  6
CONTINUOUS
 10
258.4364506165
 20
182.1802906865
 11
258.4024920373
 21
182.3505012414
  0
SPLINE
  5
515
100
AcDbEntity
  8
0
100
AcDbSpline
 62
7
  6
CONTINUOUS
 70
0
 71
3
 72
9
 73
5
 74
0
 42
0.0000001
 43
0.0000001
 44
0.0000000001
 40
0.0
 40
0.0
 40
0.0
 40
0.0
 40
0.2571828934
 40
1.0
 40
1.0
 40
1.0
 40
1.0
 10
257.3659214279
 20
185.414333331
 30
0.0
 10
257.3529901559
 20
185.4283551232
 30
0.0
 10
257.3033053999
 20
185.4834199261
 30
0.0
 10
257.2560690176
 20
185.5407114332
 30
0.0
 10
257.2226976671
 20
185.5845460766
 30
0.0
  0
LINE
  5
516
100
AcDbEntity
  8
0
100
AcDbLine
 62
7
  6
CONTINUOUS
 10
314.6376616389
 20
184.2228441113
 11
314.6311910406
 21
184.1879583422
  0
LINE
  5
517
100
AcDbEntity
  8
0
100
AcDbLine
 62
7
  6
CONTINUOUS
 10
314.5419382344
 20
183.7122058743
 11
314.4411426911
 21
183.3717799061
  0
LINE
  5
518
100
AcDbEntity
  8
0
100
AcDbLine
 62
7
  6
CONTINUOUS
 10
315.7332495307
 20
184.393056857
 11
315.7005394407
 21
184.2792295367
  0
LINE
  5
519
100
AcDbEntity
  8
0
100
AcDbLine
 62
7
  6
CONTINUOUS
 10
315.7005394407
 20
184.2792295367
 11
315.5372872057
 21
183.7122058743
  0
LINE
  5
51A
100
AcDbEntity
  8
0
100
AcDbLine
 62
7
  6
CONTINUOUS
 10
313.5615832373
 20
182.0100779408
 11
313.3532532809
 21
181.3292269581
  0
LINE
  5
51B
100
AcDbEntity
  8
0
100
AcDbLine
 62
7
  6
CONTINUOUS
 10
314.0225288234
 20
178.4356099242
 11
314.0193097553
 21
178.424385752
  0
LINE
  5
51C
100
AcDbEntity
  8
0
100
AcDbLine
 62
7
  6
CONTINUOUS
 10
314.0193097553
 20
178.424385752
 11
314.0152735264
 21
178.4103123259
  0
LINE
  5
51D
100
AcDbEntity
  8
0
100
AcDbLine
 62
7
  6
CONTINUOUS
 10
314.0152735264
 20
178.4103123259
 11
313.7784450679
 21
177.5845460766
  0
LINE
  5
51E
100
AcDbEntity
  8
0
100
AcDbLine
 62
7
  6
CONTINUOUS
 10
313.3005779032
 20
176.5883802879
 11
313.291803157
 21
176.5632694834
  0
SPLINE
  5
51F
100
AcDbEntity
  8
0
100
AcDbSpline
 62
7
  6
CONTINUOUS
 70
0
 71
3
 72
8
 73
4
 74
0
 42
0.0000001
 43
0.0000001
 44
0.0000000001
 40
0.0
 40
0.0
 40
0.0
 40
0.0
 40
1.0
 40
1.0
 40
1.0
 40
1.0
 10
260.1506260728
 20
179.2866737717
 30
0.0
 10
259.8322719461
 20
180.3076436675
 30
0.0
 10
259.5149433826
 20
181.3289337858
 30
0.0
 10
259.1985190856
 20
182.3505034321
 30
0.0
  0
LINE
  5
520
100
AcDbEntity
  8
0
100
AcDbLine
 62
7
  6
CONTINUOUS
 10
259.7400625528
 20
182.3505034321
 11
259.5221034188
 21
183.0313544148
  0
SPLINE
  5
521
100
AcDbEntity
  8
0
100
AcDbSpline
 62
7
  6
CONTINUOUS
 70
0
 71
3
 72
8
 73
4
 74
0
 42
0.0000001
 43
0.0000001
 44
0.0000000001
 40
0.0
 40
0.0
 40
0.0
 40
0.0
 40
1.0
 40
1.0
 40
1.0
 40
1.0
 10
258.9877757047
 20
183.0313544148
 30
0.0
 10
258.8473925732
 20
183.4852024398
 30
0.0
 10
258.7071832695
 20
183.9391042655
 30
0.0
 10
258.5671386406
 20
184.393056857
 30
0.0
  0
LINE
  5
522
100
AcDbEntity
  8
0
100
AcDbLine
 62
7
  6
CONTINUOUS
 10
261.1611631695
 20
177.5845460766
 11
260.9414774445
 21
178.2653971189
  0
SPLINE
  5
523
100
AcDbEntity
  8
0
100
AcDbSpline
 62
7
  6
CONTINUOUS
 70
0
 71
3
 72
9
 73
5
 74
0
 42
0.0000001
 43
0.0000001
 44
0.0000000001
 40
0.0
 40
0.0
 40
0.0
 40
0.0
 40
0.2578500316
 40
1.0
 40
1.0
 40
1.0
 40
1.0
 10
313.5084679921
 20
181.3292269581
 30
0.0
 10
313.5225106988
 20
181.3152211373
 30
0.0
 10
313.576378392
 20
181.2603149625
 30
0.0
 10
313.6278027234
 20
181.2029891539
 30
0.0
 10
313.6642014953
 20
181.1590142125
 30
0.0
  0
SPLINE
  5
524
100
AcDbEntity
  8
0
100
AcDbSpline
 62
7
  6
CONTINUOUS
 70
0
 71
3
 72
9
 73
5
 74
0
 42
0.0000001
 43
0.0000001
 44
0.0000000001
 40
0.0
 40
0.0
 40
0.0
 40
0.0
 40
0.2414206216
 40
1.0
 40
1.0
 40
1.0
 40
1.0
 10
315.2221037829
 20
185.5845460766
 30
0.0
 10
315.1964223669
 20
185.5701301373
 30
0.0
 10
315.0896097612
 20
185.5111958912
 30
0.0
 10
314.9811405961
 20
185.4552808936
 30
0.0
 10
314.8981540294
 20
185.414333331
 30
0.0
  0
SPLINE
  5
525
100
AcDbEntity
  8
0
100
AcDbSpline
 62
7
  6
CONTINUOUS
 70
0
 71
3
 72
8
 73
4
 74
0
 42
0.0000001
 43
0.0000001
 44
0.0000000001
 40
0.0
 40
0.0
 40
0.0
 40
0.0
 40
1.0
 40
1.0
 40
1.0
 40
1.0
 10
259.6086464946
 20
179.2866737717
 30
0.0
 10
259.2911272213
 20
180.3076607475
 30
0.0
 10
258.9745780331
 20
181.3289498047
 30
0.0
 10
258.6588866016
 20
182.3505034321
 30
0.0
  0
LINE
  5
526
100
AcDbEntity
  8
0
100
AcDbLine
 62
7
  6
CONTINUOUS
 10
315.0696037035
 20
183.7122058743
 11
314.9689013844
 21
183.3717799061
  0
LINE
  5
527
100
AcDbEntity
  8
0
100
AcDbLine
 62
7
  6
CONTINUOUS
 10
314.0977844227
 20
182.0100779408
 11
313.889860946
 21
181.3292269581
  0
LINE
  5
528
100
AcDbEntity
  8
0
100
AcDbLine
 62
7
  6
CONTINUOUS
 10
259.1907792887
 20
182.3505034321
 11
258.9735401819
 21
183.0313544148
  0
SPLINE
  5
529
100
AcDbEntity
  8
0
100
AcDbSpline
 62
7
  6
CONTINUOUS
 70
0
 71
3
 72
9
 73
5
 74
0
 42
0.0000001
 43
0.0000001
 44
0.0000000001
 40
0.0
 40
0.0
 40
0.0
 40
0.0
 40
0.2576985181
 40
1.0
 40
1.0
 40
1.0
 40
1.0
 10
314.0423840183
 20
181.3292269581
 30
0.0
 10
314.0561224702
 20
181.3152172765
 30
0.0
 10
314.1088391715
 20
181.2602747661
 30
0.0
 10
314.1591031352
 20
181.2029572221
 30
0.0
 10
314.1946503899
 20
181.1590142125
 30
0.0
  0
LINE
  5
52A
100
AcDbEntity
  8
0
100
AcDbLine
 62
7
  6
CONTINUOUS
 10
314.0390426919
 20
180.1377375001
 11
313.8373746182
 21
179.4568865174
  0
SPLINE
  5
52B
100
AcDbEntity
  8
0
100
AcDbSpline
 62
7
  6
CONTINUOUS
 70
0
 71
3
 72
8
 73
4
 74
0
 42
0.0000001
 43
0.0000001
 44
0.0000000001
 40
0.0
 40
0.0
 40
0.0
 40
0.0
 40
1.0
 40
1.0
 40
1.0
 40
1.0
 10
258.4486208321
 20
183.0313544148
 30
0.0
 10
258.3085502605
 20
183.4852052207
 30
0.0
 10
258.1686446664
 20
183.9391069725
 30
0.0
 10
258.0288955291
 20
184.393056857
 30
0.0
  0
LINE
  5
52C
100
AcDbEntity
  8
0
100
AcDbLine
 62
7
  6
CONTINUOUS
 10
313.5108151907
 20
180.1377375001
 11
313.3089388394
 21
179.4568865174
  0
LINE
  5
52D
100
AcDbEntity
  8
0
100
AcDbLine
 62
7
  6
CONTINUOUS
 10
312.5354428399
 20
179.4568865174
 11
312.4274380912
 21
178.9462481612
  0
ENDSEC
  0
SECTION
  2
OBJECTS
  0
DICTIONARY
  5
C
100
AcDbDictionary
280
0
281
1
  3
ACAD_GROUP
350
D
  3
ACAD_MLINESTYLE
350
17
  3
ACAD_LAYOUT
350
1A
  3
ACAD_PLOTSETTINGS
350
19
  3
ACAD_PLOTSTYLENAME
350
E
  0
DICTIONARY
  5
D
102
{ACAD_REACTORS
330
C
102
}
100
AcDbDictionary
280
0
281
1
  0
ACDBDICTIONARYWDFLT
  5
E
102
{ACAD_REACTORS
330
C
102
}
100
AcDbDictionary
281
1
  3
Normal
350
F
100
AcDbDictionaryWithDefault
340
F
  0
DICTIONARY
  5
17
102
{ACAD_REACTORS
330
C
102
}
100
AcDbDictionary
280
0
281
1
  3
Standard
350
18
  0
DICTIONARY
  5
19
102
{ACAD_REACTORS
330
C
102
}
100
AcDbDictionary
281
1
  0
DICTIONARY
  5
1A
102
{ACAD_REACTORS
330
C
102
}
100
AcDbDictionary
281
1
  3
Model
350
52E
  3
Layout1
350
52F
  0
ACDBPLACEHOLDER
  5
F
102
{ACAD_REACTORS
330
E
102
}
  0
MLINESTYLE
  5
18
102
{ACAD_REACTORS
330
17
102
}
100
AcDbMlineStyle
  2
STANDARD
 70
0
  3

 62
256
 51
90.0
 52
90.0
 71
2
 49
0.5
 62
256
  6
BYLAYER
 49
-0.5
 62
256
  6
BYLAYER
  0
LAYOUT
  5
52E
102
{ACAD_REACTORS
330
1A
102
}
100
AcDbPlotSettings
  1

  2
none_device
  4
ISO_A3_(420.00_x_297.00_MM)
  6

 40
0.0
 41
0.0
 42
0.0
 43
0.0
 44
420.0
 45
297.0
 46
0.0
 47
0.0
 48
0.0
 49
0.0
140
0.0
141
0.0
142
1.0
143
1.0
 70
1024
 72
1
 73
0
 74
0
  7

 75
0
147
1.0
148
0.0
149
0.0
100
AcDbLayout
  1
Model
 70
0
 71
0
 10
0.0
 20
0.0
 11
420.0
 21
297.0
 12
0.0
 22
0.0
 32
0.0
 14
0.0
 24
0.0
 34
0.0
 15
0.0
 25
0.0
 35
0.0
146
0.0
 13
0.0
 23
0.0
 33
0.0
 16
1.0
 26
0.0
 36
0.0
 17
0.0
 27
1.0
 37
0.0
 76
0
330
20E
345
0
346
0
  0
LAYOUT
  5
52F
102
{ACAD_REACTORS
330
1A
102
}
100
AcDbPlotSettings
  1

  2
none_device
  4
ISO_A3_(420.00_x_297.00_MM)
  6

 40
0.0
 41
0.0
 42
0.0
 43
0.0
 44
420.0
 45
297.0
 46
0.0
 47
0.0
 48
0.0
 49
0.0
140
0.0
141
0.0
142
1.0
143
1.0
 70
0
 72
1
 73
0
 74
0
  7

 75
0
147
1.0
148
0.0
149
0.0
100
AcDbLayout
  1
Layout1
 70
0
 71
1
 10
0.0
 20
0.0
 11
420.0
 21
297.0
 12
0.0
 22
0.0
 32
0.0
 14
0.0
 24
0.0
 34
0.0
 15
0.0
 25
0.0
 35
0.0
146
0.0
 13
0.0
 23
0.0
 33
0.0
 16
1.0
 26
0.0
 36
0.0
 17
0.0
 27
1.0
 37
0.0
 76
0
330
20F
345
0
346
0
  0
ENDSEC
  0
EOF
