999
DXF file: 001-m35308-p-6.dxf
999
Pro/ENGINEER 2011490 by Parametric Technology Corporation
  0
SECTION
  2
HEADER
  9
$ACADVER
  1
AC1015
  9
$DWGCODEPAGE
  3
ANSI_1252
  9
$EXTMAX
 10
420.0
 20
297.0
 30
0.0
  9
$EXTMIN
 10
0.0
 20
0.0
 30
0.0
  9
$LIMMIN
 10
0.0
 20
0.0
  9
$LIMMAX
 10
420.0
 20
297.0
  9
$VIEWCTR
 10
210.0
 20
148.5
  9
$VIEWSIZE
 40
297.0
  9
$CLAYER
  8
0
  9
$LTSCALE
 40
23.1
  9
$CELTYPE
  6
BYLAYER
  9
$DIMSCALE
 40
1.0
  9
$DIMASZ
 40
3.5
  9
$DIMEXO
 40
2.625
  9
$DIMDLI
 40
15.96
  9
$DIMEXE
 40
7.56
  9
$DIMCEN
 40
3.78
  9
$DIMLFAC
 40
1.0
  9
$DIMBLK
  1
_FILLED
  9
$DIMTXT
 40
3.5
  9
$DIMTOL
 70
1
  9
$DIMLIM
 70
0
  9
$DIMTFAC
 40
1.0
  9
$DIMTP
 40
0.005
  9
$DIMTM
 40
0.005
  9
$PDMODE
 70
3
  9
$PDSIZE
 40
0.3125
  9
$HANDSEED
  5
555
  9
$TILEMODE
 70
1
  9
$MEASUREMENT
 70
1
  9
$INSUNITS
 70
4
  0
ENDSEC
  0
SECTION
  2
CLASSES
  0
CLASS
  1
ACDBDICTIONARYWDFLT
  2
AcDbDictionaryWithDefault
  3
AutoCAD 2000
 90
0
280
0
281
0
  0
CLASS
  1
ACDBPLACEHOLDER
  2
AcDbPlaceHolder
  3
AutoCAD 2000
 90
0
280
0
281
0
  0
CLASS
  1
LAYOUT
  2
AcDbLayout
  3
AutoCAD 2000
 90
0
280
0
281
0
  0
ENDSEC
  0
SECTION
  2
TABLES
  0
TABLE
  2
VPORT
  5
8
100
AcDbSymbolTable
 70
2
  0
VPORT
  5
1F4
100
AcDbSymbolTableRecord
100
AcDbViewportTableRecord
  2
*ACTIVE
 70
0
 10
0.0
 20
0.0
 11
1.0
 21
1.0
 12
210.0
 22
148.5
 13
0.0
 23
0.0
 14
1.0
 24
1.0
 15
0.0
 25
0.0
 16
0.0
 26
0.0
 36
1.0
 17
0.0
 27
0.0
 37
0.0
 40
297.0
 41
1.4141414141
 42
50.0
 43
0.0
 44
0.0
 50
0.0
 51
0.0
 71
0
 72
100
 73
1
 74
1
 75
0
 76
0
 77
0
 78
0
  0
ENDTAB
  0
TABLE
  2
LTYPE
  5
5
100
AcDbSymbolTable
 70
6
  0
LTYPE
  5
14
100
AcDbSymbolTableRecord
100
AcDbLinetypeTableRecord
  2
BYBLOCK
 70
0
  3

 72
65
 73
0
 40
0.0
  0
LTYPE
  5
15
100
AcDbSymbolTableRecord
100
AcDbLinetypeTableRecord
  2
BYLAYER
 70
0
  3

 72
65
 73
0
 40
0.0
  0
LTYPE
  5
16
100
AcDbSymbolTableRecord
100
AcDbLinetypeTableRecord
  2
CONTINUOUS
 70
64
  3
Solid line
 72
65
 73
0
 40
0.0
  0
LTYPE
  5
1F5
100
AcDbSymbolTableRecord
100
AcDbLinetypeTableRecord
  2
CENTER
 70
64
  3
____ _ ____ _ ____ _ ____ _ ____ _ ____ _ ____
 72
65
 73
4
 40
0.6
 49
0.375
 74
0
 49
-0.075
 74
0
 49
0.075
 74
0
 49
-0.075
 74
0
  0
LTYPE
  5
1F6
100
AcDbSymbolTableRecord
100
AcDbLinetypeTableRecord
  2
HIDDEN
 70
64
  3
- - - - - - - - - - - - - - - - - - - -
 72
65
 73
2
 40
0.2
 49
0.1
 74
0
 49
-0.1
 74
0
  0
LTYPE
  5
1F7
100
AcDbSymbolTableRecord
100
AcDbLinetypeTableRecord
  2
PHANTOM
 70
64
  3
_____ _ _ _____ _ _ _____ _ _ _____
 72
65
 73
6
 40
0.8
 49
0.45
 74
0
 49
-0.05
 74
0
 49
0.1
 74
0
 49
-0.05
 74
0
 49
0.1
 74
0
 49
-0.05
 74
0
  0
LTYPE
  5
1F8
100
AcDbSymbolTableRecord
100
AcDbLinetypeTableRecord
  2
DOT
 70
64
  3
. . . . . . . . . . . . . . . . . . . .
 72
65
 73
2
 40
0.2
 49
0.1
 74
0
 49
-0.1
 74
0
  0
LTYPE
  5
1F9
100
AcDbSymbolTableRecord
100
AcDbLinetypeTableRecord
  2
DASHED
 70
64
  3
- - - - - - - - - - - - - - - - - - - -
 72
65
 73
2
 40
0.2
 49
0.1
 74
0
 49
-0.1
 74
0
  0
ENDTAB
  0
TABLE
  2
LAYER
  5
2
100
AcDbSymbolTable
 70
36
  0
LAYER
  5
10
100
AcDbSymbolTableRecord
100
AcDbLayerTableRecord
  2
0
 70
0
 62
7
  6
CONTINUOUS
370
-3
390
F
  0
LAYER
  5
1FA
100
AcDbSymbolTableRecord
100
AcDbLayerTableRecord
  2
DEFAULT_1
 70
0
 62
7
  6
CENTER
370
-3
390
F
  0
LAYER
  5
1FB
100
AcDbSymbolTableRecord
100
AcDbLayerTableRecord
  2
DEFAULT_2
 70
0
 62
8
  6
HIDDEN
370
-3
390
F
  0
LAYER
  5
1FC
100
AcDbSymbolTableRecord
100
AcDbLayerTableRecord
  2
DEFAULT_3
 70
0
 62
7
  6
PHANTOM
370
-3
390
F
  0
LAYER
  5
1FD
100
AcDbSymbolTableRecord
100
AcDbLayerTableRecord
  2
BEZUGSACHSEN
 70
0
 62
7
  6
CONTINUOUS
370
-3
390
F
  0
LAYER
  5
1FE
100
AcDbSymbolTableRecord
100
AcDbLayerTableRecord
  2
BEZUGSEBENEN
 70
0
 62
7
  6
CONTINUOUS
370
-3
390
F
  0
LAYER
  5
1FF
100
AcDbSymbolTableRecord
100
AcDbLayerTableRecord
  2
BG_STARTBEZUEGE
 70
0
 62
7
  6
CONTINUOUS
370
-3
390
F
  0
LAYER
  5
200
100
AcDbSymbolTableRecord
100
AcDbLayerTableRecord
  2
FASEN
 70
0
 62
7
  6
CONTINUOUS
370
-3
390
F
  0
LAYER
  5
201
100
AcDbSymbolTableRecord
100
AcDbLayerTableRecord
  2
FLAECHEN
 70
0
 62
7
  6
CONTINUOUS
370
-3
390
F
  0
LAYER
  5
202
100
AcDbSymbolTableRecord
100
AcDbLayerTableRecord
  2
GEWINDE
 70
0
 62
7
  6
CONTINUOUS
370
-3
390
F
  0
LAYER
  5
203
100
AcDbSymbolTableRecord
100
AcDbLayerTableRecord
  2
HILFEN
 70
0
 62
7
  6
CONTINUOUS
370
-3
390
F
  0
LAYER
  5
204
100
AcDbSymbolTableRecord
100
AcDbLayerTableRecord
  2
KONSTRUKTIONSELEMENTE
 70
0
 62
7
  6
CONTINUOUS
370
-3
390
F
  0
LAYER
  5
205
100
AcDbSymbolTableRecord
100
AcDbLayerTableRecord
  2
KURVEN
 70
0
 62
7
  6
CONTINUOUS
370
-3
390
F
  0
LAYER
  5
206
100
AcDbSymbolTableRecord
100
AcDbLayerTableRecord
  2
NORM
 70
0
 62
7
  6
CONTINUOUS
370
-3
390
F
  0
LAYER
  5
207
100
AcDbSymbolTableRecord
100
AcDbLayerTableRecord
  2
PLATZIERUNG
 70
0
 62
7
  6
CONTINUOUS
370
-3
390
F
  0
LAYER
  5
208
100
AcDbSymbolTableRecord
100
AcDbLayerTableRecord
  2
RUNDUNGEN
 70
0
 62
7
  6
CONTINUOUS
370
-3
390
F
  0
LAYER
  5
209
100
AcDbSymbolTableRecord
100
AcDbLayerTableRecord
  2
TEIL_STARTBEZUEGE
 70
0
 62
7
  6
CONTINUOUS
370
-3
390
F
  0
LAYER
  5
20A
100
AcDbSymbolTableRecord
100
AcDbLayerTableRecord
  2
T_STARTBEZUEGE
 70
0
 62
7
  6
CONTINUOUS
370
-3
390
F
  0
LAYER
  5
20B
100
AcDbSymbolTableRecord
100
AcDbLayerTableRecord
  2
ZEICHNUNGSBEMASSUNGEN
 70
0
 62
7
  6
CONTINUOUS
370
-3
390
F
  0
ENDTAB
  0
TABLE
  2
STYLE
  5
3
100
AcDbSymbolTable
 70
1
  0
STYLE
  5
11
100
AcDbSymbolTableRecord
100
AcDbTextStyleTableRecord
  2
STANDARD
 70
0
 40
0.0
 41
0.7
 50
0.0
 71
0
 42
0.2
  3
txt
  4

  0
STYLE
  5
20C
100
AcDbSymbolTableRecord
100
AcDbTextStyleTableRecord
  2
TEXTSTYLE_1
 70
0
 40
0.0
 41
0.8
 50
0.0
 71
0
 42
0.2
  3
gdt
  4

  0
ENDTAB
  0
TABLE
  2
VIEW
  5
6
100
AcDbSymbolTable
 70
0
  0
ENDTAB
  0
TABLE
  2
UCS
  5
7
100
AcDbSymbolTable
 70
0
  0
ENDTAB
  0
TABLE
  2
APPID
  5
9
100
AcDbSymbolTable
 70
1
  0
APPID
  5
20D
100
AcDbSymbolTableRecord
100
AcDbRegAppTableRecord
  2
ACAD
 70
0
  0
ENDTAB
  0
TABLE
  2
BLOCK_RECORD
  5
1
100
AcDbSymbolTable
 70
0
  0
BLOCK_RECORD
  5
20E
100
AcDbSymbolTableRecord
100
AcDbBlockTableRecord
  2
*Model_Space
  0
BLOCK_RECORD
  5
20F
100
AcDbSymbolTableRecord
100
AcDbBlockTableRecord
  2
*Paper_Space
  0
ENDTAB
  0
TABLE
  2
DIMSTYLE
  5
A
100
AcDbSymbolTable
 70
1
100
AcDbDimStyleTable
 71
0
  0
DIMSTYLE
105
210
100
AcDbSymbolTableRecord
100
AcDbDimStyleTableRecord
  2
STANDARD
 70
0
  3

  4

 40
1.0
 41
3.5
 42
0.0625
 43
0.38
 44
0.18
 45
0.0
 46
0.0
 47
0.005
 48
0.005
140
3.5
141
0.09
142
0.0
143
25.4
144
1.0
145
0.0
146
1.0
147
0.09
 71
1.0
 72
0.0
 73
0
 74
0
 75
0
 76
0
 77
1
 78
8
170
0
171
2
172
0
173
0
174
0
175
0
176
0
177
0
178
5
270
2
271
3
272
3
273
2
274
2
275
0
280
0
281
0
282
0
283
1
284
8
285
0
286
0
287
3
288
0
340
11
  0
ENDTAB
  0
ENDSEC
  0
SECTION
  2
BLOCKS
  0
BLOCK
  5
20
100
AcDbEntity
  8
0
100
AcDbBlockBegin
  2
*Model_Space
 70
0
 10
0.0
 20
0.0
 30
0.0
  3
*Model_Space
  1

  0
ENDBLK
  5
21
100
AcDbEntity
  8
0
100
AcDbBlockEnd
  0
BLOCK
  5
1C
100
AcDbEntity
  8
0
100
AcDbBlockBegin
  2
*Paper_Space
 70
0
 10
0.0
 20
0.0
 30
0.0
  3
*Paper_Space
  1

  0
ENDBLK
  5
1D
100
AcDbEntity
  8
0
100
AcDbBlockEnd
  0
ENDSEC
  0
SECTION
  2
ENTITIES
  0
MTEXT
  5
211
100
AcDbEntity
  8
0
100
AcDbMText
 62
5
  6
CONTINUOUS
  7
STANDARD
 71
1
 72
1
 10
259.4960705287
 20
195.9923805777
 30
0.0
 11
0.0
 21
1.0
 31
0.0
 44
0.9
  1
VRS 2,3t RUD
 40
4.5
 41
41.7857142857
  0
MTEXT
  5
212
100
AcDbEntity
  8
0
100
AcDbMText
 62
5
  6
CONTINUOUS
  7
STANDARD
 71
1
 72
1
 10
116.6666586222
 20
79.4586357959
 30
0.0
 11
1.0
 21
0.0
 31
0.0
 44
0.9
  1
VRS 2,3t RUD
 40
4.5
 41
41.7857142857
  0
LINE
  5
213
100
AcDbEntity
  8
0
100
AcDbLine
 62
7
  6
CONTINUOUS
 10
0.0
 20
0.0
 11
0.0
 21
297.0
  0
LINE
  5
214
100
AcDbEntity
  8
0
100
AcDbLine
 62
7
  6
CONTINUOUS
 10
0.0
 20
0.0
 11
420.0
 21
0.0
  0
LINE
  5
215
100
AcDbEntity
  8
0
100
AcDbLine
 62
7
  6
CONTINUOUS
 10
0.0
 20
297.0
 11
420.0
 21
297.0
  0
LINE
  5
216
100
AcDbEntity
  8
0
100
AcDbLine
 62
7
  6
CONTINUOUS
 10
420.0
 20
0.0
 11
420.0
 21
297.0
  0
LINE
  5
217
100
AcDbEntity
  8
KONSTRUKTIONSELEMENTE
100
AcDbLine
 62
7
  6
CONTINUOUS
 10
127.9303718066
 20
137.4662066606
 11
146.4303718066
 21
137.4662066606
  0
LINE
  5
218
100
AcDbEntity
  8
KONSTRUKTIONSELEMENTE
100
AcDbLine
 62
7
  6
CONTINUOUS
 10
126.1803718066
 20
139.2162066606
 11
148.1803718066
 21
139.2162066606
  0
LINE
  5
219
100
AcDbEntity
  8
KONSTRUKTIONSELEMENTE
100
AcDbLine
 62
7
  6
CONTINUOUS
 10
126.1803718066
 20
139.2162066606
 11
127.9303718066
 21
137.4662066606
  0
LINE
  5
21A
100
AcDbEntity
  8
BEZUGSACHSEN
100
AcDbLine
 62
7
  6
CONTINUOUS
 10
99.4241773395
 20
205.2851353708
 11
99.6796061347
 21
205.9017950323
  0
LINE
  5
21B
100
AcDbEntity
  8
RUNDUNGEN
100
AcDbLine
 62
7
  6
CONTINUOUS
 10
99.6796061347
 20
205.9017950323
 11
109.5696110752
 21
229.7783790915
  0
LINE
  5
21C
100
AcDbEntity
  8
RUNDUNGEN
100
AcDbLine
 62
7
  6
CONTINUOUS
 10
111.1931993756
 20
231.401967392
 11
136.0323215095
 21
241.6906686572
  0
LINE
  5
21D
100
AcDbEntity
  8
BEZUGSACHSEN
100
AcDbLine
 62
7
  6
CONTINUOUS
 10
103.1803718066
 20
183.6662066606
 11
103.1803718066
 21
191.6662066606
  0
LINE
  5
21E
100
AcDbEntity
  8
0
100
AcDbLine
 62
7
  6
CONTINUOUS
 10
118.8839845177
 20
229.2962262429
 11
118.5893571418
 21
229.001598867
  0
LINE
  5
21F
100
AcDbEntity
  8
0
100
AcDbLine
 62
7
  6
CONTINUOUS
 10
116.3501854432
 20
226.7624271685
 11
114.9359718809
 21
225.3482136061
  0
LINE
  5
220
100
AcDbEntity
  8
0
100
AcDbLine
 62
7
  6
CONTINUOUS
 10
114.4645673039
 20
224.8768090291
 11
114.1110139133
 21
224.5232556385
  0
LINE
  5
221
100
AcDbEntity
  8
0
100
AcDbLine
 62
7
  6
CONTINUOUS
 10
112.4610981467
 20
222.8733398719
 11
112.1075447561
 21
222.5197864813
  0
LINE
  5
222
100
AcDbEntity
  8
0
100
AcDbLine
 62
7
  6
CONTINUOUS
 10
115.5904217382
 20
225.4008705299
 11
116.7100075875
 21
226.5204563792
  0
LINE
  5
223
100
AcDbEntity
  8
0
100
AcDbLine
 62
7
  6
CONTINUOUS
 10
118.9504329019
 20
228.6405231069
 11
119.3039862925
 21
228.9940764975
  0
LINE
  5
224
100
AcDbEntity
  8
0
100
AcDbLine
 62
7
  6
CONTINUOUS
 10
119.9584361499
 20
229.0467334213
 11
120.3119895404
 21
229.4002868119
  0
LINE
  5
225
100
AcDbEntity
  8
0
100
AcDbLine
 62
7
  6
CONTINUOUS
 10
120.146496568
 20
228.151566222
 11
119.7929431774
 21
227.7980128314
  0
LINE
  5
226
100
AcDbEntity
  8
0
100
AcDbLine
 62
7
  6
CONTINUOUS
 10
117.6126971564
 20
225.6177668103
 11
116.4931113071
 21
224.498180961
  0
LINE
  5
227
100
AcDbEntity
  8
0
100
AcDbLine
 62
7
  6
CONTINUOUS
 10
119.2387918613
 20
229.5306749998
 11
118.8839845177
 21
229.2962262429
  0
LINE
  5
228
100
AcDbEntity
  8
0
100
AcDbLine
 62
7
  6
CONTINUOUS
 10
116.7049924497
 20
226.9968755882
 11
116.3501854432
 21
226.7624271685
  0
LINE
  5
229
100
AcDbEntity
  8
0
100
AcDbLine
 62
7
  6
CONTINUOUS
 10
120.5013032373
 20
228.3860143045
 11
120.146496568
 21
228.151566222
  0
LINE
  5
22A
100
AcDbEntity
  8
0
100
AcDbLine
 62
7
  6
CONTINUOUS
 10
120.5075723281
 20
227.7904904618
 11
120.8034536571
 21
227.9660132041
  0
LINE
  5
22B
100
AcDbEntity
  8
0
100
AcDbLine
 62
7
  6
CONTINUOUS
 10
119.8581369342
 20
227.2614136546
 11
120.1540189375
 21
227.4369370712
  0
LINE
  5
22C
100
AcDbEntity
  8
0
100
AcDbLine
 62
7
  6
CONTINUOUS
 10
119.3039862925
 20
228.9940764975
 11
119.5409422811
 21
229.1106738994
  0
LINE
  5
22D
100
AcDbEntity
  8
0
100
AcDbLine
 62
7
  6
CONTINUOUS
 10
116.7100075875
 20
226.5204563792
 11
116.9469635762
 21
226.6370537811
  0
LINE
  5
22E
100
AcDbEntity
  8
0
100
AcDbLine
 62
7
  6
CONTINUOUS
 10
119.7929431774
 20
227.7980128314
 11
119.5559871888
 21
227.6814154294
  0
LINE
  5
22F
100
AcDbEntity
  8
0
100
AcDbLine
 62
7
  6
CONTINUOUS
 10
134.0970371222
 20
233.5491853383
 11
133.8470371222
 21
233.4640789655
  0
LINE
  5
230
100
AcDbEntity
  8
KONSTRUKTIONSELEMENTE
100
AcDbLine
 62
7
  6
CONTINUOUS
 10
122.5303718066
 20
167.4662066606
 11
151.8303718066
 21
167.4662066606
  0
LINE
  5
231
100
AcDbEntity
  8
BEZUGSACHSEN
100
AcDbLine
 62
7
  6
CONTINUOUS
 10
157.6803718066
 20
167.6662066606
 11
116.6803718066
 21
167.6662066606
  0
LINE
  5
232
100
AcDbEntity
  8
0
100
AcDbLine
 62
7
  6
CONTINUOUS
 10
134.0449555969
 20
172.7725896415
 11
134.7741224026
 21
172.7725896415
  0
LINE
  5
233
100
AcDbEntity
  8
BEZUGSACHSEN
100
AcDbLine
 62
7
  6
CONTINUOUS
 10
103.1146980288
 20
194.0793296764
 11
99.4241773395
 21
202.9890347766
  0
LINE
  5
234
100
AcDbEntity
  8
0
100
AcDbLine
 62
7
  6
CONTINUOUS
 10
118.4138337252
 20
228.7057168637
 11
118.2984902763
 21
228.3496562414
  0
LINE
  5
235
100
AcDbEntity
  8
0
100
AcDbLine
 62
7
  6
CONTINUOUS
 10
118.0891163654
 20
225.6127516725
 11
118.2044601515
 21
225.968812632
  0
LINE
  5
236
100
AcDbEntity
  8
0
100
AcDbLine
 62
7
  6
CONTINUOUS
 10
118.8338355
 20
228.4035671182
 11
118.9504329019
 21
228.6405231069
  0
LINE
  5
237
100
AcDbEntity
  8
0
100
AcDbLine
 62
7
  6
CONTINUOUS
 10
117.7292945583
 20
225.854722799
 11
117.6126971564
 21
225.6177668103
  0
LINE
  5
238
100
AcDbEntity
  8
0
100
AcDbLine
 62
7
  6
CONTINUOUS
 10
118.5893571418
 20
229.001598867
 11
118.4138337252
 21
228.7057168637
  0
LINE
  5
239
100
AcDbEntity
  8
0
100
AcDbLine
 62
7
  6
CONTINUOUS
 10
121.5857845971
 20
227.1836822641
 11
121.4102618549
 21
226.8878009351
  0
LINE
  5
23A
100
AcDbEntity
  8
0
100
AcDbLine
 62
7
  6
CONTINUOUS
 10
121.7713376571
 20
226.5267251328
 11
122.0057857344
 21
226.8815318074
  0
LINE
  5
23B
100
AcDbEntity
  8
0
100
AcDbLine
 62
7
  6
CONTINUOUS
 10
134.2637038683
 20
233.719398084
 11
134.0970371222
 21
233.5491853383
  0
LINE
  5
23C
100
AcDbEntity
  8
0
100
AcDbLine
 62
7
  6
CONTINUOUS
 10
116.8541870672
 20
224.1371052009
 11
117.8559215615
 21
225.1388396952
  0
LINE
  5
23D
100
AcDbEntity
  8
0
100
AcDbLine
 62
7
  6
CONTINUOUS
 10
120.1540189375
 20
227.4369370712
 11
120.5075723281
 21
227.7904904618
  0
LINE
  5
23E
100
AcDbEntity
  8
0
100
AcDbLine
 62
7
  6
CONTINUOUS
 10
120.0461972681
 20
226.3662465396
 11
119.6926442147
 21
226.0126934862
  0
LINE
  5
23F
100
AcDbEntity
  8
0
100
AcDbLine
 62
7
  6
CONTINUOUS
 10
121.4102618549
 20
226.8878009351
 11
120.9388571093
 21
226.4163961895
  0
LINE
  5
240
100
AcDbEntity
  8
0
100
AcDbLine
 62
7
  6
CONTINUOUS
 10
115.8787809506
 20
220.6341684263
 11
116.3501854432
 21
221.105572919
  0
LINE
  5
241
100
AcDbEntity
  8
0
100
AcDbLine
 62
7
  6
CONTINUOUS
 10
117.7643990056
 20
222.5197864813
 11
118.1179523962
 21
222.8733398719
  0
LINE
  5
242
100
AcDbEntity
  8
0
100
AcDbLine
 62
7
  6
CONTINUOUS
 10
119.5910916361
 20
224.3464791118
 11
120.003570367
 21
224.7589578427
  0
LINE
  5
243
100
AcDbEntity
  8
0
100
AcDbLine
 62
7
  6
CONTINUOUS
 10
121.2999329116
 20
226.0553203873
 11
121.7713376571
 21
226.5267251328
  0
LINE
  5
244
100
AcDbEntity
  8
0
100
AcDbLine
 62
7
  6
CONTINUOUS
 10
137.8470373606
 20
231.9321641353
 11
137.5970373606
 21
231.76195133
  0
LINE
  5
245
100
AcDbEntity
  8
0
100
AcDbLine
 62
7
  6
CONTINUOUS
 10
120.9451255627
 20
225.8208716356
 11
121.2999329116
 21
226.0553203873
  0
LINE
  5
246
100
AcDbEntity
  8
0
100
AcDbLine
 62
7
  6
CONTINUOUS
 10
120.9388571093
 20
226.4163961895
 11
120.6429757803
 21
226.2408734473
  0
LINE
  5
247
100
AcDbEntity
  8
0
100
AcDbLine
 62
7
  6
CONTINUOUS
 10
134.1803706145
 20
233.1236534742
 11
134.5137038683
 21
233.2938662198
  0
LINE
  5
248
100
AcDbEntity
  8
0
100
AcDbLine
 62
7
  6
CONTINUOUS
 10
137.6803703761
 20
231.2513130409
 11
138.0137038683
 21
231.4215258089
  0
LINE
  5
249
100
AcDbEntity
  8
0
100
AcDbLine
 62
7
  6
CONTINUOUS
 10
120.857364534
 20
228.5013584278
 11
120.5013032373
 21
228.3860143045
  0
LINE
  5
24A
100
AcDbEntity
  8
0
100
AcDbLine
 62
7
  6
CONTINUOUS
 10
119.5020763119
 20
227.1460702057
 11
119.8581369342
 21
227.2614136546
  0
LINE
  5
24B
100
AcDbEntity
  8
0
100
AcDbLine
 62
7
  6
CONTINUOUS
 10
140.0241224026
 20
173.6662066606
 11
140.6074551796
 21
173.8151428261
  0
LINE
  5
24C
100
AcDbEntity
  8
0
100
AcDbLine
 62
7
  6
CONTINUOUS
 10
140.6074551796
 20
174.5598236796
 11
139.8782887911
 21
174.4108875272
  0
LINE
  5
24D
100
AcDbEntity
  8
0
100
AcDbLine
 62
7
  6
CONTINUOUS
 10
127.6282887911
 20
173.6662066606
 11
132.8782887911
 21
173.6662066606
  0
LINE
  5
24E
100
AcDbEntity
  8
0
100
AcDbLine
 62
7
  6
CONTINUOUS
 10
138.8574551796
 20
173.6662066606
 11
140.0241224026
 21
173.6662066606
  0
LINE
  5
24F
100
AcDbEntity
  8
0
100
AcDbLine
 62
7
  6
CONTINUOUS
 10
139.8782887911
 20
174.4108875272
 11
139.0032887911
 21
174.4108875272
  0
LINE
  5
250
100
AcDbEntity
  8
0
100
AcDbLine
 62
7
  6
CONTINUOUS
 10
135.6491224026
 20
174.4108875272
 11
134.9199551796
 21
174.4108875272
  0
LINE
  5
251
100
AcDbEntity
  8
0
100
AcDbLine
 62
7
  6
CONTINUOUS
 10
132.8782887911
 20
174.4108875272
 11
128.7949554926
 21
174.4108875272
  0
LINE
  5
252
100
AcDbEntity
  8
0
100
AcDbLine
 62
7
  6
CONTINUOUS
 10
137.5449551796
 20
175.3045045462
 11
136.8157887911
 21
175.3045045462
  0
LINE
  5
253
100
AcDbEntity
  8
0
100
AcDbLine
 62
7
  6
CONTINUOUS
 10
139.1491224026
 20
176.9428024319
 11
139.7324551796
 21
176.9428024319
  0
LINE
  5
254
100
AcDbEntity
  8
0
100
AcDbLine
 62
7
  6
CONTINUOUS
 10
139.7324551796
 20
177.5385470417
 11
139.1491224026
 21
177.5385470417
  0
LINE
  5
255
100
AcDbEntity
  8
0
100
AcDbLine
 62
7
  6
CONTINUOUS
 10
143.2324560141
 20
177.8364193466
 11
144.3991215682
 21
177.8364193466
  0
LINE
  5
256
100
AcDbEntity
  8
0
100
AcDbLine
 62
7
  6
CONTINUOUS
 10
145.1282887911
 20
177.8364193466
 11
146.7324560141
 21
177.8364193466
  0
LINE
  5
257
100
AcDbEntity
  8
0
100
AcDbLine
 62
7
  6
CONTINUOUS
 10
146.7324560141
 20
178.4321639565
 11
145.1282887911
 21
178.4321639565
  0
LINE
  5
258
100
AcDbEntity
  8
0
100
AcDbLine
 62
7
  6
CONTINUOUS
 10
144.3991215682
 20
178.4321639565
 11
143.2324560141
 21
178.4321639565
  0
LINE
  5
259
100
AcDbEntity
  8
0
100
AcDbLine
 62
7
  6
CONTINUOUS
 10
145.5657887911
 20
173.8151428261
 11
146.4407887911
 21
173.6662066606
  0
LINE
  5
25A
100
AcDbEntity
  8
0
100
AcDbLine
 62
7
  6
CONTINUOUS
 10
139.7324551796
 20
176.9428024319
 11
140.6074551796
 21
176.7938662794
  0
LINE
  5
25B
100
AcDbEntity
  8
0
100
AcDbLine
 62
7
  6
CONTINUOUS
 10
139.0032887911
 20
174.4108875272
 11
138.2741224026
 21
174.5598236796
  0
LINE
  5
25C
100
AcDbEntity
  8
0
100
AcDbLine
 62
7
  6
CONTINUOUS
 10
146.4407887911
 20
174.2619513226
 11
145.7116215682
 21
174.4108875272
  0
LINE
  5
25D
100
AcDbEntity
  8
0
100
AcDbLine
 62
7
  6
CONTINUOUS
 10
138.2741224026
 20
173.8151428261
 11
138.8574551796
 21
173.6662066606
  0
LINE
  5
25E
100
AcDbEntity
  8
0
100
AcDbLine
 62
7
  6
CONTINUOUS
 10
145.1282887911
 20
173.9640789916
 11
145.5657887911
 21
173.8151428261
  0
LINE
  5
25F
100
AcDbEntity
  8
0
100
AcDbLine
 62
7
  6
CONTINUOUS
 10
137.6907887911
 20
174.1130151701
 11
138.2741224026
 21
173.8151428261
  0
LINE
  5
260
100
AcDbEntity
  8
0
100
AcDbLine
 62
7
  6
CONTINUOUS
 10
138.2741224026
 20
174.5598236796
 11
137.9824551796
 21
174.7087598321
  0
LINE
  5
261
100
AcDbEntity
  8
0
100
AcDbLine
 62
7
  6
CONTINUOUS
 10
117.7267869894
 20
226.0929324035
 11
117.7292945583
 21
225.854722799
  0
LINE
  5
262
100
AcDbEntity
  8
0
100
AcDbLine
 62
7
  6
CONTINUOUS
 10
118.2984902763
 20
228.3496562414
 11
118.3035054141
 21
227.8732370323
  0
LINE
  5
263
100
AcDbEntity
  8
0
100
AcDbLine
 62
7
  6
CONTINUOUS
 10
118.7774173914
 20
228.1064318362
 11
118.8338355
 21
228.4035671182
  0
LINE
  5
264
100
AcDbEntity
  8
0
100
AcDbLine
 62
7
  6
CONTINUOUS
 10
121.6422026636
 20
227.4808175882
 11
121.5857845971
 21
227.1836822641
  0
LINE
  5
265
100
AcDbEntity
  8
0
100
AcDbLine
 62
7
  6
CONTINUOUS
 10
122.0057857344
 20
226.8815318074
 11
122.1211298419
 21
227.2375931199
  0
LINE
  5
266
100
AcDbEntity
  8
0
100
AcDbLine
 62
7
  6
CONTINUOUS
 10
134.5137038683
 20
233.2938662198
 11
134.7637038683
 21
233.6342917112
  0
LINE
  5
267
100
AcDbEntity
  8
0
100
AcDbLine
 62
7
  6
CONTINUOUS
 10
138.0137038683
 20
231.4215258089
 11
138.3470373606
 21
231.76195133
  0
LINE
  5
268
100
AcDbEntity
  8
0
100
AcDbLine
 62
7
  6
CONTINUOUS
 10
141.8470368838
 20
231.9321641353
 11
141.5970368838
 21
231.76195133
  0
LINE
  5
269
100
AcDbEntity
  8
0
100
AcDbLine
 62
7
  6
CONTINUOUS
 10
141.6803708529
 20
231.2513130409
 11
142.0137038683
 21
231.4215258089
  0
LINE
  5
26A
100
AcDbEntity
  8
0
100
AcDbLine
 62
7
  6
CONTINUOUS
 10
138.4199551796
 20
179.7725897458
 11
139.1491224026
 21
179.9215258983
  0
LINE
  5
26B
100
AcDbEntity
  8
0
100
AcDbLine
 62
7
  6
CONTINUOUS
 10
129.2324554926
 20
179.7725897458
 11
129.961622194
 21
179.9215258983
  0
LINE
  5
26C
100
AcDbEntity
  8
0
100
AcDbLine
 62
7
  6
CONTINUOUS
 10
139.2949551796
 20
180.6662066606
 11
138.2741224026
 21
180.5172705081
  0
LINE
  5
26D
100
AcDbEntity
  8
0
100
AcDbLine
 62
7
  6
CONTINUOUS
 10
130.1074553883
 20
180.6662066606
 11
129.0866220897
 21
180.5172705081
  0
LINE
  5
26E
100
AcDbEntity
  8
0
100
AcDbLine
 62
7
  6
CONTINUOUS
 10
127.7741221288
 20
179.0279089835
 11
128.5032887911
 21
179.0279089835
  0
LINE
  5
26F
100
AcDbEntity
  8
0
100
AcDbLine
 62
7
  6
CONTINUOUS
 10
136.9616224026
 20
179.0279089835
 11
137.6907887911
 21
179.0279089835
  0
LINE
  5
270
100
AcDbEntity
  8
0
100
AcDbLine
 62
7
  6
CONTINUOUS
 10
145.1282887911
 20
179.6236535934
 11
144.3991215682
 21
179.6236535934
  0
LINE
  5
271
100
AcDbEntity
  8
0
100
AcDbLine
 62
7
  6
CONTINUOUS
 10
129.961622194
 20
179.9215258983
 11
130.5449553883
 21
179.9215258983
  0
LINE
  5
272
100
AcDbEntity
  8
0
100
AcDbLine
 62
7
  6
CONTINUOUS
 10
139.1491224026
 20
179.9215258983
 11
139.7324551796
 21
179.9215258983
  0
LINE
  5
273
100
AcDbEntity
  8
0
100
AcDbLine
 62
7
  6
CONTINUOUS
 10
139.5866224026
 20
180.6662066606
 11
139.2949551796
 21
180.6662066606
  0
LINE
  5
274
100
AcDbEntity
  8
0
100
AcDbLine
 62
7
  6
CONTINUOUS
 10
130.6907887911
 20
180.6662066606
 11
130.1074553883
 21
180.6662066606
  0
LINE
  5
275
100
AcDbEntity
  8
0
100
AcDbLine
 62
7
  6
CONTINUOUS
 10
105.1803718066
 20
181.6662066606
 11
106.2518460196
 21
181.6662066606
  0
LINE
  5
276
100
AcDbEntity
  8
0
100
AcDbLine
 62
7
  6
CONTINUOUS
 10
168.1088975936
 20
181.6662066606
 11
169.1803718066
 21
181.6662066606
  0
LINE
  5
277
100
AcDbEntity
  8
0
100
AcDbLine
 62
7
  6
CONTINUOUS
 10
140.6074551796
 20
180.5172705081
 11
139.5866224026
 21
180.6662066606
  0
LINE
  5
278
100
AcDbEntity
  8
0
100
AcDbLine
 62
7
  6
CONTINUOUS
 10
131.5657887911
 20
180.5172705081
 11
130.6907887911
 21
180.6662066606
  0
LINE
  5
279
100
AcDbEntity
  8
0
100
AcDbLine
 62
7
  6
CONTINUOUS
 10
130.5449553883
 20
179.9215258983
 11
131.2741219854
 21
179.7725897458
  0
LINE
  5
27A
100
AcDbEntity
  8
0
100
AcDbLine
 62
7
  6
CONTINUOUS
 10
139.7324551796
 20
179.9215258983
 11
140.4616224026
 21
179.7725897458
  0
LINE
  5
27B
100
AcDbEntity
  8
0
100
AcDbLine
 62
7
  6
CONTINUOUS
 10
141.6282887911
 20
176.9428024319
 11
140.8991224026
 21
177.2406747368
  0
LINE
  5
27C
100
AcDbEntity
  8
0
100
AcDbLine
 62
7
  6
CONTINUOUS
 10
132.1491219854
 20
180.2193982032
 11
131.5657887911
 21
180.5172705081
  0
LINE
  5
27D
100
AcDbEntity
  8
0
100
AcDbLine
 62
7
  6
CONTINUOUS
 10
141.1907887911
 20
180.2193982032
 11
140.6074551796
 21
180.5172705081
  0
LINE
  5
27E
100
AcDbEntity
  8
0
100
AcDbLine
 62
7
  6
CONTINUOUS
 10
137.2532887911
 20
174.4108875272
 11
137.6907887911
 21
174.1130151701
  0
LINE
  5
27F
100
AcDbEntity
  8
0
100
AcDbLine
 62
7
  6
CONTINUOUS
 10
131.2741219854
 20
179.7725897458
 11
131.7116219854
 21
179.4747174409
  0
LINE
  5
280
100
AcDbEntity
  8
0
100
AcDbLine
 62
7
  6
CONTINUOUS
 10
140.6074551796
 20
176.7938662794
 11
141.0449551796
 21
176.4959939745
  0
LINE
  5
281
100
AcDbEntity
  8
0
100
AcDbLine
 62
7
  6
CONTINUOUS
 10
144.6907887911
 20
174.2619513226
 11
145.1282887911
 21
173.9640789916
  0
LINE
  5
282
100
AcDbEntity
  8
0
100
AcDbLine
 62
7
  6
CONTINUOUS
 10
145.7116215682
 20
174.4108875272
 11
145.2741215682
 21
174.7087598321
  0
LINE
  5
283
100
AcDbEntity
  8
0
100
AcDbLine
 62
7
  6
CONTINUOUS
 10
132.7324555969
 20
179.6236535934
 11
132.1491219854
 21
180.2193982032
  0
LINE
  5
284
100
AcDbEntity
  8
0
100
AcDbLine
 62
7
  6
CONTINUOUS
 10
137.9824551796
 20
174.7087598321
 11
137.6907887911
 21
175.0066322413
  0
LINE
  5
285
100
AcDbEntity
  8
0
100
AcDbLine
 62
7
  6
CONTINUOUS
 10
122.1211298419
 20
227.2375931199
 11
122.116114683
 21
227.71401235
  0
LINE
  5
286
100
AcDbEntity
  8
KONSTRUKTIONSELEMENTE
100
AcDbLine
 62
7
  6
CONTINUOUS
 10
122.5303718066
 20
167.6662066606
 11
122.5303718066
 21
167.4662066606
  0
LINE
  5
287
100
AcDbEntity
  8
0
100
AcDbLine
 62
7
  6
CONTINUOUS
 10
125.1803718066
 20
193.4662066606
 11
125.1803718066
 21
196.4662066606
  0
LINE
  5
288
100
AcDbEntity
  8
0
100
AcDbLine
 62
7
  6
CONTINUOUS
 10
134.3470371222
 20
233.9747172025
 11
134.2637038683
 21
233.719398084
  0
LINE
  5
289
100
AcDbEntity
  8
0
100
AcDbLine
 62
7
  6
CONTINUOUS
 10
134.7637038683
 20
233.6342917112
 11
134.8470371222
 21
233.8896108297
  0
LINE
  5
28A
100
AcDbEntity
  8
0
100
AcDbLine
 62
7
  6
CONTINUOUS
 10
138.3470373606
 20
231.76195133
 11
138.5137038683
 21
232.102376881
  0
LINE
  5
28B
100
AcDbEntity
  8
0
100
AcDbLine
 62
7
  6
CONTINUOUS
 10
138.0137038683
 20
232.1874832538
 11
137.8470373606
 21
231.9321641353
  0
LINE
  5
28C
100
AcDbEntity
  8
0
100
AcDbLine
 62
7
  6
CONTINUOUS
 10
142.0137038683
 20
232.1874832538
 11
141.8470368838
 21
231.9321641353
  0
LINE
  5
28D
100
AcDbEntity
  8
0
100
AcDbLine
 62
7
  6
CONTINUOUS
 10
142.0137038683
 20
231.4215258089
 11
142.3470368838
 21
231.76195133
  0
LINE
  5
28E
100
AcDbEntity
  8
0
100
AcDbLine
 62
7
  6
CONTINUOUS
 10
140.4616224026
 20
179.7725897458
 11
140.8991224026
 21
179.4747174409
  0
LINE
  5
28F
100
AcDbEntity
  8
0
100
AcDbLine
 62
7
  6
CONTINUOUS
 10
141.7741215682
 20
179.6236535934
 11
141.1907887911
 21
180.2193982032
  0
LINE
  5
290
100
AcDbEntity
  8
0
100
AcDbLine
 62
7
  6
CONTINUOUS
 10
131.7116219854
 20
179.4747174409
 11
132.0032887911
 21
179.0279089835
  0
LINE
  5
291
100
AcDbEntity
  8
0
100
AcDbLine
 62
7
  6
CONTINUOUS
 10
136.9616224026
 20
174.8576959846
 11
137.2532887911
 21
174.4108875272
  0
LINE
  5
292
100
AcDbEntity
  8
0
100
AcDbLine
 62
7
  6
CONTINUOUS
 10
137.6907887911
 20
175.0066322413
 11
137.5449551796
 21
175.3045045462
  0
LINE
  5
293
100
AcDbEntity
  8
0
100
AcDbLine
 62
7
  6
CONTINUOUS
 10
118.2044601515
 20
225.968812632
 11
118.1405196734
 21
226.3863065007
  0
LINE
  5
294
100
AcDbEntity
  8
KONSTRUKTIONSELEMENTE
100
AcDbLine
 62
7
  6
CONTINUOUS
 10
126.1803718066
 20
167.4662066606
 11
126.1803718066
 21
139.2162066606
  0
LINE
  5
295
100
AcDbEntity
  8
0
100
AcDbLine
 62
7
  6
CONTINUOUS
 10
127.6282887911
 20
174.4108875272
 11
127.6282887911
 21
173.6662066606
  0
LINE
  5
296
100
AcDbEntity
  8
0
100
AcDbLine
 62
7
  6
CONTINUOUS
 10
130.3676386301
 20
192.4662066606
 11
130.3676386301
 21
187.3742445938
  0
LINE
  5
297
100
AcDbEntity
  8
BEZUGSACHSEN
100
AcDbLine
 62
7
  6
CONTINUOUS
 10
130.9662858225
 20
192.4662066606
 11
130.9662858225
 21
187.2954666966
  0
LINE
  5
298
100
AcDbEntity
  8
0
100
AcDbLine
 62
7
  6
CONTINUOUS
 10
131.7637038683
 20
235.1662066606
 11
131.7637038683
 21
231.1662066606
  0
LINE
  5
299
100
AcDbEntity
  8
0
100
AcDbLine
 62
7
  6
CONTINUOUS
 10
138.0970373606
 20
232.5279087451
 11
138.0137038683
 21
232.1874832538
  0
LINE
  5
29A
100
AcDbEntity
  8
0
100
AcDbLine
 62
7
  6
CONTINUOUS
 10
142.3470368838
 20
231.76195133
 11
142.5137038683
 21
232.102376881
  0
LINE
  5
29B
100
AcDbEntity
  8
RUNDUNGEN
100
AcDbLine
 62
7
  6
CONTINUOUS
 10
179.1803718066
 20
192.4662066606
 11
126.1803718066
 21
192.4662066606
  0
LINE
  5
29C
100
AcDbEntity
  8
0
100
AcDbLine
 62
7
  6
CONTINUOUS
 10
141.9199560141
 20
176.4959939745
 11
141.6282887911
 21
176.9428024319
  0
LINE
  5
29D
100
AcDbEntity
  8
0
100
AcDbLine
 62
7
  6
CONTINUOUS
 10
140.8991224026
 20
179.4747174409
 11
141.1907887911
 21
179.0279089835
  0
LINE
  5
29E
100
AcDbEntity
  8
0
100
AcDbLine
 62
7
  6
CONTINUOUS
 10
117.6051747869
 20
226.332395961
 11
117.7267869894
 21
226.0929324035
  0
LINE
  5
29F
100
AcDbEntity
  8
0
100
AcDbLine
 62
7
  6
CONTINUOUS
 10
118.1405196734
 20
226.3863065007
 11
118.0189074708
 21
226.6257700583
  0
LINE
  5
2A0
100
AcDbEntity
  8
0
100
AcDbLine
 62
7
  6
CONTINUOUS
 10
116.3501854432
 20
221.105572919
 11
114.4645673039
 21
224.8768090291
  0
LINE
  5
2A1
100
AcDbEntity
  8
0
100
AcDbLine
 62
7
  6
CONTINUOUS
 10
114.1110139133
 20
224.5232556385
 11
115.7534073525
 21
221.2309464327
  0
LINE
  5
2A2
100
AcDbEntity
  8
0
100
AcDbLine
 62
7
  6
CONTINUOUS
 10
141.0449551796
 20
176.4959939745
 11
141.3366224026
 21
175.9002491561
  0
LINE
  5
2A3
100
AcDbEntity
  8
0
100
AcDbLine
 62
7
  6
CONTINUOUS
 10
144.3991215682
 20
174.8576959846
 11
144.6907887911
 21
174.2619513226
  0
LINE
  5
2A4
100
AcDbEntity
  8
0
100
AcDbLine
 62
7
  6
CONTINUOUS
 10
122.116114683
 20
227.71401235
 11
121.9932488224
 21
228.0725809205
  0
LINE
  5
2A5
100
AcDbEntity
  8
0
100
AcDbLine
 62
7
  6
CONTINUOUS
 10
136.8157887911
 20
175.3045045462
 11
136.9616224026
 21
174.8576959846
  0
LINE
  5
2A6
100
AcDbEntity
  8
0
100
AcDbLine
 62
7
  6
CONTINUOUS
 10
132.8782887911
 20
179.0279089835
 11
132.7324555969
 21
179.6236535934
  0
LINE
  5
2A7
100
AcDbEntity
  8
0
100
AcDbLine
 62
7
  6
CONTINUOUS
 10
121.5795161385
 20
227.7792068233
 11
121.6422026636
 21
227.4808175882
  0
LINE
  5
2A8
100
AcDbEntity
  8
0
100
AcDbLine
 62
7
  6
CONTINUOUS
 10
132.0032887911
 20
179.0279089835
 11
132.0032887911
 21
178.7300362614
  0
LINE
  5
2A9
100
AcDbEntity
  8
0
100
AcDbLine
 62
7
  6
CONTINUOUS
 10
132.2637038683
 20
231.1662066606
 11
132.2637038683
 21
232.9534407285
  0
LINE
  5
2AA
100
AcDbEntity
  8
0
100
AcDbLine
 62
7
  6
CONTINUOUS
 10
132.2637038683
 20
233.4640789655
 11
132.2637038683
 21
234.7406747964
  0
LINE
  5
2AB
100
AcDbEntity
  8
0
100
AcDbLine
 62
7
  6
CONTINUOUS
 10
132.8782887911
 20
173.6662066606
 11
132.8782887911
 21
174.4108875272
  0
LINE
  5
2AC
100
AcDbEntity
  8
0
100
AcDbLine
 62
7
  6
CONTINUOUS
 10
132.8782887911
 20
178.7300362614
 11
132.8782887911
 21
179.0279089835
  0
LINE
  5
2AD
100
AcDbEntity
  8
0
100
AcDbLine
 62
7
  6
CONTINUOUS
 10
132.9303718066
 20
197.4662066606
 11
132.9303718066
 21
197.7662066606
  0
LINE
  5
2AE
100
AcDbEntity
  8
BEZUGSACHSEN
100
AcDbLine
 62
7
  6
CONTINUOUS
 10
133.175358026
 20
192.4662066606
 11
133.175358026
 21
187.070331531
  0
LINE
  5
2AF
100
AcDbEntity
  8
0
100
AcDbLine
 62
7
  6
CONTINUOUS
 10
133.7740052184
 20
192.4662066606
 11
133.7740052184
 21
187.0262958598
  0
LINE
  5
2B0
100
AcDbEntity
  8
0
100
AcDbLine
 62
7
  6
CONTINUOUS
 10
134.3470371222
 20
234.2300365594
 11
134.3470371222
 21
233.9747172025
  0
LINE
  5
2B1
100
AcDbEntity
  8
0
100
AcDbLine
 62
7
  6
CONTINUOUS
 10
134.8470371222
 20
233.8896108297
 11
134.8470371222
 21
234.2300365594
  0
LINE
  5
2B2
100
AcDbEntity
  8
BEZUGSACHSEN
100
AcDbLine
 62
7
  6
CONTINUOUS
 10
134.9712996031
 20
192.4662066606
 11
134.9712996031
 21
186.9595588732
  0
LINE
  5
2B3
100
AcDbEntity
  8
0
100
AcDbLine
 62
7
  6
CONTINUOUS
 10
135.5970371222
 20
235.1662066606
 11
135.5970371222
 21
232.5279087451
  0
LINE
  5
2B4
100
AcDbEntity
  8
0
100
AcDbLine
 62
7
  6
CONTINUOUS
 10
136.0970373606
 20
232.5279087451
 11
136.0970373606
 21
235.1662066606
  0
LINE
  5
2B5
100
AcDbEntity
  8
0
100
AcDbLine
 62
7
  6
CONTINUOUS
 10
137.1803718066
 20
197.4662066606
 11
137.1803718066
 21
197.7662066606
  0
LINE
  5
2B6
100
AcDbEntity
  8
0
100
AcDbLine
 62
7
  6
CONTINUOUS
 10
138.5137038683
 20
232.102376881
 11
138.5970373606
 21
232.5279087451
  0
LINE
  5
2B7
100
AcDbEntity
  8
0
100
AcDbLine
 62
7
  6
CONTINUOUS
 10
142.5137038683
 20
232.102376881
 11
142.5970368838
 21
232.5279087451
  0
LINE
  5
2B8
100
AcDbEntity
  8
0
100
AcDbLine
 62
7
  6
CONTINUOUS
 10
127.9199554665
 20
179.6236535934
 11
127.7741221288
 21
179.0279089835
  0
LINE
  5
2B9
100
AcDbEntity
  8
0
100
AcDbLine
 62
7
  6
CONTINUOUS
 10
142.0970368838
 20
232.5279087451
 11
142.0137038683
 21
232.1874832538
  0
LINE
  5
2BA
100
AcDbEntity
  8
0
100
AcDbLine
 62
7
  6
CONTINUOUS
 10
156.3869210972
 20
224.0879644119
 11
156.8215162272
 21
224.5225595419
  0
LINE
  5
2BB
100
AcDbEntity
  8
0
100
AcDbLine
 62
7
  6
CONTINUOUS
 10
158.836212234
 20
226.5372555488
 11
159.270807364
 21
226.9718506788
  0
LINE
  5
2BC
100
AcDbEntity
  8
RUNDUNGEN
100
AcDbLine
 62
7
  6
CONTINUOUS
 10
126.1803718066
 20
197.4662066606
 11
179.1803718066
 21
197.4662066606
  0
LINE
  5
2BD
100
AcDbEntity
  8
0
100
AcDbLine
 62
7
  6
CONTINUOUS
 10
132.9303718066
 20
197.7662066606
 11
141.4303718066
 21
197.7662066606
  0
LINE
  5
2BE
100
AcDbEntity
  8
0
100
AcDbLine
 62
7
  6
CONTINUOUS
 10
114.9359718809
 20
225.3482136061
 11
117.7643990056
 21
222.5197864813
  0
LINE
  5
2BF
100
AcDbEntity
  8
0
100
AcDbLine
 62
7
  6
CONTINUOUS
 10
118.3035054141
 20
227.8732370323
 11
118.4852965728
 21
227.5735938443
  0
LINE
  5
2C0
100
AcDbEntity
  8
0
100
AcDbLine
 62
7
  6
CONTINUOUS
 10
118.8990294253
 20
227.8669677729
 11
118.7774173914
 21
228.1064318362
  0
LINE
  5
2C1
100
AcDbEntity
  8
0
100
AcDbLine
 62
7
  6
CONTINUOUS
 10
145.2741215682
 20
174.7087598321
 11
145.1282887911
 21
175.1555683938
  0
LINE
  5
2C2
100
AcDbEntity
  8
0
100
AcDbLine
 62
7
  6
CONTINUOUS
 10
142.0657887911
 20
175.9002491561
 11
141.9199560141
 21
176.4959939745
  0
LINE
  5
2C3
100
AcDbEntity
  8
0
100
AcDbLine
 62
7
  6
CONTINUOUS
 10
141.9199560141
 20
179.0279089835
 11
141.7741215682
 21
179.6236535934
  0
LINE
  5
2C4
100
AcDbEntity
  8
0
100
AcDbLine
 62
7
  6
CONTINUOUS
 10
138.0970373606
 20
235.1662066606
 11
138.0970373606
 21
232.5279087451
  0
LINE
  5
2C5
100
AcDbEntity
  8
0
100
AcDbLine
 62
7
  6
CONTINUOUS
 10
138.5970373606
 20
232.5279087451
 11
138.5970373606
 21
235.1662066606
  0
LINE
  5
2C6
100
AcDbEntity
  8
0
100
AcDbLine
 62
7
  6
CONTINUOUS
 10
139.1491224026
 20
177.5385470417
 11
139.1491224026
 21
176.9428024319
  0
LINE
  5
2C7
100
AcDbEntity
  8
0
100
AcDbLine
 62
7
  6
CONTINUOUS
 10
139.2637038683
 20
235.1662066606
 11
139.2637038683
 21
231.1662066606
  0
LINE
  5
2C8
100
AcDbEntity
  8
BEZUGSACHSEN
100
AcDbLine
 62
7
  6
CONTINUOUS
 10
139.38944401
 20
192.4662066606
 11
139.38944401
 21
186.9595728003
  0
LINE
  5
2C9
100
AcDbEntity
  8
0
100
AcDbLine
 62
7
  6
CONTINUOUS
 10
139.7637038683
 20
231.6768449572
 11
139.7637038683
 21
234.6555684236
  0
LINE
  5
2CA
100
AcDbEntity
  8
0
100
AcDbLine
 62
7
  6
CONTINUOUS
 10
140.5867383948
 20
192.4662066606
 11
140.5867383948
 21
187.0262752608
  0
LINE
  5
2CB
100
AcDbEntity
  8
BEZUGSACHSEN
100
AcDbLine
 62
7
  6
CONTINUOUS
 10
141.1853855872
 20
192.4662066606
 11
141.1853855872
 21
187.0703417745
  0
LINE
  5
2CC
100
AcDbEntity
  8
0
100
AcDbLine
 62
7
  6
CONTINUOUS
 10
141.1907887911
 20
179.0279089835
 11
141.1907887911
 21
178.7300362614
  0
LINE
  5
2CD
100
AcDbEntity
  8
0
100
AcDbLine
 62
7
  6
CONTINUOUS
 10
141.3366224026
 20
175.9002491561
 11
141.3366224026
 21
175.3045045462
  0
LINE
  5
2CE
100
AcDbEntity
  8
0
100
AcDbLine
 62
7
  6
CONTINUOUS
 10
141.4303718066
 20
197.4662066606
 11
141.4303718066
 21
197.7662066606
  0
LINE
  5
2CF
100
AcDbEntity
  8
0
100
AcDbLine
 62
7
  6
CONTINUOUS
 10
141.9199560141
 20
178.7300362614
 11
141.9199560141
 21
179.0279089835
  0
LINE
  5
2D0
100
AcDbEntity
  8
0
100
AcDbLine
 62
7
  6
CONTINUOUS
 10
142.0657887911
 20
175.3045045462
 11
142.0657887911
 21
175.9002491561
  0
LINE
  5
2D1
100
AcDbEntity
  8
0
100
AcDbLine
 62
7
  6
CONTINUOUS
 10
142.0970368838
 20
233.8045044568
 11
142.0970368838
 21
232.5279087451
  0
LINE
  5
2D2
100
AcDbEntity
  8
0
100
AcDbLine
 62
7
  6
CONTINUOUS
 10
142.5970368838
 20
232.5279087451
 11
142.5970368838
 21
233.8045044568
  0
LINE
  5
2D3
100
AcDbEntity
  8
0
100
AcDbLine
 62
7
  6
CONTINUOUS
 10
143.2324560141
 20
178.4321639565
 11
143.2324560141
 21
177.8364193466
  0
LINE
  5
2D4
100
AcDbEntity
  8
BEZUGSACHSEN
100
AcDbLine
 62
7
  6
CONTINUOUS
 10
143.3944577906
 20
192.4662066606
 11
143.3944577906
 21
187.2954622798
  0
LINE
  5
2D5
100
AcDbEntity
  8
0
100
AcDbLine
 62
7
  6
CONTINUOUS
 10
143.993104983
 20
192.4662066606
 11
143.993104983
 21
187.3742618973
  0
LINE
  5
2D6
100
AcDbEntity
  8
0
100
AcDbLine
 62
7
  6
CONTINUOUS
 10
132.7324555969
 20
178.1342916516
 11
132.8782887911
 21
178.7300362614
  0
LINE
  5
2D7
100
AcDbEntity
  8
0
100
AcDbLine
 62
7
  6
CONTINUOUS
 10
137.1074551796
 20
179.6236535934
 11
136.9616224026
 21
179.0279089835
  0
LINE
  5
2D8
100
AcDbEntity
  8
0
100
AcDbLine
 62
7
  6
CONTINUOUS
 10
132.0032887911
 20
178.7300362614
 11
131.7116219854
 21
178.1342916516
  0
LINE
  5
2D9
100
AcDbEntity
  8
0
100
AcDbLine
 62
7
  6
CONTINUOUS
 10
128.5032887911
 20
179.0279089835
 11
128.7949554926
 21
179.4747174409
  0
LINE
  5
2DA
100
AcDbEntity
  8
0
100
AcDbLine
 62
7
  6
CONTINUOUS
 10
159.7726762804
 20
223.1476892913
 11
160.2072714103
 21
223.5822844213
  0
LINE
  5
2DB
100
AcDbEntity
  8
0
100
AcDbLine
 62
7
  6
CONTINUOUS
 10
158.8469210972
 20
221.6279644119
 11
159.2815162272
 21
222.0625595419
  0
LINE
  5
2DC
100
AcDbEntity
  8
0
100
AcDbLine
 62
7
  6
CONTINUOUS
 10
161.296212234
 20
224.0772555488
 11
161.730807364
 21
224.5118506788
  0
LINE
  5
2DD
100
AcDbEntity
  8
0
100
AcDbLine
 62
7
  6
CONTINUOUS
 10
112.1075447561
 20
222.5197864813
 11
115.8787809506
 21
220.6341684263
  0
LINE
  5
2DE
100
AcDbEntity
  8
0
100
AcDbLine
 62
7
  6
CONTINUOUS
 10
118.1179523962
 20
222.8733398719
 11
116.8541870672
 21
224.1371052009
  0
LINE
  5
2DF
100
AcDbEntity
  8
0
100
AcDbLine
 62
7
  6
CONTINUOUS
 10
116.4931113071
 20
224.498180961
 11
115.5904217382
 21
225.4008705299
  0
LINE
  5
2E0
100
AcDbEntity
  8
0
100
AcDbLine
 62
7
  6
CONTINUOUS
 10
117.4246367382
 20
226.5129340097
 11
117.6051747869
 21
226.332395961
  0
LINE
  5
2E1
100
AcDbEntity
  8
0
100
AcDbLine
 62
7
  6
CONTINUOUS
 10
118.0189074708
 20
226.6257700583
 11
117.7781901288
 21
226.8664874003
  0
LINE
  5
2E2
100
AcDbEntity
  8
0
100
AcDbLine
 62
7
  6
CONTINUOUS
 10
118.4852965728
 20
227.5735938443
 11
118.7260139148
 21
227.3328765023
  0
LINE
  5
2E3
100
AcDbEntity
  8
0
100
AcDbLine
 62
7
  6
CONTINUOUS
 10
119.0193880121
 20
227.7466091862
 11
118.8990294253
 21
227.8669677729
  0
LINE
  5
2E4
100
AcDbEntity
  8
0
100
AcDbLine
 62
7
  6
CONTINUOUS
 10
121.3989782584
 20
227.9597447033
 11
121.5795161385
 21
227.7792068233
  0
LINE
  5
2E5
100
AcDbEntity
  8
0
100
AcDbLine
 62
7
  6
CONTINUOUS
 10
136.1803703761
 20
232.1874832538
 11
136.0970373606
 21
232.5279087451
  0
LINE
  5
2E6
100
AcDbEntity
  8
0
100
AcDbLine
 62
7
  6
CONTINUOUS
 10
135.5970371222
 20
232.5279087451
 11
135.6803706145
 21
232.102376881
  0
LINE
  5
2E7
100
AcDbEntity
  8
0
100
AcDbLine
 62
7
  6
CONTINUOUS
 10
144.3991215682
 20
179.6236535934
 11
144.3991215682
 21
178.4321639565
  0
LINE
  5
2E8
100
AcDbEntity
  8
0
100
AcDbLine
 62
7
  6
CONTINUOUS
 10
144.3991215682
 20
177.8364193466
 11
144.3991215682
 21
174.8576959846
  0
LINE
  5
2E9
100
AcDbEntity
  8
0
100
AcDbLine
 62
7
  6
CONTINUOUS
 10
145.1282887911
 20
175.1555683938
 11
145.1282887911
 21
177.8364193466
  0
LINE
  5
2EA
100
AcDbEntity
  8
0
100
AcDbLine
 62
7
  6
CONTINUOUS
 10
145.1282887911
 20
178.4321639565
 11
145.1282887911
 21
179.6236535934
  0
LINE
  5
2EB
100
AcDbEntity
  8
0
100
AcDbLine
 62
7
  6
CONTINUOUS
 10
146.4407887911
 20
173.6662066606
 11
146.4407887911
 21
174.2619513226
  0
LINE
  5
2EC
100
AcDbEntity
  8
0
100
AcDbLine
 62
7
  6
CONTINUOUS
 10
146.7324560141
 20
177.8364193466
 11
146.7324560141
 21
178.4321639565
  0
LINE
  5
2ED
100
AcDbEntity
  8
KONSTRUKTIONSELEMENTE
100
AcDbLine
 62
7
  6
CONTINUOUS
 10
148.1803718066
 20
167.4662066606
 11
148.1803718066
 21
139.2162066606
  0
LINE
  5
2EE
100
AcDbEntity
  8
0
100
AcDbLine
 62
7
  6
CONTINUOUS
 10
141.7741215682
 20
178.1342916516
 11
141.9199560141
 21
178.7300362614
  0
LINE
  5
2EF
100
AcDbEntity
  8
0
100
AcDbLine
 62
7
  6
CONTINUOUS
 10
134.9199551796
 20
174.4108875272
 11
134.0449555969
 21
172.7725896415
  0
LINE
  5
2F0
100
AcDbEntity
  8
0
100
AcDbLine
 62
7
  6
CONTINUOUS
 10
134.7741224026
 20
172.7725896415
 11
135.6491224026
 21
174.4108875272
  0
LINE
  5
2F1
100
AcDbEntity
  8
0
100
AcDbLine
 62
7
  6
CONTINUOUS
 10
132.4407887911
 20
177.6874831942
 11
132.7324555969
 21
178.1342916516
  0
LINE
  5
2F2
100
AcDbEntity
  8
0
100
AcDbLine
 62
7
  6
CONTINUOUS
 10
128.5032887911
 20
180.2193982032
 11
127.9199554665
 21
179.6236535934
  0
LINE
  5
2F3
100
AcDbEntity
  8
0
100
AcDbLine
 62
7
  6
CONTINUOUS
 10
117.8559215615
 20
225.1388396952
 11
119.5910916361
 21
224.3464791118
  0
LINE
  5
2F4
100
AcDbEntity
  8
0
100
AcDbLine
 62
7
  6
CONTINUOUS
 10
115.7534073525
 20
221.2309464327
 11
112.4610981467
 21
222.8733398719
  0
LINE
  5
2F5
100
AcDbEntity
  8
0
100
AcDbLine
 62
7
  6
CONTINUOUS
 10
117.1851731807
 20
226.6345462122
 11
117.4246367382
 21
226.5129340097
  0
LINE
  5
2F6
100
AcDbEntity
  8
0
100
AcDbLine
 62
7
  6
CONTINUOUS
 10
117.7781901288
 20
226.8664874003
 11
117.5387265713
 21
226.9880996028
  0
LINE
  5
2F7
100
AcDbEntity
  8
0
100
AcDbLine
 62
7
  6
CONTINUOUS
 10
119.6926442147
 20
226.0126934862
 11
119.9922867284
 21
225.8309016531
  0
LINE
  5
2F8
100
AcDbEntity
  8
0
100
AcDbLine
 62
7
  6
CONTINUOUS
 10
118.7260139148
 20
227.3328765023
 11
119.0256571029
 21
227.1510853435
  0
LINE
  5
2F9
100
AcDbEntity
  8
0
100
AcDbLine
 62
7
  6
CONTINUOUS
 10
121.9932488224
 20
228.0725809205
 11
121.6923523557
 21
228.3734773873
  0
LINE
  5
2FA
100
AcDbEntity
  8
0
100
AcDbLine
 62
7
  6
CONTINUOUS
 10
135.6803706145
 20
232.102376881
 11
135.8470373606
 21
231.76195133
  0
LINE
  5
2FB
100
AcDbEntity
  8
0
100
AcDbLine
 62
7
  6
CONTINUOUS
 10
134.9303706145
 20
231.1662066606
 11
134.1803706145
 21
233.1236534742
  0
LINE
  5
2FC
100
AcDbEntity
  8
0
100
AcDbLine
 62
7
  6
CONTINUOUS
 10
133.6803704953
 20
232.9534407285
 11
134.3470371222
 21
231.1662066606
  0
LINE
  5
2FD
100
AcDbEntity
  8
0
100
AcDbLine
 62
7
  6
CONTINUOUS
 10
134.2637038683
 20
234.4853556779
 11
134.3470371222
 21
234.2300365594
  0
LINE
  5
2FE
100
AcDbEntity
  8
0
100
AcDbLine
 62
7
  6
CONTINUOUS
 10
134.8470371222
 20
234.2300365594
 11
134.7637038683
 21
234.4853556779
  0
LINE
  5
2FF
100
AcDbEntity
  8
0
100
AcDbLine
 62
7
  6
CONTINUOUS
 10
142.0137038683
 20
234.1449299482
 11
142.0970368838
 21
233.8045044568
  0
LINE
  5
300
100
AcDbEntity
  8
0
100
AcDbLine
 62
7
  6
CONTINUOUS
 10
142.5970368838
 20
233.8045044568
 11
142.5137038683
 21
234.2300365594
  0
LINE
  5
301
100
AcDbEntity
  8
KONSTRUKTIONSELEMENTE
100
AcDbLine
 62
7
  6
CONTINUOUS
 10
151.8303718066
 20
167.6662066606
 11
151.8303718066
 21
167.4662066606
  0
LINE
  5
302
100
AcDbEntity
  8
0
100
AcDbLine
 62
7
  6
CONTINUOUS
 10
141.9199560141
 20
174.8576959846
 11
142.0657887911
 21
175.3045045462
  0
LINE
  5
303
100
AcDbEntity
  8
0
100
AcDbLine
 62
7
  6
CONTINUOUS
 10
141.1907887911
 20
178.7300362614
 11
140.8991224026
 21
178.1342916516
  0
LINE
  5
304
100
AcDbEntity
  8
0
100
AcDbLine
 62
7
  6
CONTINUOUS
 10
141.3366224026
 20
175.3045045462
 11
141.1907887911
 21
175.0066322413
  0
LINE
  5
305
100
AcDbEntity
  8
0
100
AcDbLine
 62
7
  6
CONTINUOUS
 10
137.6907887911
 20
179.0279089835
 11
137.9824551796
 21
179.4747174409
  0
LINE
  5
306
100
AcDbEntity
  8
0
100
AcDbLine
 62
7
  6
CONTINUOUS
 10
141.4824551796
 20
177.6874831942
 11
141.7741215682
 21
178.1342916516
  0
LINE
  5
307
100
AcDbEntity
  8
0
100
AcDbLine
 62
7
  6
CONTINUOUS
 10
141.6282887911
 20
174.4108875272
 11
141.9199560141
 21
174.8576959846
  0
LINE
  5
308
100
AcDbEntity
  8
0
100
AcDbLine
 62
7
  6
CONTINUOUS
 10
137.6907887911
 20
180.2193982032
 11
137.1074551796
 21
179.6236535934
  0
LINE
  5
309
100
AcDbEntity
  8
0
100
AcDbLine
 62
7
  6
CONTINUOUS
 10
131.7116219854
 20
178.1342916516
 11
127.6282887911
 21
174.4108875272
  0
LINE
  5
30A
100
AcDbEntity
  8
0
100
AcDbLine
 62
7
  6
CONTINUOUS
 10
128.7949554926
 20
174.4108875272
 11
132.4407887911
 21
177.6874831942
  0
LINE
  5
30B
100
AcDbEntity
  8
0
100
AcDbLine
 62
7
  6
CONTINUOUS
 10
128.7949554926
 20
179.4747174409
 11
129.2324554926
 21
179.7725897458
  0
LINE
  5
30C
100
AcDbEntity
  8
0
100
AcDbLine
 62
7
  6
CONTINUOUS
 10
129.0866220897
 20
180.5172705081
 11
128.5032887911
 21
180.2193982032
  0
LINE
  5
30D
100
AcDbEntity
  8
0
100
AcDbLine
 62
7
  6
CONTINUOUS
 10
119.9922867284
 20
225.8309016531
 11
120.4699602909
 21
225.7067821555
  0
LINE
  5
30E
100
AcDbEntity
  8
0
100
AcDbLine
 62
7
  6
CONTINUOUS
 10
120.003570367
 20
224.7589578427
 11
118.0891163654
 21
225.6127516725
  0
LINE
  5
30F
100
AcDbEntity
  8
0
100
AcDbLine
 62
7
  6
CONTINUOUS
 10
120.2856611628
 20
226.2446346742
 11
120.0461972681
 21
226.3662465396
  0
LINE
  5
310
100
AcDbEntity
  8
0
100
AcDbLine
 62
7
  6
CONTINUOUS
 10
119.2588519068
 20
227.6249973208
 11
119.0193880121
 21
227.7466091862
  0
LINE
  5
311
100
AcDbEntity
  8
0
100
AcDbLine
 62
7
  6
CONTINUOUS
 10
120.3119895404
 20
229.4002868119
 11
120.0725256457
 21
229.5218986773
  0
LINE
  5
312
100
AcDbEntity
  8
0
100
AcDbLine
 62
7
  6
CONTINUOUS
 10
134.7637038683
 20
234.4853556779
 11
134.5137038683
 21
234.8257811693
  0
LINE
  5
313
100
AcDbEntity
  8
0
100
AcDbLine
 62
7
  6
CONTINUOUS
 10
136.3470373606
 20
231.9321641353
 11
136.1803703761
 21
232.1874832538
  0
LINE
  5
314
100
AcDbEntity
  8
0
100
AcDbLine
 62
7
  6
CONTINUOUS
 10
142.5137038683
 20
234.2300365594
 11
142.3470368838
 21
234.5704620508
  0
LINE
  5
315
100
AcDbEntity
  8
0
100
AcDbLine
 62
7
  6
CONTINUOUS
 10
140.8991224026
 20
178.1342916516
 11
140.6074551796
 21
177.8364193466
  0
LINE
  5
316
100
AcDbEntity
  8
0
100
AcDbLine
 62
7
  6
CONTINUOUS
 10
141.1907887911
 20
175.0066322413
 11
140.8991224026
 21
174.7087598321
  0
LINE
  5
317
100
AcDbEntity
  8
0
100
AcDbLine
 62
7
  6
CONTINUOUS
 10
140.8991224026
 20
177.2406747368
 11
141.4824551796
 21
177.6874831942
  0
LINE
  5
318
100
AcDbEntity
  8
0
100
AcDbLine
 62
7
  6
CONTINUOUS
 10
137.9824551796
 20
179.4747174409
 11
138.4199551796
 21
179.7725897458
  0
LINE
  5
319
100
AcDbEntity
  8
0
100
AcDbLine
 62
7
  6
CONTINUOUS
 10
138.2741224026
 20
180.5172705081
 11
137.6907887911
 21
180.2193982032
  0
LINE
  5
31A
100
AcDbEntity
  8
0
100
AcDbLine
 62
7
  6
CONTINUOUS
 10
140.6074551796
 20
177.8364193466
 11
139.7324551796
 21
177.5385470417
  0
LINE
  5
31B
100
AcDbEntity
  8
0
100
AcDbLine
 62
7
  6
CONTINUOUS
 10
120.6429757803
 20
226.2408734473
 11
120.2856611628
 21
226.2446346742
  0
LINE
  5
31C
100
AcDbEntity
  8
0
100
AcDbLine
 62
7
  6
CONTINUOUS
 10
116.9469635762
 20
226.6370537811
 11
117.1851731807
 21
226.6345462122
  0
LINE
  5
31D
100
AcDbEntity
  8
0
100
AcDbLine
 62
7
  6
CONTINUOUS
 10
119.0256571029
 20
227.1510853435
 11
119.5020763119
 21
227.1460702057
  0
LINE
  5
31E
100
AcDbEntity
  8
0
100
AcDbLine
 62
7
  6
CONTINUOUS
 10
117.5387265713
 20
226.9880996028
 11
117.1212327025
 21
227.0520400809
  0
LINE
  5
31F
100
AcDbEntity
  8
0
100
AcDbLine
 62
7
  6
CONTINUOUS
 10
120.0725256457
 20
229.5218986773
 11
119.655031777
 21
229.5858391554
  0
LINE
  5
320
100
AcDbEntity
  8
0
100
AcDbLine
 62
7
  6
CONTINUOUS
 10
121.1005889391
 20
228.0224313127
 11
121.3989782584
 21
227.9597447033
  0
LINE
  5
321
100
AcDbEntity
  8
0
100
AcDbLine
 62
7
  6
CONTINUOUS
 10
121.6923523557
 20
228.3734773873
 11
121.333783743
 21
228.49634329
  0
LINE
  5
322
100
AcDbEntity
  8
0
100
AcDbLine
 62
7
  6
CONTINUOUS
 10
119.7791515485
 20
229.1081659933
 11
119.9584361499
 21
229.0467334213
  0
LINE
  5
323
100
AcDbEntity
  8
0
100
AcDbLine
 62
7
  6
CONTINUOUS
 10
136.1803703761
 20
231.4215258089
 11
136.5137038683
 21
231.2513130409
  0
LINE
  5
324
100
AcDbEntity
  8
0
100
AcDbLine
 62
7
  6
CONTINUOUS
 10
136.5970373606
 20
231.76195133
 11
136.3470373606
 21
231.9321641353
  0
LINE
  5
325
100
AcDbEntity
  8
0
100
AcDbLine
 62
7
  6
CONTINUOUS
 10
134.5137038683
 20
234.8257811693
 11
134.1803706145
 21
235.0811002878
  0
LINE
  5
326
100
AcDbEntity
  8
0
100
AcDbLine
 62
7
  6
CONTINUOUS
 10
135.8470373606
 20
231.76195133
 11
136.1803703761
 21
231.4215258089
  0
LINE
  5
327
100
AcDbEntity
  8
0
100
AcDbLine
 62
7
  6
CONTINUOUS
 10
134.0970371222
 20
234.6555684236
 11
134.2637038683
 21
234.4853556779
  0
LINE
  5
328
100
AcDbEntity
  8
0
100
AcDbLine
 62
7
  6
CONTINUOUS
 10
141.8470368838
 20
234.4002493051
 11
142.0137038683
 21
234.1449299482
  0
LINE
  5
329
100
AcDbEntity
  8
0
100
AcDbLine
 62
7
  6
CONTINUOUS
 10
141.1907887911
 20
174.1130151701
 11
141.6282887911
 21
174.4108875272
  0
LINE
  5
32A
100
AcDbEntity
  8
0
100
AcDbLine
 62
7
  6
CONTINUOUS
 10
140.8991224026
 20
174.7087598321
 11
140.6074551796
 21
174.5598236796
  0
LINE
  5
32B
100
AcDbEntity
  8
0
100
AcDbLine
 62
7
  6
CONTINUOUS
 10
140.6074551796
 20
173.8151428261
 11
141.1907887911
 21
174.1130151701
  0
LINE
  5
32C
100
AcDbEntity
  8
0
100
AcDbLine
 62
7
  6
CONTINUOUS
 10
141.5970368838
 20
231.76195133
 11
141.2637038683
 21
231.6768449572
  0
LINE
  5
32D
100
AcDbEntity
  8
0
100
AcDbLine
 62
7
  6
CONTINUOUS
 10
137.5970373606
 20
231.76195133
 11
137.2637038683
 21
231.6768449572
  0
LINE
  5
32E
100
AcDbEntity
  8
0
100
AcDbLine
 62
7
  6
CONTINUOUS
 10
120.4699602909
 20
225.7067821555
 11
120.9451255627
 21
225.8208716356
  0
LINE
  5
32F
100
AcDbEntity
  8
0
100
AcDbLine
 62
7
  6
CONTINUOUS
 10
141.2637038683
 20
231.1662066606
 11
141.6803708529
 21
231.2513130409
  0
LINE
  5
330
100
AcDbEntity
  8
0
100
AcDbLine
 62
7
  6
CONTINUOUS
 10
137.2637038683
 20
231.1662066606
 11
137.6803703761
 21
231.2513130409
  0
LINE
  5
331
100
AcDbEntity
  8
0
100
AcDbLine
 62
7
  6
CONTINUOUS
 10
119.5559871888
 20
227.6814154294
 11
119.2588519068
 21
227.6249973208
  0
LINE
  5
332
100
AcDbEntity
  8
0
100
AcDbLine
 62
7
  6
CONTINUOUS
 10
120.8034536571
 20
227.9660132041
 11
121.1005889391
 21
228.0224313127
  0
LINE
  5
333
100
AcDbEntity
  8
0
100
AcDbLine
 62
7
  6
CONTINUOUS
 10
117.1212327025
 20
227.0520400809
 11
116.7049924497
 21
226.9968755882
  0
LINE
  5
334
100
AcDbEntity
  8
0
100
AcDbLine
 62
7
  6
CONTINUOUS
 10
119.655031777
 20
229.5858391554
 11
119.2387918613
 21
229.5306749998
  0
LINE
  5
335
100
AcDbEntity
  8
0
100
AcDbLine
 62
7
  6
CONTINUOUS
 10
131.7637038683
 20
231.1662066606
 11
132.2637038683
 21
231.1662066606
  0
LINE
  5
336
100
AcDbEntity
  8
0
100
AcDbLine
 62
7
  6
CONTINUOUS
 10
134.3470371222
 20
231.1662066606
 11
134.9303706145
 21
231.1662066606
  0
LINE
  5
337
100
AcDbEntity
  8
0
100
AcDbLine
 62
7
  6
CONTINUOUS
 10
136.9303703761
 20
231.1662066606
 11
137.2637038683
 21
231.1662066606
  0
LINE
  5
338
100
AcDbEntity
  8
0
100
AcDbLine
 62
7
  6
CONTINUOUS
 10
139.2637038683
 20
231.1662066606
 11
141.2637038683
 21
231.1662066606
  0
LINE
  5
339
100
AcDbEntity
  8
0
100
AcDbLine
 62
7
  6
CONTINUOUS
 10
141.2637038683
 20
231.6768449572
 11
139.7637038683
 21
231.6768449572
  0
LINE
  5
33A
100
AcDbEntity
  8
0
100
AcDbLine
 62
7
  6
CONTINUOUS
 10
137.2637038683
 20
231.6768449572
 11
136.9303703761
 21
231.6768449572
  0
LINE
  5
33B
100
AcDbEntity
  8
0
100
AcDbLine
 62
7
  6
CONTINUOUS
 10
132.2637038683
 20
232.9534407285
 11
133.6803704953
 21
232.9534407285
  0
LINE
  5
33C
100
AcDbEntity
  8
0
100
AcDbLine
 62
7
  6
CONTINUOUS
 10
133.8470371222
 20
233.4640789655
 11
132.2637038683
 21
233.4640789655
  0
LINE
  5
33D
100
AcDbEntity
  8
0
100
AcDbLine
 62
7
  6
CONTINUOUS
 10
121.333783743
 20
228.49634329
 11
120.857364534
 21
228.5013584278
  0
LINE
  5
33E
100
AcDbEntity
  8
0
100
AcDbLine
 62
7
  6
CONTINUOUS
 10
119.5409422811
 20
229.1106738994
 11
119.7791515485
 21
229.1081659933
  0
LINE
  5
33F
100
AcDbEntity
  8
0
100
AcDbLine
 62
7
  6
CONTINUOUS
 10
136.5137038683
 20
231.2513130409
 11
136.9303703761
 21
231.1662066606
  0
LINE
  5
340
100
AcDbEntity
  8
0
100
AcDbLine
 62
7
  6
CONTINUOUS
 10
134.1803706145
 20
235.0811002878
 11
133.7637038683
 21
235.1662066606
  0
LINE
  5
341
100
AcDbEntity
  8
0
100
AcDbLine
 62
7
  6
CONTINUOUS
 10
136.9303703761
 20
231.6768449572
 11
136.5970373606
 21
231.76195133
  0
LINE
  5
342
100
AcDbEntity
  8
0
100
AcDbLine
 62
7
  6
CONTINUOUS
 10
133.8470371222
 20
234.7406747964
 11
134.0970371222
 21
234.6555684236
  0
LINE
  5
343
100
AcDbEntity
  8
0
100
AcDbLine
 62
7
  6
CONTINUOUS
 10
142.0137038683
 20
234.9108875421
 11
141.6803708529
 21
235.0811002878
  0
LINE
  5
344
100
AcDbEntity
  8
0
100
AcDbLine
 62
7
  6
CONTINUOUS
 10
141.5970368838
 20
234.5704620508
 11
141.8470368838
 21
234.4002493051
  0
LINE
  5
345
100
AcDbEntity
  8
0
100
AcDbLine
 62
7
  6
CONTINUOUS
 10
158.6521194093
 20
221.8088791548
 11
158.8469210972
 21
221.6279644119
  0
LINE
  5
346
100
AcDbEntity
  8
0
100
AcDbLine
 62
7
  6
CONTINUOUS
 10
156.1921194093
 20
224.2688791548
 11
156.3869210972
 21
224.0879644119
  0
LINE
  5
347
100
AcDbEntity
  8
0
100
AcDbLine
 62
7
  6
CONTINUOUS
 10
158.9268096143
 20
223.9935559573
 11
159.7726762804
 21
223.1476892913
  0
LINE
  5
348
100
AcDbEntity
  8
0
100
AcDbLine
 62
7
  6
CONTINUOUS
 10
160.2072714103
 20
223.5822844213
 11
159.3605722577
 21
224.4289835739
  0
LINE
  5
349
100
AcDbEntity
  8
0
100
AcDbLine
 62
7
  6
CONTINUOUS
 10
142.3470368838
 20
234.5704620508
 11
142.0137038683
 21
234.9108875421
  0
LINE
  5
34A
100
AcDbEntity
  8
BEZUGSACHSEN
100
AcDbLine
 62
7
  6
CONTINUOUS
 10
171.1803718066
 20
191.6662066606
 11
171.1803718066
 21
183.6662066606
  0
LINE
  5
34B
100
AcDbEntity
  8
BEZUGSACHSEN
100
AcDbLine
 62
7
  6
CONTINUOUS
 10
174.9365662736
 20
202.9890347766
 11
172.6489359653
 21
197.4662066606
  0
LINE
  5
34C
100
AcDbEntity
  8
0
100
AcDbLine
 62
7
  6
CONTINUOUS
 10
139.7637038683
 20
234.6555684236
 11
141.2637038683
 21
234.6555684236
  0
LINE
  5
34D
100
AcDbEntity
  8
0
100
AcDbLine
 62
7
  6
CONTINUOUS
 10
132.2637038683
 20
234.7406747964
 11
133.8470371222
 21
234.7406747964
  0
LINE
  5
34E
100
AcDbEntity
  8
0
100
AcDbLine
 62
7
  6
CONTINUOUS
 10
141.2637038683
 20
235.1662066606
 11
139.2637038683
 21
235.1662066606
  0
LINE
  5
34F
100
AcDbEntity
  8
0
100
AcDbLine
 62
7
  6
CONTINUOUS
 10
138.5970373606
 20
235.1662066606
 11
138.0970373606
 21
235.1662066606
  0
LINE
  5
350
100
AcDbEntity
  8
0
100
AcDbLine
 62
7
  6
CONTINUOUS
 10
136.0970373606
 20
235.1662066606
 11
135.5970371222
 21
235.1662066606
  0
LINE
  5
351
100
AcDbEntity
  8
0
100
AcDbLine
 62
7
  6
CONTINUOUS
 10
133.7637038683
 20
235.1662066606
 11
131.7637038683
 21
235.1662066606
  0
LINE
  5
352
100
AcDbEntity
  8
0
100
AcDbLine
 62
7
  6
CONTINUOUS
 10
141.6803708529
 20
235.0811002878
 11
141.2637038683
 21
235.1662066606
  0
LINE
  5
353
100
AcDbEntity
  8
0
100
AcDbLine
 62
7
  6
CONTINUOUS
 10
141.2637038683
 20
234.6555684236
 11
141.5970368838
 21
234.5704620508
  0
LINE
  5
354
100
AcDbEntity
  8
RUNDUNGEN
100
AcDbLine
 62
7
  6
CONTINUOUS
 10
138.3284221037
 20
241.6906686572
 11
163.1675442375
 21
231.401967392
  0
LINE
  5
355
100
AcDbEntity
  8
RUNDUNGEN
100
AcDbLine
 62
7
  6
CONTINUOUS
 10
164.7911325379
 20
229.7783790915
 11
174.6811314551
 21
205.9018095738
  0
LINE
  5
356
100
AcDbEntity
  8
BEZUGSACHSEN
100
AcDbLine
 62
7
  6
CONTINUOUS
 10
174.6811314551
 20
205.9018095738
 11
174.9365662736
 21
205.2851353708
  0
LINE
  5
357
100
AcDbEntity
  8
RUNDUNGEN
100
AcDbLine
 62
7
  6
CONTINUOUS
 10
180.1803718066
 20
196.4662066606
 11
180.1803718066
 21
193.4662066606
  0
LINE
  5
358
100
AcDbEntity
  8
KONSTRUKTIONSELEMENTE
100
AcDbLine
 62
7
  6
CONTINUOUS
 10
148.1803718066
 20
139.2162066606
 11
146.4303718066
 21
137.4662066606
  0
LINE
  5
359
100
AcDbEntity
  8
KONSTRUKTIONSELEMENTE
100
AcDbLine
 62
7
  6
CONTINUOUS
 10
252.5143149629
 20
137.4662066606
 11
271.0138107072
 21
137.4662066606
  0
LINE
  5
35A
100
AcDbEntity
  8
KONSTRUKTIONSELEMENTE
100
AcDbLine
 62
7
  6
CONTINUOUS
 10
250.7640628351
 20
139.2162066606
 11
272.7640628351
 21
139.2162066606
  0
LINE
  5
35B
100
AcDbEntity
  8
KONSTRUKTIONSELEMENTE
100
AcDbLine
 62
7
  6
CONTINUOUS
 10
250.7640628351
 20
139.2162066606
 11
252.5140628351
 21
137.4662066606
  0
LINE
  5
35C
100
AcDbEntity
  8
0
100
AcDbLine
 62
7
  6
CONTINUOUS
 10
237.0626908893
 20
179.698121513
 11
237.1481605264
 21
179.4185646946
  0
LINE
  5
35D
100
AcDbEntity
  8
BEZUGSACHSEN
100
AcDbLine
 62
7
  6
CONTINUOUS
 10
236.9516398203
 20
181.7715067706
 11
237.2895639761
 21
180.6662066606
  0
LINE
  5
35E
100
AcDbEntity
  8
BEZUGSACHSEN
100
AcDbLine
 62
7
  6
CONTINUOUS
 10
239.4296787463
 20
173.6662066606
 11
241.2640628351
 21
167.6662066606
  0
LINE
  5
35F
100
AcDbEntity
  8
0
100
AcDbLine
 62
7
  6
CONTINUOUS
 10
240.2640628351
 20
193.4662066606
 11
240.2640628351
 21
196.4662066606
  0
LINE
  5
360
100
AcDbEntity
  8
KONSTRUKTIONSELEMENTE
100
AcDbLine
 62
7
  6
CONTINUOUS
 10
247.1143188967
 20
167.4662066606
 11
276.4138067735
 21
167.4662066606
  0
LINE
  5
361
100
AcDbEntity
  8
BEZUGSACHSEN
100
AcDbLine
 62
7
  6
CONTINUOUS
 10
241.2642062359
 20
167.6662066606
 11
282.2639194342
 21
167.6662066606
  0
LINE
  5
362
100
AcDbEntity
  8
0
100
AcDbLine
 62
7
  6
CONTINUOUS
 10
239.7028848865
 20
172.7725896415
 11
239.276826763
 21
172.7725896415
  0
LINE
  5
363
100
AcDbEntity
  8
0
100
AcDbLine
 62
7
  6
CONTINUOUS
 10
283.6572670806
 20
172.7725896415
 11
284.2512989072
 21
172.7725896415
  0
LINE
  5
364
100
AcDbEntity
  8
KONSTRUKTIONSELEMENTE
100
AcDbLine
 62
7
  6
CONTINUOUS
 10
247.1140628351
 20
167.6662066606
 11
247.1140628351
 21
167.4662066606
  0
LINE
  5
365
100
AcDbEntity
  8
0
100
AcDbLine
 62
7
  6
CONTINUOUS
 10
240.9197437605
 20
173.6662066606
 11
240.3664736357
 21
173.6662066606
  0
LINE
  5
366
100
AcDbEntity
  8
0
100
AcDbLine
 62
7
  6
CONTINUOUS
 10
238.9528283222
 20
173.6662066606
 11
239.5649441237
 21
173.6662066606
  0
LINE
  5
367
100
AcDbEntity
  8
0
100
AcDbLine
 62
7
  6
CONTINUOUS
 10
282.5089020672
 20
173.6662066606
 11
284.3159378615
 21
173.6662066606
  0
LINE
  5
368
100
AcDbEntity
  8
0
100
AcDbLine
 62
7
  6
CONTINUOUS
 10
284.5603191812
 20
173.6662066606
 11
284.575297348
 21
173.6662066606
  0
LINE
  5
369
100
AcDbEntity
  8
0
100
AcDbLine
 62
7
  6
CONTINUOUS
 10
239.5803475889
 20
173.8151428261
 11
239.0537621401
 21
173.8151428261
  0
LINE
  5
36A
100
AcDbEntity
  8
0
100
AcDbLine
 62
7
  6
CONTINUOUS
 10
284.6109999963
 20
173.8151428261
 11
284.6473535995
 21
173.8151428261
  0
LINE
  5
36B
100
AcDbEntity
  8
0
100
AcDbLine
 62
7
  6
CONTINUOUS
 10
239.5605937306
 20
174.1130151701
 11
239.0326594213
 21
174.1130151701
  0
LINE
  5
36C
100
AcDbEntity
  8
0
100
AcDbLine
 62
7
  6
CONTINUOUS
 10
284.7116054042
 20
174.1130151701
 11
284.7536875611
 21
174.1130151701
  0
LINE
  5
36D
100
AcDbEntity
  8
0
100
AcDbLine
 62
7
  6
CONTINUOUS
 10
240.7177700438
 20
174.2619513226
 11
240.1652657135
 21
174.2619513226
  0
LINE
  5
36E
100
AcDbEntity
  8
0
100
AcDbLine
 62
7
  6
CONTINUOUS
 10
240.4381117806
 20
174.4108875272
 11
239.8906951102
 21
174.4108875272
  0
LINE
  5
36F
100
AcDbEntity
  8
0
100
AcDbLine
 62
7
  6
CONTINUOUS
 10
239.5295283596
 20
174.4108875272
 11
239.0004684677
 21
174.4108875272
  0
LINE
  5
370
100
AcDbEntity
  8
0
100
AcDbLine
 62
7
  6
CONTINUOUS
 10
238.7965775076
 20
174.4108875272
 11
238.7326277138
 21
174.4108875272
  0
LINE
  5
371
100
AcDbEntity
  8
0
100
AcDbLine
 62
7
  6
CONTINUOUS
 10
282.7629992567
 20
174.4108875272
 11
283.3174418648
 21
174.4108875272
  0
LINE
  5
372
100
AcDbEntity
  8
0
100
AcDbLine
 62
7
  6
CONTINUOUS
 10
283.6797995488
 20
174.4108875272
 11
284.848879334
 21
174.4108875272
  0
LINE
  5
373
100
AcDbEntity
  8
0
100
AcDbLine
 62
7
  6
CONTINUOUS
 10
238.8229544754
 20
174.5598236796
 11
238.6527781763
 21
174.5598236796
  0
LINE
  5
374
100
AcDbEntity
  8
0
100
AcDbLine
 62
7
  6
CONTINUOUS
 10
240.2123976835
 20
174.7087598321
 11
239.6679264633
 21
174.7087598321
  0
LINE
  5
375
100
AcDbEntity
  8
0
100
AcDbLine
 62
7
  6
CONTINUOUS
 10
238.810541307
 20
174.7087598321
 11
238.5983514325
 21
174.7087598321
  0
LINE
  5
376
100
AcDbEntity
  8
0
100
AcDbLine
 62
7
  6
CONTINUOUS
 10
239.3935673548
 20
174.8576959846
 11
238.9043225556
 21
174.8576959846
  0
LINE
  5
377
100
AcDbEntity
  8
0
100
AcDbLine
 62
7
  6
CONTINUOUS
 10
284.4619476203
 20
174.8576959846
 11
284.9848078718
 21
174.8576959846
  0
LINE
  5
378
100
AcDbEntity
  8
0
100
AcDbLine
 62
7
  6
CONTINUOUS
 10
238.7543613893
 20
175.0066322413
 11
238.501148383
 21
175.0066322413
  0
LINE
  5
379
100
AcDbEntity
  8
0
100
AcDbLine
 62
7
  6
CONTINUOUS
 10
240.0248517393
 20
175.1555683938
 11
239.4816027701
 21
175.1555683938
  0
LINE
  5
37A
100
AcDbEntity
  8
0
100
AcDbLine
 62
7
  6
CONTINUOUS
 10
239.248762093
 20
175.3045045462
 11
238.7868712732
 21
175.3045045462
  0
LINE
  5
37B
100
AcDbEntity
  8
0
100
AcDbLine
 62
7
  6
CONTINUOUS
 10
238.6807307654
 20
175.3045045462
 11
238.4080449133
 21
175.3045045462
  0
LINE
  5
37C
100
AcDbEntity
  8
0
100
AcDbLine
 62
7
  6
CONTINUOUS
 10
284.5971957106
 20
175.3045045462
 11
285.120080761
 21
175.3045045462
  0
LINE
  5
37D
100
AcDbEntity
  8
0
100
AcDbLine
 62
7
  6
CONTINUOUS
 10
239.055860798
 20
175.9002491561
 11
238.5998540111
 21
175.9002491561
  0
LINE
  5
37E
100
AcDbEntity
  8
0
100
AcDbLine
 62
7
  6
CONTINUOUS
 10
284.7814622584
 20
175.9002491561
 11
285.0330611644
 21
175.9002491561
  0
LINE
  5
37F
100
AcDbEntity
  8
0
100
AcDbLine
 62
7
  6
CONTINUOUS
 10
238.8631680918
 20
176.4959939745
 11
238.3908451418
 21
176.4959939745
  0
LINE
  5
380
100
AcDbEntity
  8
0
100
AcDbLine
 62
7
  6
CONTINUOUS
 10
284.9635997277
 20
176.4959939745
 11
285.255220506
 21
176.4959939745
  0
LINE
  5
381
100
AcDbEntity
  8
0
100
AcDbLine
 62
7
  6
CONTINUOUS
 10
285.0649431645
 20
176.7938662794
 11
285.397167285
 21
176.7938662794
  0
LINE
  5
382
100
AcDbEntity
  8
0
100
AcDbLine
 62
7
  6
CONTINUOUS
 10
238.7187681486
 20
176.9428024319
 11
238.2092382612
 21
176.9428024319
  0
LINE
  5
383
100
AcDbEntity
  8
0
100
AcDbLine
 62
7
  6
CONTINUOUS
 10
237.964094007
 20
176.9428024319
 11
238.0044401264
 21
176.9428024319
  0
LINE
  5
384
100
AcDbEntity
  8
0
100
AcDbLine
 62
7
  6
CONTINUOUS
 10
285.1418329648
 20
176.9428024319
 11
285.5640316632
 21
176.9428024319
  0
LINE
  5
385
100
AcDbEntity
  8
0
100
AcDbLine
 62
7
  6
CONTINUOUS
 10
238.551263388
 20
177.2406747368
 11
238.0245845326
 21
177.2406747368
  0
LINE
  5
386
100
AcDbEntity
  8
0
100
AcDbLine
 62
7
  6
CONTINUOUS
 10
237.8210354465
 20
177.5385470417
 11
237.7812009879
 21
177.5385470417
  0
LINE
  5
387
100
AcDbEntity
  8
0
100
AcDbLine
 62
7
  6
CONTINUOUS
 10
285.4374891746
 20
177.5385470417
 11
285.7469246822
 21
177.5385470417
  0
LINE
  5
388
100
AcDbEntity
  8
0
100
AcDbLine
 62
7
  6
CONTINUOUS
 10
238.4851923744
 20
177.6874831942
 11
237.9572734956
 21
177.6874831942
  0
LINE
  5
389
100
AcDbEntity
  8
0
100
AcDbLine
 62
7
  6
CONTINUOUS
 10
238.1890411625
 20
177.8364193466
 11
238.4302861192
 21
177.8364193466
  0
LINE
  5
38A
100
AcDbEntity
  8
0
100
AcDbLine
 62
7
  6
CONTINUOUS
 10
238.604565329
 20
177.8364193466
 11
239.6045541132
 21
177.8364193466
  0
LINE
  5
38B
100
AcDbEntity
  8
0
100
AcDbLine
 62
7
  6
CONTINUOUS
 10
285.5708671754
 20
177.8364193466
 11
285.7198920992
 21
177.8364193466
  0
LINE
  5
38C
100
AcDbEntity
  8
KONSTRUKTIONSELEMENTE
100
AcDbLine
 62
7
  6
CONTINUOUS
 10
250.7640628351
 20
167.4662066606
 11
250.7640628351
 21
139.2162066606
  0
LINE
  5
38D
100
AcDbEntity
  8
BEZUGSACHSEN
100
AcDbLine
 62
7
  6
CONTINUOUS
 10
253.7640628351
 20
196.5178669663
 11
253.7640628351
 21
238.9190300597
  0
LINE
  5
38E
100
AcDbEntity
  8
0
100
AcDbLine
 62
7
  6
CONTINUOUS
 10
238.0944814576
 20
178.1342916516
 11
237.8573316112
 21
178.1342916516
  0
LINE
  5
38F
100
AcDbEntity
  8
0
100
AcDbLine
 62
7
  6
CONTINUOUS
 10
285.0056797349
 20
178.1342916516
 11
285.536709121
 21
178.1342916516
  0
LINE
  5
390
100
AcDbEntity
  8
0
100
AcDbLine
 62
7
  6
CONTINUOUS
 10
285.6907799816
 20
178.1342916516
 11
285.7807223568
 21
178.1342916516
  0
LINE
  5
391
100
AcDbEntity
  8
0
100
AcDbLine
 62
7
  6
CONTINUOUS
 10
239.4039954969
 20
178.4321639565
 11
238.4103117491
 21
178.4321639565
  0
LINE
  5
392
100
AcDbEntity
  8
0
100
AcDbLine
 62
7
  6
CONTINUOUS
 10
238.2382036312
 20
178.4321639565
 11
237.9999532002
 21
178.4321639565
  0
LINE
  5
393
100
AcDbEntity
  8
0
100
AcDbLine
 62
7
  6
CONTINUOUS
 10
238.1422324465
 20
178.7300362614
 11
237.6916405368
 21
178.7300362614
  0
LINE
  5
394
100
AcDbEntity
  8
0
100
AcDbLine
 62
7
  6
CONTINUOUS
 10
285.2413073554
 20
178.7300362614
 11
285.7712839137
 21
178.7300362614
  0
LINE
  5
395
100
AcDbEntity
  8
0
100
AcDbLine
 62
7
  6
CONTINUOUS
 10
285.8957024685
 20
178.7300362614
 11
285.9318852739
 21
178.7300362614
  0
LINE
  5
396
100
AcDbEntity
  8
0
100
AcDbLine
 62
7
  6
CONTINUOUS
 10
238.0463005129
 20
179.0279089835
 11
237.5984944561
 21
179.0279089835
  0
LINE
  5
397
100
AcDbEntity
  8
0
100
AcDbLine
 62
7
  6
CONTINUOUS
 10
237.5036848956
 20
179.0279089835
 11
237.2713721659
 21
179.0279089835
  0
LINE
  5
398
100
AcDbEntity
  8
0
100
AcDbLine
 62
7
  6
CONTINUOUS
 10
284.3688629113
 20
179.0279089835
 11
285.1237164836
 21
179.0279089835
  0
LINE
  5
399
100
AcDbEntity
  8
0
100
AcDbLine
 62
7
  6
CONTINUOUS
 10
285.3349402549
 20
179.0279089835
 11
285.86483295
 21
179.0279089835
  0
LINE
  5
39A
100
AcDbEntity
  8
0
100
AcDbLine
 62
7
  6
CONTINUOUS
 10
285.9884821562
 20
179.0279089835
 11
286.2598366418
 21
179.0279089835
  0
LINE
  5
39B
100
AcDbEntity
  8
0
100
AcDbLine
 62
7
  6
CONTINUOUS
 10
237.3318278837
 20
179.4747174409
 11
237.1402361259
 21
179.4747174409
  0
LINE
  5
39C
100
AcDbEntity
  8
0
100
AcDbLine
 62
7
  6
CONTINUOUS
 10
285.4284047261
 20
179.4747174409
 11
285.9590097926
 21
179.4747174409
  0
LINE
  5
39D
100
AcDbEntity
  8
0
100
AcDbLine
 62
7
  6
CONTINUOUS
 10
238.5623304751
 20
179.6236535934
 11
237.3922314601
 21
179.6236535934
  0
LINE
  5
39E
100
AcDbEntity
  8
0
100
AcDbLine
 62
7
  6
CONTINUOUS
 10
284.6113461835
 20
179.6236535934
 11
285.1579824963
 21
179.6236535934
  0
LINE
  5
39F
100
AcDbEntity
  8
0
100
AcDbLine
 62
7
  6
CONTINUOUS
 10
286.155269437
 20
179.6236535934
 11
286.4425911174
 21
179.6236535934
  0
LINE
  5
3A0
100
AcDbEntity
  8
0
100
AcDbLine
 62
7
  6
CONTINUOUS
 10
237.1950129433
 20
179.7725897458
 11
237.0618901868
 21
179.7725897458
  0
LINE
  5
3A1
100
AcDbEntity
  8
0
100
AcDbLine
 62
7
  6
CONTINUOUS
 10
285.5540878225
 20
179.7725897458
 11
285.9790779664
 21
179.7725897458
  0
LINE
  5
3A2
100
AcDbEntity
  8
0
100
AcDbLine
 62
7
  6
CONTINUOUS
 10
237.0497608306
 20
179.9215258983
 11
237.0876378752
 21
179.9215258983
  0
LINE
  5
3A3
100
AcDbEntity
  8
0
100
AcDbLine
 62
7
  6
CONTINUOUS
 10
285.7693536502
 20
179.9215258983
 11
285.8903126097
 21
179.9215258983
  0
LINE
  5
3A4
100
AcDbEntity
  8
0
100
AcDbLine
 62
7
  6
CONTINUOUS
 10
237.6604098461
 20
180.2193982032
 11
237.1335929695
 21
180.2193982032
  0
LINE
  5
3A5
100
AcDbEntity
  8
0
100
AcDbLine
 62
7
  6
CONTINUOUS
 10
284.9727690649
 20
180.2193982032
 11
285.5157465461
 21
180.2193982032
  0
LINE
  5
3A6
100
AcDbEntity
  8
0
100
AcDbLine
 62
7
  6
CONTINUOUS
 10
286.2605343595
 20
180.2193982032
 11
286.6211236647
 21
180.2193982032
  0
LINE
  5
3A7
100
AcDbEntity
  8
0
100
AcDbLine
 62
7
  6
CONTINUOUS
 10
237.5046160209
 20
180.5172705081
 11
236.9789239352
 21
180.5172705081
  0
LINE
  5
3A8
100
AcDbEntity
  8
0
100
AcDbLine
 62
7
  6
CONTINUOUS
 10
285.2209999207
 20
180.5172705081
 11
285.7609437731
 21
180.5172705081
  0
LINE
  5
3A9
100
AcDbEntity
  8
0
100
AcDbLine
 62
7
  6
CONTINUOUS
 10
286.263585924
 20
180.5172705081
 11
286.6990479123
 21
180.5172705081
  0
LINE
  5
3AA
100
AcDbEntity
  8
0
100
AcDbLine
 62
7
  6
CONTINUOUS
 10
237.3725079039
 20
180.6662066606
 11
236.8482810342
 21
180.6662066606
  0
LINE
  5
3AB
100
AcDbEntity
  8
0
100
AcDbLine
 62
7
  6
CONTINUOUS
 10
285.5038999343
 20
180.6662066606
 11
286.1558906711
 21
180.6662066606
  0
LINE
  5
3AC
100
AcDbEntity
  8
0
100
AcDbLine
 62
7
  6
CONTINUOUS
 10
286.2385616941
 20
180.6662066606
 11
286.6984899357
 21
180.6662066606
  0
LINE
  5
3AD
100
AcDbEntity
  8
RUNDUNGEN
100
AcDbLine
 62
7
  6
CONTINUOUS
 10
282.2639897371
 20
192.4662066606
 11
270.8677721016
 21
192.4662066606
  0
LINE
  5
3AE
100
AcDbEntity
  8
RUNDUNGEN
100
AcDbLine
 62
7
  6
CONTINUOUS
 10
252.6611590336
 20
192.4662066606
 11
241.2641356886
 21
192.4662066606
  0
LINE
  5
3AF
100
AcDbEntity
  8
0
100
AcDbLine
 62
7
  6
CONTINUOUS
 10
280.7223598358
 20
186.9277127341
 11
280.5841424876
 21
186.9780197347
  0
LINE
  5
3B0
100
AcDbEntity
  8
RUNDUNGEN
100
AcDbLine
 62
7
  6
CONTINUOUS
 10
284.7331410412
 20
185.4679077592
 11
275.0279457886
 21
189.0003099489
  0
LINE
  5
3B1
100
AcDbEntity
  8
RUNDUNGEN
100
AcDbLine
 62
7
  6
CONTINUOUS
 10
269.7640628351
 20
196.5178669663
 11
269.7640628351
 21
238.9190300597
  0
LINE
  5
3B2
100
AcDbEntity
  8
0
100
AcDbLine
 62
7
  6
CONTINUOUS
 10
270.2640628351
 20
235.1662066606
 11
270.2640628351
 21
231.1662066606
  0
LINE
  5
3B3
100
AcDbEntity
  8
0
100
AcDbLine
 62
7
  6
CONTINUOUS
 10
270.2640628351
 20
229.5858391554
 11
270.2640628351
 21
227.1510853435
  0
LINE
  5
3B4
100
AcDbEntity
  8
0
100
AcDbLine
 62
7
  6
CONTINUOUS
 10
270.2640628351
 20
227.1460702057
 11
270.2640628351
 21
220.6341684263
  0
LINE
  5
3B5
100
AcDbEntity
  8
RUNDUNGEN
100
AcDbLine
 62
7
  6
CONTINUOUS
 10
241.2641356889
 20
197.4662066606
 11
253.7640628351
 21
197.4662066606
  0
LINE
  5
3B6
100
AcDbEntity
  8
RUNDUNGEN
100
AcDbLine
 62
7
  6
CONTINUOUS
 10
269.7640628351
 20
197.4662066606
 11
282.2639897379
 21
197.4662066606
  0
LINE
  5
3B7
100
AcDbEntity
  8
KONSTRUKTIONSELEMENTE
100
AcDbLine
 62
7
  6
CONTINUOUS
 10
272.7640628351
 20
167.4662066606
 11
272.7640628351
 21
139.2162066606
  0
LINE
  5
3B8
100
AcDbEntity
  8
KONSTRUKTIONSELEMENTE
100
AcDbLine
 62
7
  6
CONTINUOUS
 10
276.4140628351
 20
167.6662066606
 11
276.4140628351
 21
167.4662066606
  0
LINE
  5
3B9
100
AcDbEntity
  8
0
100
AcDbLine
 62
7
  6
CONTINUOUS
 10
242.9434363011
 20
186.9778206861
 11
242.8057658345
 21
186.9277127341
  0
LINE
  5
3BA
100
AcDbEntity
  8
BEZUGSACHSEN
100
AcDbLine
 62
7
  6
CONTINUOUS
 10
238.794984629
 20
185.4679077592
 11
248.5001798816
 21
189.0003099489
  0
LINE
  5
3BB
100
AcDbEntity
  8
0
100
AcDbLine
 62
7
  6
CONTINUOUS
 10
283.2640628351
 20
193.4662066606
 11
283.2640628351
 21
196.4662066606
  0
LINE
  5
3BC
100
AcDbEntity
  8
0
100
AcDbLine
 62
7
  6
CONTINUOUS
 10
282.2640628351
 20
167.6662066606
 11
283.8252407836
 21
172.7725896415
  0
LINE
  5
3BD
100
AcDbEntity
  8
0
100
AcDbLine
 62
7
  6
CONTINUOUS
 10
284.3261187127
 20
174.4108875272
 11
284.3602696576
 21
174.522590235
  0
LINE
  5
3BE
100
AcDbEntity
  8
0
100
AcDbLine
 62
7
  6
CONTINUOUS
 10
284.5993248529
 20
175.3045045462
 11
285.039747472
 21
176.7450620233
  0
LINE
  5
3BF
100
AcDbEntity
  8
0
100
AcDbLine
 62
7
  6
CONTINUOUS
 10
286.2148323508
 20
180.5885914762
 11
286.5764858499
 21
181.7715067706
  0
LINE
  5
3C0
100
AcDbEntity
  8
0
100
AcDbLine
 62
7
  6
CONTINUOUS
 10
286.4654347809
 20
179.698121513
 11
286.4425911174
 21
179.6236535934
  0
LINE
  5
3C1
100
AcDbEntity
  8
0
100
AcDbLine
 62
7
  6
CONTINUOUS
 10
269.7640628351
 20
220.6341684263
 11
270.2640628351
 21
220.6341684263
  0
LINE
  5
3C2
100
AcDbEntity
  8
0
100
AcDbLine
 62
7
  6
CONTINUOUS
 10
269.7640628351
 20
222.5197864813
 11
270.2640628351
 21
222.5197864813
  0
LINE
  5
3C3
100
AcDbEntity
  8
0
100
AcDbLine
 62
7
  6
CONTINUOUS
 10
269.7640628351
 20
222.8733398719
 11
270.2640628351
 21
222.8733398719
  0
LINE
  5
3C4
100
AcDbEntity
  8
0
100
AcDbLine
 62
7
  6
CONTINUOUS
 10
269.7640628351
 20
224.5232556385
 11
270.2640628351
 21
224.5232556385
  0
LINE
  5
3C5
100
AcDbEntity
  8
0
100
AcDbLine
 62
7
  6
CONTINUOUS
 10
269.7640628351
 20
224.8768090291
 11
270.2640628351
 21
224.8768090291
  0
LINE
  5
3C6
100
AcDbEntity
  8
0
100
AcDbLine
 62
7
  6
CONTINUOUS
 10
269.7640628351
 20
225.3482136061
 11
270.2640628351
 21
225.3482136061
  0
LINE
  5
3C7
100
AcDbEntity
  8
0
100
AcDbLine
 62
7
  6
CONTINUOUS
 10
269.7640628351
 20
226.7624271685
 11
270.2640628351
 21
226.7624271685
  0
LINE
  5
3C8
100
AcDbEntity
  8
0
100
AcDbLine
 62
7
  6
CONTINUOUS
 10
269.7640628351
 20
226.9968755882
 11
270.2640628351
 21
226.9968755882
  0
LINE
  5
3C9
100
AcDbEntity
  8
0
100
AcDbLine
 62
7
  6
CONTINUOUS
 10
269.7640628351
 20
227.0520400809
 11
270.2640628351
 21
227.0520400809
  0
LINE
  5
3CA
100
AcDbEntity
  8
0
100
AcDbLine
 62
7
  6
CONTINUOUS
 10
269.7640628351
 20
227.1510853435
 11
270.2640628351
 21
227.1510853435
  0
LINE
  5
3CB
100
AcDbEntity
  8
0
100
AcDbLine
 62
7
  6
CONTINUOUS
 10
269.7640628351
 20
227.3328765023
 11
270.2640628351
 21
227.3328765023
  0
LINE
  5
3CC
100
AcDbEntity
  8
0
100
AcDbLine
 62
7
  6
CONTINUOUS
 10
269.7640628351
 20
227.5735938443
 11
270.2640628351
 21
227.5735938443
  0
LINE
  5
3CD
100
AcDbEntity
  8
0
100
AcDbLine
 62
7
  6
CONTINUOUS
 10
269.7640628351
 20
227.8732370323
 11
270.2640628351
 21
227.8732370323
  0
LINE
  5
3CE
100
AcDbEntity
  8
0
100
AcDbLine
 62
7
  6
CONTINUOUS
 10
269.7640628351
 20
228.3496562414
 11
270.2640628351
 21
228.3496562414
  0
LINE
  5
3CF
100
AcDbEntity
  8
0
100
AcDbLine
 62
7
  6
CONTINUOUS
 10
269.7640628351
 20
228.7057168637
 11
270.2640628351
 21
228.7057168637
  0
LINE
  5
3D0
100
AcDbEntity
  8
0
100
AcDbLine
 62
7
  6
CONTINUOUS
 10
269.7640628351
 20
229.001598867
 11
270.2640628351
 21
229.001598867
  0
LINE
  5
3D1
100
AcDbEntity
  8
0
100
AcDbLine
 62
7
  6
CONTINUOUS
 10
269.7640628351
 20
229.2962262429
 11
270.2640628351
 21
229.2962262429
  0
LINE
  5
3D2
100
AcDbEntity
  8
0
100
AcDbLine
 62
7
  6
CONTINUOUS
 10
269.7640628351
 20
229.5306749998
 11
270.2640628351
 21
229.5306749998
  0
LINE
  5
3D3
100
AcDbEntity
  8
0
100
AcDbLine
 62
7
  6
CONTINUOUS
 10
269.7640628351
 20
229.5858391554
 11
270.2640628351
 21
229.5858391554
  0
LINE
  5
3D4
100
AcDbEntity
  8
0
100
AcDbLine
 62
7
  6
CONTINUOUS
 10
269.7640628351
 20
231.1662066606
 11
270.2640628351
 21
231.1662066606
  0
LINE
  5
3D5
100
AcDbEntity
  8
0
100
AcDbLine
 62
7
  6
CONTINUOUS
 10
269.7640628351
 20
235.1662066606
 11
270.2640628351
 21
235.1662066606
  0
LINE
  5
3D6
100
AcDbEntity
  8
RUNDUNGEN
100
AcDbLine
 62
7
  6
CONTINUOUS
 10
266.7640628351
 20
241.9190300597
 11
256.7640628351
 21
241.9190300597
  0
LINE
  5
3D7
100
AcDbEntity
  8
KONSTRUKTIONSELEMENTE
100
AcDbLine
 62
7
  6
CONTINUOUS
 10
272.7640628351
 20
139.2162066606
 11
271.0140628351
 21
137.4662066606
  0
LWPOLYLINE
  5
3D8
100
AcDbEntity
  8
RUNDUNGEN
100
AcDbPolyline
 62
7
  6
CONTINUOUS
 90
7
 70
0
 10
99.1958183204
 20
77.2766640981
 10
99.2012846511
 20
76.5258238841
 10
99.2229434941
 20
75.6022426758
 10
99.2614919582
 20
74.6688996525
 10
99.3173064669
 20
73.7276979168
 10
99.3905956561
 20
72.7805489601
 10
99.4667075411
 20
71.9724695767
  0
LWPOLYLINE
  5
3D9
100
AcDbEntity
  8
BEZUGSACHSEN
100
AcDbPolyline
 62
7
  6
CONTINUOUS
 90
7
 70
0
 10
99.4667075411
 20
82.5808586195
 10
99.3905956561
 20
81.772779236
 10
99.3173064669
 20
80.8256302793
 10
99.2614919582
 20
79.8844285437
 10
99.2229434941
 20
78.9510855203
 10
99.2012846511
 20
78.0275043121
 10
99.1958183204
 20
77.276664098
  0
LWPOLYLINE
  5
3DA
100
AcDbEntity
  8
BEZUGSACHSEN
100
AcDbPolyline
 62
7
  6
CONTINUOUS
 90
10
 70
0
 10
108.5673079068
 20
88.1042563645
 10
108.1776630032
 20
87.6477374549
 10
107.8155696445
 20
87.2306700065
 10
107.4795354422
 20
86.8533107181
 10
107.1694667707
 20
86.5168514571
 10
106.885250506
 20
86.2216882296
 10
106.6273860916
 20
85.9680410263
 10
106.3968016712
 20
85.7556412247
 10
106.1946498257
 20
85.5834771446
 10
106.0228505419
 20
85.450195677
  0
LWPOLYLINE
  5
3DB
100
AcDbEntity
  8
BEZUGSACHSEN
100
AcDbPolyline
 62
7
  6
CONTINUOUS
 90
5
 70
0
 10
111.5212844111
 20
91.5294098511
 10
111.0191824299
 20
90.969051714
 10
110.4476002122
 20
90.3164351562
 10
109.9217805323
 20
89.7045660738
 10
108.5673079068
 20
88.1042563645
  0
LINE
  5
3DC
100
AcDbEntity
  8
BEZUGSACHSEN
100
AcDbLine
 62
7
  6
CONTINUOUS
 10
111.5212844111
 20
91.5294098511
 11
111.521330071
 21
91.5294602265
  0
LINE
  5
3DD
100
AcDbEntity
  8
BEZUGSACHSEN
100
AcDbLine
 62
7
  6
CONTINUOUS
 10
106.0228505419
 20
85.450195677
 11
105.8833080925
 21
85.3533418586
  0
LINE
  5
3DE
100
AcDbEntity
  8
BEZUGSACHSEN
100
AcDbLine
 62
7
  6
CONTINUOUS
 10
105.8833080925
 20
85.3533418586
 11
105.8264761401
 21
85.3176837403
  0
LINE
  5
3DF
100
AcDbEntity
  8
0
100
AcDbLine
 62
7
  6
CONTINUOUS
 10
112.1075447561
 20
69.2766640981
 11
112.1075447561
 21
68.7766640981
  0
LINE
  5
3E0
100
AcDbEntity
  8
0
100
AcDbLine
 62
7
  6
CONTINUOUS
 10
112.4610981467
 20
69.2766640981
 11
112.4610981467
 21
68.7766640981
  0
LINE
  5
3E1
100
AcDbEntity
  8
0
100
AcDbLine
 62
7
  6
CONTINUOUS
 10
114.1110139133
 20
69.2766640981
 11
114.1110139133
 21
68.7766640981
  0
LINE
  5
3E2
100
AcDbEntity
  8
0
100
AcDbLine
 62
7
  6
CONTINUOUS
 10
114.4645673039
 20
69.2766640981
 11
114.4645673039
 21
68.7766640981
  0
LINE
  5
3E3
100
AcDbEntity
  8
0
100
AcDbLine
 62
7
  6
CONTINUOUS
 10
114.9359718809
 20
69.2766640981
 11
114.9359718809
 21
68.7766640981
  0
LINE
  5
3E4
100
AcDbEntity
  8
0
100
AcDbLine
 62
7
  6
CONTINUOUS
 10
116.3501854432
 20
69.2766640981
 11
116.3501854432
 21
68.7766640981
  0
LINE
  5
3E5
100
AcDbEntity
  8
0
100
AcDbLine
 62
7
  6
CONTINUOUS
 10
116.7049924497
 20
69.2766640981
 11
116.7049924497
 21
68.7766640981
  0
LINE
  5
3E6
100
AcDbEntity
  8
0
100
AcDbLine
 62
7
  6
CONTINUOUS
 10
117.1212327025
 20
69.2766640981
 11
117.1212327025
 21
68.7766640981
  0
LINE
  5
3E7
100
AcDbEntity
  8
0
100
AcDbLine
 62
7
  6
CONTINUOUS
 10
117.5387265713
 20
69.2766640981
 11
117.5387265713
 21
68.7766640981
  0
LINE
  5
3E8
100
AcDbEntity
  8
0
100
AcDbLine
 62
7
  6
CONTINUOUS
 10
117.7781901288
 20
69.2766640981
 11
117.7781901288
 21
68.7766640981
  0
LWPOLYLINE
  5
3E9
100
AcDbEntity
  8
RUNDUNGEN
100
AcDbPolyline
 62
7
  6
CONTINUOUS
 90
25
 70
0
 10
111.5213274818
 20
63.0238656212
 10
112.5956866044
 20
61.9003171867
 10
113.8684094339
 20
60.7092377027
 10
115.2401554166
 20
59.5676550864
 10
116.7063018287
 20
58.4853147958
 10
118.2622533219
 20
57.470534895
 10
119.9023619249
 20
56.5309798969
 10
121.6201690218
 20
55.6737321743
 10
123.4084315926
 20
54.9049559534
 10
125.2593371086
 20
54.2300390141
 10
127.1644537698
 20
53.6533696048
 10
129.1149541573
 20
53.1785265854
 10
131.1018585279
 20
52.8080802705
 10
133.1160108862
 20
52.5436301847
 10
135.1477136638
 20
52.3853111781
 10
137.1881729539
 20
52.3327475162
 10
139.2286031412
 20
52.3861202352
 10
141.2602073667
 20
52.545248569
 10
143.2741856086
 20
52.8105105239
 10
145.2608444898
 20
53.1817622051
 10
147.2110320322
 20
53.6573942342
 10
149.1157731642
 20
54.2348311094
 10
150.9662426907
 20
54.9104879418
 10
152.7540134251
 20
55.6799712325
 10
153.0175071553
 20
55.8116083152
  0
LINE
  5
3EA
100
AcDbEntity
  8
RUNDUNGEN
100
AcDbLine
 62
7
  6
CONTINUOUS
 10
111.5212845736
 20
63.0239181657
 11
111.521330071
 21
63.0238679697
  0
LWPOLYLINE
  5
3EB
100
AcDbEntity
  8
RUNDUNGEN
100
AcDbPolyline
 62
7
  6
CONTINUOUS
 90
4
 70
0
 10
109.9244880391
 20
64.8455884689
 10
110.449335605
 20
64.2348902784
 10
111.0200308713
 20
63.5833189536
 10
111.5212845736
 20
63.0239181657
  0
LINE
  5
3EC
100
AcDbEntity
  8
RUNDUNGEN
100
AcDbLine
 62
7
  6
CONTINUOUS
 10
108.5720167755
 20
66.4435223809
 11
109.9244880391
 21
64.8455884689
  0
LINE
  5
3ED
100
AcDbEntity
  8
0
100
AcDbLine
 62
7
  6
CONTINUOUS
 10
118.0189074708
 20
69.2766640981
 11
118.0189074708
 21
68.7766640981
  0
LINE
  5
3EE
100
AcDbEntity
  8
0
100
AcDbLine
 62
7
  6
CONTINUOUS
 10
118.1405196734
 20
69.2766640981
 11
118.1405196734
 21
68.7766640981
  0
LINE
  5
3EF
100
AcDbEntity
  8
0
100
AcDbLine
 62
7
  6
CONTINUOUS
 10
118.2044601515
 20
69.2766640981
 11
118.2044601515
 21
68.7766640981
  0
LINE
  5
3F0
100
AcDbEntity
  8
0
100
AcDbLine
 62
7
  6
CONTINUOUS
 10
118.2984902763
 20
69.2766640981
 11
118.2984902763
 21
68.7766640981
  0
LINE
  5
3F1
100
AcDbEntity
  8
0
100
AcDbLine
 62
7
  6
CONTINUOUS
 10
118.4138337252
 20
69.2766640981
 11
118.4138337252
 21
68.7766640981
  0
LINE
  5
3F2
100
AcDbEntity
  8
0
100
AcDbLine
 62
7
  6
CONTINUOUS
 10
118.5893571418
 20
69.2766640981
 11
118.5893571418
 21
68.7766640981
  0
LINE
  5
3F3
100
AcDbEntity
  8
0
100
AcDbLine
 62
7
  6
CONTINUOUS
 10
118.8839845177
 20
69.2766640981
 11
118.8839845177
 21
68.7766640981
  0
LINE
  5
3F4
100
AcDbEntity
  8
0
100
AcDbLine
 62
7
  6
CONTINUOUS
 10
119.2387918613
 20
69.2766640981
 11
119.2387918613
 21
68.7766640981
  0
LINE
  5
3F5
100
AcDbEntity
  8
0
100
AcDbLine
 62
7
  6
CONTINUOUS
 10
119.655031777
 20
69.2766640981
 11
119.655031777
 21
68.7766640981
  0
LINE
  5
3F6
100
AcDbEntity
  8
0
100
AcDbLine
 62
7
  6
CONTINUOUS
 10
120.0725256457
 20
69.2766640981
 11
120.0725256457
 21
68.7766640981
  0
LINE
  5
3F7
100
AcDbEntity
  8
0
100
AcDbLine
 62
7
  6
CONTINUOUS
 10
120.3119895404
 20
69.2766640981
 11
120.3119895404
 21
68.7766640981
  0
LINE
  5
3F8
100
AcDbEntity
  8
0
100
AcDbLine
 62
7
  6
CONTINUOUS
 10
120.5013032373
 20
69.2766640981
 11
120.5013032373
 21
68.7766640981
  0
LINE
  5
3F9
100
AcDbEntity
  8
0
100
AcDbLine
 62
7
  6
CONTINUOUS
 10
120.857364534
 20
69.2766640981
 11
120.857364534
 21
68.7766640981
  0
LINE
  5
3FA
100
AcDbEntity
  8
0
100
AcDbLine
 62
7
  6
CONTINUOUS
 10
121.333783743
 20
69.2766640981
 11
121.333783743
 21
68.7766640981
  0
LINE
  5
3FB
100
AcDbEntity
  8
0
100
AcDbLine
 62
7
  6
CONTINUOUS
 10
121.6923523557
 20
69.2766640981
 11
121.6923523557
 21
68.7766640981
  0
LINE
  5
3FC
100
AcDbEntity
  8
0
100
AcDbLine
 62
7
  6
CONTINUOUS
 10
121.9932488224
 20
69.2766640981
 11
121.9932488224
 21
68.7766640981
  0
LINE
  5
3FD
100
AcDbEntity
  8
0
100
AcDbLine
 62
7
  6
CONTINUOUS
 10
122.116114683
 20
69.2766640981
 11
122.116114683
 21
68.7766640981
  0
LINE
  5
3FE
100
AcDbEntity
  8
0
100
AcDbLine
 62
7
  6
CONTINUOUS
 10
122.1211298419
 20
69.2766640981
 11
122.1211298419
 21
68.7766640981
  0
LWPOLYLINE
  5
3FF
100
AcDbEntity
  8
RUNDUNGEN
100
AcDbPolyline
 62
7
  6
CONTINUOUS
 90
10
 70
0
 10
106.0233952699
 20
69.1027323279
 10
106.1955289819
 20
68.9691355272
 10
106.3981774022
 20
68.7964667386
 10
106.6293670752
 20
68.5833987245
 10
106.8879205819
 20
68.3289372298
 10
107.1728353856
 20
68.0328953228
 10
107.4835408847
 20
67.695589456
 10
107.820070704
 20
67.3175318265
 10
108.182406903
 20
66.9000724051
 10
108.5720167755
 20
66.4435223809
  0
LINE
  5
400
100
AcDbEntity
  8
RUNDUNGEN
100
AcDbLine
 62
7
  6
CONTINUOUS
 10
155.4796871822
 20
56.0653167908
 11
178.9408440731
 21
60.2021517493
  0
LINE
  5
401
100
AcDbEntity
  8
RUNDUNGEN
100
AcDbLine
 62
7
  6
CONTINUOUS
 10
105.7529498423
 20
69.2766640981
 11
105.7786957164
 21
69.2634372207
  0
LINE
  5
402
100
AcDbEntity
  8
RUNDUNGEN
100
AcDbLine
 62
7
  6
CONTINUOUS
 10
105.7786957164
 20
69.2634372207
 11
105.8836237778
 21
69.1997813605
  0
LINE
  5
403
100
AcDbEntity
  8
RUNDUNGEN
100
AcDbLine
 62
7
  6
CONTINUOUS
 10
105.8836237778
 20
69.1997813605
 11
106.0233952699
 21
69.1027323279
  0
LINE
  5
404
100
AcDbEntity
  8
0
100
AcDbLine
 62
7
  6
CONTINUOUS
 10
131.7637038683
 20
69.2766640981
 11
131.7637038683
 21
68.7766640981
  0
LINE
  5
405
100
AcDbEntity
  8
0
100
AcDbLine
 62
7
  6
CONTINUOUS
 10
132.2220387911
 20
89.7766640981
 11
132.2220387911
 21
88.2091902892
  0
LINE
  5
406
100
AcDbEntity
  8
0
100
AcDbLine
 62
7
  6
CONTINUOUS
 10
132.6595387911
 20
88.4305655651
 11
132.6595387911
 21
89.0319833358
  0
LINE
  5
407
100
AcDbEntity
  8
0
100
AcDbLine
 62
7
  6
CONTINUOUS
 10
133.7637038683
 20
69.2766640981
 11
133.7637038683
 21
68.7766640981
  0
LINE
  5
408
100
AcDbEntity
  8
0
100
AcDbLine
 62
7
  6
CONTINUOUS
 10
134.1803706145
 20
69.2766640981
 11
134.1803706145
 21
68.7766640981
  0
LINE
  5
409
100
AcDbEntity
  8
0
100
AcDbLine
 62
7
  6
CONTINUOUS
 10
134.5137038683
 20
69.2766640981
 11
134.5137038683
 21
68.7766640981
  0
LINE
  5
40A
100
AcDbEntity
  8
0
100
AcDbLine
 62
7
  6
CONTINUOUS
 10
134.7637038683
 20
69.2766640981
 11
134.7637038683
 21
68.7766640981
  0
LINE
  5
40B
100
AcDbEntity
  8
0
100
AcDbLine
 62
7
  6
CONTINUOUS
 10
134.7741212105
 20
102.1389050895
 11
134.7741212105
 21
102.192445899
  0
LINE
  5
40C
100
AcDbEntity
  8
0
100
AcDbLine
 62
7
  6
CONTINUOUS
 10
134.8470371222
 20
69.2766640981
 11
134.8470371222
 21
68.7766640981
  0
LINE
  5
40D
100
AcDbEntity
  8
0
100
AcDbLine
 62
7
  6
CONTINUOUS
 10
134.9303706145
 20
69.2766640981
 11
134.9303706145
 21
68.7766640981
  0
LINE
  5
40E
100
AcDbEntity
  8
0
100
AcDbLine
 62
7
  6
CONTINUOUS
 10
135.0657884335
 20
102.1616330523
 11
135.0657884335
 21
102.2110911987
  0
LINE
  5
40F
100
AcDbEntity
  8
0
100
AcDbLine
 62
7
  6
CONTINUOUS
 10
135.5970371222
 20
69.2766640981
 11
135.5970371222
 21
68.7766640981
  0
LINE
  5
410
100
AcDbEntity
  8
0
100
AcDbLine
 62
7
  6
CONTINUOUS
 10
136.0970373606
 20
69.2766640981
 11
136.0970373606
 21
68.7766640981
  0
LINE
  5
411
100
AcDbEntity
  8
0
100
AcDbLine
 62
7
  6
CONTINUOUS
 10
136.1803703761
 20
69.2766640981
 11
136.1803703761
 21
68.7766640981
  0
LINE
  5
412
100
AcDbEntity
  8
0
100
AcDbLine
 62
7
  6
CONTINUOUS
 10
136.3470373606
 20
69.2766640981
 11
136.3470373606
 21
68.7766640981
  0
LINE
  5
413
100
AcDbEntity
  8
0
100
AcDbLine
 62
7
  6
CONTINUOUS
 10
136.5970373606
 20
69.2766640981
 11
136.5970373606
 21
68.7766640981
  0
LINE
  5
414
100
AcDbEntity
  8
0
100
AcDbLine
 62
7
  6
CONTINUOUS
 10
136.9303703761
 20
69.2766640981
 11
136.9303703761
 21
68.7766640981
  0
LINE
  5
415
100
AcDbEntity
  8
0
100
AcDbLine
 62
7
  6
CONTINUOUS
 10
137.2637038683
 20
69.2766640981
 11
137.2637038683
 21
68.7766640981
  0
LINE
  5
416
100
AcDbEntity
  8
0
100
AcDbLine
 62
7
  6
CONTINUOUS
 10
137.5970373606
 20
69.2766640981
 11
137.5970373606
 21
68.7766640981
  0
LINE
  5
417
100
AcDbEntity
  8
0
100
AcDbLine
 62
7
  6
CONTINUOUS
 10
137.8470373606
 20
69.2766640981
 11
137.8470373606
 21
68.7766640981
  0
LINE
  5
418
100
AcDbEntity
  8
0
100
AcDbLine
 62
7
  6
CONTINUOUS
 10
138.0137038683
 20
69.2766640981
 11
138.0137038683
 21
68.7766640981
  0
LINE
  5
419
100
AcDbEntity
  8
0
100
AcDbLine
 62
7
  6
CONTINUOUS
 10
138.0970373606
 20
69.2766640981
 11
138.0970373606
 21
68.7766640981
  0
LINE
  5
41A
100
AcDbEntity
  8
0
100
AcDbLine
 62
7
  6
CONTINUOUS
 10
138.5970373606
 20
69.2766640981
 11
138.5970373606
 21
68.7766640981
  0
LINE
  5
41B
100
AcDbEntity
  8
0
100
AcDbLine
 62
7
  6
CONTINUOUS
 10
139.2637038683
 20
69.2766640981
 11
139.2637038683
 21
68.7766640981
  0
LINE
  5
41C
100
AcDbEntity
  8
0
100
AcDbLine
 62
7
  6
CONTINUOUS
 10
139.2949551796
 20
52.3913173544
 11
139.2949551796
 21
52.3422369975
  0
LINE
  5
41D
100
AcDbEntity
  8
0
100
AcDbLine
 62
7
  6
CONTINUOUS
 10
139.5866224026
 20
52.4141626107
 11
139.5866224026
 21
52.3608822972
  0
LINE
  5
41E
100
AcDbEntity
  8
0
100
AcDbLine
 62
7
  6
CONTINUOUS
 10
141.2637038683
 20
69.2766640981
 11
141.2637038683
 21
68.7766640981
  0
LINE
  5
41F
100
AcDbEntity
  8
0
100
AcDbLine
 62
7
  6
CONTINUOUS
 10
141.6803708529
 20
69.2766640981
 11
141.6803708529
 21
68.7766640981
  0
LINE
  5
420
100
AcDbEntity
  8
0
100
AcDbLine
 62
7
  6
CONTINUOUS
 10
142.0137038683
 20
69.2766640981
 11
142.0137038683
 21
68.7766640981
  0
LINE
  5
421
100
AcDbEntity
  8
0
100
AcDbLine
 62
7
  6
CONTINUOUS
 10
142.3470368838
 20
69.2766640981
 11
142.3470368838
 21
68.7766640981
  0
LINE
  5
422
100
AcDbEntity
  8
0
100
AcDbLine
 62
7
  6
CONTINUOUS
 10
142.5137038683
 20
69.2766640981
 11
142.5137038683
 21
68.7766640981
  0
LINE
  5
423
100
AcDbEntity
  8
0
100
AcDbLine
 62
7
  6
CONTINUOUS
 10
142.5970368838
 20
69.2766640981
 11
142.5970368838
 21
68.7766640981
  0
LINE
  5
424
100
AcDbEntity
  8
RUNDUNGEN
100
AcDbLine
 62
7
  6
CONTINUOUS
 10
173.6803718066
 20
65.2766640981
 11
153.1803718066
 21
65.2766640981
  0
LINE
  5
425
100
AcDbEntity
  8
0
100
AcDbLine
 62
7
  6
CONTINUOUS
 10
161.730807364
 20
68.7766640981
 11
155.6305774132
 21
68.7766640981
  0
LINE
  5
426
100
AcDbEntity
  8
0
100
AcDbLine
 62
7
  6
CONTINUOUS
 10
142.5970368838
 20
68.7766640981
 11
139.2637038683
 21
68.7766640981
  0
LINE
  5
427
100
AcDbEntity
  8
0
100
AcDbLine
 62
7
  6
CONTINUOUS
 10
138.5970373606
 20
68.7766640981
 11
135.5970371222
 21
68.7766640981
  0
LINE
  5
428
100
AcDbEntity
  8
0
100
AcDbLine
 62
7
  6
CONTINUOUS
 10
134.9303706145
 20
68.7766640981
 11
131.7637038683
 21
68.7766640981
  0
LINE
  5
429
100
AcDbEntity
  8
0
100
AcDbLine
 62
7
  6
CONTINUOUS
 10
122.116114683
 20
68.7766640981
 11
112.1075447561
 21
68.7766640981
  0
LINE
  5
42A
100
AcDbEntity
  8
RUNDUNGEN
100
AcDbLine
 62
7
  6
CONTINUOUS
 10
102.4512463278
 20
69.2766640981
 11
171.9094928583
 21
69.2766640981
  0
LINE
  5
42B
100
AcDbEntity
  8
0
100
AcDbLine
 62
7
  6
CONTINUOUS
 10
132.6595387911
 20
89.0319833358
 11
132.8471834335
 21
88.5255138724
  0
LINE
  5
42C
100
AcDbEntity
  8
0
100
AcDbLine
 62
7
  6
CONTINUOUS
 10
133.24515567
 20
88.7275809408
 11
132.8782887911
 21
89.7766640981
  0
LINE
  5
42D
100
AcDbEntity
  8
RUNDUNGEN
100
AcDbLine
 62
7
  6
CONTINUOUS
 10
178.6803718066
 20
71.2766640981
 11
176.6803718066
 21
71.2766640981
  0
LINE
  5
42E
100
AcDbEntity
  8
RUNDUNGEN
100
AcDbLine
 62
7
  6
CONTINUOUS
 10
168.3400309968
 20
69.1047017408
 11
168.4791952513
 21
69.2011275582
  0
LINE
  5
42F
100
AcDbEntity
  8
RUNDUNGEN
100
AcDbLine
 62
7
  6
CONTINUOUS
 10
168.4791952513
 20
69.2011275582
 11
168.5357948614
 21
69.236566302
  0
LINE
  5
430
100
AcDbEntity
  8
0
100
AcDbLine
 62
7
  6
CONTINUOUS
 10
155.6303718066
 20
69.2766640981
 11
155.6303718066
 21
68.7766640981
  0
LINE
  5
431
100
AcDbEntity
  8
RUNDUNGEN
100
AcDbLine
 62
7
  6
CONTINUOUS
 10
164.8022078336
 20
65.2766640981
 11
165.7948005701
 21
66.4506801824
  0
LWPOLYLINE
  5
432
100
AcDbEntity
  8
RUNDUNGEN
100
AcDbPolyline
 62
7
  6
CONTINUOUS
 90
10
 70
0
 10
165.7948005701
 20
66.4506801824
 10
166.1840219467
 20
66.9066854622
 10
166.5460205105
 20
67.3236221767
 10
166.8822512223
 20
67.7011700694
 10
167.1926654611
 20
68.037952618
 10
167.4772740169
 20
68.3334418335
 10
167.7354849767
 20
68.5873141594
 10
167.9662693755
 20
68.799749928
 10
168.1684474592
 20
68.9717650117
 10
168.3400309968
 20
69.1047017408
  0
LINE
  5
433
100
AcDbEntity
  8
RUNDUNGEN
100
AcDbLine
 62
7
  6
CONTINUOUS
 10
176.6803718066
 20
83.2766640981
 11
178.6803718066
 21
83.2766640981
  0
LINE
  5
434
100
AcDbEntity
  8
0
100
AcDbLine
 62
7
  6
CONTINUOUS
 10
159.270807364
 20
69.2766640981
 11
159.270807364
 21
68.7766640981
  0
LINE
  5
435
100
AcDbEntity
  8
0
100
AcDbLine
 62
7
  6
CONTINUOUS
 10
161.730807364
 20
69.2766640981
 11
161.730807364
 21
68.7766640981
  0
LINE
  5
436
100
AcDbEntity
  8
BEZUGSACHSEN
100
AcDbLine
 62
7
  6
CONTINUOUS
 10
102.4512463278
 20
85.2766640981
 11
171.9094928583
 21
85.2766640981
  0
LINE
  5
437
100
AcDbEntity
  8
RUNDUNGEN
100
AcDbLine
 62
7
  6
CONTINUOUS
 10
153.1803718066
 20
89.2766640981
 11
173.6803718066
 21
89.2766640981
  0
LINE
  5
438
100
AcDbEntity
  8
0
100
AcDbLine
 62
7
  6
CONTINUOUS
 10
132.8782887911
 20
89.7766640981
 11
132.2220387911
 21
89.7766640981
  0
LINE
  5
439
100
AcDbEntity
  8
BEZUGSACHSEN
100
AcDbLine
 62
7
  6
CONTINUOUS
 10
168.6077434904
 20
85.2766640981
 11
168.5836364564
 21
85.2890071776
  0
LINE
  5
43A
100
AcDbEntity
  8
BEZUGSACHSEN
100
AcDbLine
 62
7
  6
CONTINUOUS
 10
168.5836364564
 20
85.2890071776
 11
168.4795095677
 21
85.351997021
  0
LINE
  5
43B
100
AcDbEntity
  8
BEZUGSACHSEN
100
AcDbLine
 62
7
  6
CONTINUOUS
 10
168.4795095677
 20
85.351997021
 11
168.3405743581
 21
85.4482280363
  0
LWPOLYLINE
  5
43C
100
AcDbEntity
  8
BEZUGSACHSEN
100
AcDbPolyline
 62
7
  6
CONTINUOUS
 90
7
 70
0
 10
175.1649257485
 20
77.2766640981
 10
175.1592667724
 20
78.0406195621
 10
175.1373768809
 20
78.9640660655
 10
175.0985987856
 20
79.8973173446
 10
175.0425723823
 20
80.8384762997
 10
174.9690430804
 20
81.7855727811
 10
174.8940299808
 20
82.5808661485
  0
LINE
  5
43D
100
AcDbEntity
  8
RUNDUNGEN
100
AcDbLine
 62
7
  6
CONTINUOUS
 10
175.1803718066
 20
87.7766640981
 11
175.1803718066
 21
84.7766640981
  0
LINE
  5
43E
100
AcDbEntity
  8
RUNDUNGEN
100
AcDbLine
 62
7
  6
CONTINUOUS
 10
175.1803718066
 20
69.7766640981
 11
175.1803718066
 21
66.7766640981
  0
LWPOLYLINE
  5
43F
100
AcDbEntity
  8
RUNDUNGEN
100
AcDbPolyline
 62
7
  6
CONTINUOUS
 90
7
 70
0
 10
174.8940299808
 20
71.9724620476
 10
174.9690430804
 20
72.7677554151
 10
175.0425723823
 20
73.7148518966
 10
175.0985987856
 20
74.6560108517
 10
175.1373768809
 20
75.5892621309
 10
175.1592667725
 20
76.5127086344
 10
175.1649257485
 20
77.276664098
  0
LINE
  5
440
100
AcDbEntity
  8
RUNDUNGEN
100
AcDbLine
 62
7
  6
CONTINUOUS
 10
178.9408440731
 20
94.3511764468
 11
155.4796871822
 21
98.4880114053
  0
LWPOLYLINE
  5
441
100
AcDbEntity
  8
BEZUGSACHSEN
100
AcDbPolyline
 62
7
  6
CONTINUOUS
 90
25
 70
0
 10
153.0175071553
 20
98.7417198809
 10
152.7540134251
 20
98.8733569637
 10
150.9662426907
 20
99.6428402544
 10
149.1157731642
 20
100.3184970868
 10
147.2110320322
 20
100.8959339619
 10
145.2608444898
 20
101.3715659911
 10
143.2741856086
 20
101.7428176722
 10
141.2602073667
 20
102.0080796272
 10
139.2286031412
 20
102.1672079609
 10
137.1881729539
 20
102.2205806799
 10
135.1477136638
 20
102.1680170181
 10
133.1160108862
 20
102.0096980114
 10
131.1018585279
 20
101.7452479256
 10
129.1149541573
 20
101.3748016107
 10
127.1644537698
 20
100.8999585913
 10
125.2593371086
 20
100.3232891821
 10
123.4084315926
 20
99.6483722428
 10
121.6201690218
 20
98.8795960219
 10
119.9023619249
 20
98.0223482992
 10
118.2622533219
 20
97.0827933011
 10
116.7063018287
 20
96.0680134004
 10
115.2401554166
 20
94.9856731097
 10
113.8684094339
 20
93.8440904935
 10
112.5956866044
 20
92.6530110094
 10
111.5213274818
 20
91.5294625749
  0
LWPOLYLINE
  5
442
100
AcDbEntity
  8
BEZUGSACHSEN
100
AcDbPolyline
 62
7
  6
CONTINUOUS
 90
10
 70
0
 10
168.3405743581
 20
85.4482280363
 10
168.1693251096
 20
85.5808500443
 10
167.9676429753
 20
85.7523615626
 10
167.7374628778
 20
85.9641306173
 10
167.4799396738
 20
86.2171905087
 10
167.1960282323
 20
86.51180289
 10
166.8862495513
 20
86.8477403427
 10
166.5505137329
 20
87.2245905652
 10
166.1887583149
 20
87.6411345862
 10
165.7995034838
 20
88.0971063462
  0
LINE
  5
443
100
AcDbEntity
  8
BEZUGSACHSEN
100
AcDbLine
 62
7
  6
CONTINUOUS
 10
165.7995034838
 20
88.0971063462
 11
164.8022010201
 21
89.2766640981
  0
LINE
  5
444
100
AcDbEntity
  8
RUNDUNGEN
100
AcDbLine
 62
7
  6
CONTINUOUS
 10
180.1803718066
 20
61.6793633789
 11
180.1803718066
 21
69.7766640981
  0
LINE
  5
445
100
AcDbEntity
  8
RUNDUNGEN
100
AcDbLine
 62
7
  6
CONTINUOUS
 10
180.1803718066
 20
84.7766640981
 11
180.1803718066
 21
92.8739648173
  0
ARC
  5
446
100
AcDbEntity
  8
BEZUGSACHSEN
100
AcDbCircle
 62
7
  6
CONTINUOUS
 10
103.1803718066
 20
167.6662066606
 40
13.5
100
AcDbArc
 50
0.0
 51
64.4073910042
  0
ARC
  5
447
100
AcDbEntity
  8
BEZUGSACHSEN
100
AcDbCircle
 62
7
  6
CONTINUOUS
 10
100.3430593701
 20
192.9312795046
 40
3.0000000841
100
AcDbArc
 50
345.3440286443
 51
22.499997341
  0
ARC
  5
448
100
AcDbEntity
  8
BEZUGSACHSEN
100
AcDbCircle
 62
7
  6
CONTINUOUS
 10
106.2518468176
 20
178.6662077529
 40
2.9999996359
100
AcDbArc
 50
23.0684284378
 51
90.0000152418
  0
ARC
  5
449
100
AcDbEntity
  8
BEZUGSACHSEN
100
AcDbCircle
 62
7
  6
CONTINUOUS
 10
105.1803718066
 20
191.6662066606
 40
2.0
100
AcDbArc
 50
165.3440306643
 51
180.0
  0
ARC
  5
44A
100
AcDbEntity
  8
RUNDUNGEN
100
AcDbCircle
 62
7
  6
CONTINUOUS
 10
105.1803718066
 20
191.6662066606
 40
2.0
100
AcDbArc
 50
165.3440306643
 51
180.0
  0
ARC
  5
44B
100
AcDbEntity
  8
BEZUGSACHSEN
100
AcDbCircle
 62
7
  6
CONTINUOUS
 10
105.1803718066
 20
183.6662066606
 40
2.0
100
AcDbArc
 50
180.0
 51
270.0
  0
ARC
  5
44C
100
AcDbEntity
  8
RUNDUNGEN
100
AcDbCircle
 62
7
  6
CONTINUOUS
 10
126.1803718066
 20
193.4662066606
 40
1.0
100
AcDbArc
 50
180.0
 51
270.0
  0
ARC
  5
44D
100
AcDbEntity
  8
RUNDUNGEN
100
AcDbCircle
 62
7
  6
CONTINUOUS
 10
126.1803718066
 20
196.4662066606
 40
1.0
100
AcDbArc
 50
90.0
 51
180.0
  0
ARC
  5
44E
100
AcDbEntity
  8
0
100
AcDbCircle
 62
7
  6
CONTINUOUS
 10
137.1803293317
 20
237.3096576388
 40
50.399192815
100
AcDbArc
 50
267.0335063777
 51
272.9620303869
  0
ARC
  5
44F
100
AcDbEntity
  8
0
100
AcDbCircle
 62
7
  6
CONTINUOUS
 10
137.1803718066
 20
205.1662066606
 40
20.0
100
AcDbArc
 50
339.73209521
 51
339.7612041514
  0
ARC
  5
450
100
AcDbEntity
  8
0
100
AcDbCircle
 62
7
  6
CONTINUOUS
 10
137.1803718066
 20
205.1662066606
 40
20.0
100
AcDbArc
 50
200.2387958486
 51
200.2679057594
  0
ARC
  5
451
100
AcDbEntity
  8
RUNDUNGEN
100
AcDbCircle
 62
7
  6
CONTINUOUS
 10
137.1803718066
 20
205.1662066606
 40
20.0
100
AcDbArc
 50
339.7612041514
 51
200.2387958487
  0
ARC
  5
452
100
AcDbEntity
  8
BEZUGSACHSEN
100
AcDbCircle
 62
7
  6
CONTINUOUS
 10
137.1803718066
 20
238.9190300597
 40
3.0
100
AcDbArc
 50
67.5
 51
112.5
  0
ARC
  5
453
100
AcDbEntity
  8
RUNDUNGEN
100
AcDbCircle
 62
7
  6
CONTINUOUS
 10
137.1803718066
 20
238.9190300597
 40
3.0
100
AcDbArc
 50
67.5
 51
112.5
  0
ARC
  5
454
100
AcDbEntity
  8
RUNDUNGEN
100
AcDbCircle
 62
7
  6
CONTINUOUS
 10
112.3412496727
 20
228.6303287944
 40
3.0
100
AcDbArc
 50
112.5
 51
157.5
  0
ARC
  5
455
100
AcDbEntity
  8
BEZUGSACHSEN
100
AcDbCircle
 62
7
  6
CONTINUOUS
 10
102.195817919
 20
204.1370898584
 40
3.0
100
AcDbArc
 50
157.5000989097
 51
202.5000699396
  0
ARC
  5
456
100
AcDbEntity
  8
BEZUGSACHSEN
100
AcDbCircle
 62
7
  6
CONTINUOUS
 10
171.1803718066
 20
167.6662066606
 40
13.5
100
AcDbArc
 50
115.5926142366
 51
180.0
  0
ARC
  5
457
100
AcDbEntity
  8
0
100
AcDbCircle
 62
7
  6
CONTINUOUS
 10
145.4637418974
 20
197.2734903447
 40
9.9623995674
100
AcDbArc
 50
328.8430368109
 51
331.1468913119
  0
ARC
  5
458
100
AcDbEntity
  8
BEZUGSACHSEN
100
AcDbCircle
 62
7
  6
CONTINUOUS
 10
174.0176848521
 20
192.9312807462
 40
3.00000092
100
AcDbArc
 50
188.9200984386
 51
194.6559913541
  0
ARC
  5
459
100
AcDbEntity
  8
BEZUGSACHSEN
100
AcDbCircle
 62
7
  6
CONTINUOUS
 10
168.1088956177
 20
178.6662090762
 40
2.9999991948
100
AcDbArc
 50
89.9999622637
 51
156.9316037065
  0
ARC
  5
45A
100
AcDbEntity
  8
BEZUGSACHSEN
100
AcDbCircle
 62
7
  6
CONTINUOUS
 10
169.1803718066
 20
191.6662066606
 40
2.0
100
AcDbArc
 50
0.0
 51
14.6559693357
  0
ARC
  5
45B
100
AcDbEntity
  8
BEZUGSACHSEN
100
AcDbCircle
 62
7
  6
CONTINUOUS
 10
169.1803718066
 20
183.6662066606
 40
2.0
100
AcDbArc
 50
270.0
 51
360.0
  0
ARC
  5
45C
100
AcDbEntity
  8
RUNDUNGEN
100
AcDbCircle
 62
7
  6
CONTINUOUS
 10
169.1803718066
 20
191.6662066606
 40
2.0
100
AcDbArc
 50
0.0
 51
14.6559693357
  0
ARC
  5
45D
100
AcDbEntity
  8
RUNDUNGEN
100
AcDbCircle
 62
7
  6
CONTINUOUS
 10
179.1803718066
 20
193.4662066606
 40
1.0
100
AcDbArc
 50
270.0
 51
360.0
  0
ARC
  5
45E
100
AcDbEntity
  8
RUNDUNGEN
100
AcDbCircle
 62
7
  6
CONTINUOUS
 10
179.1803718066
 20
196.4662066606
 40
1.0
100
AcDbArc
 50
0.0
 51
90.0
  0
ARC
  5
45F
100
AcDbEntity
  8
BEZUGSACHSEN
100
AcDbCircle
 62
7
  6
CONTINUOUS
 10
172.1649262629
 20
204.1370884854
 40
3.0
100
AcDbArc
 50
337.499950129
 51
22.4999294716
  0
ARC
  5
460
100
AcDbEntity
  8
BEZUGSACHSEN
100
AcDbCircle
 62
7
  6
CONTINUOUS
 10
162.0194939404
 20
228.6303287944
 40
3.0
100
AcDbArc
 50
22.5
 51
67.5
  0
ARC
  5
461
100
AcDbEntity
  8
RUNDUNGEN
100
AcDbCircle
 62
7
  6
CONTINUOUS
 10
162.0194939404
 20
228.6303287944
 40
3.0
100
AcDbArc
 50
22.5
 51
67.5
  0
ARC
  5
462
100
AcDbEntity
  8
0
100
AcDbCircle
 62
7
  6
CONTINUOUS
 10
160.1403718066
 20
223.2183999694
 40
2.05
100
AcDbArc
 50
39.1203622595
 51
223.4436746537
  0
ARC
  5
463
100
AcDbEntity
  8
0
100
AcDbCircle
 62
7
  6
CONTINUOUS
 10
157.6803718066
 20
225.6783999694
 40
2.05
100
AcDbArc
 50
39.1203622595
 51
223.4436746537
  0
ARC
  5
464
100
AcDbEntity
  8
0
100
AcDbCircle
 62
7
  6
CONTINUOUS
 10
160.1403718066
 20
223.2183999694
 40
1.44
100
AcDbArc
 50
147.4318244213
 51
233.3855386471
  0
ARC
  5
465
100
AcDbEntity
  8
0
100
AcDbCircle
 62
7
  6
CONTINUOUS
 10
160.1403718066
 20
223.2183999694
 40
1.44
100
AcDbArc
 50
36.6144613529
 51
122.7876806276
  0
ARC
  5
466
100
AcDbEntity
  8
0
100
AcDbCircle
 62
7
  6
CONTINUOUS
 10
157.6803718066
 20
225.6783999694
 40
1.44
100
AcDbArc
 50
36.6144613529
 51
233.3855386471
  0
ARC
  5
467
100
AcDbEntity
  8
BEZUGSACHSEN
100
AcDbCircle
 62
7
  6
CONTINUOUS
 10
261.7523522098
 20
108.2498307988
 40
71.5918682867
100
AcDbArc
 50
89.5169368893
 51
89.9906278545
  0
ARC
  5
468
100
AcDbEntity
  8
0
100
AcDbCircle
 62
7
  6
CONTINUOUS
 10
246.8722605778
 20
182.9854671268
 40
10.3420266729
100
AcDbArc
 50
193.8072864555
 51
195.5131229956
  0
ARC
  5
469
100
AcDbEntity
  8
0
100
AcDbCircle
 62
7
  6
CONTINUOUS
 10
246.2450680072
 20
181.1838463435
 40
9.629533972
100
AcDbArc
 50
228.5689448666
 51
229.9264898888
  0
ARC
  5
46A
100
AcDbEntity
  8
0
100
AcDbCircle
 62
7
  6
CONTINUOUS
 10
247.6429949283
 20
177.9295921338
 40
9.601007066
100
AcDbArc
 50
199.6010098243
 51
200.5473125796
  0
ARC
  5
46B
100
AcDbEntity
  8
0
100
AcDbCircle
 62
7
  6
CONTINUOUS
 10
247.7020863176
 20
177.1320761806
 40
9.4243106867
100
AcDbArc
 50
198.6839841399
 51
200.6069389214
  0
ARC
  5
46C
100
AcDbEntity
  8
0
100
AcDbCircle
 62
7
  6
CONTINUOUS
 10
244.9661215588
 20
182.5761283776
 40
9.336703417
100
AcDbArc
 50
240.989572228
 51
242.9340220128
  0
ARC
  5
46D
100
AcDbEntity
  8
0
100
AcDbCircle
 62
7
  6
CONTINUOUS
 10
244.4141323366
 20
182.4224881092
 40
9.20039283
100
AcDbArc
 50
240.5504525501
 51
242.4958015263
  0
ARC
  5
46E
100
AcDbEntity
  8
0
100
AcDbCircle
 62
7
  6
CONTINUOUS
 10
243.9946791827
 20
181.8960732227
 40
8.9941413776
100
AcDbArc
 50
243.9571591458
 51
246.2093147089
  0
ARC
  5
46F
100
AcDbEntity
  8
0
100
AcDbCircle
 62
7
  6
CONTINUOUS
 10
247.3705110861
 20
175.3472100178
 40
8.5837463417
100
AcDbArc
 50
184.2655400666
 51
185.2631357656
  0
ARC
  5
470
100
AcDbEntity
  8
0
100
AcDbCircle
 62
7
  6
CONTINUOUS
 10
247.4661522107
 20
174.5608009423
 40
8.4453722669
100
AcDbArc
 50
183.0393297545
 51
185.0653499893
  0
ARC
  5
471
100
AcDbEntity
  8
0
100
AcDbCircle
 62
7
  6
CONTINUOUS
 10
247.8299238705
 20
174.5118172219
 40
8.2789409974
100
AcDbArc
 50
182.7610440095
 51
184.8271588301
  0
ARC
  5
472
100
AcDbEntity
  8
0
100
AcDbCircle
 62
7
  6
CONTINUOUS
 10
244.920455728
 20
181.3093170834
 40
8.0066778434
100
AcDbArc
 50
210.5410876864
 51
213.0492069308
  0
ARC
  5
473
100
AcDbEntity
  8
0
100
AcDbCircle
 62
7
  6
CONTINUOUS
 10
245.3077502273
 20
181.2621415086
 40
7.8627164139
100
AcDbArc
 50
210.7611441885
 51
212.8196211883
  0
ARC
  5
474
100
AcDbEntity
  8
0
100
AcDbCircle
 62
7
  6
CONTINUOUS
 10
241.7444658594
 20
177.8563784257
 40
3.9362828904
100
AcDbArc
 50
180.290521775
 51
184.6313344598
  0
ARC
  5
475
100
AcDbEntity
  8
BEZUGSACHSEN
100
AcDbCircle
 62
7
  6
CONTINUOUS
 10
239.820229638
 20
182.6485331078
 40
3.0
100
AcDbArc
 50
110.0
 51
197.0001902585
  0
ARC
  5
476
100
AcDbEntity
  8
0
100
AcDbCircle
 62
7
  6
CONTINUOUS
 10
241.3121641854
 20
174.8995668729
 40
2.6622627835
100
AcDbArc
 50
204.0373267218
 51
207.5986502534
  0
ARC
  5
477
100
AcDbEntity
  8
0
100
AcDbCircle
 62
7
  6
CONTINUOUS
 10
239.2175109363
 20
181.3438774906
 40
2.5611410169
100
AcDbArc
 50
213.7354151937
 51
217.843793885
  0
ARC
  5
478
100
AcDbEntity
  8
0
100
AcDbCircle
 62
7
  6
CONTINUOUS
 10
241.0733652454
 20
173.5468776969
 40
2.0373421123
100
AcDbArc
 50
172.4336588275
 51
176.6422128445
  0
ARC
  5
479
100
AcDbEntity
  8
0
100
AcDbCircle
 62
7
  6
CONTINUOUS
 10
241.563371195
 20
173.5347874189
 40
2.0027435624
100
AcDbArc
 50
171.9529827431
 51
176.2375701452
  0
ARC
  5
47A
100
AcDbEntity
  8
0
100
AcDbCircle
 62
7
  6
CONTINUOUS
 10
240.4029659064
 20
175.4046427822
 40
1.9435995433
100
AcDbArc
 50
209.0673099011
 51
210.7502142651
  0
ARC
  5
47B
100
AcDbEntity
  8
0
100
AcDbCircle
 62
7
  6
CONTINUOUS
 10
240.3476492727
 20
175.3737163393
 40
1.8802248673
100
AcDbArc
 50
208.2014105683
 51
209.0625442822
  0
ARC
  5
47C
100
AcDbEntity
  8
0
100
AcDbCircle
 62
7
  6
CONTINUOUS
 10
240.2788649333
 20
175.3372631585
 40
1.8023790624
100
AcDbArc
 50
205.5526756018
 51
208.213480669
  0
ARC
  5
47D
100
AcDbEntity
  8
0
100
AcDbCircle
 62
7
  6
CONTINUOUS
 10
238.5293855449
 20
179.9670645109
 40
1.4803253224
100
AcDbArc
 50
181.7628435895
 51
187.5489394042
  0
ARC
  5
47E
100
AcDbEntity
  8
0
100
AcDbCircle
 62
7
  6
CONTINUOUS
 10
240.1483213598
 20
174.2482940754
 40
1.3614874485
100
AcDbArc
 50
166.7726472083
 51
173.1411738224
  0
ARC
  5
47F
100
AcDbEntity
  8
0
100
AcDbCircle
 62
7
  6
CONTINUOUS
 10
237.5864983694
 20
180.5891485131
 40
0.7608235212
100
AcDbArc
 50
181.6708875779
 51
185.4210433225
  0
ARC
  5
480
100
AcDbEntity
  8
0
100
AcDbCircle
 62
7
  6
CONTINUOUS
 10
237.5840493552
 20
180.5888683499
 40
0.7583674079
100
AcDbArc
 50
174.1468007002
 51
181.6551249064
  0
ARC
  5
481
100
AcDbEntity
  8
0
100
AcDbCircle
 62
7
  6
CONTINUOUS
 10
242.9706760612
 20
187.5613150818
 40
43.9080354257
100
AcDbArc
 50
349.5848481037
 51
350.3742861667
  0
ARC
  5
482
100
AcDbEntity
  8
0
100
AcDbCircle
 62
7
  6
CONTINUOUS
 10
246.1439871824
 20
192.0247929425
 40
42.1635615521
100
AcDbArc
 50
343.001081389
 51
343.7403650285
  0
ARC
  5
483
100
AcDbEntity
  8
0
100
AcDbCircle
 62
7
  6
CONTINUOUS
 10
247.4448475509
 20
185.7625687881
 40
11.7067805641
100
AcDbArc
 50
206.6190545883
 51
208.2617855316
  0
ARC
  5
484
100
AcDbEntity
  8
0
100
AcDbCircle
 62
7
  6
CONTINUOUS
 10
247.805709571
 20
185.7152930465
 40
11.5382826555
100
AcDbArc
 50
206.7759136953
 51
208.4452172649
  0
ARC
  5
485
100
AcDbEntity
  8
RUNDUNGEN
100
AcDbCircle
 62
7
  6
CONTINUOUS
 10
241.2640628351
 20
193.4662066606
 40
1.0
100
AcDbArc
 50
180.0
 51
270.0
  0
ARC
  5
486
100
AcDbEntity
  8
0
100
AcDbCircle
 62
7
  6
CONTINUOUS
 10
259.6561113443
 20
180.7279068186
 40
21.9108133075
100
AcDbArc
 50
187.976308198
 51
189.1578967562
  0
ARC
  5
487
100
AcDbEntity
  8
0
100
AcDbCircle
 62
7
  6
CONTINUOUS
 10
259.7911313871
 20
180.6097523488
 40
21.5054104024
100
AcDbArc
 50
187.9099886135
 51
189.0131914668
  0
ARC
  5
488
100
AcDbEntity
  8
0
100
AcDbCircle
 62
7
  6
CONTINUOUS
 10
254.4656597222
 20
179.2915188954
 40
16.5236621288
100
AcDbArc
 50
197.1798608356
 51
197.5422728919
  0
ARC
  5
489
100
AcDbEntity
  8
0
100
AcDbCircle
 62
7
  6
CONTINUOUS
 10
254.4343994019
 20
179.2816055193
 40
16.4908675907
100
AcDbArc
 50
197.5421679672
 51
198.2655397523
  0
ARC
  5
48A
100
AcDbEntity
  8
0
100
AcDbCircle
 62
7
  6
CONTINUOUS
 10
254.6891357953
 20
175.9556802933
 40
15.7645382807
100
AcDbArc
 50
185.6235311631
 51
186.7124599831
  0
ARC
  5
48B
100
AcDbEntity
  8
0
100
AcDbCircle
 62
7
  6
CONTINUOUS
 10
254.9168414429
 20
175.8650611257
 40
15.4558732173
100
AcDbArc
 50
185.6766469809
 51
186.2317584763
  0
ARC
  5
48C
100
AcDbEntity
  8
0
100
AcDbCircle
 62
7
  6
CONTINUOUS
 10
258.9391250382
 20
191.3965622567
 40
29.7206880918
100
AcDbArc
 50
332.7102163727
 51
333.4979221591
  0
ARC
  5
48D
100
AcDbEntity
  8
0
100
AcDbCircle
 62
7
  6
CONTINUOUS
 10
259.9268021053
 20
190.8733573817
 40
28.6030582643
100
AcDbArc
 50
324.8618916625
 51
332.7345154111
  0
ARC
  5
48E
100
AcDbEntity
  8
0
100
AcDbCircle
 62
7
  6
CONTINUOUS
 10
260.3822203475
 20
189.5761086902
 40
27.7985814309
100
AcDbArc
 50
326.9384686185
 51
334.6802028023
  0
ARC
  5
48F
100
AcDbEntity
  8
0
100
AcDbCircle
 62
7
  6
CONTINUOUS
 10
255.0854423678
 20
186.0067630722
 40
19.1139915737
100
AcDbArc
 50
216.23407637
 51
217.3490731413
  0
ARC
  5
490
100
AcDbEntity
  8
0
100
AcDbCircle
 62
7
  6
CONTINUOUS
 10
255.3386146707
 20
185.9362656186
 40
18.8377102252
100
AcDbArc
 50
216.584825772
 51
217.7215643936
  0
ARC
  5
491
100
AcDbEntity
  8
0
100
AcDbCircle
 62
7
  6
CONTINUOUS
 10
254.3527663552
 20
187.4729158675
 40
18.8064756007
100
AcDbArc
 50
204.1703383897
 51
205.168995324
  0
ARC
  5
492
100
AcDbEntity
  8
0
100
AcDbCircle
 62
7
  6
CONTINUOUS
 10
254.9727859494
 20
185.0014082848
 40
18.7036174168
100
AcDbArc
 50
215.0430276818
 51
216.1653367154
  0
ARC
  5
493
100
AcDbEntity
  8
0
100
AcDbCircle
 62
7
  6
CONTINUOUS
 10
254.8000831463
 20
184.2788148165
 40
18.3016270636
100
AcDbArc
 50
194.3571126186
 51
194.8972394343
  0
ARC
  5
494
100
AcDbEntity
  8
0
100
AcDbCircle
 62
7
  6
CONTINUOUS
 10
254.7937054766
 20
184.2771232649
 40
18.2950288826
100
AcDbArc
 50
194.8972548272
 51
195.2183277437
  0
ARC
  5
495
100
AcDbEntity
  8
0
100
AcDbCircle
 62
7
  6
CONTINUOUS
 10
254.33931506
 20
184.3349689156
 40
17.8767741796
100
AcDbArc
 50
204.9506824972
 51
206.0082480918
  0
ARC
  5
496
100
AcDbEntity
  8
BEZUGSACHSEN
100
AcDbCircle
 62
7
  6
CONTINUOUS
 10
261.7757734598
 20
108.2498309329
 40
71.5918681525
100
AcDbArc
 50
90.0093721451
 51
90.4830631111
  0
ARC
  5
497
100
AcDbEntity
  8
0
100
AcDbCircle
 62
7
  6
CONTINUOUS
 10
277.5268628191
 20
192.0669573043
 40
42.3123829295
100
AcDbArc
 50
196.2603343095
 51
196.7022930274
  0
ARC
  5
498
100
AcDbEntity
  8
0
100
AcDbCircle
 62
7
  6
CONTINUOUS
 10
277.182301789
 20
191.9637285212
 40
41.9526907243
100
AcDbArc
 50
196.7174116278
 51
196.9654499628
  0
ARC
  5
499
100
AcDbEntity
  8
0
100
AcDbCircle
 62
7
  6
CONTINUOUS
 10
278.849913326
 20
186.3729298766
 40
41.9200607006
100
AcDbArc
 50
191.3342394487
 51
191.7497709951
  0
ARC
  5
49A
100
AcDbEntity
  8
0
100
AcDbCircle
 62
7
  6
CONTINUOUS
 10
277.4998828631
 20
182.1599571723
 40
39.4003234992
100
AcDbArc
 50
190.4603460844
 51
190.9011487677
  0
ARC
  5
49B
100
AcDbEntity
  8
0
100
AcDbCircle
 62
7
  6
CONTINUOUS
 10
273.7193550812
 20
186.3343980257
 40
36.9951396903
100
AcDbArc
 50
197.8301358423
 51
198.3154051473
  0
ARC
  5
49C
100
AcDbEntity
  8
0
100
AcDbCircle
 62
7
  6
CONTINUOUS
 10
268.8385669908
 20
191.1401120466
 40
20.2145788957
100
AcDbArc
 50
324.7546936451
 51
325.7820287296
  0
ARC
  5
49D
100
AcDbEntity
  8
0
100
AcDbCircle
 62
7
  6
CONTINUOUS
 10
269.1888106102
 20
184.3349689156
 40
17.8767741796
100
AcDbArc
 50
333.9917519082
 51
335.0493175028
  0
ARC
  5
49E
100
AcDbEntity
  8
0
100
AcDbCircle
 62
7
  6
CONTINUOUS
 10
268.5990258939
 20
180.7939018277
 40
17.4100341301
100
AcDbArc
 50
355.6544479045
 51
356.6369689182
  0
ARC
  5
49F
100
AcDbEntity
  8
0
100
AcDbCircle
 62
7
  6
CONTINUOUS
 10
268.388179009
 20
180.700894065
 40
17.0842852236
100
AcDbArc
 50
355.8842174885
 51
356.3135953202
  0
ARC
  5
4A0
100
AcDbEntity
  8
0
100
AcDbCircle
 62
7
  6
CONTINUOUS
 10
269.0624659467
 20
179.2915188959
 40
16.5236621302
100
AcDbArc
 50
342.4577271082
 51
342.8201391644
  0
ARC
  5
4A1
100
AcDbEntity
  8
0
100
AcDbCircle
 62
7
  6
CONTINUOUS
 10
269.083965992
 20
179.2847237652
 40
16.5011138321
100
AcDbArc
 50
342.0957862308
 51
342.4577229652
  0
ARC
  5
4A2
100
AcDbEntity
  8
0
100
AcDbCircle
 62
7
  6
CONTINUOUS
 10
269.1037144565
 20
179.2783448062
 40
16.4803606885
100
AcDbArc
 50
341.7343417219
 51
342.0957821775
  0
ARC
  5
4A3
100
AcDbEntity
  8
0
100
AcDbCircle
 62
7
  6
CONTINUOUS
 10
274.5041981797
 20
189.533543471
 40
14.4224650977
100
AcDbArc
 50
319.7737063715
 51
321.306451369
  0
ARC
  5
4A4
100
AcDbEntity
  8
0
100
AcDbCircle
 62
7
  6
CONTINUOUS
 10
274.1242644724
 20
189.5123293247
 40
14.2845588214
100
AcDbArc
 50
319.4163293931
 51
320.9716350421
  0
ARC
  5
4A5
100
AcDbEntity
  8
0
100
AcDbCircle
 62
7
  6
CONTINUOUS
 10
276.6558650924
 20
182.9854671268
 40
10.3420266729
100
AcDbArc
 50
344.4868770044
 51
346.1927135445
  0
ARC
  5
4A6
100
AcDbEntity
  8
0
100
AcDbCircle
 62
7
  6
CONTINUOUS
 10
276.7712023601
 20
180.4655638214
 40
9.4925243906
100
AcDbArc
 50
358.5140062084
 51
0.312097125
  0
ARC
  5
4A7
100
AcDbEntity
  8
0
100
AcDbCircle
 62
7
  6
CONTINUOUS
 10
275.8260393526
 20
177.1320761806
 40
9.4243106867
100
AcDbArc
 50
339.3930610786
 51
341.3160158601
  0
ARC
  5
4A8
100
AcDbEntity
  8
0
100
AcDbCircle
 62
7
  6
CONTINUOUS
 10
281.9444100499
 20
185.2198967767
 40
6.5347477005
100
AcDbArc
 50
303.5305901677
 51
305.8258709301
  0
ARC
  5
4A9
100
AcDbEntity
  8
BEZUGSACHSEN
100
AcDbCircle
 62
7
  6
CONTINUOUS
 10
261.7640628351
 20
187.6662066606
 40
6.0
100
AcDbArc
 50
198.716394963
 51
341.283605037
  0
ARC
  5
4AA
100
AcDbEntity
  8
0
100
AcDbCircle
 62
7
  6
CONTINUOUS
 10
281.7836598108
 20
177.8563784257
 40
3.9362828904
100
AcDbArc
 50
355.3686655402
 51
359.709478225
  0
ARC
  5
4AB
100
AcDbEntity
  8
RUNDUNGEN
100
AcDbCircle
 62
7
  6
CONTINUOUS
 10
283.7078960322
 20
182.6485331078
 40
3.0
100
AcDbArc
 50
342.9998097415
 51
70.0
  0
ARC
  5
4AC
100
AcDbEntity
  8
0
100
AcDbCircle
 62
7
  6
CONTINUOUS
 10
282.2159614848
 20
174.8995668729
 40
2.6622627835
100
AcDbArc
 50
332.4013497466
 51
335.9626732782
  0
ARC
  5
4AD
100
AcDbEntity
  8
0
100
AcDbCircle
 62
7
  6
CONTINUOUS
 10
284.0447423582
 20
178.7206533655
 40
2.2018683869
100
AcDbArc
 50
28.5383689171
 51
33.0511802248
  0
ARC
  5
4AE
100
AcDbEntity
  8
0
100
AcDbCircle
 62
7
  6
CONTINUOUS
 10
283.789072533
 20
178.293485197
 40
2.1988236923
100
AcDbArc
 50
316.999117625
 51
318.7362659237
  0
ARC
  5
4AF
100
AcDbEntity
  8
0
100
AcDbCircle
 62
7
  6
CONTINUOUS
 10
283.9068809426
 20
178.1901368752
 40
2.0421083553
100
AcDbArc
 50
318.7359105807
 51
320.5637784291
  0
ARC
  5
4B0
100
AcDbEntity
  8
0
100
AcDbCircle
 62
7
  6
CONTINUOUS
 10
284.0180750637
 20
178.09869579
 40
1.8981444552
100
AcDbArc
 50
320.5634851235
 51
322.4856841087
  0
ARC
  5
4B1
100
AcDbEntity
  8
RUNDUNGEN
100
AcDbCircle
 62
7
  6
CONTINUOUS
 10
282.2640628351
 20
193.4662066606
 40
1.0
100
AcDbArc
 50
270.0
 51
360.0
  0
ARC
  5
4B2
100
AcDbEntity
  8
0
100
AcDbCircle
 62
7
  6
CONTINUOUS
 10
285.9420313689
 20
180.5889035313
 40
0.7603981438
100
AcDbArc
 50
354.5944570332
 51
5.8348485145
  0
ARC
  5
4B3
100
AcDbEntity
  8
0
100
AcDbCircle
 62
7
  6
CONTINUOUS
 10
91.0603726955
 20
257.8126976394
 40
209.2544115167
100
AcDbArc
 50
337.8827990428
 51
338.0587663485
  0
ARC
  5
4B4
100
AcDbEntity
  8
0
100
AcDbCircle
 62
7
  6
CONTINUOUS
 10
97.1290191718
 20
255.5865284542
 40
202.2868787115
100
AcDbArc
 50
337.7613309382
 51
337.9435119017
  0
ARC
  5
4B5
100
AcDbEntity
  8
0
100
AcDbCircle
 62
7
  6
CONTINUOUS
 10
177.5274718636
 20
216.3294791293
 40
114.8563205363
100
AcDbArc
 50
339.390410912
 51
339.7075883244
  0
ARC
  5
4B6
100
AcDbEntity
  8
0
100
AcDbCircle
 62
7
  6
CONTINUOUS
 10
173.9801471955
 20
202.8439308303
 40
114.3913711911
100
AcDbArc
 50
347.9832455119
 51
348.211958092
  0
ARC
  5
4B7
100
AcDbEntity
  8
0
100
AcDbCircle
 62
7
  6
CONTINUOUS
 10
175.3103398448
 20
202.2760813958
 40
112.4539470891
100
AcDbArc
 50
348.0689138663
 51
348.2432257043
  0
ARC
  5
4B8
100
AcDbEntity
  8
0
100
AcDbCircle
 62
7
  6
CONTINUOUS
 10
182.7240609695
 20
218.9608869963
 40
110.622111295
100
AcDbArc
 50
338.3421209422
 51
338.6737402748
  0
ARC
  5
4B9
100
AcDbEntity
  8
0
100
AcDbCircle
 62
7
  6
CONTINUOUS
 10
181.0212842039
 20
208.9603092924
 40
109.3893175172
100
AcDbArc
 50
341.1319475063
 51
341.5811149461
  0
ARC
  5
4BA
100
AcDbEntity
  8
0
100
AcDbCircle
 62
7
  6
CONTINUOUS
 10
184.6200050056
 20
218.1830865217
 40
108.0795524667
100
AcDbArc
 50
338.2505063414
 51
338.5901318844
  0
ARC
  5
4BB
100
AcDbEntity
  8
0
100
AcDbCircle
 62
7
  6
CONTINUOUS
 10
185.8383251786
 20
207.3139075884
 40
104.2986866821
100
AcDbArc
 50
340.6597746118
 51
341.1320307601
  0
ARC
  5
4BC
100
AcDbEntity
  8
0
100
AcDbCircle
 62
7
  6
CONTINUOUS
 10
186.2354889549
 20
208.5563853769
 40
104.2799382766
100
AcDbArc
 50
340.4181059694
 51
340.8864891067
  0
ARC
  5
4BD
100
AcDbEntity
  8
0
100
AcDbCircle
 62
7
  6
CONTINUOUS
 10
190.7213598829
 20
206.9600717836
 40
99.5185033736
100
AcDbArc
 50
339.921362122
 51
340.4050534448
  0
ARC
  5
4BE
100
AcDbEntity
  8
0
100
AcDbCircle
 62
7
  6
CONTINUOUS
 10
192.1666920136
 20
206.3542703591
 40
97.458989354
100
AcDbArc
 50
339.844302547
 51
340.4029228353
  0
ARC
  5
4BF
100
AcDbEntity
  8
0
100
AcDbCircle
 62
7
  6
CONTINUOUS
 10
203.9352865766
 20
199.2702776109
 40
84.6463173673
100
AcDbArc
 50
343.0003544234
 51
343.2373967915
  0
ARC
  5
4C0
100
AcDbEntity
  8
0
100
AcDbCircle
 62
7
  6
CONTINUOUS
 10
204.9132408153
 20
198.8114266856
 40
83.0769400547
100
AcDbArc
 50
343.0003679008
 51
343.2418852811
  0
ARC
  5
4C1
100
AcDbEntity
  8
0
100
AcDbCircle
 62
7
  6
CONTINUOUS
 10
308.4397158366
 20
206.5686603421
 40
76.0947663842
100
AcDbArc
 50
200.8581335538
 51
201.2185876249
  0
ARC
  5
4C2
100
AcDbEntity
  8
0
100
AcDbCircle
 62
7
  6
CONTINUOUS
 10
219.3255469278
 20
204.6775311352
 40
71.4764836892
100
AcDbArc
 50
337.814443028
 51
338.2007144649
  0
ARC
  5
4C3
100
AcDbEntity
  8
0
100
AcDbCircle
 62
7
  6
CONTINUOUS
 10
302.8723843894
 20
202.9650556721
 40
69.7027985872
100
AcDbArc
 50
201.9212293928
 51
202.3176860745
  0
ARC
  5
4C4
100
AcDbEntity
  8
0
100
AcDbCircle
 62
7
  6
CONTINUOUS
 10
230.1209012778
 20
206.8663069358
 40
61.6464604102
100
AcDbArc
 50
333.1548065328
 51
333.6192937753
  0
ARC
  5
4C5
100
AcDbEntity
  8
0
100
AcDbCircle
 62
7
  6
CONTINUOUS
 10
272.0090289718
 20
195.00631734
 40
37.8807208736
100
AcDbArc
 50
202.9765744687
 51
203.9589235435
  0
ARC
  5
4C6
100
AcDbEntity
  8
0
100
AcDbCircle
 62
7
  6
CONTINUOUS
 10
271.9420088124
 20
194.8283980638
 40
37.2646065941
100
AcDbArc
 50
203.0811319923
 51
203.9151573942
  0
ARC
  5
4C7
100
AcDbEntity
  8
0
100
AcDbCircle
 62
7
  6
CONTINUOUS
 10
255.3301720591
 20
197.9415224557
 40
35.0034654732
100
AcDbArc
 50
328.4450627478
 51
329.5825600149
  0
ARC
  5
4C8
100
AcDbEntity
  8
0
100
AcDbCircle
 62
7
  6
CONTINUOUS
 10
255.4443460819
 20
197.7260251631
 40
34.3279733072
100
AcDbArc
 50
328.1743738008
 51
329.3374109838
  0
ARC
  5
4C9
100
AcDbEntity
  8
RUNDUNGEN
100
AcDbCircle
 62
7
  6
CONTINUOUS
 10
277.7640628351
 20
196.5178669663
 40
8.0
100
AcDbArc
 50
179.9990125271
 51
250.0003361135
  0
ARC
  5
4CA
100
AcDbEntity
  8
BEZUGSACHSEN
100
AcDbCircle
 62
7
  6
CONTINUOUS
 10
245.7640628351
 20
196.5178669663
 40
8.0
100
AcDbArc
 50
289.9996638865
 51
0.0009874729
  0
ARC
  5
4CB
100
AcDbEntity
  8
BEZUGSACHSEN
100
AcDbCircle
 62
7
  6
CONTINUOUS
 10
256.7640628351
 20
238.9190300597
 40
3.0
100
AcDbArc
 50
90.0
 51
180.0
  0
ARC
  5
4CC
100
AcDbEntity
  8
RUNDUNGEN
100
AcDbCircle
 62
7
  6
CONTINUOUS
 10
266.7640628351
 20
238.9190300597
 40
3.0
100
AcDbArc
 50
0.0
 51
90.0
  0
ARC
  5
4CD
100
AcDbEntity
  8
RUNDUNGEN
100
AcDbCircle
 62
7
  6
CONTINUOUS
 10
241.2640628351
 20
196.4662066606
 40
1.0
100
AcDbArc
 50
90.0
 51
180.0
  0
ARC
  5
4CE
100
AcDbEntity
  8
RUNDUNGEN
100
AcDbCircle
 62
7
  6
CONTINUOUS
 10
282.2640628351
 20
196.4662066606
 40
1.0
100
AcDbArc
 50
0.0
 51
90.0
  0
ARC
  5
4CF
100
AcDbEntity
  8
0
100
AcDbCircle
 62
7
  6
CONTINUOUS
 10
532.9324111198
 20
279.497311757
 40
312.0320585352
100
AcDbArc
 50
199.274754791
 51
199.3906833087
  0
ARC
  5
4D0
100
AcDbEntity
  8
0
100
AcDbCircle
 62
7
  6
CONTINUOUS
 10
443.9642381662
 20
230.77634453
 40
212.8299055771
100
AcDbArc
 50
194.1548959958
 51
194.3203583463
  0
ARC
  5
4D1
100
AcDbEntity
  8
0
100
AcDbCircle
 62
7
  6
CONTINUOUS
 10
375.8271520565
 20
231.750788958
 40
147.6249565654
100
AcDbArc
 50
202.5426863439
 51
202.7305745885
  0
ARC
  5
4D2
100
AcDbEntity
  8
0
100
AcDbCircle
 62
7
  6
CONTINUOUS
 10
377.7694818642
 20
218.7000637344
 40
145.9615862694
100
AcDbArc
 50
197.2959917809
 51
197.4184971354
  0
ARC
  5
4D3
100
AcDbEntity
  8
0
100
AcDbCircle
 62
7
  6
CONTINUOUS
 10
371.9304503551
 20
230.2596028051
 40
142.9529347534
100
AcDbArc
 50
202.6729070484
 51
202.8671249814
  0
ARC
  5
4D4
100
AcDbEntity
  8
0
100
AcDbCircle
 62
7
  6
CONTINUOUS
 10
346.0006538066
 20
216.3294791293
 40
114.8563205363
100
AcDbArc
 50
200.2924116756
 51
200.609589088
  0
ARC
  5
4D5
100
AcDbEntity
  8
0
100
AcDbCircle
 62
7
  6
CONTINUOUS
 10
343.6217070898
 20
201.5570306913
 40
108.3269487454
100
AcDbArc
 50
192.487266895
 51
192.7294306839
  0
ARC
  5
4D6
100
AcDbEntity
  8
0
100
AcDbCircle
 62
7
  6
CONTINUOUS
 10
337.6898004916
 20
207.3139075884
 40
104.2986866821
100
AcDbArc
 50
198.8679692399
 51
199.3402253882
  0
ARC
  5
4D7
100
AcDbEntity
  8
0
100
AcDbCircle
 62
7
  6
CONTINUOUS
 10
339.0394037091
 20
196.1713878894
 40
102.378259119
100
AcDbArc
 50
192.0160521389
 51
192.2718315533
  0
ARC
  5
4D8
100
AcDbEntity
  8
0
100
AcDbCircle
 62
7
  6
CONTINUOUS
 10
337.6189241381
 20
195.5893216857
 40
100.3496668535
100
AcDbArc
 50
192.0250284644
 51
192.1836799638
  0
ARC
  5
4D9
100
AcDbEntity
  8
0
100
AcDbCircle
 62
7
  6
CONTINUOUS
 10
328.991956515
 20
206.1899758443
 40
95.6579503726
100
AcDbArc
 50
196.2492734768
 51
196.4960901744
  0
ARC
  5
4DA
100
AcDbEntity
  8
0
100
AcDbCircle
 62
7
  6
CONTINUOUS
 10
320.5231801605
 20
210.748280207
 40
88.7138552304
100
AcDbArc
 50
203.8639154386
 51
204.2853347569
  0
ARC
  5
4DB
100
AcDbEntity
  8
0
100
AcDbCircle
 62
7
  6
CONTINUOUS
 10
135.5955903127
 20
66.7451121569
 40
35.469935994
100
AcDbArc
 50
89.2067959536
 51
90.8558386039
  0
ARC
  5
4DC
100
AcDbEntity
  8
0
100
AcDbCircle
 62
7
  6
CONTINUOUS
 10
137.1576219249
 20
67.1980860582
 40
35.0754372221
100
AcDbArc
 50
93.4190419587
 51
93.8964547057
  0
ARC
  5
4DD
100
AcDbEntity
  8
0
100
AcDbCircle
 62
7
  6
CONTINUOUS
 10
138.6682885146
 20
67.7100733326
 40
34.7015641837
100
AcDbArc
 50
96.4432345547
 51
98.1425411586
  0
ARC
  5
4DE
100
AcDbEntity
  8
RUNDUNGEN
100
AcDbCircle
 62
7
  6
CONTINUOUS
 10
124.1041764794
 20
49.1694921349
 40
19.0
100
AcDbArc
 50
42.3666890629
 51
65.0509128657
  0
ARC
  5
4DF
100
AcDbEntity
  8
RUNDUNGEN
100
AcDbCircle
 62
7
  6
CONTINUOUS
 10
102.4512701979
 20
72.2766910992
 40
3.0000301707
100
AcDbArc
 50
185.8202393526
 51
269.9997106303
  0
ARC
  5
4E0
100
AcDbEntity
  8
0
100
AcDbCircle
 62
7
  6
CONTINUOUS
 10
138.7651533004
 20
87.8082160393
 40
35.469935994
100
AcDbArc
 50
269.2067959536
 51
270.8558386039
  0
ARC
  5
4E1
100
AcDbEntity
  8
0
100
AcDbCircle
 62
7
  6
CONTINUOUS
 10
137.2031216882
 20
87.3552421379
 40
35.0754372221
100
AcDbArc
 50
273.4190419587
 51
273.8964547057
  0
ARC
  5
4E2
100
AcDbEntity
  8
0
100
AcDbCircle
 62
7
  6
CONTINUOUS
 10
135.6924550985
 20
86.8432548636
 40
34.7015641838
100
AcDbArc
 50
276.4432345547
 51
278.1425411586
  0
ARC
  5
4E3
100
AcDbEntity
  8
RUNDUNGEN
100
AcDbCircle
 62
7
  6
CONTINUOUS
 10
124.1041764794
 20
105.3838360612
 40
19.0
100
AcDbArc
 50
294.9490871343
 51
317.6333109371
  0
ARC
  5
4E4
100
AcDbEntity
  8
0
100
AcDbCircle
 62
7
  6
CONTINUOUS
 10
137.1803718066
 20
77.2766640981
 40
19.0
100
AcDbArc
 50
321.3085478757
 51
335.1001719134
  0
ARC
  5
4E5
100
AcDbEntity
  8
0
100
AcDbCircle
 62
7
  6
CONTINUOUS
 10
137.1803718066
 20
77.2766640981
 40
19.0
100
AcDbArc
 50
206.5757024207
 51
284.1359360484
  0
ARC
  5
4E6
100
AcDbEntity
  8
0
100
AcDbCircle
 62
7
  6
CONTINUOUS
 10
137.1803718066
 20
77.2766640981
 40
19.0
100
AcDbArc
 50
24.9007492778
 51
38.6914255566
  0
ARC
  5
4E7
100
AcDbEntity
  8
0
100
AcDbCircle
 62
7
  6
CONTINUOUS
 10
137.1803718066
 20
77.2766640981
 40
19.0
100
AcDbArc
 50
75.8640625949
 51
155.0992493449
  0
ARC
  5
4E8
100
AcDbEntity
  8
RUNDUNGEN
100
AcDbCircle
 62
7
  6
CONTINUOUS
 10
137.1803718066
 20
77.2766640981
 40
18.75
100
AcDbArc
 50
25.2665359304
 51
39.0882753597
  0
ARC
  5
4E9
100
AcDbEntity
  8
RUNDUNGEN
100
AcDbCircle
 62
7
  6
CONTINUOUS
 10
137.1803718066
 20
77.2766640981
 40
18.75
100
AcDbArc
 50
76.5581706541
 51
154.7334640696
  0
ARC
  5
4EA
100
AcDbEntity
  8
RUNDUNGEN
100
AcDbCircle
 62
7
  6
CONTINUOUS
 10
137.1803718066
 20
77.2766640981
 40
18.75
100
AcDbArc
 50
206.9755145151
 51
283.4418293458
  0
ARC
  5
4EB
100
AcDbEntity
  8
RUNDUNGEN
100
AcDbCircle
 62
7
  6
CONTINUOUS
 10
137.1803718066
 20
77.2766640981
 40
18.75
100
AcDbArc
 50
320.9117246383
 51
334.7334640696
  0
ARC
  5
4EC
100
AcDbEntity
  8
RUNDUNGEN
100
AcDbCircle
 62
7
  6
CONTINUOUS
 10
137.1803718066
 20
77.2766640981
 40
12.0
100
AcDbArc
 50
221.8557640151
 51
245.0509128657
  0
ARC
  5
4ED
100
AcDbEntity
  8
RUNDUNGEN
100
AcDbCircle
 62
7
  6
CONTINUOUS
 10
137.1803718066
 20
77.2766640981
 40
12.0
100
AcDbArc
 50
114.9490871343
 51
138.1442352133
  0
ARC
  5
4EE
100
AcDbEntity
  8
BEZUGSACHSEN
100
AcDbCircle
 62
7
  6
CONTINUOUS
 10
102.4512700585
 20
82.2766372513
 40
3.0000301707
100
AcDbArc
 50
90.0002867067
 51
174.1797633104
  0
ARC
  5
4EF
100
AcDbEntity
  8
RUNDUNGEN
100
AcDbCircle
 62
7
  6
CONTINUOUS
 10
152.1803718066
 20
74.7766640981
 40
19.0
100
AcDbArc
 50
222.3666890629
 51
280.0
  0
ARC
  5
4F0
100
AcDbEntity
  8
RUNDUNGEN
100
AcDbCircle
 62
7
  6
CONTINUOUS
 10
153.1803718066
 20
71.2766640981
 40
6.0
100
AcDbArc
 50
199.4752286779
 51
270.0
  0
ARC
  5
4F1
100
AcDbEntity
  8
RUNDUNGEN
100
AcDbCircle
 62
7
  6
CONTINUOUS
 10
171.9094684522
 20
72.2766910991
 40
3.0000301706
100
AcDbArc
 50
270.0004655927
 51
354.1796397503
  0
ARC
  5
4F2
100
AcDbEntity
  8
RUNDUNGEN
100
AcDbCircle
 62
7
  6
CONTINUOUS
 10
178.6803718066
 20
61.6793633789
 40
1.5
100
AcDbArc
 50
280.0
 51
360.0
  0
ARC
  5
4F3
100
AcDbEntity
  8
RUNDUNGEN
100
AcDbCircle
 62
7
  6
CONTINUOUS
 10
176.6803718066
 20
69.7766640981
 40
1.5
100
AcDbArc
 50
90.0
 51
180.0
  0
ARC
  5
4F4
100
AcDbEntity
  8
RUNDUNGEN
100
AcDbCircle
 62
7
  6
CONTINUOUS
 10
178.6803718066
 20
69.7766640981
 40
1.5
100
AcDbArc
 50
0.0
 51
90.0
  0
ARC
  5
4F5
100
AcDbEntity
  8
RUNDUNGEN
100
AcDbCircle
 62
7
  6
CONTINUOUS
 10
173.6803718066
 20
66.7766640981
 40
1.5
100
AcDbArc
 50
270.0
 51
360.0
  0
ARC
  5
4F6
100
AcDbEntity
  8
RUNDUNGEN
100
AcDbCircle
 62
7
  6
CONTINUOUS
 10
152.1803718066
 20
79.7766640981
 40
19.0
100
AcDbArc
 50
80.0
 51
137.6333109371
  0
ARC
  5
4F7
100
AcDbEntity
  8
RUNDUNGEN
100
AcDbCircle
 62
7
  6
CONTINUOUS
 10
153.1803718066
 20
83.2766640981
 40
6.0
100
AcDbArc
 50
90.0
 51
160.5247713076
  0
ARC
  5
4F8
100
AcDbEntity
  8
BEZUGSACHSEN
100
AcDbCircle
 62
7
  6
CONTINUOUS
 10
171.9094685917
 20
82.2766372515
 40
3.0000301706
100
AcDbArc
 50
5.8203575864
 51
89.9995370706
  0
ARC
  5
4F9
100
AcDbEntity
  8
RUNDUNGEN
100
AcDbCircle
 62
7
  6
CONTINUOUS
 10
178.6803718066
 20
92.8739648173
 40
1.5
100
AcDbArc
 50
0.0
 51
80.0
  0
ARC
  5
4FA
100
AcDbEntity
  8
RUNDUNGEN
100
AcDbCircle
 62
7
  6
CONTINUOUS
 10
176.6803718066
 20
84.7766640981
 40
1.5
100
AcDbArc
 50
180.0
 51
270.0
  0
ARC
  5
4FB
100
AcDbEntity
  8
RUNDUNGEN
100
AcDbCircle
 62
7
  6
CONTINUOUS
 10
178.6803718066
 20
84.7766640981
 40
1.5
100
AcDbArc
 50
270.0
 51
360.0
  0
ARC
  5
4FC
100
AcDbEntity
  8
RUNDUNGEN
100
AcDbCircle
 62
7
  6
CONTINUOUS
 10
173.6803718066
 20
87.7766640981
 40
1.5
100
AcDbArc
 50
0.0
 51
90.0
  0
SPLINE
  5
4FD
100
AcDbEntity
  8
0
100
AcDbSpline
 62
7
  6
CONTINUOUS
 70
0
 71
3
 72
11
 73
7
 74
0
 42
0.0000001
 43
0.0000001
 44
0.0000000001
 40
0.0
 40
0.0
 40
0.0
 40
0.0
 40
0.2764843604
 40
0.5392140509
 40
0.7819732146
 40
1.0
 40
1.0
 40
1.0
 40
1.0
 10
134.57180916
 20
186.9780197347
 30
0.0
 10
133.5392153035
 20
187.0301068724
 30
0.0
 10
131.5278482809
 20
187.1926888126
 30
0.0
 10
128.6323846163
 20
187.6172378001
 30
0.0
 10
125.9883136563
 20
188.2021098897
 30
0.0
 10
124.3401263023
 20
188.7151874452
 30
0.0
 10
123.5763070143
 20
189.000326
 30
0.0
  0
SPLINE
  5
4FE
100
AcDbEntity
  8
0
100
AcDbSpline
 62
7
  6
CONTINUOUS
 70
0
 71
3
 72
11
 73
7
 74
0
 42
0.0000001
 43
0.0000001
 44
0.0000000001
 40
0.0
 40
0.0
 40
0.0
 40
0.0
 40
0.218022384
 40
0.4607826241
 40
0.7235153349
 40
1.0
 40
1.0
 40
1.0
 40
1.0
 10
150.7844365988
 20
189.000326
 30
0.0
 10
150.0203637068
 20
188.7150927732
 30
0.0
 10
148.3715969318
 20
188.2018670489
 30
0.0
 10
145.7265723803
 20
187.6168901423
 30
0.0
 10
142.8300484034
 20
187.1923475595
 30
0.0
 10
140.817948612
 20
187.0298448792
 30
0.0
 10
139.7849858213
 20
186.9778206862
 30
0.0
  0
SPLINE
  5
4FF
100
AcDbEntity
  8
0
100
AcDbSpline
 62
7
  6
CONTINUOUS
 70
0
 71
3
 72
10
 73
6
 74
0
 42
0.0000001
 43
0.0000001
 44
0.0000000001
 40
0.0
 40
0.0
 40
0.0
 40
0.0
 40
0.2539778235
 40
0.5027353096
 40
1.0
 40
1.0
 40
1.0
 40
1.0
 10
152.7552134076
 20
190.3689579017
 30
0.0
 10
152.6233132174
 20
190.2118396659
 30
0.0
 10
152.3412924792
 20
189.9175304988
 30
0.0
 10
151.7062986973
 20
189.4151676221
 30
0.0
 10
151.1607236502
 20
189.1407963281
 30
0.0
 10
150.7844365988
 20
189.000326
 30
0.0
  0
SPLINE
  5
500
100
AcDbEntity
  8
0
100
AcDbSpline
 62
7
  6
CONTINUOUS
 70
0
 71
3
 72
10
 73
6
 74
0
 42
0.0000001
 43
0.0000001
 44
0.0000000001
 40
0.0
 40
0.0
 40
0.0
 40
0.0
 40
0.497264697
 40
0.7460220727
 40
1.0
 40
1.0
 40
1.0
 40
1.0
 10
123.5763070143
 20
189.000326
 30
0.0
 10
123.2000190819
 20
189.140796657
 30
0.0
 10
122.654442868
 20
189.415168709
 30
0.0
 10
122.0194480148
 20
189.9175332763
 30
0.0
 10
121.7374269005
 20
190.2118434011
 30
0.0
 10
121.6055265479
 20
190.3689622336
 30
0.0
  0
SPLINE
  5
501
100
AcDbEntity
  8
0
100
AcDbSpline
 62
7
  6
CONTINUOUS
 70
0
 71
3
 72
9
 73
5
 74
0
 42
0.0000001
 43
0.0000001
 44
0.0000000001
 40
0.0
 40
0.0
 40
0.0
 40
0.0
 40
0.2325563739
 40
1.0
 40
1.0
 40
1.0
 40
1.0
 10
155.9420344554
 20
198.2380022831
 30
0.0
 10
155.9394784727
 20
198.2310806506
 30
0.0
 10
155.9287805869
 20
198.2012091836
 30
0.0
 10
155.9190796402
 20
198.1709882549
 30
0.0
 10
155.9119694937
 20
198.1477002449
 30
0.0
  0
SPLINE
  5
502
100
AcDbEntity
  8
0
100
AcDbSpline
 62
7
  6
CONTINUOUS
 70
0
 71
3
 72
9
 73
5
 74
0
 42
0.0000001
 43
0.0000001
 44
0.0000000001
 40
0.0
 40
0.0
 40
0.0
 40
0.0
 40
0.4596861321
 40
1.0
 40
1.0
 40
1.0
 40
1.0
 10
155.9119694937
 20
198.1477002449
 30
0.0
 10
155.8806128801
 20
198.044997281
 30
0.0
 10
155.8245066653
 20
197.8180148533
 30
0.0
 10
155.7741564559
 20
197.5899581991
 30
0.0
 10
155.7474952154
 20
197.4665883383
 30
0.0
  0
SPLINE
  5
503
100
AcDbEntity
  8
0
100
AcDbSpline
 62
7
  6
CONTINUOUS
 70
0
 71
3
 72
9
 73
5
 74
0
 42
0.0000001
 43
0.0000001
 44
0.0000000001
 40
0.0
 40
0.0
 40
0.0
 40
0.0
 40
0.2470192285
 40
1.0
 40
1.0
 40
1.0
 40
1.0
 10
153.9890964752
 20
192.1191005201
 30
0.0
 10
153.897880564
 20
191.9681058845
 30
0.0
 10
153.5197547014
 20
191.3623869137
 30
0.0
 10
153.1009688066
 20
190.7808176152
 30
0.0
 10
152.7552214018
 20
190.3689666373
 30
0.0
  0
SPLINE
  5
504
100
AcDbEntity
  8
0
100
AcDbSpline
 62
7
  6
CONTINUOUS
 70
0
 71
3
 72
9
 73
5
 74
0
 42
0.0000001
 43
0.0000001
 44
0.0000000001
 40
0.0
 40
0.0
 40
0.0
 40
0.0
 40
0.2525983873
 40
1.0
 40
1.0
 40
1.0
 40
1.0
 10
121.6055179019
 20
190.3689716811
 30
0.0
 10
121.4895202002
 20
190.5071473804
 30
0.0
 10
121.0441995111
 20
191.0658374723
 30
0.0
 10
120.6476639363
 20
191.662190351
 30
0.0
 10
120.3716453391
 20
192.1190988014
 30
0.0
  0
SPLINE
  5
505
100
AcDbEntity
  8
0
100
AcDbSpline
 62
7
  6
CONTINUOUS
 70
0
 71
3
 72
9
 73
5
 74
0
 42
0.0000001
 43
0.0000001
 44
0.0000000001
 40
0.0
 40
0.0
 40
0.0
 40
0.0
 40
0.2447062818
 40
1.0
 40
1.0
 40
1.0
 40
1.0
 10
120.3716453391
 20
192.1190988014
 30
0.0
 10
120.3043184642
 20
192.2305624848
 30
0.0
 10
120.0375353545
 20
192.6909835841
 30
0.0
 10
119.8102979141
 20
193.1748893735
 30
0.0
 10
119.6678905657
 20
193.5507412243
 30
0.0
  0
SPLINE
  5
506
100
AcDbEntity
  8
0
100
AcDbSpline
 62
7
  6
CONTINUOUS
 70
0
 71
3
 72
14
 73
10
 74
0
 42
0.0000001
 43
0.0000001
 44
0.0000000001
 40
0.0
 40
0.0
 40
0.0
 40
0.0
 40
0.2579702802
 40
0.5194287618
 40
0.6497641962
 40
0.7774883933
 40
0.8981133283
 40
0.952684785
 40
1.0
 40
1.0
 40
1.0
 40
1.0
 10
119.6678905657
 20
193.5507412243
 30
0.0
 10
119.522981582
 20
193.9332080343
 30
0.0
 10
119.2628116667
 20
194.7154915586
 30
0.0
 10
119.0002762277
 20
195.7121006596
 30
0.0
 10
118.8165068912
 20
196.5150387371
 30
0.0
 10
118.6907634034
 20
197.1021065194
 30
0.0
 10
118.5917330182
 20
197.5720799762
 30
0.0
 10
118.5124817783
 20
197.9158325134
 30
0.0
 10
118.4716906775
 20
198.0722280642
 30
0.0
 10
118.4498983922
 20
198.1440086982
 30
0.0
  0
SPLINE
  5
507
100
AcDbEntity
  8
0
100
AcDbSpline
 62
7
  6
CONTINUOUS
 70
0
 71
3
 72
9
 73
5
 74
0
 42
0.0000001
 43
0.0000001
 44
0.0000000001
 40
0.0
 40
0.0
 40
0.0
 40
0.0
 40
0.267328585
 40
1.0
 40
1.0
 40
1.0
 40
1.0
 10
118.4498983922
 20
198.1440086982
 30
0.0
 10
118.4473345853
 20
198.1524535071
 30
0.0
 10
118.4375731382
 20
198.1839896521
 30
0.0
 10
118.4270881982
 20
198.2153116998
 30
0.0
 10
118.4187092487
 20
198.2380019968
 30
0.0
  0
SPLINE
  5
508
100
AcDbEntity
  8
BEZUGSACHSEN
100
AcDbSpline
 62
7
  6
CONTINUOUS
 70
0
 71
3
 72
29
 73
25
 74
0
 42
0.0000001
 43
0.0000001
 44
0.0000000001
 40
0.0
 40
0.0
 40
0.0
 40
0.0
 40
0.0967431724
 40
0.2015162247
 40
0.2650190862
 40
0.3346017224
 40
0.4092654767
 40
0.4880551348
 40
0.5700870683
 40
0.6120687907
 40
0.6545703515
 40
0.697506612
 40
0.7407970799
 40
0.7843636227
 40
0.8281252256
 40
0.8719787954
 40
0.8938990678
 40
0.9157565937
 40
0.9374535682
 40
0.9587768706
 40
0.9692558592
 40
0.9796004084
 40
0.9898321145
 40
1.0
 40
1.0
 40
1.0
 40
1.0
 10
109.0215351177
 20
179.8391546373
 30
0.0
 10
109.841559592
 20
179.6251697284
 30
0.0
 10
111.5445431231
 20
179.1592704668
 30
0.0
 10
113.7632963659
 20
178.4742245777
 30
0.0
 10
115.7366102887
 20
177.8046686699
 30
0.0
 10
117.4463298967
 20
177.1804721156
 30
0.0
 10
119.2639519619
 20
176.4630729998
 30
0.0
 10
121.160242898
 20
175.6501375525
 30
0.0
 10
122.769643668
 20
174.8967706885
 30
0.0
 10
124.0726774814
 20
174.2409099541
 30
0.0
 10
125.0589266697
 20
173.717977535
 30
0.0
 10
126.0423643169
 20
173.1658937858
 30
0.0
 10
127.0178853781
 20
172.581489608
 30
0.0
 10
127.9787598283
 20
171.9595844417
 30
0.0
 10
128.9139252553
 20
171.2910271332
 30
0.0
 10
129.6566582734
 20
170.6810786035
 30
0.0
 10
130.2050158435
 20
170.1430324305
 30
0.0
 10
130.5785830187
 20
169.7062534075
 30
0.0
 10
130.8883168645
 20
169.2272541652
 30
0.0
 10
131.0477614428
 20
168.7770482535
 30
0.0
 10
131.0635713734
 20
168.4052483327
 30
0.0
 10
131.0130448269
 20
168.1355154267
 30
0.0
 10
130.9068465172
 20
167.8860263748
 30
0.0
 10
130.8071051539
 20
167.7366520993
 30
0.0
 10
130.7525956104
 20
167.6662066606
 30
0.0
  0
LINE
  5
509
100
AcDbEntity
  8
BEZUGSACHSEN
100
AcDbLine
 62
7
  6
CONTINUOUS
 10
109.0119588577
 20
179.8416981277
 11
109.0215351177
 21
179.8391546373
  0
SPLINE
  5
50A
100
AcDbEntity
  8
BEZUGSACHSEN
100
AcDbSpline
 62
7
  6
CONTINUOUS
 70
0
 71
3
 72
28
 73
24
 74
0
 42
0.0000001
 43
0.0000001
 44
0.0000000001
 40
0.0
 40
0.0
 40
0.0
 40
0.0
 40
0.0202885345
 40
0.0306066832
 40
0.0410779503
 40
0.0623891596
 40
0.0840871659
 40
0.1059465015
 40
0.1278692639
 40
0.1717283521
 40
0.2154960275
 40
0.2590688116
 40
0.302365654
 40
0.3453083313
 40
0.3878162828
 40
0.4298044508
 40
0.5118490777
 40
0.5906509309
 40
0.6653266324
 40
0.7349206045
 40
0.7984341595
 40
0.9032272946
 40
1.0
 40
1.0
 40
1.0
 40
1.0
 10
143.6081480027
 20
167.6662066606
 30
0.0
 10
143.499391285
 20
167.806758465
 30
0.0
 10
143.3638179229
 20
168.0473663212
 30
0.0
 10
143.2973571051
 20
168.4038796019
 30
0.0
 10
143.3124853587
 20
168.7753054501
 30
0.0
 10
143.4715558008
 20
169.2254575404
 30
0.0
 10
143.780867703
 20
169.7045696353
 30
0.0
 10
144.1542759502
 20
170.1414949614
 30
0.0
 10
144.7025110714
 20
170.6796957746
 30
0.0
 10
145.4451831536
 20
171.2897926976
 30
0.0
 10
146.3803373299
 20
171.9584686173
 30
0.0
 10
147.3412249049
 20
172.5804787881
 30
0.0
 10
148.31678206
 20
173.1649614502
 30
0.0
 10
149.3002563373
 20
173.717129784
 30
0.0
 10
150.2865563559
 20
174.2401264103
 30
0.0
 10
151.5896575197
 20
174.8960780862
 30
0.0
 10
153.1991526039
 20
175.6495397366
 30
0.0
 10
155.0955674383
 20
176.4625653205
 30
0.0
 10
156.9133111806
 20
177.1800556131
 30
0.0
 10
158.6231574108
 20
177.8043277033
 30
0.0
 10
160.5966468476
 20
178.4739697147
 30
0.0
 10
162.8157122811
 20
179.1591348174
 30
0.0
 10
164.5189710823
 20
179.6251135637
 30
0.0
 10
165.3391768494
 20
179.8391463271
 30
0.0
  0
LINE
  5
50B
100
AcDbEntity
  8
BEZUGSACHSEN
100
AcDbLine
 62
7
  6
CONTINUOUS
 10
165.3391768494
 20
179.8391463271
 11
165.3487836435
 21
179.8416975955
  0
LINE
  5
50C
100
AcDbEntity
  8
0
100
AcDbLine
 62
7
  6
CONTINUOUS
 10
238.6450101333
 20
174.5225902348
 11
238.6792463362
 21
174.4108875272
  0
LINE
  5
50D
100
AcDbEntity
  8
0
100
AcDbLine
 62
7
  6
CONTINUOUS
 10
284.8831155369
 20
174.5225902348
 11
284.848879334
 21
174.4108875272
  0
LINE
  5
50E
100
AcDbEntity
  8
0
100
AcDbLine
 62
7
  6
CONTINUOUS
 10
237.8545721258
 20
179.6236535934
 11
238.2382036312
 21
178.4321639565
  0
LINE
  5
50F
100
AcDbEntity
  8
0
100
AcDbLine
 62
7
  6
CONTINUOUS
 10
237.9999532002
 20
178.4321639565
 11
238.0315105398
 21
178.3327112353
  0
LINE
  5
510
100
AcDbEntity
  8
0
100
AcDbLine
 62
7
  6
CONTINUOUS
 10
238.0315105398
 20
178.3327112353
 11
238.1890411625
 21
177.8364193466
  0
SPLINE
  5
511
100
AcDbEntity
  8
0
100
AcDbSpline
 62
7
  6
CONTINUOUS
 70
0
 71
3
 72
8
 73
4
 74
0
 42
0.0000001
 43
0.0000001
 44
0.0000000001
 40
0.0
 40
0.0
 40
0.0
 40
0.0
 40
1.0
 40
1.0
 40
1.0
 40
1.0
 10
238.4302861192
 20
177.8364193466
 30
0.0
 10
238.7506517201
 20
176.8432763815
 30
0.0
 10
239.0717119047
 20
175.8503571234
 30
0.0
 10
239.3935673548
 20
174.8576959846
 30
0.0
  0
LINE
  5
512
100
AcDbEntity
  8
0
100
AcDbLine
 62
7
  6
CONTINUOUS
 10
236.9995972814
 20
179.9064270031
 11
237.0027363123
 21
179.895970771
  0
LINE
  5
513
100
AcDbEntity
  8
0
100
AcDbLine
 62
7
  6
CONTINUOUS
 10
237.0553550073
 20
179.722143616
 11
237.0626913889
 21
179.698121591
  0
LINE
  5
514
100
AcDbEntity
  8
0
100
AcDbLine
 62
7
  6
CONTINUOUS
 10
237.5036848956
 20
179.0279089835
 11
237.5962403962
 21
178.7300362614
  0
LINE
  5
515
100
AcDbEntity
  8
0
100
AcDbLine
 62
7
  6
CONTINUOUS
 10
237.7812009879
 20
177.5385470417
 11
237.811708982
 21
177.4391690594
  0
LINE
  5
516
100
AcDbEntity
  8
0
100
AcDbLine
 62
7
  6
CONTINUOUS
 10
237.811708982
 20
177.4391690594
 11
237.964094007
 21
176.9428024319
  0
SPLINE
  5
517
100
AcDbEntity
  8
0
100
AcDbSpline
 62
7
  6
CONTINUOUS
 70
0
 71
3
 72
9
 73
5
 74
0
 42
0.0000001
 43
0.0000001
 44
0.0000000001
 40
0.0
 40
0.0
 40
0.0
 40
0.0
 40
0.242853169
 40
1.0
 40
1.0
 40
1.0
 40
1.0
 10
238.0044401264
 20
176.9428024319
 30
0.0
 10
238.0140730627
 20
176.9302497328
 30
0.0
 10
238.0544082274
 20
176.8790766485
 30
0.0
 10
238.0973207414
 20
176.8299506268
 30
0.0
 10
238.1309583851
 20
176.7938662794
 30
0.0
  0
LINE
  5
518
100
AcDbEntity
  8
0
100
AcDbLine
 62
7
  6
CONTINUOUS
 10
238.4950645058
 20
175.9002491561
 11
238.6807307654
 21
175.3045045462
  0
LINE
  5
519
100
AcDbEntity
  8
0
100
AcDbLine
 62
7
  6
CONTINUOUS
 10
238.6807307654
 20
175.3045045462
 11
238.7543613893
 21
175.0066322413
  0
LINE
  5
51A
100
AcDbEntity
  8
0
100
AcDbLine
 62
7
  6
CONTINUOUS
 10
238.9954687243
 20
173.5849153023
 11
238.967727822
 21
173.6661857954
  0
LINE
  5
51B
100
AcDbEntity
  8
0
100
AcDbLine
 62
7
  6
CONTINUOUS
 10
286.0244407746
 20
179.0279089835
 11
285.9935747968
 21
178.9285678361
  0
LINE
  5
51C
100
AcDbEntity
  8
0
100
AcDbLine
 62
7
  6
CONTINUOUS
 10
285.9935747968
 20
178.9285678361
 11
285.9627229643
 21
178.8292769279
  0
LINE
  5
51D
100
AcDbEntity
  8
0
100
AcDbLine
 62
7
  6
CONTINUOUS
 10
285.9627229643
 20
178.8292769279
 11
285.9318852739
 21
178.7300362614
  0
LINE
  5
51E
100
AcDbEntity
  8
0
100
AcDbLine
 62
7
  6
CONTINUOUS
 10
285.9318852739
 20
178.7300362614
 11
285.9067285774
 21
178.6303910253
  0
LINE
  5
51F
100
AcDbEntity
  8
0
100
AcDbLine
 62
7
  6
CONTINUOUS
 10
285.9067285774
 20
178.6303910253
 11
285.8815570626
 21
178.5308873878
  0
LINE
  5
520
100
AcDbEntity
  8
0
100
AcDbLine
 62
7
  6
CONTINUOUS
 10
285.8815570626
 20
178.5308873878
 11
285.8311693537
 21
178.3323049548
  0
LINE
  5
521
100
AcDbEntity
  8
0
100
AcDbLine
 62
7
  6
CONTINUOUS
 10
285.8311693537
 20
178.3323049548
 11
285.7807223568
 21
178.1342916516
  0
LINE
  5
522
100
AcDbEntity
  8
0
100
AcDbLine
 62
7
  6
CONTINUOUS
 10
285.7807223568
 20
178.1342916516
 11
285.7606368534
 21
178.0347120896
  0
LINE
  5
523
100
AcDbEntity
  8
0
100
AcDbLine
 62
7
  6
CONTINUOUS
 10
285.7606368534
 20
178.0347120896
 11
285.7403595955
 21
177.9354206526
  0
LINE
  5
524
100
AcDbEntity
  8
0
100
AcDbLine
 62
7
  6
CONTINUOUS
 10
285.7403595955
 20
177.9354206526
 11
285.7198920992
 21
177.8364193466
  0
LINE
  5
525
100
AcDbEntity
  8
0
100
AcDbLine
 62
7
  6
CONTINUOUS
 10
285.7469246822
 20
177.5385470417
 11
285.5640316632
 21
176.9428024319
  0
LINE
  5
526
100
AcDbEntity
  8
0
100
AcDbLine
 62
7
  6
CONTINUOUS
 10
285.0330611644
 20
175.9002491561
 11
284.8473949048
 21
175.3045045462
  0
LINE
  5
527
100
AcDbEntity
  8
0
100
AcDbLine
 62
7
  6
CONTINUOUS
 10
284.8067970308
 20
174.3974663229
 11
284.811266109
 21
174.4108875272
  0
LINE
  5
528
100
AcDbEntity
  8
0
100
AcDbLine
 62
7
  6
CONTINUOUS
 10
284.3159378615
 20
173.6662066606
 11
284.5485745005
 21
174.4108875272
  0
SPLINE
  5
529
100
AcDbEntity
  8
0
100
AcDbSpline
 62
7
  6
CONTINUOUS
 70
0
 71
3
 72
8
 73
4
 74
0
 42
0.0000001
 43
0.0000001
 44
0.0000000001
 40
0.0
 40
0.0
 40
0.0
 40
0.0
 40
1.0
 40
1.0
 40
1.0
 40
1.0
 10
285.6907799816
 20
178.1342916516
 30
0.0
 10
285.7592682074
 20
178.3328109291
 30
0.0
 10
285.8275738271
 20
178.5313932931
 30
0.0
 10
285.8957024685
 20
178.7300362614
 30
0.0
  0
LINE
  5
52A
100
AcDbEntity
  8
0
100
AcDbLine
 62
7
  6
CONTINUOUS
 10
285.8957024685
 20
178.7300362614
 11
285.9884821562
 21
179.0279089835
  0
LINE
  5
52B
100
AcDbEntity
  8
0
100
AcDbLine
 62
7
  6
CONTINUOUS
 10
285.9884821562
 20
179.0279089835
 11
286.155269437
 21
179.6236535934
  0
SPLINE
  5
52C
100
AcDbEntity
  8
0
100
AcDbSpline
 62
7
  6
CONTINUOUS
 70
0
 71
3
 72
9
 73
5
 74
0
 42
0.0000001
 43
0.0000001
 44
0.0000000001
 40
0.0
 40
0.0
 40
0.0
 40
0.0
 40
0.2435723473
 40
1.0
 40
1.0
 40
1.0
 40
1.0
 10
286.263585924
 20
180.5172705081
 30
0.0
 10
286.2554825541
 20
180.5298052949
 30
0.0
 10
286.2215157651
 20
180.5808147203
 30
0.0
 10
286.184850295
 20
180.630012871
 30
0.0
 10
286.1558906711
 20
180.6662066606
 30
0.0
  0
LINE
  5
52D
100
AcDbEntity
  8
0
100
AcDbLine
 62
7
  6
CONTINUOUS
 10
237.8573316112
 20
178.1342916516
 11
237.6916405368
 21
178.7300362614
  0
LINE
  5
52E
100
AcDbEntity
  8
0
100
AcDbLine
 62
7
  6
CONTINUOUS
 10
237.6916405368
 20
178.7300362614
 11
237.5984944561
 21
179.0279089835
  0
SPLINE
  5
52F
100
AcDbEntity
  8
0
100
AcDbSpline
 62
7
  6
CONTINUOUS
 70
0
 71
3
 72
8
 73
4
 74
0
 42
0.0000001
 43
0.0000001
 44
0.0000000001
 40
0.0
 40
0.0
 40
0.0
 40
0.0
 40
1.0
 40
1.0
 40
1.0
 40
1.0
 10
237.5984944561
 20
179.0279089835
 30
0.0
 10
237.5295570273
 20
179.2264270325
 30
0.0
 10
237.4608045701
 20
179.4250094054
 30
0.0
 10
237.3922314601
 20
179.6236535934
 30
0.0
  0
SPLINE
  5
530
100
AcDbEntity
  8
0
100
AcDbSpline
 62
7
  6
CONTINUOUS
 70
0
 71
3
 72
9
 73
5
 74
0
 42
0.0000001
 43
0.0000001
 44
0.0000000001
 40
0.0
 40
0.0
 40
0.0
 40
0.0
 40
0.2594093265
 40
1.0
 40
1.0
 40
1.0
 40
1.0
 10
236.9789239352
 20
180.5172705081
 30
0.0
 10
236.9669238831
 20
180.5295037426
 30
0.0
 10
236.9212888637
 20
180.5772657113
 30
0.0
 10
236.8782326517
 20
180.6275242687
 30
0.0
 10
236.8482810342
 20
180.6662066606
 30
0.0
  0
LINE
  5
531
100
AcDbEntity
  8
0
100
AcDbLine
 62
7
  6
CONTINUOUS
 10
237.1552157738
 20
179.4232704154
 11
237.1402361259
 21
179.4747174409
  0
LINE
  5
532
100
AcDbEntity
  8
0
100
AcDbLine
 62
7
  6
CONTINUOUS
 10
237.0700334541
 20
179.740655378
 11
237.0618901868
 21
179.7725897458
  0
LINE
  5
533
100
AcDbEntity
  8
0
100
AcDbLine
 62
7
  6
CONTINUOUS
 10
284.5971957106
 20
175.3045045462
 11
284.4619476203
 21
174.8576959846
  0
LINE
  5
534
100
AcDbEntity
  8
0
100
AcDbLine
 62
7
  6
CONTINUOUS
 10
285.4284047261
 20
179.4747174409
 11
285.4250725984
 21
179.4586319614
  0
LINE
  5
535
100
AcDbEntity
  8
0
100
AcDbLine
 62
7
  6
CONTINUOUS
 10
285.4250725984
 20
179.4586319614
 11
285.4051592449
 21
179.3627456029
  0
LINE
  5
536
100
AcDbEntity
  8
0
100
AcDbLine
 62
7
  6
CONTINUOUS
 10
285.3349402549
 20
179.0279089835
 11
285.2413073554
 21
178.7300362614
  0
SPLINE
  5
537
100
AcDbEntity
  8
BEZUGSACHSEN
100
AcDbSpline
 62
7
  6
CONTINUOUS
 70
0
 71
3
 72
23
 73
19
 74
0
 42
0.0000001
 43
0.0000001
 44
0.0000000001
 40
0.0
 40
0.0
 40
0.0
 40
0.0
 40
0.1673528435
 40
0.2475662752
 40
0.3240978715
 40
0.3961571096
 40
0.4632034965
 40
0.524984222
 40
0.5815751133
 40
0.6334097292
 40
0.6812994728
 40
0.7264318863
 40
0.7703589658
 40
0.8150534949
 40
0.8633775624
 40
0.9216704828
 40
0.9599088425
 40
1.0
 40
1.0
 40
1.0
 40
1.0
 10
261.1721865788
 20
179.8391546373
 30
0.0
 10
259.6557253666
 20
179.8266238491
 30
0.0
 10
257.4117913666
 20
179.7393710316
 30
0.0
 10
254.4870150507
 20
179.466696101
 30
0.0
 10
252.4316928563
 20
179.1881608453
 30
0.0
 10
250.509833248
 20
178.8296083996
 30
0.0
 10
248.7426230641
 20
178.3871143015
 30
0.0
 10
247.1462874492
 20
177.8565985612
 30
0.0
 10
245.7321670767
 20
177.2338799061
 30
0.0
 10
244.5074143291
 20
176.5145722661
 30
0.0
 10
243.4762524958
 20
175.6940298855
 30
0.0
 10
242.6415114004
 20
174.7670980013
 30
0.0
 10
242.0056476164
 20
173.7267046458
 30
0.0
 10
241.5717064348
 20
172.5557045326
 30
0.0
 10
241.3511027623
 20
171.1943070459
 30
0.0
 10
241.3992010363
 20
169.8723289024
 30
0.0
 10
241.6484221559
 20
168.6567822787
 30
0.0
 10
241.9033771549
 20
167.988051271
 30
0.0
 10
242.0719020721
 20
167.6662066606
 30
0.0
  0
SPLINE
  5
538
100
AcDbEntity
  8
0
100
AcDbSpline
 62
7
  6
CONTINUOUS
 70
0
 71
3
 72
9
 73
5
 74
0
 42
0.0000001
 43
0.0000001
 44
0.0000000001
 40
0.0
 40
0.0
 40
0.0
 40
0.0
 40
0.2461293992
 40
1.0
 40
1.0
 40
1.0
 40
1.0
 10
285.0056797349
 20
178.1342916516
 30
0.0
 10
284.8455013332
 20
177.8154563166
 30
0.0
 10
284.1711917162
 20
176.5320578758
 30
0.0
 10
283.3986962929
 20
175.2998540621
 30
0.0
 10
282.7629992567
 20
174.4108875272
 30
0.0
  0
LINE
  5
539
100
AcDbEntity
  8
0
100
AcDbLine
 62
7
  6
CONTINUOUS
 10
282.7629992567
 20
174.4108875272
 11
282.5089020672
 21
173.6662066606
  0
LINE
  5
53A
100
AcDbEntity
  8
0
100
AcDbLine
 62
7
  6
CONTINUOUS
 10
237.9204519679
 20
179.6236535934
 11
237.87669001
 21
179.7219438305
  0
SPLINE
  5
53B
100
AcDbEntity
  8
0
100
AcDbSpline
 62
7
  6
CONTINUOUS
 70
0
 71
3
 72
9
 73
5
 74
0
 42
0.0000001
 43
0.0000001
 44
0.0000000001
 40
0.0
 40
0.0
 40
0.0
 40
0.0
 40
0.2595881412
 40
1.0
 40
1.0
 40
1.0
 40
1.0
 10
237.5046160209
 20
180.5172705081
 30
0.0
 10
237.4924760746
 20
180.5295002766
 30
0.0
 10
237.4463374121
 20
180.5772267969
 30
0.0
 10
237.4027921228
 20
180.6274945651
 30
0.0
 10
237.3725079039
 20
180.6662066606
 30
0.0
  0
LINE
  5
53C
100
AcDbEntity
  8
0
100
AcDbLine
 62
7
  6
CONTINUOUS
 10
239.5605937306
 20
174.1130151701
 11
239.5522977796
 21
174.1873201065
  0
LINE
  5
53D
100
AcDbEntity
  8
0
100
AcDbLine
 62
7
  6
CONTINUOUS
 10
239.5367643108
 20
174.3362562592
 11
239.5295283596
 21
174.4108875272
  0
SPLINE
  5
53E
100
AcDbEntity
  8
0
100
AcDbSpline
 62
7
  6
CONTINUOUS
 70
0
 71
3
 72
8
 73
4
 74
0
 42
0.0000001
 43
0.0000001
 44
0.0000000001
 40
0.0
 40
0.0
 40
0.0
 40
0.0
 40
1.0
 40
1.0
 40
1.0
 40
1.0
 10
240.0248517393
 20
175.1555683938
 30
0.0
 10
239.7310019748
 20
176.0489236424
 30
0.0
 10
239.4379819074
 20
176.9425521311
 30
0.0
 10
239.1456932056
 20
177.8364193466
 30
0.0
  0
LINE
  5
53F
100
AcDbEntity
  8
0
100
AcDbLine
 62
7
  6
CONTINUOUS
 10
239.6045541132
 20
177.8364193466
 11
239.4039954969
 21
178.4321639565
  0
LINE
  5
540
100
AcDbEntity
  8
0
100
AcDbLine
 62
7
  6
CONTINUOUS
 10
238.9510075898
 20
178.4321639565
 11
238.9416991444
 21
178.4606661874
  0
LINE
  5
541
100
AcDbEntity
  8
0
100
AcDbLine
 62
7
  6
CONTINUOUS
 10
238.9416991444
 20
178.4606661874
 11
238.5623304751
 21
179.6236535934
  0
LINE
  5
542
100
AcDbEntity
  8
0
100
AcDbLine
 62
7
  6
CONTINUOUS
 10
286.4425911174
 20
179.6236535934
 11
286.412085227
 21
179.5240682871
  0
LINE
  5
543
100
AcDbEntity
  8
0
100
AcDbLine
 62
7
  6
CONTINUOUS
 10
286.412085227
 20
179.5240682871
 11
286.2598366418
 21
179.0279089835
  0
LINE
  5
544
100
AcDbEntity
  8
0
100
AcDbLine
 62
7
  6
CONTINUOUS
 10
240.9197437605
 20
173.6662066606
 11
240.7177700438
 21
174.2619513226
  0
SPLINE
  5
545
100
AcDbEntity
  8
BEZUGSACHSEN
100
AcDbSpline
 62
7
  6
CONTINUOUS
 70
0
 71
3
 72
23
 73
19
 74
0
 42
0.0000001
 43
0.0000001
 44
0.0000000001
 40
0.0
 40
0.0
 40
0.0
 40
0.0
 40
0.1673528435
 40
0.2475662752
 40
0.3240978715
 40
0.3961571096
 40
0.4632034965
 40
0.524984222
 40
0.5815751133
 40
0.6334097292
 40
0.6812994728
 40
0.7264318863
 40
0.7703589658
 40
0.8150534949
 40
0.8633775624
 40
0.9216704828
 40
0.9599088425
 40
1.0
 40
1.0
 40
1.0
 40
1.0
 10
262.3559390913
 20
179.8391546373
 30
0.0
 10
263.8724003036
 20
179.8266238491
 30
0.0
 10
266.1163343036
 20
179.7393710316
 30
0.0
 10
269.0411106195
 20
179.466696101
 30
0.0
 10
271.0964328138
 20
179.1881608453
 30
0.0
 10
273.0182924221
 20
178.8296083996
 30
0.0
 10
274.7855026061
 20
178.3871143015
 30
0.0
 10
276.381838221
 20
177.8565985612
 30
0.0
 10
277.7959585935
 20
177.2338799061
 30
0.0
 10
279.020711341
 20
176.5145722661
 30
0.0
 10
280.0518731743
 20
175.6940298855
 30
0.0
 10
280.8866142698
 20
174.7670980013
 30
0.0
 10
281.5224780538
 20
173.7267046458
 30
0.0
 10
281.9564192353
 20
172.5557045326
 30
0.0
 10
282.1770229079
 20
171.1943070459
 30
0.0
 10
282.1289246339
 20
169.8723289024
 30
0.0
 10
281.8797035142
 20
168.6567822787
 30
0.0
 10
281.6247485153
 20
167.988051271
 30
0.0
 10
281.4562235981
 20
167.6662066606
 30
0.0
  0
SPLINE
  5
546
100
AcDbEntity
  8
0
100
AcDbSpline
 62
7
  6
CONTINUOUS
 70
0
 71
3
 72
8
 73
4
 74
0
 42
0.0000001
 43
0.0000001
 44
0.0000000001
 40
0.0
 40
0.0
 40
0.0
 40
0.0
 40
1.0
 40
1.0
 40
1.0
 40
1.0
 10
239.4816027701
 20
175.1555683938
 30
0.0
 10
239.188506502
 20
176.0489395188
 30
0.0
 10
238.8961908311
 20
176.9425670345
 30
0.0
 10
238.604565329
 20
177.8364193466
 30
0.0
  0
LINE
  5
547
100
AcDbEntity
  8
0
100
AcDbLine
 62
7
  6
CONTINUOUS
 10
285.120080761
 20
175.3045045462
 11
284.9848078718
 21
174.8576959846
  0
LINE
  5
548
100
AcDbEntity
  8
0
100
AcDbLine
 62
7
  6
CONTINUOUS
 10
239.0543155797
 20
177.8364193466
 11
238.8544111055
 21
178.4321639565
  0
LINE
  5
549
100
AcDbEntity
  8
0
100
AcDbLine
 62
7
  6
CONTINUOUS
 10
238.4103117491
 20
178.4321639565
 11
238.0224598179
 21
179.6236535934
  0
LINE
  5
54A
100
AcDbEntity
  8
0
100
AcDbLine
 62
7
  6
CONTINUOUS
 10
284.484231341
 20
173.6065621083
 11
284.4764517234
 21
173.5847026068
  0
LINE
  5
54B
100
AcDbEntity
  8
0
100
AcDbLine
 62
7
  6
CONTINUOUS
 10
284.1913591742
 20
172.7944202283
 11
284.1833758029
 21
172.7725896415
  0
SPLINE
  5
54C
100
AcDbEntity
  8
0
100
AcDbSpline
 62
7
  6
CONTINUOUS
 70
0
 71
3
 72
9
 73
5
 74
0
 42
0.0000001
 43
0.0000001
 44
0.0000000001
 40
0.0
 40
0.0
 40
0.0
 40
0.0
 40
0.2414883781
 40
1.0
 40
1.0
 40
1.0
 40
1.0
 10
285.5038999343
 20
180.6662066606
 30
0.0
 10
285.4814647703
 20
180.6535946589
 30
0.0
 10
285.3881825104
 20
180.6020431082
 30
0.0
 10
285.2934611744
 20
180.5531098713
 30
0.0
 10
285.2209999207
 20
180.5172705081
 30
0.0
  0
LINE
  5
54D
100
AcDbEntity
  8
0
100
AcDbLine
 62
7
  6
CONTINUOUS
 10
240.3664736357
 20
173.6662066606
 11
240.1652657135
 21
174.2619513226
  0
LINE
  5
54E
100
AcDbEntity
  8
0
100
AcDbLine
 62
7
  6
CONTINUOUS
 10
283.3174418648
 20
174.4108875272
 11
283.0643705525
 21
173.6662066606
  0
LINE
  5
54F
100
AcDbEntity
  8
0
100
AcDbLine
 62
7
  6
CONTINUOUS
 10
285.86483295
 20
179.0279089835
 11
285.7712839137
 21
178.7300362614
  0
LINE
  5
550
100
AcDbEntity
  8
0
100
AcDbLine
 62
7
  6
CONTINUOUS
 10
238.9043225556
 20
174.8576959846
 11
238.7868712732
 21
175.3045045462
  0
LINE
  5
551
100
AcDbEntity
  8
0
100
AcDbLine
 62
7
  6
CONTINUOUS
 10
238.7868712732
 20
175.3045045462
 11
238.5998540111
 21
175.9002491561
  0
SPLINE
  5
552
100
AcDbEntity
  8
0
100
AcDbSpline
 62
7
  6
CONTINUOUS
 70
0
 71
3
 72
9
 73
5
 74
0
 42
0.0000001
 43
0.0000001
 44
0.0000000001
 40
0.0
 40
0.0
 40
0.0
 40
0.0
 40
0.2415831689
 40
1.0
 40
1.0
 40
1.0
 40
1.0
 10
286.0394706321
 20
180.6662066606
 30
0.0
 10
286.0173793428
 20
180.6535982833
 30
0.0
 10
285.9255567097
 20
180.6020725194
 30
0.0
 10
285.8322931816
 20
180.5531284336
 30
0.0
 10
285.7609437731
 20
180.5172705081
 30
0.0
  0
ENDSEC
  0
SECTION
  2
OBJECTS
  0
DICTIONARY
  5
C
100
AcDbDictionary
280
0
281
1
  3
ACAD_GROUP
350
D
  3
ACAD_MLINESTYLE
350
17
  3
ACAD_LAYOUT
350
1A
  3
ACAD_PLOTSETTINGS
350
19
  3
ACAD_PLOTSTYLENAME
350
E
  0
DICTIONARY
  5
D
102
{ACAD_REACTORS
330
C
102
}
100
AcDbDictionary
280
0
281
1
  0
ACDBDICTIONARYWDFLT
  5
E
102
{ACAD_REACTORS
330
C
102
}
100
AcDbDictionary
281
1
  3
Normal
350
F
100
AcDbDictionaryWithDefault
340
F
  0
DICTIONARY
  5
17
102
{ACAD_REACTORS
330
C
102
}
100
AcDbDictionary
280
0
281
1
  3
Standard
350
18
  0
DICTIONARY
  5
19
102
{ACAD_REACTORS
330
C
102
}
100
AcDbDictionary
281
1
  0
DICTIONARY
  5
1A
102
{ACAD_REACTORS
330
C
102
}
100
AcDbDictionary
281
1
  3
Model
350
553
  3
Layout1
350
554
  0
ACDBPLACEHOLDER
  5
F
102
{ACAD_REACTORS
330
E
102
}
  0
MLINESTYLE
  5
18
102
{ACAD_REACTORS
330
17
102
}
100
AcDbMlineStyle
  2
STANDARD
 70
0
  3

 62
256
 51
90.0
 52
90.0
 71
2
 49
0.5
 62
256
  6
BYLAYER
 49
-0.5
 62
256
  6
BYLAYER
  0
LAYOUT
  5
553
102
{ACAD_REACTORS
330
1A
102
}
100
AcDbPlotSettings
  1

  2
none_device
  4
ISO_A3_(420.00_x_297.00_MM)
  6

 40
0.0
 41
0.0
 42
0.0
 43
0.0
 44
420.0
 45
297.0
 46
0.0
 47
0.0
 48
0.0
 49
0.0
140
0.0
141
0.0
142
1.0
143
1.0
 70
1024
 72
1
 73
0
 74
0
  7

 75
0
147
1.0
148
0.0
149
0.0
100
AcDbLayout
  1
Model
 70
0
 71
0
 10
0.0
 20
0.0
 11
420.0
 21
297.0
 12
0.0
 22
0.0
 32
0.0
 14
0.0
 24
0.0
 34
0.0
 15
0.0
 25
0.0
 35
0.0
146
0.0
 13
0.0
 23
0.0
 33
0.0
 16
1.0
 26
0.0
 36
0.0
 17
0.0
 27
1.0
 37
0.0
 76
0
330
20E
345
0
346
0
  0
LAYOUT
  5
554
102
{ACAD_REACTORS
330
1A
102
}
100
AcDbPlotSettings
  1

  2
none_device
  4
ISO_A3_(420.00_x_297.00_MM)
  6

 40
0.0
 41
0.0
 42
0.0
 43
0.0
 44
420.0
 45
297.0
 46
0.0
 47
0.0
 48
0.0
 49
0.0
140
0.0
141
0.0
142
1.0
143
1.0
 70
0
 72
1
 73
0
 74
0
  7

 75
0
147
1.0
148
0.0
149
0.0
100
AcDbLayout
  1
Layout1
 70
0
 71
1
 10
0.0
 20
0.0
 11
420.0
 21
297.0
 12
0.0
 22
0.0
 32
0.0
 14
0.0
 24
0.0
 34
0.0
 15
0.0
 25
0.0
 35
0.0
146
0.0
 13
0.0
 23
0.0
 33
0.0
 16
1.0
 26
0.0
 36
0.0
 17
0.0
 27
1.0
 37
0.0
 76
0
330
20F
345
0
346
0
  0
ENDSEC
  0
EOF
