999
DXF file: VRS-F_1_5t_M18_7903387_M35307-P-6.dxf
999
Pro/ENGINEER 2011490 by Parametric Technology Corporation
  0
SECTION
  2
HEADER
  9
$ACADVER
  1
AC1015
  9
$DWGCODEPAGE
  3
ANSI_1252
  9
$EXTMAX
 10
297.0
 20
210.0
 30
0.0
  9
$EXTMIN
 10
0.0
 20
0.0
 30
0.0
  9
$LIMMIN
 10
0.0
 20
0.0
  9
$LIMMAX
 10
297.0
 20
210.0
  9
$VIEWCTR
 10
148.5
 20
105.0
  9
$VIEWSIZE
 40
210.0
  9
$CLAYER
  8
0
  9
$LTSCALE
 40
16.335
  9
$CELTYPE
  6
BYLAYER
  9
$DIMSCALE
 40
1.0
  9
$DIMASZ
 40
3.5
  9
$DIMEXO
 40
1.85625
  9
$DIMDLI
 40
11.286
  9
$DIMEXE
 40
5.346
  9
$DIMCEN
 40
2.673
  9
$DIMLFAC
 40
1.0
  9
$DIMBLK
  1
_FILLED
  9
$DIMTXT
 40
3.5
  9
$DIMTOL
 70
1
  9
$DIMLIM
 70
0
  9
$DIMTFAC
 40
1.0
  9
$DIMTP
 40
0.005
  9
$DIMTM
 40
0.005
  9
$PDMODE
 70
3
  9
$PDSIZE
 40
0.3125
  9
$HANDSEED
  5
4D6
  9
$TILEMODE
 70
1
  9
$MEASUREMENT
 70
1
  9
$INSUNITS
 70
4
  0
ENDSEC
  0
SECTION
  2
CLASSES
  0
CLASS
  1
ACDBDICTIONARYWDFLT
  2
AcDbDictionaryWithDefault
  3
AutoCAD 2000
 90
0
280
0
281
0
  0
CLASS
  1
ACDBPLACEHOLDER
  2
AcDbPlaceHolder
  3
AutoCAD 2000
 90
0
280
0
281
0
  0
CLASS
  1
LAYOUT
  2
AcDbLayout
  3
AutoCAD 2000
 90
0
280
0
281
0
  0
ENDSEC
  0
SECTION
  2
TABLES
  0
TABLE
  2
VPORT
  5
8
100
AcDbSymbolTable
 70
2
  0
VPORT
  5
1F4
100
AcDbSymbolTableRecord
100
AcDbViewportTableRecord
  2
*ACTIVE
 70
0
 10
0.0
 20
0.0
 11
1.0
 21
1.0
 12
148.5
 22
105.0
 13
0.0
 23
0.0
 14
1.0
 24
1.0
 15
0.0
 25
0.0
 16
0.0
 26
0.0
 36
1.0
 17
0.0
 27
0.0
 37
0.0
 40
210.0
 41
1.4142857143
 42
50.0
 43
0.0
 44
0.0
 50
0.0
 51
0.0
 71
0
 72
100
 73
1
 74
1
 75
0
 76
0
 77
0
 78
0
  0
ENDTAB
  0
TABLE
  2
LTYPE
  5
5
100
AcDbSymbolTable
 70
6
  0
LTYPE
  5
14
100
AcDbSymbolTableRecord
100
AcDbLinetypeTableRecord
  2
BYBLOCK
 70
0
  3

 72
65
 73
0
 40
0.0
  0
LTYPE
  5
15
100
AcDbSymbolTableRecord
100
AcDbLinetypeTableRecord
  2
BYLAYER
 70
0
  3

 72
65
 73
0
 40
0.0
  0
LTYPE
  5
16
100
AcDbSymbolTableRecord
100
AcDbLinetypeTableRecord
  2
CONTINUOUS
 70
64
  3
Solid line
 72
65
 73
0
 40
0.0
  0
LTYPE
  5
1F5
100
AcDbSymbolTableRecord
100
AcDbLinetypeTableRecord
  2
CENTER
 70
64
  3
____ _ ____ _ ____ _ ____ _ ____ _ ____ _ ____
 72
65
 73
4
 40
0.6
 49
0.375
 74
0
 49
-0.075
 74
0
 49
0.075
 74
0
 49
-0.075
 74
0
  0
LTYPE
  5
1F6
100
AcDbSymbolTableRecord
100
AcDbLinetypeTableRecord
  2
HIDDEN
 70
64
  3
- - - - - - - - - - - - - - - - - - - -
 72
65
 73
2
 40
0.2
 49
0.1
 74
0
 49
-0.1
 74
0
  0
LTYPE
  5
1F7
100
AcDbSymbolTableRecord
100
AcDbLinetypeTableRecord
  2
PHANTOM
 70
64
  3
_____ _ _ _____ _ _ _____ _ _ _____
 72
65
 73
6
 40
0.8
 49
0.45
 74
0
 49
-0.05
 74
0
 49
0.1
 74
0
 49
-0.05
 74
0
 49
0.1
 74
0
 49
-0.05
 74
0
  0
LTYPE
  5
1F8
100
AcDbSymbolTableRecord
100
AcDbLinetypeTableRecord
  2
DOT
 70
64
  3
. . . . . . . . . . . . . . . . . . . .
 72
65
 73
2
 40
0.2
 49
0.1
 74
0
 49
-0.1
 74
0
  0
LTYPE
  5
1F9
100
AcDbSymbolTableRecord
100
AcDbLinetypeTableRecord
  2
DASHED
 70
64
  3
- - - - - - - - - - - - - - - - - - - -
 72
65
 73
2
 40
0.2
 49
0.1
 74
0
 49
-0.1
 74
0
  0
ENDTAB
  0
TABLE
  2
LAYER
  5
2
100
AcDbSymbolTable
 70
36
  0
LAYER
  5
10
100
AcDbSymbolTableRecord
100
AcDbLayerTableRecord
  2
0
 70
0
 62
7
  6
CONTINUOUS
370
-3
390
F
  0
LAYER
  5
1FA
100
AcDbSymbolTableRecord
100
AcDbLayerTableRecord
  2
DEFAULT_1
 70
0
 62
7
  6
CENTER
370
-3
390
F
  0
LAYER
  5
1FB
100
AcDbSymbolTableRecord
100
AcDbLayerTableRecord
  2
DEFAULT_2
 70
0
 62
8
  6
HIDDEN
370
-3
390
F
  0
LAYER
  5
1FC
100
AcDbSymbolTableRecord
100
AcDbLayerTableRecord
  2
DEFAULT_3
 70
0
 62
7
  6
PHANTOM
370
-3
390
F
  0
LAYER
  5
1FD
100
AcDbSymbolTableRecord
100
AcDbLayerTableRecord
  2
BEZUGSACHSEN
 70
0
 62
7
  6
CONTINUOUS
370
-3
390
F
  0
LAYER
  5
1FE
100
AcDbSymbolTableRecord
100
AcDbLayerTableRecord
  2
BEZUGSEBENEN
 70
0
 62
7
  6
CONTINUOUS
370
-3
390
F
  0
LAYER
  5
1FF
100
AcDbSymbolTableRecord
100
AcDbLayerTableRecord
  2
BG_STARTBEZUEGE
 70
0
 62
7
  6
CONTINUOUS
370
-3
390
F
  0
LAYER
  5
200
100
AcDbSymbolTableRecord
100
AcDbLayerTableRecord
  2
FASEN
 70
0
 62
7
  6
CONTINUOUS
370
-3
390
F
  0
LAYER
  5
201
100
AcDbSymbolTableRecord
100
AcDbLayerTableRecord
  2
FLAECHEN
 70
0
 62
7
  6
CONTINUOUS
370
-3
390
F
  0
LAYER
  5
202
100
AcDbSymbolTableRecord
100
AcDbLayerTableRecord
  2
GEWINDE
 70
0
 62
7
  6
CONTINUOUS
370
-3
390
F
  0
LAYER
  5
203
100
AcDbSymbolTableRecord
100
AcDbLayerTableRecord
  2
HILFEN
 70
0
 62
7
  6
CONTINUOUS
370
-3
390
F
  0
LAYER
  5
204
100
AcDbSymbolTableRecord
100
AcDbLayerTableRecord
  2
KONSTRUKTIONSELEMENTE
 70
0
 62
7
  6
CONTINUOUS
370
-3
390
F
  0
LAYER
  5
205
100
AcDbSymbolTableRecord
100
AcDbLayerTableRecord
  2
KURVEN
 70
0
 62
7
  6
CONTINUOUS
370
-3
390
F
  0
LAYER
  5
206
100
AcDbSymbolTableRecord
100
AcDbLayerTableRecord
  2
NORM
 70
0
 62
7
  6
CONTINUOUS
370
-3
390
F
  0
LAYER
  5
207
100
AcDbSymbolTableRecord
100
AcDbLayerTableRecord
  2
PLATZIERUNG
 70
0
 62
7
  6
CONTINUOUS
370
-3
390
F
  0
LAYER
  5
208
100
AcDbSymbolTableRecord
100
AcDbLayerTableRecord
  2
RUNDUNGEN
 70
0
 62
7
  6
CONTINUOUS
370
-3
390
F
  0
LAYER
  5
209
100
AcDbSymbolTableRecord
100
AcDbLayerTableRecord
  2
TEIL_STARTBEZUEGE
 70
0
 62
7
  6
CONTINUOUS
370
-3
390
F
  0
LAYER
  5
20A
100
AcDbSymbolTableRecord
100
AcDbLayerTableRecord
  2
T_STARTBEZUEGE
 70
0
 62
7
  6
CONTINUOUS
370
-3
390
F
  0
LAYER
  5
20B
100
AcDbSymbolTableRecord
100
AcDbLayerTableRecord
  2
ZEICHNUNGSBEMASSUNGEN
 70
0
 62
7
  6
CONTINUOUS
370
-3
390
F
  0
ENDTAB
  0
TABLE
  2
STYLE
  5
3
100
AcDbSymbolTable
 70
1
  0
STYLE
  5
11
100
AcDbSymbolTableRecord
100
AcDbTextStyleTableRecord
  2
STANDARD
 70
0
 40
0.0
 41
0.7
 50
0.0
 71
0
 42
0.2
  3
txt
  4

  0
STYLE
  5
20C
100
AcDbSymbolTableRecord
100
AcDbTextStyleTableRecord
  2
TEXTSTYLE_1
 70
0
 40
0.0
 41
0.8
 50
0.0
 71
0
 42
0.2
  3
gdt
  4

  0
ENDTAB
  0
TABLE
  2
VIEW
  5
6
100
AcDbSymbolTable
 70
0
  0
ENDTAB
  0
TABLE
  2
UCS
  5
7
100
AcDbSymbolTable
 70
0
  0
ENDTAB
  0
TABLE
  2
APPID
  5
9
100
AcDbSymbolTable
 70
1
  0
APPID
  5
20D
100
AcDbSymbolTableRecord
100
AcDbRegAppTableRecord
  2
ACAD
 70
0
  0
ENDTAB
  0
TABLE
  2
BLOCK_RECORD
  5
1
100
AcDbSymbolTable
 70
0
  0
BLOCK_RECORD
  5
20E
100
AcDbSymbolTableRecord
100
AcDbBlockTableRecord
  2
*Model_Space
  0
BLOCK_RECORD
  5
20F
100
AcDbSymbolTableRecord
100
AcDbBlockTableRecord
  2
*Paper_Space
  0
ENDTAB
  0
TABLE
  2
DIMSTYLE
  5
A
100
AcDbSymbolTable
 70
1
100
AcDbDimStyleTable
 71
0
  0
DIMSTYLE
105
210
100
AcDbSymbolTableRecord
100
AcDbDimStyleTableRecord
  2
STANDARD
 70
0
  3

  4

 40
1.0
 41
3.5
 42
0.0625
 43
0.38
 44
0.18
 45
0.0
 46
0.0
 47
0.005
 48
0.005
140
3.5
141
0.09
142
0.0
143
25.4
144
1.0
145
0.0
146
1.0
147
0.09
 71
1.0
 72
0.0
 73
0
 74
0
 75
0
 76
0
 77
1
 78
8
170
0
171
2
172
0
173
0
174
0
175
0
176
0
177
0
178
5
270
2
271
3
272
3
273
2
274
2
275
0
280
0
281
0
282
0
283
1
284
8
285
0
286
0
287
3
288
0
340
11
  0
ENDTAB
  0
ENDSEC
  0
SECTION
  2
BLOCKS
  0
BLOCK
  5
20
100
AcDbEntity
  8
0
100
AcDbBlockBegin
  2
*Model_Space
 70
0
 10
0.0
 20
0.0
 30
0.0
  3
*Model_Space
  1

  0
ENDBLK
  5
21
100
AcDbEntity
  8
0
100
AcDbBlockEnd
  0
BLOCK
  5
1C
100
AcDbEntity
  8
0
100
AcDbBlockBegin
  2
*Paper_Space
 70
0
 10
0.0
 20
0.0
 30
0.0
  3
*Paper_Space
  1

  0
ENDBLK
  5
1D
100
AcDbEntity
  8
0
100
AcDbBlockEnd
  0
ENDSEC
  0
SECTION
  2
ENTITIES
  0
MTEXT
  5
211
100
AcDbEntity
  8
0
100
AcDbMText
 62
5
  6
CONTINUOUS
  7
STANDARD
 71
1
 72
1
 10
198.4128389993
 20
144.7417650765
 30
0.0
 11
0.0
 21
1.0
 31
0.0
 44
0.9
  1
VRS 1,5t RUD
 40
4.0
 41
36.2857142857
  0
MTEXT
  5
212
100
AcDbEntity
  8
0
100
AcDbMText
 62
5
  6
CONTINUOUS
  7
STANDARD
 71
1
 72
1
 10
74.109789863
 20
48.0999171673
 30
0.0
 11
1.0
 21
0.0
 31
0.0
 44
0.9
  1
VRS 1,5t RUD
 40
4.0
 41
36.2857142857
  0
LINE
  5
213
100
AcDbEntity
  8
0
100
AcDbLine
 62
7
  6
CONTINUOUS
 10
0.0
 20
0.0
 11
0.0
 21
210.0
  0
LINE
  5
214
100
AcDbEntity
  8
0
100
AcDbLine
 62
7
  6
CONTINUOUS
 10
0.0
 20
0.0
 11
297.0
 21
0.0
  0
LINE
  5
215
100
AcDbEntity
  8
0
100
AcDbLine
 62
7
  6
CONTINUOUS
 10
0.0
 20
210.0
 11
297.0
 21
210.0
  0
LINE
  5
216
100
AcDbEntity
  8
0
100
AcDbLine
 62
7
  6
CONTINUOUS
 10
297.0
 20
0.0
 11
297.0
 21
210.0
  0
LINE
  5
217
100
AcDbEntity
  8
KONSTRUKTIONSELEMENTE
100
AcDbLine
 62
7
  6
CONTINUOUS
 10
84.7259535486
 20
96.0923777209
 11
99.2259535486
 21
96.0923777209
  0
LINE
  5
218
100
AcDbEntity
  8
KONSTRUKTIONSELEMENTE
100
AcDbLine
 62
7
  6
CONTINUOUS
 10
82.9759535486
 20
97.8423777209
 11
100.9759535486
 21
97.8423777209
  0
LINE
  5
219
100
AcDbEntity
  8
KONSTRUKTIONSELEMENTE
100
AcDbLine
 62
7
  6
CONTINUOUS
 10
82.9759535486
 20
97.8423777209
 11
84.7259535486
 21
96.0923777209
  0
LINE
  5
21A
100
AcDbEntity
  8
KONSTRUKTIONSELEMENTE
100
AcDbLine
 62
7
  6
CONTINUOUS
 10
80.2259535486
 20
120.0923777209
 11
103.7259535486
 21
120.0923777209
  0
LINE
  5
21B
100
AcDbEntity
  8
BEZUGSACHSEN
100
AcDbLine
 62
7
  6
CONTINUOUS
 10
109.9759535486
 20
120.2923777209
 11
73.9759535486
 21
120.2923777209
  0
LINE
  5
21C
100
AcDbEntity
  8
0
100
AcDbLine
 62
7
  6
CONTINUOUS
 10
87.788453489
 20
123.526420276
 11
88.4134534294
 21
123.526420276
  0
LINE
  5
21D
100
AcDbEntity
  8
0
100
AcDbLine
 62
7
  6
CONTINUOUS
 10
93.288453787
 20
125.0583351658
 11
92.7884535486
 21
124.9306756066
  0
LINE
  5
21E
100
AcDbEntity
  8
0
100
AcDbLine
 62
7
  6
CONTINUOUS
 10
91.5384533102
 20
127.3562075006
 11
92.0384535486
 21
127.4838670598
  0
LINE
  5
21F
100
AcDbEntity
  8
0
100
AcDbLine
 62
7
  6
CONTINUOUS
 10
92.7884535486
 20
124.2923777209
 11
93.4134533102
 21
124.4200372914
  0
LINE
  5
220
100
AcDbEntity
  8
0
100
AcDbLine
 62
7
  6
CONTINUOUS
 10
92.0384535486
 20
128.1221648561
 11
91.413453787
 21
127.9945052968
  0
LINE
  5
221
100
AcDbEntity
  8
0
100
AcDbLine
 62
7
  6
CONTINUOUS
 10
86.0384535486
 20
124.2923777209
 11
86.7884535486
 21
124.2923777209
  0
LINE
  5
222
100
AcDbEntity
  8
0
100
AcDbLine
 62
7
  6
CONTINUOUS
 10
92.0384535486
 20
124.2923777209
 11
92.7884535486
 21
124.2923777209
  0
LINE
  5
223
100
AcDbEntity
  8
0
100
AcDbLine
 62
7
  6
CONTINUOUS
 10
92.7884535486
 20
124.9306756066
 11
92.0384535486
 21
124.9306756066
  0
LINE
  5
224
100
AcDbEntity
  8
0
100
AcDbLine
 62
7
  6
CONTINUOUS
 10
89.1634534294
 20
124.9306756066
 11
88.5384536678
 21
124.9306756066
  0
LINE
  5
225
100
AcDbEntity
  8
0
100
AcDbLine
 62
7
  6
CONTINUOUS
 10
90.9134535486
 20
125.8242926107
 11
90.1634535486
 21
125.8242926107
  0
LINE
  5
226
100
AcDbEntity
  8
0
100
AcDbLine
 62
7
  6
CONTINUOUS
 10
90.1634535486
 20
126.9732288228
 11
91.0384534294
 21
126.9732288228
  0
LINE
  5
227
100
AcDbEntity
  8
0
100
AcDbLine
 62
7
  6
CONTINUOUS
 10
92.0384535486
 20
127.4838670598
 11
92.7884535486
 21
127.4838670598
  0
LINE
  5
228
100
AcDbEntity
  8
0
100
AcDbLine
 62
7
  6
CONTINUOUS
 10
95.6634533102
 20
127.8668457376
 11
96.663453787
 21
127.8668457376
  0
LINE
  5
229
100
AcDbEntity
  8
0
100
AcDbLine
 62
7
  6
CONTINUOUS
 10
97.2884535486
 20
127.8668457376
 11
98.6634540255
 21
127.8668457376
  0
LINE
  5
22A
100
AcDbEntity
  8
0
100
AcDbLine
 62
7
  6
CONTINUOUS
 10
92.7884535486
 20
128.1221648561
 11
92.0384535486
 21
128.1221648561
  0
LINE
  5
22B
100
AcDbEntity
  8
0
100
AcDbLine
 62
7
  6
CONTINUOUS
 10
98.6634540255
 20
128.3774839746
 11
97.2884535486
 21
128.3774839746
  0
LINE
  5
22C
100
AcDbEntity
  8
0
100
AcDbLine
 62
7
  6
CONTINUOUS
 10
96.663453787
 20
128.3774839746
 11
95.6634533102
 21
128.3774839746
  0
LINE
  5
22D
100
AcDbEntity
  8
0
100
AcDbLine
 62
7
  6
CONTINUOUS
 10
97.2884535486
 20
129.3987608062
 11
96.663453787
 21
129.3987608062
  0
LINE
  5
22E
100
AcDbEntity
  8
0
100
AcDbLine
 62
7
  6
CONTINUOUS
 10
90.7884536678
 20
129.6540799247
 11
94.413453787
 21
129.6540799247
  0
LINE
  5
22F
100
AcDbEntity
  8
0
100
AcDbLine
 62
7
  6
CONTINUOUS
 10
97.6634535486
 20
124.4200372914
 11
98.4134535486
 21
124.2923777209
  0
LINE
  5
230
100
AcDbEntity
  8
0
100
AcDbLine
 62
7
  6
CONTINUOUS
 10
91.413453787
 20
124.4200372914
 11
92.0384535486
 21
124.2923777209
  0
LINE
  5
231
100
AcDbEntity
  8
0
100
AcDbLine
 62
7
  6
CONTINUOUS
 10
98.4134535486
 20
124.8030160026
 11
97.7884530718
 21
124.9306756066
  0
LINE
  5
232
100
AcDbEntity
  8
0
100
AcDbLine
 62
7
  6
CONTINUOUS
 10
93.4134533102
 20
127.9945052968
 11
92.7884535486
 21
128.1221648561
  0
LINE
  5
233
100
AcDbEntity
  8
0
100
AcDbLine
 62
7
  6
CONTINUOUS
 10
92.0384535486
 20
124.9306756066
 11
91.5384533102
 21
125.0583351658
  0
LINE
  5
234
100
AcDbEntity
  8
0
100
AcDbLine
 62
7
  6
CONTINUOUS
 10
92.7884535486
 20
127.4838670598
 11
93.288453787
 21
127.3562075006
  0
LINE
  5
235
100
AcDbEntity
  8
0
100
AcDbLine
 62
7
  6
CONTINUOUS
 10
97.2884535486
 20
124.5476968618
 11
97.6634535486
 21
124.4200372914
  0
LINE
  5
236
100
AcDbEntity
  8
0
100
AcDbLine
 62
7
  6
CONTINUOUS
 10
90.7884536678
 20
124.8030160026
 11
91.413453787
 21
124.4200372914
  0
LINE
  5
237
100
AcDbEntity
  8
BEZUGSACHSEN
100
AcDbLine
 62
7
  6
CONTINUOUS
 10
68.5317706043
 20
129.1943174509
 11
68.1729546375
 21
130.0589628024
  0
LINE
  5
238
100
AcDbEntity
  8
BEZUGSACHSEN
100
AcDbLine
 62
7
  6
CONTINUOUS
 10
63.8460287539
 20
140.485634684
 11
59.5246774113
 21
150.8988734931
  0
LINE
  5
239
100
AcDbEntity
  8
RUNDUNGEN
100
AcDbLine
 62
7
  6
CONTINUOUS
 10
63.9759535486
 20
139.2923777209
 11
63.9759535486
 21
133.2923777209
  0
LINE
  5
23A
100
AcDbEntity
  8
BEZUGSACHSEN
100
AcDbLine
 62
7
  6
CONTINUOUS
 10
63.9759535486
 20
133.2923777209
 11
63.9759535486
 21
139.2923777209
  0
LINE
  5
23B
100
AcDbEntity
  8
BEZUGSACHSEN
100
AcDbLine
 62
7
  6
CONTINUOUS
 10
63.987364155
 20
139.5057136618
 11
63.9759535486
 21
139.2923777209
  0
LINE
  5
23C
100
AcDbEntity
  8
RUNDUNGEN
100
AcDbLine
 62
7
  6
CONTINUOUS
 10
63.9759535486
 20
139.2923777209
 11
63.987364155
 21
139.5057136618
  0
LINE
  5
23D
100
AcDbEntity
  8
BEZUGSACHSEN
100
AcDbLine
 62
7
  6
CONTINUOUS
 10
59.5240460707
 20
152.8138134259
 11
59.7406188166
 21
153.3366662863
  0
LINE
  5
23E
100
AcDbEntity
  8
RUNDUNGEN
100
AcDbLine
 62
7
  6
CONTINUOUS
 10
59.7406188166
 20
153.3366662863
 11
68.2710364477
 21
173.9309162239
  0
LINE
  5
23F
100
AcDbEntity
  8
RUNDUNGEN
100
AcDbLine
 62
7
  6
CONTINUOUS
 10
69.624026698
 20
175.2839064742
 11
91.0192449677
 21
184.1460960515
  0
LINE
  5
240
100
AcDbEntity
  8
0
100
AcDbLine
 62
7
  6
CONTINUOUS
 10
94.413453787
 20
130.2923777209
 11
90.1634535486
 21
130.2923777209
  0
LINE
  5
241
100
AcDbEntity
  8
0
100
AcDbLine
 62
7
  6
CONTINUOUS
 10
86.7884535486
 20
130.2923777209
 11
86.0384535486
 21
130.2923777209
  0
LINE
  5
242
100
AcDbEntity
  8
0
100
AcDbLine
 62
7
  6
CONTINUOUS
 10
65.9759535486
 20
131.2923777209
 11
66.325700645
 21
131.2923777209
  0
LINE
  5
243
100
AcDbEntity
  8
0
100
AcDbLine
 62
7
  6
CONTINUOUS
 10
117.6262064523
 20
131.2923777209
 11
117.9759535486
 21
131.2923777209
  0
LINE
  5
244
100
AcDbEntity
  8
0
100
AcDbLine
 62
7
  6
CONTINUOUS
 10
94.038453787
 20
127.6115266191
 11
93.4134533102
 21
127.9945052968
  0
LINE
  5
245
100
AcDbEntity
  8
0
100
AcDbLine
 62
7
  6
CONTINUOUS
 10
91.5384533102
 20
125.0583351658
 11
91.1634536678
 21
125.3136542843
  0
LINE
  5
246
100
AcDbEntity
  8
0
100
AcDbLine
 62
7
  6
CONTINUOUS
 10
96.9134535486
 20
124.8030160026
 11
97.2884535486
 21
124.5476968618
  0
LINE
  5
247
100
AcDbEntity
  8
0
100
AcDbLine
 62
7
  6
CONTINUOUS
 10
93.288453787
 20
127.3562075006
 11
93.663453787
 21
127.1008883821
  0
LINE
  5
248
100
AcDbEntity
  8
0
100
AcDbLine
 62
7
  6
CONTINUOUS
 10
97.7884530718
 20
124.9306756066
 11
97.4134530718
 21
125.1859947251
  0
LINE
  5
249
100
AcDbEntity
  8
0
100
AcDbLine
 62
7
  6
CONTINUOUS
 10
74.883357167
 20
170.1739744356
 11
74.8855512898
 21
169.9655410317
  0
LINE
  5
24A
100
AcDbEntity
  8
0
100
AcDbLine
 62
7
  6
CONTINUOUS
 10
75.8026587687
 20
171.9357864393
 11
75.8520246137
 21
172.195779811
  0
LINE
  5
24B
100
AcDbEntity
  8
0
100
AcDbLine
 62
7
  6
CONTINUOUS
 10
75.4845230608
 20
172.4601608383
 11
75.383597543
 21
172.1486077938
  0
LINE
  5
24C
100
AcDbEntity
  8
0
100
AcDbLine
 62
7
  6
CONTINUOUS
 10
75.200395371
 20
169.753816296
 11
75.3013211838
 21
170.0653696356
  0
LINE
  5
24D
100
AcDbEntity
  8
0
100
AcDbLine
 62
7
  6
CONTINUOUS
 10
75.8520246137
 20
172.195779811
 11
75.9540473404
 21
172.4031163011
  0
LINE
  5
24E
100
AcDbEntity
  8
0
100
AcDbLine
 62
7
  6
CONTINUOUS
 10
74.8855512898
 20
169.9655410317
 11
74.7835285631
 21
169.7582045416
  0
LINE
  5
24F
100
AcDbEntity
  8
0
100
AcDbLine
 62
7
  6
CONTINUOUS
 10
75.6381060503
 20
172.7190575912
 11
75.4845230608
 21
172.4601608383
  0
LINE
  5
250
100
AcDbEntity
  8
0
100
AcDbLine
 62
7
  6
CONTINUOUS
 10
78.2599800738
 20
171.1283805636
 11
78.1063976743
 21
170.8694844008
  0
LINE
  5
251
100
AcDbEntity
  8
0
100
AcDbLine
 62
7
  6
CONTINUOUS
 10
78.4223390013
 20
170.5535430738
 11
78.6274810689
 21
170.863998914
  0
LINE
  5
252
100
AcDbEntity
  8
0
100
AcDbLine
 62
7
  6
CONTINUOUS
 10
75.8959050043
 20
172.9768565451
 11
75.6381060503
 21
172.7190575912
  0
LINE
  5
253
100
AcDbEntity
  8
0
100
AcDbLine
 62
7
  6
CONTINUOUS
 10
73.6788308141
 20
170.759782355
 11
72.441393947
 21
169.5223454879
  0
LINE
  5
254
100
AcDbEntity
  8
0
100
AcDbLine
 62
7
  6
CONTINUOUS
 10
72.0289149422
 20
169.109866483
 11
71.7195557254
 21
168.8005072663
  0
LINE
  5
255
100
AcDbEntity
  8
0
100
AcDbLine
 62
7
  6
CONTINUOUS
 10
70.2758794297
 20
167.3568309705
 11
69.9665202129
 21
167.0474717537
  0
LINE
  5
256
100
AcDbEntity
  8
0
100
AcDbLine
 62
7
  6
CONTINUOUS
 10
73.0140375722
 20
169.5684202962
 11
73.9936751903
 21
170.5480579144
  0
LINE
  5
257
100
AcDbEntity
  8
0
100
AcDbLine
 62
7
  6
CONTINUOUS
 10
75.9540473404
 20
172.4031163011
 11
76.2634065572
 21
172.7124755179
  0
LINE
  5
258
100
AcDbEntity
  8
0
100
AcDbLine
 62
7
  6
CONTINUOUS
 10
76.8360501824
 20
172.7585503262
 11
77.1454093992
 21
173.067909543
  0
LINE
  5
259
100
AcDbEntity
  8
0
100
AcDbLine
 62
7
  6
CONTINUOUS
 10
77.0006030483
 20
171.9752790268
 11
76.6912438315
 21
171.66591981
  0
LINE
  5
25A
100
AcDbEntity
  8
0
100
AcDbLine
 62
7
  6
CONTINUOUS
 10
74.7835285631
 20
169.7582045416
 11
73.803890945
 21
168.7785669235
  0
LINE
  5
25B
100
AcDbEntity
  8
0
100
AcDbLine
 62
7
  6
CONTINUOUS
 10
74.1198322351
 20
168.4626256334
 11
74.9963499176
 21
169.3391433159
  0
LINE
  5
25C
100
AcDbEntity
  8
0
100
AcDbLine
 62
7
  6
CONTINUOUS
 10
77.0071851216
 20
171.3499785199
 11
77.3165443384
 21
171.6593377367
  0
LINE
  5
25D
100
AcDbEntity
  8
0
100
AcDbLine
 62
7
  6
CONTINUOUS
 10
76.9128411609
 20
170.4131243047
 11
76.6034822391
 21
170.103765383
  0
LINE
  5
25E
100
AcDbEntity
  8
0
100
AcDbLine
 62
7
  6
CONTINUOUS
 10
78.1063976743
 20
170.8694844008
 11
77.6939185219
 21
170.4570052484
  0
LINE
  5
25F
100
AcDbEntity
  8
0
100
AcDbLine
 62
7
  6
CONTINUOUS
 10
73.266351883
 20
165.3975559556
 11
73.6788308141
 21
165.8100348867
  0
LINE
  5
260
100
AcDbEntity
  8
0
100
AcDbLine
 62
7
  6
CONTINUOUS
 10
74.9162676812
 20
167.0474717537
 11
75.225626898
 21
167.3568309705
  0
LINE
  5
261
100
AcDbEntity
  8
0
100
AcDbLine
 62
7
  6
CONTINUOUS
 10
76.5146237328
 20
168.6458278054
 11
76.8755426224
 21
169.0067466949
  0
LINE
  5
262
100
AcDbEntity
  8
0
100
AcDbLine
 62
7
  6
CONTINUOUS
 10
78.0098598489
 20
170.1410639214
 11
78.4223390013
 21
170.5535430738
  0
LINE
  5
263
100
AcDbEntity
  8
0
100
AcDbLine
 62
7
  6
CONTINUOUS
 10
76.20636143
 20
173.1819992074
 11
75.8959050043
 21
172.9768565451
  0
LINE
  5
264
100
AcDbEntity
  8
0
100
AcDbLine
 62
7
  6
CONTINUOUS
 10
73.9892869448
 20
170.9649247222
 11
73.6788308141
 21
170.759782355
  0
LINE
  5
265
100
AcDbEntity
  8
0
100
AcDbLine
 62
7
  6
CONTINUOUS
 10
77.3110588839
 20
172.180421099
 11
77.0006030483
 21
171.9752790268
  0
LINE
  5
266
100
AcDbEntity
  8
0
100
AcDbLine
 62
7
  6
CONTINUOUS
 10
77.6994034186
 20
169.9359212637
 11
78.0098598489
 21
170.1410639214
  0
LINE
  5
267
100
AcDbEntity
  8
0
100
AcDbLine
 62
7
  6
CONTINUOUS
 10
77.3165443384
 20
171.6593377367
 11
77.5754405012
 21
171.8129201361
  0
LINE
  5
268
100
AcDbEntity
  8
0
100
AcDbLine
 62
7
  6
CONTINUOUS
 10
76.7482883687
 20
171.1963955304
 11
77.0071851216
 21
171.3499785199
  0
LINE
  5
269
100
AcDbEntity
  8
0
100
AcDbLine
 62
7
  6
CONTINUOUS
 10
77.6939185219
 20
170.4570052484
 11
77.4350223591
 21
170.3034228489
  0
LINE
  5
26A
100
AcDbEntity
  8
0
100
AcDbLine
 62
7
  6
CONTINUOUS
 10
89.3509548897
 20
176.3551436828
 11
89.6426214869
 21
176.5040798353
  0
LINE
  5
26B
100
AcDbEntity
  8
0
100
AcDbLine
 62
7
  6
CONTINUOUS
 10
76.2634065572
 20
172.7124755179
 11
76.4707430473
 21
172.8144982446
  0
LINE
  5
26C
100
AcDbEntity
  8
0
100
AcDbLine
 62
7
  6
CONTINUOUS
 10
73.9936751903
 20
170.5480579144
 11
74.2010116804
 21
170.6500806411
  0
LINE
  5
26D
100
AcDbEntity
  8
0
100
AcDbLine
 62
7
  6
CONTINUOUS
 10
76.6912438315
 20
171.66591981
 11
76.4839073415
 21
171.5638970833
  0
LINE
  5
26E
100
AcDbEntity
  8
0
100
AcDbLine
 62
7
  6
CONTINUOUS
 10
89.278038084
 20
176.727484064
 11
89.059288084
 21
176.6530159877
  0
LINE
  5
26F
100
AcDbEntity
  8
0
100
AcDbLine
 62
7
  6
CONTINUOUS
 10
77.6226125185
 20
172.2813472069
 11
77.3110588839
 21
172.180421099
  0
LINE
  5
270
100
AcDbEntity
  8
0
100
AcDbLine
 62
7
  6
CONTINUOUS
 10
76.4367353242
 20
171.0954700126
 11
76.7482883687
 21
171.1963955304
  0
LINE
  5
271
100
AcDbEntity
  8
0
100
AcDbLine
 62
7
  6
CONTINUOUS
 10
90.4134536678
 20
125.3136542843
 11
90.7884536678
 21
124.8030160026
  0
LINE
  5
272
100
AcDbEntity
  8
0
100
AcDbLine
 62
7
  6
CONTINUOUS
 10
75.383597543
 20
172.1486077938
 11
75.3879857886
 21
171.7317409859
  0
LINE
  5
273
100
AcDbEntity
  8
0
100
AcDbLine
 62
7
  6
CONTINUOUS
 10
78.7284071629
 20
171.1755525624
 11
78.7240188989
 21
171.5924193888
  0
LINE
  5
274
100
AcDbEntity
  8
KONSTRUKTIONSELEMENTE
100
AcDbLine
 62
7
  6
CONTINUOUS
 10
80.2259535486
 20
120.2923777209
 11
80.2259535486
 21
120.0923777209
  0
LINE
  5
275
100
AcDbEntity
  8
0
100
AcDbLine
 62
7
  6
CONTINUOUS
 10
78.3093458819
 20
171.3883739723
 11
78.2599800738
 21
171.1283805636
  0
LINE
  5
276
100
AcDbEntity
  8
0
100
AcDbLine
 62
7
  6
CONTINUOUS
 10
78.6274810689
 20
170.863998914
 11
78.7284071629
 21
171.1755525624
  0
LINE
  5
277
100
AcDbEntity
  8
0
100
AcDbLine
 62
7
  6
CONTINUOUS
 10
89.6426214869
 20
176.5040798353
 11
89.8613714869
 21
176.8019521402
  0
LINE
  5
278
100
AcDbEntity
  8
0
100
AcDbLine
 62
7
  6
CONTINUOUS
 10
89.4238714869
 20
176.8764202164
 11
89.278038084
 21
176.727484064
  0
LINE
  5
279
100
AcDbEntity
  8
0
100
AcDbLine
 62
7
  6
CONTINUOUS
 10
92.7051214869
 20
174.8657819757
 11
92.9967882926
 21
175.1636543067
  0
LINE
  5
27A
100
AcDbEntity
  8
0
100
AcDbLine
 62
7
  6
CONTINUOUS
 10
92.5592882926
 20
175.3125905113
 11
92.3405382926
 21
175.1636543067
  0
LINE
  5
27B
100
AcDbEntity
  8
0
100
AcDbLine
 62
7
  6
CONTINUOUS
 10
96.0592878754
 20
175.3125905113
 11
95.8405378754
 21
175.1636543067
  0
LINE
  5
27C
100
AcDbEntity
  8
0
100
AcDbLine
 62
7
  6
CONTINUOUS
 10
92.4134546811
 20
174.7168458037
 11
92.7051214869
 21
174.8657819757
  0
LINE
  5
27D
100
AcDbEntity
  8
0
100
AcDbLine
 62
7
  6
CONTINUOUS
 10
95.9134550983
 20
174.7168458037
 11
96.2051214869
 21
174.8657819757
  0
LINE
  5
27E
100
AcDbEntity
  8
RUNDUNGEN
100
AcDbLine
 62
7
  6
CONTINUOUS
 10
126.9759535486
 20
143.0923777209
 11
82.4759535486
 21
143.0923777209
  0
LINE
  5
27F
100
AcDbEntity
  8
RUNDUNGEN
100
AcDbLine
 62
7
  6
CONTINUOUS
 10
82.4759535486
 20
147.0923777209
 11
126.9759535486
 21
147.0923777209
  0
LINE
  5
280
100
AcDbEntity
  8
0
100
AcDbLine
 62
7
  6
CONTINUOUS
 10
94.413453787
 20
127.1008883821
 11
94.038453787
 21
127.6115266191
  0
LINE
  5
281
100
AcDbEntity
  8
0
100
AcDbLine
 62
7
  6
CONTINUOUS
 10
93.663453787
 20
127.1008883821
 11
93.9134535486
 21
126.7179097043
  0
LINE
  5
282
100
AcDbEntity
  8
0
100
AcDbLine
 62
7
  6
CONTINUOUS
 10
73.6788308141
 20
165.8100348867
 11
72.0289149422
 21
169.109866483
  0
LINE
  5
283
100
AcDbEntity
  8
0
100
AcDbLine
 62
7
  6
CONTINUOUS
 10
71.7195557254
 20
168.8005072663
 11
73.1566499847
 21
165.9197367112
  0
LINE
  5
284
100
AcDbEntity
  8
0
100
AcDbLine
 62
7
  6
CONTINUOUS
 10
90.1634535486
 20
125.8242926107
 11
90.4134536678
 21
125.3136542843
  0
LINE
  5
285
100
AcDbEntity
  8
0
100
AcDbLine
 62
7
  6
CONTINUOUS
 10
91.1634536678
 20
125.3136542843
 11
90.9134535486
 21
125.8242926107
  0
LINE
  5
286
100
AcDbEntity
  8
0
100
AcDbLine
 62
7
  6
CONTINUOUS
 10
75.3013211838
 20
170.0653696356
 11
75.2453732655
 21
170.4306767707
  0
LINE
  5
287
100
AcDbEntity
  8
0
100
AcDbLine
 62
7
  6
CONTINUOUS
 10
81.9759535486
 20
143.5923777209
 11
81.9759535486
 21
146.5923777209
  0
LINE
  5
288
100
AcDbEntity
  8
KONSTRUKTIONSELEMENTE
100
AcDbLine
 62
7
  6
CONTINUOUS
 10
82.9759535486
 20
120.0923777209
 11
82.9759535486
 21
97.8423777209
  0
LINE
  5
289
100
AcDbEntity
  8
0
100
AcDbLine
 62
7
  6
CONTINUOUS
 10
85.2884535486
 20
129.3987608062
 11
85.2884535486
 21
128.3774839746
  0
LINE
  5
28A
100
AcDbEntity
  8
0
100
AcDbLine
 62
7
  6
CONTINUOUS
 10
86.0384535486
 20
129.2711012469
 11
86.0384535486
 21
124.2923777209
  0
LINE
  5
28B
100
AcDbEntity
  8
0
100
AcDbLine
 62
7
  6
CONTINUOUS
 10
86.3179209106
 20
143.0923777209
 11
86.3179209106
 21
136.5227799825
  0
LINE
  5
28C
100
AcDbEntity
  8
0
100
AcDbLine
 62
7
  6
CONTINUOUS
 10
86.7884535486
 20
124.2923777209
 11
86.7884535486
 21
130.2923777209
  0
LINE
  5
28D
100
AcDbEntity
  8
0
100
AcDbLine
 62
7
  6
CONTINUOUS
 10
89.496788084
 20
177.0998244451
 11
89.4238714869
 21
176.8764202164
  0
LINE
  5
28E
100
AcDbEntity
  8
0
100
AcDbLine
 62
7
  6
CONTINUOUS
 10
89.8613714869
 20
176.8019521402
 11
89.934288084
 21
177.0253563689
  0
LINE
  5
28F
100
AcDbEntity
  8
0
100
AcDbLine
 62
7
  6
CONTINUOUS
 10
92.9967882926
 20
175.1636543067
 11
93.1426214869
 21
175.4615266638
  0
LINE
  5
290
100
AcDbEntity
  8
0
100
AcDbLine
 62
7
  6
CONTINUOUS
 10
92.7051214869
 20
175.53599474
 11
92.5592882926
 21
175.3125905113
  0
LINE
  5
291
100
AcDbEntity
  8
0
100
AcDbLine
 62
7
  6
CONTINUOUS
 10
96.2051214869
 20
175.53599474
 11
96.0592878754
 21
175.3125905113
  0
LINE
  5
292
100
AcDbEntity
  8
0
100
AcDbLine
 62
7
  6
CONTINUOUS
 10
96.2051214869
 20
174.8657819757
 11
96.4967878754
 21
175.1636543067
  0
LINE
  5
293
100
AcDbEntity
  8
0
100
AcDbLine
 62
7
  6
CONTINUOUS
 10
88.4759535486
 20
147.3923777209
 11
95.4759535486
 21
147.3923777209
  0
LINE
  5
294
100
AcDbEntity
  8
0
100
AcDbLine
 62
7
  6
CONTINUOUS
 10
72.441393947
 20
169.5223454879
 11
74.9162676812
 21
167.0474717537
  0
LINE
  5
295
100
AcDbEntity
  8
0
100
AcDbLine
 62
7
  6
CONTINUOUS
 10
75.225626898
 20
167.3568309705
 11
74.1198322351
 21
168.4626256334
  0
LINE
  5
296
100
AcDbEntity
  8
0
100
AcDbLine
 62
7
  6
CONTINUOUS
 10
73.803890945
 20
168.7785669235
 11
73.0140375722
 21
169.5684202962
  0
LINE
  5
297
100
AcDbEntity
  8
0
100
AcDbLine
 62
7
  6
CONTINUOUS
 10
75.3879857886
 20
171.7317409859
 11
75.5470530525
 21
171.4695531963
  0
LINE
  5
298
100
AcDbEntity
  8
0
100
AcDbLine
 62
7
  6
CONTINUOUS
 10
74.7769464898
 20
170.3835050485
 11
74.883357167
 21
170.1739744356
  0
LINE
  5
299
100
AcDbEntity
  8
0
100
AcDbLine
 62
7
  6
CONTINUOUS
 10
75.2453732655
 20
170.4306767707
 11
75.1389625882
 21
170.6402073835
  0
LINE
  5
29A
100
AcDbEntity
  8
0
100
AcDbLine
 62
7
  6
CONTINUOUS
 10
75.9090692985
 20
171.7262553839
 11
75.8026587687
 21
171.9357864393
  0
LINE
  5
29B
100
AcDbEntity
  8
0
100
AcDbLine
 62
7
  6
CONTINUOUS
 10
96.663453787
 20
125.3136542843
 11
96.9134535486
 21
124.8030160026
  0
LINE
  5
29C
100
AcDbEntity
  8
0
100
AcDbLine
 62
7
  6
CONTINUOUS
 10
94.6634535486
 20
126.462590407
 11
94.413453787
 21
127.1008883821
  0
LINE
  5
29D
100
AcDbEntity
  8
0
100
AcDbLine
 62
7
  6
CONTINUOUS
 10
78.7240188989
 20
171.5924193888
 11
78.6165112709
 21
171.906166888
  0
LINE
  5
29E
100
AcDbEntity
  8
0
100
AcDbLine
 62
7
  6
CONTINUOUS
 10
93.9134535486
 20
126.7179097043
 11
94.038453787
 21
126.3349308477
  0
LINE
  5
29F
100
AcDbEntity
  8
0
100
AcDbLine
 62
7
  6
CONTINUOUS
 10
97.4134530718
 20
125.1859947251
 11
97.2884535486
 21
125.5689734922
  0
LINE
  5
2A0
100
AcDbEntity
  8
0
100
AcDbLine
 62
7
  6
CONTINUOUS
 10
78.2544951725
 20
171.6494645529
 11
78.3093458819
 21
171.3883739723
  0
LINE
  5
2A1
100
AcDbEntity
  8
BEZUGSACHSEN
100
AcDbLine
 62
7
  6
CONTINUOUS
 10
87.0253222889
 20
143.0923777209
 11
87.0253222889
 21
136.3975231961
  0
LINE
  5
2A2
100
AcDbEntity
  8
0
100
AcDbLine
 62
7
  6
CONTINUOUS
 10
87.2363714869
 20
178.1423777209
 11
87.2363714869
 21
174.6423777209
  0
LINE
  5
2A3
100
AcDbEntity
  8
0
100
AcDbLine
 62
7
  6
CONTINUOUS
 10
87.6738714869
 20
174.6423777209
 11
87.6738714869
 21
176.2062075304
  0
LINE
  5
2A4
100
AcDbEntity
  8
0
100
AcDbLine
 62
7
  6
CONTINUOUS
 10
87.6738714869
 20
176.6530159877
 11
87.6738714869
 21
177.7700373398
  0
LINE
  5
2A5
100
AcDbEntity
  8
BEZUGSACHSEN
100
AcDbLine
 62
7
  6
CONTINUOUS
 10
88.4395358513
 20
143.0923777209
 11
88.4395358513
 21
136.2065720336
  0
LINE
  5
2A6
100
AcDbEntity
  8
0
100
AcDbLine
 62
7
  6
CONTINUOUS
 10
88.4759535486
 20
147.0923777209
 11
88.4759535486
 21
147.3923777209
  0
LINE
  5
2A7
100
AcDbEntity
  8
0
100
AcDbLine
 62
7
  6
CONTINUOUS
 10
89.1469372296
 20
143.0923777209
 11
89.1469372296
 21
136.1342703856
  0
LINE
  5
2A8
100
AcDbEntity
  8
0
100
AcDbLine
 62
7
  6
CONTINUOUS
 10
89.496788084
 20
177.3232288824
 11
89.496788084
 21
177.0998244451
  0
LINE
  5
2A9
100
AcDbEntity
  8
0
100
AcDbLine
 62
7
  6
CONTINUOUS
 10
89.934288084
 20
177.0253563689
 11
89.934288084
 21
177.3232288824
  0
LINE
  5
2AA
100
AcDbEntity
  8
0
100
AcDbLine
 62
7
  6
CONTINUOUS
 10
90.1634535486
 20
130.2923777209
 11
90.1634535486
 21
126.9732288228
  0
LINE
  5
2AB
100
AcDbEntity
  8
BEZUGSACHSEN
100
AcDbLine
 62
7
  6
CONTINUOUS
 10
90.5617399862
 20
143.0923777209
 11
90.5617399862
 21
136.0406692977
  0
LINE
  5
2AC
100
AcDbEntity
  8
0
100
AcDbLine
 62
7
  6
CONTINUOUS
 10
90.590538084
 20
178.1423777209
 11
90.590538084
 21
175.8338670449
  0
LINE
  5
2AD
100
AcDbEntity
  8
0
100
AcDbLine
 62
7
  6
CONTINUOUS
 10
90.7884536678
 20
127.6115266191
 11
90.7884536678
 21
129.6540799247
  0
LINE
  5
2AE
100
AcDbEntity
  8
0
100
AcDbLine
 62
7
  6
CONTINUOUS
 10
91.0280382926
 20
175.8338670449
 11
91.0280382926
 21
178.1423777209
  0
LINE
  5
2AF
100
AcDbEntity
  8
0
100
AcDbLine
 62
7
  6
CONTINUOUS
 10
91.9759535486
 20
147.0923777209
 11
91.9759535486
 21
147.3923777209
  0
LINE
  5
2B0
100
AcDbEntity
  8
0
100
AcDbLine
 62
7
  6
CONTINUOUS
 10
93.1426214869
 20
175.4615266638
 11
93.2155382926
 21
175.8338670449
  0
LINE
  5
2B1
100
AcDbEntity
  8
0
100
AcDbLine
 62
7
  6
CONTINUOUS
 10
92.7780382926
 20
175.8338670449
 11
92.7051214869
 21
175.53599474
  0
LINE
  5
2B2
100
AcDbEntity
  8
0
100
AcDbLine
 62
7
  6
CONTINUOUS
 10
96.2780378754
 20
175.8338670449
 11
96.2051214869
 21
175.53599474
  0
LINE
  5
2B3
100
AcDbEntity
  8
0
100
AcDbLine
 62
7
  6
CONTINUOUS
 10
96.4967878754
 20
175.1636543067
 11
96.6426214869
 21
175.4615266638
  0
LINE
  5
2B4
100
AcDbEntity
  8
0
100
AcDbLine
 62
7
  6
CONTINUOUS
 10
73.1566499847
 20
165.9197367112
 11
70.2758794297
 21
167.3568309705
  0
LINE
  5
2B5
100
AcDbEntity
  8
0
100
AcDbLine
 62
7
  6
CONTINUOUS
 10
69.9665202129
 20
167.0474717537
 11
73.266351883
 21
165.3975559556
  0
LINE
  5
2B6
100
AcDbEntity
  8
0
100
AcDbLine
 62
7
  6
CONTINUOUS
 10
74.6189756972
 20
170.541475841
 11
74.7769464898
 21
170.3835050485
  0
LINE
  5
2B7
100
AcDbEntity
  8
0
100
AcDbLine
 62
7
  6
CONTINUOUS
 10
75.1389625882
 20
170.6402073835
 11
74.928334914
 21
170.8508350578
  0
LINE
  5
2B8
100
AcDbEntity
  8
0
100
AcDbLine
 62
7
  6
CONTINUOUS
 10
75.5470530525
 20
171.4695531963
 11
75.7576807267
 21
171.2589255221
  0
LINE
  5
2B9
100
AcDbEntity
  8
0
100
AcDbLine
 62
7
  6
CONTINUOUS
 10
76.0143830618
 20
171.6209416205
 11
75.9090692985
 21
171.7262553839
  0
LINE
  5
2BA
100
AcDbEntity
  8
0
100
AcDbLine
 62
7
  6
CONTINUOUS
 10
78.0965245274
 20
171.807435198
 11
78.2544951725
 21
171.6494645529
  0
LINE
  5
2BB
100
AcDbEntity
  8
0
100
AcDbLine
 62
7
  6
CONTINUOUS
 10
78.6165112709
 20
171.906166888
 11
78.3532268625
 21
172.1694512964
  0
LINE
  5
2BC
100
AcDbEntity
  8
0
100
AcDbLine
 62
7
  6
CONTINUOUS
 10
92.7780382926
 20
178.1423777209
 11
92.7780382926
 21
175.8338670449
  0
LINE
  5
2BD
100
AcDbEntity
  8
0
100
AcDbLine
 62
7
  6
CONTINUOUS
 10
93.2155382926
 20
175.8338670449
 11
93.2155382926
 21
178.1423777209
  0
LINE
  5
2BE
100
AcDbEntity
  8
BEZUGSACHSEN
100
AcDbLine
 62
7
  6
CONTINUOUS
 10
93.390167111
 20
143.0923777209
 11
93.390167111
 21
136.0406608253
  0
LINE
  5
2BF
100
AcDbEntity
  8
0
100
AcDbLine
 62
7
  6
CONTINUOUS
 10
93.7988714869
 20
178.1423777209
 11
93.7988714869
 21
174.6423777209
  0
LINE
  5
2C0
100
AcDbEntity
  8
0
100
AcDbLine
 62
7
  6
CONTINUOUS
 10
94.038453787
 20
126.3349308477
 11
94.038453787
 21
126.0796117292
  0
LINE
  5
2C1
100
AcDbEntity
  8
0
100
AcDbLine
 62
7
  6
CONTINUOUS
 10
94.2363714869
 20
175.0891862305
 11
94.2363714869
 21
177.6955692636
  0
LINE
  5
2C2
100
AcDbEntity
  8
0
100
AcDbLine
 62
7
  6
CONTINUOUS
 10
94.413453787
 20
129.6540799247
 11
94.413453787
 21
130.2923777209
  0
LINE
  5
2C3
100
AcDbEntity
  8
0
100
AcDbLine
 62
7
  6
CONTINUOUS
 10
94.6634535486
 20
125.95195217
 11
94.6634535486
 21
126.462590407
  0
LINE
  5
2C4
100
AcDbEntity
  8
0
100
AcDbLine
 62
7
  6
CONTINUOUS
 10
94.8049698676
 20
143.0923777209
 11
94.8049698676
 21
136.1342737763
  0
LINE
  5
2C5
100
AcDbEntity
  8
0
100
AcDbLine
 62
7
  6
CONTINUOUS
 10
95.4759535486
 20
147.0923777209
 11
95.4759535486
 21
147.3923777209
  0
LINE
  5
2C6
100
AcDbEntity
  8
BEZUGSACHSEN
100
AcDbLine
 62
7
  6
CONTINUOUS
 10
95.512371246
 20
143.0923777209
 11
95.512371246
 21
136.2065649497
  0
LINE
  5
2C7
100
AcDbEntity
  8
0
100
AcDbLine
 62
7
  6
CONTINUOUS
 10
95.6634533102
 20
128.3774839746
 11
95.6634533102
 21
127.8668457376
  0
LINE
  5
2C8
100
AcDbEntity
  8
0
100
AcDbLine
 62
7
  6
CONTINUOUS
 10
96.2780378754
 20
176.9508882927
 11
96.2780378754
 21
175.8338670449
  0
LINE
  5
2C9
100
AcDbEntity
  8
0
100
AcDbLine
 62
7
  6
CONTINUOUS
 10
96.663453787
 20
129.3987608062
 11
96.663453787
 21
128.3774839746
  0
LINE
  5
2CA
100
AcDbEntity
  8
0
100
AcDbLine
 62
7
  6
CONTINUOUS
 10
96.663453787
 20
127.8668457376
 11
96.663453787
 21
125.3136542843
  0
LINE
  5
2CB
100
AcDbEntity
  8
0
100
AcDbLine
 62
7
  6
CONTINUOUS
 10
96.7155378754
 20
175.8338670449
 11
96.7155378754
 21
176.9508882927
  0
LINE
  5
2CC
100
AcDbEntity
  8
BEZUGSACHSEN
100
AcDbLine
 62
7
  6
CONTINUOUS
 10
96.9265848083
 20
143.0923777209
 11
96.9265848083
 21
136.3975204541
  0
LINE
  5
2CD
100
AcDbEntity
  8
0
100
AcDbLine
 62
7
  6
CONTINUOUS
 10
97.2884535486
 20
125.5689734922
 11
97.2884535486
 21
127.8668457376
  0
LINE
  5
2CE
100
AcDbEntity
  8
0
100
AcDbLine
 62
7
  6
CONTINUOUS
 10
97.2884535486
 20
128.3774839746
 11
97.2884535486
 21
129.3987608062
  0
LINE
  5
2CF
100
AcDbEntity
  8
0
100
AcDbLine
 62
7
  6
CONTINUOUS
 10
97.6339861867
 20
143.0923777209
 11
97.6339861867
 21
136.5227825918
  0
LINE
  5
2D0
100
AcDbEntity
  8
0
100
AcDbLine
 62
7
  6
CONTINUOUS
 10
98.4134535486
 20
124.2923777209
 11
98.4134535486
 21
124.8030160026
  0
LINE
  5
2D1
100
AcDbEntity
  8
0
100
AcDbLine
 62
7
  6
CONTINUOUS
 10
96.6426214869
 20
175.4615266638
 11
96.7155378754
 21
175.8338670449
  0
LINE
  5
2D2
100
AcDbEntity
  8
0
100
AcDbLine
 62
7
  6
CONTINUOUS
 10
108.3723590958
 20
168.6431172768
 11
108.7428549453
 21
169.0136131263
  0
LINE
  5
2D3
100
AcDbEntity
  8
0
100
AcDbLine
 62
7
  6
CONTINUOUS
 10
110.4636105932
 20
170.7343687742
 11
110.8341064427
 21
171.1048646237
  0
LINE
  5
2D4
100
AcDbEntity
  8
0
100
AcDbLine
 62
7
  6
CONTINUOUS
 10
76.8755426224
 20
169.0067466949
 11
75.200395371
 21
169.753816296
  0
LINE
  5
2D5
100
AcDbEntity
  8
0
100
AcDbLine
 62
7
  6
CONTINUOUS
 10
74.9963499176
 20
169.3391433159
 11
76.5146237328
 21
168.6458278054
  0
LINE
  5
2D6
100
AcDbEntity
  8
0
100
AcDbLine
 62
7
  6
CONTINUOUS
 10
74.4094450844
 20
170.6478865183
 11
74.6189756972
 21
170.541475841
  0
LINE
  5
2D7
100
AcDbEntity
  8
0
100
AcDbLine
 62
7
  6
CONTINUOUS
 10
74.928334914
 20
170.8508350578
 11
74.7188043011
 21
170.957245735
  0
LINE
  5
2D8
100
AcDbEntity
  8
0
100
AcDbLine
 62
7
  6
CONTINUOUS
 10
77.1223720687
 20
170.3067139225
 11
76.9128411609
 21
170.4131243047
  0
LINE
  5
2D9
100
AcDbEntity
  8
0
100
AcDbLine
 62
7
  6
CONTINUOUS
 10
76.2239139697
 20
171.5145312383
 11
76.0143830618
 21
171.6209416205
  0
LINE
  5
2DA
100
AcDbEntity
  8
0
100
AcDbLine
 62
7
  6
CONTINUOUS
 10
77.1454093992
 20
173.067909543
 11
76.9358784913
 21
173.1743199252
  0
LINE
  5
2DB
100
AcDbEntity
  8
0
100
AcDbLine
 62
7
  6
CONTINUOUS
 10
76.6034822391
 20
170.103765383
 11
76.8656694386
 21
169.944697529
  0
LINE
  5
2DC
100
AcDbEntity
  8
0
100
AcDbLine
 62
7
  6
CONTINUOUS
 10
75.7576807267
 20
171.2589255221
 11
76.0198685163
 21
171.0998582581
  0
LINE
  5
2DD
100
AcDbEntity
  8
0
100
AcDbLine
 62
7
  6
CONTINUOUS
 10
90.6634548897
 20
175.4615266638
 11
90.8092882926
 21
175.1636543067
  0
LINE
  5
2DE
100
AcDbEntity
  8
0
100
AcDbLine
 62
7
  6
CONTINUOUS
 10
90.0072048897
 20
174.6423777209
 11
89.3509548897
 21
176.3551436828
  0
LINE
  5
2DF
100
AcDbEntity
  8
0
100
AcDbLine
 62
7
  6
CONTINUOUS
 10
88.9134547854
 20
176.2062075304
 11
89.496788084
 21
174.6423777209
  0
LINE
  5
2E0
100
AcDbEntity
  8
0
100
AcDbLine
 62
7
  6
CONTINUOUS
 10
89.4238714869
 20
177.5466331111
 11
89.496788084
 21
177.3232288824
  0
LINE
  5
2E1
100
AcDbEntity
  8
0
100
AcDbLine
 62
7
  6
CONTINUOUS
 10
89.934288084
 20
177.3232288824
 11
89.8613714869
 21
177.5466331111
  0
LINE
  5
2E2
100
AcDbEntity
  8
0
100
AcDbLine
 62
7
  6
CONTINUOUS
 10
91.1009546811
 20
175.53599474
 11
91.0280382926
 21
175.8338670449
  0
LINE
  5
2E3
100
AcDbEntity
  8
0
100
AcDbLine
 62
7
  6
CONTINUOUS
 10
90.590538084
 20
175.8338670449
 11
90.6634548897
 21
175.4615266638
  0
LINE
  5
2E4
100
AcDbEntity
  8
0
100
AcDbLine
 62
7
  6
CONTINUOUS
 10
98.6634540255
 20
127.8668457376
 11
98.6634540255
 21
128.3774839746
  0
LINE
  5
2E5
100
AcDbEntity
  8
KONSTRUKTIONSELEMENTE
100
AcDbLine
 62
7
  6
CONTINUOUS
 10
100.9759535486
 20
120.0923777209
 11
100.9759535486
 21
97.8423777209
  0
LINE
  5
2E6
100
AcDbEntity
  8
KONSTRUKTIONSELEMENTE
100
AcDbLine
 62
7
  6
CONTINUOUS
 10
103.7259535486
 20
120.2923777209
 11
103.7259535486
 21
120.0923777209
  0
LINE
  5
2E7
100
AcDbEntity
  8
0
100
AcDbLine
 62
7
  6
CONTINUOUS
 10
94.038453787
 20
126.0796117292
 11
93.9134535486
 21
125.6966330515
  0
LINE
  5
2E8
100
AcDbEntity
  8
0
100
AcDbLine
 62
7
  6
CONTINUOUS
 10
111.2648265649
 20
167.8447016284
 11
111.6353224144
 21
168.2151974778
  0
LINE
  5
2E9
100
AcDbEntity
  8
0
100
AcDbLine
 62
7
  6
CONTINUOUS
 10
110.4723590958
 20
166.5431172768
 11
110.8428549452
 21
166.9136131263
  0
LINE
  5
2EA
100
AcDbEntity
  8
0
100
AcDbLine
 62
7
  6
CONTINUOUS
 10
112.5636105932
 20
168.6343687742
 11
112.9341064427
 21
169.0048646237
  0
LINE
  5
2EB
100
AcDbEntity
  8
0
100
AcDbLine
 62
7
  6
CONTINUOUS
 10
77.4350223591
 20
170.3034228489
 11
77.1223720687
 21
170.3067139225
  0
LINE
  5
2EC
100
AcDbEntity
  8
0
100
AcDbLine
 62
7
  6
CONTINUOUS
 10
74.2010116804
 20
170.6500806411
 11
74.4094450844
 21
170.6478865183
  0
LINE
  5
2ED
100
AcDbEntity
  8
0
100
AcDbLine
 62
7
  6
CONTINUOUS
 10
74.7188043011
 20
170.957245735
 11
74.353497166
 21
171.0131936534
  0
LINE
  5
2EE
100
AcDbEntity
  8
0
100
AcDbLine
 62
7
  6
CONTINUOUS
 10
77.835433873
 20
171.8622859812
 11
78.0965245274
 21
171.807435198
  0
LINE
  5
2EF
100
AcDbEntity
  8
0
100
AcDbLine
 62
7
  6
CONTINUOUS
 10
76.8656694386
 20
169.944697529
 11
77.2836338058
 21
169.8360929687
  0
LINE
  5
2F0
100
AcDbEntity
  8
0
100
AcDbLine
 62
7
  6
CONTINUOUS
 10
78.3532268625
 20
172.1694512964
 11
78.0394793264
 21
172.2769589613
  0
LINE
  5
2F1
100
AcDbEntity
  8
0
100
AcDbLine
 62
7
  6
CONTINUOUS
 10
76.6791761562
 20
172.8123038267
 11
76.8360501824
 21
172.7585503262
  0
LINE
  5
2F2
100
AcDbEntity
  8
0
100
AcDbLine
 62
7
  6
CONTINUOUS
 10
90.8092882926
 20
175.1636543067
 11
91.1009546811
 21
174.8657819757
  0
LINE
  5
2F3
100
AcDbEntity
  8
0
100
AcDbLine
 62
7
  6
CONTINUOUS
 10
89.278038084
 20
177.6955692636
 11
89.4238714869
 21
177.5466331111
  0
LINE
  5
2F4
100
AcDbEntity
  8
0
100
AcDbLine
 62
7
  6
CONTINUOUS
 10
89.8613714869
 20
177.5466331111
 11
89.6426214869
 21
177.844505416
  0
LINE
  5
2F5
100
AcDbEntity
  8
0
100
AcDbLine
 62
7
  6
CONTINUOUS
 10
91.2467882926
 20
175.3125905113
 11
91.1009546811
 21
175.53599474
  0
LINE
  5
2F6
100
AcDbEntity
  8
0
100
AcDbLine
 62
7
  6
CONTINUOUS
 10
96.2051214869
 20
177.2487605976
 11
96.2780378754
 21
176.9508882927
  0
LINE
  5
2F7
100
AcDbEntity
  8
0
100
AcDbLine
 62
7
  6
CONTINUOUS
 10
96.7155378754
 20
176.9508882927
 11
96.6426214869
 21
177.3232288824
  0
LINE
  5
2F8
100
AcDbEntity
  8
0
100
AcDbLine
 62
7
  6
CONTINUOUS
 10
94.413453787
 20
125.3136542843
 11
94.6634535486
 21
125.95195217
  0
LINE
  5
2F9
100
AcDbEntity
  8
0
100
AcDbLine
 62
7
  6
CONTINUOUS
 10
88.5384536678
 20
124.9306756066
 11
87.788453489
 21
123.526420276
  0
LINE
  5
2FA
100
AcDbEntity
  8
0
100
AcDbLine
 62
7
  6
CONTINUOUS
 10
88.4134534294
 20
123.526420276
 11
89.1634534294
 21
124.9306756066
  0
LINE
  5
2FB
100
AcDbEntity
  8
0
100
AcDbLine
 62
7
  6
CONTINUOUS
 10
86.0384535486
 20
130.2923777209
 11
85.2884535486
 21
129.3987608062
  0
LINE
  5
2FC
100
AcDbEntity
  8
0
100
AcDbLine
 62
7
  6
CONTINUOUS
 10
85.2884535486
 20
128.3774839746
 11
86.0384535486
 21
129.2711012469
  0
LINE
  5
2FD
100
AcDbEntity
  8
0
100
AcDbLine
 62
7
  6
CONTINUOUS
 10
95.8405378754
 20
175.1636543067
 11
95.5488714869
 21
175.0891862305
  0
LINE
  5
2FE
100
AcDbEntity
  8
0
100
AcDbLine
 62
7
  6
CONTINUOUS
 10
92.3405382926
 20
175.1636543067
 11
92.0488714869
 21
175.0891862305
  0
LINE
  5
2FF
100
AcDbEntity
  8
0
100
AcDbLine
 62
7
  6
CONTINUOUS
 10
77.2836338058
 20
169.8360929687
 11
77.6994034186
 21
169.9359212637
  0
LINE
  5
300
100
AcDbEntity
  8
0
100
AcDbLine
 62
7
  6
CONTINUOUS
 10
95.5488714869
 20
174.6423777209
 11
95.9134550983
 21
174.7168458037
  0
LINE
  5
301
100
AcDbEntity
  8
0
100
AcDbLine
 62
7
  6
CONTINUOUS
 10
92.0488714869
 20
174.6423777209
 11
92.4134546811
 21
174.7168458037
  0
LINE
  5
302
100
AcDbEntity
  8
0
100
AcDbLine
 62
7
  6
CONTINUOUS
 10
76.4839073415
 20
171.5638970833
 11
76.2239139697
 21
171.5145312383
  0
LINE
  5
303
100
AcDbEntity
  8
0
100
AcDbLine
 62
7
  6
CONTINUOUS
 10
77.5754405012
 20
171.8129201361
 11
77.835433873
 21
171.8622859812
  0
LINE
  5
304
100
AcDbEntity
  8
0
100
AcDbLine
 62
7
  6
CONTINUOUS
 10
74.353497166
 20
171.0131936534
 11
73.9892869448
 21
170.9649247222
  0
LINE
  5
305
100
AcDbEntity
  8
0
100
AcDbLine
 62
7
  6
CONTINUOUS
 10
76.5705713562
 20
173.2302678435
 11
76.20636143
 21
173.1819992074
  0
LINE
  5
306
100
AcDbEntity
  8
0
100
AcDbLine
 62
7
  6
CONTINUOUS
 10
87.2363714869
 20
174.6423777209
 11
87.6738714869
 21
174.6423777209
  0
LINE
  5
307
100
AcDbEntity
  8
0
100
AcDbLine
 62
7
  6
CONTINUOUS
 10
89.496788084
 20
174.6423777209
 11
90.0072048897
 21
174.6423777209
  0
LINE
  5
308
100
AcDbEntity
  8
0
100
AcDbLine
 62
7
  6
CONTINUOUS
 10
91.7572046811
 20
174.6423777209
 11
92.0488714869
 21
174.6423777209
  0
LINE
  5
309
100
AcDbEntity
  8
0
100
AcDbLine
 62
7
  6
CONTINUOUS
 10
93.7988714869
 20
174.6423777209
 11
95.5488714869
 21
174.6423777209
  0
LINE
  5
30A
100
AcDbEntity
  8
0
100
AcDbLine
 62
7
  6
CONTINUOUS
 10
95.5488714869
 20
175.0891862305
 11
94.2363714869
 21
175.0891862305
  0
LINE
  5
30B
100
AcDbEntity
  8
0
100
AcDbLine
 62
7
  6
CONTINUOUS
 10
92.0488714869
 20
175.0891862305
 11
91.7572046811
 21
175.0891862305
  0
LINE
  5
30C
100
AcDbEntity
  8
0
100
AcDbLine
 62
7
  6
CONTINUOUS
 10
87.6738714869
 20
176.2062075304
 11
88.9134547854
 21
176.2062075304
  0
LINE
  5
30D
100
AcDbEntity
  8
0
100
AcDbLine
 62
7
  6
CONTINUOUS
 10
76.0198685163
 20
171.0998582581
 11
76.4367353242
 21
171.0954700126
  0
LINE
  5
30E
100
AcDbEntity
  8
0
100
AcDbLine
 62
7
  6
CONTINUOUS
 10
78.0394793264
 20
172.2769589613
 11
77.6226125185
 21
172.2813472069
  0
LINE
  5
30F
100
AcDbEntity
  8
0
100
AcDbLine
 62
7
  6
CONTINUOUS
 10
76.4707430473
 20
172.8144982446
 11
76.6791761562
 21
172.8123038267
  0
LINE
  5
310
100
AcDbEntity
  8
0
100
AcDbLine
 62
7
  6
CONTINUOUS
 10
76.9358784913
 20
173.1743199252
 11
76.5705713562
 21
173.2302678435
  0
LINE
  5
311
100
AcDbEntity
  8
0
100
AcDbLine
 62
7
  6
CONTINUOUS
 10
91.3926214869
 20
174.7168458037
 11
91.7572046811
 21
174.6423777209
  0
LINE
  5
312
100
AcDbEntity
  8
0
100
AcDbLine
 62
7
  6
CONTINUOUS
 10
91.7572046811
 20
175.0891862305
 11
91.4655382926
 21
175.1636543067
  0
LINE
  5
313
100
AcDbEntity
  8
0
100
AcDbLine
 62
7
  6
CONTINUOUS
 10
89.059288084
 20
177.7700373398
 11
89.278038084
 21
177.6955692636
  0
LINE
  5
314
100
AcDbEntity
  8
0
100
AcDbLine
 62
7
  6
CONTINUOUS
 10
91.1009546811
 20
174.8657819757
 11
91.3926214869
 21
174.7168458037
  0
LINE
  5
315
100
AcDbEntity
  8
0
100
AcDbLine
 62
7
  6
CONTINUOUS
 10
91.4655382926
 20
175.1636543067
 11
91.2467882926
 21
175.3125905113
  0
LINE
  5
316
100
AcDbEntity
  8
0
100
AcDbLine
 62
7
  6
CONTINUOUS
 10
89.6426214869
 20
177.844505416
 11
89.3509548897
 21
178.0679096447
  0
LINE
  5
317
100
AcDbEntity
  8
0
100
AcDbLine
 62
7
  6
CONTINUOUS
 10
96.4967878754
 20
177.6211011873
 11
96.2051214869
 21
177.9189734922
  0
LINE
  5
318
100
AcDbEntity
  8
0
100
AcDbLine
 62
7
  6
CONTINUOUS
 10
96.0592878754
 20
177.4721650349
 11
96.2051214869
 21
177.2487605976
  0
LINE
  5
319
100
AcDbEntity
  8
0
100
AcDbLine
 62
7
  6
CONTINUOUS
 10
96.6426214869
 20
177.3232288824
 11
96.4967878754
 21
177.6211011873
  0
LINE
  5
31A
100
AcDbEntity
  8
0
100
AcDbLine
 62
7
  6
CONTINUOUS
 10
93.9134535486
 20
125.6966330515
 11
93.663453787
 21
125.3136542843
  0
LINE
  5
31B
100
AcDbEntity
  8
0
100
AcDbLine
 62
7
  6
CONTINUOUS
 10
94.038453787
 20
124.8030160026
 11
94.413453787
 21
125.3136542843
  0
LINE
  5
31C
100
AcDbEntity
  8
0
100
AcDbLine
 62
7
  6
CONTINUOUS
 10
89.059288084
 20
176.6530159877
 11
87.6738714869
 21
176.6530159877
  0
LINE
  5
31D
100
AcDbEntity
  8
0
100
AcDbLine
 62
7
  6
CONTINUOUS
 10
94.2363714869
 20
177.6955692636
 11
95.5488714869
 21
177.6955692636
  0
LINE
  5
31E
100
AcDbEntity
  8
0
100
AcDbLine
 62
7
  6
CONTINUOUS
 10
87.6738714869
 20
177.7700373398
 11
89.059288084
 21
177.7700373398
  0
LINE
  5
31F
100
AcDbEntity
  8
0
100
AcDbLine
 62
7
  6
CONTINUOUS
 10
95.5488714869
 20
178.1423777209
 11
93.7988714869
 21
178.1423777209
  0
LINE
  5
320
100
AcDbEntity
  8
0
100
AcDbLine
 62
7
  6
CONTINUOUS
 10
93.2155382926
 20
178.1423777209
 11
92.7780382926
 21
178.1423777209
  0
LINE
  5
321
100
AcDbEntity
  8
0
100
AcDbLine
 62
7
  6
CONTINUOUS
 10
91.0280382926
 20
178.1423777209
 11
90.590538084
 21
178.1423777209
  0
LINE
  5
322
100
AcDbEntity
  8
0
100
AcDbLine
 62
7
  6
CONTINUOUS
 10
88.9863714869
 20
178.1423777209
 11
87.2363714869
 21
178.1423777209
  0
LINE
  5
323
100
AcDbEntity
  8
0
100
AcDbLine
 62
7
  6
CONTINUOUS
 10
89.3509548897
 20
178.0679096447
 11
88.9863714869
 21
178.1423777209
  0
LINE
  5
324
100
AcDbEntity
  8
0
100
AcDbLine
 62
7
  6
CONTINUOUS
 10
95.9134550983
 20
178.0679096447
 11
95.5488714869
 21
178.1423777209
  0
LINE
  5
325
100
AcDbEntity
  8
0
100
AcDbLine
 62
7
  6
CONTINUOUS
 10
95.5488714869
 20
177.6955692636
 11
95.8405378754
 21
177.6211011873
  0
LINE
  5
326
100
AcDbEntity
  8
0
100
AcDbLine
 62
7
  6
CONTINUOUS
 10
96.2051214869
 20
177.9189734922
 11
95.9134550983
 21
178.0679096447
  0
LINE
  5
327
100
AcDbEntity
  8
0
100
AcDbLine
 62
7
  6
CONTINUOUS
 10
95.8405378754
 20
177.6211011873
 11
96.0592878754
 21
177.4721650349
  0
LINE
  5
328
100
AcDbEntity
  8
0
100
AcDbLine
 62
7
  6
CONTINUOUS
 10
110.3059603224
 20
166.6975289705
 11
110.4723590958
 21
166.5431172768
  0
LINE
  5
329
100
AcDbEntity
  8
0
100
AcDbLine
 62
7
  6
CONTINUOUS
 10
108.2059603224
 20
168.7975289705
 11
108.3723590958
 21
168.6431172768
  0
LINE
  5
32A
100
AcDbEntity
  8
0
100
AcDbLine
 62
7
  6
CONTINUOUS
 10
110.5420175548
 20
168.5675106385
 11
111.2648265649
 21
167.8447016284
  0
LINE
  5
32B
100
AcDbEntity
  8
0
100
AcDbLine
 62
7
  6
CONTINUOUS
 10
111.6353224144
 20
168.2151974778
 11
110.913123859
 21
168.9373960332
  0
LINE
  5
32C
100
AcDbEntity
  8
RUNDUNGEN
100
AcDbLine
 62
7
  6
CONTINUOUS
 10
119.9645429422
 20
139.5057136618
 11
119.9759535486
 21
139.2923777209
  0
LINE
  5
32D
100
AcDbEntity
  8
BEZUGSACHSEN
100
AcDbLine
 62
7
  6
CONTINUOUS
 10
119.9759535486
 20
139.2923777209
 11
119.9645429422
 21
139.5057136618
  0
LINE
  5
32E
100
AcDbEntity
  8
BEZUGSACHSEN
100
AcDbLine
 62
7
  6
CONTINUOUS
 10
119.9759535486
 20
139.2923777209
 11
119.9759535486
 21
133.2923777209
  0
LINE
  5
32F
100
AcDbEntity
  8
0
100
AcDbLine
 62
7
  6
CONTINUOUS
 10
91.0384534294
 20
126.9732288228
 11
91.5384533102
 21
127.3562075006
  0
LINE
  5
330
100
AcDbEntity
  8
0
100
AcDbLine
 62
7
  6
CONTINUOUS
 10
93.663453787
 20
125.3136542843
 11
93.288453787
 21
125.0583351658
  0
LINE
  5
331
100
AcDbEntity
  8
0
100
AcDbLine
 62
7
  6
CONTINUOUS
 10
91.413453787
 20
127.9945052968
 11
90.7884536678
 21
127.6115266191
  0
LINE
  5
332
100
AcDbEntity
  8
0
100
AcDbLine
 62
7
  6
CONTINUOUS
 10
93.4134533102
 20
124.4200372914
 11
94.038453787
 21
124.8030160026
  0
LINE
  5
333
100
AcDbEntity
  8
RUNDUNGEN
100
AcDbLine
 62
7
  6
CONTINUOUS
 10
92.9326621295
 20
184.1460960515
 11
114.3278803992
 21
175.2839064742
  0
LINE
  5
334
100
AcDbEntity
  8
RUNDUNGEN
100
AcDbLine
 62
7
  6
CONTINUOUS
 10
115.6808706496
 20
173.9309162239
 11
124.2112894117
 21
153.3366635558
  0
LINE
  5
335
100
AcDbEntity
  8
BEZUGSACHSEN
100
AcDbLine
 62
7
  6
CONTINUOUS
 10
124.2112894117
 20
153.3366635558
 11
124.4278610265
 21
152.8138134259
  0
LINE
  5
336
100
AcDbEntity
  8
RUNDUNGEN
100
AcDbLine
 62
7
  6
CONTINUOUS
 10
127.4759535486
 20
146.5923777209
 11
127.4759535486
 21
143.5923777209
  0
LINE
  5
337
100
AcDbEntity
  8
BEZUGSACHSEN
100
AcDbLine
 62
7
  6
CONTINUOUS
 10
124.4272296859
 20
150.8988734931
 11
122.8475861267
 21
147.0923777209
  0
LINE
  5
338
100
AcDbEntity
  8
BEZUGSACHSEN
100
AcDbLine
 62
7
  6
CONTINUOUS
 10
121.1876409658
 20
143.0923777209
 11
120.1058783433
 21
140.485634684
  0
LINE
  5
339
100
AcDbEntity
  8
BEZUGSACHSEN
100
AcDbLine
 62
7
  6
CONTINUOUS
 10
115.7789524597
 20
130.0589628024
 11
115.420136493
 21
129.1943174509
  0
LINE
  5
33A
100
AcDbEntity
  8
KONSTRUKTIONSELEMENTE
100
AcDbLine
 62
7
  6
CONTINUOUS
 10
100.9759535486
 20
97.8423777209
 11
99.2259535486
 21
96.0923777209
  0
LINE
  5
33B
100
AcDbEntity
  8
KONSTRUKTIONSELEMENTE
100
AcDbLine
 62
7
  6
CONTINUOUS
 10
193.149548887
 20
96.0923777209
 11
207.6491536596
 21
96.0923777209
  0
LINE
  5
33C
100
AcDbEntity
  8
KONSTRUKTIONSELEMENTE
100
AcDbLine
 62
7
  6
CONTINUOUS
 10
191.3993512733
 20
97.8423777209
 11
209.3993512733
 21
97.8423777209
  0
LINE
  5
33D
100
AcDbEntity
  8
KONSTRUKTIONSELEMENTE
100
AcDbLine
 62
7
  6
CONTINUOUS
 10
191.3993512733
 20
97.8423777209
 11
193.1493512733
 21
96.0923777209
  0
LINE
  5
33E
100
AcDbEntity
  8
KONSTRUKTIONSELEMENTE
100
AcDbLine
 62
7
  6
CONTINUOUS
 10
188.649556647
 20
120.0923777209
 11
212.1491458997
 21
120.0923777209
  0
LINE
  5
33F
100
AcDbEntity
  8
BEZUGSACHSEN
100
AcDbLine
 62
7
  6
CONTINUOUS
 10
182.3994660872
 20
120.2923777209
 11
218.3992364594
 21
120.2923777209
  0
LINE
  5
340
100
AcDbEntity
  8
0
100
AcDbLine
 62
7
  6
CONTINUOUS
 10
181.8291023141
 20
123.526420276
 11
181.5754199329
 21
123.526420276
  0
LINE
  5
341
100
AcDbEntity
  8
0
100
AcDbLine
 62
7
  6
CONTINUOUS
 10
218.6087423939
 20
123.526420276
 11
219.2232826137
 21
123.526420276
  0
LINE
  5
342
100
AcDbEntity
  8
0
100
AcDbLine
 62
7
  6
CONTINUOUS
 10
182.5370374326
 20
124.2923777209
 11
182.009164891
 21
124.2923777209
  0
LINE
  5
343
100
AcDbEntity
  8
0
100
AcDbLine
 62
7
  6
CONTINUOUS
 10
181.7069854715
 20
124.2923777209
 11
181.1989796758
 21
124.2923777209
  0
LINE
  5
344
100
AcDbEntity
  8
0
100
AcDbLine
 62
7
  6
CONTINUOUS
 10
181.1864047122
 20
124.2923777209
 11
181.1953902339
 21
124.2923777209
  0
LINE
  5
345
100
AcDbEntity
  8
0
100
AcDbLine
 62
7
  6
CONTINUOUS
 10
218.3908969292
 20
124.2923777209
 11
219.0837453766
 21
124.2923777209
  0
LINE
  5
346
100
AcDbEntity
  8
0
100
AcDbLine
 62
7
  6
CONTINUOUS
 10
219.4196196584
 20
124.2923777209
 11
219.6122978345
 21
124.2923777209
  0
LINE
  5
347
100
AcDbEntity
  8
0
100
AcDbLine
 62
7
  6
CONTINUOUS
 10
181.7119283094
 20
124.4200372914
 11
181.2033057092
 21
124.4200372914
  0
LINE
  5
348
100
AcDbEntity
  8
0
100
AcDbLine
 62
7
  6
CONTINUOUS
 10
219.4514143665
 20
124.4200372914
 11
219.6288568934
 21
124.4200372914
  0
LINE
  5
349
100
AcDbEntity
  8
0
100
AcDbLine
 62
7
  6
CONTINUOUS
 10
182.4303215015
 20
124.8030160026
 11
181.9031316065
 21
124.8030160026
  0
LINE
  5
34A
100
AcDbEntity
  8
0
100
AcDbLine
 62
7
  6
CONTINUOUS
 10
181.5648354141
 20
124.8030160026
 11
181.1765497237
 21
124.8030160026
  0
LINE
  5
34B
100
AcDbEntity
  8
0
100
AcDbLine
 62
7
  6
CONTINUOUS
 10
219.5450307786
 20
124.8030160026
 11
219.6759167352
 21
124.8030160026
  0
LINE
  5
34C
100
AcDbEntity
  8
0
100
AcDbLine
 62
7
  6
CONTINUOUS
 10
182.2477877195
 20
124.9306756066
 11
181.7245961674
 21
124.9306756066
  0
LINE
  5
34D
100
AcDbEntity
  8
0
100
AcDbLine
 62
7
  6
CONTINUOUS
 10
181.0860989672
 20
124.9306756066
 11
181.0738535844
 21
124.9306756066
  0
LINE
  5
34E
100
AcDbEntity
  8
0
100
AcDbLine
 62
7
  6
CONTINUOUS
 10
219.209213843
 20
124.9306756066
 11
219.575837411
 21
124.9306756066
  0
LINE
  5
34F
100
AcDbEntity
  8
0
100
AcDbLine
 62
7
  6
CONTINUOUS
 10
181.0833147607
 20
125.0583351658
 11
181.0548180778
 21
125.0583351658
  0
LINE
  5
350
100
AcDbEntity
  8
0
100
AcDbLine
 62
7
  6
CONTINUOUS
 10
182.1117407177
 20
125.1859947251
 11
181.590839948
 21
125.1859947251
  0
LINE
  5
351
100
AcDbEntity
  8
0
100
AcDbLine
 62
7
  6
CONTINUOUS
 10
181.4193356441
 20
125.3136542843
 11
181.1162601756
 21
125.3136542843
  0
LINE
  5
352
100
AcDbEntity
  8
0
100
AcDbLine
 62
7
  6
CONTINUOUS
 10
181.0587607265
 20
125.3136542843
 11
181.0183729491
 21
125.3136542843
  0
LINE
  5
353
100
AcDbEntity
  8
0
100
AcDbLine
 62
7
  6
CONTINUOUS
 10
219.284477183
 20
125.3136542843
 11
219.7474617902
 21
125.3136542843
  0
LINE
  5
354
100
AcDbEntity
  8
0
100
AcDbLine
 62
7
  6
CONTINUOUS
 10
182.0091309974
 20
125.5689734922
 11
181.4891916334
 21
125.5689734922
  0
LINE
  5
355
100
AcDbEntity
  8
0
100
AcDbLine
 62
7
  6
CONTINUOUS
 10
180.9870398533
 20
125.8242926107
 11
180.9365227072
 21
125.8242926107
  0
LINE
  5
356
100
AcDbEntity
  8
0
100
AcDbLine
 62
7
  6
CONTINUOUS
 10
219.3846054552
 20
125.8242926107
 11
219.8621798395
 21
125.8242926107
  0
LINE
  5
357
100
AcDbEntity
  8
0
100
AcDbLine
 62
7
  6
CONTINUOUS
 10
181.2964429078
 20
125.95195217
 11
181.0241745354
 21
125.95195217
  0
LINE
  5
358
100
AcDbEntity
  8
0
100
AcDbLine
 62
7
  6
CONTINUOUS
 10
219.4346695826
 20
126.0796117292
 11
219.8513687139
 21
126.0796117292
  0
LINE
  5
359
100
AcDbEntity
  8
0
100
AcDbLine
 62
7
  6
CONTINUOUS
 10
219.4847009993
 20
126.3349308477
 11
219.8971973652
 21
126.3349308477
  0
LINE
  5
35A
100
AcDbEntity
  8
0
100
AcDbLine
 62
7
  6
CONTINUOUS
 10
181.1982349979
 20
126.462590407
 11
180.9314066044
 21
126.462590407
  0
LINE
  5
35B
100
AcDbEntity
  8
0
100
AcDbLine
 62
7
  6
CONTINUOUS
 10
219.5596110193
 20
126.7179097043
 11
219.9746976034
 21
126.7179097043
  0
LINE
  5
35C
100
AcDbEntity
  8
0
100
AcDbLine
 62
7
  6
CONTINUOUS
 10
180.7675759476
 20
126.9732288228
 11
180.7286655966
 21
126.9732288228
  0
LINE
  5
35D
100
AcDbEntity
  8
0
100
AcDbLine
 62
7
  6
CONTINUOUS
 10
219.6095510094
 20
126.9732288228
 11
220.07003695
 21
126.9732288228
  0
LINE
  5
35E
100
AcDbEntity
  8
0
100
AcDbLine
 62
7
  6
CONTINUOUS
 10
181.1840786376
 20
124.3051436799
 11
181.1864047122
 21
124.2923777209
  0
LINE
  5
35F
100
AcDbEntity
  8
0
100
AcDbLine
 62
7
  6
CONTINUOUS
 10
181.0738535844
 20
124.9306756066
 11
181.0709668694
 21
124.9466330405
  0
LINE
  5
360
100
AcDbEntity
  8
0
100
AcDbLine
 62
7
  6
CONTINUOUS
 10
180.9015051815
 20
126.3349308477
 11
180.9473338327
 21
126.0796117292
  0
LINE
  5
361
100
AcDbEntity
  8
0
100
AcDbLine
 62
7
  6
CONTINUOUS
 10
180.1283681603
 20
130.2923777209
 11
180.2409172835
 21
129.6540799247
  0
LINE
  5
362
100
AcDbEntity
  8
0
100
AcDbLine
 62
7
  6
CONTINUOUS
 10
180.5132862256
 20
128.1093988953
 11
180.6263980922
 21
127.4679096225
  0
LINE
  5
363
100
AcDbEntity
  8
0
100
AcDbLine
 62
7
  6
CONTINUOUS
 10
181.0741523406
 20
124.928569094
 11
181.184079061
 21
124.3051436828
  0
LINE
  5
364
100
AcDbEntity
  8
BEZUGSACHSEN
100
AcDbLine
 62
7
  6
CONTINUOUS
 10
180.3801619438
 20
131.7437694556
 11
180.6360814662
 21
130.2923777209
  0
LINE
  5
365
100
AcDbEntity
  8
BEZUGSACHSEN
100
AcDbLine
 62
7
  6
CONTINUOUS
 10
180.7514410888
 20
129.6381407907
 11
180.7919661029
 21
129.4083120148
  0
LINE
  5
366
100
AcDbEntity
  8
BEZUGSACHSEN
100
AcDbLine
 62
7
  6
CONTINUOUS
 10
181.6944336032
 20
124.2901644879
 11
182.3993512733
 21
120.2923777209
  0
LINE
  5
367
100
AcDbEntity
  8
0
100
AcDbLine
 62
7
  6
CONTINUOUS
 10
180.5110984063
 20
128.1221648561
 11
180.5132869907
 21
128.1093989007
  0
LINE
  5
368
100
AcDbEntity
  8
0
100
AcDbLine
 62
7
  6
CONTINUOUS
 10
181.0756153823
 20
127.1008883821
 11
180.7932446805
 21
127.1008883821
  0
LINE
  5
369
100
AcDbEntity
  8
0
100
AcDbLine
 62
7
  6
CONTINUOUS
 10
180.6751592051
 20
127.3562075006
 11
180.6493054923
 21
127.3562075006
  0
LINE
  5
36A
100
AcDbEntity
  8
0
100
AcDbLine
 62
7
  6
CONTINUOUS
 10
180.6236493788
 20
127.4838670598
 11
180.6346241318
 21
127.4838670598
  0
LINE
  5
36B
100
AcDbEntity
  8
0
100
AcDbLine
 62
7
  6
CONTINUOUS
 10
180.9776311439
 20
127.6115266191
 11
180.6724306083
 21
127.6115266191
  0
LINE
  5
36C
100
AcDbEntity
  8
0
100
AcDbLine
 62
7
  6
CONTINUOUS
 10
180.7845874707
 20
127.8668457376
 11
180.9286654848
 21
127.8668457376
  0
LINE
  5
36D
100
AcDbEntity
  8
0
100
AcDbLine
 62
7
  6
CONTINUOUS
 10
181.0375355605
 20
127.8668457376
 11
181.8550264078
 21
127.8668457376
  0
LINE
  5
36E
100
AcDbEntity
  8
0
100
AcDbLine
 62
7
  6
CONTINUOUS
 10
180.7608544536
 20
127.9945052968
 11
180.5674801623
 21
127.9945052968
  0
LINE
  5
36F
100
AcDbEntity
  8
0
100
AcDbLine
 62
7
  6
CONTINUOUS
 10
220.2420413636
 20
127.9945052968
 11
220.2599937208
 21
127.9945052968
  0
LINE
  5
370
100
AcDbEntity
  8
0
100
AcDbLine
 62
7
  6
CONTINUOUS
 10
180.7371244884
 20
128.1221648561
 11
180.5217665651
 21
128.1221648561
  0
LINE
  5
371
100
AcDbEntity
  8
0
100
AcDbLine
 62
7
  6
CONTINUOUS
 10
180.5116087369
 20
128.1221648561
 11
180.5110984063
 21
128.1221648561
  0
LINE
  5
372
100
AcDbEntity
  8
0
100
AcDbLine
 62
7
  6
CONTINUOUS
 10
220.2646813092
 20
128.1221648561
 11
220.2876041403
 21
128.1221648561
  0
LINE
  5
373
100
AcDbEntity
  8
0
100
AcDbLine
 62
7
  6
CONTINUOUS
 10
181.7486763478
 20
128.3774839746
 11
180.9375085018
 21
128.3774839746
  0
LINE
  5
374
100
AcDbEntity
  8
0
100
AcDbLine
 62
7
  6
CONTINUOUS
 10
180.8308173659
 20
128.3774839746
 11
180.6896751371
 21
128.3774839746
  0
LINE
  5
375
100
AcDbEntity
  8
0
100
AcDbLine
 62
7
  6
CONTINUOUS
 10
219.0500263137
 20
128.3774839746
 11
219.5743755604
 21
128.3774839746
  0
LINE
  5
376
100
AcDbEntity
  8
0
100
AcDbLine
 62
7
  6
CONTINUOUS
 10
181.2549050917
 20
129.3987608062
 11
180.6353844002
 21
129.3987608062
  0
LINE
  5
377
100
AcDbEntity
  8
0
100
AcDbLine
 62
7
  6
CONTINUOUS
 10
219.2620964803
 20
129.3987608062
 11
219.7853343266
 21
129.3987608062
  0
LINE
  5
378
100
AcDbEntity
  8
0
100
AcDbLine
 62
7
  6
CONTINUOUS
 10
180.2409173103
 20
129.6540799247
 11
180.8418364095
 21
129.6540799247
  0
LINE
  5
379
100
AcDbEntity
  8
0
100
AcDbLine
 62
7
  6
CONTINUOUS
 10
220.5363364212
 20
129.6540799247
 11
220.5577852363
 21
129.6540799247
  0
LINE
  5
37A
100
AcDbEntity
  8
0
100
AcDbLine
 62
7
  6
CONTINUOUS
 10
180.7266079846
 20
130.2923777209
 11
180.1284003888
 21
130.2923777209
  0
LINE
  5
37B
100
AcDbEntity
  8
0
100
AcDbLine
 62
7
  6
CONTINUOUS
 10
219.6039028265
 20
130.2923777209
 11
220.6703021579
 21
130.2923777209
  0
LINE
  5
37C
100
AcDbEntity
  8
0
100
AcDbLine
 62
7
  6
CONTINUOUS
 10
182.3993512733
 20
143.5923777209
 11
182.3993512733
 21
146.5923777209
  0
LINE
  5
37D
100
AcDbEntity
  8
KONSTRUKTIONSELEMENTE
100
AcDbLine
 62
7
  6
CONTINUOUS
 10
188.6493512733
 20
120.2923777209
 11
188.6493512733
 21
120.0923777209
  0
LINE
  5
37E
100
AcDbEntity
  8
KONSTRUKTIONSELEMENTE
100
AcDbLine
 62
7
  6
CONTINUOUS
 10
191.3993512733
 20
120.0923777209
 11
191.3993512733
 21
97.8423777209
  0
LINE
  5
37F
100
AcDbEntity
  8
BEZUGSACHSEN
100
AcDbLine
 62
7
  6
CONTINUOUS
 10
193.8993512733
 20
145.1890187093
 11
193.8993512733
 21
181.8363972202
  0
LINE
  5
380
100
AcDbEntity
  8
RUNDUNGEN
100
AcDbLine
 62
7
  6
CONTINUOUS
 10
217.8993250456
 20
143.0923777209
 11
207.1802895965
 21
143.0923777209
  0
LINE
  5
381
100
AcDbEntity
  8
RUNDUNGEN
100
AcDbLine
 62
7
  6
CONTINUOUS
 10
193.6184129502
 20
143.0923777209
 11
182.8993768655
 21
143.0923777209
  0
LINE
  5
382
100
AcDbEntity
  8
RUNDUNGEN
100
AcDbLine
 62
7
  6
CONTINUOUS
 10
219.0130668746
 20
134.4436593673
 11
211.5181611751
 21
137.9385912922
  0
LINE
  5
383
100
AcDbEntity
  8
RUNDUNGEN
100
AcDbLine
 62
7
  6
CONTINUOUS
 10
182.8993768764
 20
147.0923777209
 11
193.8993512733
 21
147.0923777209
  0
LINE
  5
384
100
AcDbEntity
  8
RUNDUNGEN
100
AcDbLine
 62
7
  6
CONTINUOUS
 10
206.8993512733
 20
147.0923777209
 11
217.8993250625
 21
147.0923777209
  0
LINE
  5
385
100
AcDbEntity
  8
RUNDUNGEN
100
AcDbLine
 62
7
  6
CONTINUOUS
 10
206.8993512733
 20
145.1890187093
 11
206.8993512733
 21
181.8363972202
  0
LINE
  5
386
100
AcDbEntity
  8
0
100
AcDbLine
 62
7
  6
CONTINUOUS
 10
207.3993512733
 20
178.1423777209
 11
207.3993512733
 21
174.6423777209
  0
LINE
  5
387
100
AcDbEntity
  8
0
100
AcDbLine
 62
7
  6
CONTINUOUS
 10
207.3993512733
 20
173.2302678435
 11
207.3993512733
 21
171.0998582581
  0
LINE
  5
388
100
AcDbEntity
  8
0
100
AcDbLine
 62
7
  6
CONTINUOUS
 10
207.3993512733
 20
171.0954700126
 11
207.3993512733
 21
165.3975559556
  0
LINE
  5
389
100
AcDbEntity
  8
KONSTRUKTIONSELEMENTE
100
AcDbLine
 62
7
  6
CONTINUOUS
 10
209.3993512733
 20
120.0923777209
 11
209.3993512733
 21
97.8423777209
  0
LINE
  5
38A
100
AcDbEntity
  8
KONSTRUKTIONSELEMENTE
100
AcDbLine
 62
7
  6
CONTINUOUS
 10
212.1493512733
 20
120.2923777209
 11
212.1493512733
 21
120.0923777209
  0
LINE
  5
38B
100
AcDbEntity
  8
0
100
AcDbLine
 62
7
  6
CONTINUOUS
 10
206.8993512733
 20
165.3975559556
 11
207.3993512733
 21
165.3975559556
  0
LINE
  5
38C
100
AcDbEntity
  8
0
100
AcDbLine
 62
7
  6
CONTINUOUS
 10
206.8993512733
 20
167.0474717537
 11
207.3993512733
 21
167.0474717537
  0
LINE
  5
38D
100
AcDbEntity
  8
0
100
AcDbLine
 62
7
  6
CONTINUOUS
 10
206.8993512733
 20
167.3568309705
 11
207.3993512733
 21
167.3568309705
  0
LINE
  5
38E
100
AcDbEntity
  8
0
100
AcDbLine
 62
7
  6
CONTINUOUS
 10
218.3993512733
 20
143.5923777209
 11
218.3993512733
 21
146.5923777209
  0
LINE
  5
38F
100
AcDbEntity
  8
BEZUGSACHSEN
100
AcDbLine
 62
7
  6
CONTINUOUS
 10
181.785635672
 20
134.4436593673
 11
189.2805413715
 21
137.9385912922
  0
LINE
  5
390
100
AcDbEntity
  8
0
100
AcDbLine
 62
7
  6
CONTINUOUS
 10
206.8993512733
 20
168.8005072663
 11
207.3993512733
 21
168.8005072663
  0
LINE
  5
391
100
AcDbEntity
  8
0
100
AcDbLine
 62
7
  6
CONTINUOUS
 10
206.8993512733
 20
169.109866483
 11
207.3993512733
 21
169.109866483
  0
LINE
  5
392
100
AcDbEntity
  8
0
100
AcDbLine
 62
7
  6
CONTINUOUS
 10
206.8993512733
 20
169.5223454879
 11
207.3993512733
 21
169.5223454879
  0
LINE
  5
393
100
AcDbEntity
  8
0
100
AcDbLine
 62
7
  6
CONTINUOUS
 10
206.8993512733
 20
170.759782355
 11
207.3993512733
 21
170.759782355
  0
LINE
  5
394
100
AcDbEntity
  8
0
100
AcDbLine
 62
7
  6
CONTINUOUS
 10
206.8993512733
 20
170.9649247222
 11
207.3993512733
 21
170.9649247222
  0
LINE
  5
395
100
AcDbEntity
  8
0
100
AcDbLine
 62
7
  6
CONTINUOUS
 10
206.8993512733
 20
171.0131936534
 11
207.3993512733
 21
171.0131936534
  0
LINE
  5
396
100
AcDbEntity
  8
0
100
AcDbLine
 62
7
  6
CONTINUOUS
 10
206.8993512733
 20
171.0998582581
 11
207.3993512733
 21
171.0998582581
  0
LINE
  5
397
100
AcDbEntity
  8
0
100
AcDbLine
 62
7
  6
CONTINUOUS
 10
206.8993512733
 20
171.2589255221
 11
207.3993512733
 21
171.2589255221
  0
LINE
  5
398
100
AcDbEntity
  8
0
100
AcDbLine
 62
7
  6
CONTINUOUS
 10
206.8993512733
 20
171.4695531963
 11
207.3993512733
 21
171.4695531963
  0
LINE
  5
399
100
AcDbEntity
  8
0
100
AcDbLine
 62
7
  6
CONTINUOUS
 10
206.8993512733
 20
171.7317409859
 11
207.3993512733
 21
171.7317409859
  0
LINE
  5
39A
100
AcDbEntity
  8
0
100
AcDbLine
 62
7
  6
CONTINUOUS
 10
206.8993512733
 20
172.1486077938
 11
207.3993512733
 21
172.1486077938
  0
LINE
  5
39B
100
AcDbEntity
  8
0
100
AcDbLine
 62
7
  6
CONTINUOUS
 10
220.2876041403
 20
128.1221648561
 11
220.2854155559
 21
128.1093989007
  0
LINE
  5
39C
100
AcDbEntity
  8
0
100
AcDbLine
 62
7
  6
CONTINUOUS
 10
218.3993512733
 20
120.2923777209
 11
218.9696002325
 21
123.526420276
  0
LINE
  5
39D
100
AcDbEntity
  8
0
100
AcDbLine
 62
7
  6
CONTINUOUS
 10
220.1654405881
 20
130.3083679439
 11
220.4185406028
 21
131.7437694556
  0
LINE
  5
39E
100
AcDbEntity
  8
0
100
AcDbLine
 62
7
  6
CONTINUOUS
 10
219.6146234856
 20
124.3051436828
 11
219.7277353678
 21
124.9466330439
  0
LINE
  5
39F
100
AcDbEntity
  8
0
100
AcDbLine
 62
7
  6
CONTINUOUS
 10
220.1723039898
 20
127.4679096275
 11
220.2854163211
 21
128.1093988953
  0
LINE
  5
3A0
100
AcDbEntity
  8
0
100
AcDbLine
 62
7
  6
CONTINUOUS
 10
220.5577852631
 20
129.6540799247
 11
220.6703343863
 21
130.2923777209
  0
LINE
  5
3A1
100
AcDbEntity
  8
0
100
AcDbLine
 62
7
  6
CONTINUOUS
 10
219.8971973652
 20
126.3349308477
 11
219.8513687139
 21
126.0796117292
  0
LINE
  5
3A2
100
AcDbEntity
  8
0
100
AcDbLine
 62
7
  6
CONTINUOUS
 10
219.7248489622
 20
124.9306756066
 11
219.7277356772
 21
124.9466330405
  0
LINE
  5
3A3
100
AcDbEntity
  8
0
100
AcDbLine
 62
7
  6
CONTINUOUS
 10
219.614623909
 20
124.3051436799
 11
219.6122978345
 21
124.2923777209
  0
LINE
  5
3A4
100
AcDbEntity
  8
0
100
AcDbLine
 62
7
  6
CONTINUOUS
 10
206.8993512733
 20
172.4601608383
 11
207.3993512733
 21
172.4601608383
  0
LINE
  5
3A5
100
AcDbEntity
  8
0
100
AcDbLine
 62
7
  6
CONTINUOUS
 10
206.8993512733
 20
172.7190575912
 11
207.3993512733
 21
172.7190575912
  0
LINE
  5
3A6
100
AcDbEntity
  8
0
100
AcDbLine
 62
7
  6
CONTINUOUS
 10
206.8993512733
 20
172.9768565451
 11
207.3993512733
 21
172.9768565451
  0
LINE
  5
3A7
100
AcDbEntity
  8
0
100
AcDbLine
 62
7
  6
CONTINUOUS
 10
206.8993512733
 20
173.1819992074
 11
207.3993512733
 21
173.1819992074
  0
LINE
  5
3A8
100
AcDbEntity
  8
0
100
AcDbLine
 62
7
  6
CONTINUOUS
 10
206.8993512733
 20
173.2302678435
 11
207.3993512733
 21
173.2302678435
  0
LINE
  5
3A9
100
AcDbEntity
  8
0
100
AcDbLine
 62
7
  6
CONTINUOUS
 10
206.8993512733
 20
174.6423777209
 11
207.3993512733
 21
174.6423777209
  0
LINE
  5
3AA
100
AcDbEntity
  8
0
100
AcDbLine
 62
7
  6
CONTINUOUS
 10
206.8993512733
 20
178.1423777209
 11
207.3993512733
 21
178.1423777209
  0
LINE
  5
3AB
100
AcDbEntity
  8
RUNDUNGEN
100
AcDbLine
 62
7
  6
CONTINUOUS
 10
204.3993512733
 20
184.3363972202
 11
196.3993512733
 21
184.3363972202
  0
LINE
  5
3AC
100
AcDbEntity
  8
KONSTRUKTIONSELEMENTE
100
AcDbLine
 62
7
  6
CONTINUOUS
 10
209.3993512733
 20
97.8423777209
 11
207.6493512733
 21
96.0923777209
  0
LWPOLYLINE
  5
3AD
100
AcDbEntity
  8
RUNDUNGEN
100
AcDbPolyline
 62
7
  6
CONTINUOUS
 90
7
 70
0
 10
59.3337448892
 20
46.0026836475
 10
59.3380841661
 20
45.4187171872
 10
59.3564994132
 20
44.6644999242
 10
59.3897139196
 20
43.902850534
 10
59.4380235981
 20
43.1355626702
 10
59.5016016742
 20
42.3644103075
 10
59.5648447048
 20
41.7335692622
  0
LWPOLYLINE
  5
3AE
100
AcDbEntity
  8
BEZUGSACHSEN
100
AcDbPolyline
 62
7
  6
CONTINUOUS
 90
7
 70
0
 10
59.5648447048
 20
50.2717980332
 10
59.5016016742
 20
49.6409569879
 10
59.4380235981
 20
48.8698046252
 10
59.3897139196
 20
48.1025167614
 10
59.3564994132
 20
47.3408673712
 10
59.3380841661
 20
46.5866501082
 10
59.3337448892
 20
46.0026836475
  0
LWPOLYLINE
  5
3AF
100
AcDbEntity
  8
BEZUGSACHSEN
100
AcDbPolyline
 62
7
  6
CONTINUOUS
 90
11
 70
0
 10
68.3172763871
 20
55.6466592144
 10
67.4717608517
 20
54.7271492917
 10
67.097970375
 20
54.3262603007
 10
66.7545658895
 20
53.9661834348
 10
66.4401881699
 20
53.6473469026
 10
66.1544278664
 20
53.3702381863
 10
65.8972168404
 20
53.1346801154
 10
65.6688645176
 20
52.9398477904
 10
65.4707076745
 20
52.7847214768
 10
65.302676542
 20
52.6661960298
 10
65.1658331234
 20
52.5812431869
  0
LWPOLYLINE
  5
3B0
100
AcDbEntity
  8
BEZUGSACHSEN
100
AcDbPolyline
 62
7
  6
CONTINUOUS
 90
5
 70
0
 10
70.4100017315
 20
57.8395330338
 10
69.899225393
 20
57.3245720407
 10
69.3219914309
 20
56.7248202383
 10
68.7971640286
 20
56.1658601111
 10
68.3172763871
 20
55.6466592144
  0
LINE
  5
3B1
100
AcDbEntity
  8
BEZUGSACHSEN
100
AcDbLine
 62
7
  6
CONTINUOUS
 10
70.4100017315
 20
57.8395330338
 11
70.4100631367
 21
57.8395939946
  0
LINE
  5
3B2
100
AcDbEntity
  8
0
100
AcDbLine
 62
7
  6
CONTINUOUS
 10
69.9665202129
 20
39.5026836477
 11
69.9665202129
 21
39.0026836477
  0
LWPOLYLINE
  5
3B3
100
AcDbEntity
  8
BEZUGSACHSEN
100
AcDbPolyline
 62
7
  6
CONTINUOUS
 90
3
 70
0
 10
65.1658331234
 20
52.5812431869
 10
65.063666678
 20
52.5271883603
 10
65.0360332482
 20
52.5145000422
  0
LINE
  5
3B4
100
AcDbEntity
  8
0
100
AcDbLine
 62
7
  6
CONTINUOUS
 10
70.2758794297
 20
39.5026836477
 11
70.2758794297
 21
39.0026836477
  0
LINE
  5
3B5
100
AcDbEntity
  8
0
100
AcDbLine
 62
7
  6
CONTINUOUS
 10
71.7195557254
 20
39.5026836477
 11
71.7195557254
 21
39.0026836477
  0
LINE
  5
3B6
100
AcDbEntity
  8
0
100
AcDbLine
 62
7
  6
CONTINUOUS
 10
72.0289149422
 20
39.5026836477
 11
72.0289149422
 21
39.0026836477
  0
LINE
  5
3B7
100
AcDbEntity
  8
0
100
AcDbLine
 62
7
  6
CONTINUOUS
 10
72.441393947
 20
39.5026836477
 11
72.441393947
 21
39.0026836477
  0
LINE
  5
3B8
100
AcDbEntity
  8
0
100
AcDbLine
 62
7
  6
CONTINUOUS
 10
73.6788308141
 20
39.5026836477
 11
73.6788308141
 21
39.0026836477
  0
LINE
  5
3B9
100
AcDbEntity
  8
0
100
AcDbLine
 62
7
  6
CONTINUOUS
 10
73.9892869448
 20
39.5026836477
 11
73.9892869448
 21
39.0026836477
  0
LINE
  5
3BA
100
AcDbEntity
  8
0
100
AcDbLine
 62
7
  6
CONTINUOUS
 10
74.353497166
 20
39.5026836477
 11
74.353497166
 21
39.0026836477
  0
LWPOLYLINE
  5
3BB
100
AcDbEntity
  8
RUNDUNGEN
100
AcDbPolyline
 62
7
  6
CONTINUOUS
 90
21
 70
0
 10
70.4100559538
 20
34.1657660635
 10
71.4321243025
 20
33.2061152344
 10
72.6674112107
 20
32.1753152254
 10
74.0156701712
 20
31.1856600143
 10
75.4713344682
 20
30.2517716951
 10
77.028865973
 20
29.3860297117
 10
78.6808913482
 20
28.5998832837
 10
80.4182403972
 20
27.9035717751
 10
82.2306721669
 20
27.3055958924
 10
84.106893135
 20
26.8125632928
 10
86.0340770841
 20
26.4292675732
 10
87.9982927855
 20
26.1576730289
 10
89.984768756
 20
25.9975645006
 10
91.9836990171
 20
25.9455144766
 10
93.982590403
 20
25.9983839442
 10
95.9689465972
 20
26.1593477653
 10
97.9329490853
 20
26.4318133387
 10
99.8598161116
 20
26.8159782902
 10
101.7356318583
 20
27.309860508
 10
103.5475871568
 20
27.9086563422
 10
104.0584048862
 20
28.1136792735
  0
LINE
  5
3BC
100
AcDbEntity
  8
RUNDUNGEN
100
AcDbLine
 62
7
  6
CONTINUOUS
 10
70.4100020883
 20
34.1658339074
 11
70.4100631367
 21
34.1657733008
  0
LWPOLYLINE
  5
3BD
100
AcDbEntity
  8
RUNDUNGEN
100
AcDbPolyline
 62
7
  6
CONTINUOUS
 90
6
 70
0
 10
67.4777135066
 20
37.2717834173
 10
68.3221263798
 20
36.3534355936
 10
68.8009047024
 20
35.835485586
 10
69.324434018
 20
35.2779732878
 10
69.9004473911
 20
34.6795448398
 10
70.4100020883
 20
34.1658339074
  0
LINE
  5
3BE
100
AcDbEntity
  8
0
100
AcDbLine
 62
7
  6
CONTINUOUS
 10
74.7188043011
 20
39.5026836477
 11
74.7188043011
 21
39.0026836477
  0
LINE
  5
3BF
100
AcDbEntity
  8
0
100
AcDbLine
 62
7
  6
CONTINUOUS
 10
74.928334914
 20
39.5026836477
 11
74.928334914
 21
39.0026836477
  0
LINE
  5
3C0
100
AcDbEntity
  8
0
100
AcDbLine
 62
7
  6
CONTINUOUS
 10
75.1389625882
 20
39.5026836477
 11
75.1389625882
 21
39.0026836477
  0
LINE
  5
3C1
100
AcDbEntity
  8
0
100
AcDbLine
 62
7
  6
CONTINUOUS
 10
75.2453732655
 20
39.5026836477
 11
75.2453732655
 21
39.0026836477
  0
LINE
  5
3C2
100
AcDbEntity
  8
0
100
AcDbLine
 62
7
  6
CONTINUOUS
 10
75.3013211838
 20
39.5026836477
 11
75.3013211838
 21
39.0026836477
  0
LINE
  5
3C3
100
AcDbEntity
  8
0
100
AcDbLine
 62
7
  6
CONTINUOUS
 10
75.383597543
 20
39.5026836477
 11
75.383597543
 21
39.0026836477
  0
LINE
  5
3C4
100
AcDbEntity
  8
0
100
AcDbLine
 62
7
  6
CONTINUOUS
 10
75.4845230608
 20
39.5026836477
 11
75.4845230608
 21
39.0026836477
  0
LINE
  5
3C5
100
AcDbEntity
  8
0
100
AcDbLine
 62
7
  6
CONTINUOUS
 10
75.6381060503
 20
39.5026836477
 11
75.6381060503
 21
39.0026836477
  0
LINE
  5
3C6
100
AcDbEntity
  8
0
100
AcDbLine
 62
7
  6
CONTINUOUS
 10
75.8959050043
 20
39.5026836477
 11
75.8959050043
 21
39.0026836477
  0
LINE
  5
3C7
100
AcDbEntity
  8
0
100
AcDbLine
 62
7
  6
CONTINUOUS
 10
76.20636143
 20
39.5026836477
 11
76.20636143
 21
39.0026836477
  0
LINE
  5
3C8
100
AcDbEntity
  8
0
100
AcDbLine
 62
7
  6
CONTINUOUS
 10
76.5705713562
 20
39.5026836477
 11
76.5705713562
 21
39.0026836477
  0
LINE
  5
3C9
100
AcDbEntity
  8
0
100
AcDbLine
 62
7
  6
CONTINUOUS
 10
76.9358784913
 20
39.5026836477
 11
76.9358784913
 21
39.0026836477
  0
LINE
  5
3CA
100
AcDbEntity
  8
0
100
AcDbLine
 62
7
  6
CONTINUOUS
 10
77.1454093992
 20
39.5026836477
 11
77.1454093992
 21
39.0026836477
  0
LINE
  5
3CB
100
AcDbEntity
  8
0
100
AcDbLine
 62
7
  6
CONTINUOUS
 10
77.3110588839
 20
39.5026836477
 11
77.3110588839
 21
39.0026836477
  0
LINE
  5
3CC
100
AcDbEntity
  8
0
100
AcDbLine
 62
7
  6
CONTINUOUS
 10
77.6226125185
 20
39.5026836477
 11
77.6226125185
 21
39.0026836477
  0
LINE
  5
3CD
100
AcDbEntity
  8
0
100
AcDbLine
 62
7
  6
CONTINUOUS
 10
78.0394793264
 20
39.5026836477
 11
78.0394793264
 21
39.0026836477
  0
LINE
  5
3CE
100
AcDbEntity
  8
0
100
AcDbLine
 62
7
  6
CONTINUOUS
 10
78.3532268625
 20
39.5026836477
 11
78.3532268625
 21
39.0026836477
  0
LINE
  5
3CF
100
AcDbEntity
  8
0
100
AcDbLine
 62
7
  6
CONTINUOUS
 10
78.6165112709
 20
39.5026836477
 11
78.6165112709
 21
39.0026836477
  0
LINE
  5
3D0
100
AcDbEntity
  8
0
100
AcDbLine
 62
7
  6
CONTINUOUS
 10
78.7240188989
 20
39.5026836477
 11
78.7240188989
 21
39.0026836477
  0
LINE
  5
3D1
100
AcDbEntity
  8
0
100
AcDbLine
 62
7
  6
CONTINUOUS
 10
78.7284071629
 20
39.5026836477
 11
78.7284071629
 21
39.0026836477
  0
LWPOLYLINE
  5
3D2
100
AcDbEntity
  8
RUNDUNGEN
100
AcDbPolyline
 62
7
  6
CONTINUOUS
 90
10
 70
0
 10
65.166348636
 20
39.4238281437
 10
65.3034984426
 20
39.3386262443
 10
65.4719839126
 20
39.2196956927
 10
65.6707407517
 20
39.0639834132
 10
65.8998883686
 20
38.8683211907
 10
66.1579814919
 20
38.6317739035
 10
66.4446306822
 20
38.3536064806
 10
66.759789638
 20
38.0337871181
 10
67.1037269187
 20
37.6729918895
 10
67.4777135066
 20
37.2717834173
  0
LINE
  5
3D3
100
AcDbEntity
  8
RUNDUNGEN
100
AcDbLine
 62
7
  6
CONTINUOUS
 10
108.3387056739
 20
28.1996701982
 11
126.6323880137
 21
31.097104837
  0
LWPOLYLINE
  5
3D4
100
AcDbEntity
  8
RUNDUNGEN
100
AcDbPolyline
 62
7
  6
CONTINUOUS
 90
3
 70
0
 10
65.0067533369
 20
39.5026836477
 10
65.0639614448
 20
39.4780382668
 10
65.166348636
 20
39.4238281437
  0
LINE
  5
3D5
100
AcDbEntity
  8
0
100
AcDbLine
 62
7
  6
CONTINUOUS
 10
86.0384535486
 20
26.428662434
 11
86.0384535486
 21
26.2791795769
  0
LINE
  5
3D6
100
AcDbEntity
  8
0
100
AcDbLine
 62
7
  6
CONTINUOUS
 10
86.7884535486
 20
26.3249590026
 11
86.7884535486
 21
26.1459092723
  0
LINE
  5
3D7
100
AcDbEntity
  8
0
100
AcDbLine
 62
7
  6
CONTINUOUS
 10
87.2363714869
 20
39.5026836477
 11
87.2363714869
 21
39.0026836477
  0
LINE
  5
3D8
100
AcDbEntity
  8
0
100
AcDbLine
 62
7
  6
CONTINUOUS
 10
88.4759535486
 20
56.0026836477
 11
88.4759535486
 21
55.3680096825
  0
LINE
  5
3D9
100
AcDbEntity
  8
0
100
AcDbLine
 62
7
  6
CONTINUOUS
 10
88.9863714869
 20
39.5026836477
 11
88.9863714869
 21
39.0026836477
  0
LINE
  5
3DA
100
AcDbEntity
  8
0
100
AcDbLine
 62
7
  6
CONTINUOUS
 10
89.3509548897
 20
39.5026836477
 11
89.3509548897
 21
39.0026836477
  0
LINE
  5
3DB
100
AcDbEntity
  8
0
100
AcDbLine
 62
7
  6
CONTINUOUS
 10
89.5384533102
 20
65.9718300923
 11
89.5384533102
 21
66.1848618194
  0
LINE
  5
3DC
100
AcDbEntity
  8
0
100
AcDbLine
 62
7
  6
CONTINUOUS
 10
89.6426214869
 20
39.5026836477
 11
89.6426214869
 21
39.0026836477
  0
LINE
  5
3DD
100
AcDbEntity
  8
0
100
AcDbLine
 62
7
  6
CONTINUOUS
 10
89.8613714869
 20
39.5026836477
 11
89.8613714869
 21
39.0026836477
  0
LINE
  5
3DE
100
AcDbEntity
  8
0
100
AcDbLine
 62
7
  6
CONTINUOUS
 10
89.934288084
 20
39.5026836477
 11
89.934288084
 21
39.0026836477
  0
LINE
  5
3DF
100
AcDbEntity
  8
0
100
AcDbLine
 62
7
  6
CONTINUOUS
 10
90.0072048897
 20
39.5026836477
 11
90.0072048897
 21
39.0026836477
  0
LINE
  5
3E0
100
AcDbEntity
  8
0
100
AcDbLine
 62
7
  6
CONTINUOUS
 10
90.1634535486
 20
25.9929117381
 11
90.1634535486
 21
25.7805042375
  0
LINE
  5
3E1
100
AcDbEntity
  8
0
100
AcDbLine
 62
7
  6
CONTINUOUS
 10
90.590538084
 20
39.5026836477
 11
90.590538084
 21
39.0026836477
  0
LINE
  5
3E2
100
AcDbEntity
  8
0
100
AcDbLine
 62
7
  6
CONTINUOUS
 10
91.0280382926
 20
39.5026836477
 11
91.0280382926
 21
39.0026836477
  0
LINE
  5
3E3
100
AcDbEntity
  8
0
100
AcDbLine
 62
7
  6
CONTINUOUS
 10
91.1009546811
 20
39.5026836477
 11
91.1009546811
 21
39.0026836477
  0
LINE
  5
3E4
100
AcDbEntity
  8
0
100
AcDbLine
 62
7
  6
CONTINUOUS
 10
91.2467882926
 20
39.5026836477
 11
91.2467882926
 21
39.0026836477
  0
LINE
  5
3E5
100
AcDbEntity
  8
0
100
AcDbLine
 62
7
  6
CONTINUOUS
 10
91.4655382926
 20
39.5026836477
 11
91.4655382926
 21
39.0026836477
  0
LINE
  5
3E6
100
AcDbEntity
  8
0
100
AcDbLine
 62
7
  6
CONTINUOUS
 10
91.7572046811
 20
39.5026836477
 11
91.7572046811
 21
39.0026836477
  0
LINE
  5
3E7
100
AcDbEntity
  8
0
100
AcDbLine
 62
7
  6
CONTINUOUS
 10
92.0488714869
 20
39.5026836477
 11
92.0488714869
 21
39.0026836477
  0
LINE
  5
3E8
100
AcDbEntity
  8
0
100
AcDbLine
 62
7
  6
CONTINUOUS
 10
92.3405382926
 20
39.5026836477
 11
92.3405382926
 21
39.0026836477
  0
LINE
  5
3E9
100
AcDbEntity
  8
0
100
AcDbLine
 62
7
  6
CONTINUOUS
 10
92.5592882926
 20
39.5026836477
 11
92.5592882926
 21
39.0026836477
  0
LINE
  5
3EA
100
AcDbEntity
  8
RUNDUNGEN
100
AcDbLine
 62
7
  6
CONTINUOUS
 10
122.4759535486
 20
36.0026836477
 11
107.9759535486
 21
36.0026836477
  0
LINE
  5
3EB
100
AcDbEntity
  8
0
100
AcDbLine
 62
7
  6
CONTINUOUS
 10
92.7051214869
 20
39.5026836477
 11
92.7051214869
 21
39.0026836477
  0
LINE
  5
3EC
100
AcDbEntity
  8
0
100
AcDbLine
 62
7
  6
CONTINUOUS
 10
92.7780382926
 20
39.5026836477
 11
92.7780382926
 21
39.0026836477
  0
LINE
  5
3ED
100
AcDbEntity
  8
0
100
AcDbLine
 62
7
  6
CONTINUOUS
 10
93.2155382926
 20
39.5026836477
 11
93.2155382926
 21
39.0026836477
  0
LINE
  5
3EE
100
AcDbEntity
  8
0
100
AcDbLine
 62
7
  6
CONTINUOUS
 10
93.7884535486
 20
66.0121181535
 11
93.7884535486
 21
66.2248630579
  0
LINE
  5
3EF
100
AcDbEntity
  8
0
100
AcDbLine
 62
7
  6
CONTINUOUS
 10
93.7988714869
 20
39.5026836477
 11
93.7988714869
 21
39.0026836477
  0
LINE
  5
3F0
100
AcDbEntity
  8
0
100
AcDbLine
 62
7
  6
CONTINUOUS
 10
94.413453787
 20
26.0332988385
 11
94.413453787
 21
25.820505476
  0
LINE
  5
3F1
100
AcDbEntity
  8
0
100
AcDbLine
 62
7
  6
CONTINUOUS
 10
95.5488714869
 20
39.5026836477
 11
95.5488714869
 21
39.0026836477
  0
LINE
  5
3F2
100
AcDbEntity
  8
0
100
AcDbLine
 62
7
  6
CONTINUOUS
 10
95.9134550983
 20
39.5026836477
 11
95.9134550983
 21
39.0026836477
  0
LINE
  5
3F3
100
AcDbEntity
  8
0
100
AcDbLine
 62
7
  6
CONTINUOUS
 10
96.2051214869
 20
39.5026836477
 11
96.2051214869
 21
39.0026836477
  0
LINE
  5
3F4
100
AcDbEntity
  8
0
100
AcDbLine
 62
7
  6
CONTINUOUS
 10
96.4967878754
 20
39.5026836477
 11
96.4967878754
 21
39.0026836477
  0
LINE
  5
3F5
100
AcDbEntity
  8
0
100
AcDbLine
 62
7
  6
CONTINUOUS
 10
96.6426214869
 20
39.5026836477
 11
96.6426214869
 21
39.0026836477
  0
LINE
  5
3F6
100
AcDbEntity
  8
0
100
AcDbLine
 62
7
  6
CONTINUOUS
 10
96.7155378754
 20
39.5026836477
 11
96.7155378754
 21
39.0026836477
  0
LINE
  5
3F7
100
AcDbEntity
  8
0
100
AcDbLine
 62
7
  6
CONTINUOUS
 10
112.9341064427
 20
39.0026836477
 11
107.7261293521
 21
39.0026836477
  0
LINE
  5
3F8
100
AcDbEntity
  8
0
100
AcDbLine
 62
7
  6
CONTINUOUS
 10
96.7155378754
 20
39.0026836477
 11
93.7988714869
 21
39.0026836477
  0
LINE
  5
3F9
100
AcDbEntity
  8
0
100
AcDbLine
 62
7
  6
CONTINUOUS
 10
93.2155382926
 20
39.0026836477
 11
90.590538084
 21
39.0026836477
  0
LINE
  5
3FA
100
AcDbEntity
  8
0
100
AcDbLine
 62
7
  6
CONTINUOUS
 10
90.0072048897
 20
39.0026836477
 11
87.2363714869
 21
39.0026836477
  0
LINE
  5
3FB
100
AcDbEntity
  8
0
100
AcDbLine
 62
7
  6
CONTINUOUS
 10
78.7240188989
 20
39.0026836477
 11
69.9665202129
 21
39.0026836477
  0
LINE
  5
3FC
100
AcDbEntity
  8
RUNDUNGEN
100
AcDbLine
 62
7
  6
CONTINUOUS
 10
62.0503175809
 20
39.5026836477
 11
121.9015903441
 21
39.5026836477
  0
LINE
  5
3FD
100
AcDbEntity
  8
RUNDUNGEN
100
AcDbLine
 62
7
  6
CONTINUOUS
 10
126.4759535486
 20
40.2526836477
 11
124.4759535486
 21
40.2526836477
  0
LINE
  5
3FE
100
AcDbEntity
  8
0
100
AcDbLine
 62
7
  6
CONTINUOUS
 10
89.1615398116
 20
55.6507093136
 11
89.0384535486
 21
56.0026836477
  0
LINE
  5
3FF
100
AcDbEntity
  8
0
100
AcDbLine
 62
7
  6
CONTINUOUS
 10
97.1634535486
 20
65.6803058799
 11
97.1634535486
 21
65.8594580231
  0
LINE
  5
400
100
AcDbEntity
  8
0
100
AcDbLine
 62
7
  6
CONTINUOUS
 10
97.9134535486
 20
65.5762585677
 11
97.9134535486
 21
65.7261877185
  0
LWPOLYLINE
  5
401
100
AcDbEntity
  8
RUNDUNGEN
100
AcDbPolyline
 62
7
  6
CONTINUOUS
 90
3
 70
0
 10
118.7874922972
 20
39.4249373431
 10
118.8892613248
 20
39.4786653235
 10
118.9167327063
 20
39.4912445388
  0
LINE
  5
402
100
AcDbEntity
  8
RUNDUNGEN
100
AcDbLine
 62
7
  6
CONTINUOUS
 10
124.4759535486
 20
51.7526836477
 11
126.4759535486
 21
51.7526836477
  0
LINE
  5
403
100
AcDbEntity
  8
0
100
AcDbLine
 62
7
  6
CONTINUOUS
 10
107.7259535486
 20
39.5026836477
 11
107.7259535486
 21
39.0026836477
  0
LINE
  5
404
100
AcDbEntity
  8
BEZUGSACHSEN
100
AcDbLine
 62
7
  6
CONTINUOUS
 10
62.0503175809
 20
52.5026836477
 11
121.9015903441
 21
52.5026836477
  0
LINE
  5
405
100
AcDbEntity
  8
0
100
AcDbLine
 62
7
  6
CONTINUOUS
 10
89.0384535486
 20
56.0026836477
 11
88.4759535486
 21
56.0026836477
  0
LINE
  5
406
100
AcDbEntity
  8
RUNDUNGEN
100
AcDbLine
 62
7
  6
CONTINUOUS
 10
107.9759535486
 20
56.0026836477
 11
122.4759535486
 21
56.0026836477
  0
LINE
  5
407
100
AcDbEntity
  8
0
100
AcDbLine
 62
7
  6
CONTINUOUS
 10
110.8341064427
 20
39.5026836477
 11
110.8341064427
 21
39.0026836477
  0
LINE
  5
408
100
AcDbEntity
  8
0
100
AcDbLine
 62
7
  6
CONTINUOUS
 10
112.9341064427
 20
39.5026836477
 11
112.9341064427
 21
39.0026836477
  0
LINE
  5
409
100
AcDbEntity
  8
RUNDUNGEN
100
AcDbLine
 62
7
  6
CONTINUOUS
 10
115.3055774184
 20
36.0026836477
 11
116.4799695733
 21
37.2780270446
  0
LWPOLYLINE
  5
40A
100
AcDbEntity
  8
RUNDUNGEN
100
AcDbPolyline
 62
7
  6
CONTINUOUS
 90
10
 70
0
 10
116.4799695733
 20
37.2780270446
 10
116.8535378876
 20
37.6786833915
 10
117.1971114361
 20
38.038946539
 10
117.5119380064
 20
38.3582379855
 10
117.7982534626
 20
38.6358597776
 10
118.0559817935
 20
38.8718303433
 10
118.2847158641
 20
39.0668884571
 10
118.4829792674
 20
39.2219697106
 10
118.6509215276
 20
39.3402914057
 10
118.7874922972
 20
39.4249373431
  0
LWPOLYLINE
  5
40B
100
AcDbEntity
  8
BEZUGSACHSEN
100
AcDbPolyline
 62
7
  6
CONTINUOUS
 90
3
 70
0
 10
118.9452301826
 20
52.5026836477
 10
118.889556498
 20
52.5265615812
 10
118.7880093606
 20
52.5801338707
  0
LWPOLYLINE
  5
40C
100
AcDbEntity
  8
BEZUGSACHSEN
100
AcDbPolyline
 62
7
  6
CONTINUOUS
 90
10
 70
0
 10
118.7880093606
 20
52.5801338707
 10
118.6517458576
 20
52.6645304132
 10
118.4842585515
 20
52.7824468541
 10
118.2865951577
 20
52.9369424524
 10
118.0586551733
 20
53.1311720667
 10
117.8018070565
 20
53.3661554092
 10
117.5163782066
 20
53.6427207728
 10
117.2023307933
 20
53.9610312843
 10
116.8592888081
 20
54.3205768392
 10
116.4859170211
 20
54.7209124784
  0
LINE
  5
40D
100
AcDbEntity
  8
RUNDUNGEN
100
AcDbLine
 62
7
  6
CONTINUOUS
 10
123.4759535486
 20
55.0026836477
 11
123.4759535486
 21
52.7526836477
  0
LINE
  5
40E
100
AcDbEntity
  8
RUNDUNGEN
100
AcDbLine
 62
7
  6
CONTINUOUS
 10
123.4759535486
 20
39.2526836477
 11
123.4759535486
 21
37.0026836477
  0
LWPOLYLINE
  5
40F
100
AcDbEntity
  8
RUNDUNGEN
100
AcDbPolyline
 62
7
  6
CONTINUOUS
 90
7
 70
0
 10
124.3870632209
 20
41.7335638438
 10
124.4490929172
 20
42.3512798085
 10
124.5129101185
 20
43.1221957643
 10
124.5614704835
 20
43.8893454971
 10
124.594947791
 20
44.6509509973
 10
124.6136202026
 20
45.4052396662
 10
124.6181610322
 20
46.0026836477
  0
LINE
  5
410
100
AcDbEntity
  8
RUNDUNGEN
100
AcDbLine
 62
7
  6
CONTINUOUS
 10
126.6323880137
 20
60.9082624584
 11
108.3387056739
 21
63.8056970972
  0
LWPOLYLINE
  5
411
100
AcDbEntity
  8
BEZUGSACHSEN
100
AcDbPolyline
 62
7
  6
CONTINUOUS
 90
21
 70
0
 10
104.0584048862
 20
63.8916880219
 10
103.5475871568
 20
64.0967109532
 10
101.7356318583
 20
64.6955067874
 10
99.8598161116
 20
65.1893890052
 10
97.9329490853
 20
65.5735539567
 10
95.9689465972
 20
65.8460195301
 10
93.982590403
 20
66.0069833512
 10
91.9836990171
 20
66.0598528188
 10
89.984768756
 20
66.0078027948
 10
87.9982927855
 20
65.8476942665
 10
86.0340770841
 20
65.5760997222
 10
84.106893135
 20
65.1928040026
 10
82.2306721669
 20
64.6997714031
 10
80.4182403972
 20
64.1017955203
 10
78.6808913482
 20
63.4054840117
 10
77.028865973
 20
62.6193375837
 10
75.4713344682
 20
61.7535956003
 10
74.0156701712
 20
60.8197072811
 10
72.6674112107
 20
59.83005207
 10
71.4321243025
 20
58.799252061
 10
70.4100559538
 20
57.8396012319
  0
LINE
  5
412
100
AcDbEntity
  8
BEZUGSACHSEN
100
AcDbLine
 62
7
  6
CONTINUOUS
 10
116.4859170211
 20
54.7209124784
 11
115.3055865612
 21
56.0026836477
  0
LWPOLYLINE
  5
413
100
AcDbEntity
  8
BEZUGSACHSEN
100
AcDbPolyline
 62
7
  6
CONTINUOUS
 90
7
 70
0
 10
124.6181610322
 20
46.0026836477
 10
124.6136202026
 20
46.6001276292
 10
124.594947791
 20
47.3544162981
 10
124.5614704835
 20
48.1160217983
 10
124.5129101185
 20
48.8831715311
 10
124.4490929172
 20
49.6540874869
 10
124.3870632209
 20
50.2718034517
  0
LINE
  5
414
100
AcDbEntity
  8
RUNDUNGEN
100
AcDbLine
 62
7
  6
CONTINUOUS
 10
127.4759535486
 20
32.0847931776
 11
127.4759535486
 21
39.2526836477
  0
LINE
  5
415
100
AcDbEntity
  8
RUNDUNGEN
100
AcDbLine
 62
7
  6
CONTINUOUS
 10
127.4759535486
 20
52.7526836477
 11
127.4759535486
 21
59.9205741178
  0
ARC
  5
416
100
AcDbEntity
  8
0
100
AcDbCircle
 62
7
  6
CONTINUOUS
 10
91.9759535486
 20
151.7923777209
 40
17.5
100
AcDbArc
 50
328.0206426185
 51
330.1891213755
  0
ARC
  5
417
100
AcDbEntity
  8
0
100
AcDbCircle
 62
7
  6
CONTINUOUS
 10
91.9759535486
 20
151.7923777209
 40
17.5
100
AcDbArc
 50
197.8867559961
 51
211.9794079862
  0
ARC
  5
418
100
AcDbEntity
  8
RUNDUNGEN
100
AcDbCircle
 62
7
  6
CONTINUOUS
 10
91.9759535486
 20
151.7923777209
 40
17.5
100
AcDbArc
 50
344.4102685805
 51
197.8867559961
  0
ARC
  5
419
100
AcDbEntity
  8
BEZUGSACHSEN
100
AcDbCircle
 62
7
  6
CONTINUOUS
 10
119.9759535486
 20
120.2923777209
 40
10.0
100
AcDbArc
 50
117.1023684353
 51
180.0
  0
ARC
  5
41A
100
AcDbEntity
  8
BEZUGSACHSEN
100
AcDbCircle
 62
7
  6
CONTINUOUS
 10
63.9759535486
 20
120.2923777209
 40
10.0
100
AcDbArc
 50
0.0
 51
62.8976315647
  0
ARC
  5
41B
100
AcDbEntity
  8
0
100
AcDbCircle
 62
7
  6
CONTINUOUS
 10
84.4280412813
 20
144.7419705607
 40
7.3932990525
100
AcDbArc
 50
245.5912663469
 51
246.1409685466
  0
ARC
  5
41C
100
AcDbEntity
  8
0
100
AcDbCircle
 62
7
  6
CONTINUOUS
 10
99.5240783607
 20
144.7415272826
 40
7.3928077705
100
AcDbArc
 50
293.8589350581
 51
294.4096537473
  0
ARC
  5
41D
100
AcDbEntity
  8
BEZUGSACHSEN
100
AcDbCircle
 62
7
  6
CONTINUOUS
 10
122.1181611973
 20
151.8571072542
 40
2.5
100
AcDbArc
 50
337.4621778339
 51
22.4999402352
  0
ARC
  5
41E
100
AcDbEntity
  8
RUNDUNGEN
100
AcDbCircle
 62
7
  6
CONTINUOUS
 10
113.3711718183
 20
172.974207643
 40
2.5
100
AcDbArc
 50
22.5
 51
67.5
  0
ARC
  5
41F
100
AcDbEntity
  8
RUNDUNGEN
100
AcDbCircle
 62
7
  6
CONTINUOUS
 10
91.9759535486
 20
181.8363972202
 40
2.5
100
AcDbArc
 50
67.5
 51
112.5
  0
ARC
  5
420
100
AcDbEntity
  8
RUNDUNGEN
100
AcDbCircle
 62
7
  6
CONTINUOUS
 10
70.5807352789
 20
172.974207643
 40
2.5
100
AcDbArc
 50
112.5
 51
157.5
  0
ARC
  5
421
100
AcDbEntity
  8
BEZUGSACHSEN
100
AcDbCircle
 62
7
  6
CONTINUOUS
 10
61.8337448995
 20
151.8571048389
 40
2.5
100
AcDbArc
 50
157.4999998501
 51
202.537779828
  0
ARC
  5
422
100
AcDbEntity
  8
BEZUGSACHSEN
100
AcDbCircle
 62
7
  6
CONTINUOUS
 10
61.9987715391
 20
139.7190564013
 40
2.000002495
100
AcDbArc
 50
353.8765421946
 51
22.5375646572
  0
ARC
  5
423
100
AcDbEntity
  8
BEZUGSACHSEN
100
AcDbCircle
 62
7
  6
CONTINUOUS
 10
66.3257006332
 20
129.292377708
 40
2.0000000037
100
AcDbArc
 50
22.5377801479
 51
89.9999996624
  0
ARC
  5
424
100
AcDbEntity
  8
BEZUGSACHSEN
100
AcDbCircle
 62
7
  6
CONTINUOUS
 10
121.9531325711
 20
139.7190500986
 40
2.0000000026
100
AcDbArc
 50
157.4622357744
 51
186.123287405
  0
ARC
  5
425
100
AcDbEntity
  8
BEZUGSACHSEN
100
AcDbCircle
 62
7
  6
CONTINUOUS
 10
117.9759535486
 20
133.2923777209
 40
2.0
100
AcDbArc
 50
270.0
 51
360.0
  0
ARC
  5
426
100
AcDbEntity
  8
BEZUGSACHSEN
100
AcDbCircle
 62
7
  6
CONTINUOUS
 10
65.9759535486
 20
133.2923777209
 40
2.0
100
AcDbArc
 50
180.0
 51
270.0
  0
ARC
  5
427
100
AcDbEntity
  8
BEZUGSACHSEN
100
AcDbCircle
 62
7
  6
CONTINUOUS
 10
117.6262063254
 20
129.292377905
 40
1.9999999474
100
AcDbArc
 50
89.9999963653
 51
157.4622235424
  0
ARC
  5
428
100
AcDbEntity
  8
0
100
AcDbCircle
 62
7
  6
CONTINUOUS
 10
111.5759535486
 20
167.9012701709
 40
1.75
100
AcDbArc
 50
39.0962786196
 51
223.4658602705
  0
ARC
  5
429
100
AcDbEntity
  8
0
100
AcDbCircle
 62
7
  6
CONTINUOUS
 10
109.4759535486
 20
170.0012701709
 40
1.75
100
AcDbArc
 50
39.0962786196
 51
223.4658602706
  0
ARC
  5
42A
100
AcDbEntity
  8
0
100
AcDbCircle
 62
7
  6
CONTINUOUS
 10
111.5759535486
 20
167.9012701709
 40
1.23
100
AcDbArc
 50
147.2033599453
 51
233.4149680847
  0
ARC
  5
42B
100
AcDbEntity
  8
0
100
AcDbCircle
 62
7
  6
CONTINUOUS
 10
111.5759535486
 20
167.9012701709
 40
1.23
100
AcDbArc
 50
36.5850319153
 51
122.6078311965
  0
ARC
  5
42C
100
AcDbEntity
  8
0
100
AcDbCircle
 62
7
  6
CONTINUOUS
 10
109.4759535486
 20
170.0012701709
 40
1.23
100
AcDbArc
 50
36.5850319153
 51
233.4149680847
  0
ARC
  5
42D
100
AcDbEntity
  8
RUNDUNGEN
100
AcDbCircle
 62
7
  6
CONTINUOUS
 10
126.9759535486
 20
143.5923777209
 40
0.5
100
AcDbArc
 50
270.0
 51
360.0
  0
ARC
  5
42E
100
AcDbEntity
  8
RUNDUNGEN
100
AcDbCircle
 62
7
  6
CONTINUOUS
 10
82.4759535486
 20
143.5923777209
 40
0.5
100
AcDbArc
 50
180.0
 51
270.0
  0
ARC
  5
42F
100
AcDbEntity
  8
RUNDUNGEN
100
AcDbCircle
 62
7
  6
CONTINUOUS
 10
82.4759535486
 20
146.5923777209
 40
0.5
100
AcDbArc
 50
90.0
 51
180.0
  0
ARC
  5
430
100
AcDbEntity
  8
RUNDUNGEN
100
AcDbCircle
 62
7
  6
CONTINUOUS
 10
126.9759535486
 20
146.5923777209
 40
0.5
100
AcDbArc
 50
0.0
 51
90.0
  0
ARC
  5
431
100
AcDbEntity
  8
0
100
AcDbCircle
 62
7
  6
CONTINUOUS
 10
-2004.2192577684
 20
561.7956905203
 40
2265.9402888214
100
AcDbArc
 50
348.86753006
 51
348.9951354311
  0
ARC
  5
432
100
AcDbEntity
  8
0
100
AcDbCircle
 62
7
  6
CONTINUOUS
 10
-1439.5654926688
 20
461.0980997002
 40
1692.3348950202
100
AcDbArc
 50
348.5204384978
 51
348.6923870271
  0
ARC
  5
433
100
AcDbEntity
  8
0
100
AcDbCircle
 62
7
  6
CONTINUOUS
 10
-1246.6653197212
 20
423.5226504289
 40
1495.3021347042
100
AcDbArc
 50
348.4563986757
 51
348.6148324366
  0
ARC
  5
434
100
AcDbEntity
  8
0
100
AcDbCircle
 62
7
  6
CONTINUOUS
 10
62.1788583786
 20
148.928621824
 40
159.3283762327
100
AcDbArc
 50
351.4764618396
 51
351.662097619
  0
ARC
  5
435
100
AcDbEntity
  8
0
100
AcDbCircle
 62
7
  6
CONTINUOUS
 10
80.6979208523
 20
147.8685155296
 40
140.8993922752
100
AcDbArc
 50
350.8235331776
 51
350.9988876084
  0
ARC
  5
436
100
AcDbEntity
  8
0
100
AcDbCircle
 62
7
  6
CONTINUOUS
 10
161.0400110378
 20
133.2782917888
 40
59.2452507515
100
AcDbArc
 50
351.7753876111
 51
352.1905633671
  0
ARC
  5
437
100
AcDbEntity
  8
0
100
AcDbCircle
 62
7
  6
CONTINUOUS
 10
197.9278725983
 20
130.7360548602
 40
17.606026992
100
AcDbArc
 50
191.2813528828
 51
191.7067288384
  0
ARC
  5
438
100
AcDbEntity
  8
0
100
AcDbCircle
 62
7
  6
CONTINUOUS
 10
197.6263660408
 20
130.6733976547
 40
17.298078786
100
AcDbArc
 50
191.7061409117
 51
192.351372965
  0
ARC
  5
439
100
AcDbEntity
  8
0
100
AcDbCircle
 62
7
  6
CONTINUOUS
 10
194.6167663521
 20
126.4886871611
 40
13.6088287081
100
AcDbArc
 50
184.9532814809
 51
186.0331993846
  0
ARC
  5
43A
100
AcDbEntity
  8
0
100
AcDbCircle
 62
7
  6
CONTINUOUS
 10
193.8085457353
 20
130.5461346998
 40
13.5152313072
100
AcDbArc
 50
193.6520277181
 51
194.7685973536
  0
ARC
  5
43B
100
AcDbEntity
  8
0
100
AcDbCircle
 62
7
  6
CONTINUOUS
 10
194.3387684238
 20
127.084343771
 40
13.437569604
100
AcDbArc
 50
187.5719759045
 51
187.9400462888
  0
ARC
  5
43C
100
AcDbEntity
  8
0
100
AcDbCircle
 62
7
  6
CONTINUOUS
 10
194.2563815003
 20
127.0728534408
 40
13.3543852734
100
AcDbArc
 50
187.9400484055
 51
188.3088912163
  0
ARC
  5
43D
100
AcDbEntity
  8
0
100
AcDbCircle
 62
7
  6
CONTINUOUS
 10
194.1752788382
 20
127.0610094819
 40
13.2724223479
100
AcDbArc
 50
188.308893325
 51
188.6785003563
  0
ARC
  5
43E
100
AcDbEntity
  8
0
100
AcDbCircle
 62
7
  6
CONTINUOUS
 10
192.5335754088
 20
130.7559639628
 40
12.2787628316
100
AcDbArc
 50
206.9765800428
 51
208.3215807784
  0
ARC
  5
43F
100
AcDbEntity
  8
0
100
AcDbCircle
 62
7
  6
CONTINUOUS
 10
192.486255973
 20
130.0324160319
 40
12.1088418807
100
AcDbArc
 50
205.5860549258
 51
206.9332131199
  0
ARC
  5
440
100
AcDbEntity
  8
0
100
AcDbCircle
 62
7
  6
CONTINUOUS
 10
192.7954030716
 20
130.7148870398
 40
12.0295175098
100
AcDbArc
 50
207.3619753343
 51
208.739942596
  0
ARC
  5
441
100
AcDbEntity
  8
0
100
AcDbCircle
 62
7
  6
CONTINUOUS
 10
191.4888039063
 20
130.7814859509
 40
11.2713164043
100
AcDbArc
 50
194.3156155443
 51
196.3343015055
  0
ARC
  5
442
100
AcDbEntity
  8
0
100
AcDbCircle
 62
7
  6
CONTINUOUS
 10
191.8525032608
 20
125.3564445968
 40
10.6902884496
100
AcDbArc
 50
182.9674880793
 51
185.0252184178
  0
ARC
  5
443
100
AcDbEntity
  8
0
100
AcDbCircle
 62
7
  6
CONTINUOUS
 10
192.0122468772
 20
125.3059077186
 40
10.3383426628
100
AcDbArc
 50
184.5642903372
 51
184.9155804877
  0
ARC
  5
444
100
AcDbEntity
  8
0
100
AcDbCircle
 62
7
  6
CONTINUOUS
 10
185.7774499627
 20
127.8928298664
 40
5.2811586786
100
AcDbArc
 50
219.3020765369
 51
221.1156887687
  0
ARC
  5
445
100
AcDbEntity
  8
0
100
AcDbCircle
 62
7
  6
CONTINUOUS
 10
184.9573154868
 20
128.6105599095
 40
4.569801878
100
AcDbArc
 50
233.6354917272
 51
236.4285319769
  0
ARC
  5
446
100
AcDbEntity
  8
0
100
AcDbCircle
 62
7
  6
CONTINUOUS
 10
184.4342675739
 20
128.5315518544
 40
4.5065096121
100
AcDbArc
 50
233.0384168476
 51
235.829174018
  0
ARC
  5
447
100
AcDbEntity
  8
BEZUGSACHSEN
100
AcDbCircle
 62
7
  6
CONTINUOUS
 10
182.8421813264
 20
132.1778898997
 40
2.5
100
AcDbArc
 50
115.0
 51
190.0
  0
ARC
  5
448
100
AcDbEntity
  8
0
100
AcDbCircle
 62
7
  6
CONTINUOUS
 10
182.7133671085
 20
128.0736542393
 40
2.1607918179
100
AcDbArc
 50
195.8398586172
 51
199.3920073996
  0
ARC
  5
449
100
AcDbEntity
  8
0
100
AcDbCircle
 62
7
  6
CONTINUOUS
 10
182.6573425881
 20
127.8262419817
 40
2.0623155412
100
AcDbArc
 50
190.7640829053
 51
193.1744024401
  0
ARC
  5
44A
100
AcDbEntity
  8
0
100
AcDbCircle
 62
7
  6
CONTINUOUS
 10
182.8673541212
 20
125.2634539852
 40
1.8241111873
100
AcDbArc
 50
187.8068761888
 51
190.002148377
  0
ARC
  5
44B
100
AcDbEntity
  8
0
100
AcDbCircle
 62
7
  6
CONTINUOUS
 10
182.8539646788
 20
125.261550155
 40
1.8105872398
100
AcDbArc
 50
187.1243970387
 51
187.8047421616
  0
ARC
  5
44C
100
AcDbEntity
  8
0
100
AcDbCircle
 62
7
  6
CONTINUOUS
 10
182.8577451814
 20
125.0331746777
 40
1.7746087929
100
AcDbArc
 50
179.1876304863
 51
183.3111716992
  0
ARC
  5
44D
100
AcDbEntity
  8
0
100
AcDbCircle
 62
7
  6
CONTINUOUS
 10
181.9412196242
 20
128.5584420743
 40
1.484986464
100
AcDbArc
 50
197.0851175658
 51
202.3187471436
  0
ARC
  5
44E
100
AcDbEntity
  8
0
100
AcDbCircle
 62
7
  6
CONTINUOUS
 10
182.3035671285
 20
124.3188493599
 40
1.104904606
100
AcDbArc
 50
174.7454501689
 51
181.3728409822
  0
ARC
  5
44F
100
AcDbEntity
  8
0
100
AcDbCircle
 62
7
  6
CONTINUOUS
 10
182.7876779959
 20
124.3144599731
 40
1.0809181089
100
AcDbArc
 50
174.3947700457
 51
181.170586249
  0
ARC
  5
450
100
AcDbEntity
  8
0
100
AcDbCircle
 62
7
  6
CONTINUOUS
 10
156.6807286681
 20
139.9746662527
 40
64.6692805724
100
AcDbArc
 50
345.2652801725
 51
346.5325847098
  0
ARC
  5
451
100
AcDbEntity
  8
0
100
AcDbCircle
 62
7
  6
CONTINUOUS
 10
158.7859404014
 20
140.4404380014
 40
62.665102465
100
AcDbArc
 50
345.0004567738
 51
345.6702346527
  0
ARC
  5
452
100
AcDbEntity
  8
0
100
AcDbCircle
 62
7
  6
CONTINUOUS
 10
162.0921683503
 20
139.5548496876
 40
59.2423243781
100
AcDbArc
 50
344.3281215644
 51
345.0001909549
  0
ARC
  5
453
100
AcDbEntity
  8
0
100
AcDbCircle
 62
7
  6
CONTINUOUS
 10
163.4199224458
 20
139.1941411163
 40
57.3697073689
100
AcDbArc
 50
344.1511256751
 51
344.8718114357
  0
ARC
  5
454
100
AcDbEntity
  8
0
100
AcDbCircle
 62
7
  6
CONTINUOUS
 10
164.1026685273
 20
139.2001518774
 40
57.2493668327
100
AcDbArc
 50
347.4064814131
 51
347.6022923796
  0
ARC
  5
455
100
AcDbEntity
  8
0
100
AcDbCircle
 62
7
  6
CONTINUOUS
 10
191.6710900395
 20
140.5281205884
 40
30.2369538975
100
AcDbArc
 50
338.4032716718
 51
340.2134124034
  0
ARC
  5
456
100
AcDbEntity
  8
0
100
AcDbCircle
 62
7
  6
CONTINUOUS
 10
191.9107352095
 20
140.3727700074
 40
29.4707624827
100
AcDbArc
 50
338.1381832464
 51
339.9983492386
  0
ARC
  5
457
100
AcDbEntity
  8
0
100
AcDbCircle
 62
7
  6
CONTINUOUS
 10
192.5043970365
 20
139.3253062667
 40
29.199975175
100
AcDbArc
 50
337.9802768265
 51
339.8595630314
  0
ARC
  5
458
100
AcDbEntity
  8
BEZUGSACHSEN
100
AcDbCircle
 62
7
  6
CONTINUOUS
 10
185.8993512733
 20
145.1889398074
 40
8.0
100
AcDbArc
 50
294.9994114965
 51
0.0005650914
  0
ARC
  5
459
100
AcDbEntity
  8
RUNDUNGEN
100
AcDbCircle
 62
7
  6
CONTINUOUS
 10
182.8993512733
 20
143.5923777209
 40
0.5
100
AcDbArc
 50
180.0
 51
270.0
  0
ARC
  5
45A
100
AcDbEntity
  8
RUNDUNGEN
100
AcDbCircle
 62
7
  6
CONTINUOUS
 10
182.8993512733
 20
146.5923777209
 40
0.5
100
AcDbArc
 50
90.0
 51
180.0
  0
ARC
  5
45B
100
AcDbEntity
  8
0
100
AcDbCircle
 62
7
  6
CONTINUOUS
 10
40.9910467443
 20
162.7380079227
 40
182.5721631315
100
AcDbArc
 50
348.4987055186
 51
348.6213302129
  0
ARC
  5
45C
100
AcDbEntity
  8
BEZUGSACHSEN
100
AcDbCircle
 62
7
  6
CONTINUOUS
 10
196.3993512733
 20
181.8363972202
 40
2.5
100
AcDbArc
 50
90.0
 51
180.0
  0
ARC
  5
45D
100
AcDbEntity
  8
0
100
AcDbCircle
 62
7
  6
CONTINUOUS
 10
283.7221424474
 20
152.6152324487
 40
105.2475026866
100
AcDbArc
 50
194.8908035812
 51
195.1066473024
  0
ARC
  5
45E
100
AcDbEntity
  8
0
100
AcDbCircle
 62
7
  6
CONTINUOUS
 10
262.9215392511
 20
136.5846923282
 40
82.6350458726
100
AcDbArc
 50
187.5713537443
 51
187.8393153858
  0
ARC
  5
45F
100
AcDbEntity
  8
0
100
AcDbCircle
 62
7
  6
CONTINUOUS
 10
243.9037286181
 20
142.841725149
 40
64.8963221883
100
AcDbArc
 50
195.6698271143
 51
196.1386059148
  0
ARC
  5
460
100
AcDbEntity
  8
0
100
AcDbCircle
 62
7
  6
CONTINUOUS
 10
245.2871665604
 20
132.6312447178
 40
64.5867815888
100
AcDbArc
 50
186.5054992787
 51
186.961640789
  0
ARC
  5
461
100
AcDbEntity
  8
0
100
AcDbCircle
 62
7
  6
CONTINUOUS
 10
242.3308384499
 20
139.5152033593
 40
62.8240564088
100
AcDbArc
 50
194.0886608977
 51
194.7440171002
  0
ARC
  5
462
100
AcDbEntity
  8
0
100
AcDbCircle
 62
7
  6
CONTINUOUS
 10
237.0657333689
 20
139.2821554788
 40
57.6280512267
100
AcDbArc
 50
192.2682863019
 51
192.5929460196
  0
ARC
  5
463
100
AcDbEntity
  8
0
100
AcDbCircle
 62
7
  6
CONTINUOUS
 10
225.3998475292
 20
137.9237182271
 40
45.9007965092
100
AcDbArc
 50
192.9830377609
 51
193.5294619954
  0
ARC
  5
464
100
AcDbEntity
  8
0
100
AcDbCircle
 62
7
  6
CONTINUOUS
 10
202.9305970738
 20
130.7242660819
 40
17.5451101842
100
AcDbArc
 50
347.866720746
 51
348.9324801064
  0
ARC
  5
465
100
AcDbEntity
  8
0
100
AcDbCircle
 62
7
  6
CONTINUOUS
 10
206.5417826082
 20
127.0731092859
 40
13.3549544474
100
AcDbArc
 50
351.3230336067
 51
352.4295309053
  0
ARC
  5
466
100
AcDbEntity
  8
0
100
AcDbCircle
 62
7
  6
CONTINUOUS
 10
208.9343056864
 20
130.3329279822
 40
11.5645765209
100
AcDbArc
 50
346.3893850356
 51
348.3340309786
  0
ARC
  5
467
100
AcDbEntity
  8
0
100
AcDbCircle
 62
7
  6
CONTINUOUS
 10
209.191745792
 20
125.896914313
 40
10.5410840941
100
AcDbArc
 50
351.9459766127
 51
354.0434210442
  0
ARC
  5
468
100
AcDbEntity
  8
RUNDUNGEN
100
AcDbCircle
 62
7
  6
CONTINUOUS
 10
214.8993512733
 20
145.1889398074
 40
8.0
100
AcDbArc
 50
179.9994349086
 51
245.0005885035
  0
ARC
  5
469
100
AcDbEntity
  8
BEZUGSACHSEN
100
AcDbCircle
 62
7
  6
CONTINUOUS
 10
200.3993512733
 20
136.2923777209
 40
5.0
100
AcDbArc
 50
215.6960488858
 51
324.3039511142
  0
ARC
  5
46A
100
AcDbEntity
  8
RUNDUNGEN
100
AcDbCircle
 62
7
  6
CONTINUOUS
 10
217.9565212203
 20
132.1778898997
 40
2.5
100
AcDbArc
 50
350.0
 51
65.0
  0
ARC
  5
46B
100
AcDbEntity
  8
0
100
AcDbCircle
 62
7
  6
CONTINUOUS
 10
218.1438006175
 20
127.8257072469
 40
2.0598172441
100
AcDbArc
 50
346.8246072037
 51
349.99677683
  0
ARC
  5
46C
100
AcDbEntity
  8
0
100
AcDbCircle
 62
7
  6
CONTINUOUS
 10
217.9370937094
 20
125.2625294406
 40
1.818292647
100
AcDbArc
 50
349.9950982898
 51
353.5520821245
  0
ARC
  5
46D
100
AcDbEntity
  8
0
100
AcDbCircle
 62
7
  6
CONTINUOUS
 10
218.9374223712
 20
128.3474116863
 40
1.3688454605
100
AcDbArc
 50
345.0596570484
 51
349.9865998221
  0
ARC
  5
46E
100
AcDbEntity
  8
0
100
AcDbCircle
 62
7
  6
CONTINUOUS
 10
218.5072518453
 20
124.5006568583
 40
1.1244987321
100
AcDbArc
 50
349.9872710939
 51
355.8887217386
  0
ARC
  5
46F
100
AcDbEntity
  8
RUNDUNGEN
100
AcDbCircle
 62
7
  6
CONTINUOUS
 10
217.8993512733
 20
143.5923777209
 40
0.5
100
AcDbArc
 50
270.0
 51
360.0
  0
ARC
  5
470
100
AcDbEntity
  8
RUNDUNGEN
100
AcDbCircle
 62
7
  6
CONTINUOUS
 10
217.8993512733
 20
146.5923777209
 40
0.5
100
AcDbArc
 50
0.0
 51
90.0
  0
ARC
  5
471
100
AcDbEntity
  8
0
100
AcDbCircle
 62
7
  6
CONTINUOUS
 10
359.8076558024
 20
162.7380079227
 40
182.5721631315
100
AcDbArc
 50
191.3786697871
 51
191.5012944814
  0
ARC
  5
472
100
AcDbEntity
  8
0
100
AcDbCircle
 62
7
  6
CONTINUOUS
 10
303.2095578066
 20
153.2642438715
 40
125.180968561
100
AcDbArc
 50
192.0640056291
 51
192.3629228702
  0
ARC
  5
473
100
AcDbEntity
  8
0
100
AcDbCircle
 62
7
  6
CONTINUOUS
 10
287.0600421839
 20
153.3840833051
 40
109.1736452622
100
AcDbArc
 50
194.7604672757
 51
194.9684187297
  0
ARC
  5
474
100
AcDbEntity
  8
RUNDUNGEN
100
AcDbCircle
 62
7
  6
CONTINUOUS
 10
204.3993512733
 20
181.8363972202
 40
2.5
100
AcDbArc
 50
0.0
 51
90.0
  0
ARC
  5
475
100
AcDbEntity
  8
0
100
AcDbCircle
 62
7
  6
CONTINUOUS
 10
91.978411573
 20
32.7415939075
 40
33.5321571772
100
AcDbArc
 50
86.9057106924
 51
94.1727995846
  0
ARC
  5
476
100
AcDbEntity
  8
0
100
AcDbCircle
 62
7
  6
CONTINUOUS
 10
92.3611088383
 20
36.6564856798
 40
29.5952041453
100
AcDbArc
 50
79.1866834684
 51
80.6614557372
  0
ARC
  5
477
100
AcDbEntity
  8
0
100
AcDbCircle
 62
7
  6
CONTINUOUS
 10
88.8274930255
 20
44.5319084654
 40
23.0597517698
100
AcDbArc
 50
65.1536274567
 51
66.795247911
  0
ARC
  5
478
100
AcDbEntity
  8
RUNDUNGEN
100
AcDbCircle
 62
7
  6
CONTINUOUS
 10
82.9759535486
 20
21.6100618124
 40
16.0
100
AcDbArc
 50
44.4085084523
 51
69.7477532578
  0
ARC
  5
479
100
AcDbEntity
  8
RUNDUNGEN
100
AcDbCircle
 62
7
  6
CONTINUOUS
 10
62.0503378668
 20
42.0027059829
 40
2.5000249347
100
AcDbArc
 50
186.1801355825
 51
269.9994190073
  0
ARC
  5
47A
100
AcDbEntity
  8
0
100
AcDbCircle
 62
7
  6
CONTINUOUS
 10
91.9734955242
 20
59.2637733879
 40
33.5321571772
100
AcDbArc
 50
266.9057106924
 51
274.1727995846
  0
ARC
  5
47B
100
AcDbEntity
  8
0
100
AcDbCircle
 62
7
  6
CONTINUOUS
 10
91.590798259
 20
55.3488816156
 40
29.5952041453
100
AcDbArc
 50
259.1866834684
 51
260.6614557372
  0
ARC
  5
47C
100
AcDbEntity
  8
RUNDUNGEN
100
AcDbCircle
 62
7
  6
CONTINUOUS
 10
82.9759535486
 20
70.395305483
 40
16.0
100
AcDbArc
 50
290.2522467422
 51
315.5914915477
  0
ARC
  5
47D
100
AcDbEntity
  8
0
100
AcDbCircle
 62
7
  6
CONTINUOUS
 10
91.9759535486
 20
46.0026836477
 40
15.25
100
AcDbArc
 50
324.6616938379
 51
334.7742475036
  0
ARC
  5
47E
100
AcDbEntity
  8
0
100
AcDbCircle
 62
7
  6
CONTINUOUS
 10
91.9759535486
 20
46.0026836477
 40
15.25
100
AcDbArc
 50
207.3167605227
 51
285.672108559
  0
ARC
  5
47F
100
AcDbEntity
  8
0
100
AcDbCircle
 62
7
  6
CONTINUOUS
 10
91.9759535486
 20
46.0026836477
 40
15.25
100
AcDbArc
 50
74.3279115428
 51
154.774227827
  0
ARC
  5
480
100
AcDbEntity
  8
0
100
AcDbCircle
 62
7
  6
CONTINUOUS
 10
91.9759535486
 20
46.0026836477
 40
15.25
100
AcDbArc
 50
25.2257524964
 51
35.3383011493
  0
ARC
  5
481
100
AcDbEntity
  8
RUNDUNGEN
100
AcDbCircle
 62
7
  6
CONTINUOUS
 10
91.9759535486
 20
46.0026836477
 40
15.0
100
AcDbArc
 50
25.6937805358
 51
35.3186858338
  0
ARC
  5
482
100
AcDbEntity
  8
RUNDUNGEN
100
AcDbCircle
 62
7
  6
CONTINUOUS
 10
91.9759535486
 20
46.0026836477
 40
15.0
100
AcDbArc
 50
75.035503536
 51
154.3062194645
  0
ARC
  5
483
100
AcDbEntity
  8
RUNDUNGEN
100
AcDbCircle
 62
7
  6
CONTINUOUS
 10
91.9759535486
 20
46.0026836477
 40
15.0
100
AcDbArc
 50
207.850717806
 51
284.9644964628
  0
ARC
  5
484
100
AcDbEntity
  8
RUNDUNGEN
100
AcDbCircle
 62
7
  6
CONTINUOUS
 10
91.9759535486
 20
46.0026836477
 40
15.0
100
AcDbArc
 50
324.6813141694
 51
334.3062194645
  0
ARC
  5
485
100
AcDbEntity
  8
RUNDUNGEN
100
AcDbCircle
 62
7
  6
CONTINUOUS
 10
91.9759535486
 20
46.0026836477
 40
10.0
100
AcDbArc
 50
110.2522467422
 51
139.4527403393
  0
ARC
  5
486
100
AcDbEntity
  8
RUNDUNGEN
100
AcDbCircle
 62
7
  6
CONTINUOUS
 10
91.9759535486
 20
46.0026836477
 40
10.0
100
AcDbArc
 50
220.5472596646
 51
249.7477532578
  0
ARC
  5
487
100
AcDbEntity
  8
BEZUGSACHSEN
100
AcDbCircle
 62
7
  6
CONTINUOUS
 10
62.050337737
 20
50.002661457
 40
2.5000249347
100
AcDbArc
 50
90.0005780193
 51
173.8198673908
  0
ARC
  5
488
100
AcDbEntity
  8
RUNDUNGEN
100
AcDbCircle
 62
7
  6
CONTINUOUS
 10
105.8357542333
 20
44.0026836477
 40
16.0
100
AcDbArc
 50
224.4085084523
 51
279.0
  0
ARC
  5
489
100
AcDbEntity
  8
RUNDUNGEN
100
AcDbCircle
 62
7
  6
CONTINUOUS
 10
107.9759535486
 20
42.0026836477
 40
6.0
100
AcDbArc
 50
204.6459835163
 51
270.0
  0
ARC
  5
48A
100
AcDbEntity
  8
RUNDUNGEN
100
AcDbCircle
 62
7
  6
CONTINUOUS
 10
121.901570553
 20
42.0027059829
 40
2.5000249346
100
AcDbArc
 50
270.0004704367
 51
353.819726108
  0
ARC
  5
48B
100
AcDbEntity
  8
RUNDUNGEN
100
AcDbCircle
 62
7
  6
CONTINUOUS
 10
126.4759535486
 20
32.0847931776
 40
1.0
100
AcDbArc
 50
279.0
 51
360.0
  0
ARC
  5
48C
100
AcDbEntity
  8
RUNDUNGEN
100
AcDbCircle
 62
7
  6
CONTINUOUS
 10
124.4759535486
 20
39.2526836477
 40
1.0
100
AcDbArc
 50
90.0
 51
180.0
  0
ARC
  5
48D
100
AcDbEntity
  8
RUNDUNGEN
100
AcDbCircle
 62
7
  6
CONTINUOUS
 10
126.4759535486
 20
39.2526836477
 40
1.0
100
AcDbArc
 50
0.0
 51
90.0
  0
ARC
  5
48E
100
AcDbEntity
  8
RUNDUNGEN
100
AcDbCircle
 62
7
  6
CONTINUOUS
 10
122.4759535486
 20
37.0026836477
 40
1.0
100
AcDbArc
 50
270.0
 51
360.0
  0
ARC
  5
48F
100
AcDbEntity
  8
0
100
AcDbCircle
 62
7
  6
CONTINUOUS
 10
95.1242478648
 20
47.4730772002
 40
23.0593355243
100
AcDbArc
 50
245.1517368435
 51
246.795253855
  0
ARC
  5
490
100
AcDbEntity
  8
RUNDUNGEN
100
AcDbCircle
 62
7
  6
CONTINUOUS
 10
105.8357542333
 20
48.0026836477
 40
16.0
100
AcDbArc
 50
81.0
 51
135.5914915477
  0
ARC
  5
491
100
AcDbEntity
  8
RUNDUNGEN
100
AcDbCircle
 62
7
  6
CONTINUOUS
 10
107.9759535486
 20
50.0026836477
 40
6.0
100
AcDbArc
 50
90.0
 51
155.3540164969
  0
ARC
  5
492
100
AcDbEntity
  8
BEZUGSACHSEN
100
AcDbCircle
 62
7
  6
CONTINUOUS
 10
121.9015706827
 20
50.0026614571
 40
2.5000249346
100
AcDbArc
 50
6.180270919
 51
89.9995325363
  0
ARC
  5
493
100
AcDbEntity
  8
RUNDUNGEN
100
AcDbCircle
 62
7
  6
CONTINUOUS
 10
126.4759535486
 20
59.9205741178
 40
1.0
100
AcDbArc
 50
0.0
 51
81.0
  0
ARC
  5
494
100
AcDbEntity
  8
RUNDUNGEN
100
AcDbCircle
 62
7
  6
CONTINUOUS
 10
124.4759535486
 20
52.7526836477
 40
1.0
100
AcDbArc
 50
180.0
 51
270.0
  0
ARC
  5
495
100
AcDbEntity
  8
RUNDUNGEN
100
AcDbCircle
 62
7
  6
CONTINUOUS
 10
126.4759535486
 20
52.7526836477
 40
1.0
100
AcDbArc
 50
270.0
 51
360.0
  0
ARC
  5
496
100
AcDbEntity
  8
RUNDUNGEN
100
AcDbCircle
 62
7
  6
CONTINUOUS
 10
122.4759535486
 20
55.0026836477
 40
1.0
100
AcDbArc
 50
0.0
 51
90.0
  0
SPLINE
  5
497
100
AcDbEntity
  8
0
100
AcDbSpline
 62
7
  6
CONTINUOUS
 70
0
 71
3
 72
15
 73
11
 74
0
 42
0.0000001
 43
0.0000001
 44
0.0000000001
 40
0.0
 40
0.0
 40
0.0
 40
0.0
 40
0.1100275687
 40
0.2322303777
 40
0.3636284293
 40
0.4999999184
 40
0.636371469
 40
0.7677696045
 40
0.8899724024
 40
1.0
 40
1.0
 40
1.0
 40
1.0
 10
102.5143672318
 20
137.9804786066
 30
0.0
 10
101.7905228843
 20
137.6603174234
 30
0.0
 10
100.2150468656
 20
137.089984331
 30
0.0
 10
97.6670855057
 20
136.4793943528
 30
0.0
 10
94.884182295
 20
136.0937294925
 30
0.0
 10
91.9759561934
 20
135.9605224802
 30
0.0
 10
89.0677294586
 20
136.0937290372
 30
0.0
 10
86.284825247
 20
136.4793936781
 30
0.0
 10
83.7368630352
 20
137.0899833014
 30
0.0
 10
82.1613869134
 20
137.6603164811
 30
0.0
 10
81.4375423178
 20
137.9804776169
 30
0.0
  0
SPLINE
  5
498
100
AcDbEntity
  8
0
100
AcDbSpline
 62
7
  6
CONTINUOUS
 70
0
 71
3
 72
12
 73
8
 74
0
 42
0.0000001
 43
0.0000001
 44
0.0000000001
 40
0.0
 40
0.0
 40
0.0
 40
0.0
 40
0.0962547086
 40
0.2066747763
 40
0.4538840416
 40
0.7214136796
 40
1.0
 40
1.0
 40
1.0
 40
1.0
 10
106.8200818691
 20
142.5240710512
 30
0.0
 10
106.7879158018
 20
142.4725532909
 30
0.0
 10
106.7245788556
 20
142.3584163219
 30
0.0
 10
106.594798893
 20
142.1031405021
 30
0.0
 10
106.4226372849
 20
141.748196605
 30
0.0
 10
106.1962713282
 20
141.3016890759
 30
0.0
 10
106.0299964568
 20
140.9997315993
 30
0.0
 10
105.9416360174
 20
140.8477709079
 30
0.0
  0
SPLINE
  5
499
100
AcDbEntity
  8
0
100
AcDbSpline
 62
7
  6
CONTINUOUS
 70
0
 71
3
 72
9
 73
5
 74
0
 42
0.0000001
 43
0.0000001
 44
0.0000000001
 40
0.0
 40
0.0
 40
0.0
 40
0.0
 40
0.5007821293
 40
1.0
 40
1.0
 40
1.0
 40
1.0
 10
105.9416360174
 20
140.8477709079
 30
0.0
 10
105.7848363548
 20
140.5781288521
 30
0.0
 10
105.4227464507
 20
140.0665957554
 30
0.0
 10
104.9774750393
 20
139.6267424541
 30
0.0
 10
104.7408153636
 20
139.4250538205
 30
0.0
  0
SPLINE
  5
49A
100
AcDbEntity
  8
0
100
AcDbSpline
 62
7
  6
CONTINUOUS
 70
0
 71
3
 72
9
 73
5
 74
0
 42
0.0000001
 43
0.0000001
 44
0.0000000001
 40
0.0
 40
0.0
 40
0.0
 40
0.0
 40
0.4830741676
 40
1.0
 40
1.0
 40
1.0
 40
1.0
 10
104.7408153636
 20
139.4250538205
 30
0.0
 10
104.4233324026
 20
139.1545441519
 30
0.0
 10
103.7403681028
 20
138.6233279983
 30
0.0
 10
102.9856466362
 20
138.1939782884
 30
0.0
 10
102.5792143145
 20
138.0095327018
 30
0.0
  0
SPLINE
  5
49B
100
AcDbEntity
  8
0
100
AcDbSpline
 62
7
  6
CONTINUOUS
 70
0
 71
3
 72
9
 73
5
 74
0
 42
0.0000001
 43
0.0000001
 44
0.0000000001
 40
0.0
 40
0.0
 40
0.0
 40
0.0
 40
0.5169270163
 40
1.0
 40
1.0
 40
1.0
 40
1.0
 10
81.3728104159
 20
138.0094795478
 30
0.0
 10
80.9663538568
 20
138.1939282768
 30
0.0
 10
80.2115910442
 20
138.6232935702
 30
0.0
 10
79.5285859807
 20
139.1545281476
 30
0.0
 10
79.2110880235
 20
139.4250508407
 30
0.0
  0
SPLINE
  5
49C
100
AcDbEntity
  8
0
100
AcDbSpline
 62
7
  6
CONTINUOUS
 70
0
 71
3
 72
9
 73
5
 74
0
 42
0.0000001
 43
0.0000001
 44
0.0000000001
 40
0.0
 40
0.0
 40
0.0
 40
0.0
 40
0.4992189554
 40
1.0
 40
1.0
 40
1.0
 40
1.0
 10
79.2110880235
 20
139.4250508407
 30
0.0
 10
78.9744275522
 20
139.6267394338
 30
0.0
 10
78.5291633847
 20
140.0666000348
 30
0.0
 10
78.1670723596
 20
140.5781310707
 30
0.0
 10
78.0102717974
 20
140.84777171
 30
0.0
  0
SPLINE
  5
49D
100
AcDbEntity
  8
0
100
AcDbSpline
 62
7
  6
CONTINUOUS
 70
0
 71
3
 72
12
 73
8
 74
0
 42
0.0000001
 43
0.0000001
 44
0.0000000001
 40
0.0
 40
0.0
 40
0.0
 40
0.0
 40
0.2785859645
 40
0.5461138604
 40
0.7933259633
 40
0.903745275
 40
1.0
 40
1.0
 40
1.0
 40
1.0
 10
78.0102717974
 20
140.84777171
 30
0.0
 10
77.921913252
 20
140.9997321974
 30
0.0
 10
77.7556391416
 20
141.3016864283
 30
0.0
 10
77.5292684879
 20
141.7481892874
 30
0.0
 10
77.3571149646
 20
142.1031351672
 30
0.0
 10
77.2273322096
 20
142.3584094175
 30
0.0
 10
77.1639955897
 20
142.4725452395
 30
0.0
 10
77.1318296367
 20
142.5240627152
 30
0.0
  0
SPLINE
  5
49E
100
AcDbEntity
  8
BEZUGSACHSEN
100
AcDbSpline
 62
7
  6
CONTINUOUS
 70
0
 71
3
 72
26
 73
22
 74
0
 42
0.0000001
 43
0.0000001
 44
0.0000000001
 40
0.0
 40
0.0
 40
0.0
 40
0.0
 40
0.0224945521
 40
0.0451313829
 40
0.0677389894
 40
0.09029132
 40
0.1352029848
 40
0.1798462992
 40
0.2241877821
 40
0.268187766
 40
0.3117989285
 40
0.35496696
 40
0.439713014
 40
0.521830356
 40
0.6005857235
 40
0.6751159261
 40
0.7444519134
 40
0.8075531913
 40
0.9108132647
 40
0.9770010928
 40
1.0
 40
1.0
 40
1.0
 40
1.0
 10
97.4003413531
 20
120.2923777209
 30
0.0
 10
97.4349115304
 20
120.4412035935
 30
0.0
 10
97.5854761783
 20
120.7184864551
 30
0.0
 10
97.8872814325
 20
121.0654096669
 30
0.0
 10
98.2253020893
 20
121.3794845696
 30
0.0
 10
98.6996294592
 20
121.7660494613
 30
0.0
 10
99.3189857872
 20
122.2101030741
 30
0.0
 10
100.0809420437
 20
122.7068115347
 30
0.0
 10
100.8521594487
 20
123.1772602508
 30
0.0
 10
101.6276409266
 20
123.6266991311
 30
0.0
 10
102.4044593524
 20
124.0576113279
 30
0.0
 10
103.432558872
 20
124.605720619
 30
0.0
 10
104.7067733452
 20
125.2477315021
 30
0.0
 10
106.2178796141
 20
125.9551947417
 30
0.0
 10
107.6845826822
 20
126.5923453601
 30
0.0
 10
109.087467995
 20
127.1570417282
 30
0.0
 10
110.4047601228
 20
127.6483224177
 30
0.0
 10
111.9177125085
 20
128.1720171792
 30
0.0
 10
113.4253534661
 20
128.6444507507
 30
0.0
 10
114.6837570081
 20
128.9984051445
 30
0.0
 10
115.2690699986
 20
129.154550168
 30
0.0
 10
115.420136493
 20
129.1943174509
 30
0.0
  0
SPLINE
  5
49F
100
AcDbEntity
  8
BEZUGSACHSEN
100
AcDbSpline
 62
7
  6
CONTINUOUS
 70
0
 71
3
 72
26
 73
22
 74
0
 42
0.0000001
 43
0.0000001
 44
0.0000000001
 40
0.0
 40
0.0
 40
0.0
 40
0.0
 40
0.0229993845
 40
0.0891885013
 40
0.1924501757
 40
0.2555518854
 40
0.324888142
 40
0.3994181027
 40
0.4781727195
 40
0.5602890098
 40
0.6450338876
 40
0.6882012626
 40
0.7318117273
 40
0.7758109892
 40
0.8201517175
 40
0.8647942637
 40
0.909705199
 40
0.9322572458
 40
0.9548651813
 40
0.9775035472
 40
1.0
 40
1.0
 40
1.0
 40
1.0
 10
68.5317706043
 20
129.1943174509
 30
0.0
 10
68.6828405096
 20
129.1545503098
 30
0.0
 10
69.2681656077
 20
128.9984039354
 30
0.0
 10
70.5265892451
 20
128.6444360132
 30
0.0
 10
72.0342528641
 20
128.1719992122
 30
0.0
 10
73.5472200741
 20
127.648298875
 30
0.0
 10
74.8645142275
 20
127.1570142903
 30
0.0
 10
76.2673932214
 20
126.5923150408
 30
0.0
 10
77.7340830248
 20
125.9551684907
 30
0.0
 10
79.2451712841
 20
125.2477141239
 30
0.0
 10
80.5193675858
 20
124.6057104413
 30
0.0
 10
81.5474519305
 20
124.0576090011
 30
0.0
 10
82.3242576373
 20
123.6267028026
 30
0.0
 10
83.0997280788
 20
123.1772742631
 30
0.0
 10
83.8709322203
 20
122.7068325674
 30
0.0
 10
84.6328742382
 20
122.2101312225
 30
0.0
 10
85.2522316189
 20
121.7660978921
 30
0.0
 10
85.7265422336
 20
121.3795209757
 30
0.0
 10
86.0645963764
 20
121.0654661345
 30
0.0
 10
86.3664134301
 20
120.7185180674
 30
0.0
 10
86.5169926428
 20
120.4412161816
 30
0.0
 10
86.5515657442
 20
120.2923777209
 30
0.0
  0
LINE
  5
4A0
100
AcDbEntity
  8
0
100
AcDbLine
 62
7
  6
CONTINUOUS
 10
181.0573565895
 20
125.0369938668
 11
181.0551986792
 21
125.0549924152
  0
LINE
  5
4A1
100
AcDbEntity
  8
0
100
AcDbLine
 62
7
  6
CONTINUOUS
 10
181.0551986792
 20
125.0549924152
 11
181.0548180778
 21
125.0583351658
  0
LINE
  5
4A2
100
AcDbEntity
  8
0
100
AcDbLine
 62
7
  6
CONTINUOUS
 10
180.6353844002
 20
129.3987608062
 11
180.6389967125
 21
129.3798677389
  0
LINE
  5
4A3
100
AcDbEntity
  8
0
100
AcDbLine
 62
7
  6
CONTINUOUS
 10
180.6389967125
 20
129.3798677389
 11
180.8308173659
 21
128.3774839746
  0
LINE
  5
4A4
100
AcDbEntity
  8
0
100
AcDbLine
 62
7
  6
CONTINUOUS
 10
180.6896751371
 20
128.3774839746
 11
180.7055065335
 21
128.2922890898
  0
LINE
  5
4A5
100
AcDbEntity
  8
0
100
AcDbLine
 62
7
  6
CONTINUOUS
 10
180.7055065335
 20
128.2922890898
 11
180.7845874707
 21
127.8668457376
  0
LINE
  5
4A6
100
AcDbEntity
  8
0
100
AcDbLine
 62
7
  6
CONTINUOUS
 10
180.9286654848
 20
127.8668457376
 11
180.9325263413
 21
127.8467068399
  0
SPLINE
  5
4A7
100
AcDbEntity
  8
0
100
AcDbSpline
 62
7
  6
CONTINUOUS
 70
0
 71
3
 72
8
 73
4
 74
0
 42
0.0000001
 43
0.0000001
 44
0.0000000001
 40
0.0
 40
0.0
 40
0.0
 40
0.0
 40
1.0
 40
1.0
 40
1.0
 40
1.0
 10
180.9325263413
 20
127.8467068399
 30
0.0
 10
181.0944150418
 20
127.0022828426
 30
0.0
 10
181.2566651905
 20
126.1579280326
 30
0.0
 10
181.4193356441
 20
125.3136542843
 30
0.0
  0
SPLINE
  5
4A8
100
AcDbEntity
  8
0
100
AcDbSpline
 62
7
  6
CONTINUOUS
 70
0
 71
3
 72
9
 73
5
 74
0
 42
0.0000001
 43
0.0000001
 44
0.0000000001
 40
0.0
 40
0.0
 40
0.0
 40
0.0
 40
0.2421423146
 40
1.0
 40
1.0
 40
1.0
 40
1.0
 10
181.7987128867
 20
124.4200372914
 30
0.0
 10
181.8153897338
 20
124.4092366683
 30
0.0
 10
181.8846059377
 20
124.3651645566
 30
0.0
 10
181.9551380076
 20
124.323169561
 30
0.0
 10
182.009164891
 20
124.2923777209
 30
0.0
  0
LINE
  5
4A9
100
AcDbEntity
  8
0
100
AcDbLine
 62
7
  6
CONTINUOUS
 10
180.6313144752
 20
127.4410725681
 11
180.6273699779
 21
127.4624409303
  0
LINE
  5
4AA
100
AcDbEntity
  8
0
100
AcDbLine
 62
7
  6
CONTINUOUS
 10
180.6273699779
 20
127.4624409303
 11
180.626398062
 21
127.4679096222
  0
LINE
  5
4AB
100
AcDbEntity
  8
0
100
AcDbLine
 62
7
  6
CONTINUOUS
 10
180.7398137732
 20
127.1008883821
 11
180.7537144192
 21
127.0367967667
  0
LINE
  5
4AC
100
AcDbEntity
  8
0
100
AcDbLine
 62
7
  6
CONTINUOUS
 10
180.9473338327
 20
126.0796117292
 11
181.0069436558
 21
125.6966330515
  0
LINE
  5
4AD
100
AcDbEntity
  8
0
100
AcDbLine
 62
7
  6
CONTINUOUS
 10
181.0183729491
 20
125.3136542843
 11
181.0046409713
 21
125.3984826077
  0
LINE
  5
4AE
100
AcDbEntity
  8
0
100
AcDbLine
 62
7
  6
CONTINUOUS
 10
181.0046409713
 20
125.3984826077
 11
180.9909455859
 21
125.4834222811
  0
LINE
  5
4AF
100
AcDbEntity
  8
0
100
AcDbLine
 62
7
  6
CONTINUOUS
 10
180.9909455859
 20
125.4834222811
 11
180.9772864133
 21
125.5684733124
  0
LINE
  5
4B0
100
AcDbEntity
  8
0
100
AcDbLine
 62
7
  6
CONTINUOUS
 10
180.9772864133
 20
125.5684733124
 11
180.9500753355
 21
125.7389085814
  0
LINE
  5
4B1
100
AcDbEntity
  8
0
100
AcDbLine
 62
7
  6
CONTINUOUS
 10
180.9500753355
 20
125.7389085814
 11
180.9365227072
 21
125.8242926107
  0
LINE
  5
4B2
100
AcDbEntity
  8
0
100
AcDbLine
 62
7
  6
CONTINUOUS
 10
180.5336472485
 20
128.1242718508
 11
180.2644984372
 21
129.6420543542
  0
LINE
  5
4B3
100
AcDbEntity
  8
0
100
AcDbLine
 62
7
  6
CONTINUOUS
 10
180.662022605
 20
127.2918408061
 11
180.6493054923
 21
127.3562075006
  0
LINE
  5
4B4
100
AcDbEntity
  8
0
100
AcDbLine
 62
7
  6
CONTINUOUS
 10
181.3965165377
 20
124.2223790041
 11
181.3789905702
 21
124.2923597745
  0
LINE
  5
4B5
100
AcDbEntity
  8
0
100
AcDbLine
 62
7
  6
CONTINUOUS
 10
220.0311268353
 20
126.9732287866
 11
220.0170298764
 21
126.9089274603
  0
LINE
  5
4B6
100
AcDbEntity
  8
0
100
AcDbLine
 62
7
  6
CONTINUOUS
 10
219.8513687139
 20
126.0796117292
 11
219.8116627042
 21
125.8242926092
  0
LINE
  5
4B7
100
AcDbEntity
  8
0
100
AcDbLine
 62
7
  6
CONTINUOUS
 10
219.7803295976
 20
125.3136542843
 11
219.7940615753
 21
125.3984826077
  0
LINE
  5
4B8
100
AcDbEntity
  8
0
100
AcDbLine
 62
7
  6
CONTINUOUS
 10
220.1741190625
 20
127.6115266191
 11
220.5363364212
 21
129.6540799247
  0
LINE
  5
4B9
100
AcDbEntity
  8
0
100
AcDbLine
 62
7
  6
CONTINUOUS
 10
220.07003695
 20
126.9732288228
 11
220.0837726305
 21
127.0365215548
  0
LINE
  5
4BA
100
AcDbEntity
  8
0
100
AcDbLine
 62
7
  6
CONTINUOUS
 10
219.5717673772
 20
124.913686874
 11
219.575837411
 21
124.9306756066
  0
LINE
  5
4BB
100
AcDbEntity
  8
0
100
AcDbLine
 62
7
  6
CONTINUOUS
 10
220.0526090884
 20
129.2450520821
 11
220.2561256487
 21
130.2923777209
  0
SPLINE
  5
4BC
100
AcDbEntity
  8
0
100
AcDbSpline
 62
7
  6
CONTINUOUS
 70
0
 71
3
 72
8
 73
4
 74
0
 42
0.0000001
 43
0.0000001
 44
0.0000000001
 40
0.0
 40
0.0
 40
0.0
 40
0.0
 40
1.0
 40
1.0
 40
1.0
 40
1.0
 10
181.4891916334
 20
125.5689734922
 30
0.0
 10
181.3382135006
 20
126.3348470309
 30
0.0
 10
181.1876805597
 20
127.1008084323
 30
0.0
 10
181.0375355605
 20
127.8668457376
 30
0.0
  0
LINE
  5
4BD
100
AcDbEntity
  8
0
100
AcDbLine
 62
7
  6
CONTINUOUS
 10
181.3300931381
 20
127.8668457376
 11
181.2243270985
 21
128.3774839746
  0
LINE
  5
4BE
100
AcDbEntity
  8
0
100
AcDbLine
 62
7
  6
CONTINUOUS
 10
180.9375085018
 20
128.3774839746
 11
180.7377985071
 21
129.3987608062
  0
LINE
  5
4BF
100
AcDbEntity
  8
0
100
AcDbLine
 62
7
  6
CONTINUOUS
 10
219.2620964803
 20
129.3987608062
 11
219.0500263137
 21
128.3774839746
  0
SPLINE
  5
4C0
100
AcDbEntity
  8
BEZUGSACHSEN
100
AcDbSpline
 62
7
  6
CONTINUOUS
 70
0
 71
3
 72
24
 73
20
 74
0
 42
0.0000001
 43
0.0000001
 44
0.0000000001
 40
0.0
 40
0.0
 40
0.0
 40
0.0
 40
0.084851011
 40
0.1684451342
 40
0.2496015783
 40
0.3273520091
 40
0.4009229187
 40
0.4698151397
 40
0.5338288861
 40
0.5930885589
 40
0.6480292745
 40
0.6993438032
 40
0.7478997621
 40
0.7946520983
 40
0.8406185103
 40
0.8870645529
 40
0.9364816834
 40
0.9646507937
 40
1.0
 40
1.0
 40
1.0
 40
1.0
 10
200.3993512733
 20
129.1943174509
 30
0.0
 10
201.0139175121
 20
129.1943174509
 30
0.0
 10
202.2340393898
 20
129.1743262549
 30
0.0
 10
204.0400108927
 20
129.0852867718
 30
0.0
 10
205.7905134313
 20
128.9363244474
 30
0.0
 10
207.4615960328
 20
128.7252969478
 30
0.0
 10
209.0332299325
 20
128.4490489523
 30
0.0
 10
210.4894659462
 20
128.1041564989
 30
0.0
 10
211.8189254756
 20
127.687404307
 30
0.0
 10
213.0146768372
 20
127.1963249397
 30
0.0
 10
214.073849384
 20
126.6297692762
 30
0.0
 10
214.9968612262
 20
125.9882021855
 30
0.0
 10
215.7867845096
 20
125.2738017652
 30
0.0
 10
216.4485104357
 20
124.4891853756
 30
0.0
 10
216.9877706339
 20
123.6336858982
 30
0.0
 10
217.4089520885
 20
122.6931867403
 30
0.0
 10
217.6486145252
 20
121.8222596862
 30
0.0
 10
217.7509435432
 20
121.0098002142
 30
0.0
 10
217.7431798618
 20
120.5458578476
 30
0.0
 10
217.7071335932
 20
120.2923777209
 30
0.0
  0
LINE
  5
4C1
100
AcDbEntity
  8
0
100
AcDbLine
 62
7
  6
CONTINUOUS
 10
219.2193312809
 20
128.3774828886
 11
219.2127235526
 21
128.3446764899
  0
LINE
  5
4C2
100
AcDbEntity
  8
0
100
AcDbLine
 62
7
  6
CONTINUOUS
 10
182.009164891
 20
124.2923777209
 11
181.9031316065
 21
124.8030160026
  0
LINE
  5
4C3
100
AcDbEntity
  8
0
100
AcDbLine
 62
7
  6
CONTINUOUS
 10
218.8204711054
 20
124.2923562879
 11
218.801445326
 21
124.2218250942
  0
SPLINE
  5
4C4
100
AcDbEntity
  8
0
100
AcDbSpline
 62
7
  6
CONTINUOUS
 70
0
 71
3
 72
8
 73
4
 74
0
 42
0.0000001
 43
0.0000001
 44
0.0000000001
 40
0.0
 40
0.0
 40
0.0
 40
0.0
 40
1.0
 40
1.0
 40
1.0
 40
1.0
 10
181.1162601756
 20
125.3136542843
 30
0.0
 10
181.0853656428
 20
125.5263913956
 30
0.0
 10
181.0546774948
 20
125.7391585608
 30
0.0
 10
181.0241745354
 20
125.95195217
 30
0.0
  0
LINE
  5
4C5
100
AcDbEntity
  8
0
100
AcDbLine
 62
7
  6
CONTINUOUS
 10
181.0241745354
 20
125.95195217
 11
180.9314066044
 21
126.462590407
  0
LINE
  5
4C6
100
AcDbEntity
  8
0
100
AcDbLine
 62
7
  6
CONTINUOUS
 10
180.7932446805
 20
127.1008883821
 11
180.7728094981
 21
127.1854410493
  0
SPLINE
  5
4C7
100
AcDbEntity
  8
BEZUGSACHSEN
100
AcDbSpline
 62
7
  6
CONTINUOUS
 70
0
 71
3
 72
24
 73
20
 74
0
 42
0.0000001
 43
0.0000001
 44
0.0000000001
 40
0.0
 40
0.0
 40
0.0
 40
0.0
 40
0.084851011
 40
0.1684451342
 40
0.2496015783
 40
0.3273520091
 40
0.4009229187
 40
0.4698151397
 40
0.5338288861
 40
0.5930885589
 40
0.6480292745
 40
0.6993438032
 40
0.7478997621
 40
0.7946520983
 40
0.8406185103
 40
0.8870645529
 40
0.9364816834
 40
0.9646507937
 40
1.0
 40
1.0
 40
1.0
 40
1.0
 10
200.3993512733
 20
129.1943174509
 30
0.0
 10
199.7847850345
 20
129.1943174509
 30
0.0
 10
198.5646631568
 20
129.1743262549
 30
0.0
 10
196.758691654
 20
129.0852867718
 30
0.0
 10
195.0081891154
 20
128.9363244474
 30
0.0
 10
193.3371065139
 20
128.7252969478
 30
0.0
 10
191.7654726141
 20
128.4490489523
 30
0.0
 10
190.3092366004
 20
128.1041564989
 30
0.0
 10
188.979777071
 20
127.687404307
 30
0.0
 10
187.7840257095
 20
127.1963249397
 30
0.0
 10
186.7248531626
 20
126.6297692762
 30
0.0
 10
185.8018413205
 20
125.9882021855
 30
0.0
 10
185.011918037
 20
125.2738017652
 30
0.0
 10
184.350192111
 20
124.4891853756
 30
0.0
 10
183.8109319128
 20
123.6336858982
 30
0.0
 10
183.3897504582
 20
122.6931867403
 30
0.0
 10
183.1500880215
 20
121.8222596862
 30
0.0
 10
183.0477590035
 20
121.0098002142
 30
0.0
 10
183.0555226848
 20
120.5458578476
 30
0.0
 10
183.0915689535
 20
120.2923777209
 30
0.0
  0
LINE
  5
4C8
100
AcDbEntity
  8
0
100
AcDbLine
 62
7
  6
CONTINUOUS
 10
180.3323176682
 20
129.6540799247
 11
180.2171731016
 21
130.2923777209
  0
LINE
  5
4C9
100
AcDbEntity
  8
0
100
AcDbLine
 62
7
  6
CONTINUOUS
 10
181.7066905217
 20
124.4832065478
 11
181.702833608
 21
124.5330314703
  0
LINE
  5
4CA
100
AcDbEntity
  8
0
100
AcDbLine
 62
7
  6
CONTINUOUS
 10
180.8418364095
 20
129.6540799247
 11
180.7266079846
 21
130.2923777209
  0
SPLINE
  5
4CB
100
AcDbEntity
  8
0
100
AcDbSpline
 62
7
  6
CONTINUOUS
 70
0
 71
3
 72
8
 73
4
 74
0
 42
0.0000001
 43
0.0000001
 44
0.0000000001
 40
0.0
 40
0.0
 40
0.0
 40
0.0
 40
1.0
 40
1.0
 40
1.0
 40
1.0
 10
182.0091309974
 20
125.5689734922
 30
0.0
 10
181.8575149234
 20
126.334838056
 30
0.0
 10
181.706390031
 20
127.1007999802
 30
0.0
 10
181.5556921165
 20
127.8668457376
 30
0.0
  0
LINE
  5
4CC
100
AcDbEntity
  8
0
100
AcDbLine
 62
7
  6
CONTINUOUS
 10
181.8550264078
 20
127.8668457376
 11
181.7486763478
 21
128.3774839746
  0
LINE
  5
4CD
100
AcDbEntity
  8
0
100
AcDbLine
 62
7
  6
CONTINUOUS
 10
181.455303557
 20
128.3774839746
 11
181.4467214859
 21
128.4211681064
  0
LINE
  5
4CE
100
AcDbEntity
  8
0
100
AcDbLine
 62
7
  6
CONTINUOUS
 10
181.4467214859
 20
128.4211681064
 11
181.2549050917
 21
129.3987608062
  0
LINE
  5
4CF
100
AcDbEntity
  8
0
100
AcDbLine
 62
7
  6
CONTINUOUS
 10
182.5370374326
 20
124.2923777209
 11
182.4303215015
 21
124.8030160026
  0
LINE
  5
4D0
100
AcDbEntity
  8
0
100
AcDbLine
 62
7
  6
CONTINUOUS
 10
219.7474617902
 20
125.3136542843
 11
219.7357902085
 21
125.2281213467
  0
LINE
  5
4D1
100
AcDbEntity
  8
0
100
AcDbLine
 62
7
  6
CONTINUOUS
 10
220.6215306836
 20
130.2923777209
 11
220.0285425721
 21
126.9732288228
  0
LINE
  5
4D2
100
AcDbEntity
  8
0
100
AcDbLine
 62
7
  6
CONTINUOUS
 10
219.1321264356
 20
123.5518443652
 11
219.1249857852
 21
123.526420276
  0
LINE
  5
4D3
100
AcDbEntity
  8
0
100
AcDbLine
 62
7
  6
CONTINUOUS
 10
219.7853343266
 20
129.3987608062
 11
219.5743755604
 21
128.3774839746
  0
ENDSEC
  0
SECTION
  2
OBJECTS
  0
DICTIONARY
  5
C
100
AcDbDictionary
280
0
281
1
  3
ACAD_GROUP
350
D
  3
ACAD_MLINESTYLE
350
17
  3
ACAD_LAYOUT
350
1A
  3
ACAD_PLOTSETTINGS
350
19
  3
ACAD_PLOTSTYLENAME
350
E
  0
DICTIONARY
  5
D
102
{ACAD_REACTORS
330
C
102
}
100
AcDbDictionary
280
0
281
1
  0
ACDBDICTIONARYWDFLT
  5
E
102
{ACAD_REACTORS
330
C
102
}
100
AcDbDictionary
281
1
  3
Normal
350
F
100
AcDbDictionaryWithDefault
340
F
  0
DICTIONARY
  5
17
102
{ACAD_REACTORS
330
C
102
}
100
AcDbDictionary
280
0
281
1
  3
Standard
350
18
  0
DICTIONARY
  5
19
102
{ACAD_REACTORS
330
C
102
}
100
AcDbDictionary
281
1
  0
DICTIONARY
  5
1A
102
{ACAD_REACTORS
330
C
102
}
100
AcDbDictionary
281
1
  3
Model
350
4D4
  3
Layout1
350
4D5
  0
ACDBPLACEHOLDER
  5
F
102
{ACAD_REACTORS
330
E
102
}
  0
MLINESTYLE
  5
18
102
{ACAD_REACTORS
330
17
102
}
100
AcDbMlineStyle
  2
STANDARD
 70
0
  3

 62
256
 51
90.0
 52
90.0
 71
2
 49
0.5
 62
256
  6
BYLAYER
 49
-0.5
 62
256
  6
BYLAYER
  0
LAYOUT
  5
4D4
102
{ACAD_REACTORS
330
1A
102
}
100
AcDbPlotSettings
  1

  2
none_device
  4
ISO_A4_(297.00_x_210.00_MM)
  6

 40
0.0
 41
0.0
 42
0.0
 43
0.0
 44
297.0
 45
210.0
 46
0.0
 47
0.0
 48
0.0
 49
0.0
140
0.0
141
0.0
142
1.0
143
1.0
 70
1024
 72
1
 73
0
 74
0
  7

 75
0
147
1.0
148
0.0
149
0.0
100
AcDbLayout
  1
Model
 70
0
 71
0
 10
0.0
 20
0.0
 11
297.0
 21
210.0
 12
0.0
 22
0.0
 32
0.0
 14
0.0
 24
0.0
 34
0.0
 15
0.0
 25
0.0
 35
0.0
146
0.0
 13
0.0
 23
0.0
 33
0.0
 16
1.0
 26
0.0
 36
0.0
 17
0.0
 27
1.0
 37
0.0
 76
0
330
20E
345
0
346
0
  0
LAYOUT
  5
4D5
102
{ACAD_REACTORS
330
1A
102
}
100
AcDbPlotSettings
  1

  2
none_device
  4
ISO_A4_(297.00_x_210.00_MM)
  6

 40
0.0
 41
0.0
 42
0.0
 43
0.0
 44
297.0
 45
210.0
 46
0.0
 47
0.0
 48
0.0
 49
0.0
140
0.0
141
0.0
142
1.0
143
1.0
 70
0
 72
1
 73
0
 74
0
  7

 75
0
147
1.0
148
0.0
149
0.0
100
AcDbLayout
  1
Layout1
 70
0
 71
1
 10
0.0
 20
0.0
 11
297.0
 21
210.0
 12
0.0
 22
0.0
 32
0.0
 14
0.0
 24
0.0
 34
0.0
 15
0.0
 25
0.0
 35
0.0
146
0.0
 13
0.0
 23
0.0
 33
0.0
 16
1.0
 26
0.0
 36
0.0
 17
0.0
 27
1.0
 37
0.0
 76
0
330
20F
345
0
346
0
  0
ENDSEC
  0
EOF
