999
DXF file: VRS-F_12t_M48_7984203_M32988-P-2.dxf
999
Pro/ENGINEER 2011490 by Parametric Technology Corporation
  0
SECTION
  2
HEADER
  9
$ACADVER
  1
AC1015
  9
$DWGCODEPAGE
  3
ANSI_1252
  9
$EXTMAX
 10
594.0
 20
420.0
 30
0.0
  9
$EXTMIN
 10
0.0
 20
0.0
 30
0.0
  9
$LIMMIN
 10
0.0
 20
0.0
  9
$LIMMAX
 10
594.0
 20
420.0
  9
$VIEWCTR
 10
297.0
 20
210.0
  9
$VIEWSIZE
 40
420.0
  9
$CLAYER
  8
0
  9
$LTSCALE
 40
32.67
  9
$CELTYPE
  6
BYLAYER
  9
$DIMSCALE
 40
1.0
  9
$DIMASZ
 40
3.5
  9
$DIMEXO
 40
3.7125
  9
$DIMDLI
 40
22.572
  9
$DIMEXE
 40
10.692
  9
$DIMCEN
 40
5.346
  9
$DIMLFAC
 40
1.0
  9
$DIMBLK
  1
_FILLED
  9
$DIMTXT
 40
3.5
  9
$DIMTOL
 70
1
  9
$DIMLIM
 70
0
  9
$DIMTFAC
 40
1.0
  9
$DIMTP
 40
0.005
  9
$DIMTM
 40
0.005
  9
$PDMODE
 70
3
  9
$PDSIZE
 40
0.3125
  9
$HANDSEED
  5
489
  9
$TILEMODE
 70
1
  9
$MEASUREMENT
 70
1
  9
$INSUNITS
 70
4
  0
ENDSEC
  0
SECTION
  2
CLASSES
  0
CLASS
  1
ACDBDICTIONARYWDFLT
  2
AcDbDictionaryWithDefault
  3
AutoCAD 2000
 90
0
280
0
281
0
  0
CLASS
  1
ACDBPLACEHOLDER
  2
AcDbPlaceHolder
  3
AutoCAD 2000
 90
0
280
0
281
0
  0
CLASS
  1
LAYOUT
  2
AcDbLayout
  3
AutoCAD 2000
 90
0
280
0
281
0
  0
ENDSEC
  0
SECTION
  2
TABLES
  0
TABLE
  2
VPORT
  5
8
100
AcDbSymbolTable
 70
2
  0
VPORT
  5
1F4
100
AcDbSymbolTableRecord
100
AcDbViewportTableRecord
  2
*ACTIVE
 70
0
 10
0.0
 20
0.0
 11
1.0
 21
1.0
 12
297.0
 22
210.0
 13
0.0
 23
0.0
 14
1.0
 24
1.0
 15
0.0
 25
0.0
 16
0.0
 26
0.0
 36
1.0
 17
0.0
 27
0.0
 37
0.0
 40
420.0
 41
1.4142857143
 42
50.0
 43
0.0
 44
0.0
 50
0.0
 51
0.0
 71
0
 72
100
 73
1
 74
1
 75
0
 76
0
 77
0
 78
0
  0
ENDTAB
  0
TABLE
  2
LTYPE
  5
5
100
AcDbSymbolTable
 70
6
  0
LTYPE
  5
14
100
AcDbSymbolTableRecord
100
AcDbLinetypeTableRecord
  2
BYBLOCK
 70
0
  3

 72
65
 73
0
 40
0.0
  0
LTYPE
  5
15
100
AcDbSymbolTableRecord
100
AcDbLinetypeTableRecord
  2
BYLAYER
 70
0
  3

 72
65
 73
0
 40
0.0
  0
LTYPE
  5
16
100
AcDbSymbolTableRecord
100
AcDbLinetypeTableRecord
  2
CONTINUOUS
 70
64
  3
Solid line
 72
65
 73
0
 40
0.0
  0
LTYPE
  5
1F5
100
AcDbSymbolTableRecord
100
AcDbLinetypeTableRecord
  2
CENTER
 70
64
  3
____ _ ____ _ ____ _ ____ _ ____ _ ____ _ ____
 72
65
 73
4
 40
0.6
 49
0.375
 74
0
 49
-0.075
 74
0
 49
0.075
 74
0
 49
-0.075
 74
0
  0
LTYPE
  5
1F6
100
AcDbSymbolTableRecord
100
AcDbLinetypeTableRecord
  2
HIDDEN
 70
64
  3
- - - - - - - - - - - - - - - - - - - -
 72
65
 73
2
 40
0.2
 49
0.1
 74
0
 49
-0.1
 74
0
  0
LTYPE
  5
1F7
100
AcDbSymbolTableRecord
100
AcDbLinetypeTableRecord
  2
PHANTOM
 70
64
  3
_____ _ _ _____ _ _ _____ _ _ _____
 72
65
 73
6
 40
0.8
 49
0.45
 74
0
 49
-0.05
 74
0
 49
0.1
 74
0
 49
-0.05
 74
0
 49
0.1
 74
0
 49
-0.05
 74
0
  0
LTYPE
  5
1F8
100
AcDbSymbolTableRecord
100
AcDbLinetypeTableRecord
  2
DOT
 70
64
  3
. . . . . . . . . . . . . . . . . . . .
 72
65
 73
2
 40
0.2
 49
0.1
 74
0
 49
-0.1
 74
0
  0
LTYPE
  5
1F9
100
AcDbSymbolTableRecord
100
AcDbLinetypeTableRecord
  2
DASHED
 70
64
  3
- - - - - - - - - - - - - - - - - - - -
 72
65
 73
2
 40
0.2
 49
0.1
 74
0
 49
-0.1
 74
0
  0
ENDTAB
  0
TABLE
  2
LAYER
  5
2
100
AcDbSymbolTable
 70
36
  0
LAYER
  5
10
100
AcDbSymbolTableRecord
100
AcDbLayerTableRecord
  2
0
 70
0
 62
7
  6
CONTINUOUS
370
-3
390
F
  0
LAYER
  5
1FA
100
AcDbSymbolTableRecord
100
AcDbLayerTableRecord
  2
DEFAULT_1
 70
0
 62
7
  6
CENTER
370
-3
390
F
  0
LAYER
  5
1FB
100
AcDbSymbolTableRecord
100
AcDbLayerTableRecord
  2
DEFAULT_2
 70
0
 62
8
  6
HIDDEN
370
-3
390
F
  0
LAYER
  5
1FC
100
AcDbSymbolTableRecord
100
AcDbLayerTableRecord
  2
DEFAULT_3
 70
0
 62
7
  6
PHANTOM
370
-3
390
F
  0
LAYER
  5
1FD
100
AcDbSymbolTableRecord
100
AcDbLayerTableRecord
  2
BEZUGSACHSEN
 70
0
 62
7
  6
CONTINUOUS
370
-3
390
F
  0
LAYER
  5
1FE
100
AcDbSymbolTableRecord
100
AcDbLayerTableRecord
  2
BEZUGSEBENEN
 70
0
 62
7
  6
CONTINUOUS
370
-3
390
F
  0
LAYER
  5
1FF
100
AcDbSymbolTableRecord
100
AcDbLayerTableRecord
  2
BG_STARTBEZUEGE
 70
0
 62
7
  6
CONTINUOUS
370
-3
390
F
  0
LAYER
  5
200
100
AcDbSymbolTableRecord
100
AcDbLayerTableRecord
  2
FASEN
 70
0
 62
7
  6
CONTINUOUS
370
-3
390
F
  0
LAYER
  5
201
100
AcDbSymbolTableRecord
100
AcDbLayerTableRecord
  2
FLAECHEN
 70
0
 62
7
  6
CONTINUOUS
370
-3
390
F
  0
LAYER
  5
202
100
AcDbSymbolTableRecord
100
AcDbLayerTableRecord
  2
GEWINDE
 70
0
 62
7
  6
CONTINUOUS
370
-3
390
F
  0
LAYER
  5
203
100
AcDbSymbolTableRecord
100
AcDbLayerTableRecord
  2
HILFEN
 70
0
 62
7
  6
CONTINUOUS
370
-3
390
F
  0
LAYER
  5
204
100
AcDbSymbolTableRecord
100
AcDbLayerTableRecord
  2
KONSTRUKTIONSELEMENTE
 70
0
 62
7
  6
CONTINUOUS
370
-3
390
F
  0
LAYER
  5
205
100
AcDbSymbolTableRecord
100
AcDbLayerTableRecord
  2
KURVEN
 70
0
 62
7
  6
CONTINUOUS
370
-3
390
F
  0
LAYER
  5
206
100
AcDbSymbolTableRecord
100
AcDbLayerTableRecord
  2
NORM
 70
0
 62
7
  6
CONTINUOUS
370
-3
390
F
  0
LAYER
  5
207
100
AcDbSymbolTableRecord
100
AcDbLayerTableRecord
  2
PLATZIERUNG
 70
0
 62
7
  6
CONTINUOUS
370
-3
390
F
  0
LAYER
  5
208
100
AcDbSymbolTableRecord
100
AcDbLayerTableRecord
  2
RUNDUNGEN
 70
0
 62
7
  6
CONTINUOUS
370
-3
390
F
  0
LAYER
  5
209
100
AcDbSymbolTableRecord
100
AcDbLayerTableRecord
  2
TEIL_STARTBEZUEGE
 70
0
 62
7
  6
CONTINUOUS
370
-3
390
F
  0
LAYER
  5
20A
100
AcDbSymbolTableRecord
100
AcDbLayerTableRecord
  2
T_STARTBEZUEGE
 70
0
 62
7
  6
CONTINUOUS
370
-3
390
F
  0
LAYER
  5
20B
100
AcDbSymbolTableRecord
100
AcDbLayerTableRecord
  2
ZEICHNUNGSBEMASSUNGEN
 70
0
 62
7
  6
CONTINUOUS
370
-3
390
F
  0
ENDTAB
  0
TABLE
  2
STYLE
  5
3
100
AcDbSymbolTable
 70
1
  0
STYLE
  5
11
100
AcDbSymbolTableRecord
100
AcDbTextStyleTableRecord
  2
STANDARD
 70
0
 40
0.0
 41
0.7
 50
0.0
 71
0
 42
0.2
  3
txt
  4

  0
STYLE
  5
20C
100
AcDbSymbolTableRecord
100
AcDbTextStyleTableRecord
  2
TEXTSTYLE_1
 70
0
 40
0.0
 41
0.8
 50
0.0
 71
0
 42
0.2
  3
gdt
  4

  0
ENDTAB
  0
TABLE
  2
VIEW
  5
6
100
AcDbSymbolTable
 70
0
  0
ENDTAB
  0
TABLE
  2
UCS
  5
7
100
AcDbSymbolTable
 70
0
  0
ENDTAB
  0
TABLE
  2
APPID
  5
9
100
AcDbSymbolTable
 70
1
  0
APPID
  5
20D
100
AcDbSymbolTableRecord
100
AcDbRegAppTableRecord
  2
ACAD
 70
0
  0
ENDTAB
  0
TABLE
  2
BLOCK_RECORD
  5
1
100
AcDbSymbolTable
 70
0
  0
BLOCK_RECORD
  5
20E
100
AcDbSymbolTableRecord
100
AcDbBlockTableRecord
  2
*Model_Space
  0
BLOCK_RECORD
  5
20F
100
AcDbSymbolTableRecord
100
AcDbBlockTableRecord
  2
*Paper_Space
  0
ENDTAB
  0
TABLE
  2
DIMSTYLE
  5
A
100
AcDbSymbolTable
 70
1
100
AcDbDimStyleTable
 71
0
  0
DIMSTYLE
105
210
100
AcDbSymbolTableRecord
100
AcDbDimStyleTableRecord
  2
STANDARD
 70
0
  3

  4

 40
1.0
 41
3.5
 42
0.0625
 43
0.38
 44
0.18
 45
0.0
 46
0.0
 47
0.005
 48
0.005
140
3.5
141
0.09
142
0.0
143
25.4
144
1.0
145
0.0
146
1.0
147
0.09
 71
1.0
 72
0.0
 73
0
 74
0
 75
0
 76
0
 77
1
 78
8
170
0
171
2
172
0
173
0
174
0
175
0
176
0
177
0
178
5
270
2
271
3
272
3
273
2
274
2
275
0
280
0
281
0
282
0
283
1
284
8
285
0
286
0
287
3
288
0
340
11
  0
ENDTAB
  0
ENDSEC
  0
SECTION
  2
BLOCKS
  0
BLOCK
  5
20
100
AcDbEntity
  8
0
100
AcDbBlockBegin
  2
*Model_Space
 70
0
 10
0.0
 20
0.0
 30
0.0
  3
*Model_Space
  1

  0
ENDBLK
  5
21
100
AcDbEntity
  8
0
100
AcDbBlockEnd
  0
BLOCK
  5
1C
100
AcDbEntity
  8
0
100
AcDbBlockBegin
  2
*Paper_Space
 70
0
 10
0.0
 20
0.0
 30
0.0
  3
*Paper_Space
  1

  0
ENDBLK
  5
1D
100
AcDbEntity
  8
0
100
AcDbBlockEnd
  0
ENDSEC
  0
SECTION
  2
ENTITIES
  0
MTEXT
  5
211
100
AcDbEntity
  8
0
100
AcDbMText
 62
5
  6
CONTINUOUS
  7
STANDARD
 71
1
 72
1
 10
426.5158317099
 20
303.5076900593
 30
0.0
 11
0.0
 21
1.0
 31
0.0
 44
0.9
  1
VRS 12t RUD
 40
10.0
 41
85.7142857143
  0
MTEXT
  5
212
100
AcDbEntity
  8
0
100
AcDbMText
 62
5
  6
CONTINUOUS
  7
STANDARD
 71
1
 72
1
 10
114.9189328924
 20
75.0666670072
 30
0.0
 11
1.0
 21
0.0
 31
0.0
 44
0.9
  1
VRS 12t RUD
 40
10.0
 41
85.7142857143
  0
LINE
  5
213
100
AcDbEntity
  8
0
100
AcDbLine
 62
7
  6
CONTINUOUS
 10
0.0
 20
0.0
 11
0.0
 21
420.0
  0
LINE
  5
214
100
AcDbEntity
  8
0
100
AcDbLine
 62
7
  6
CONTINUOUS
 10
0.0
 20
0.0
 11
594.0
 21
0.0
  0
LINE
  5
215
100
AcDbEntity
  8
0
100
AcDbLine
 62
7
  6
CONTINUOUS
 10
0.0
 20
420.0
 11
594.0
 21
420.0
  0
LINE
  5
216
100
AcDbEntity
  8
0
100
AcDbLine
 62
7
  6
CONTINUOUS
 10
594.0
 20
0.0
 11
594.0
 21
420.0
  0
LINE
  5
217
100
AcDbEntity
  8
KONSTRUKTIONSELEMENTE
100
AcDbLine
 62
7
  6
CONTINUOUS
 10
136.8553944131
 20
158.3964094271
 11
177.8553944131
 21
158.3964094271
  0
LINE
  5
218
100
AcDbEntity
  8
KONSTRUKTIONSELEMENTE
100
AcDbLine
 62
7
  6
CONTINUOUS
 10
133.3553944131
 20
161.8964094271
 11
181.3553944131
 21
161.8964094271
  0
LINE
  5
219
100
AcDbEntity
  8
RUNDUNGEN
100
AcDbLine
 62
7
  6
CONTINUOUS
 10
97.6762115164
 20
388.1877174728
 11
154.4884508168
 21
409.99589289
  0
LINE
  5
21A
100
AcDbEntity
  8
KONSTRUKTIONSELEMENTE
100
AcDbLine
 62
7
  6
CONTINUOUS
 10
133.3553944131
 20
161.8964094271
 11
136.8553944131
 21
158.3964094271
  0
LINE
  5
21B
100
AcDbEntity
  8
BEZUGSACHSEN
100
AcDbLine
 62
7
  6
CONTINUOUS
 10
68.2755528708
 20
323.7231985411
 11
68.7445495411
 21
324.8554566633
  0
LINE
  5
21C
100
AcDbEntity
  8
RUNDUNGEN
100
AcDbLine
 62
7
  6
CONTINUOUS
 10
68.7445495411
 20
324.8554566633
 11
93.1521188526
 21
383.7805415197
  0
LINE
  5
21D
100
AcDbEntity
  8
0
100
AcDbLine
 62
7
  6
CONTINUOUS
 10
111.9679768842
 20
380.567902295
 11
111.2314084444
 21
379.8313338552
  0
LINE
  5
21E
100
AcDbEntity
  8
0
100
AcDbLine
 62
7
  6
CONTINUOUS
 10
105.633479198
 20
374.2334046088
 11
102.0979452921
 21
370.6978707029
  0
LINE
  5
21F
100
AcDbEntity
  8
0
100
AcDbLine
 62
7
  6
CONTINUOUS
 10
100.9194338496
 20
369.5193592604
 11
100.0355503731
 21
368.6354757839
  0
LINE
  5
220
100
AcDbEntity
  8
0
100
AcDbLine
 62
7
  6
CONTINUOUS
 10
95.9107609567
 20
364.5106863675
 11
95.0268774802
 21
363.626802891
  0
LINE
  5
221
100
AcDbEntity
  8
0
100
AcDbLine
 62
7
  6
CONTINUOUS
 10
103.7340699355
 20
370.8295130125
 11
106.5330345587
 21
373.6284776356
  0
LINE
  5
222
100
AcDbEntity
  8
0
100
AcDbLine
 62
7
  6
CONTINUOUS
 10
112.1340978447
 20
378.9286444549
 11
113.0179813211
 21
379.8125279314
  0
LINE
  5
223
100
AcDbEntity
  8
0
100
AcDbLine
 62
7
  6
CONTINUOUS
 10
114.6541059645
 20
379.9441702409
 11
115.537989441
 21
380.8280537174
  0
LINE
  5
224
100
AcDbEntity
  8
0
100
AcDbLine
 62
7
  6
CONTINUOUS
 10
115.12425701
 20
377.7062522426
 11
114.2403735335
 21
376.8223687661
  0
LINE
  5
225
100
AcDbEntity
  8
0
100
AcDbLine
 62
7
  6
CONTINUOUS
 10
108.7897584808
 20
371.3717537135
 11
105.9907938577
 21
368.5727890903
  0
LINE
  5
226
100
AcDbEntity
  8
0
100
AcDbLine
 62
7
  6
CONTINUOUS
 10
112.8549952433
 20
381.1540241873
 11
111.9679768842
 21
380.567902295
  0
LINE
  5
227
100
AcDbEntity
  8
0
100
AcDbLine
 62
7
  6
CONTINUOUS
 10
106.5204967142
 20
374.8195256582
 11
105.633479198
 21
374.2334046088
  0
LINE
  5
228
100
AcDbEntity
  8
0
100
AcDbLine
 62
7
  6
CONTINUOUS
 10
116.0112736832
 20
378.292372449
 11
115.12425701
 21
377.7062522426
  0
LINE
  5
229
100
AcDbEntity
  8
0
100
AcDbLine
 62
7
  6
CONTINUOUS
 10
116.0269464102
 20
376.8035628423
 11
116.7666497327
 21
377.2423696979
  0
LINE
  5
22A
100
AcDbEntity
  8
0
100
AcDbLine
 62
7
  6
CONTINUOUS
 10
114.4033579255
 20
375.4808708243
 11
115.1430629338
 21
375.9196793658
  0
LINE
  5
22B
100
AcDbEntity
  8
0
100
AcDbLine
 62
7
  6
CONTINUOUS
 10
117.1051583631
 20
373.3683271615
 11
116.3654550407
 21
372.9295203059
  0
LINE
  5
22C
100
AcDbEntity
  8
0
100
AcDbLine
 62
7
  6
CONTINUOUS
 10
149.8553933402
 20
389.9900264611
 11
150.6887264749
 21
390.4155583253
  0
LINE
  5
22D
100
AcDbEntity
  8
0
100
AcDbLine
 62
7
  6
CONTINUOUS
 10
113.0179813211
 20
379.8125279314
 11
113.6103712928
 21
380.1040214362
  0
LINE
  5
22E
100
AcDbEntity
  8
0
100
AcDbLine
 62
7
  6
CONTINUOUS
 10
106.5330345587
 20
373.6284776356
 11
107.1254245303
 21
373.9199711405
  0
LINE
  5
22F
100
AcDbEntity
  8
0
100
AcDbLine
 62
7
  6
CONTINUOUS
 10
114.2403735335
 20
376.8223687661
 11
113.6479835618
 21
376.5308752612
  0
LINE
  5
230
100
AcDbEntity
  8
0
100
AcDbLine
 62
7
  6
CONTINUOUS
 10
149.6470596095
 20
391.0538561215
 11
149.0220596095
 21
390.8410901894
  0
LINE
  5
231
100
AcDbEntity
  8
0
100
AcDbLine
 62
7
  6
CONTINUOUS
 10
116.9014269248
 20
378.5807327571
 11
116.0112736832
 21
378.292372449
  0
LINE
  5
232
100
AcDbEntity
  8
0
100
AcDbLine
 62
7
  6
CONTINUOUS
 10
113.5132063697
 20
375.192512202
 11
114.4033579255
 21
375.4808708243
  0
LINE
  5
233
100
AcDbEntity
  8
0
100
AcDbLine
 62
7
  6
CONTINUOUS
 10
111.8426043398
 20
378.3362544833
 11
112.1340978447
 21
378.9286444549
  0
LINE
  5
234
100
AcDbEntity
  8
0
100
AcDbLine
 62
7
  6
CONTINUOUS
 10
109.0812519857
 20
371.9641436851
 11
108.7897584808
 21
371.3717537135
  0
LINE
  5
235
100
AcDbEntity
  8
0
100
AcDbLine
 62
7
  6
CONTINUOUS
 10
111.2314084444
 20
379.8313338552
 11
110.7925999028
 21
379.0916288469
  0
LINE
  5
236
100
AcDbEntity
  8
0
100
AcDbLine
 62
7
  6
CONTINUOUS
 10
119.1863597327
 20
373.6441495198
 11
119.772479926
 21
374.5311662062
  0
LINE
  5
237
100
AcDbEntity
  8
0
100
AcDbLine
 62
7
  6
CONTINUOUS
 10
106.893483258
 20
367.67009969
 11
109.3978194937
 21
370.1744359257
  0
LINE
  5
238
100
AcDbEntity
  8
0
100
AcDbLine
 62
7
  6
CONTINUOUS
 10
115.1430629338
 20
375.9196793658
 11
116.0269464102
 21
376.8035628423
  0
LINE
  5
239
100
AcDbEntity
  8
0
100
AcDbLine
 62
7
  6
CONTINUOUS
 10
114.8735087602
 20
373.2429530366
 11
113.9896261266
 21
372.3590704031
  0
LINE
  5
23A
100
AcDbEntity
  8
0
100
AcDbLine
 62
7
  6
CONTINUOUS
 10
118.2836702271
 20
374.5468390255
 11
117.1051583631
 21
373.3683271615
  0
LINE
  5
23B
100
AcDbEntity
  8
0
100
AcDbLine
 62
7
  6
CONTINUOUS
 10
104.4549679663
 20
358.9127577534
 11
105.633479198
 21
360.0912689851
  0
LINE
  5
23C
100
AcDbEntity
  8
0
100
AcDbLine
 62
7
  6
CONTINUOUS
 10
109.169013104
 20
363.626802891
 11
110.0528965804
 21
364.5106863675
  0
LINE
  5
23D
100
AcDbEntity
  8
0
100
AcDbLine
 62
7
  6
CONTINUOUS
 10
113.7357446801
 20
368.1935344672
 11
114.7669415074
 21
369.2247312944
  0
LINE
  5
23E
100
AcDbEntity
  8
0
100
AcDbLine
 62
7
  6
CONTINUOUS
 10
118.0078478688
 20
372.4656376559
 11
119.1863597327
 21
373.6441495198
  0
LINE
  5
23F
100
AcDbEntity
  8
0
100
AcDbLine
 62
7
  6
CONTINUOUS
 10
159.0220602056
 20
387.0113031139
 11
158.3970602056
 21
386.5857711007
  0
LINE
  5
240
100
AcDbEntity
  8
0
100
AcDbLine
 62
7
  6
CONTINUOUS
 10
117.1208294965
 20
371.8795157767
 11
118.0078478688
 21
372.4656376559
  0
LINE
  5
241
100
AcDbEntity
  8
0
100
AcDbLine
 62
7
  6
CONTINUOUS
 10
158.6053927442
 20
385.3091753778
 11
159.4387264749
 21
385.7347072979
  0
LINE
  5
242
100
AcDbEntity
  8
0
100
AcDbLine
 62
7
  6
CONTINUOUS
 10
168.6053939363
 20
385.3091753778
 11
169.4387264749
 21
385.7347072979
  0
LINE
  5
243
100
AcDbEntity
  8
0
100
AcDbLine
 62
7
  6
CONTINUOUS
 10
110.7925999028
 20
379.0916288469
 11
110.5042412806
 21
378.2014772911
  0
LINE
  5
244
100
AcDbEntity
  8
0
100
AcDbLine
 62
7
  6
CONTINUOUS
 10
109.9808065034
 20
371.359215869
 11
110.2691659686
 21
372.2493682677
  0
LINE
  5
245
100
AcDbEntity
  8
0
100
AcDbLine
 62
7
  6
CONTINUOUS
 10
118.7224770827
 20
375.2865423479
 11
118.2836702271
 21
374.5468390255
  0
LINE
  5
246
100
AcDbEntity
  8
0
100
AcDbLine
 62
7
  6
CONTINUOUS
 10
150.0637264749
 20
391.4793879857
 11
149.6470596095
 21
391.0538561215
  0
LINE
  5
247
100
AcDbEntity
  8
0
100
AcDbLine
 62
7
  6
CONTINUOUS
 10
169.0220590135
 20
387.0113031139
 11
168.3970590135
 21
386.5857711007
  0
LINE
  5
248
100
AcDbEntity
  8
KONSTRUKTIONSELEMENTE
100
AcDbLine
 62
7
  6
CONTINUOUS
 10
122.1553944131
 20
230.3964094271
 11
192.5553944131
 21
230.3964094271
  0
LINE
  5
249
100
AcDbEntity
  8
BEZUGSACHSEN
100
AcDbLine
 62
7
  6
CONTINUOUS
 10
207.3553465493
 20
230.5964094271
 11
107.3554422778
 21
230.5964094271
  0
LINE
  5
24A
100
AcDbEntity
  8
BEZUGSACHSEN
100
AcDbLine
 62
7
  6
CONTINUOUS
 10
97.4338628219
 20
247.2871676888
 11
68.2768046941
 21
317.5972432003
  0
LINE
  5
24B
100
AcDbEntity
  8
0
100
AcDbLine
 62
7
  6
CONTINUOUS
 10
111.7015590683
 20
377.5934162783
 11
111.8426043398
 21
378.3362544833
  0
LINE
  5
24C
100
AcDbEntity
  8
0
100
AcDbLine
 62
7
  6
CONTINUOUS
 10
118.8635222488
 20
376.0293806582
 11
118.7224770827
 21
375.2865423479
  0
LINE
  5
24D
100
AcDbEntity
  8
0
100
AcDbLine
 62
7
  6
CONTINUOUS
 10
119.772479926
 20
374.5311662062
 11
120.0608401946
 21
375.4213194873
  0
LINE
  5
24E
100
AcDbEntity
  8
0
100
AcDbLine
 62
7
  6
CONTINUOUS
 10
150.6887264749
 20
390.4155583253
 11
151.3137264749
 21
391.2666220536
  0
LINE
  5
24F
100
AcDbEntity
  8
0
100
AcDbLine
 62
7
  6
CONTINUOUS
 10
159.4387264749
 20
385.7347072979
 11
160.2720602056
 21
386.5857711007
  0
LINE
  5
250
100
AcDbEntity
  8
0
100
AcDbLine
 62
7
  6
CONTINUOUS
 10
169.4387264749
 20
385.7347072979
 11
170.2720590135
 21
386.5857711007
  0
LINE
  5
251
100
AcDbEntity
  8
0
100
AcDbLine
 62
7
  6
CONTINUOUS
 10
142.3137283822
 20
238.0964094271
 11
144.6887283822
 21
238.0964094271
  0
LINE
  5
252
100
AcDbEntity
  8
0
100
AcDbLine
 62
7
  6
CONTINUOUS
 10
147.8553948602
 20
238.0964094271
 11
162.1053942939
 21
238.0964094271
  0
LINE
  5
253
100
AcDbEntity
  8
0
100
AcDbLine
 62
7
  6
CONTINUOUS
 10
162.1053942939
 20
240.117686065
 11
151.0220613381
 21
240.117686065
  0
LINE
  5
254
100
AcDbEntity
  8
0
100
AcDbLine
 62
7
  6
CONTINUOUS
 10
171.6053942939
 20
238.5006647335
 11
173.9803942939
 21
238.0964094271
  0
LINE
  5
255
100
AcDbEntity
  8
0
100
AcDbLine
 62
7
  6
CONTINUOUS
 10
173.9803942939
 20
239.7134306525
 11
172.0012283822
 21
240.117686065
  0
LINE
  5
256
100
AcDbEntity
  8
0
100
AcDbLine
 62
7
  6
CONTINUOUS
 10
109.0749830635
 20
372.5596676964
 11
109.0812519857
 21
371.9641436851
  0
LINE
  5
257
100
AcDbEntity
  8
0
100
AcDbLine
 62
7
  6
CONTINUOUS
 10
110.5042412806
 20
378.2014772911
 11
110.5167791251
 21
377.0104292685
  0
LINE
  5
258
100
AcDbEntity
  8
0
100
AcDbLine
 62
7
  6
CONTINUOUS
 10
150.2720596095
 20
392.1176857819
 11
150.0637264749
 21
391.4793879857
  0
LINE
  5
259
100
AcDbEntity
  8
0
100
AcDbLine
 62
7
  6
CONTINUOUS
 10
160.2720602056
 20
386.5857711007
 11
160.6887264749
 21
387.4368349781
  0
LINE
  5
25A
100
AcDbEntity
  8
0
100
AcDbLine
 62
7
  6
CONTINUOUS
 10
159.4387264749
 20
387.6496009102
 11
159.0220602056
 21
387.0113031139
  0
LINE
  5
25B
100
AcDbEntity
  8
0
100
AcDbLine
 62
7
  6
CONTINUOUS
 10
169.4387264749
 20
387.6496009102
 11
169.0220590135
 21
387.0113031139
  0
LINE
  5
25C
100
AcDbEntity
  8
0
100
AcDbLine
 62
7
  6
CONTINUOUS
 10
152.2095613381
 20
254.6708778014
 11
154.1887283822
 21
255.0751330723
  0
LINE
  5
25D
100
AcDbEntity
  8
0
100
AcDbLine
 62
7
  6
CONTINUOUS
 10
165.2720624706
 20
249.4155581464
 11
168.4387283822
 21
249.4155581464
  0
LINE
  5
25E
100
AcDbEntity
  8
0
100
AcDbLine
 62
7
  6
CONTINUOUS
 10
170.4178942939
 20
249.4155581464
 11
174.7720624706
 21
249.4155581464
  0
LINE
  5
25F
100
AcDbEntity
  8
0
100
AcDbLine
 62
7
  6
CONTINUOUS
 10
174.7720624706
 20
251.0325792303
 11
170.4178942939
 21
251.0325792303
  0
LINE
  5
260
100
AcDbEntity
  8
0
100
AcDbLine
 62
7
  6
CONTINUOUS
 10
168.4387283822
 20
251.0325792303
 11
165.2720624706
 21
251.0325792303
  0
LINE
  5
261
100
AcDbEntity
  8
0
100
AcDbLine
 62
7
  6
CONTINUOUS
 10
148.2512283822
 20
252.6496014466
 11
150.2303954264
 21
252.6496014466
  0
LINE
  5
262
100
AcDbEntity
  8
0
100
AcDbLine
 62
7
  6
CONTINUOUS
 10
170.4178942939
 20
254.2666225304
 11
168.4387283822
 21
254.2666225304
  0
LINE
  5
263
100
AcDbEntity
  8
0
100
AcDbLine
 62
7
  6
CONTINUOUS
 10
154.1887283822
 20
255.0751330723
 11
155.7720613381
 21
255.0751330723
  0
LINE
  5
264
100
AcDbEntity
  8
0
100
AcDbLine
 62
7
  6
CONTINUOUS
 10
156.1678954264
 20
257.0964094271
 11
154.5845613381
 21
257.0964094271
  0
LINE
  5
265
100
AcDbEntity
  8
0
100
AcDbLine
 62
7
  6
CONTINUOUS
 10
144.6887283822
 20
257.0964094271
 11
142.3137283822
 21
257.0964094271
  0
LINE
  5
266
100
AcDbEntity
  8
0
100
AcDbLine
 62
7
  6
CONTINUOUS
 10
158.5428954264
 20
256.6921541562
 11
156.1678954264
 21
257.0964094271
  0
LINE
  5
267
100
AcDbEntity
  8
0
100
AcDbLine
 62
7
  6
CONTINUOUS
 10
155.7720613381
 20
255.0751330723
 11
157.7512283822
 21
254.6708778014
  0
LINE
  5
268
100
AcDbEntity
  8
0
100
AcDbLine
 62
7
  6
CONTINUOUS
 10
170.4178942939
 20
238.9049200398
 11
171.6053942939
 21
238.5006647335
  0
LINE
  5
269
100
AcDbEntity
  8
0
100
AcDbLine
 62
7
  6
CONTINUOUS
 10
169.2303942939
 20
239.7134306525
 11
170.4178942939
 21
238.9049200398
  0
LINE
  5
26A
100
AcDbEntity
  8
0
100
AcDbLine
 62
7
  6
CONTINUOUS
 10
120.0608401946
 20
375.4213194873
 11
120.0483022974
 21
376.6123675626
  0
LINE
  5
26B
100
AcDbEntity
  8
KONSTRUKTIONSELEMENTE
100
AcDbLine
 62
7
  6
CONTINUOUS
 10
122.1553944131
 20
230.5964094271
 11
122.1553944131
 21
230.3964094271
  0
LINE
  5
26C
100
AcDbEntity
  8
0
100
AcDbLine
 62
7
  6
CONTINUOUS
 10
127.3553944131
 20
288.8964094271
 11
127.3553944131
 21
294.8964094271
  0
LINE
  5
26D
100
AcDbEntity
  8
KONSTRUKTIONSELEMENTE
100
AcDbLine
 62
7
  6
CONTINUOUS
 10
133.3553944131
 20
230.3964094271
 11
133.3553944131
 21
161.8964094271
  0
LINE
  5
26E
100
AcDbEntity
  8
0
100
AcDbLine
 62
7
  6
CONTINUOUS
 10
151.3137264749
 20
391.2666220536
 11
151.5220596095
 21
391.9049198498
  0
LINE
  5
26F
100
AcDbEntity
  8
0
100
AcDbLine
 62
7
  6
CONTINUOUS
 10
170.2720590135
 20
386.5857711007
 11
170.6887264749
 21
387.4368349781
  0
LINE
  5
270
100
AcDbEntity
  8
0
100
AcDbLine
 62
7
  6
CONTINUOUS
 10
154.5845613381
 20
257.0964094271
 11
151.8137283822
 21
256.6921541562
  0
LINE
  5
271
100
AcDbEntity
  8
0
100
AcDbLine
 62
7
  6
CONTINUOUS
 10
160.1262283822
 20
255.8836436143
 11
158.5428954264
 21
256.6921541562
  0
LINE
  5
272
100
AcDbEntity
  8
0
100
AcDbLine
 62
7
  6
CONTINUOUS
 10
172.0012283822
 20
240.117686065
 11
170.8137283822
 21
240.926196607
  0
LINE
  5
273
100
AcDbEntity
  8
0
100
AcDbLine
 62
7
  6
CONTINUOUS
 10
157.7512283822
 20
254.6708778014
 11
158.9387283822
 21
253.8623672595
  0
LINE
  5
274
100
AcDbEntity
  8
0
100
AcDbLine
 62
7
  6
CONTINUOUS
 10
161.7095624706
 20
254.2666225304
 11
160.1262283822
 21
255.8836436143
  0
LINE
  5
275
100
AcDbEntity
  8
0
100
AcDbLine
 62
7
  6
CONTINUOUS
 10
110.2691659686
 20
372.2493682677
 11
110.1093147733
 21
373.2931029395
  0
LINE
  5
276
100
AcDbEntity
  8
0
100
AcDbLine
 62
7
  6
CONTINUOUS
 10
139.9387283822
 20
254.2666225304
 11
139.9387283822
 21
251.0325792303
  0
LINE
  5
277
100
AcDbEntity
  8
0
100
AcDbLine
 62
7
  6
CONTINUOUS
 10
141.8824071988
 20
287.8964094271
 11
141.8824071988
 21
275.2956991834
  0
LINE
  5
278
100
AcDbEntity
  8
0
100
AcDbLine
 62
7
  6
CONTINUOUS
 10
142.3137283822
 20
253.8623672595
 11
142.3137283822
 21
238.0964094271
  0
LINE
  5
279
100
AcDbEntity
  8
BEZUGSACHSEN
100
AcDbLine
 62
7
  6
CONTINUOUS
 10
143.1143687371
 20
287.8964094271
 11
143.1143687371
 21
275.1817204677
  0
LINE
  5
27A
100
AcDbEntity
  8
0
100
AcDbLine
 62
7
  6
CONTINUOUS
 10
143.8137264749
 20
395.0964094271
 11
143.8137264749
 21
385.0964094271
  0
LINE
  5
27B
100
AcDbEntity
  8
0
100
AcDbLine
 62
7
  6
CONTINUOUS
 10
144.6887283822
 20
238.0964094271
 11
144.6887283822
 21
257.0964094271
  0
LINE
  5
27C
100
AcDbEntity
  8
0
100
AcDbLine
 62
7
  6
CONTINUOUS
 10
145.0637264749
 20
385.0964094271
 11
145.0637264749
 21
389.5644945969
  0
LINE
  5
27D
100
AcDbEntity
  8
0
100
AcDbLine
 62
7
  6
CONTINUOUS
 10
145.0637264749
 20
390.8410901894
 11
145.0637264749
 21
394.0325797667
  0
LINE
  5
27E
100
AcDbEntity
  8
0
100
AcDbLine
 62
7
  6
CONTINUOUS
 10
160.6887264749
 20
387.4368349781
 11
160.8970602056
 21
388.5006646385
  0
LINE
  5
27F
100
AcDbEntity
  8
0
100
AcDbLine
 62
7
  6
CONTINUOUS
 10
159.6470602056
 20
388.5006646385
 11
159.4387264749
 21
387.6496009102
  0
LINE
  5
280
100
AcDbEntity
  8
0
100
AcDbLine
 62
7
  6
CONTINUOUS
 10
201.6911359839
 20
370.3413139264
 11
202.7594580609
 21
371.4096360034
  0
LINE
  5
281
100
AcDbEntity
  8
0
100
AcDbLine
 62
7
  6
CONTINUOUS
 10
207.6584375465
 20
376.308615489
 11
208.7267596236
 21
377.3769375661
  0
LINE
  5
282
100
AcDbEntity
  8
0
100
AcDbLine
 62
7
  6
CONTINUOUS
 10
209.9815109366
 20
368.0259024415
 11
211.0498330137
 21
369.0942245186
  0
LINE
  5
283
100
AcDbEntity
  8
0
100
AcDbLine
 62
7
  6
CONTINUOUS
 10
207.7011359839
 20
364.3313139264
 11
208.7694580609
 21
365.3996360034
  0
LINE
  5
284
100
AcDbEntity
  8
0
100
AcDbLine
 62
7
  6
CONTINUOUS
 10
213.6684375465
 20
370.298615489
 11
214.7367596236
 21
371.3669375661
  0
LINE
  5
285
100
AcDbEntity
  8
0
100
AcDbLine
 62
7
  6
CONTINUOUS
 10
158.9387283822
 20
253.8623672595
 11
159.7303942939
 21
252.6496014466
  0
LINE
  5
286
100
AcDbEntity
  8
0
100
AcDbLine
 62
7
  6
CONTINUOUS
 10
105.633479198
 20
360.0912689851
 11
100.9194338496
 21
369.5193592604
  0
LINE
  5
287
100
AcDbEntity
  8
0
100
AcDbLine
 62
7
  6
CONTINUOUS
 10
100.0355503731
 20
368.6354757839
 11
104.1415339711
 21
360.4047027695
  0
LINE
  5
288
100
AcDbEntity
  8
0
100
AcDbLine
 62
7
  6
CONTINUOUS
 10
168.4387283822
 20
241.3304518779
 11
169.2303942939
 21
239.7134306525
  0
LINE
  5
289
100
AcDbEntity
  8
0
100
AcDbLine
 62
7
  6
CONTINUOUS
 10
118.7068059361
 20
376.7753537458
 11
118.8635222488
 21
376.0293806582
  0
LINE
  5
28A
100
AcDbEntity
  8
0
100
AcDbLine
 62
7
  6
CONTINUOUS
 10
147.8553948602
 20
240.117686065
 11
147.8553948602
 21
238.0964094271
  0
LINE
  5
28B
100
AcDbEntity
  8
BEZUGSACHSEN
100
AcDbLine
 62
7
  6
CONTINUOUS
 10
148.3869392677
 20
287.8964094271
 11
148.3869392677
 21
274.8055653308
  0
LINE
  5
28C
100
AcDbEntity
  8
0
100
AcDbLine
 62
7
  6
CONTINUOUS
 10
149.618900806
 20
287.8964094271
 11
149.618900806
 21
274.7418635621
  0
LINE
  5
28D
100
AcDbEntity
  8
0
100
AcDbLine
 62
7
  6
CONTINUOUS
 10
150.2720596095
 20
392.7559841742
 11
150.2720596095
 21
392.1176857819
  0
LINE
  5
28E
100
AcDbEntity
  8
0
100
AcDbLine
 62
7
  6
CONTINUOUS
 10
151.5220596095
 20
391.9049198498
 11
151.5220596095
 21
392.7559841742
  0
LINE
  5
28F
100
AcDbEntity
  8
BEZUGSACHSEN
100
AcDbLine
 62
7
  6
CONTINUOUS
 10
152.0828238825
 20
287.8964094271
 11
152.0828238825
 21
274.647347051
  0
LINE
  5
290
100
AcDbEntity
  8
0
100
AcDbLine
 62
7
  6
CONTINUOUS
 10
152.8553944131
 20
295.8964094271
 11
152.8553944131
 21
296.1964094271
  0
LINE
  5
291
100
AcDbEntity
  8
0
100
AcDbLine
 62
7
  6
CONTINUOUS
 10
153.3970596095
 20
395.0964094271
 11
153.3970596095
 21
388.5006646385
  0
LINE
  5
292
100
AcDbEntity
  8
0
100
AcDbLine
 62
7
  6
CONTINUOUS
 10
154.6470602056
 20
388.5006646385
 11
154.6470602056
 21
395.0964094271
  0
LINE
  5
293
100
AcDbEntity
  8
0
100
AcDbLine
 62
7
  6
CONTINUOUS
 10
170.6887264749
 20
387.4368349781
 11
170.8970590135
 21
388.5006646385
  0
LINE
  5
294
100
AcDbEntity
  8
0
100
AcDbLine
 62
7
  6
CONTINUOUS
 10
169.6470590135
 20
388.5006646385
 11
169.4387264749
 21
387.6496009102
  0
LINE
  5
295
100
AcDbEntity
  8
0
100
AcDbLine
 62
7
  6
CONTINUOUS
 10
148.6470619043
 20
254.2666225304
 11
148.2512283822
 21
252.6496014466
  0
LINE
  5
296
100
AcDbEntity
  8
RUNDUNGEN
100
AcDbLine
 62
7
  6
CONTINUOUS
 10
254.3553944131
 20
287.8964094271
 11
128.3555644324
 21
287.8964094271
  0
LINE
  5
297
100
AcDbEntity
  8
RUNDUNGEN
100
AcDbLine
 62
7
  6
CONTINUOUS
 10
128.3555644324
 20
295.8964094271
 11
254.3553944131
 21
295.8964094271
  0
LINE
  5
298
100
AcDbEntity
  8
0
100
AcDbLine
 62
7
  6
CONTINUOUS
 10
152.8553944131
 20
296.1964094271
 11
161.8553944131
 21
296.1964094271
  0
LINE
  5
299
100
AcDbEntity
  8
0
100
AcDbLine
 62
7
  6
CONTINUOUS
 10
108.770952557
 20
373.1583265902
 11
109.0749830635
 21
372.5596676964
  0
LINE
  5
29A
100
AcDbEntity
  8
0
100
AcDbLine
 62
7
  6
CONTINUOUS
 10
110.1093147733
 20
373.2931029395
 11
109.8052842669
 21
373.8917618333
  0
LINE
  5
29B
100
AcDbEntity
  8
0
100
AcDbLine
 62
7
  6
CONTINUOUS
 10
112.0055891533
 20
376.99475612
 11
111.7015590683
 21
377.5934162783
  0
LINE
  5
29C
100
AcDbEntity
  8
0
100
AcDbLine
 62
7
  6
CONTINUOUS
 10
120.0483022974
 20
376.6123675626
 11
119.741137646
 21
377.5087889889
  0
LINE
  5
29D
100
AcDbEntity
  8
0
100
AcDbLine
 62
7
  6
CONTINUOUS
 10
170.8137283822
 20
240.926196607
 11
170.4178942939
 21
242.138962703
  0
LINE
  5
29E
100
AcDbEntity
  8
0
100
AcDbLine
 62
7
  6
CONTINUOUS
 10
162.1053942939
 20
252.6496014466
 11
161.7095624706
 21
254.2666225304
  0
LINE
  5
29F
100
AcDbEntity
  8
0
100
AcDbLine
 62
7
  6
CONTINUOUS
 10
159.6470602056
 20
395.0964094271
 11
159.6470602056
 21
388.5006646385
  0
LINE
  5
2A0
100
AcDbEntity
  8
0
100
AcDbLine
 62
7
  6
CONTINUOUS
 10
159.7303942939
 20
252.6496014466
 11
159.7303942939
 21
251.8410897722
  0
LINE
  5
2A1
100
AcDbEntity
  8
0
100
AcDbLine
 62
7
  6
CONTINUOUS
 10
160.8970602056
 20
388.5006646385
 11
160.8970602056
 21
395.0964094271
  0
LINE
  5
2A2
100
AcDbEntity
  8
0
100
AcDbLine
 62
7
  6
CONTINUOUS
 10
161.8553944131
 20
295.8964094271
 11
161.8553944131
 21
296.1964094271
  0
LINE
  5
2A3
100
AcDbEntity
  8
0
100
AcDbLine
 62
7
  6
CONTINUOUS
 10
162.1053942939
 20
238.0964094271
 11
162.1053942939
 21
240.117686065
  0
LINE
  5
2A4
100
AcDbEntity
  8
0
100
AcDbLine
 62
7
  6
CONTINUOUS
 10
162.1053942939
 20
251.8410897722
 11
162.1053942939
 21
252.6496014466
  0
LINE
  5
2A5
100
AcDbEntity
  8
0
100
AcDbLine
 62
7
  6
CONTINUOUS
 10
162.5637264749
 20
395.0964094271
 11
162.5637264749
 21
385.0964094271
  0
LINE
  5
2A6
100
AcDbEntity
  8
BEZUGSACHSEN
100
AcDbLine
 62
7
  6
CONTINUOUS
 10
162.6279649437
 20
287.8964094271
 11
162.6279649437
 21
274.6473469692
  0
LINE
  5
2A7
100
AcDbEntity
  8
0
100
AcDbLine
 62
7
  6
CONTINUOUS
 10
163.8137264749
 20
386.3730051686
 11
163.8137264749
 21
393.8198138346
  0
LINE
  5
2A8
100
AcDbEntity
  8
0
100
AcDbLine
 62
7
  6
CONTINUOUS
 10
165.0918880203
 20
287.8964094271
 11
165.0918880203
 21
274.7418636967
  0
LINE
  5
2A9
100
AcDbEntity
  8
0
100
AcDbLine
 62
7
  6
CONTINUOUS
 10
165.2720624706
 20
251.0325792303
 11
165.2720624706
 21
249.4155581464
  0
LINE
  5
2AA
100
AcDbEntity
  8
BEZUGSACHSEN
100
AcDbLine
 62
7
  6
CONTINUOUS
 10
166.3238495585
 20
287.8964094271
 11
166.3238495585
 21
274.8055652818
  0
LINE
  5
2AB
100
AcDbEntity
  8
0
100
AcDbLine
 62
7
  6
CONTINUOUS
 10
168.4387283822
 20
254.2666225304
 11
168.4387283822
 21
251.0325792303
  0
LINE
  5
2AC
100
AcDbEntity
  8
0
100
AcDbLine
 62
7
  6
CONTINUOUS
 10
168.4387283822
 20
249.4155581464
 11
168.4387283822
 21
241.3304518779
  0
LINE
  5
2AD
100
AcDbEntity
  8
0
100
AcDbLine
 62
7
  6
CONTINUOUS
 10
169.6470590135
 20
391.6921539178
 11
169.6470590135
 21
388.5006646385
  0
LINE
  5
2AE
100
AcDbEntity
  8
0
100
AcDbLine
 62
7
  6
CONTINUOUS
 10
170.4178942939
 20
242.138962703
 11
170.4178942939
 21
249.4155581464
  0
LINE
  5
2AF
100
AcDbEntity
  8
0
100
AcDbLine
 62
7
  6
CONTINUOUS
 10
170.4178942939
 20
251.0325792303
 11
170.4178942939
 21
254.2666225304
  0
LINE
  5
2B0
100
AcDbEntity
  8
0
100
AcDbLine
 62
7
  6
CONTINUOUS
 10
170.8970590135
 20
388.5006646385
 11
170.8970590135
 21
391.6921539178
  0
LINE
  5
2B1
100
AcDbEntity
  8
BEZUGSACHSEN
100
AcDbLine
 62
7
  6
CONTINUOUS
 10
171.5964200891
 20
287.8964094271
 11
171.5964200891
 21
275.1817204796
  0
LINE
  5
2B2
100
AcDbEntity
  8
0
100
AcDbLine
 62
7
  6
CONTINUOUS
 10
142.3137283822
 20
257.0964094271
 11
139.9387283822
 21
254.2666225304
  0
LINE
  5
2B3
100
AcDbEntity
  8
0
100
AcDbLine
 62
7
  6
CONTINUOUS
 10
110.5167791251
 20
377.0104292685
 11
110.9712570219
 21
376.2613212984
  0
LINE
  5
2B4
100
AcDbEntity
  8
0
100
AcDbLine
 62
7
  6
CONTINUOUS
 10
153.3970596095
 20
388.5006646385
 11
153.6053933402
 21
387.4368349781
  0
LINE
  5
2B5
100
AcDbEntity
  8
0
100
AcDbLine
 62
7
  6
CONTINUOUS
 10
172.8283816274
 20
287.8964094271
 11
172.8283816274
 21
275.2956992172
  0
LINE
  5
2B6
100
AcDbEntity
  8
0
100
AcDbLine
 62
7
  6
CONTINUOUS
 10
173.9803942939
 20
238.0964094271
 11
173.9803942939
 21
239.7134306525
  0
LINE
  5
2B7
100
AcDbEntity
  8
0
100
AcDbLine
 62
7
  6
CONTINUOUS
 10
174.7720624706
 20
249.4155581464
 11
174.7720624706
 21
251.0325792303
  0
LINE
  5
2B8
100
AcDbEntity
  8
KONSTRUKTIONSELEMENTE
100
AcDbLine
 62
7
  6
CONTINUOUS
 10
181.3553944131
 20
230.3964094271
 11
181.3553944131
 21
161.8964094271
  0
LINE
  5
2B9
100
AcDbEntity
  8
0
100
AcDbLine
 62
7
  6
CONTINUOUS
 10
161.7095624706
 20
250.2240686884
 11
162.1053942939
 21
251.8410897722
  0
LINE
  5
2BA
100
AcDbEntity
  8
0
100
AcDbLine
 62
7
  6
CONTINUOUS
 10
159.7303942939
 20
251.8410897722
 11
158.9387283822
 21
250.2240686884
  0
LINE
  5
2BB
100
AcDbEntity
  8
0
100
AcDbLine
 62
7
  6
CONTINUOUS
 10
150.2303954264
 20
252.6496014466
 11
151.0220613381
 21
253.8623672595
  0
LINE
  5
2BC
100
AcDbEntity
  8
0
100
AcDbLine
 62
7
  6
CONTINUOUS
 10
139.9387283822
 20
251.0325792303
 11
142.3137283822
 21
253.8623672595
  0
LINE
  5
2BD
100
AcDbEntity
  8
0
100
AcDbLine
 62
7
  6
CONTINUOUS
 10
150.2303954264
 20
255.8836436143
 11
148.6470619043
 21
254.2666225304
  0
LINE
  5
2BE
100
AcDbEntity
  8
0
100
AcDbLine
 62
7
  6
CONTINUOUS
 10
102.0979452921
 20
370.6978707029
 11
109.169013104
 21
363.626802891
  0
LINE
  5
2BF
100
AcDbEntity
  8
0
100
AcDbLine
 62
7
  6
CONTINUOUS
 10
110.0528965804
 20
364.5106863675
 11
106.893483258
 21
367.67009969
  0
LINE
  5
2C0
100
AcDbEntity
  8
0
100
AcDbLine
 62
7
  6
CONTINUOUS
 10
105.9907938577
 20
368.5727890903
 11
103.7340699355
 21
370.8295130125
  0
LINE
  5
2C1
100
AcDbEntity
  8
0
100
AcDbLine
 62
7
  6
CONTINUOUS
 10
108.3196074354
 20
373.6096717118
 11
108.770952557
 21
373.1583265902
  0
LINE
  5
2C2
100
AcDbEntity
  8
0
100
AcDbLine
 62
7
  6
CONTINUOUS
 10
109.8052842669
 20
373.8917618333
 11
109.2034909119
 21
374.4935551883
  0
LINE
  5
2C3
100
AcDbEntity
  8
0
100
AcDbLine
 62
7
  6
CONTINUOUS
 10
110.9712570219
 20
376.2613212984
 11
111.5730503769
 21
375.6595279434
  0
LINE
  5
2C4
100
AcDbEntity
  8
0
100
AcDbLine
 62
7
  6
CONTINUOUS
 10
112.30648562
 20
376.6938596532
 11
112.0055891533
 21
376.99475612
  0
LINE
  5
2C5
100
AcDbEntity
  8
0
100
AcDbLine
 62
7
  6
CONTINUOUS
 10
151.7303933402
 20
385.0964094271
 11
149.8553933402
 21
389.9900264611
  0
LINE
  5
2C6
100
AcDbEntity
  8
0
100
AcDbLine
 62
7
  6
CONTINUOUS
 10
148.6053930422
 20
389.5644945969
 11
150.2720596095
 21
385.0964094271
  0
LINE
  5
2C7
100
AcDbEntity
  8
0
100
AcDbLine
 62
7
  6
CONTINUOUS
 10
150.0637264749
 20
393.3942819705
 11
150.2720596095
 21
392.7559841742
  0
LINE
  5
2C8
100
AcDbEntity
  8
0
100
AcDbLine
 62
7
  6
CONTINUOUS
 10
151.5220596095
 20
392.7559841742
 11
151.3137264749
 21
393.3942819705
  0
LINE
  5
2C9
100
AcDbEntity
  8
0
100
AcDbLine
 62
7
  6
CONTINUOUS
 10
154.8553927442
 20
387.6496009102
 11
154.6470602056
 21
388.5006646385
  0
LINE
  5
2CA
100
AcDbEntity
  8
KONSTRUKTIONSELEMENTE
100
AcDbLine
 62
7
  6
CONTINUOUS
 10
192.5553944131
 20
230.5964094271
 11
192.5553944131
 21
230.3964094271
  0
LINE
  5
2CB
100
AcDbEntity
  8
0
100
AcDbLine
 62
7
  6
CONTINUOUS
 10
160.9178942939
 20
249.0113028755
 11
161.7095624706
 21
250.2240686884
  0
LINE
  5
2CC
100
AcDbEntity
  8
0
100
AcDbLine
 62
7
  6
CONTINUOUS
 10
158.9387283822
 20
250.2240686884
 11
147.8553948602
 21
240.117686065
  0
LINE
  5
2CD
100
AcDbEntity
  8
0
100
AcDbLine
 62
7
  6
CONTINUOUS
 10
151.0220613381
 20
240.117686065
 11
160.9178942939
 21
249.0113028755
  0
LINE
  5
2CE
100
AcDbEntity
  8
0
100
AcDbLine
 62
7
  6
CONTINUOUS
 10
151.0220613381
 20
253.8623672595
 11
152.2095613381
 21
254.6708778014
  0
LINE
  5
2CF
100
AcDbEntity
  8
0
100
AcDbLine
 62
7
  6
CONTINUOUS
 10
151.8137283822
 20
256.6921541562
 11
150.2303954264
 21
255.8836436143
  0
LINE
  5
2D0
100
AcDbEntity
  8
0
100
AcDbLine
 62
7
  6
CONTINUOUS
 10
104.1415339711
 20
360.4047027695
 11
95.9107609567
 21
364.5106863675
  0
LINE
  5
2D1
100
AcDbEntity
  8
0
100
AcDbLine
 62
7
  6
CONTINUOUS
 10
95.0268774802
 20
363.626802891
 11
104.4549679663
 21
358.9127577534
  0
LINE
  5
2D2
100
AcDbEntity
  8
0
100
AcDbLine
 62
7
  6
CONTINUOUS
 10
118.255461236
 20
377.226698446
 11
118.7068059361
 21
376.7753537458
  0
LINE
  5
2D3
100
AcDbEntity
  8
0
100
AcDbLine
 62
7
  6
CONTINUOUS
 10
119.741137646
 20
377.5087889889
 11
118.9888964791
 21
378.2610301558
  0
LINE
  5
2D4
100
AcDbEntity
  8
0
100
AcDbLine
 62
7
  6
CONTINUOUS
 10
153.6053933402
 20
387.4368349781
 11
154.0220602056
 21
386.5857711007
  0
LINE
  5
2D5
100
AcDbEntity
  8
0
100
AcDbLine
 62
7
  6
CONTINUOUS
 10
169.4387264749
 20
392.5432176461
 11
169.6470590135
 21
391.6921539178
  0
LINE
  5
2D6
100
AcDbEntity
  8
0
100
AcDbLine
 62
7
  6
CONTINUOUS
 10
170.8970590135
 20
391.6921539178
 11
170.6887264749
 21
392.7559841742
  0
LINE
  5
2D7
100
AcDbEntity
  8
0
100
AcDbLine
 62
7
  6
CONTINUOUS
 10
114.7669415074
 20
369.2247312944
 11
109.9808065034
 21
371.359215869
  0
LINE
  5
2D8
100
AcDbEntity
  8
0
100
AcDbLine
 62
7
  6
CONTINUOUS
 10
109.3978194937
 20
370.1744359257
 11
113.7357446801
 21
368.1935344672
  0
LINE
  5
2D9
100
AcDbEntity
  8
0
100
AcDbLine
 62
7
  6
CONTINUOUS
 10
107.7209485416
 20
373.9137022183
 11
108.3196074354
 21
373.6096717118
  0
LINE
  5
2DA
100
AcDbEntity
  8
0
100
AcDbLine
 62
7
  6
CONTINUOUS
 10
109.2034909119
 20
374.4935551883
 11
108.604832018
 21
374.7975856947
  0
LINE
  5
2DB
100
AcDbEntity
  8
0
100
AcDbLine
 62
7
  6
CONTINUOUS
 10
115.472168497
 20
372.9389233731
 11
114.8735087602
 21
373.2429530366
  0
LINE
  5
2DC
100
AcDbEntity
  8
0
100
AcDbLine
 62
7
  6
CONTINUOUS
 10
112.9051453568
 20
376.3898299897
 11
112.30648562
 21
376.6938596532
  0
LINE
  5
2DD
100
AcDbEntity
  8
0
100
AcDbLine
 62
7
  6
CONTINUOUS
 10
113.9896261266
 20
372.3590704031
 11
114.7387324109
 21
371.9045908203
  0
LINE
  5
2DE
100
AcDbEntity
  8
0
100
AcDbLine
 62
7
  6
CONTINUOUS
 10
111.5730503769
 20
375.6595279434
 11
112.3221583471
 21
375.2050500465
  0
LINE
  5
2DF
100
AcDbEntity
  8
0
100
AcDbLine
 62
7
  6
CONTINUOUS
 10
155.2720602056
 20
387.0113031139
 11
154.8553927442
 21
387.6496009102
  0
LINE
  5
2E0
100
AcDbEntity
  8
0
100
AcDbLine
 62
7
  6
CONTINUOUS
 10
114.7387324109
 20
371.9045908203
 11
115.9329163171
 21
371.5942920766
  0
LINE
  5
2E1
100
AcDbEntity
  8
0
100
AcDbLine
 62
7
  6
CONTINUOUS
 10
115.537989441
 20
380.8280537174
 11
114.9393297042
 21
381.1320833809
  0
LINE
  5
2E2
100
AcDbEntity
  8
0
100
AcDbLine
 62
7
  6
CONTINUOUS
 10
154.0220602056
 20
386.5857711007
 11
154.8553927442
 21
385.7347072979
  0
LINE
  5
2E3
100
AcDbEntity
  8
0
100
AcDbLine
 62
7
  6
CONTINUOUS
 10
149.6470596095
 20
393.8198138346
 11
150.0637264749
 21
393.3942819705
  0
LINE
  5
2E4
100
AcDbEntity
  8
0
100
AcDbLine
 62
7
  6
CONTINUOUS
 10
151.3137264749
 20
393.3942819705
 11
150.6887264749
 21
394.2453456988
  0
LINE
  5
2E5
100
AcDbEntity
  8
0
100
AcDbLine
 62
7
  6
CONTINUOUS
 10
169.0220590135
 20
393.1815160384
 11
169.4387264749
 21
392.5432176461
  0
LINE
  5
2E6
100
AcDbEntity
  8
0
100
AcDbLine
 62
7
  6
CONTINUOUS
 10
170.6887264749
 20
392.7559841742
 11
170.2720590135
 21
393.6070479026
  0
LINE
  5
2E7
100
AcDbEntity
  8
BEZUGSACHSEN
100
AcDbLine
 62
7
  6
CONTINUOUS
 10
246.4339841321
 20
317.5972432003
 11
237.4348120058
 21
295.8964094271
  0
LINE
  5
2E8
100
AcDbEntity
  8
BEZUGSACHSEN
100
AcDbLine
 62
7
  6
CONTINUOUS
 10
234.1172723313
 20
287.8964094271
 11
217.2769260043
 21
247.2871676888
  0
LINE
  5
2E9
100
AcDbEntity
  8
0
100
AcDbLine
 62
7
  6
CONTINUOUS
 10
116.3654550407
 20
372.9295203059
 11
115.472168497
 21
372.9389233731
  0
LINE
  5
2EA
100
AcDbEntity
  8
0
100
AcDbLine
 62
7
  6
CONTINUOUS
 10
108.604832018
 20
374.7975856947
 11
107.5610973463
 21
374.95743689
  0
LINE
  5
2EB
100
AcDbEntity
  8
0
100
AcDbLine
 62
7
  6
CONTINUOUS
 10
117.5094879377
 20
377.3834149694
 11
118.255461236
 21
377.226698446
  0
LINE
  5
2EC
100
AcDbEntity
  8
0
100
AcDbLine
 62
7
  6
CONTINUOUS
 10
118.9888964791
 20
378.2610301558
 11
118.0924749474
 21
378.5681949126
  0
LINE
  5
2ED
100
AcDbEntity
  8
0
100
AcDbLine
 62
7
  6
CONTINUOUS
 10
114.2058944611
 20
380.097751671
 11
114.6541059645
 21
379.9441702409
  0
LINE
  5
2EE
100
AcDbEntity
  8
0
100
AcDbLine
 62
7
  6
CONTINUOUS
 10
155.8970602056
 20
386.5857711007
 11
155.2720602056
 21
387.0113031139
  0
LINE
  5
2EF
100
AcDbEntity
  8
0
100
AcDbLine
 62
7
  6
CONTINUOUS
 10
150.6887264749
 20
394.2453456988
 11
149.8553933402
 21
394.8836434951
  0
LINE
  5
2F0
100
AcDbEntity
  8
0
100
AcDbLine
 62
7
  6
CONTINUOUS
 10
170.2720590135
 20
393.6070479026
 11
169.4387264749
 21
394.4581116309
  0
LINE
  5
2F1
100
AcDbEntity
  8
0
100
AcDbLine
 62
7
  6
CONTINUOUS
 10
168.3970590135
 20
386.5857711007
 11
167.5637264749
 21
386.3730051686
  0
LINE
  5
2F2
100
AcDbEntity
  8
0
100
AcDbLine
 62
7
  6
CONTINUOUS
 10
158.3970602056
 20
386.5857711007
 11
157.5637264749
 21
386.3730051686
  0
LINE
  5
2F3
100
AcDbEntity
  8
0
100
AcDbLine
 62
7
  6
CONTINUOUS
 10
115.9329163171
 20
371.5942920766
 11
117.1208294965
 21
371.8795157767
  0
LINE
  5
2F4
100
AcDbEntity
  8
0
100
AcDbLine
 62
7
  6
CONTINUOUS
 10
167.5637264749
 20
385.0964094271
 11
168.6053939363
 21
385.3091753778
  0
LINE
  5
2F5
100
AcDbEntity
  8
0
100
AcDbLine
 62
7
  6
CONTINUOUS
 10
157.5637264749
 20
385.0964094271
 11
158.6053927442
 21
385.3091753778
  0
LINE
  5
2F6
100
AcDbEntity
  8
0
100
AcDbLine
 62
7
  6
CONTINUOUS
 10
113.6479835618
 20
376.5308752612
 11
112.9051453568
 21
376.3898299897
  0
LINE
  5
2F7
100
AcDbEntity
  8
0
100
AcDbLine
 62
7
  6
CONTINUOUS
 10
116.7666497327
 20
377.2423696979
 11
117.5094879377
 21
377.3834149694
  0
LINE
  5
2F8
100
AcDbEntity
  8
0
100
AcDbLine
 62
7
  6
CONTINUOUS
 10
107.5610973463
 20
374.95743689
 11
106.5204967142
 21
374.8195256582
  0
LINE
  5
2F9
100
AcDbEntity
  8
0
100
AcDbLine
 62
7
  6
CONTINUOUS
 10
143.8137264749
 20
385.0964094271
 11
145.0637264749
 21
385.0964094271
  0
LINE
  5
2FA
100
AcDbEntity
  8
0
100
AcDbLine
 62
7
  6
CONTINUOUS
 10
150.2720596095
 20
385.0964094271
 11
151.7303933402
 21
385.0964094271
  0
LINE
  5
2FB
100
AcDbEntity
  8
0
100
AcDbLine
 62
7
  6
CONTINUOUS
 10
156.7303927442
 20
385.0964094271
 11
157.5637264749
 21
385.0964094271
  0
LINE
  5
2FC
100
AcDbEntity
  8
0
100
AcDbLine
 62
7
  6
CONTINUOUS
 10
162.5637264749
 20
385.0964094271
 11
167.5637264749
 21
385.0964094271
  0
LINE
  5
2FD
100
AcDbEntity
  8
0
100
AcDbLine
 62
7
  6
CONTINUOUS
 10
107.1254245303
 20
373.9199711405
 11
107.7209485416
 21
373.9137022183
  0
LINE
  5
2FE
100
AcDbEntity
  8
0
100
AcDbLine
 62
7
  6
CONTINUOUS
 10
112.3221583471
 20
375.2050500465
 11
113.5132063697
 21
375.192512202
  0
LINE
  5
2FF
100
AcDbEntity
  8
0
100
AcDbLine
 62
7
  6
CONTINUOUS
 10
118.0924749474
 20
378.5681949126
 11
116.9014269248
 21
378.5807327571
  0
LINE
  5
300
100
AcDbEntity
  8
0
100
AcDbLine
 62
7
  6
CONTINUOUS
 10
113.6103712928
 20
380.1040214362
 11
114.2058944611
 21
380.097751671
  0
LINE
  5
301
100
AcDbEntity
  8
0
100
AcDbLine
 62
7
  6
CONTINUOUS
 10
114.9393297042
 20
381.1320833809
 11
113.8955950324
 21
381.2919345762
  0
LINE
  5
302
100
AcDbEntity
  8
0
100
AcDbLine
 62
7
  6
CONTINUOUS
 10
155.6887264749
 20
385.3091753778
 11
156.7303927442
 21
385.0964094271
  0
LINE
  5
303
100
AcDbEntity
  8
0
100
AcDbLine
 62
7
  6
CONTINUOUS
 10
156.7303927442
 20
386.3730051686
 11
155.8970602056
 21
386.5857711007
  0
LINE
  5
304
100
AcDbEntity
  8
0
100
AcDbLine
 62
7
  6
CONTINUOUS
 10
154.8553927442
 20
385.7347072979
 11
155.6887264749
 21
385.3091753778
  0
LINE
  5
305
100
AcDbEntity
  8
0
100
AcDbLine
 62
7
  6
CONTINUOUS
 10
168.3970590135
 20
393.6070479026
 11
169.0220590135
 21
393.1815160384
  0
LINE
  5
306
100
AcDbEntity
  8
0
100
AcDbLine
 62
7
  6
CONTINUOUS
 10
207.9176793765
 20
370.0897340017
 11
209.9815109366
 21
368.0259024415
  0
LINE
  5
307
100
AcDbEntity
  8
0
100
AcDbLine
 62
7
  6
CONTINUOUS
 10
211.0498330137
 20
369.0942245186
 11
208.9876950711
 21
371.1563624612
  0
LINE
  5
308
100
AcDbEntity
  8
RUNDUNGEN
100
AcDbLine
 62
7
  6
CONTINUOUS
 10
255.3553944131
 20
294.8964094271
 11
255.3553944131
 21
288.8964094271
  0
LINE
  5
309
100
AcDbEntity
  8
0
100
AcDbLine
 62
7
  6
CONTINUOUS
 10
113.8955950324
 20
381.2919345762
 11
112.8549952433
 21
381.1540241873
  0
LINE
  5
30A
100
AcDbEntity
  8
0
100
AcDbLine
 62
7
  6
CONTINUOUS
 10
167.5637264749
 20
386.3730051686
 11
163.8137264749
 21
386.3730051686
  0
LINE
  5
30B
100
AcDbEntity
  8
0
100
AcDbLine
 62
7
  6
CONTINUOUS
 10
157.5637264749
 20
386.3730051686
 11
156.7303927442
 21
386.3730051686
  0
LINE
  5
30C
100
AcDbEntity
  8
0
100
AcDbLine
 62
7
  6
CONTINUOUS
 10
145.0637264749
 20
389.5644945969
 11
148.6053930422
 21
389.5644945969
  0
LINE
  5
30D
100
AcDbEntity
  8
0
100
AcDbLine
 62
7
  6
CONTINUOUS
 10
149.0220596095
 20
390.8410901894
 11
145.0637264749
 21
390.8410901894
  0
LINE
  5
30E
100
AcDbEntity
  8
0
100
AcDbLine
 62
7
  6
CONTINUOUS
 10
163.8137264749
 20
393.8198138346
 11
167.5637264749
 21
393.8198138346
  0
LINE
  5
30F
100
AcDbEntity
  8
0
100
AcDbLine
 62
7
  6
CONTINUOUS
 10
145.0637264749
 20
394.0325797667
 11
149.0220596095
 21
394.0325797667
  0
LINE
  5
310
100
AcDbEntity
  8
0
100
AcDbLine
 62
7
  6
CONTINUOUS
 10
167.5637264749
 20
395.0964094271
 11
162.5637264749
 21
395.0964094271
  0
LINE
  5
311
100
AcDbEntity
  8
0
100
AcDbLine
 62
7
  6
CONTINUOUS
 10
160.8970602056
 20
395.0964094271
 11
159.6470602056
 21
395.0964094271
  0
LINE
  5
312
100
AcDbEntity
  8
0
100
AcDbLine
 62
7
  6
CONTINUOUS
 10
154.6470602056
 20
395.0964094271
 11
153.3970596095
 21
395.0964094271
  0
LINE
  5
313
100
AcDbEntity
  8
0
100
AcDbLine
 62
7
  6
CONTINUOUS
 10
148.8137264749
 20
395.0964094271
 11
143.8137264749
 21
395.0964094271
  0
LINE
  5
314
100
AcDbEntity
  8
0
100
AcDbLine
 62
7
  6
CONTINUOUS
 10
149.8553933402
 20
394.8836434951
 11
148.8137264749
 21
395.0964094271
  0
LINE
  5
315
100
AcDbEntity
  8
0
100
AcDbLine
 62
7
  6
CONTINUOUS
 10
168.6053939363
 20
394.8836434951
 11
167.5637264749
 21
395.0964094271
  0
LINE
  5
316
100
AcDbEntity
  8
0
100
AcDbLine
 62
7
  6
CONTINUOUS
 10
167.5637264749
 20
393.8198138346
 11
168.3970590135
 21
393.6070479026
  0
LINE
  5
317
100
AcDbEntity
  8
0
100
AcDbLine
 62
7
  6
CONTINUOUS
 10
149.0220596095
 20
394.0325797667
 11
149.6470596095
 21
393.8198138346
  0
LINE
  5
318
100
AcDbEntity
  8
0
100
AcDbLine
 62
7
  6
CONTINUOUS
 10
169.4387264749
 20
394.4581116309
 11
168.6053939363
 21
394.8836434951
  0
LINE
  5
319
100
AcDbEntity
  8
RUNDUNGEN
100
AcDbLine
 62
7
  6
CONTINUOUS
 10
221.5586699736
 20
383.7805415197
 11
245.9662415537
 21
324.8554511865
  0
LINE
  5
31A
100
AcDbEntity
  8
BEZUGSACHSEN
100
AcDbLine
 62
7
  6
CONTINUOUS
 10
245.9662415537
 20
324.8554511865
 11
246.4352359554
 21
323.7231985411
  0
LINE
  5
31B
100
AcDbEntity
  8
KONSTRUKTIONSELEMENTE
100
AcDbLine
 62
7
  6
CONTINUOUS
 10
181.3553944131
 20
161.8964094271
 11
177.8553944131
 21
158.3964094271
  0
LINE
  5
31C
100
AcDbEntity
  8
RUNDUNGEN
100
AcDbLine
 62
7
  6
CONTINUOUS
 10
160.2223380095
 20
409.99589289
 11
217.0345773099
 21
388.1877174728
  0
LINE
  5
31D
100
AcDbEntity
  8
KONSTRUKTIONSELEMENTE
100
AcDbLine
 62
7
  6
CONTINUOUS
 10
411.030132439
 20
158.3964094271
 11
452.0296520341
 21
158.3964094271
  0
LINE
  5
31E
100
AcDbEntity
  8
KONSTRUKTIONSELEMENTE
100
AcDbLine
 62
7
  6
CONTINUOUS
 10
407.5298922366
 20
161.8964094271
 11
411.0298922366
 21
158.3964094271
  0
LINE
  5
31F
100
AcDbEntity
  8
KONSTRUKTIONSELEMENTE
100
AcDbLine
 62
7
  6
CONTINUOUS
 10
407.5298922366
 20
161.8964094271
 11
455.5298922366
 21
161.8964094271
  0
LINE
  5
320
100
AcDbEntity
  8
0
100
AcDbLine
 62
7
  6
CONTINUOUS
 10
369.59576067
 20
256.8942819641
 11
370.4832351783
 21
254.75172897
  0
LINE
  5
321
100
AcDbEntity
  8
0
100
AcDbLine
 62
7
  6
CONTINUOUS
 10
372.9566823812
 20
248.780299187
 11
374.1871859392
 21
245.8096008087
  0
LINE
  5
322
100
AcDbEntity
  8
0
100
AcDbLine
 62
7
  6
CONTINUOUS
 10
376.5448542219
 20
240.117686065
 11
377.3820944186
 21
238.0964094271
  0
LINE
  5
323
100
AcDbEntity
  8
BEZUGSACHSEN
100
AcDbLine
 62
7
  6
CONTINUOUS
 10
368.2168240043
 20
261.5298925292
 11
370.1369567702
 21
256.8942819641
  0
LINE
  5
324
100
AcDbEntity
  8
BEZUGSACHSEN
100
AcDbLine
 62
7
  6
CONTINUOUS
 10
374.7283820393
 20
245.8096008087
 11
377.086050322
 21
240.117686065
  0
LINE
  5
325
100
AcDbEntity
  8
BEZUGSACHSEN
100
AcDbLine
 62
7
  6
CONTINUOUS
 10
377.9232905188
 20
238.0964094271
 11
381.0298922366
 21
230.5964094271
  0
LINE
  5
326
100
AcDbEntity
  8
RUNDUNGEN
100
AcDbLine
 62
7
  6
CONTINUOUS
 10
383.5298922366
 20
288.8964094271
 11
383.5298922366
 21
294.8964094271
  0
LINE
  5
327
100
AcDbEntity
  8
KONSTRUKTIONSELEMENTE
100
AcDbLine
 62
7
  6
CONTINUOUS
 10
396.3298922366
 20
230.5964094271
 11
396.3298922366
 21
230.3964094271
  0
LINE
  5
328
100
AcDbEntity
  8
0
100
AcDbLine
 62
7
  6
CONTINUOUS
 10
401.5298922366
 20
288.8964094271
 11
401.5298922366
 21
294.8964094271
  0
LINE
  5
329
100
AcDbEntity
  8
RUNDUNGEN
100
AcDbLine
 62
7
  6
CONTINUOUS
 10
401.5298922366
 20
288.8964094271
 11
401.5298922366
 21
294.8964094271
  0
LINE
  5
32A
100
AcDbEntity
  8
KONSTRUKTIONSELEMENTE
100
AcDbLine
 62
7
  6
CONTINUOUS
 10
407.5298922366
 20
230.3964094271
 11
407.5298922366
 21
161.8964094271
  0
LINE
  5
32B
100
AcDbEntity
  8
KONSTRUKTIONSELEMENTE
100
AcDbLine
 62
7
  6
CONTINUOUS
 10
396.3298922366
 20
230.3964094271
 11
466.7298922366
 21
230.3964094271
  0
LINE
  5
32C
100
AcDbEntity
  8
BEZUGSACHSEN
100
AcDbLine
 62
7
  6
CONTINUOUS
 10
381.0299786328
 20
230.5964094271
 11
482.0298058403
 21
230.5964094271
  0
LINE
  5
32D
100
AcDbEntity
  8
0
100
AcDbLine
 62
7
  6
CONTINUOUS
 10
380.3302512449
 20
238.0964094271
 11
379.7660125469
 21
238.0964094271
  0
LINE
  5
32E
100
AcDbEntity
  8
0
100
AcDbLine
 62
7
  6
CONTINUOUS
 10
377.3820944232
 20
238.0964094271
 11
378.115883245
 21
238.0964094271
  0
LINE
  5
32F
100
AcDbEntity
  8
0
100
AcDbLine
 62
7
  6
CONTINUOUS
 10
483.1744879212
 20
238.0964094271
 11
484.3070167464
 21
238.0964094271
  0
LINE
  5
330
100
AcDbEntity
  8
0
100
AcDbLine
 62
7
  6
CONTINUOUS
 10
484.362640728
 20
238.0964094271
 11
485.6776900499
 21
238.0964094271
  0
LINE
  5
331
100
AcDbEntity
  8
0
100
AcDbLine
 62
7
  6
CONTINUOUS
 10
379.6319426403
 20
239.7134306525
 11
379.0682574591
 21
239.7134306525
  0
LINE
  5
332
100
AcDbEntity
  8
BEZUGSACHSEN
100
AcDbLine
 62
7
  6
CONTINUOUS
 10
412.5298922366
 20
304.6162582542
 11
412.5298922366
 21
403.527249478
  0
LINE
  5
333
100
AcDbEntity
  8
0
100
AcDbLine
 62
7
  6
CONTINUOUS
 10
486.5149033394
 20
240.117686065
 11
486.1801297623
 21
240.117686065
  0
LINE
  5
334
100
AcDbEntity
  8
0
100
AcDbLine
 62
7
  6
CONTINUOUS
 10
378.9171616045
 20
240.117686065
 11
378.3588802406
 21
240.117686065
  0
LINE
  5
335
100
AcDbEntity
  8
0
100
AcDbLine
 62
7
  6
CONTINUOUS
 10
377.2759202459
 20
240.117686065
 11
376.5448811338
 21
240.117686065
  0
LINE
  5
336
100
AcDbEntity
  8
0
100
AcDbLine
 62
7
  6
CONTINUOUS
 10
485.2109426887
 20
240.117686065
 11
485.7591038718
 21
240.117686065
  0
LINE
  5
337
100
AcDbEntity
  8
0
100
AcDbLine
 62
7
  6
CONTINUOUS
 10
378.2842517866
 20
240.926196607
 11
377.7289130933
 21
240.926196607
  0
LINE
  5
338
100
AcDbEntity
  8
0
100
AcDbLine
 62
7
  6
CONTINUOUS
 10
377.6794572047
 20
242.138962703
 11
377.1252016343
 21
242.138962703
  0
LINE
  5
339
100
AcDbEntity
  8
0
100
AcDbLine
 62
7
  6
CONTINUOUS
 10
373.5027112961
 20
249.0113028755
 11
372.9606608438
 21
249.0113028755
  0
LINE
  5
33A
100
AcDbEntity
  8
0
100
AcDbLine
 62
7
  6
CONTINUOUS
 10
373.1855339292
 20
249.4155581464
 11
373.6614797008
 21
249.4155581464
  0
LINE
  5
33B
100
AcDbEntity
  8
0
100
AcDbLine
 62
7
  6
CONTINUOUS
 10
374.0424572732
 20
249.4155581464
 11
375.6768963847
 21
249.4155581464
  0
LINE
  5
33C
100
AcDbEntity
  8
0
100
AcDbLine
 62
7
  6
CONTINUOUS
 10
372.848048878
 20
250.2240686884
 11
372.5063890676
 21
250.2240686884
  0
LINE
  5
33D
100
AcDbEntity
  8
0
100
AcDbLine
 62
7
  6
CONTINUOUS
 10
490.1599349002
 20
250.2240686884
 11
490.6815976886
 21
250.2240686884
  0
LINE
  5
33E
100
AcDbEntity
  8
0
100
AcDbLine
 62
7
  6
CONTINUOUS
 10
374.9803765789
 20
251.0325792303
 11
373.3583093957
 21
251.0325792303
  0
LINE
  5
33F
100
AcDbEntity
  8
0
100
AcDbLine
 62
7
  6
CONTINUOUS
 10
372.9814627797
 20
251.0325792303
 11
372.5105910469
 21
251.0325792303
  0
LINE
  5
340
100
AcDbEntity
  8
0
100
AcDbLine
 62
7
  6
CONTINUOUS
 10
488.0794084684
 20
251.0325792303
 11
488.6417189296
 21
251.0325792303
  0
LINE
  5
341
100
AcDbEntity
  8
0
100
AcDbLine
 62
7
  6
CONTINUOUS
 10
372.4055397536
 20
251.8410897722
 11
371.8628779189
 21
251.8410897722
  0
LINE
  5
342
100
AcDbEntity
  8
0
100
AcDbLine
 62
7
  6
CONTINUOUS
 10
490.8297269638
 20
251.8410897722
 11
491.327432681
 21
251.8410897722
  0
LINE
  5
343
100
AcDbEntity
  8
0
100
AcDbLine
 62
7
  6
CONTINUOUS
 10
372.0697310315
 20
252.6496014466
 11
371.5270843461
 21
252.6496014466
  0
LINE
  5
344
100
AcDbEntity
  8
0
100
AcDbLine
 62
7
  6
CONTINUOUS
 10
490.5213429179
 20
252.6496014466
 11
491.662553129
 21
252.6496014466
  0
LINE
  5
345
100
AcDbEntity
  8
0
100
AcDbLine
 62
7
  6
CONTINUOUS
 10
491.9025396286
 20
253.8623672595
 11
492.1890794995
 21
253.8623672595
  0
LINE
  5
346
100
AcDbEntity
  8
0
100
AcDbLine
 62
7
  6
CONTINUOUS
 10
372.5431815722
 20
254.2666225304
 11
371.6220699774
 21
254.2666225304
  0
LINE
  5
347
100
AcDbEntity
  8
0
100
AcDbLine
 62
7
  6
CONTINUOUS
 10
371.3705301751
 20
254.2666225304
 11
370.8281405856
 21
254.2666225304
  0
LINE
  5
348
100
AcDbEntity
  8
0
100
AcDbLine
 62
7
  6
CONTINUOUS
 10
489.4706934015
 20
254.2666225304
 11
490.0320942068
 21
254.2666225304
  0
LINE
  5
349
100
AcDbEntity
  8
0
100
AcDbLine
 62
7
  6
CONTINUOUS
 10
491.2521943939
 20
254.2666225304
 11
491.7982102531
 21
254.2666225304
  0
LINE
  5
34A
100
AcDbEntity
  8
0
100
AcDbLine
 62
7
  6
CONTINUOUS
 10
492.3424422486
 20
254.6708778014
 11
492.5418725439
 21
254.6708778014
  0
LINE
  5
34B
100
AcDbEntity
  8
0
100
AcDbLine
 62
7
  6
CONTINUOUS
 10
492.6347599054
 20
255.0751330723
 11
492.6915687467
 21
255.0751330723
  0
LINE
  5
34C
100
AcDbEntity
  8
0
100
AcDbLine
 62
7
  6
CONTINUOUS
 10
370.6137511503
 20
255.8836436143
 11
370.0720819301
 21
255.8836436143
  0
LINE
  5
34D
100
AcDbEntity
  8
0
100
AcDbLine
 62
7
  6
CONTINUOUS
 10
492.1189601905
 20
255.8836436143
 11
492.6633024992
 21
255.8836436143
  0
LINE
  5
34E
100
AcDbEntity
  8
0
100
AcDbLine
 62
7
  6
CONTINUOUS
 10
370.2313140149
 20
256.6921541562
 11
369.6900318569
 21
256.6921541562
  0
LINE
  5
34F
100
AcDbEntity
  8
0
100
AcDbLine
 62
7
  6
CONTINUOUS
 10
492.6074449152
 20
256.6921541562
 11
493.1505190328
 21
256.6921541562
  0
LINE
  5
350
100
AcDbEntity
  8
0
100
AcDbLine
 62
7
  6
CONTINUOUS
 10
370.0532328337
 20
257.0964094271
 11
369.5225573914
 21
257.0964094271
  0
LINE
  5
351
100
AcDbEntity
  8
0
100
AcDbLine
 62
7
  6
CONTINUOUS
 10
491.2845216851
 20
257.0964094271
 11
492.3417486051
 21
257.0964094271
  0
LINE
  5
352
100
AcDbEntity
  8
0
100
AcDbLine
 62
7
  6
CONTINUOUS
 10
492.9488179461
 20
257.0964094271
 11
493.5372270818
 21
257.0964094271
  0
LINE
  5
353
100
AcDbEntity
  8
RUNDUNGEN
100
AcDbLine
 62
7
  6
CONTINUOUS
 10
450.5298922366
 20
304.6162582542
 11
450.5298922366
 21
403.527249478
  0
LINE
  5
354
100
AcDbEntity
  8
0
100
AcDbLine
 62
7
  6
CONTINUOUS
 10
451.0298922366
 20
395.0964094271
 11
451.0298922366
 21
385.0964094271
  0
LINE
  5
355
100
AcDbEntity
  8
0
100
AcDbLine
 62
7
  6
CONTINUOUS
 10
451.0298922366
 20
381.2919345762
 11
451.0298922366
 21
358.9127577534
  0
LINE
  5
356
100
AcDbEntity
  8
KONSTRUKTIONSELEMENTE
100
AcDbLine
 62
7
  6
CONTINUOUS
 10
455.5298922366
 20
230.3964094271
 11
455.5298922366
 21
161.8964094271
  0
LINE
  5
357
100
AcDbEntity
  8
RUNDUNGEN
100
AcDbLine
 62
7
  6
CONTINUOUS
 10
490.1874182729
 20
270.9702073519
 11
472.7654101495
 21
275.6384203591
  0
LINE
  5
358
100
AcDbEntity
  8
RUNDUNGEN
100
AcDbLine
 62
7
  6
CONTINUOUS
 10
461.5298922366
 20
288.8964094271
 11
461.5298922366
 21
294.8964094271
  0
LINE
  5
359
100
AcDbEntity
  8
KONSTRUKTIONSELEMENTE
100
AcDbLine
 62
7
  6
CONTINUOUS
 10
466.7298922366
 20
230.5964094271
 11
466.7298922366
 21
230.3964094271
  0
LINE
  5
35A
100
AcDbEntity
  8
BEZUGSACHSEN
100
AcDbLine
 62
7
  6
CONTINUOUS
 10
372.8723662002
 20
270.9702073519
 11
390.2943743237
 21
275.6384203591
  0
LINE
  5
35B
100
AcDbEntity
  8
RUNDUNGEN
100
AcDbLine
 62
7
  6
CONTINUOUS
 10
478.5298922366
 20
287.8964094271
 11
455.6226903169
 21
287.8964094271
  0
LINE
  5
35C
100
AcDbEntity
  8
RUNDUNGEN
100
AcDbLine
 62
7
  6
CONTINUOUS
 10
407.4345449312
 20
287.8964094271
 11
384.5298922366
 21
287.8964094271
  0
LINE
  5
35D
100
AcDbEntity
  8
RUNDUNGEN
100
AcDbLine
 62
7
  6
CONTINUOUS
 10
384.5298922366
 20
295.8964094271
 11
411.2282138212
 21
295.8964094271
  0
LINE
  5
35E
100
AcDbEntity
  8
RUNDUNGEN
100
AcDbLine
 62
7
  6
CONTINUOUS
 10
451.8256386946
 20
295.8964094271
 11
478.5298922366
 21
295.8964094271
  0
LINE
  5
35F
100
AcDbEntity
  8
RUNDUNGEN
100
AcDbLine
 62
7
  6
CONTINUOUS
 10
479.5298922366
 20
288.8964094271
 11
479.5298922366
 21
294.8964094271
  0
LINE
  5
360
100
AcDbEntity
  8
0
100
AcDbLine
 62
7
  6
CONTINUOUS
 10
490.6815976886
 20
250.2240686884
 11
490.1024375227
 21
248.7804241673
  0
LINE
  5
361
100
AcDbEntity
  8
0
100
AcDbLine
 62
7
  6
CONTINUOUS
 10
482.0298922366
 20
230.5964094271
 11
485.1364939544
 21
238.0964094271
  0
LINE
  5
362
100
AcDbEntity
  8
0
100
AcDbLine
 62
7
  6
CONTINUOUS
 10
489.5619059918
 20
248.780299187
 11
491.1646234647
 21
252.6496014466
  0
LINE
  5
363
100
AcDbEntity
  8
0
100
AcDbLine
 62
7
  6
CONTINUOUS
 10
493.0065516395
 20
257.0964094271
 11
494.8429604689
 21
261.5298925292
  0
LINE
  5
364
100
AcDbEntity
  8
0
100
AcDbLine
 62
7
  6
CONTINUOUS
 10
485.6776900545
 20
238.0964094271
 11
486.5149302512
 21
240.117686065
  0
LINE
  5
365
100
AcDbEntity
  8
0
100
AcDbLine
 62
7
  6
CONTINUOUS
 10
488.872598534
 20
245.8096008087
 11
490.103102092
 21
248.780299187
  0
LINE
  5
366
100
AcDbEntity
  8
0
100
AcDbLine
 62
7
  6
CONTINUOUS
 10
492.6994146583
 20
255.0483521968
 11
493.4640238031
 21
256.8942819641
  0
LINE
  5
367
100
AcDbEntity
  8
0
100
AcDbLine
 62
7
  6
CONTINUOUS
 10
450.5298922366
 20
358.9127577534
 11
451.0298922366
 21
358.9127577534
  0
LINE
  5
368
100
AcDbEntity
  8
0
100
AcDbLine
 62
7
  6
CONTINUOUS
 10
450.5298922366
 20
363.626802891
 11
451.0298922366
 21
363.626802891
  0
LINE
  5
369
100
AcDbEntity
  8
0
100
AcDbLine
 62
7
  6
CONTINUOUS
 10
450.5298922366
 20
364.5106863675
 11
451.0298922366
 21
364.5106863675
  0
LINE
  5
36A
100
AcDbEntity
  8
0
100
AcDbLine
 62
7
  6
CONTINUOUS
 10
450.5298922366
 20
368.6354757839
 11
451.0298922366
 21
368.6354757839
  0
LINE
  5
36B
100
AcDbEntity
  8
0
100
AcDbLine
 62
7
  6
CONTINUOUS
 10
450.5298922366
 20
369.5193592604
 11
451.0298922366
 21
369.5193592604
  0
LINE
  5
36C
100
AcDbEntity
  8
0
100
AcDbLine
 62
7
  6
CONTINUOUS
 10
450.5298922366
 20
370.6978707029
 11
451.0298922366
 21
370.6978707029
  0
LINE
  5
36D
100
AcDbEntity
  8
0
100
AcDbLine
 62
7
  6
CONTINUOUS
 10
450.5298922366
 20
374.2334046088
 11
451.0298922366
 21
374.2334046088
  0
LINE
  5
36E
100
AcDbEntity
  8
KONSTRUKTIONSELEMENTE
100
AcDbLine
 62
7
  6
CONTINUOUS
 10
455.5298922366
 20
161.8964094271
 11
452.0298922366
 21
158.3964094271
  0
LINE
  5
36F
100
AcDbEntity
  8
0
100
AcDbLine
 62
7
  6
CONTINUOUS
 10
450.5298922366
 20
374.8195256582
 11
451.0298922366
 21
374.8195256582
  0
LINE
  5
370
100
AcDbEntity
  8
0
100
AcDbLine
 62
7
  6
CONTINUOUS
 10
450.5298922366
 20
374.95743689
 11
451.0298922366
 21
374.95743689
  0
LINE
  5
371
100
AcDbEntity
  8
0
100
AcDbLine
 62
7
  6
CONTINUOUS
 10
450.5298922366
 20
375.192512202
 11
451.0298922366
 21
375.192512202
  0
LINE
  5
372
100
AcDbEntity
  8
0
100
AcDbLine
 62
7
  6
CONTINUOUS
 10
450.5298922366
 20
375.2050500465
 11
451.0298922366
 21
375.2050500465
  0
LINE
  5
373
100
AcDbEntity
  8
0
100
AcDbLine
 62
7
  6
CONTINUOUS
 10
450.5298922366
 20
375.6595279434
 11
451.0298922366
 21
375.6595279434
  0
LINE
  5
374
100
AcDbEntity
  8
0
100
AcDbLine
 62
7
  6
CONTINUOUS
 10
450.5298922366
 20
376.2613212984
 11
451.0298922366
 21
376.2613212984
  0
LINE
  5
375
100
AcDbEntity
  8
0
100
AcDbLine
 62
7
  6
CONTINUOUS
 10
450.5298922366
 20
377.0104292685
 11
451.0298922366
 21
377.0104292685
  0
LINE
  5
376
100
AcDbEntity
  8
0
100
AcDbLine
 62
7
  6
CONTINUOUS
 10
450.5298922366
 20
378.2014772911
 11
451.0298922366
 21
378.2014772911
  0
LINE
  5
377
100
AcDbEntity
  8
0
100
AcDbLine
 62
7
  6
CONTINUOUS
 10
450.5298922366
 20
379.0916288469
 11
451.0298922366
 21
379.0916288469
  0
LINE
  5
378
100
AcDbEntity
  8
0
100
AcDbLine
 62
7
  6
CONTINUOUS
 10
450.5298922366
 20
379.8313338552
 11
451.0298922366
 21
379.8313338552
  0
LINE
  5
379
100
AcDbEntity
  8
0
100
AcDbLine
 62
7
  6
CONTINUOUS
 10
450.5298922366
 20
380.567902295
 11
451.0298922366
 21
380.567902295
  0
LINE
  5
37A
100
AcDbEntity
  8
0
100
AcDbLine
 62
7
  6
CONTINUOUS
 10
450.5298922366
 20
381.1540241873
 11
451.0298922366
 21
381.1540241873
  0
LINE
  5
37B
100
AcDbEntity
  8
0
100
AcDbLine
 62
7
  6
CONTINUOUS
 10
450.5298922366
 20
381.2919345762
 11
451.0298922366
 21
381.2919345762
  0
LINE
  5
37C
100
AcDbEntity
  8
0
100
AcDbLine
 62
7
  6
CONTINUOUS
 10
450.5298922366
 20
385.0964094271
 11
451.0298922366
 21
385.0964094271
  0
LINE
  5
37D
100
AcDbEntity
  8
0
100
AcDbLine
 62
7
  6
CONTINUOUS
 10
450.5298922366
 20
395.0964094271
 11
451.0298922366
 21
395.0964094271
  0
LINE
  5
37E
100
AcDbEntity
  8
RUNDUNGEN
100
AcDbLine
 62
7
  6
CONTINUOUS
 10
443.5298922366
 20
410.527249478
 11
419.5298922366
 21
410.527249478
  0
LWPOLYLINE
  5
37F
100
AcDbEntity
  8
RUNDUNGEN
100
AcDbPolyline
 62
7
  6
CONTINUOUS
 90
7
 70
0
 10
67.6665900201
 20
69.6467673087
 10
67.6785814661
 20
67.6822369143
 10
67.7188966569
 20
65.5416682311
 10
67.7880419744
 20
63.3886548841
 10
67.8863423291
 20
61.2256316855
 10
68.0140177882
 20
59.0550021695
 10
68.1534813602
 20
57.1054611365
  0
LWPOLYLINE
  5
380
100
AcDbEntity
  8
BEZUGSACHSEN
100
AcDbPolyline
 62
7
  6
CONTINUOUS
 90
7
 70
0
 10
68.1534813602
 20
82.1880734809
 10
68.0140177882
 20
80.2385324478
 10
67.8863423291
 20
78.0679029318
 10
67.7880419744
 20
75.9048797332
 10
67.7188966569
 20
73.7518663863
 10
67.6785814661
 20
71.6112977031
 10
67.6665900201
 20
69.6467673087
  0
LWPOLYLINE
  5
381
100
AcDbEntity
  8
BEZUGSACHSEN
100
AcDbPolyline
 62
7
  6
CONTINUOUS
 90
21
 70
0
 10
92.1672581027
 20
98.1199926407
 10
91.2435772247
 20
97.0344149916
 10
90.3719042835
 20
96.0185834718
 10
89.5473712125
 20
95.0708930583
 10
88.7629076469
 20
94.1866066466
 10
88.0208637266
 20
93.3710162299
 10
87.321156552
 20
92.6256567639
 10
86.6653523463
 20
91.9527840865
 10
86.0555695859
 20
91.3539513183
 10
85.4909535242
 20
90.8266716239
 10
84.9734306684
 20
90.3701477361
 10
84.4985901723
 20
89.9773393927
 10
84.0643792824
 20
89.643337519
 10
83.6701337174
 20
89.364212597
 10
83.3152667184
 20
89.1359181577
 10
83.0028919441
 20
88.9563441357
 10
82.7357788908
 20
88.8221990193
 10
82.5197990581
 20
88.7304463464
 10
82.3613906034
 20
88.6761806519
 10
82.2640401899
 20
88.651329948
 10
82.2368423474
 20
88.6467673087
  0
LWPOLYLINE
  5
382
100
AcDbEntity
  8
BEZUGSACHSEN
100
AcDbPolyline
 62
7
  6
CONTINUOUS
 90
11
 70
0
 10
107.1676943626
 20
114.2401410465
 10
105.5309438179
 20
112.7142032266
 10
103.8420748149
 20
111.073119048
 10
102.2252771426
 20
109.4389196943
 10
100.6857009348
 20
107.8262897795
 10
99.2255522584
 20
106.2478785123
 10
97.8468600371
 20
104.7167745994
 10
96.5505191194
 20
103.2449831587
 10
95.3362591896
 20
101.842624878
 10
94.206345807
 20
100.5219498137
 10
92.1672581027
 20
98.1199926407
  0
LINE
  5
383
100
AcDbEntity
  8
0
100
AcDbLine
 62
7
  6
CONTINUOUS
 10
95.0268774802
 20
50.6467673087
 11
95.0268774802
 21
50.1467673087
  0
LINE
  5
384
100
AcDbEntity
  8
0
100
AcDbLine
 62
7
  6
CONTINUOUS
 10
95.9107609567
 20
50.6467673087
 11
95.9107609567
 21
50.1467673087
  0
LINE
  5
385
100
AcDbEntity
  8
0
100
AcDbLine
 62
7
  6
CONTINUOUS
 10
100.0355503731
 20
50.6467673087
 11
100.0355503731
 21
50.1467673087
  0
LINE
  5
386
100
AcDbEntity
  8
0
100
AcDbLine
 62
7
  6
CONTINUOUS
 10
100.9194338496
 20
50.6467673087
 11
100.9194338496
 21
50.1467673087
  0
LINE
  5
387
100
AcDbEntity
  8
0
100
AcDbLine
 62
7
  6
CONTINUOUS
 10
102.0979452921
 20
50.6467673087
 11
102.0979452921
 21
50.1467673087
  0
LINE
  5
388
100
AcDbEntity
  8
0
100
AcDbLine
 62
7
  6
CONTINUOUS
 10
105.633479198
 20
50.6467673087
 11
105.633479198
 21
50.1467673087
  0
LINE
  5
389
100
AcDbEntity
  8
0
100
AcDbLine
 62
7
  6
CONTINUOUS
 10
106.5204967142
 20
50.6467673087
 11
106.5204967142
 21
50.1467673087
  0
LINE
  5
38A
100
AcDbEntity
  8
0
100
AcDbLine
 62
7
  6
CONTINUOUS
 10
107.5610973463
 20
50.6467673087
 11
107.5610973463
 21
50.1467673087
  0
LINE
  5
38B
100
AcDbEntity
  8
0
100
AcDbLine
 62
7
  6
CONTINUOUS
 10
108.604832018
 20
50.6467673087
 11
108.604832018
 21
50.1467673087
  0
LINE
  5
38C
100
AcDbEntity
  8
0
100
AcDbLine
 62
7
  6
CONTINUOUS
 10
109.2034909119
 20
50.6467673087
 11
109.2034909119
 21
50.1467673087
  0
LINE
  5
38D
100
AcDbEntity
  8
0
100
AcDbLine
 62
7
  6
CONTINUOUS
 10
109.8052842669
 20
50.6467673087
 11
109.8052842669
 21
50.1467673087
  0
LINE
  5
38E
100
AcDbEntity
  8
0
100
AcDbLine
 62
7
  6
CONTINUOUS
 10
110.1093147733
 20
50.6467673087
 11
110.1093147733
 21
50.1467673087
  0
LINE
  5
38F
100
AcDbEntity
  8
0
100
AcDbLine
 62
7
  6
CONTINUOUS
 10
110.2691659686
 20
50.6467673087
 11
110.2691659686
 21
50.1467673087
  0
LINE
  5
390
100
AcDbEntity
  8
0
100
AcDbLine
 62
7
  6
CONTINUOUS
 10
110.5042412806
 20
50.6467673087
 11
110.5042412806
 21
50.1467673087
  0
LINE
  5
391
100
AcDbEntity
  8
0
100
AcDbLine
 62
7
  6
CONTINUOUS
 10
110.7925999028
 20
50.6467673087
 11
110.7925999028
 21
50.1467673087
  0
LINE
  5
392
100
AcDbEntity
  8
0
100
AcDbLine
 62
7
  6
CONTINUOUS
 10
111.2314084444
 20
50.6467673087
 11
111.2314084444
 21
50.1467673087
  0
LINE
  5
393
100
AcDbEntity
  8
0
100
AcDbLine
 62
7
  6
CONTINUOUS
 10
111.9679768842
 20
50.6467673087
 11
111.9679768842
 21
50.1467673087
  0
LINE
  5
394
100
AcDbEntity
  8
0
100
AcDbLine
 62
7
  6
CONTINUOUS
 10
112.8549952433
 20
50.6467673087
 11
112.8549952433
 21
50.1467673087
  0
LINE
  5
395
100
AcDbEntity
  8
0
100
AcDbLine
 62
7
  6
CONTINUOUS
 10
113.8955950324
 20
50.6467673087
 11
113.8955950324
 21
50.1467673087
  0
LWPOLYLINE
  5
396
100
AcDbEntity
  8
RUNDUNGEN
100
AcDbPolyline
 62
7
  6
CONTINUOUS
 90
10
 70
0
 10
94.2064859658
 20
38.7714202725
 10
95.3361857469
 20
37.4509951475
 10
96.5500740547
 20
36.0490615697
 10
97.8459809637
 20
34.5777480289
 10
99.2242490141
 20
33.0470853472
 10
100.6840662705
 20
31.4689856847
 10
102.2235005612
 20
29.8564443244
 10
103.8404466078
 20
28.2220303447
 10
105.529909259
 20
26.5803159607
 10
107.167694341
 20
25.0533935906
  0
LINE
  5
397
100
AcDbEntity
  8
RUNDUNGEN
100
AcDbLine
 62
7
  6
CONTINUOUS
 10
91.2437229907
 20
42.2589488889
 11
94.2064859658
 21
38.7714202725
  0
LINE
  5
398
100
AcDbEntity
  8
0
100
AcDbLine
 62
7
  6
CONTINUOUS
 10
114.9393297042
 20
50.6467673087
 11
114.9393297042
 21
50.1467673087
  0
LINE
  5
399
100
AcDbEntity
  8
0
100
AcDbLine
 62
7
  6
CONTINUOUS
 10
115.537989441
 20
50.6467673087
 11
115.537989441
 21
50.1467673087
  0
LINE
  5
39A
100
AcDbEntity
  8
0
100
AcDbLine
 62
7
  6
CONTINUOUS
 10
116.0112736832
 20
50.6467673087
 11
116.0112736832
 21
50.1467673087
  0
LINE
  5
39B
100
AcDbEntity
  8
0
100
AcDbLine
 62
7
  6
CONTINUOUS
 10
116.9014269248
 20
50.6467673087
 11
116.9014269248
 21
50.1467673087
  0
LINE
  5
39C
100
AcDbEntity
  8
0
100
AcDbLine
 62
7
  6
CONTINUOUS
 10
118.0924749474
 20
50.6467673087
 11
118.0924749474
 21
50.1467673087
  0
LINE
  5
39D
100
AcDbEntity
  8
0
100
AcDbLine
 62
7
  6
CONTINUOUS
 10
118.9888964791
 20
50.6467673087
 11
118.9888964791
 21
50.1467673087
  0
LINE
  5
39E
100
AcDbEntity
  8
0
100
AcDbLine
 62
7
  6
CONTINUOUS
 10
119.741137646
 20
50.6467673087
 11
119.741137646
 21
50.1467673087
  0
LINE
  5
39F
100
AcDbEntity
  8
0
100
AcDbLine
 62
7
  6
CONTINUOUS
 10
120.0483022974
 20
50.6467673087
 11
120.0483022974
 21
50.1467673087
  0
LINE
  5
3A0
100
AcDbEntity
  8
0
100
AcDbLine
 62
7
  6
CONTINUOUS
 10
120.0608401946
 20
50.6467673087
 11
120.0608401946
 21
50.1467673087
  0
LINE
  5
3A1
100
AcDbEntity
  8
0
100
AcDbLine
 62
7
  6
CONTINUOUS
 10
159.8553939363
 20
101.1467673087
 11
158.589738661
 21
99.6926102064
  0
LWPOLYLINE
  5
3A2
100
AcDbEntity
  8
RUNDUNGEN
100
AcDbPolyline
 62
7
  6
CONTINUOUS
 90
38
 70
0
 10
107.1676973644
 20
25.0533886365
 10
109.2046985999
 20
23.2630710814
 10
111.4298213598
 20
21.4551218989
 10
113.7290439627
 20
19.7337694134
 10
116.098947508
 20
18.1015454983
 10
118.5362137895
 20
16.5608071603
 10
121.036803726
 20
15.1145121092
 10
123.5965964371
 20
13.7654495616
 10
126.2112722092
 20
12.5157410183
 10
128.8764630799
 20
11.367383247
 10
131.588161248
 20
10.3223613421
 10
134.3421052182
 20
9.3826098116
 10
137.1338390023
 20
8.549514275
 10
139.9588450079
 20
7.8243904826
 10
142.8131362561
 20
7.2084872453
 10
145.6928529132
 20
6.7029449936
 10
148.5926088843
 20
6.3087460464
 10
151.5073231979
 20
6.0266576181
 10
154.4321517617
 20
5.8572637332
 10
157.3622499975
 20
5.8009499914
 10
160.2923315698
 20
5.8577929152
 10
163.2171109445
 20
6.0277139406
 10
166.131752203
 20
6.3103259788
 10
169.031413447
 20
6.7050444111
 10
171.9110131302
 20
7.2111016728
 10
174.7651708943
 20
7.8275152431
 10
177.5900296849
 20
8.5531442935
 10
180.3816018708
 20
9.3867407013
 10
183.1353680687
 20
10.326989219
 10
185.8468754591
 20
11.3725042463
 10
188.5118609113
 20
12.5213491083
 10
191.1263142053
 20
13.7715387154
 10
193.6858639288
 20
15.1210754712
 10
196.1861887068
 20
16.5678344398
 10
198.6231650804
 20
18.1090214322
 10
200.9927521875
 20
19.7416768695
 10
203.2916340585
 20
21.4634442781
 10
203.5171715342
 20
21.6467673087
  0
LINE
  5
3A3
100
AcDbEntity
  8
0
100
AcDbLine
 62
7
  6
CONTINUOUS
 10
149.6053944131
 20
101.1467673087
 11
148.6219344083
 21
98.3344901955
  0
LINE
  5
3A4
100
AcDbEntity
  8
0
100
AcDbLine
 62
7
  6
CONTINUOUS
 10
139.8553944131
 20
101.1467673087
 11
139.8553944131
 21
94.0080427699
  0
LINE
  5
3A5
100
AcDbEntity
  8
0
100
AcDbLine
 62
7
  6
CONTINUOUS
 10
141.3553944131
 20
95.0208439469
 11
141.3553944131
 21
98.5935761237
  0
LINE
  5
3A6
100
AcDbEntity
  8
0
100
AcDbLine
 62
7
  6
CONTINUOUS
 10
143.8137264749
 20
50.6467673087
 11
143.8137264749
 21
50.1467673087
  0
LINE
  5
3A7
100
AcDbEntity
  8
RUNDUNGEN
100
AcDbLine
 62
7
  6
CONTINUOUS
 10
187.9495114947
 20
21.6467673087
 11
237.8553944131
 21
21.6467673087
  0
LINE
  5
3A8
100
AcDbEntity
  8
0
100
AcDbLine
 62
7
  6
CONTINUOUS
 10
148.8137264749
 20
50.6467673087
 11
148.8137264749
 21
50.1467673087
  0
LINE
  5
3A9
100
AcDbEntity
  8
0
100
AcDbLine
 62
7
  6
CONTINUOUS
 10
149.8553933402
 20
50.6467673087
 11
149.8553933402
 21
50.1467673087
  0
LINE
  5
3AA
100
AcDbEntity
  8
0
100
AcDbLine
 62
7
  6
CONTINUOUS
 10
150.6887264749
 20
50.6467673087
 11
150.6887264749
 21
50.1467673087
  0
LINE
  5
3AB
100
AcDbEntity
  8
0
100
AcDbLine
 62
7
  6
CONTINUOUS
 10
151.3137264749
 20
50.6467673087
 11
151.3137264749
 21
50.1467673087
  0
LINE
  5
3AC
100
AcDbEntity
  8
0
100
AcDbLine
 62
7
  6
CONTINUOUS
 10
151.5220596095
 20
50.6467673087
 11
151.5220596095
 21
50.1467673087
  0
LINE
  5
3AD
100
AcDbEntity
  8
0
100
AcDbLine
 62
7
  6
CONTINUOUS
 10
151.7303933402
 20
50.6467673087
 11
151.7303933402
 21
50.1467673087
  0
LINE
  5
3AE
100
AcDbEntity
  8
0
100
AcDbLine
 62
7
  6
CONTINUOUS
 10
151.8553944131
 20
99.1346189479
 11
151.8553944131
 21
101.1467673087
  0
LINE
  5
3AF
100
AcDbEntity
  8
0
100
AcDbLine
 62
7
  6
CONTINUOUS
 10
153.3970596095
 20
50.6467673087
 11
153.3970596095
 21
50.1467673087
  0
LINE
  5
3B0
100
AcDbEntity
  8
0
100
AcDbLine
 62
7
  6
CONTINUOUS
 10
154.6470602056
 20
50.6467673087
 11
154.6470602056
 21
50.1467673087
  0
LINE
  5
3B1
100
AcDbEntity
  8
0
100
AcDbLine
 62
7
  6
CONTINUOUS
 10
154.8553927442
 20
50.6467673087
 11
154.8553927442
 21
50.1467673087
  0
LINE
  5
3B2
100
AcDbEntity
  8
0
100
AcDbLine
 62
7
  6
CONTINUOUS
 10
155.2720602056
 20
50.6467673087
 11
155.2720602056
 21
50.1467673087
  0
LINE
  5
3B3
100
AcDbEntity
  8
0
100
AcDbLine
 62
7
  6
CONTINUOUS
 10
155.8970602056
 20
50.6467673087
 11
155.8970602056
 21
50.1467673087
  0
LINE
  5
3B4
100
AcDbEntity
  8
0
100
AcDbLine
 62
7
  6
CONTINUOUS
 10
156.7303927442
 20
50.6467673087
 11
156.7303927442
 21
50.1467673087
  0
LINE
  5
3B5
100
AcDbEntity
  8
0
100
AcDbLine
 62
7
  6
CONTINUOUS
 10
157.5637264749
 20
50.6467673087
 11
157.5637264749
 21
50.1467673087
  0
LINE
  5
3B6
100
AcDbEntity
  8
0
100
AcDbLine
 62
7
  6
CONTINUOUS
 10
158.3970602056
 20
50.6467673087
 11
158.3970602056
 21
50.1467673087
  0
LINE
  5
3B7
100
AcDbEntity
  8
0
100
AcDbLine
 62
7
  6
CONTINUOUS
 10
159.0220602056
 20
50.6467673087
 11
159.0220602056
 21
50.1467673087
  0
LINE
  5
3B8
100
AcDbEntity
  8
0
100
AcDbLine
 62
7
  6
CONTINUOUS
 10
159.4387264749
 20
50.6467673087
 11
159.4387264749
 21
50.1467673087
  0
LINE
  5
3B9
100
AcDbEntity
  8
0
100
AcDbLine
 62
7
  6
CONTINUOUS
 10
159.6470602056
 20
50.6467673087
 11
159.6470602056
 21
50.1467673087
  0
LINE
  5
3BA
100
AcDbEntity
  8
0
100
AcDbLine
 62
7
  6
CONTINUOUS
 10
160.8970602056
 20
50.6467673087
 11
160.8970602056
 21
50.1467673087
  0
LINE
  5
3BB
100
AcDbEntity
  8
0
100
AcDbLine
 62
7
  6
CONTINUOUS
 10
161.3553939363
 20
100.1199376055
 11
161.3553939363
 21
101.1467673087
  0
LINE
  5
3BC
100
AcDbEntity
  8
0
100
AcDbLine
 62
7
  6
CONTINUOUS
 10
162.5637264749
 20
50.6467673087
 11
162.5637264749
 21
50.1467673087
  0
LINE
  5
3BD
100
AcDbEntity
  8
0
100
AcDbLine
 62
7
  6
CONTINUOUS
 10
167.5637264749
 20
50.6467673087
 11
167.5637264749
 21
50.1467673087
  0
LINE
  5
3BE
100
AcDbEntity
  8
0
100
AcDbLine
 62
7
  6
CONTINUOUS
 10
168.6053939363
 20
50.6467673087
 11
168.6053939363
 21
50.1467673087
  0
LINE
  5
3BF
100
AcDbEntity
  8
0
100
AcDbLine
 62
7
  6
CONTINUOUS
 10
169.4387264749
 20
50.6467673087
 11
169.4387264749
 21
50.1467673087
  0
LINE
  5
3C0
100
AcDbEntity
  8
RUNDUNGEN
100
AcDbLine
 62
7
  6
CONTINUOUS
 10
244.8553944131
 20
39.6467673087
 11
201.3553944131
 21
39.6467673087
  0
LWPOLYLINE
  5
3C1
100
AcDbEntity
  8
RUNDUNGEN
100
AcDbPolyline
 62
7
  6
CONTINUOUS
 90
20
 70
0
 10
82.2368421831
 20
50.6467673087
 10
82.2640208622
 20
50.6422085836
 10
82.3613400588
 20
50.6173689428
 10
82.5197143199
 20
50.5631206744
 10
82.7356664397
 20
50.4713876563
 10
83.0027609607
 20
50.3372609939
 10
83.3151305126
 20
50.1576994105
 10
83.6700018859
 20
49.9294111001
 10
84.0642581947
 20
49.6502865385
 10
84.4984828644
 20
49.31628089
 10
84.9733361422
 20
48.9234676842
 10
85.4908679765
 20
48.4669406837
 10
86.0554828248
 20
47.939666442
 10
86.6652604296
 20
47.3408428621
 10
87.3210574473
 20
46.6679815434
 10
88.0207655785
 20
45.922624676
 10
88.7628304587
 20
45.1070139608
 10
89.5473377717
 20
44.2226796561
 10
90.3719573854
 20
43.2748896368
 10
91.2437229907
 20
42.2589488889
  0
LINE
  5
3C2
100
AcDbEntity
  8
0
100
AcDbLine
 62
7
  6
CONTINUOUS
 10
141.3553944131
 20
98.5935761237
 11
142.4411706305
 21
95.6629702119
  0
LINE
  5
3C3
100
AcDbEntity
  8
0
100
AcDbLine
 62
7
  6
CONTINUOUS
 10
143.7726319936
 20
96.3791773031
 11
142.1053944131
 21
101.1467673087
  0
LINE
  5
3C4
100
AcDbEntity
  8
0
100
AcDbLine
 62
7
  6
CONTINUOUS
 10
170.2720590135
 20
50.6467673087
 11
170.2720590135
 21
50.1467673087
  0
LINE
  5
3C5
100
AcDbEntity
  8
0
100
AcDbLine
 62
7
  6
CONTINUOUS
 10
170.6887264749
 20
50.6467673087
 11
170.6887264749
 21
50.1467673087
  0
LINE
  5
3C6
100
AcDbEntity
  8
0
100
AcDbLine
 62
7
  6
CONTINUOUS
 10
170.8970590135
 20
50.6467673087
 11
170.8970590135
 21
50.1467673087
  0
LINE
  5
3C7
100
AcDbEntity
  8
0
100
AcDbLine
 62
7
  6
CONTINUOUS
 10
214.7367596236
 20
50.1467673087
 11
199.8554669223
 21
50.1467673087
  0
LINE
  5
3C8
100
AcDbEntity
  8
0
100
AcDbLine
 62
7
  6
CONTINUOUS
 10
170.8970590135
 20
50.1467673087
 11
162.5637264749
 21
50.1467673087
  0
LINE
  5
3C9
100
AcDbEntity
  8
0
100
AcDbLine
 62
7
  6
CONTINUOUS
 10
160.8970602056
 20
50.1467673087
 11
153.3970596095
 21
50.1467673087
  0
LINE
  5
3CA
100
AcDbEntity
  8
0
100
AcDbLine
 62
7
  6
CONTINUOUS
 10
151.7303933402
 20
50.1467673087
 11
143.8137264749
 21
50.1467673087
  0
LINE
  5
3CB
100
AcDbEntity
  8
0
100
AcDbLine
 62
7
  6
CONTINUOUS
 10
120.0608401946
 20
50.1467673087
 11
95.0268774802
 21
50.1467673087
  0
LINE
  5
3CC
100
AcDbEntity
  8
RUNDUNGEN
100
AcDbLine
 62
7
  6
CONTINUOUS
 10
75.1325205658
 20
50.6467673087
 11
239.5782705678
 21
50.6467673087
  0
LINE
  5
3CD
100
AcDbEntity
  8
RUNDUNGEN
100
AcDbLine
 62
7
  6
CONTINUOUS
 10
252.8553944131
 20
55.1467673087
 11
249.8553944131
 21
55.1467673087
  0
LINE
  5
3CE
100
AcDbEntity
  8
0
100
AcDbLine
 62
7
  6
CONTINUOUS
 10
199.8553944131
 20
50.6467673087
 11
199.8553944131
 21
50.1467673087
  0
LWPOLYLINE
  5
3CF
100
AcDbEntity
  8
RUNDUNGEN
100
AcDbPolyline
 62
7
  6
CONTINUOUS
 90
21
 70
0
 10
221.2480700779
 20
39.6467673087
 10
223.4737196534
 20
42.2667422864
 10
224.3451987023
 20
43.2822645331
 10
225.1695376474
 20
44.2296132324
 10
225.9537648722
 20
45.113481943
 10
226.6955524009
 20
45.928611689
 10
227.3949860126
 20
46.6734785315
 10
228.0505114316
 20
47.3458474837
 10
228.6600207959
 20
47.9441837332
 10
229.2243658116
 20
48.4709764199
 10
229.7416239424
 20
48.9270324119
 10
230.2161912642
 20
49.3193815956
 10
230.6501103524
 20
49.6529296438
 10
231.0440357939
 20
49.9316054547
 10
231.398545878
 20
50.1594570767
 10
231.7105160564
 20
50.3385996196
 10
231.9771639543
 20
50.4723320652
 10
232.1926295492
 20
50.5637147596
 10
232.3504796515
 20
50.6176740312
 10
232.4472704531
 20
50.6423101417
 10
232.473937145
 20
50.6467673087
  0
LINE
  5
3D0
100
AcDbEntity
  8
0
100
AcDbLine
 62
7
  6
CONTINUOUS
 10
208.7267596236
 20
50.6467673087
 11
208.7267596236
 21
50.1467673087
  0
LINE
  5
3D1
100
AcDbEntity
  8
0
100
AcDbLine
 62
7
  6
CONTINUOUS
 10
214.7367596236
 20
50.6467673087
 11
214.7367596236
 21
50.1467673087
  0
LINE
  5
3D2
100
AcDbEntity
  8
RUNDUNGEN
100
AcDbLine
 62
7
  6
CONTINUOUS
 10
249.8553944131
 20
84.1467673087
 11
252.8553944131
 21
84.1467673087
  0
LINE
  5
3D3
100
AcDbEntity
  8
BEZUGSACHSEN
100
AcDbLine
 62
7
  6
CONTINUOUS
 10
75.1325205658
 20
88.6467673087
 11
239.5782705678
 21
88.6467673087
  0
LINE
  5
3D4
100
AcDbEntity
  8
RUNDUNGEN
100
AcDbLine
 62
7
  6
CONTINUOUS
 10
201.3553944131
 20
99.6467673087
 11
244.8553944131
 21
99.6467673087
  0
LINE
  5
3D5
100
AcDbEntity
  8
0
100
AcDbLine
 62
7
  6
CONTINUOUS
 10
161.3553939363
 20
101.1467673087
 11
159.8553939363
 21
101.1467673087
  0
LINE
  5
3D6
100
AcDbEntity
  8
0
100
AcDbLine
 62
7
  6
CONTINUOUS
 10
151.8553944131
 20
101.1467673087
 11
149.6053944131
 21
101.1467673087
  0
LINE
  5
3D7
100
AcDbEntity
  8
0
100
AcDbLine
 62
7
  6
CONTINUOUS
 10
142.1053944131
 20
101.1467673087
 11
139.8553944131
 21
101.1467673087
  0
LWPOLYLINE
  5
3D8
100
AcDbEntity
  8
BEZUGSACHSEN
100
AcDbPolyline
 62
7
  6
CONTINUOUS
 90
20
 70
0
 10
232.4739370122
 20
88.6467673087
 10
232.4472508746
 20
88.6512284258
 10
232.3504282081
 20
88.675875793
 10
232.192543114
 20
88.7298528505
 10
231.9770490241
 20
88.8212556825
 10
231.7103819274
 20
88.9550071195
 10
231.3984060858
 20
89.1341625928
 10
231.0439001438
 20
89.3620207464
 10
230.6499854348
 20
89.6406971764
 10
230.2160802526
 20
89.9742415887
 10
229.7415258927
 20
90.366585975
 10
229.2242769183
 20
90.8226388883
 10
228.6599307301
 20
91.3494371591
 10
228.0504162472
 20
91.9477827144
 10
227.3948837344
 20
92.620163065
 10
226.6954513855
 20
93.3650322957
 10
225.953685531
 20
94.180141046
 10
225.1695032087
 20
95.063960613
 10
224.3452527242
 20
96.0112075164
 10
223.4738683943
 20
97.0266181207
  0
LWPOLYLINE
  5
3D9
100
AcDbEntity
  8
BEZUGSACHSEN
100
AcDbPolyline
 62
7
  6
CONTINUOUS
 90
7
 70
0
 10
247.0441990897
 20
69.6467673143
 10
247.0320456777
 20
71.624507592
 10
246.9915603726
 20
73.764988186
 10
246.9222404826
 20
75.9179380746
 10
246.8237673614
 20
78.0809393185
 10
246.6959154384
 20
80.2515666369
 10
246.5573127982
 20
82.1880344825
  0
LINE
  5
3DA
100
AcDbEntity
  8
RUNDUNGEN
100
AcDbLine
 62
7
  6
CONTINUOUS
 10
247.3553944131
 20
97.1467673087
 11
247.3553944131
 21
86.6467673087
  0
LINE
  5
3DB
100
AcDbEntity
  8
RUNDUNGEN
100
AcDbLine
 62
7
  6
CONTINUOUS
 10
247.3553944131
 20
52.6467673087
 11
247.3553944131
 21
42.1467673087
  0
LWPOLYLINE
  5
3DC
100
AcDbEntity
  8
RUNDUNGEN
100
AcDbPolyline
 62
7
  6
CONTINUOUS
 90
7
 70
0
 10
246.5573127982
 20
57.1055001349
 10
246.6959154384
 20
59.0419679804
 10
246.8237673614
 20
61.2125952989
 10
246.9222404826
 20
63.3755965428
 10
246.9915603726
 20
65.5285464313
 10
247.0320456777
 20
67.6690270254
 10
247.0441990897
 20
69.6467673143
  0
LINE
  5
3DD
100
AcDbEntity
  8
RUNDUNGEN
100
AcDbLine
 62
7
  6
CONTINUOUS
 10
237.8553944131
 20
117.6467673087
 11
187.9495114947
 21
117.6467673087
  0
LINE
  5
3DE
100
AcDbEntity
  8
BEZUGSACHSEN
100
AcDbLine
 62
7
  6
CONTINUOUS
 10
223.4738683943
 20
97.0266181207
 11
221.2480698862
 21
99.6467673087
  0
LINE
  5
3DF
100
AcDbEntity
  8
RUNDUNGEN
100
AcDbLine
 62
7
  6
CONTINUOUS
 10
255.3553944131
 20
39.1467673087
 11
255.3553944131
 21
52.6467673087
  0
LINE
  5
3E0
100
AcDbEntity
  8
RUNDUNGEN
100
AcDbLine
 62
7
  6
CONTINUOUS
 10
255.3553944131
 20
86.6467673087
 11
255.3553944131
 21
100.1467673087
  0
LWPOLYLINE
  5
3E1
100
AcDbEntity
  8
BEZUGSACHSEN
100
AcDbPolyline
 62
7
  6
CONTINUOUS
 90
38
 70
0
 10
203.5171715342
 20
117.6467673087
 10
203.2916340585
 20
117.8300903393
 10
200.9927521875
 20
119.5518577479
 10
198.6231650804
 20
121.1845131852
 10
196.1861887068
 20
122.7257001776
 10
193.6858639288
 20
124.1724591462
 10
191.1263142053
 20
125.521995902
 10
188.5118609113
 20
126.7721855091
 10
185.8468754591
 20
127.9210303711
 10
183.1353680687
 20
128.9665453984
 10
180.3816018708
 20
129.9067939161
 10
177.5900296849
 20
130.7403903239
 10
174.7651708943
 20
131.4660193743
 10
171.9110131302
 20
132.0824329446
 10
169.031413447
 20
132.5884902063
 10
166.131752203
 20
132.9832086385
 10
163.2171109445
 20
133.2658206768
 10
160.2923315698
 20
133.4357417022
 10
157.3622499975
 20
133.492584626
 10
154.4321517617
 20
133.4362708842
 10
151.5073231979
 20
133.2668769993
 10
148.5926088843
 20
132.984788571
 10
145.6928529132
 20
132.5905896238
 10
142.8131362561
 20
132.0850473721
 10
139.9588450079
 20
131.4691441348
 10
137.1338390023
 20
130.7440203424
 10
134.3421052182
 20
129.9109248057
 10
131.588161248
 20
128.9711732753
 10
128.8764630799
 20
127.9261513704
 10
126.2112722092
 20
126.7777935991
 10
123.5965964371
 20
125.5280850557
 10
121.036803726
 20
124.1790225082
 10
118.5362137895
 20
122.7327274571
 10
116.098947508
 20
121.1919891191
 10
113.7290439627
 20
119.5597652039
 10
111.4298213598
 20
117.8384127185
 10
109.2046985999
 20
116.0304635359
 10
107.1676973644
 20
114.2401459809
  0
ARC
  5
3E2
100
AcDbEntity
  8
0
100
AcDbCircle
 62
7
  6
CONTINUOUS
 10
157.3553944131
 20
326.5964094271
 40
50.0
100
AcDbArc
 50
333.9572550679
 51
336.4217857297
  0
ARC
  5
3E3
100
AcDbEntity
  8
0
100
AcDbCircle
 62
7
  6
CONTINUOUS
 10
157.3553944131
 20
326.5964094271
 40
50.0
100
AcDbArc
 50
203.5782282515
 51
206.0427453134
  0
ARC
  5
3E4
100
AcDbEntity
  8
RUNDUNGEN
100
AcDbCircle
 62
7
  6
CONTINUOUS
 10
157.3553944131
 20
320.5964094271
 40
48.0
100
AcDbArc
 50
344.7425467083
 51
195.2574706121
  0
ARC
  5
3E5
100
AcDbEntity
  8
BEZUGSACHSEN
100
AcDbCircle
 62
7
  6
CONTINUOUS
 10
88.3553944131
 20
230.5964094271
 40
19.0
100
AcDbArc
 50
0.0200158278
 51
61.4572637543
  0
ARC
  5
3E6
100
AcDbEntity
  8
BEZUGSACHSEN
100
AcDbCircle
 62
7
  6
CONTINUOUS
 10
226.3553944131
 20
230.5964094271
 40
19.0
100
AcDbArc
 50
118.5427362457
 51
179.9799841809
  0
ARC
  5
3E7
100
AcDbEntity
  8
RUNDUNGEN
100
AcDbCircle
 62
7
  6
CONTINUOUS
 10
120.6947888535
 20
310.5964094271
 40
10.0
100
AcDbArc
 50
195.2572704343
 51
203.5784273449
  0
ARC
  5
3E8
100
AcDbEntity
  8
RUNDUNGEN
100
AcDbCircle
 62
7
  6
CONTINUOUS
 10
194.0159999728
 20
310.5964094271
 40
10.0
100
AcDbArc
 50
336.4216425615
 51
344.7428127035
  0
ARC
  5
3E9
100
AcDbEntity
  8
BEZUGSACHSEN
100
AcDbCircle
 62
7
  6
CONTINUOUS
 10
239.0441991967
 20
320.6617322861
 40
8.0
100
AcDbArc
 50
337.4765769117
 51
22.4999906671
  0
ARC
  5
3EA
100
AcDbEntity
  8
RUNDUNGEN
100
AcDbCircle
 62
7
  6
CONTINUOUS
 10
214.1676337135
 20
380.7190740608
 40
8.0
100
AcDbArc
 50
22.5
 51
69.0
  0
ARC
  5
3EB
100
AcDbEntity
  8
RUNDUNGEN
100
AcDbCircle
 62
7
  6
CONTINUOUS
 10
157.3553944131
 20
402.527249478
 40
8.0
100
AcDbArc
 50
69.0
 51
111.0
  0
ARC
  5
3EC
100
AcDbEntity
  8
RUNDUNGEN
100
AcDbCircle
 62
7
  6
CONTINUOUS
 10
100.5431551127
 20
380.7190740608
 40
8.0
100
AcDbArc
 50
111.0
 51
157.5
  0
ARC
  5
3ED
100
AcDbEntity
  8
BEZUGSACHSEN
100
AcDbCircle
 62
7
  6
CONTINUOUS
 10
75.6665899333
 20
320.6617330194
 40
8.0
100
AcDbArc
 50
157.5000150175
 51
202.5234271063
  0
ARC
  5
3EE
100
AcDbEntity
  8
0
100
AcDbCircle
 62
7
  6
CONTINUOUS
 10
210.8653944131
 20
368.2026791368
 40
5.0
100
AcDbArc
 50
39.2608295227
 51
230.7391704773
  0
ARC
  5
3EF
100
AcDbEntity
  8
0
100
AcDbCircle
 62
7
  6
CONTINUOUS
 10
204.8553944131
 20
374.2126791368
 40
5.0
100
AcDbArc
 50
39.2608295227
 51
230.7391704773
  0
ARC
  5
3F0
100
AcDbEntity
  8
0
100
AcDbCircle
 62
7
  6
CONTINUOUS
 10
210.8653944131
 20
368.2026791368
 40
3.5
100
AcDbArc
 50
147.3736251162
 51
233.2132107017
  0
ARC
  5
3F1
100
AcDbEntity
  8
0
100
AcDbCircle
 62
7
  6
CONTINUOUS
 10
210.8653944131
 20
368.2026791368
 40
3.5
100
AcDbArc
 50
36.7867892983
 51
122.4447123387
  0
ARC
  5
3F2
100
AcDbEntity
  8
0
100
AcDbCircle
 62
7
  6
CONTINUOUS
 10
204.8553944131
 20
374.2126791368
 40
3.5
100
AcDbArc
 50
36.7867892983
 51
233.2132107017
  0
ARC
  5
3F3
100
AcDbEntity
  8
RUNDUNGEN
100
AcDbCircle
 62
7
  6
CONTINUOUS
 10
128.3553944131
 20
288.8964094271
 40
1.0
100
AcDbArc
 50
180.0
 51
270.0
  0
ARC
  5
3F4
100
AcDbEntity
  8
RUNDUNGEN
100
AcDbCircle
 62
7
  6
CONTINUOUS
 10
128.3553944131
 20
294.8964094271
 40
1.0
100
AcDbArc
 50
90.0
 51
180.0
  0
ARC
  5
3F5
100
AcDbEntity
  8
RUNDUNGEN
100
AcDbCircle
 62
7
  6
CONTINUOUS
 10
254.3553944131
 20
288.8964094271
 40
1.0
100
AcDbArc
 50
270.0
 51
360.0
  0
ARC
  5
3F6
100
AcDbEntity
  8
RUNDUNGEN
100
AcDbCircle
 62
7
  6
CONTINUOUS
 10
254.3553944131
 20
294.8964094271
 40
1.0
100
AcDbArc
 50
0.0
 51
90.0
  0
ARC
  5
3F7
100
AcDbEntity
  8
0
100
AcDbCircle
 62
7
  6
CONTINUOUS
 10
-6163.621359973
 20
3085.0507651454
 40
7231.3544001986
100
AcDbArc
 50
336.815336447
 51
336.9511596837
  0
ARC
  5
3F8
100
AcDbEntity
  8
0
100
AcDbCircle
 62
7
  6
CONTINUOUS
 10
-5798.7974964698
 20
2930.444106557
 40
6834.6110448887
100
AcDbArc
 50
336.8008393704
 51
336.9185725626
  0
ARC
  5
3F9
100
AcDbEntity
  8
0
100
AcDbCircle
 62
7
  6
CONTINUOUS
 10
390.9578495677
 20
266.2474352994
 40
23.315734342
100
AcDbArc
 50
204.1936004417
 51
206.3912100674
  0
ARC
  5
3FA
100
AcDbEntity
  8
0
100
AcDbCircle
 62
7
  6
CONTINUOUS
 10
391.3344395396
 20
266.1795321776
 40
23.1376802777
100
AcDbArc
 50
204.2073573386
 51
206.4222903269
  0
ARC
  5
3FB
100
AcDbEntity
  8
0
100
AcDbCircle
 62
7
  6
CONTINUOUS
 10
391.9854548049
 20
253.5560457293
 40
19.9142294906
100
AcDbArc
 50
227.3673628334
 51
229.113806832
  0
ARC
  5
3FC
100
AcDbEntity
  8
0
100
AcDbCircle
 62
7
  6
CONTINUOUS
 10
388.1403350019
 20
255.5915227931
 40
18.0140653548
100
AcDbArc
 50
239.2029631169
 51
241.8150412038
  0
ARC
  5
3FD
100
AcDbEntity
  8
0
100
AcDbCircle
 62
7
  6
CONTINUOUS
 10
387.5805993503
 20
255.475200204
 40
17.9134961374
100
AcDbArc
 50
239.0164671322
 51
241.6281778182
  0
ARC
  5
3FE
100
AcDbEntity
  8
BEZUGSACHSEN
100
AcDbCircle
 62
7
  6
CONTINUOUS
 10
374.6840456929
 20
264.208712146
 40
7.0
100
AcDbArc
 50
105.0
 51
202.5000656579
  0
ARC
  5
3FF
100
AcDbEntity
  8
0
100
AcDbCircle
 62
7
  6
CONTINUOUS
 10
373.7598511084
 20
256.1091912781
 40
3.5466766554
100
AcDbArc
 50
202.5036355331
 51
203.9248686955
  0
ARC
  5
400
100
AcDbEntity
  8
0
100
AcDbCircle
 62
7
  6
CONTINUOUS
 10
372.0218661989
 20
257.9027529231
 40
2.6273562326
100
AcDbArc
 50
202.5714270397
 51
207.4366047549
  0
ARC
  5
401
100
AcDbEntity
  8
0
100
AcDbCircle
 62
7
  6
CONTINUOUS
 10
372.544798568
 20
257.8952197988
 40
2.6075999919
100
AcDbArc
 50
202.5726170431
 51
207.475477991
  0
ARC
  5
402
100
AcDbEntity
  8
0
100
AcDbCircle
 62
7
  6
CONTINUOUS
 10
371.7736373069
 20
257.7973519619
 40
2.3576855649
100
AcDbArc
 50
197.2955734082
 51
202.5216443721
  0
ARC
  5
403
100
AcDbEntity
  8
RUNDUNGEN
100
AcDbCircle
 62
7
  6
CONTINUOUS
 10
384.5298922366
 20
288.8964094271
 40
1.0
100
AcDbArc
 50
180.0
 51
270.0
  0
ARC
  5
404
100
AcDbEntity
  8
0
100
AcDbCircle
 62
7
  6
CONTINUOUS
 10
316.2202635953
 20
329.5391430361
 40
191.5515558869
100
AcDbArc
 50
336.334027573
 51
336.729496502
  0
ARC
  5
405
100
AcDbEntity
  8
0
100
AcDbCircle
 62
7
  6
CONTINUOUS
 10
326.9201707788
 20
332.9310412621
 40
182.9509148374
100
AcDbArc
 50
333.9717599171
 51
334.393682729
  0
ARC
  5
406
100
AcDbEntity
  8
BEZUGSACHSEN
100
AcDbCircle
 62
7
  6
CONTINUOUS
 10
382.5298922366
 20
304.6162190665
 40
30.0
100
AcDbArc
 50
284.9998235005
 51
0.0000748429
  0
ARC
  5
407
100
AcDbEntity
  8
RUNDUNGEN
100
AcDbCircle
 62
7
  6
CONTINUOUS
 10
384.5298922366
 20
294.8964094271
 40
1.0
100
AcDbArc
 50
90.0
 51
180.0
  0
ARC
  5
408
100
AcDbEntity
  8
0
100
AcDbCircle
 62
7
  6
CONTINUOUS
 10
450.6701033781
 20
292.5830047984
 40
88.5600596921
100
AcDbArc
 50
204.4815888114
 51
205.6364798076
  0
ARC
  5
409
100
AcDbEntity
  8
0
100
AcDbCircle
 62
7
  6
CONTINUOUS
 10
450.5500324407
 20
292.3088737804
 40
87.8442169935
100
AcDbArc
 50
204.4977256545
 51
205.6622272786
  0
ARC
  5
40A
100
AcDbEntity
  8
0
100
AcDbCircle
 62
7
  6
CONTINUOUS
 10
427.8720512339
 20
274.5680421503
 40
67.3627359557
100
AcDbArc
 50
329.3334112592
 51
334.7599831345
  0
ARC
  5
40B
100
AcDbEntity
  8
0
100
AcDbCircle
 62
7
  6
CONTINUOUS
 10
428.0524664611
 20
274.4833830707
 40
67.1634454944
100
AcDbArc
 50
334.7596807758
 51
337.4993130796
  0
ARC
  5
40C
100
AcDbEntity
  8
0
100
AcDbCircle
 62
7
  6
CONTINUOUS
 10
434.87521339
 20
274.4283955478
 40
67.0203534252
100
AcDbArc
 50
201.1707706245
 51
202.3179856136
  0
ARC
  5
40D
100
AcDbEntity
  8
0
100
AcDbCircle
 62
7
  6
CONTINUOUS
 10
427.8587893895
 20
274.349353197
 40
66.7912907697
100
AcDbArc
 50
329.1683730737
 51
334.7359050824
  0
ARC
  5
40E
100
AcDbEntity
  8
0
100
AcDbCircle
 62
7
  6
CONTINUOUS
 10
428.0689444681
 20
274.2519287783
 40
66.5596571182
100
AcDbArc
 50
334.7345393484
 51
337.4996726795
  0
ARC
  5
40F
100
AcDbEntity
  8
0
100
AcDbCircle
 62
7
  6
CONTINUOUS
 10
429.512857897
 20
270.4059971459
 40
64.2538830639
100
AcDbArc
 50
331.8757681528
 51
337.4927611872
  0
ARC
  5
410
100
AcDbEntity
  8
0
100
AcDbCircle
 62
7
  6
CONTINUOUS
 10
433.5441062256
 20
270.4046881474
 40
64.2507764515
100
AcDbArc
 50
202.5071231855
 51
208.0639765283
  0
ARC
  5
411
100
AcDbEntity
  8
0
100
AcDbCircle
 62
7
  6
CONTINUOUS
 10
433.1568748902
 20
270.2358036869
 40
63.8283915649
100
AcDbArc
 50
199.615159063
 51
202.5001310323
  0
ARC
  5
412
100
AcDbEntity
  8
0
100
AcDbCircle
 62
7
  6
CONTINUOUS
 10
433.1864620234
 20
270.0238870881
 40
63.2746295482
100
AcDbArc
 50
199.5898323226
 51
202.5001311508
  0
ARC
  5
413
100
AcDbEntity
  8
0
100
AcDbCircle
 62
7
  6
CONTINUOUS
 10
414.1610084887
 20
268.6633108319
 40
45.7891371444
100
AcDbArc
 50
217.2833722665
 51
218.5659307281
  0
ARC
  5
414
100
AcDbEntity
  8
0
100
AcDbCircle
 62
7
  6
CONTINUOUS
 10
414.4189124587
 20
268.5607768401
 40
45.4904795154
100
AcDbArc
 50
217.4075503942
 51
218.7008110131
  0
ARC
  5
415
100
AcDbEntity
  8
0
100
AcDbCircle
 62
7
  6
CONTINUOUS
 10
413.5536089982
 20
265.3866192552
 40
43.9340540616
100
AcDbArc
 50
215.7576046236
 51
217.0678392446
  0
ARC
  5
416
100
AcDbEntity
  8
0
100
AcDbCircle
 62
7
  6
CONTINUOUS
 10
454.7233357005
 20
274.6151344204
 40
42.5789918805
100
AcDbArc
 50
330.8305259135
 51
332.0691217431
  0
ARC
  5
417
100
AcDbEntity
  8
0
100
AcDbCircle
 62
7
  6
CONTINUOUS
 10
456.2808195727
 20
270.0123670933
 40
39.3729047138
100
AcDbArc
 50
335.7838226298
 51
336.8538492972
  0
ARC
  5
418
100
AcDbEntity
  8
0
100
AcDbCircle
 62
7
  6
CONTINUOUS
 10
406.7356949976
 20
269.9932578967
 40
39.3256041552
100
AcDbArc
 50
202.9313917924
 51
204.2166447661
  0
ARC
  5
419
100
AcDbEntity
  8
0
100
AcDbCircle
 62
7
  6
CONTINUOUS
 10
470.0828384582
 20
269.7492168986
 40
26.0354524351
100
AcDbArc
 50
327.8210674258
 51
329.8999903355
  0
ARC
  5
41A
100
AcDbEntity
  8
RUNDUNGEN
100
AcDbCircle
 62
7
  6
CONTINUOUS
 10
402.5298922366
 20
288.8964094271
 40
1.0
100
AcDbArc
 50
180.0
 51
269.9999999999
  0
ARC
  5
41B
100
AcDbEntity
  8
RUNDUNGEN
100
AcDbCircle
 62
7
  6
CONTINUOUS
 10
460.5298922366
 20
288.8964094271
 40
1.0
100
AcDbArc
 50
270.0
 51
360.0
  0
ARC
  5
41C
100
AcDbEntity
  8
0
100
AcDbCircle
 62
7
  6
CONTINUOUS
 10
394.8118070776
 20
317.0942512535
 40
114.0798580467
100
AcDbArc
 50
326.5826337201
 51
328.2692335424
  0
ARC
  5
41D
100
AcDbEntity
  8
0
100
AcDbCircle
 62
7
  6
CONTINUOUS
 10
395.1836879366
 20
316.6986279049
 40
113.0831317864
100
AcDbArc
 50
326.4895227959
 51
328.1926032963
  0
ARC
  5
41E
100
AcDbEntity
  8
0
100
AcDbCircle
 62
7
  6
CONTINUOUS
 10
396.2114817928
 20
312.5728086507
 40
111.0430032659
100
AcDbArc
 50
326.3442474444
 51
328.0811197615
  0
ARC
  5
41F
100
AcDbEntity
  8
0
100
AcDbCircle
 62
7
  6
CONTINUOUS
 10
413.3544871107
 20
297.27325258
 40
89.4594205697
100
AcDbArc
 50
331.26632331
 51
332.4408874685
  0
ARC
  5
420
100
AcDbEntity
  8
0
100
AcDbCircle
 62
7
  6
CONTINUOUS
 10
413.4803676228
 20
296.9951807034
 40
88.7366143305
100
AcDbArc
 50
331.2152008993
 51
332.3998429878
  0
ARC
  5
421
100
AcDbEntity
  8
RUNDUNGEN
100
AcDbCircle
 62
7
  6
CONTINUOUS
 10
460.5298922366
 20
294.8964094271
 40
1.0
100
AcDbArc
 50
0.0
 51
89.9999999998
  0
ARC
  5
422
100
AcDbEntity
  8
RUNDUNGEN
100
AcDbCircle
 62
7
  6
CONTINUOUS
 10
402.5298922366
 20
294.8964094271
 40
1.0
100
AcDbArc
 50
90.0
 51
180.0
  0
ARC
  5
423
100
AcDbEntity
  8
0
100
AcDbCircle
 62
7
  6
CONTINUOUS
 10
161.9963722917
 20
382.4377746083
 40
354.28017363
100
AcDbArc
 50
338.0875316518
 51
338.3691304481
  0
ARC
  5
424
100
AcDbEntity
  8
BEZUGSACHSEN
100
AcDbCircle
 62
7
  6
CONTINUOUS
 10
419.5298922366
 20
403.527249478
 40
7.0
100
AcDbArc
 50
90.0
 51
180.0
  0
ARC
  5
425
100
AcDbEntity
  8
RUNDUNGEN
100
AcDbCircle
 62
7
  6
CONTINUOUS
 10
443.5298922366
 20
403.527249478
 40
7.0
100
AcDbArc
 50
0.0
 51
90.0
  0
ARC
  5
426
100
AcDbEntity
  8
0
100
AcDbCircle
 62
7
  6
CONTINUOUS
 10
557.5185353348
 20
318.8335343707
 40
197.3239799102
100
AcDbArc
 50
200.3466757735
 51
200.7227133809
  0
ARC
  5
427
100
AcDbEntity
  8
0
100
AcDbCircle
 62
7
  6
CONTINUOUS
 10
546.8395208779
 20
329.5391430361
 40
191.5515558869
100
AcDbArc
 50
203.270503498
 51
203.665972427
  0
ARC
  5
428
100
AcDbEntity
  8
RUNDUNGEN
100
AcDbCircle
 62
7
  6
CONTINUOUS
 10
480.5298922366
 20
304.6162190665
 40
30.0
100
AcDbArc
 50
179.9999251571
 51
255.0001764995
  0
ARC
  5
429
100
AcDbEntity
  8
0
100
AcDbCircle
 62
7
  6
CONTINUOUS
 10
470.4622863453
 20
269.8132538944
 40
26.2091426953
100
AcDbArc
 50
327.894557102
 51
329.958268777
  0
ARC
  5
42A
100
AcDbEntity
  8
RUNDUNGEN
100
AcDbCircle
 62
7
  6
CONTINUOUS
 10
488.3757387803
 20
264.208712146
 40
7.0
100
AcDbArc
 50
337.4999343421
 51
75.0
  0
ARC
  5
42B
100
AcDbEntity
  8
0
100
AcDbCircle
 62
7
  6
CONTINUOUS
 10
489.2999333647
 20
256.1091912781
 40
3.5466766555
100
AcDbArc
 50
336.0751313045
 51
337.4963644669
  0
ARC
  5
42C
100
AcDbEntity
  8
0
100
AcDbCircle
 62
7
  6
CONTINUOUS
 10
489.4528575764
 20
256.0467402371
 40
3.3814942832
100
AcDbArc
 50
337.4822195989
 51
340.8993218154
  0
ARC
  5
42D
100
AcDbEntity
  8
0
100
AcDbCircle
 62
7
  6
CONTINUOUS
 10
489.6130888153
 20
255.9906450084
 40
3.2117286301
100
AcDbArc
 50
340.9095721776
 51
343.438000914
  0
ARC
  5
42E
100
AcDbEntity
  8
0
100
AcDbCircle
 62
7
  6
CONTINUOUS
 10
491.2951952121
 20
257.7942097316
 40
2.3481240607
100
AcDbArc
 50
337.4646154442
 51
342.358333305
  0
ARC
  5
42F
100
AcDbEntity
  8
RUNDUNGEN
100
AcDbCircle
 62
7
  6
CONTINUOUS
 10
478.5298922366
 20
288.8964094271
 40
1.0
100
AcDbArc
 50
270.0
 51
360.0
  0
ARC
  5
430
100
AcDbEntity
  8
RUNDUNGEN
100
AcDbCircle
 62
7
  6
CONTINUOUS
 10
478.5298922366
 20
294.8964094271
 40
1.0
100
AcDbArc
 50
0.0
 51
90.0
  0
ARC
  5
431
100
AcDbEntity
  8
0
100
AcDbCircle
 62
7
  6
CONTINUOUS
 10
778.6031617834
 20
441.2368854725
 40
448.1345058536
100
AcDbArc
 50
206.3773859694
 51
206.5505925118
  0
ARC
  5
432
100
AcDbEntity
  8
0
100
AcDbCircle
 62
7
  6
CONTINUOUS
 10
773.727431758
 20
438.8870256006
 40
442.2259585344
100
AcDbArc
 50
206.4171918207
 51
206.592775146
  0
ARC
  5
433
100
AcDbEntity
  8
0
100
AcDbCircle
 62
7
  6
CONTINUOUS
 10
701.0634121815
 20
382.4377746083
 40
354.28017363
100
AcDbArc
 50
201.6308695519
 51
201.9124683482
  0
ARC
  5
434
100
AcDbEntity
  8
0
100
AcDbCircle
 62
7
  6
CONTINUOUS
 10
599.1548817114
 20
355.155181182
 40
249.5595191589
100
AcDbArc
 50
207.1358957293
 51
207.5538474936
  0
ARC
  5
435
100
AcDbEntity
  8
RUNDUNGEN
100
AcDbCircle
 62
7
  6
CONTINUOUS
 10
157.3553944131
 20
22.1467673087
 40
17.5
100
AcDbArc
 50
29.059281068
 51
90.0
  0
ARC
  5
436
100
AcDbEntity
  8
RUNDUNGEN
100
AcDbCircle
 62
7
  6
CONTINUOUS
 10
75.1325205666
 20
57.6467673087
 40
7.0
100
AcDbArc
 50
184.4352421737
 51
269.9999999999
  0
ARC
  5
437
100
AcDbEntity
  8
0
100
AcDbCircle
 62
7
  6
CONTINUOUS
 10
157.3553944131
 20
69.6467673087
 40
45.25
100
AcDbArc
 50
322.6555413147
 51
335.1766777371
  0
ARC
  5
438
100
AcDbEntity
  8
0
100
AcDbCircle
 62
7
  6
CONTINUOUS
 10
157.3553944131
 20
69.6467673087
 40
45.25
100
AcDbArc
 50
205.5264386687
 51
292.4170067431
  0
ARC
  5
439
100
AcDbEntity
  8
0
100
AcDbCircle
 62
7
  6
CONTINUOUS
 10
157.3553944131
 20
69.6467673087
 40
45.25
100
AcDbArc
 50
24.8233421723
 51
37.3444915467
  0
ARC
  5
43A
100
AcDbEntity
  8
0
100
AcDbCircle
 62
7
  6
CONTINUOUS
 10
157.3553944131
 20
69.6467673087
 40
45.25
100
AcDbArc
 50
67.5829932634
 51
155.1766645782
  0
ARC
  5
43B
100
AcDbEntity
  8
RUNDUNGEN
100
AcDbCircle
 62
7
  6
CONTINUOUS
 10
157.3553944131
 20
69.6467673087
 40
45.0
100
AcDbArc
 50
24.9821918972
 51
37.3713936417
  0
ARC
  5
43C
100
AcDbEntity
  8
RUNDUNGEN
100
AcDbCircle
 62
7
  6
CONTINUOUS
 10
157.3553944131
 20
69.6467673087
 40
45.0
100
AcDbArc
 50
67.673325069
 51
155.0178081017
  0
ARC
  5
43D
100
AcDbEntity
  8
RUNDUNGEN
100
AcDbCircle
 62
7
  6
CONTINUOUS
 10
157.3553944131
 20
69.6467673087
 40
45.0
100
AcDbArc
 50
205.6797318527
 51
292.3266749297
  0
ARC
  5
43E
100
AcDbEntity
  8
RUNDUNGEN
100
AcDbCircle
 62
7
  6
CONTINUOUS
 10
157.3553944131
 20
69.6467673087
 40
45.0
100
AcDbArc
 50
322.6286063589
 51
335.0178081017
  0
ARC
  5
43F
100
AcDbEntity
  8
RUNDUNGEN
100
AcDbCircle
 62
7
  6
CONTINUOUS
 10
157.3553944131
 20
69.6467673087
 40
30.0
100
AcDbArc
 50
219.3033306281
 51
270.0
  0
ARC
  5
440
100
AcDbEntity
  8
RUNDUNGEN
100
AcDbCircle
 62
7
  6
CONTINUOUS
 10
157.3553944131
 20
69.6467673087
 40
30.0
100
AcDbArc
 50
90.0
 51
140.6966693666
  0
ARC
  5
441
100
AcDbEntity
  8
RUNDUNGEN
100
AcDbCircle
 62
7
  6
CONTINUOUS
 10
157.3553944131
 20
117.1467673087
 40
17.5
100
AcDbArc
 50
270.0
 51
330.940718932
  0
ARC
  5
442
100
AcDbEntity
  8
BEZUGSACHSEN
100
AcDbCircle
 62
7
  6
CONTINUOUS
 10
75.1325205666
 20
81.6467673087
 40
7.0
100
AcDbArc
 50
90.0000000001
 51
175.5647578263
  0
ARC
  5
443
100
AcDbEntity
  8
RUNDUNGEN
100
AcDbCircle
 62
7
  6
CONTINUOUS
 10
187.9495114947
 20
39.1467673087
 40
17.5
100
AcDbArc
 50
209.059281068
 51
270.0
  0
ARC
  5
444
100
AcDbEntity
  8
RUNDUNGEN
100
AcDbCircle
 62
7
  6
CONTINUOUS
 10
237.8553944131
 20
39.1467673087
 40
17.5
100
AcDbArc
 50
270.0
 51
360.0
  0
ARC
  5
445
100
AcDbEntity
  8
RUNDUNGEN
100
AcDbCircle
 62
7
  6
CONTINUOUS
 10
201.3553944131
 20
53.6467673087
 40
14.0
100
AcDbArc
 50
192.374482024
 51
270.0
  0
ARC
  5
446
100
AcDbEntity
  8
RUNDUNGEN
100
AcDbCircle
 62
7
  6
CONTINUOUS
 10
239.578270567
 20
57.6467673087
 40
7.0
100
AcDbArc
 50
270.0000000001
 51
355.5650774346
  0
ARC
  5
447
100
AcDbEntity
  8
RUNDUNGEN
100
AcDbCircle
 62
7
  6
CONTINUOUS
 10
252.8553944131
 20
52.6467673087
 40
2.5
100
AcDbArc
 50
0.0
 51
90.0
  0
ARC
  5
448
100
AcDbEntity
  8
RUNDUNGEN
100
AcDbCircle
 62
7
  6
CONTINUOUS
 10
249.8553944131
 20
52.6467673087
 40
2.5
100
AcDbArc
 50
90.0
 51
180.0
  0
ARC
  5
449
100
AcDbEntity
  8
RUNDUNGEN
100
AcDbCircle
 62
7
  6
CONTINUOUS
 10
244.8553944131
 20
42.1467673087
 40
2.5
100
AcDbArc
 50
270.0
 51
360.0
  0
ARC
  5
44A
100
AcDbEntity
  8
RUNDUNGEN
100
AcDbCircle
 62
7
  6
CONTINUOUS
 10
237.8553944131
 20
100.1467673087
 40
17.5
100
AcDbArc
 50
0.0
 51
90.0
  0
ARC
  5
44B
100
AcDbEntity
  8
RUNDUNGEN
100
AcDbCircle
 62
7
  6
CONTINUOUS
 10
187.9495114947
 20
100.1467673087
 40
17.5
100
AcDbArc
 50
90.0
 51
150.940718932
  0
ARC
  5
44C
100
AcDbEntity
  8
RUNDUNGEN
100
AcDbCircle
 62
7
  6
CONTINUOUS
 10
201.3553944131
 20
85.6467673087
 40
14.0
100
AcDbArc
 50
90.0
 51
167.6255179771
  0
ARC
  5
44D
100
AcDbEntity
  8
BEZUGSACHSEN
100
AcDbCircle
 62
7
  6
CONTINUOUS
 10
239.578270567
 20
81.6467673087
 40
7.0
100
AcDbArc
 50
4.4349225654
 51
89.9999999999
  0
ARC
  5
44E
100
AcDbEntity
  8
RUNDUNGEN
100
AcDbCircle
 62
7
  6
CONTINUOUS
 10
252.8553944131
 20
86.6467673087
 40
2.5
100
AcDbArc
 50
270.0
 51
360.0
  0
ARC
  5
44F
100
AcDbEntity
  8
RUNDUNGEN
100
AcDbCircle
 62
7
  6
CONTINUOUS
 10
249.8553944131
 20
86.6467673087
 40
2.5
100
AcDbArc
 50
180.0
 51
270.0
  0
ARC
  5
450
100
AcDbEntity
  8
RUNDUNGEN
100
AcDbCircle
 62
7
  6
CONTINUOUS
 10
244.8553944131
 20
97.1467673087
 40
2.5
100
AcDbArc
 50
0.0
 51
90.0
  0
SPLINE
  5
451
100
AcDbEntity
  8
0
100
AcDbSpline
 62
7
  6
CONTINUOUS
 70
0
 71
3
 72
14
 73
10
 74
0
 42
0.0000001
 43
0.0000001
 44
0.0000000001
 40
0.0
 40
0.0
 40
0.0
 40
0.0
 40
0.1187530335
 40
0.2363767905
 40
0.3548455616
 40
0.4758102514
 40
0.6004146776
 40
0.7292682943
 40
1.0
 40
1.0
 40
1.0
 40
1.0
 10
193.0559192123
 20
283.3863189546
 30
0.0
 10
192.5870304842
 20
282.7852003047
 30
0.0
 10
191.5718807239
 20
281.6496054089
 30
0.0
 10
189.8263347624
 20
280.1751000188
 30
0.0
 10
187.8877065495
 20
278.9401003125
 30
0.0
 10
185.7755057369
 20
277.928704342
 30
0.0
 10
183.5091989475
 20
277.1171538664
 30
0.0
 10
180.2539513675
 20
276.2527780915
 30
0.0
 10
177.7141780153
 20
275.8473594374
 30
0.0
 10
175.9887495674
 20
275.6384442778
 30
0.0
  0
SPLINE
  5
452
100
AcDbEntity
  8
0
100
AcDbSpline
 62
7
  6
CONTINUOUS
 70
0
 71
3
 72
14
 73
10
 74
0
 42
0.0000001
 43
0.0000001
 44
0.0000000001
 40
0.0
 40
0.0
 40
0.0
 40
0.0
 40
0.2707317339
 40
0.3995853605
 40
0.5241897964
 40
0.6451545005
 40
0.7636232573
 40
0.8812469829
 40
1.0
 40
1.0
 40
1.0
 40
1.0
 10
138.7220392589
 20
275.6384442778
 30
0.0
 10
136.9966101383
 20
275.8473595188
 30
0.0
 10
134.4568358121
 20
276.2527783373
 30
0.0
 10
131.2015870754
 20
277.1171547157
 30
0.0
 10
128.9352795336
 20
277.9287057802
 30
0.0
 10
126.8230782684
 20
278.9401025362
 30
0.0
 10
124.8844500678
 20
280.1751030676
 30
0.0
 10
123.1389041155
 20
281.6496089295
 30
0.0
 10
122.1237551365
 20
282.7852046742
 30
0.0
 10
121.6548663857
 20
283.386323449
 30
0.0
  0
SPLINE
  5
453
100
AcDbEntity
  8
0
100
AcDbSpline
 62
7
  6
CONTINUOUS
 70
0
 71
3
 72
16
 73
12
 74
0
 42
0.0000001
 43
0.0000001
 44
0.0000000001
 40
0.0
 40
0.0
 40
0.0
 40
0.0
 40
0.0318306709
 40
0.0740325234
 40
0.1239048519
 40
0.1793799084
 40
0.3016420854
 40
0.4334098746
 40
0.5708397097
 40
0.7118201049
 40
1.0
 40
1.0
 40
1.0
 40
1.0
 10
202.278722492
 20
304.6443220596
 30
0.0
 10
202.2361910262
 20
304.5572844953
 30
0.0
 10
202.1568722559
 20
304.3457141046
 30
0.0
 10
202.0431663141
 20
303.9863353362
 30
0.0
 10
201.9201316829
 20
303.5543517452
 30
0.0
 10
201.7392530196
 20
302.8857050617
 30
0.0
 10
201.5011787543
 20
301.9743159333
 30
0.0
 10
201.1950995535
 20
300.8229362714
 30
0.0
 10
200.8609445112
 20
299.6201027702
 30
0.0
 10
200.3733503364
 20
297.9660782362
 30
0.0
 10
199.9683520715
 20
296.7238138652
 30
0.0
 10
199.6774572476
 20
295.8964138955
 30
0.0
  0
SPLINE
  5
454
100
AcDbEntity
  8
0
100
AcDbSpline
 62
7
  6
CONTINUOUS
 70
0
 71
3
 72
9
 73
5
 74
0
 42
0.0000001
 43
0.0000001
 44
0.0000000001
 40
0.0
 40
0.0
 40
0.0
 40
0.0
 40
0.2487283819
 40
1.0
 40
1.0
 40
1.0
 40
1.0
 10
196.0651764488
 20
287.8954055204
 30
0.0
 10
195.8419810972
 20
287.5050448537
 30
0.0
 10
194.9195159399
 20
285.9502389733
 30
0.0
 10
193.8912444659
 20
284.4572136156
 30
0.0
 10
193.0558981905
 20
283.3862938105
 30
0.0
  0
SPLINE
  5
455
100
AcDbEntity
  8
0
100
AcDbSpline
 62
7
  6
CONTINUOUS
 70
0
 71
3
 72
22
 73
18
 74
0
 42
0.0000001
 43
0.0000001
 44
0.0000000001
 40
0.0
 40
0.0
 40
0.0
 40
0.0
 40
0.1363535114
 40
0.2715641748
 40
0.4057360039
 40
0.5387564581
 40
0.6046904359
 40
0.6700464496
 40
0.7345484177
 40
0.7977129997
 40
0.8586615896
 40
0.8878297698
 40
0.9157058534
 40
0.9417900535
 40
0.9653400798
 40
0.9852555806
 40
1.0
 40
1.0
 40
1.0
 40
1.0
 10
121.6548942039
 20
283.3862901753
 30
0.0
 10
121.0023326753
 20
284.2228787815
 30
0.0
 10
119.7795361379
 20
285.9502001201
 30
0.0
 10
118.170224995
 20
288.6697118299
 30
0.0
 10
116.7742382439
 20
291.4752705499
 30
0.0
 10
115.7723411043
 20
293.8678255471
 30
0.0
 10
115.0608943702
 20
295.79772724
 30
0.0
 10
114.5722265819
 20
297.2409204441
 30
0.0
 10
114.1250416206
 20
298.6748892207
 30
0.0
 10
113.7175205522
 20
300.0849268358
 30
0.0
 10
113.4052680404
 20
301.2360820283
 30
0.0
 10
113.1709372808
 20
302.1237988685
 30
0.0
 10
113.006681929
 20
302.74945201
 30
0.0
 10
112.8515488714
 20
303.3322412688
 30
0.0
 10
112.7069806277
 20
303.8539246697
 30
0.0
 10
112.5743046995
 20
304.2866947334
 30
0.0
 10
112.4824386579
 20
304.5412398879
 30
0.0
 10
112.4320675378
 20
304.644320735
 30
0.0
  0
SPLINE
  5
456
100
AcDbEntity
  8
BEZUGSACHSEN
100
AcDbSpline
 62
7
  6
CONTINUOUS
 70
0
 71
3
 72
34
 73
30
 74
0
 42
0.0000001
 43
0.0000001
 44
0.0000000001
 40
0.0
 40
0.0
 40
0.0
 40
0.0
 40
0.0193290036
 40
0.0765158946
 40
0.1692332248
 40
0.2278036136
 40
0.2937826204
 40
0.3665213003
 40
0.4453427548
 40
0.5295269568
 40
0.5733955709
 40
0.6183265408
 40
0.6642265748
 40
0.7109985605
 40
0.75854762
 40
0.7825853841
 40
0.8067830642
 40
0.8311289366
 40
0.8556103225
 40
0.880211381
 40
0.9049081096
 40
0.9296469521
 40
0.9419981581
 40
0.9542707602
 40
0.9663337745
 40
0.9779355322
 40
0.9835580413
 40
0.9890830918
 40
1.0
 40
1.0
 40
1.0
 40
1.0
 10
97.4338628219
 20
247.2871676888
 30
0.0
 10
97.7400533826
 20
247.2226508364
 30
0.0
 10
98.9518321974
 20
246.9657867395
 30
0.0
 10
101.6291842163
 20
246.3845826766
 30
0.0
 10
104.9200285755
 20
245.6353084773
 30
0.0
 10
108.3408844209
 20
244.8171524942
 30
0.0
 10
111.4397853677
 20
244.043877175
 30
0.0
 10
114.8468568103
 20
243.1522940395
 30
0.0
 10
118.5252185129
 20
242.1345334256
 30
0.0
 10
121.7374359567
 20
241.1861913893
 30
0.0
 10
124.4103627002
 20
240.3507022529
 30
0.0
 10
126.4833728729
 20
239.6738939936
 30
0.0
 10
128.5905529045
 20
238.950999406
 30
0.0
 10
130.7243891923
 20
238.176200196
 30
0.0
 10
132.5106536934
 20
237.4822368773
 30
0.0
 10
133.9432513855
 20
236.888653845
 30
0.0
 10
135.0206250542
 20
236.4195257468
 30
0.0
 10
136.094062861
 20
235.9239602928
 30
0.0
 10
137.1592702892
 20
235.3959447976
 30
0.0
 10
138.2097338087
 20
234.8266337513
 30
0.0
 10
139.233163763
 20
234.2018509123
 30
0.0
 10
140.0454490312
 20
233.6142110422
 30
0.0
 10
140.6391615438
 20
233.0778303196
 30
0.0
 10
141.0344196141
 20
232.6321795112
 30
0.0
 10
141.342574705
 20
232.1335153387
 30
0.0
 10
141.4607925196
 20
231.6603450553
 30
0.0
 10
141.4234205418
 20
231.2905993412
 30
0.0
 10
141.3087115017
 20
230.9497290432
 30
0.0
 10
141.1516186325
 20
230.72756163
 30
0.0
 10
141.0331565012
 20
230.5964094271
 30
0.0
  0
SPLINE
  5
457
100
AcDbEntity
  8
BEZUGSACHSEN
100
AcDbSpline
 62
7
  6
CONTINUOUS
 70
0
 71
3
 72
34
 73
30
 74
0
 42
0.0000001
 43
0.0000001
 44
0.0000000001
 40
0.0
 40
0.0
 40
0.0
 40
0.0
 40
0.0109189876
 40
0.0164451624
 40
0.0220686083
 40
0.0336717574
 40
0.0457340553
 40
0.058006763
 40
0.0703581117
 40
0.0950974756
 40
0.1197944146
 40
0.144395578
 40
0.1688769412
 40
0.1932227877
 40
0.2174203988
 40
0.2414580773
 40
0.2890069532
 40
0.3357787656
 40
0.3816786216
 40
0.426609407
 40
0.4704778426
 40
0.5546616875
 40
0.6334827766
 40
0.7062210785
 40
0.7721996471
 40
0.8307693032
 40
0.9234853538
 40
0.9806712533
 40
1.0
 40
1.0
 40
1.0
 40
1.0
 10
173.6776323251
 20
230.5964094271
 30
0.0
 10
173.5591476336
 20
230.7275866069
 30
0.0
 10
173.4020146486
 20
230.9498026364
 30
0.0
 10
173.2873692591
 20
231.2907623186
 30
0.0
 10
173.2499695206
 20
231.6605618244
 30
0.0
 10
173.3683278419
 20
232.1337380517
 30
0.0
 10
173.676513481
 20
232.6323824401
 30
0.0
 10
174.0718072255
 20
233.0779953722
 30
0.0
 10
174.6655281033
 20
233.6143820555
 30
0.0
 10
175.4778497937
 20
234.2019988334
 30
0.0
 10
176.5012942883
 20
234.8267817614
 30
0.0
 10
177.5517761121
 20
235.3960694897
 30
0.0
 10
178.6169827523
 20
235.9240879186
 30
0.0
 10
179.6904241038
 20
236.4196414268
 30
0.0
 10
180.7677972924
 20
236.8887630115
 30
0.0
 10
182.2003921981
 20
237.4823383625
 30
0.0
 10
183.9866514742
 20
238.1762950955
 30
0.0
 10
186.1204814917
 20
238.951085992
 30
0.0
 10
188.2276544365
 20
239.6739742603
 30
0.0
 10
190.3006575191
 20
240.3507757869
 30
0.0
 10
192.9735739691
 20
241.1862584522
 30
0.0
 10
196.1857782877
 20
242.1345930275
 30
0.0
 10
199.8641237697
 20
243.1523450509
 30
0.0
 10
203.2711778407
 20
244.0439183948
 30
0.0
 10
206.3700529165
 20
244.8171934558
 30
0.0
 10
209.7908721602
 20
245.6353314469
 30
0.0
 10
213.0816678006
 20
246.3845999738
 30
0.0
 10
215.7589805631
 20
246.96579159
 30
0.0
 10
216.9707395648
 20
247.2226515068
 30
0.0
 10
217.2769260043
 20
247.2871676888
 30
0.0
  0
LINE
  5
458
100
AcDbEntity
  8
0
100
AcDbLine
 62
7
  6
CONTINUOUS
 10
493.5328882333
 20
257.0825802305
 11
493.5372270818
 21
257.0964094271
  0
LINE
  5
459
100
AcDbEntity
  8
0
100
AcDbLine
 62
7
  6
CONTINUOUS
 10
371.6220699774
 20
254.2666225304
 11
372.9814627797
 21
251.0325792303
  0
LINE
  5
45A
100
AcDbEntity
  8
0
100
AcDbLine
 62
7
  6
CONTINUOUS
 10
372.5105910469
 20
251.0325792303
 11
373.1855339292
 21
249.4155581464
  0
SPLINE
  5
45B
100
AcDbEntity
  8
0
100
AcDbSpline
 62
7
  6
CONTINUOUS
 70
0
 71
3
 72
8
 73
4
 74
0
 42
0.0000001
 43
0.0000001
 44
0.0000000001
 40
0.0
 40
0.0
 40
0.0
 40
0.0
 40
1.0
 40
1.0
 40
1.0
 40
1.0
 10
373.6614797008
 20
249.4155581464
 30
0.0
 10
374.7951734156
 20
246.7201708259
 30
0.0
 10
375.9296552161
 20
244.0251147898
 30
0.0
 10
377.0650696946
 20
241.3304518779
 30
0.0
  0
SPLINE
  5
45C
100
AcDbEntity
  8
0
100
AcDbSpline
 62
7
  6
CONTINUOUS
 70
0
 71
3
 72
9
 73
5
 74
0
 42
0.0000001
 43
0.0000001
 44
0.0000000001
 40
0.0
 40
0.0
 40
0.0
 40
0.0
 40
0.2411355072
 40
1.0
 40
1.0
 40
1.0
 40
1.0
 10
378.9504235707
 20
238.5006647335
 30
0.0
 10
379.0150391123
 20
238.466328637
 30
0.0
 10
379.2840706226
 20
238.3259482174
 30
0.0
 10
379.5571267815
 20
238.1933297469
 30
0.0
 10
379.7660125469
 20
238.0964094271
 30
0.0
  0
LINE
  5
45D
100
AcDbEntity
  8
0
100
AcDbLine
 62
7
  6
CONTINUOUS
 10
376.8796547108
 20
240.117686065
 11
376.8477542336
 21
240.1774496791
  0
LINE
  5
45E
100
AcDbEntity
  8
0
100
AcDbLine
 62
7
  6
CONTINUOUS
 10
371.3972313441
 20
252.6496014466
 11
371.7323517922
 21
251.8410897722
  0
LINE
  5
45F
100
AcDbEntity
  8
0
100
AcDbLine
 62
7
  6
CONTINUOUS
 10
372.8753172148
 20
248.9776460988
 11
372.9566935372
 21
248.7803012912
  0
SPLINE
  5
460
100
AcDbEntity
  8
0
100
AcDbSpline
 62
7
  6
CONTINUOUS
 70
0
 71
3
 72
9
 73
5
 74
0
 42
0.0000001
 43
0.0000001
 44
0.0000000001
 40
0.0
 40
0.0
 40
0.0
 40
0.0
 40
0.2563222355
 40
1.0
 40
1.0
 40
1.0
 40
1.0
 10
492.3424422486
 20
254.6708778014
 30
0.0
 10
492.3690260501
 20
254.7042078928
 30
0.0
 10
492.4712620777
 20
254.8354058267
 30
0.0
 10
492.5674263644
 20
254.971372399
 30
0.0
 10
492.6347599054
 20
255.0751330723
 30
0.0
  0
LINE
  5
461
100
AcDbEntity
  8
0
100
AcDbLine
 62
7
  6
CONTINUOUS
 10
492.5418725439
 20
254.6708778014
 11
492.5114019388
 21
254.5990484039
  0
LINE
  5
462
100
AcDbEntity
  8
0
100
AcDbLine
 62
7
  6
CONTINUOUS
 10
492.5114019388
 20
254.5990484039
 11
492.4844093533
 21
254.5357488385
  0
LINE
  5
463
100
AcDbEntity
  8
0
100
AcDbLine
 62
7
  6
CONTINUOUS
 10
491.662553129
 20
252.6496014466
 11
491.327432681
 21
251.8410897722
  0
SPLINE
  5
464
100
AcDbEntity
  8
0
100
AcDbSpline
 62
7
  6
CONTINUOUS
 70
0
 71
3
 72
8
 73
4
 74
0
 42
0.0000001
 43
0.0000001
 44
0.0000000001
 40
0.0
 40
0.0
 40
0.0
 40
0.0
 40
1.0
 40
1.0
 40
1.0
 40
1.0
 10
484.3070167464
 20
238.0964094271
 30
0.0
 10
486.9917144351
 20
244.4270097227
 30
0.0
 10
489.6691734881
 20
250.7606818425
 30
0.0
 10
492.3417486051
 20
257.0964094271
 30
0.0
  0
LINE
  5
465
100
AcDbEntity
  8
0
100
AcDbLine
 62
7
  6
CONTINUOUS
 10
373.5743599451
 20
248.8088916774
 11
373.5027112961
 21
249.0113028755
  0
LINE
  5
466
100
AcDbEntity
  8
0
100
AcDbLine
 62
7
  6
CONTINUOUS
 10
373.0325299373
 20
248.8085613598
 11
372.9606608438
 21
249.0113028755
  0
LINE
  5
467
100
AcDbEntity
  8
0
100
AcDbLine
 62
7
  6
CONTINUOUS
 10
488.8134635467
 20
251.2918595876
 11
488.7423900524
 21
251.1250897774
  0
LINE
  5
468
100
AcDbEntity
  8
0
100
AcDbLine
 62
7
  6
CONTINUOUS
 10
488.7423900524
 20
251.1250897774
 11
488.6935435176
 21
251.010480398
  0
LINE
  5
469
100
AcDbEntity
  8
0
100
AcDbLine
 62
7
  6
CONTINUOUS
 10
485.814097895
 20
240.2102566546
 11
485.7591038718
 21
240.117686065
  0
LINE
  5
46A
100
AcDbEntity
  8
0
100
AcDbLine
 62
7
  6
CONTINUOUS
 10
485.2109426887
 20
240.117686065
 11
484.362640728
 21
238.0964094271
  0
SPLINE
  5
46B
100
AcDbEntity
  8
BEZUGSACHSEN
100
AcDbSpline
 62
7
  6
CONTINUOUS
 70
0
 71
3
 72
24
 73
20
 74
0
 42
0.0000001
 43
0.0000001
 44
0.0000000001
 40
0.0
 40
0.0
 40
0.0
 40
0.0
 40
0.1672555978
 40
0.3284359222
 40
0.4778862292
 40
0.5466835627
 40
0.6108458654
 40
0.670008893
 40
0.7239377198
 40
0.7726046595
 40
0.8162910338
 40
0.8558070051
 40
0.8931005116
 40
0.9123320441
 40
0.9336659685
 40
0.9461725614
 40
0.9612577909
 40
0.9806168359
 40
1.0
 40
1.0
 40
1.0
 40
1.0
 10
431.5298922366
 20
247.2871676888
 30
0.0
 10
434.7170607693
 20
247.2871676888
 30
0.0
 10
440.976517021
 20
247.1634370571
 30
0.0
 10
450.0680617124
 20
246.5982318613
 30
0.0
 10
457.2571255796
 20
245.7809179024
 30
0.0
 10
462.5647966037
 20
244.8846170791
 30
0.0
 10
466.1460745385
 20
244.1178495137
 30
0.0
 10
469.4082774521
 20
243.234441742
 30
0.0
 10
472.324272363
 20
242.2256522032
 30
0.0
 10
474.8704605103
 20
241.0794878491
 30
0.0
 10
477.0283830189
 20
239.7753531618
 30
0.0
 10
478.7771224125
 20
238.266231229
 30
0.0
 10
479.8544698364
 20
236.7528489419
 30
0.0
 10
480.3931092018
 20
235.3625542837
 30
0.0
 10
480.569364193
 20
234.3583619871
 30
0.0
 10
480.575203927
 20
233.4240509179
 30
0.0
 10
480.459089597
 20
232.5335567356
 30
0.0
 10
480.1524522221
 20
231.5478312899
 30
0.0
 10
479.7894993151
 20
230.8972834636
 30
0.0
 10
479.5752538765
 20
230.5964094271
 30
0.0
  0
SPLINE
  5
46C
100
AcDbEntity
  8
0
100
AcDbSpline
 62
7
  6
CONTINUOUS
 70
0
 71
3
 72
8
 73
4
 74
0
 42
0.0000001
 43
0.0000001
 44
0.0000000001
 40
0.0
 40
0.0
 40
0.0
 40
0.0
 40
1.0
 40
1.0
 40
1.0
 40
1.0
 10
377.1252016343
 20
242.138962703
 30
0.0
 10
376.0966171785
 20
244.564069349
 30
0.0
 10
375.0690850023
 20
246.9896225057
 30
0.0
 10
374.0424572732
 20
249.4155581464
 30
0.0
  0
LINE
  5
46D
100
AcDbEntity
  8
0
100
AcDbLine
 62
7
  6
CONTINUOUS
 10
375.1141072848
 20
249.4155581464
 11
374.4180661124
 21
251.0325792303
  0
SPLINE
  5
46E
100
AcDbEntity
  8
0
100
AcDbSpline
 62
7
  6
CONTINUOUS
 70
0
 71
3
 72
8
 73
4
 74
0
 42
0.0000001
 43
0.0000001
 44
0.0000000001
 40
0.0
 40
0.0
 40
0.0
 40
0.0
 40
1.0
 40
1.0
 40
1.0
 40
1.0
 10
373.3583093957
 20
251.0325792303
 30
0.0
 10
372.9023442739
 20
252.1105219313
 30
0.0
 10
372.4465523495
 20
253.1885379085
 30
0.0
 10
371.9909228874
 20
254.2666225304
 30
0.0
  0
LINE
  5
46F
100
AcDbEntity
  8
0
100
AcDbLine
 62
7
  6
CONTINUOUS
 10
379.7660125469
 20
238.0964094271
 11
379.0682574591
 21
239.7134306525
  0
LINE
  5
470
100
AcDbEntity
  8
0
100
AcDbLine
 62
7
  6
CONTINUOUS
 10
377.5729227344
 20
238.0964094271
 11
376.7330091085
 21
240.117686065
  0
SPLINE
  5
471
100
AcDbEntity
  8
0
100
AcDbSpline
 62
7
  6
CONTINUOUS
 70
0
 71
3
 72
8
 73
4
 74
0
 42
0.0000001
 43
0.0000001
 44
0.0000000001
 40
0.0
 40
0.0
 40
0.0
 40
0.0
 40
1.0
 40
1.0
 40
1.0
 40
1.0
 10
372.5063890676
 20
250.2240686884
 30
0.0
 10
372.291611885
 20
250.762966807
 30
0.0
 10
372.0771107295
 20
251.3019750132
 30
0.0
 10
371.8628779189
 20
251.8410897722
 30
0.0
  0
LINE
  5
472
100
AcDbEntity
  8
0
100
AcDbLine
 62
7
  6
CONTINUOUS
 10
371.8628779189
 20
251.8410897722
 11
371.5270843461
 21
252.6496014466
  0
SPLINE
  5
473
100
AcDbEntity
  8
0
100
AcDbSpline
 62
7
  6
CONTINUOUS
 70
0
 71
3
 72
8
 73
4
 74
0
 42
0.0000001
 43
0.0000001
 44
0.0000000001
 40
0.0
 40
0.0
 40
0.0
 40
0.0
 40
1.0
 40
1.0
 40
1.0
 40
1.0
 10
371.5270843461
 20
252.6496014466
 30
0.0
 10
371.293679564
 20
253.1884252103
 30
0.0
 10
371.0607023867
 20
253.7274343914
 30
0.0
 10
370.8281405856
 20
254.2666225304
 30
0.0
  0
SPLINE
  5
474
100
AcDbEntity
  8
BEZUGSACHSEN
100
AcDbSpline
 62
7
  6
CONTINUOUS
 70
0
 71
3
 72
24
 73
20
 74
0
 42
0.0000001
 43
0.0000001
 44
0.0000000001
 40
0.0
 40
0.0
 40
0.0
 40
0.0
 40
0.1672555978
 40
0.3284359222
 40
0.4778862292
 40
0.5466835627
 40
0.6108458654
 40
0.670008893
 40
0.7239377198
 40
0.7726046595
 40
0.8162910338
 40
0.8558070051
 40
0.8931005116
 40
0.9123320441
 40
0.9336659685
 40
0.9461725614
 40
0.9612577909
 40
0.9806168359
 40
1.0
 40
1.0
 40
1.0
 40
1.0
 10
431.5298922366
 20
247.2871676888
 30
0.0
 10
428.3427237038
 20
247.2871676888
 30
0.0
 10
422.0832674522
 20
247.1634370571
 30
0.0
 10
412.9917227607
 20
246.5982318613
 30
0.0
 10
405.8026588936
 20
245.7809179024
 30
0.0
 10
400.4949878695
 20
244.8846170791
 30
0.0
 10
396.9137099347
 20
244.1178495137
 30
0.0
 10
393.651507021
 20
243.234441742
 30
0.0
 10
390.7355121102
 20
242.2256522032
 30
0.0
 10
388.1893239629
 20
241.0794878491
 30
0.0
 10
386.0314014543
 20
239.7753531618
 30
0.0
 10
384.2826620606
 20
238.266231229
 30
0.0
 10
383.2053146368
 20
236.7528489419
 30
0.0
 10
382.6666752714
 20
235.3625542837
 30
0.0
 10
382.4904202801
 20
234.3583619871
 30
0.0
 10
382.4845805462
 20
233.4240509179
 30
0.0
 10
382.6006948761
 20
232.5335567356
 30
0.0
 10
382.907332251
 20
231.5478312899
 30
0.0
 10
383.2702851581
 20
230.8972834636
 30
0.0
 10
383.4845305966
 20
230.5964094271
 30
0.0
  0
LINE
  5
475
100
AcDbEntity
  8
0
100
AcDbLine
 62
7
  6
CONTINUOUS
 10
378.115883245
 20
238.0964094271
 11
377.2759202459
 21
240.117686065
  0
LINE
  5
476
100
AcDbEntity
  8
0
100
AcDbLine
 62
7
  6
CONTINUOUS
 10
373.5027112961
 20
249.0113028755
 11
373.3511298803
 21
249.4136249165
  0
LINE
  5
477
100
AcDbEntity
  8
0
100
AcDbLine
 62
7
  6
CONTINUOUS
 10
372.7269530977
 20
251.032579138
 11
372.6973966242
 21
251.1068783468
  0
LINE
  5
478
100
AcDbEntity
  8
0
100
AcDbLine
 62
7
  6
CONTINUOUS
 10
372.6973966242
 20
251.1068783468
 11
372.4055397536
 21
251.8410897722
  0
LINE
  5
479
100
AcDbEntity
  8
0
100
AcDbLine
 62
7
  6
CONTINUOUS
 10
372.4055397536
 20
251.8410897722
 11
372.0697310315
 21
252.6496014466
  0
SPLINE
  5
47A
100
AcDbEntity
  8
0
100
AcDbSpline
 62
7
  6
CONTINUOUS
 70
0
 71
3
 72
8
 73
4
 74
0
 42
0.0000001
 43
0.0000001
 44
0.0000000001
 40
0.0
 40
0.0
 40
0.0
 40
0.0
 40
1.0
 40
1.0
 40
1.0
 40
1.0
 10
372.0697310315
 20
252.6496014466
 30
0.0
 10
371.8362362633
 20
253.188423285
 30
0.0
 10
371.6031734643
 20
253.7274325079
 30
0.0
 10
371.3705301751
 20
254.2666225304
 30
0.0
  0
SPLINE
  5
47B
100
AcDbEntity
  8
0
100
AcDbSpline
 62
7
  6
CONTINUOUS
 70
0
 71
3
 72
8
 73
4
 74
0
 42
0.0000001
 43
0.0000001
 44
0.0000000001
 40
0.0
 40
0.0
 40
0.0
 40
0.0
 40
1.0
 40
1.0
 40
1.0
 40
1.0
 10
377.6794572047
 20
242.138962703
 30
0.0
 10
376.6504254602
 20
244.5640572576
 30
0.0
 10
375.6224759366
 20
246.9896112349
 30
0.0
 10
374.5954552396
 20
249.4155581464
 30
0.0
  0
LINE
  5
47C
100
AcDbEntity
  8
0
100
AcDbLine
 62
7
  6
CONTINUOUS
 10
375.6768963847
 20
249.4155581464
 11
374.9803765789
 21
251.0325792303
  0
SPLINE
  5
47D
100
AcDbEntity
  8
0
100
AcDbSpline
 62
7
  6
CONTINUOUS
 70
0
 71
3
 72
8
 73
4
 74
0
 42
0.0000001
 43
0.0000001
 44
0.0000000001
 40
0.0
 40
0.0
 40
0.0
 40
0.0
 40
1.0
 40
1.0
 40
1.0
 40
1.0
 10
373.9110528382
 20
251.0325792303
 30
0.0
 10
373.4549216387
 20
252.1105200051
 30
0.0
 10
372.9989682561
 20
253.1885360385
 30
0.0
 10
372.5431815722
 20
254.2666225304
 30
0.0
  0
LINE
  5
47E
100
AcDbEntity
  8
0
100
AcDbLine
 62
7
  6
CONTINUOUS
 10
380.3302512449
 20
238.0964094271
 11
379.6319426403
 21
239.7134306525
  0
SPLINE
  5
47F
100
AcDbEntity
  8
0
100
AcDbSpline
 62
7
  6
CONTINUOUS
 70
0
 71
3
 72
9
 73
5
 74
0
 42
0.0000001
 43
0.0000001
 44
0.0000000001
 40
0.0
 40
0.0
 40
0.0
 40
0.0
 40
0.2374566682
 40
1.0
 40
1.0
 40
1.0
 40
1.0
 10
492.9488179461
 20
257.0964094271
 30
0.0
 10
492.9247799107
 20
257.062079312
 30
0.0
 10
492.8199976252
 20
256.9199962296
 30
0.0
 10
492.7021016537
 20
256.7878236879
 30
0.0
 10
492.6074449152
 20
256.6921541562
 30
0.0
  0
SPLINE
  5
480
100
AcDbEntity
  8
0
100
AcDbSpline
 62
7
  6
CONTINUOUS
 70
0
 71
3
 72
8
 73
4
 74
0
 42
0.0000001
 43
0.0000001
 44
0.0000000001
 40
0.0
 40
0.0
 40
0.0
 40
0.0
 40
1.0
 40
1.0
 40
1.0
 40
1.0
 10
491.2521943939
 20
254.2666225304
 30
0.0
 10
491.0090957574
 20
253.7273814442
 30
0.0
 10
490.7654839494
 20
253.1883713909
 30
0.0
 10
490.5213429179
 20
252.6496014466
 30
0.0
  0
SPLINE
  5
481
100
AcDbEntity
  8
0
100
AcDbSpline
 62
7
  6
CONTINUOUS
 70
0
 71
3
 72
8
 73
4
 74
0
 42
0.0000001
 43
0.0000001
 44
0.0000000001
 40
0.0
 40
0.0
 40
0.0
 40
0.0
 40
1.0
 40
1.0
 40
1.0
 40
1.0
 10
489.4706934015
 20
254.2666225304
 30
0.0
 10
489.0072498773
 20
253.1884712974
 30
0.0
 10
488.5434953973
 20
252.1104536681
 30
0.0
 10
488.0794084684
 20
251.0325792303
 30
0.0
  0
SPLINE
  5
482
100
AcDbEntity
  8
0
100
AcDbSpline
 62
7
  6
CONTINUOUS
 70
0
 71
3
 72
9
 73
5
 74
0
 42
0.0000001
 43
0.0000001
 44
0.0000000001
 40
0.0
 40
0.0
 40
0.0
 40
0.0
 40
0.2375665163
 40
1.0
 40
1.0
 40
1.0
 40
1.0
 10
493.490480058
 20
257.0964094271
 30
0.0
 10
493.4665256988
 20
257.0620854873
 30
0.0
 10
493.3621667068
 20
256.9200701756
 30
0.0
 10
493.2447716472
 20
256.787868906
 30
0.0
 10
493.1505190328
 20
256.6921541562
 30
0.0
  0
SPLINE
  5
483
100
AcDbEntity
  8
0
100
AcDbSpline
 62
7
  6
CONTINUOUS
 70
0
 71
3
 72
8
 73
4
 74
0
 42
0.0000001
 43
0.0000001
 44
0.0000000001
 40
0.0
 40
0.0
 40
0.0
 40
0.0
 40
1.0
 40
1.0
 40
1.0
 40
1.0
 10
491.7982102531
 20
254.2666225304
 30
0.0
 10
491.5552945353
 20
253.7273843337
 30
0.0
 10
491.3118715455
 20
253.1883743469
 30
0.0
 10
491.0679255665
 20
252.6496014466
 30
0.0
  0
LINE
  5
484
100
AcDbEntity
  8
0
100
AcDbLine
 62
7
  6
CONTINUOUS
 10
485.7591038718
 20
240.117686065
 11
484.9110064379
 21
238.0964094271
  0
SPLINE
  5
485
100
AcDbEntity
  8
0
100
AcDbSpline
 62
7
  6
CONTINUOUS
 70
0
 71
3
 72
8
 73
4
 74
0
 42
0.0000001
 43
0.0000001
 44
0.0000000001
 40
0.0
 40
0.0
 40
0.0
 40
0.0
 40
1.0
 40
1.0
 40
1.0
 40
1.0
 10
490.0320942068
 20
254.2666225304
 30
0.0
 10
489.568945441
 20
253.1884750212
 30
0.0
 10
489.1054939201
 20
252.1104575115
 30
0.0
 10
488.6417189296
 20
251.0325792303
 30
0.0
  0
ELLIPSE
  5
486
100
AcDbEntity
  8
0
100
AcDbEllipse
 62
7
  6
CONTINUOUS
 10
157.3553944131
 20
286.6874440833
 30
0.0
 11
45.25
 21
-0.0
 31
0.0
 40
0.2679491924
 41
-1.9952103399
 42
-1.1463823137
  0
ENDSEC
  0
SECTION
  2
OBJECTS
  0
DICTIONARY
  5
C
100
AcDbDictionary
280
0
281
1
  3
ACAD_GROUP
350
D
  3
ACAD_MLINESTYLE
350
17
  3
ACAD_LAYOUT
350
1A
  3
ACAD_PLOTSETTINGS
350
19
  3
ACAD_PLOTSTYLENAME
350
E
  0
DICTIONARY
  5
D
102
{ACAD_REACTORS
330
C
102
}
100
AcDbDictionary
280
0
281
1
  0
ACDBDICTIONARYWDFLT
  5
E
102
{ACAD_REACTORS
330
C
102
}
100
AcDbDictionary
281
1
  3
Normal
350
F
100
AcDbDictionaryWithDefault
340
F
  0
DICTIONARY
  5
17
102
{ACAD_REACTORS
330
C
102
}
100
AcDbDictionary
280
0
281
1
  3
Standard
350
18
  0
DICTIONARY
  5
19
102
{ACAD_REACTORS
330
C
102
}
100
AcDbDictionary
281
1
  0
DICTIONARY
  5
1A
102
{ACAD_REACTORS
330
C
102
}
100
AcDbDictionary
281
1
  3
Model
350
487
  3
Layout1
350
488
  0
ACDBPLACEHOLDER
  5
F
102
{ACAD_REACTORS
330
E
102
}
  0
MLINESTYLE
  5
18
102
{ACAD_REACTORS
330
17
102
}
100
AcDbMlineStyle
  2
STANDARD
 70
0
  3

 62
256
 51
90.0
 52
90.0
 71
2
 49
0.5
 62
256
  6
BYLAYER
 49
-0.5
 62
256
  6
BYLAYER
  0
LAYOUT
  5
487
102
{ACAD_REACTORS
330
1A
102
}
100
AcDbPlotSettings
  1

  2
none_device
  4
ISO_A2_(594.00_x_420.00_MM)
  6

 40
0.0
 41
0.0
 42
0.0
 43
0.0
 44
594.0
 45
420.0
 46
0.0
 47
0.0
 48
0.0
 49
0.0
140
0.0
141
0.0
142
1.0
143
1.0
 70
1024
 72
1
 73
0
 74
0
  7

 75
0
147
1.0
148
0.0
149
0.0
100
AcDbLayout
  1
Model
 70
0
 71
0
 10
0.0
 20
0.0
 11
594.0
 21
420.0
 12
0.0
 22
0.0
 32
0.0
 14
0.0
 24
0.0
 34
0.0
 15
0.0
 25
0.0
 35
0.0
146
0.0
 13
0.0
 23
0.0
 33
0.0
 16
1.0
 26
0.0
 36
0.0
 17
0.0
 27
1.0
 37
0.0
 76
0
330
20E
345
0
346
0
  0
LAYOUT
  5
488
102
{ACAD_REACTORS
330
1A
102
}
100
AcDbPlotSettings
  1

  2
none_device
  4
ISO_A2_(594.00_x_420.00_MM)
  6

 40
0.0
 41
0.0
 42
0.0
 43
0.0
 44
594.0
 45
420.0
 46
0.0
 47
0.0
 48
0.0
 49
0.0
140
0.0
141
0.0
142
1.0
143
1.0
 70
0
 72
1
 73
0
 74
0
  7

 75
0
147
1.0
148
0.0
149
0.0
100
AcDbLayout
  1
Layout1
 70
0
 71
1
 10
0.0
 20
0.0
 11
594.0
 21
420.0
 12
0.0
 22
0.0
 32
0.0
 14
0.0
 24
0.0
 34
0.0
 15
0.0
 25
0.0
 35
0.0
146
0.0
 13
0.0
 23
0.0
 33
0.0
 16
1.0
 26
0.0
 36
0.0
 17
0.0
 27
1.0
 37
0.0
 76
0
330
20F
345
0
346
0
  0
ENDSEC
  0
EOF
