999
DXF file: VRS-F_0_75t_M14_7999330_M35306-P-6.dxf
999
Pro/ENGINEER 2011490 by Parametric Technology Corporation
  0
SECTION
  2
HEADER
  9
$ACADVER
  1
AC1015
  9
$DWGCODEPAGE
  3
ANSI_1252
  9
$EXTMAX
 10
297.0
 20
210.0
 30
0.0
  9
$EXTMIN
 10
0.0
 20
0.0
 30
0.0
  9
$LIMMIN
 10
0.0
 20
0.0
  9
$LIMMAX
 10
297.0
 20
210.0
  9
$VIEWCTR
 10
148.5
 20
105.0
  9
$VIEWSIZE
 40
210.0
  9
$CLAYER
  8
0
  9
$LTSCALE
 40
16.335
  9
$CELTYPE
  6
BYLAYER
  9
$DIMSCALE
 40
1.0
  9
$DIMASZ
 40
3.5
  9
$DIMEXO
 40
1.85625
  9
$DIMDLI
 40
11.286
  9
$DIMEXE
 40
5.346
  9
$DIMCEN
 40
2.673
  9
$DIMLFAC
 40
1.0
  9
$DIMBLK
  1
_FILLED
  9
$DIMTXT
 40
3.5
  9
$DIMTOL
 70
1
  9
$DIMLIM
 70
0
  9
$DIMTFAC
 40
1.0
  9
$DIMTP
 40
0.005
  9
$DIMTM
 40
0.005
  9
$PDMODE
 70
3
  9
$PDSIZE
 40
0.3125
  9
$HANDSEED
  5
56D
  9
$TILEMODE
 70
1
  9
$MEASUREMENT
 70
1
  9
$INSUNITS
 70
4
  0
ENDSEC
  0
SECTION
  2
CLASSES
  0
CLASS
  1
ACDBDICTIONARYWDFLT
  2
AcDbDictionaryWithDefault
  3
AutoCAD 2000
 90
0
280
0
281
0
  0
CLASS
  1
ACDBPLACEHOLDER
  2
AcDbPlaceHolder
  3
AutoCAD 2000
 90
0
280
0
281
0
  0
CLASS
  1
LAYOUT
  2
AcDbLayout
  3
AutoCAD 2000
 90
0
280
0
281
0
  0
ENDSEC
  0
SECTION
  2
TABLES
  0
TABLE
  2
VPORT
  5
8
100
AcDbSymbolTable
 70
2
  0
VPORT
  5
1F4
100
AcDbSymbolTableRecord
100
AcDbViewportTableRecord
  2
*ACTIVE
 70
0
 10
0.0
 20
0.0
 11
1.0
 21
1.0
 12
148.5
 22
105.0
 13
0.0
 23
0.0
 14
1.0
 24
1.0
 15
0.0
 25
0.0
 16
0.0
 26
0.0
 36
1.0
 17
0.0
 27
0.0
 37
0.0
 40
210.0
 41
1.4142857143
 42
50.0
 43
0.0
 44
0.0
 50
0.0
 51
0.0
 71
0
 72
100
 73
1
 74
1
 75
0
 76
0
 77
0
 78
0
  0
ENDTAB
  0
TABLE
  2
LTYPE
  5
5
100
AcDbSymbolTable
 70
6
  0
LTYPE
  5
14
100
AcDbSymbolTableRecord
100
AcDbLinetypeTableRecord
  2
BYBLOCK
 70
0
  3

 72
65
 73
0
 40
0.0
  0
LTYPE
  5
15
100
AcDbSymbolTableRecord
100
AcDbLinetypeTableRecord
  2
BYLAYER
 70
0
  3

 72
65
 73
0
 40
0.0
  0
LTYPE
  5
16
100
AcDbSymbolTableRecord
100
AcDbLinetypeTableRecord
  2
CONTINUOUS
 70
64
  3
Solid line
 72
65
 73
0
 40
0.0
  0
LTYPE
  5
1F5
100
AcDbSymbolTableRecord
100
AcDbLinetypeTableRecord
  2
CENTER
 70
64
  3
____ _ ____ _ ____ _ ____ _ ____ _ ____ _ ____
 72
65
 73
4
 40
0.6
 49
0.375
 74
0
 49
-0.075
 74
0
 49
0.075
 74
0
 49
-0.075
 74
0
  0
LTYPE
  5
1F6
100
AcDbSymbolTableRecord
100
AcDbLinetypeTableRecord
  2
HIDDEN
 70
64
  3
- - - - - - - - - - - - - - - - - - - -
 72
65
 73
2
 40
0.2
 49
0.1
 74
0
 49
-0.1
 74
0
  0
LTYPE
  5
1F7
100
AcDbSymbolTableRecord
100
AcDbLinetypeTableRecord
  2
PHANTOM
 70
64
  3
_____ _ _ _____ _ _ _____ _ _ _____
 72
65
 73
6
 40
0.8
 49
0.45
 74
0
 49
-0.05
 74
0
 49
0.1
 74
0
 49
-0.05
 74
0
 49
0.1
 74
0
 49
-0.05
 74
0
  0
LTYPE
  5
1F8
100
AcDbSymbolTableRecord
100
AcDbLinetypeTableRecord
  2
DOT
 70
64
  3
. . . . . . . . . . . . . . . . . . . .
 72
65
 73
2
 40
0.2
 49
0.1
 74
0
 49
-0.1
 74
0
  0
LTYPE
  5
1F9
100
AcDbSymbolTableRecord
100
AcDbLinetypeTableRecord
  2
DASHED
 70
64
  3
- - - - - - - - - - - - - - - - - - - -
 72
65
 73
2
 40
0.2
 49
0.1
 74
0
 49
-0.1
 74
0
  0
ENDTAB
  0
TABLE
  2
LAYER
  5
2
100
AcDbSymbolTable
 70
36
  0
LAYER
  5
10
100
AcDbSymbolTableRecord
100
AcDbLayerTableRecord
  2
0
 70
0
 62
7
  6
CONTINUOUS
370
-3
390
F
  0
LAYER
  5
1FA
100
AcDbSymbolTableRecord
100
AcDbLayerTableRecord
  2
DEFAULT_1
 70
0
 62
7
  6
CENTER
370
-3
390
F
  0
LAYER
  5
1FB
100
AcDbSymbolTableRecord
100
AcDbLayerTableRecord
  2
DEFAULT_2
 70
0
 62
8
  6
HIDDEN
370
-3
390
F
  0
LAYER
  5
1FC
100
AcDbSymbolTableRecord
100
AcDbLayerTableRecord
  2
DEFAULT_3
 70
0
 62
7
  6
PHANTOM
370
-3
390
F
  0
LAYER
  5
1FD
100
AcDbSymbolTableRecord
100
AcDbLayerTableRecord
  2
BEZUGSACHSEN
 70
0
 62
7
  6
CONTINUOUS
370
-3
390
F
  0
LAYER
  5
1FE
100
AcDbSymbolTableRecord
100
AcDbLayerTableRecord
  2
BEZUGSEBENEN
 70
0
 62
7
  6
CONTINUOUS
370
-3
390
F
  0
LAYER
  5
1FF
100
AcDbSymbolTableRecord
100
AcDbLayerTableRecord
  2
BG_STARTBEZUEGE
 70
0
 62
7
  6
CONTINUOUS
370
-3
390
F
  0
LAYER
  5
200
100
AcDbSymbolTableRecord
100
AcDbLayerTableRecord
  2
FASEN
 70
0
 62
7
  6
CONTINUOUS
370
-3
390
F
  0
LAYER
  5
201
100
AcDbSymbolTableRecord
100
AcDbLayerTableRecord
  2
FLAECHEN
 70
0
 62
7
  6
CONTINUOUS
370
-3
390
F
  0
LAYER
  5
202
100
AcDbSymbolTableRecord
100
AcDbLayerTableRecord
  2
GEWINDE
 70
0
 62
7
  6
CONTINUOUS
370
-3
390
F
  0
LAYER
  5
203
100
AcDbSymbolTableRecord
100
AcDbLayerTableRecord
  2
HILFEN
 70
0
 62
7
  6
CONTINUOUS
370
-3
390
F
  0
LAYER
  5
204
100
AcDbSymbolTableRecord
100
AcDbLayerTableRecord
  2
KONSTRUKTIONSELEMENTE
 70
0
 62
7
  6
CONTINUOUS
370
-3
390
F
  0
LAYER
  5
205
100
AcDbSymbolTableRecord
100
AcDbLayerTableRecord
  2
KURVEN
 70
0
 62
7
  6
CONTINUOUS
370
-3
390
F
  0
LAYER
  5
206
100
AcDbSymbolTableRecord
100
AcDbLayerTableRecord
  2
NORM
 70
0
 62
7
  6
CONTINUOUS
370
-3
390
F
  0
LAYER
  5
207
100
AcDbSymbolTableRecord
100
AcDbLayerTableRecord
  2
PLATZIERUNG
 70
0
 62
7
  6
CONTINUOUS
370
-3
390
F
  0
LAYER
  5
208
100
AcDbSymbolTableRecord
100
AcDbLayerTableRecord
  2
RUNDUNGEN
 70
0
 62
7
  6
CONTINUOUS
370
-3
390
F
  0
LAYER
  5
209
100
AcDbSymbolTableRecord
100
AcDbLayerTableRecord
  2
TEIL_STARTBEZUEGE
 70
0
 62
7
  6
CONTINUOUS
370
-3
390
F
  0
LAYER
  5
20A
100
AcDbSymbolTableRecord
100
AcDbLayerTableRecord
  2
T_STARTBEZUEGE
 70
0
 62
7
  6
CONTINUOUS
370
-3
390
F
  0
LAYER
  5
20B
100
AcDbSymbolTableRecord
100
AcDbLayerTableRecord
  2
ZEICHNUNGSBEMASSUNGEN
 70
0
 62
7
  6
CONTINUOUS
370
-3
390
F
  0
ENDTAB
  0
TABLE
  2
STYLE
  5
3
100
AcDbSymbolTable
 70
1
  0
STYLE
  5
11
100
AcDbSymbolTableRecord
100
AcDbTextStyleTableRecord
  2
STANDARD
 70
0
 40
0.0
 41
0.7
 50
0.0
 71
0
 42
0.2
  3
txt
  4

  0
STYLE
  5
20C
100
AcDbSymbolTableRecord
100
AcDbTextStyleTableRecord
  2
TEXTSTYLE_1
 70
0
 40
0.0
 41
0.8
 50
0.0
 71
0
 42
0.2
  3
gdt
  4

  0
ENDTAB
  0
TABLE
  2
VIEW
  5
6
100
AcDbSymbolTable
 70
0
  0
ENDTAB
  0
TABLE
  2
UCS
  5
7
100
AcDbSymbolTable
 70
0
  0
ENDTAB
  0
TABLE
  2
APPID
  5
9
100
AcDbSymbolTable
 70
1
  0
APPID
  5
20D
100
AcDbSymbolTableRecord
100
AcDbRegAppTableRecord
  2
ACAD
 70
0
  0
ENDTAB
  0
TABLE
  2
BLOCK_RECORD
  5
1
100
AcDbSymbolTable
 70
0
  0
BLOCK_RECORD
  5
20E
100
AcDbSymbolTableRecord
100
AcDbBlockTableRecord
  2
*Model_Space
  0
BLOCK_RECORD
  5
20F
100
AcDbSymbolTableRecord
100
AcDbBlockTableRecord
  2
*Paper_Space
  0
ENDTAB
  0
TABLE
  2
DIMSTYLE
  5
A
100
AcDbSymbolTable
 70
1
100
AcDbDimStyleTable
 71
0
  0
DIMSTYLE
105
210
100
AcDbSymbolTableRecord
100
AcDbDimStyleTableRecord
  2
STANDARD
 70
0
  3

  4

 40
1.0
 41
3.5
 42
0.0625
 43
0.38
 44
0.18
 45
0.0
 46
0.0
 47
0.005
 48
0.005
140
3.5
141
0.09
142
0.0
143
25.4
144
1.0
145
0.0
146
1.0
147
0.09
 71
1.0
 72
0.0
 73
0
 74
0
 75
0
 76
0
 77
1
 78
8
170
0
171
2
172
0
173
0
174
0
175
0
176
0
177
0
178
5
270
2
271
3
272
3
273
2
274
2
275
0
280
0
281
0
282
0
283
1
284
8
285
0
286
0
287
3
288
0
340
11
  0
ENDTAB
  0
ENDSEC
  0
SECTION
  2
BLOCKS
  0
BLOCK
  5
20
100
AcDbEntity
  8
0
100
AcDbBlockBegin
  2
*Model_Space
 70
0
 10
0.0
 20
0.0
 30
0.0
  3
*Model_Space
  1

  0
ENDBLK
  5
21
100
AcDbEntity
  8
0
100
AcDbBlockEnd
  0
BLOCK
  5
1C
100
AcDbEntity
  8
0
100
AcDbBlockBegin
  2
*Paper_Space
 70
0
 10
0.0
 20
0.0
 30
0.0
  3
*Paper_Space
  1

  0
ENDBLK
  5
1D
100
AcDbEntity
  8
0
100
AcDbBlockEnd
  0
ENDSEC
  0
SECTION
  2
ENTITIES
  0
MTEXT
  5
211
100
AcDbEntity
  8
0
100
AcDbMText
 62
5
  6
CONTINUOUS
  7
STANDARD
 71
1
 72
1
 10
193.544360133
 20
142.0644570637
 30
0.0
 11
0.0
 21
1.0
 31
0.0
 44
0.9
  1
VRS 0,75t RUD
 40
3.0
 41
30.2142857143
  0
MTEXT
  5
212
100
AcDbEntity
  8
0
100
AcDbMText
 62
5
  6
CONTINUOUS
  7
STANDARD
 71
1
 72
1
 10
79.3652371081
 20
58.2579563097
 30
0.0
 11
1.0
 21
0.0
 31
0.0
 44
0.9
  1
VRS 0,75t RUD
 40
3.0
 41
30.2142857143
  0
LINE
  5
213
100
AcDbEntity
  8
0
100
AcDbLine
 62
7
  6
CONTINUOUS
 10
0.0
 20
0.0
 11
0.0
 21
210.0
  0
LINE
  5
214
100
AcDbEntity
  8
0
100
AcDbLine
 62
7
  6
CONTINUOUS
 10
0.0
 20
0.0
 11
297.0
 21
0.0
  0
LINE
  5
215
100
AcDbEntity
  8
0
100
AcDbLine
 62
7
  6
CONTINUOUS
 10
0.0
 20
210.0
 11
297.0
 21
210.0
  0
LINE
  5
216
100
AcDbEntity
  8
0
100
AcDbLine
 62
7
  6
CONTINUOUS
 10
297.0
 20
0.0
 11
297.0
 21
210.0
  0
LINE
  5
217
100
AcDbEntity
  8
KONSTRUKTIONSELEMENTE
100
AcDbLine
 62
7
  6
CONTINUOUS
 10
88.7135476589
 20
102.7343489312
 11
99.7132478312
 21
102.7343489312
  0
LINE
  5
218
100
AcDbEntity
  8
KONSTRUKTIONSELEMENTE
100
AcDbLine
 62
7
  6
CONTINUOUS
 10
87.213397745
 20
104.2343489312
 11
101.213397745
 21
104.2343489312
  0
LINE
  5
219
100
AcDbEntity
  8
KONSTRUKTIONSELEMENTE
100
AcDbLine
 62
7
  6
CONTINUOUS
 10
87.213397745
 20
104.2343489312
 11
88.713397745
 21
102.7343489312
  0
LINE
  5
21A
100
AcDbEntity
  8
KONSTRUKTIONSELEMENTE
100
AcDbLine
 62
7
  6
CONTINUOUS
 10
84.313397745
 20
120.7343489312
 11
104.113397745
 21
120.7343489312
  0
LINE
  5
21B
100
AcDbEntity
  8
BEZUGSACHSEN
100
AcDbLine
 62
7
  6
CONTINUOUS
 10
109.2132669201
 20
120.9343489312
 11
79.2135283896
 21
120.9343489312
  0
LINE
  5
21C
100
AcDbEntity
  8
0
100
AcDbLine
 62
7
  6
CONTINUOUS
 10
98.8488147296
 20
125.5726468019
 11
98.4321484603
 21
125.4662638359
  0
LINE
  5
21D
100
AcDbEntity
  8
0
100
AcDbLine
 62
7
  6
CONTINUOUS
 10
97.3904809989
 20
127.4875404142
 11
97.8071484603
 21
127.5939233802
  0
LINE
  5
21E
100
AcDbEntity
  8
0
100
AcDbLine
 62
7
  6
CONTINUOUS
 10
98.4321484603
 20
124.9343489312
 11
98.9529809989
 21
125.0407319065
  0
LINE
  5
21F
100
AcDbEntity
  8
0
100
AcDbLine
 62
7
  6
CONTINUOUS
 10
87.4946480133
 20
125.5726468019
 11
86.9738147296
 21
125.4662638359
  0
LINE
  5
220
100
AcDbEntity
  8
0
100
AcDbLine
 62
7
  6
CONTINUOUS
 10
97.8071484603
 20
128.1258382104
 11
97.2863147296
 21
128.0194552444
  0
LINE
  5
221
100
AcDbEntity
  8
0
100
AcDbLine
 62
7
  6
CONTINUOUS
 10
86.9738147296
 20
124.9343489312
 11
87.5988147296
 21
125.0407319065
  0
LINE
  5
222
100
AcDbEntity
  8
0
100
AcDbLine
 62
7
  6
CONTINUOUS
 10
89.6821481623
 20
124.2960510604
 11
90.202981595
 21
124.2960510604
  0
LINE
  5
223
100
AcDbEntity
  8
0
100
AcDbLine
 62
7
  6
CONTINUOUS
 10
92.702981595
 20
124.9343489312
 11
93.327981595
 21
124.9343489312
  0
LINE
  5
224
100
AcDbEntity
  8
0
100
AcDbLine
 62
7
  6
CONTINUOUS
 10
97.8071484603
 20
124.9343489312
 11
98.4321484603
 21
124.9343489312
  0
LINE
  5
225
100
AcDbEntity
  8
0
100
AcDbLine
 62
7
  6
CONTINUOUS
 10
98.4321484603
 20
125.4662638359
 11
97.8071484603
 21
125.4662638359
  0
LINE
  5
226
100
AcDbEntity
  8
0
100
AcDbLine
 62
7
  6
CONTINUOUS
 10
90.827981595
 20
125.4662638359
 11
90.3071478643
 21
125.4662638359
  0
LINE
  5
227
100
AcDbEntity
  8
0
100
AcDbLine
 62
7
  6
CONTINUOUS
 10
96.8696484603
 20
126.2109446727
 11
96.2446484603
 21
126.2109446727
  0
LINE
  5
228
100
AcDbEntity
  8
0
100
AcDbLine
 62
7
  6
CONTINUOUS
 10
96.2446484603
 20
127.1683915161
 11
96.9738147296
 21
127.1683915161
  0
LINE
  5
229
100
AcDbEntity
  8
0
100
AcDbLine
 62
7
  6
CONTINUOUS
 10
97.8071484603
 20
127.5939233802
 11
98.4321484603
 21
127.5939233802
  0
LINE
  5
22A
100
AcDbEntity
  8
0
100
AcDbLine
 62
7
  6
CONTINUOUS
 10
100.8279809989
 20
127.9130722784
 11
101.6613147296
 21
127.9130722784
  0
LINE
  5
22B
100
AcDbEntity
  8
0
100
AcDbLine
 62
7
  6
CONTINUOUS
 10
102.1821484603
 20
127.9130722784
 11
103.3279809989
 21
127.9130722784
  0
LINE
  5
22C
100
AcDbEntity
  8
0
100
AcDbLine
 62
7
  6
CONTINUOUS
 10
98.4321484603
 20
128.1258382104
 11
97.8071484603
 21
128.1258382104
  0
LINE
  5
22D
100
AcDbEntity
  8
0
100
AcDbLine
 62
7
  6
CONTINUOUS
 10
103.3279809989
 20
128.3386041425
 11
102.1821484603
 21
128.3386041425
  0
LINE
  5
22E
100
AcDbEntity
  8
0
100
AcDbLine
 62
7
  6
CONTINUOUS
 10
101.6613147296
 20
128.3386041425
 11
100.8279809989
 21
128.3386041425
  0
LINE
  5
22F
100
AcDbEntity
  8
0
100
AcDbLine
 62
7
  6
CONTINUOUS
 10
102.1821484603
 20
129.1896681689
 11
101.6613147296
 21
129.1896681689
  0
LINE
  5
230
100
AcDbEntity
  8
0
100
AcDbLine
 62
7
  6
CONTINUOUS
 10
86.3488147296
 20
125.0407319065
 11
86.9738147296
 21
124.9343489312
  0
LINE
  5
231
100
AcDbEntity
  8
0
100
AcDbLine
 62
7
  6
CONTINUOUS
 10
102.4946484603
 20
125.0407319065
 11
103.1196484603
 21
124.9343489312
  0
LINE
  5
232
100
AcDbEntity
  8
0
100
AcDbLine
 62
7
  6
CONTINUOUS
 10
87.5988147296
 20
129.8279659651
 11
86.9738147296
 21
129.9343489312
  0
LINE
  5
233
100
AcDbEntity
  8
0
100
AcDbLine
 62
7
  6
CONTINUOUS
 10
86.9738147296
 20
125.4662638359
 11
86.4529814459
 21
125.5726468019
  0
LINE
  5
234
100
AcDbEntity
  8
0
100
AcDbLine
 62
7
  6
CONTINUOUS
 10
97.2863147296
 20
125.0407319065
 11
97.8071484603
 21
124.9343489312
  0
LINE
  5
235
100
AcDbEntity
  8
0
100
AcDbLine
 62
7
  6
CONTINUOUS
 10
103.1196484603
 20
125.3598808326
 11
102.5988147296
 21
125.4662638359
  0
LINE
  5
236
100
AcDbEntity
  8
0
100
AcDbLine
 62
7
  6
CONTINUOUS
 10
86.9738147296
 20
129.402434101
 11
87.4946480133
 21
129.2960511349
  0
LINE
  5
237
100
AcDbEntity
  8
0
100
AcDbLine
 62
7
  6
CONTINUOUS
 10
97.8071484603
 20
125.4662638359
 11
97.3904809989
 21
125.5726468019
  0
LINE
  5
238
100
AcDbEntity
  8
0
100
AcDbLine
 62
7
  6
CONTINUOUS
 10
85.8279813714
 20
125.3598808326
 11
86.3488147296
 21
125.0407319065
  0
LINE
  5
239
100
AcDbEntity
  8
0
100
AcDbLine
 62
7
  6
CONTINUOUS
 10
86.4529814459
 20
125.5726468019
 11
86.1404813714
 21
125.785412734
  0
LINE
  5
23A
100
AcDbEntity
  8
0
100
AcDbLine
 62
7
  6
CONTINUOUS
 10
86.4529814459
 20
129.2960511349
 11
86.9738147296
 21
129.402434101
  0
LINE
  5
23B
100
AcDbEntity
  8
0
100
AcDbLine
 62
7
  6
CONTINUOUS
 10
86.9738147296
 20
129.9343489312
 11
86.3488147296
 21
129.8279659651
  0
LINE
  5
23C
100
AcDbEntity
  8
0
100
AcDbLine
 62
7
  6
CONTINUOUS
 10
91.6613147296
 20
129.402434101
 11
94.7863147296
 21
129.402434101
  0
LINE
  5
23D
100
AcDbEntity
  8
0
100
AcDbLine
 62
7
  6
CONTINUOUS
 10
96.7654809989
 20
129.402434101
 11
99.7863147296
 21
129.402434101
  0
LINE
  5
23E
100
AcDbEntity
  8
0
100
AcDbLine
 62
7
  6
CONTINUOUS
 10
72.213397745
 20
129.4343489312
 11
72.899403827
 21
129.4343489312
  0
LINE
  5
23F
100
AcDbEntity
  8
0
100
AcDbLine
 62
7
  6
CONTINUOUS
 10
115.5273916631
 20
129.4343489312
 11
116.213397745
 21
129.4343489312
  0
LINE
  5
240
100
AcDbEntity
  8
0
100
AcDbLine
 62
7
  6
CONTINUOUS
 10
99.7863147296
 20
129.9343489312
 11
96.2446484603
 21
129.9343489312
  0
LINE
  5
241
100
AcDbEntity
  8
0
100
AcDbLine
 62
7
  6
CONTINUOUS
 10
95.4113147296
 20
129.9343489312
 11
91.6613147296
 21
129.9343489312
  0
LINE
  5
242
100
AcDbEntity
  8
0
100
AcDbLine
 62
7
  6
CONTINUOUS
 10
98.9529809989
 20
128.0194552444
 11
98.4321484603
 21
128.1258382104
  0
LINE
  5
243
100
AcDbEntity
  8
0
100
AcDbLine
 62
7
  6
CONTINUOUS
 10
98.4321484603
 20
127.5939233802
 11
98.8488147296
 21
127.4875404142
  0
LINE
  5
244
100
AcDbEntity
  8
0
100
AcDbLine
 62
7
  6
CONTINUOUS
 10
102.1821484603
 20
125.1471148819
 11
102.4946484603
 21
125.0407319065
  0
LINE
  5
245
100
AcDbEntity
  8
0
100
AcDbLine
 62
7
  6
CONTINUOUS
 10
88.1196481623
 20
129.508817067
 11
87.5988147296
 21
129.8279659651
  0
LINE
  5
246
100
AcDbEntity
  8
0
100
AcDbLine
 62
7
  6
CONTINUOUS
 10
96.7654809989
 20
125.3598808326
 11
97.2863147296
 21
125.0407319065
  0
LINE
  5
247
100
AcDbEntity
  8
0
100
AcDbLine
 62
7
  6
CONTINUOUS
 10
87.4946480133
 20
129.2960511349
 11
87.8071481623
 21
129.0832852028
  0
LINE
  5
248
100
AcDbEntity
  8
0
100
AcDbLine
 62
7
  6
CONTINUOUS
 10
97.3904809989
 20
125.5726468019
 11
97.0779809989
 21
125.785412734
  0
LINE
  5
249
100
AcDbEntity
  8
0
100
AcDbLine
 62
7
  6
CONTINUOUS
 10
85.5154814087
 20
125.679029768
 11
85.8279813714
 21
125.3598808326
  0
LINE
  5
24A
100
AcDbEntity
  8
BEZUGSACHSEN
100
AcDbLine
 62
7
  6
CONTINUOUS
 10
74.6783306869
 20
126.7527655092
 11
73.8232833595
 21
128.8170323635
  0
LINE
  5
24B
100
AcDbEntity
  8
BEZUGSACHSEN
100
AcDbLine
 62
7
  6
CONTINUOUS
 10
70.6372772776
 20
136.5087314563
 11
66.1885399886
 21
147.2489333548
  0
LINE
  5
24C
100
AcDbEntity
  8
RUNDUNGEN
100
AcDbLine
 62
7
  6
CONTINUOUS
 10
70.713397745
 20
136.3576702734
 11
70.713397745
 21
130.9343489312
  0
LINE
  5
24D
100
AcDbEntity
  8
BEZUGSACHSEN
100
AcDbLine
 62
7
  6
CONTINUOUS
 10
70.713397745
 20
130.9343489312
 11
70.713397745
 21
136.3576675172
  0
LINE
  5
24E
100
AcDbEntity
  8
RUNDUNGEN
100
AcDbLine
 62
7
  6
CONTINUOUS
 10
125.713397745
 20
140.1343489312
 11
86.7138492659
 21
140.1343489312
  0
LINE
  5
24F
100
AcDbEntity
  8
0
100
AcDbLine
 62
7
  6
CONTINUOUS
 10
99.4738147296
 20
127.7003063463
 11
98.9529809989
 21
128.0194552444
  0
LINE
  5
250
100
AcDbEntity
  8
0
100
AcDbLine
 62
7
  6
CONTINUOUS
 10
101.8696484603
 20
125.3598808326
 11
102.1821484603
 21
125.1471148819
  0
LINE
  5
251
100
AcDbEntity
  8
0
100
AcDbLine
 62
7
  6
CONTINUOUS
 10
98.8488147296
 20
127.4875404142
 11
99.1613147296
 21
127.2747744821
  0
LINE
  5
252
100
AcDbEntity
  8
0
100
AcDbLine
 62
7
  6
CONTINUOUS
 10
102.5988147296
 20
125.4662638359
 11
102.2863147296
 21
125.679029768
  0
LINE
  5
253
100
AcDbEntity
  8
0
100
AcDbLine
 62
7
  6
CONTINUOUS
 10
88.4321481623
 20
129.1896681689
 11
88.1196481623
 21
129.508817067
  0
LINE
  5
254
100
AcDbEntity
  8
0
100
AcDbLine
 62
7
  6
CONTINUOUS
 10
86.1404813714
 20
125.785412734
 11
85.7238147296
 21
126.4237106048
  0
LINE
  5
255
100
AcDbEntity
  8
0
100
AcDbLine
 62
7
  6
CONTINUOUS
 10
87.8071481623
 20
129.0832852028
 11
88.2238147296
 21
128.4449871086
  0
LINE
  5
256
100
AcDbEntity
  8
0
100
AcDbLine
 62
7
  6
CONTINUOUS
 10
85.3071480691
 20
126.1045617066
 11
85.5154814087
 21
125.679029768
  0
LINE
  5
257
100
AcDbEntity
  8
BEZUGSACHSEN
100
AcDbLine
 62
7
  6
CONTINUOUS
 10
66.1885399886
 20
148.7796670843
 11
66.3287273803
 21
149.1181093867
  0
LINE
  5
258
100
AcDbEntity
  8
RUNDUNGEN
100
AcDbLine
 62
7
  6
CONTINUOUS
 10
66.3287273803
 20
149.1181093867
 11
73.7697174933
 21
167.082248635
  0
LINE
  5
259
100
AcDbEntity
  8
RUNDUNGEN
100
AcDbLine
 62
7
  6
CONTINUOUS
 10
86.7138492659
 20
143.2343489312
 11
125.713397745
 21
143.2343489312
  0
LINE
  5
25A
100
AcDbEntity
  8
0
100
AcDbLine
 62
7
  6
CONTINUOUS
 10
91.713397745
 20
143.5343489312
 11
96.713397745
 21
143.5343489312
  0
LINE
  5
25B
100
AcDbEntity
  8
0
100
AcDbLine
 62
7
  6
CONTINUOUS
 10
96.4529809989
 20
125.785412734
 11
96.7654809989
 21
125.3598808326
  0
LINE
  5
25C
100
AcDbEntity
  8
0
100
AcDbLine
 62
7
  6
CONTINUOUS
 10
99.7863147296
 20
127.2747744821
 11
99.4738147296
 21
127.7003063463
  0
LINE
  5
25D
100
AcDbEntity
  8
0
100
AcDbLine
 62
7
  6
CONTINUOUS
 10
88.6404812969
 20
128.7641363047
 11
88.4321481623
 21
129.1896681689
  0
LINE
  5
25E
100
AcDbEntity
  8
0
100
AcDbLine
 62
7
  6
CONTINUOUS
 10
85.2029813994
 20
126.4237106048
 11
85.3071480691
 21
126.1045617066
  0
LINE
  5
25F
100
AcDbEntity
  8
0
100
AcDbLine
 62
7
  6
CONTINUOUS
 10
79.7999851531
 20
163.4526158687
 11
79.8018658298
 21
163.2739586653
  0
LINE
  5
260
100
AcDbEntity
  8
0
100
AcDbLine
 62
7
  6
CONTINUOUS
 10
80.2287626183
 20
165.1451587471
 11
80.2325239716
 21
164.7878443404
  0
LINE
  5
261
100
AcDbEntity
  8
0
100
AcDbLine
 62
7
  6
CONTINUOUS
 10
83.0957422925
 20
164.311111406
 11
83.0919809233
 21
164.6684258286
  0
LINE
  5
262
100
AcDbEntity
  8
0
100
AcDbLine
 62
7
  6
CONTINUOUS
 10
80.5879579546
 20
164.9627404433
 11
80.630271536
 21
165.1855919048
  0
LINE
  5
263
100
AcDbEntity
  8
0
100
AcDbLine
 62
7
  6
CONTINUOUS
 10
82.7365469087
 20
164.4935297573
 11
82.6942333589
 21
164.2706782641
  0
LINE
  5
264
100
AcDbEntity
  8
0
100
AcDbLine
 62
7
  6
CONTINUOUS
 10
80.315270205
 20
165.4122042139
 11
80.2287626183
 21
165.1451587471
  0
LINE
  5
265
100
AcDbEntity
  8
0
100
AcDbLine
 62
7
  6
CONTINUOUS
 10
80.0717321851
 20
163.0924803205
 11
80.1582400247
 21
163.3595260401
  0
LINE
  5
266
100
AcDbEntity
  8
0
100
AcDbLine
 62
7
  6
CONTINUOUS
 10
83.0092342119
 20
164.0440654216
 11
83.0957422925
 21
164.311111406
  0
LINE
  5
267
100
AcDbEntity
  8
0
100
AcDbLine
 62
7
  6
CONTINUOUS
 10
80.630271536
 20
165.1855919048
 11
80.7177195875
 21
165.3633088963
  0
LINE
  5
268
100
AcDbEntity
  8
0
100
AcDbLine
 62
7
  6
CONTINUOUS
 10
79.8018658298
 20
163.2739586653
 11
79.7144177784
 21
163.0962416738
  0
LINE
  5
269
100
AcDbEntity
  8
0
100
AcDbLine
 62
7
  6
CONTINUOUS
 10
80.4469127674
 20
165.6341157163
 11
80.315270205
 21
165.4122042139
  0
LINE
  5
26A
100
AcDbEntity
  8
0
100
AcDbLine
 62
7
  6
CONTINUOUS
 10
82.6942333589
 20
164.2706782641
 11
82.5625913022
 21
164.0487672674
  0
LINE
  5
26B
100
AcDbEntity
  8
0
100
AcDbLine
 62
7
  6
CONTINUOUS
 10
82.8333981539
 20
163.7779604157
 11
83.0092342119
 21
164.0440654216
  0
LINE
  5
26C
100
AcDbEntity
  8
0
100
AcDbLine
 62
7
  6
CONTINUOUS
 10
80.6678832994
 20
165.8550862483
 11
80.4469127674
 21
165.6341157163
  0
LINE
  5
26D
100
AcDbEntity
  8
0
100
AcDbLine
 62
7
  6
CONTINUOUS
 10
78.7675339935
 20
163.9547369424
 11
77.7068738217
 21
162.8940767707
  0
LINE
  5
26E
100
AcDbEntity
  8
0
100
AcDbLine
 62
7
  6
CONTINUOUS
 10
77.353320389
 20
162.5405233379
 11
77.088155346
 21
162.275358295
  0
LINE
  5
26F
100
AcDbEntity
  8
0
100
AcDbLine
 62
7
  6
CONTINUOUS
 10
75.8507185211
 20
161.03792147
 11
75.5855534782
 21
160.7727564271
  0
LINE
  5
270
100
AcDbEntity
  8
0
100
AcDbLine
 62
7
  6
CONTINUOUS
 10
78.1977112147
 20
162.9335694635
 11
79.0374006017
 21
163.7732588505
  0
LINE
  5
271
100
AcDbEntity
  8
0
100
AcDbLine
 62
7
  6
CONTINUOUS
 10
80.7177195875
 20
165.3633088963
 11
80.9828846304
 21
165.6284739392
  0
LINE
  5
272
100
AcDbEntity
  8
0
100
AcDbLine
 62
7
  6
CONTINUOUS
 10
81.4737220235
 20
165.6679666321
 11
81.7388870664
 21
165.933131675
  0
LINE
  5
273
100
AcDbEntity
  8
0
100
AcDbLine
 62
7
  6
CONTINUOUS
 10
81.6147673371
 20
164.9965912326
 11
81.3496022941
 21
164.7314261896
  0
LINE
  5
274
100
AcDbEntity
  8
0
100
AcDbLine
 62
7
  6
CONTINUOUS
 10
79.7144177784
 20
163.0962416738
 11
78.8747283914
 21
162.2565522869
  0
LINE
  5
275
100
AcDbEntity
  8
0
100
AcDbLine
 62
7
  6
CONTINUOUS
 10
79.1455352115
 20
161.9857454668
 11
79.8968360822
 21
162.7370463375
  0
LINE
  5
276
100
AcDbEntity
  8
0
100
AcDbLine
 62
7
  6
CONTINUOUS
 10
81.6204091142
 20
164.4606193695
 11
81.8855741572
 21
164.7257844125
  0
LINE
  5
277
100
AcDbEntity
  8
0
100
AcDbLine
 62
7
  6
CONTINUOUS
 10
80.9339888071
 20
166.030922816
 11
80.6678832994
 21
165.8550862483
  0
LINE
  5
278
100
AcDbEntity
  8
RUNDUNGEN
100
AcDbLine
 62
7
  6
CONTINUOUS
 10
74.8521096936
 20
168.1646408353
 11
93.4480308803
 21
175.8673235956
  0
LINE
  5
279
100
AcDbEntity
  8
0
100
AcDbLine
 62
7
  6
CONTINUOUS
 10
77.7068738217
 20
162.8940767707
 11
79.8281941653
 21
160.7727564271
  0
LINE
  5
27A
100
AcDbEntity
  8
0
100
AcDbLine
 62
7
  6
CONTINUOUS
 10
80.0933592082
 20
161.03792147
 11
79.1455352115
 21
161.9857454668
  0
LINE
  5
27B
100
AcDbEntity
  8
0
100
AcDbLine
 62
7
  6
CONTINUOUS
 10
78.8747283914
 20
162.2565522869
 11
78.1977112147
 21
162.9335694635
  0
LINE
  5
27C
100
AcDbEntity
  8
0
100
AcDbLine
 62
7
  6
CONTINUOUS
 10
99.1613147296
 20
127.2747744821
 11
99.3696484603
 21
126.955625584
  0
LINE
  5
27D
100
AcDbEntity
  8
0
100
AcDbLine
 62
7
  6
CONTINUOUS
 10
80.2325239716
 20
164.7878443404
 11
80.3688673407
 21
164.5631119493
  0
LINE
  5
27E
100
AcDbEntity
  8
0
100
AcDbLine
 62
7
  6
CONTINUOUS
 10
79.7087760012
 20
163.6322135369
 11
79.7999851531
 21
163.4526158687
  0
LINE
  5
27F
100
AcDbEntity
  8
0
100
AcDbLine
 62
7
  6
CONTINUOUS
 10
80.1102846661
 20
163.6726464416
 11
80.0190755142
 21
163.8522441098
  0
LINE
  5
280
100
AcDbEntity
  8
0
100
AcDbLine
 62
7
  6
CONTINUOUS
 10
80.6791669801
 20
164.7831423958
 11
80.5879579546
 21
164.9627404433
  0
LINE
  5
281
100
AcDbEntity
  8
0
100
AcDbLine
 62
7
  6
CONTINUOUS
 10
78.7675339935
 20
159.7120962553
 11
77.353320389
 21
162.5405233379
  0
LINE
  5
282
100
AcDbEntity
  8
0
100
AcDbLine
 62
7
  6
CONTINUOUS
 10
77.088155346
 20
162.275358295
 11
78.3199504254
 21
159.8061263906
  0
LINE
  5
283
100
AcDbEntity
  8
0
100
AcDbLine
 62
7
  6
CONTINUOUS
 10
96.2446484603
 20
126.2109446727
 11
96.4529809989
 21
125.785412734
  0
LINE
  5
284
100
AcDbEntity
  8
0
100
AcDbLine
 62
7
  6
CONTINUOUS
 10
97.0779809989
 20
125.785412734
 11
96.8696484603
 21
126.2109446727
  0
LINE
  5
285
100
AcDbEntity
  8
0
100
AcDbLine
 62
7
  6
CONTINUOUS
 10
88.7446481623
 20
128.4449871086
 11
88.6404812969
 21
128.7641363047
  0
LINE
  5
286
100
AcDbEntity
  8
0
100
AcDbLine
 62
7
  6
CONTINUOUS
 10
82.6895320149
 20
164.7173216835
 11
82.7365469087
 21
164.4935297573
  0
LINE
  5
287
100
AcDbEntity
  8
0
100
AcDbLine
 62
7
  6
CONTINUOUS
 10
85.0988147296
 20
126.955625584
 11
85.2029813994
 21
126.4237106048
  0
LINE
  5
288
100
AcDbEntity
  8
0
100
AcDbLine
 62
7
  6
CONTINUOUS
 10
88.8488147296
 20
127.9130722784
 11
88.7446481623
 21
128.4449871086
  0
LINE
  5
289
100
AcDbEntity
  8
0
100
AcDbLine
 62
7
  6
CONTINUOUS
 10
85.7238147296
 20
126.4237106048
 11
85.6196480505
 21
127.06200855
  0
LINE
  5
28A
100
AcDbEntity
  8
0
100
AcDbLine
 62
7
  6
CONTINUOUS
 10
88.2238147296
 20
128.4449871086
 11
88.3279812969
 21
127.8066893123
  0
LINE
  5
28B
100
AcDbEntity
  8
0
100
AcDbLine
 62
7
  6
CONTINUOUS
 10
80.1582400247
 20
163.3595260401
 11
80.1102846661
 21
163.6726464416
  0
LINE
  5
28C
100
AcDbEntity
  8
KONSTRUKTIONSELEMENTE
100
AcDbLine
 62
7
  6
CONTINUOUS
 10
84.313397745
 20
120.9343489312
 11
84.313397745
 21
120.7343489312
  0
LINE
  5
28D
100
AcDbEntity
  8
0
100
AcDbLine
 62
7
  6
CONTINUOUS
 10
85.0988147296
 20
127.9130722784
 11
85.0988147296
 21
126.955625584
  0
LINE
  5
28E
100
AcDbEntity
  8
0
100
AcDbLine
 62
7
  6
CONTINUOUS
 10
85.6196480505
 20
127.06200855
 11
85.6196480505
 21
127.8066893123
  0
LINE
  5
28F
100
AcDbEntity
  8
0
100
AcDbLine
 62
7
  6
CONTINUOUS
 10
86.213397745
 20
140.6343489312
 11
86.213397745
 21
142.7343489312
  0
LINE
  5
290
100
AcDbEntity
  8
KONSTRUKTIONSELEMENTE
100
AcDbLine
 62
7
  6
CONTINUOUS
 10
87.213397745
 20
120.7343489312
 11
87.213397745
 21
104.2343489312
  0
LINE
  5
291
100
AcDbEntity
  8
0
100
AcDbLine
 62
7
  6
CONTINUOUS
 10
88.3279812969
 20
127.8066893123
 11
88.3279812969
 21
127.06200855
  0
LINE
  5
292
100
AcDbEntity
  8
0
100
AcDbLine
 62
7
  6
CONTINUOUS
 10
88.8488147296
 20
126.955625584
 11
88.8488147296
 21
127.9130722784
  0
LINE
  5
293
100
AcDbEntity
  8
0
100
AcDbLine
 62
7
  6
CONTINUOUS
 10
92.213397745
 20
168.7800936006
 11
92.400897745
 21
169.0354127191
  0
LINE
  5
294
100
AcDbEntity
  8
0
100
AcDbLine
 62
7
  6
CONTINUOUS
 10
92.025897745
 20
169.0992424987
 11
91.9008976854
 21
168.9715829395
  0
LINE
  5
295
100
AcDbEntity
  8
0
100
AcDbLine
 62
7
  6
CONTINUOUS
 10
81.5395428621
 20
163.6576014708
 11
81.2743780721
 21
163.3924366807
  0
LINE
  5
296
100
AcDbEntity
  8
0
100
AcDbLine
 62
7
  6
CONTINUOUS
 10
82.5625913022
 20
164.0487672674
 11
82.209037743
 21
163.6952137082
  0
LINE
  5
297
100
AcDbEntity
  8
0
100
AcDbLine
 62
7
  6
CONTINUOUS
 10
78.413980624
 20
159.3585428858
 11
78.7675339935
 21
159.7120962553
  0
LINE
  5
298
100
AcDbEntity
  8
0
100
AcDbLine
 62
7
  6
CONTINUOUS
 10
79.8281941653
 20
160.7727564271
 11
80.0933592082
 21
161.03792147
  0
LINE
  5
299
100
AcDbEntity
  8
0
100
AcDbLine
 62
7
  6
CONTINUOUS
 10
81.1982136381
 20
162.1427758999
 11
81.5075726863
 21
162.4521349481
  0
LINE
  5
29A
100
AcDbEntity
  8
0
100
AcDbLine
 62
7
  6
CONTINUOUS
 10
82.4798445947
 20
163.4244068565
 11
82.8333981539
 21
163.7779604157
  0
LINE
  5
29B
100
AcDbEntity
  8
0
100
AcDbLine
 62
7
  6
CONTINUOUS
 10
79.0336392483
 20
164.1305732572
 11
78.7675339935
 21
163.9547369424
  0
LINE
  5
29C
100
AcDbEntity
  8
0
100
AcDbLine
 62
7
  6
CONTINUOUS
 10
81.880872339
 20
165.1724272945
 11
81.6147673371
 21
164.9965912326
  0
LINE
  5
29D
100
AcDbEntity
  8
0
100
AcDbLine
 62
7
  6
CONTINUOUS
 10
82.2137390831
 20
163.2485702928
 11
82.4798445947
 21
163.4244068565
  0
LINE
  5
29E
100
AcDbEntity
  8
0
100
AcDbLine
 62
7
  6
CONTINUOUS
 10
81.8855741572
 20
164.7257844125
 11
82.1074851539
 21
164.8574264692
  0
LINE
  5
29F
100
AcDbEntity
  8
0
100
AcDbLine
 62
7
  6
CONTINUOUS
 10
81.3984976117
 20
164.3289768071
 11
81.6204091142
 21
164.4606193695
  0
LINE
  5
2A0
100
AcDbEntity
  8
0
100
AcDbLine
 62
7
  6
CONTINUOUS
 10
82.209037743
 20
163.6952137082
 11
81.9871267463
 21
163.5635716515
  0
LINE
  5
2A1
100
AcDbEntity
  8
0
100
AcDbLine
 62
7
  6
CONTINUOUS
 10
91.9633978047
 20
168.6524340414
 11
92.213397745
 21
168.7800936006
  0
LINE
  5
2A2
100
AcDbEntity
  8
0
100
AcDbLine
 62
7
  6
CONTINUOUS
 10
80.9828846304
 20
165.6284739392
 11
81.1606016219
 21
165.7159219907
  0
LINE
  5
2A3
100
AcDbEntity
  8
0
100
AcDbLine
 62
7
  6
CONTINUOUS
 10
79.0374006017
 20
163.7732588505
 11
79.2151175932
 21
163.8607069019
  0
LINE
  5
2A4
100
AcDbEntity
  8
0
100
AcDbLine
 62
7
  6
CONTINUOUS
 10
81.3496022941
 20
164.7314261896
 11
81.1718853027
 21
164.6439781382
  0
LINE
  5
2A5
100
AcDbEntity
  8
0
100
AcDbLine
 62
7
  6
CONTINUOUS
 10
91.9008976854
 20
168.9715829395
 11
91.7133976854
 21
168.9077531599
  0
LINE
  5
2A6
100
AcDbEntity
  8
0
100
AcDbLine
 62
7
  6
CONTINUOUS
 10
82.1479183115
 20
165.2589353869
 11
81.880872339
 21
165.1724272945
  0
LINE
  5
2A7
100
AcDbEntity
  8
0
100
AcDbLine
 62
7
  6
CONTINUOUS
 10
81.131452145
 20
164.2424692204
 11
81.3984976117
 21
164.3289768071
  0
LINE
  5
2A8
100
AcDbEntity
  8
0
100
AcDbLine
 62
7
  6
CONTINUOUS
 10
79.8968360822
 20
162.7370463375
 11
81.1982136381
 21
162.1427758999
  0
LINE
  5
2A9
100
AcDbEntity
  8
0
100
AcDbLine
 62
7
  6
CONTINUOUS
 10
78.3199504254
 20
159.8061263906
 11
75.8507185211
 21
161.03792147
  0
LINE
  5
2AA
100
AcDbEntity
  8
0
100
AcDbLine
 62
7
  6
CONTINUOUS
 10
75.5855534782
 20
160.7727564271
 11
78.413980624
 21
159.3585428858
  0
LINE
  5
2AB
100
AcDbEntity
  8
0
100
AcDbLine
 62
7
  6
CONTINUOUS
 10
79.3937747966
 20
163.8588262253
 11
79.5733724647
 21
163.7676170733
  0
LINE
  5
2AC
100
AcDbEntity
  8
0
100
AcDbLine
 62
7
  6
CONTINUOUS
 10
81.2743780721
 20
163.3924366807
 11
81.4991099574
 21
163.2560928059
  0
LINE
  5
2AD
100
AcDbEntity
  8
0
100
AcDbLine
 62
7
  6
CONTINUOUS
 10
80.5494053472
 20
164.3825739428
 11
80.7741377382
 21
164.2462305737
  0
LINE
  5
2AE
100
AcDbEntity
  8
0
100
AcDbLine
 62
7
  6
CONTINUOUS
 10
79.5733724647
 20
163.7676170733
 11
79.7087760012
 21
163.6322135369
  0
LINE
  5
2AF
100
AcDbEntity
  8
0
100
AcDbLine
 62
7
  6
CONTINUOUS
 10
80.0190755142
 20
163.8522441098
 11
79.8385375077
 21
164.0327821163
  0
LINE
  5
2B0
100
AcDbEntity
  8
0
100
AcDbLine
 62
7
  6
CONTINUOUS
 10
80.3688673407
 20
164.5631119493
 11
80.5494053472
 21
164.3825739428
  0
LINE
  5
2B1
100
AcDbEntity
  8
0
100
AcDbLine
 62
7
  6
CONTINUOUS
 10
80.7694359201
 20
164.6928734558
 11
80.6791669801
 21
164.7831423958
  0
LINE
  5
2B2
100
AcDbEntity
  8
0
100
AcDbLine
 62
7
  6
CONTINUOUS
 10
82.5541286049
 20
164.8527250936
 11
82.6895320149
 21
164.7173216835
  0
LINE
  5
2B3
100
AcDbEntity
  8
0
100
AcDbLine
 62
7
  6
CONTINUOUS
 10
82.9998315279
 20
164.9373522565
 11
82.7741591778
 21
165.1630246065
  0
LINE
  5
2B4
100
AcDbEntity
  8
0
100
AcDbLine
 62
7
  6
CONTINUOUS
 10
101.6613147296
 20
125.785412734
 11
101.8696484603
 21
125.3598808326
  0
LINE
  5
2B5
100
AcDbEntity
  8
0
100
AcDbLine
 62
7
  6
CONTINUOUS
 10
99.9946484603
 20
126.7428595029
 11
99.7863147296
 21
127.2747744821
  0
LINE
  5
2B6
100
AcDbEntity
  8
0
100
AcDbLine
 62
7
  6
CONTINUOUS
 10
83.0919809233
 20
164.6684258286
 11
82.9998315279
 21
164.9373522565
  0
LINE
  5
2B7
100
AcDbEntity
  8
0
100
AcDbLine
 62
7
  6
CONTINUOUS
 10
99.3696484603
 20
126.955625584
 11
99.4738147296
 21
126.6364765369
  0
LINE
  5
2B8
100
AcDbEntity
  8
0
100
AcDbLine
 62
7
  6
CONTINUOUS
 10
89.7100656454
 20
140.1343489312
 11
89.7100656454
 21
134.7226538496
  0
LINE
  5
2B9
100
AcDbEntity
  8
0
100
AcDbLine
 62
7
  6
CONTINUOUS
 10
90.150897745
 20
170.1843489312
 11
90.150897745
 21
167.1843489312
  0
LINE
  5
2BA
100
AcDbEntity
  8
BEZUGSACHSEN
100
AcDbLine
 62
7
  6
CONTINUOUS
 10
90.2034431383
 20
140.1343489312
 11
90.2034431383
 21
134.673720734
  0
LINE
  5
2BB
100
AcDbEntity
  8
0
100
AcDbLine
 62
7
  6
CONTINUOUS
 10
90.525897745
 20
167.1843489312
 11
90.525897745
 21
168.5247744821
  0
LINE
  5
2BC
100
AcDbEntity
  8
0
100
AcDbLine
 62
7
  6
CONTINUOUS
 10
90.525897745
 20
168.9077531599
 11
90.525897745
 21
169.8652000331
  0
LINE
  5
2BD
100
AcDbEntity
  8
BEZUGSACHSEN
100
AcDbLine
 62
7
  6
CONTINUOUS
 10
91.4683542023
 20
140.1343489312
 11
91.4683542023
 21
134.5626946656
  0
LINE
  5
2BE
100
AcDbEntity
  8
0
100
AcDbLine
 62
7
  6
CONTINUOUS
 10
91.6613147296
 20
129.9343489312
 11
91.6613147296
 21
129.402434101
  0
LINE
  5
2BF
100
AcDbEntity
  8
0
100
AcDbLine
 62
7
  6
CONTINUOUS
 10
91.713397745
 20
143.2343489312
 11
91.713397745
 21
143.5343489312
  0
LINE
  5
2C0
100
AcDbEntity
  8
0
100
AcDbLine
 62
7
  6
CONTINUOUS
 10
91.9617316952
 20
140.1343489312
 11
91.9617316952
 21
134.5240745107
  0
LINE
  5
2C1
100
AcDbEntity
  8
0
100
AcDbLine
 62
7
  6
CONTINUOUS
 10
92.0883976854
 20
169.4822213553
 11
92.0883976854
 21
169.2907318376
  0
LINE
  5
2C2
100
AcDbEntity
  8
0
100
AcDbLine
 62
7
  6
CONTINUOUS
 10
92.4633976854
 20
169.226902058
 11
92.4633976854
 21
169.4822213553
  0
LINE
  5
2C3
100
AcDbEntity
  8
BEZUGSACHSEN
100
AcDbLine
 62
7
  6
CONTINUOUS
 10
92.948486681
 20
140.1343489312
 11
92.948486681
 21
134.4623845944
  0
LINE
  5
2C4
100
AcDbEntity
  8
0
100
AcDbLine
 62
7
  6
CONTINUOUS
 10
93.0258976854
 20
170.1843489312
 11
93.0258976854
 21
168.2056254946
  0
LINE
  5
2C5
100
AcDbEntity
  8
0
100
AcDbLine
 62
7
  6
CONTINUOUS
 10
93.4008978643
 20
168.2056254946
 11
93.4008978643
 21
170.1843489312
  0
LINE
  5
2C6
100
AcDbEntity
  8
0
100
AcDbLine
 62
7
  6
CONTINUOUS
 10
94.213397745
 20
143.2343489312
 11
94.213397745
 21
143.5343489312
  0
LINE
  5
2C7
100
AcDbEntity
  8
0
100
AcDbLine
 62
7
  6
CONTINUOUS
 10
94.9008978643
 20
170.1843489312
 11
94.9008978643
 21
168.2056254946
  0
LINE
  5
2C8
100
AcDbEntity
  8
0
100
AcDbLine
 62
7
  6
CONTINUOUS
 10
85.6196480505
 20
127.8066893123
 11
85.7238147296
 21
128.4449871086
  0
LINE
  5
2C9
100
AcDbEntity
  8
0
100
AcDbLine
 62
7
  6
CONTINUOUS
 10
88.3279812969
 20
127.06200855
 11
88.2238147296
 21
126.4237106048
  0
LINE
  5
2CA
100
AcDbEntity
  8
0
100
AcDbLine
 62
7
  6
CONTINUOUS
 10
85.2029813994
 20
128.4449871086
 11
85.0988147296
 21
127.9130722784
  0
LINE
  5
2CB
100
AcDbEntity
  8
0
100
AcDbLine
 62
7
  6
CONTINUOUS
 10
95.213397745
 20
167.8864765965
 11
95.2758978643
 21
168.2056254946
  0
LINE
  5
2CC
100
AcDbEntity
  8
0
100
AcDbLine
 62
7
  6
CONTINUOUS
 10
94.9008978643
 20
168.2056254946
 11
94.838397745
 21
167.9503063761
  0
LINE
  5
2CD
100
AcDbEntity
  8
0
100
AcDbLine
 62
7
  6
CONTINUOUS
 10
92.0883976854
 20
169.2907318376
 11
92.025897745
 21
169.0992424987
  0
LINE
  5
2CE
100
AcDbEntity
  8
0
100
AcDbLine
 62
7
  6
CONTINUOUS
 10
92.400897745
 20
169.0354127191
 11
92.4633976854
 21
169.226902058
  0
LINE
  5
2CF
100
AcDbEntity
  8
0
100
AcDbLine
 62
7
  6
CONTINUOUS
 10
95.0883978643
 20
167.6311574333
 11
95.213397745
 21
167.8864765965
  0
LINE
  5
2D0
100
AcDbEntity
  8
0
100
AcDbLine
 62
7
  6
CONTINUOUS
 10
94.838397745
 20
167.9503063761
 11
94.7133978643
 21
167.7588170372
  0
LINE
  5
2D1
100
AcDbEntity
  8
0
100
AcDbLine
 62
7
  6
CONTINUOUS
 10
97.838397745
 20
167.9503063761
 11
97.7133975066
 21
167.7588170372
  0
LINE
  5
2D2
100
AcDbEntity
  8
0
100
AcDbLine
 62
7
  6
CONTINUOUS
 10
94.838397745
 20
167.3758382924
 11
95.0883978643
 21
167.6311574333
  0
LINE
  5
2D3
100
AcDbEntity
  8
0
100
AcDbLine
 62
7
  6
CONTINUOUS
 10
97.838397745
 20
167.3758382924
 11
98.0883975066
 21
167.6311574333
  0
LINE
  5
2D4
100
AcDbEntity
  8
0
100
AcDbLine
 62
7
  6
CONTINUOUS
 10
94.7133978643
 20
167.7588170372
 11
94.5258978643
 21
167.6311574333
  0
LINE
  5
2D5
100
AcDbEntity
  8
0
100
AcDbLine
 62
7
  6
CONTINUOUS
 10
97.7133975066
 20
167.7588170372
 11
97.5258975066
 21
167.6311574333
  0
LINE
  5
2D6
100
AcDbEntity
  8
0
100
AcDbLine
 62
7
  6
CONTINUOUS
 10
94.5883976258
 20
167.2481787164
 11
94.838397745
 21
167.3758382924
  0
LINE
  5
2D7
100
AcDbEntity
  8
0
100
AcDbLine
 62
7
  6
CONTINUOUS
 10
97.5883979835
 20
167.2481787164
 11
97.838397745
 21
167.3758382924
  0
LINE
  5
2D8
100
AcDbEntity
  8
0
100
AcDbLine
 62
7
  6
CONTINUOUS
 10
79.6589398395
 20
164.1239912682
 11
79.345819438
 21
164.1719466268
  0
LINE
  5
2D9
100
AcDbEntity
  8
0
100
AcDbLine
 62
7
  6
CONTINUOUS
 10
82.3303366154
 20
164.8997400506
 11
82.5541286049
 21
164.8527250936
  0
LINE
  5
2DA
100
AcDbEntity
  8
0
100
AcDbLine
 62
7
  6
CONTINUOUS
 10
81.4991099574
 20
163.2560928059
 11
81.8573651292
 21
163.1630031828
  0
LINE
  5
2DB
100
AcDbEntity
  8
0
100
AcDbLine
 62
7
  6
CONTINUOUS
 10
82.7741591778
 20
165.1630246065
 11
82.5052327183
 21
165.2551740336
  0
LINE
  5
2DC
100
AcDbEntity
  8
0
100
AcDbLine
 62
7
  6
CONTINUOUS
 10
81.3392585724
 20
165.7140410611
 11
81.4737220235
 21
165.6679666321
  0
LINE
  5
2DD
100
AcDbEntity
  8
0
100
AcDbLine
 62
7
  6
CONTINUOUS
 10
81.5075726863
 20
162.4521349481
 11
80.0717321851
 21
163.0924803205
  0
LINE
  5
2DE
100
AcDbEntity
  8
0
100
AcDbLine
 62
7
  6
CONTINUOUS
 10
79.8385375077
 20
164.0327821163
 11
79.6589398395
 21
164.1239912682
  0
LINE
  5
2DF
100
AcDbEntity
  8
0
100
AcDbLine
 62
7
  6
CONTINUOUS
 10
81.7191407832
 20
163.5663925717
 11
81.5395428621
 21
163.6576014708
  0
LINE
  5
2E0
100
AcDbEntity
  8
0
100
AcDbLine
 62
7
  6
CONTINUOUS
 10
80.9490338411
 20
164.6016645567
 11
80.7694359201
 21
164.6928734558
  0
LINE
  5
2E1
100
AcDbEntity
  8
0
100
AcDbLine
 62
7
  6
CONTINUOUS
 10
81.7388870664
 20
165.933131675
 11
81.5592891454
 21
166.0243405741
  0
LINE
  5
2E2
100
AcDbEntity
  8
0
100
AcDbLine
 62
7
  6
CONTINUOUS
 10
92.5258978047
 20
167.1843489312
 11
91.9633978047
 21
168.6524340414
  0
LINE
  5
2E3
100
AcDbEntity
  8
0
100
AcDbLine
 62
7
  6
CONTINUOUS
 10
91.5883977152
 20
168.5247744821
 11
92.0883976854
 21
167.1843489312
  0
LINE
  5
2E4
100
AcDbEntity
  8
0
100
AcDbLine
 62
7
  6
CONTINUOUS
 10
102.2863147296
 20
125.679029768
 11
102.1821484603
 21
125.9981787406
  0
LINE
  5
2E5
100
AcDbEntity
  8
0
100
AcDbLine
 62
7
  6
CONTINUOUS
 10
92.025897745
 20
169.6737106942
 11
92.0883976854
 21
169.4822213553
  0
LINE
  5
2E6
100
AcDbEntity
  8
0
100
AcDbLine
 62
7
  6
CONTINUOUS
 10
92.4633976854
 20
169.4822213553
 11
92.400897745
 21
169.6737106942
  0
LINE
  5
2E7
100
AcDbEntity
  8
0
100
AcDbLine
 62
7
  6
CONTINUOUS
 10
93.4633976258
 20
167.9503063761
 11
93.4008978643
 21
168.2056254946
  0
LINE
  5
2E8
100
AcDbEntity
  8
0
100
AcDbLine
 62
7
  6
CONTINUOUS
 10
93.0258976854
 20
168.2056254946
 11
93.0883978047
 21
167.8864765965
  0
LINE
  5
2E9
100
AcDbEntity
  8
0
100
AcDbLine
 62
7
  6
CONTINUOUS
 10
95.2758978643
 20
168.2056254946
 11
95.2758978643
 21
170.1843489312
  0
LINE
  5
2EA
100
AcDbEntity
  8
0
100
AcDbLine
 62
7
  6
CONTINUOUS
 10
95.4113147296
 20
129.402434101
 11
95.4113147296
 21
129.9343489312
  0
LINE
  5
2EB
100
AcDbEntity
  8
BEZUGSACHSEN
100
AcDbLine
 62
7
  6
CONTINUOUS
 10
95.4783088091
 20
140.1343489312
 11
95.4783088091
 21
134.4623838364
  0
LINE
  5
2EC
100
AcDbEntity
  8
0
100
AcDbLine
 62
7
  6
CONTINUOUS
 10
95.775897745
 20
170.1843489312
 11
95.775897745
 21
167.1843489312
  0
LINE
  5
2ED
100
AcDbEntity
  8
0
100
AcDbLine
 62
7
  6
CONTINUOUS
 10
96.150897745
 20
167.5673276536
 11
96.150897745
 21
169.8013702534
  0
LINE
  5
2EE
100
AcDbEntity
  8
0
100
AcDbLine
 62
7
  6
CONTINUOUS
 10
96.2446484603
 20
129.9343489312
 11
96.2446484603
 21
127.1683915161
  0
LINE
  5
2EF
100
AcDbEntity
  8
0
100
AcDbLine
 62
7
  6
CONTINUOUS
 10
96.4650637949
 20
140.1343489312
 11
96.4650637949
 21
134.5240736624
  0
LINE
  5
2F0
100
AcDbEntity
  8
0
100
AcDbLine
 62
7
  6
CONTINUOUS
 10
96.713397745
 20
143.2343489312
 11
96.713397745
 21
143.5343489312
  0
LINE
  5
2F1
100
AcDbEntity
  8
0
100
AcDbLine
 62
7
  6
CONTINUOUS
 10
96.7654809989
 20
127.7003063463
 11
96.7654809989
 21
129.402434101
  0
LINE
  5
2F2
100
AcDbEntity
  8
BEZUGSACHSEN
100
AcDbLine
 62
7
  6
CONTINUOUS
 10
96.9584412878
 20
140.1343489312
 11
96.9584412878
 21
134.5626942422
  0
LINE
  5
2F3
100
AcDbEntity
  8
0
100
AcDbLine
 62
7
  6
CONTINUOUS
 10
97.9008975066
 20
169.1630722784
 11
97.9008975066
 21
168.2056254946
  0
LINE
  5
2F4
100
AcDbEntity
  8
BEZUGSACHSEN
100
AcDbLine
 62
7
  6
CONTINUOUS
 10
98.2233523518
 20
140.1343489312
 11
98.2233523518
 21
134.6737201529
  0
LINE
  5
2F5
100
AcDbEntity
  8
0
100
AcDbLine
 62
7
  6
CONTINUOUS
 10
98.2758975066
 20
168.2056254946
 11
98.2758975066
 21
169.1630722784
  0
LINE
  5
2F6
100
AcDbEntity
  8
0
100
AcDbLine
 62
7
  6
CONTINUOUS
 10
98.7167298447
 20
140.1343489312
 11
98.7167298447
 21
134.7226541573
  0
LINE
  5
2F7
100
AcDbEntity
  8
0
100
AcDbLine
 62
7
  6
CONTINUOUS
 10
99.4738147296
 20
126.6364765369
 11
99.4738147296
 21
126.4237106048
  0
LINE
  5
2F8
100
AcDbEntity
  8
0
100
AcDbLine
 62
7
  6
CONTINUOUS
 10
99.7863147296
 20
129.402434101
 11
99.7863147296
 21
129.9343489312
  0
LINE
  5
2F9
100
AcDbEntity
  8
0
100
AcDbLine
 62
7
  6
CONTINUOUS
 10
99.9946484603
 20
126.3173276387
 11
99.9946484603
 21
126.7428595029
  0
LINE
  5
2FA
100
AcDbEntity
  8
0
100
AcDbLine
 62
7
  6
CONTINUOUS
 10
88.7446481623
 20
126.4237106048
 11
88.8488147296
 21
126.955625584
  0
LINE
  5
2FB
100
AcDbEntity
  8
0
100
AcDbLine
 62
7
  6
CONTINUOUS
 10
98.213397745
 20
167.8864765965
 11
98.2758975066
 21
168.2056254946
  0
LINE
  5
2FC
100
AcDbEntity
  8
0
100
AcDbLine
 62
7
  6
CONTINUOUS
 10
97.9008975066
 20
168.2056254946
 11
97.838397745
 21
167.9503063761
  0
LINE
  5
2FD
100
AcDbEntity
  8
0
100
AcDbLine
 62
7
  6
CONTINUOUS
 10
85.3071480691
 20
128.7641363047
 11
85.2029813994
 21
128.4449871086
  0
LINE
  5
2FE
100
AcDbEntity
  8
0
100
AcDbLine
 62
7
  6
CONTINUOUS
 10
88.6404812969
 20
126.1045617066
 11
88.7446481623
 21
126.4237106048
  0
LINE
  5
2FF
100
AcDbEntity
  8
0
100
AcDbLine
 62
7
  6
CONTINUOUS
 10
98.0883975066
 20
167.6311574333
 11
98.213397745
 21
167.8864765965
  0
LINE
  5
300
100
AcDbEntity
  8
0
100
AcDbLine
 62
7
  6
CONTINUOUS
 10
97.5258975066
 20
167.6311574333
 11
97.275897745
 21
167.5673276536
  0
LINE
  5
301
100
AcDbEntity
  8
0
100
AcDbLine
 62
7
  6
CONTINUOUS
 10
94.5258978643
 20
167.6311574333
 11
94.275897745
 21
167.5673276536
  0
LINE
  5
302
100
AcDbEntity
  8
0
100
AcDbLine
 62
7
  6
CONTINUOUS
 10
81.8573651292
 20
163.1630031828
 11
82.2137390831
 21
163.2485702928
  0
LINE
  5
303
100
AcDbEntity
  8
0
100
AcDbLine
 62
7
  6
CONTINUOUS
 10
97.275897745
 20
167.1843489312
 11
97.5883979835
 21
167.2481787164
  0
LINE
  5
304
100
AcDbEntity
  8
0
100
AcDbLine
 62
7
  6
CONTINUOUS
 10
94.275897745
 20
167.1843489312
 11
94.5883976258
 21
167.2481787164
  0
LINE
  5
305
100
AcDbEntity
  8
0
100
AcDbLine
 62
7
  6
CONTINUOUS
 10
81.1718853027
 20
164.6439781382
 11
80.9490338411
 21
164.6016645567
  0
LINE
  5
306
100
AcDbEntity
  8
0
100
AcDbLine
 62
7
  6
CONTINUOUS
 10
82.1074851539
 20
164.8574264692
 11
82.3303366154
 21
164.8997400506
  0
LINE
  5
307
100
AcDbEntity
  8
0
100
AcDbLine
 62
7
  6
CONTINUOUS
 10
79.345819438
 20
164.1719466268
 11
79.0336392483
 21
164.1305732572
  0
LINE
  5
308
100
AcDbEntity
  8
0
100
AcDbLine
 62
7
  6
CONTINUOUS
 10
81.2461687438
 20
166.0722959326
 11
80.9339888071
 21
166.030922816
  0
LINE
  5
309
100
AcDbEntity
  8
0
100
AcDbLine
 62
7
  6
CONTINUOUS
 10
90.150897745
 20
167.1843489312
 11
90.525897745
 21
167.1843489312
  0
LINE
  5
30A
100
AcDbEntity
  8
0
100
AcDbLine
 62
7
  6
CONTINUOUS
 10
92.0883976854
 20
167.1843489312
 11
92.5258978047
 21
167.1843489312
  0
LINE
  5
30B
100
AcDbEntity
  8
0
100
AcDbLine
 62
7
  6
CONTINUOUS
 10
94.0258976258
 20
167.1843489312
 11
94.275897745
 21
167.1843489312
  0
LINE
  5
30C
100
AcDbEntity
  8
0
100
AcDbLine
 62
7
  6
CONTINUOUS
 10
95.775897745
 20
167.1843489312
 11
97.275897745
 21
167.1843489312
  0
LINE
  5
30D
100
AcDbEntity
  8
0
100
AcDbLine
 62
7
  6
CONTINUOUS
 10
97.275897745
 20
167.5673276536
 11
96.150897745
 21
167.5673276536
  0
LINE
  5
30E
100
AcDbEntity
  8
0
100
AcDbLine
 62
7
  6
CONTINUOUS
 10
94.275897745
 20
167.5673276536
 11
94.0258976258
 21
167.5673276536
  0
LINE
  5
30F
100
AcDbEntity
  8
0
100
AcDbLine
 62
7
  6
CONTINUOUS
 10
81.9871267463
 20
163.5635716515
 11
81.7191407832
 21
163.5663925717
  0
LINE
  5
310
100
AcDbEntity
  8
0
100
AcDbLine
 62
7
  6
CONTINUOUS
 10
79.2151175932
 20
163.8607069019
 11
79.3937747966
 21
163.8588262253
  0
LINE
  5
311
100
AcDbEntity
  8
0
100
AcDbLine
 62
7
  6
CONTINUOUS
 10
80.7741377382
 20
164.2462305737
 11
81.131452145
 21
164.2424692204
  0
LINE
  5
312
100
AcDbEntity
  8
0
100
AcDbLine
 62
7
  6
CONTINUOUS
 10
82.5052327183
 20
165.2551740336
 11
82.1479183115
 21
165.2589353869
  0
LINE
  5
313
100
AcDbEntity
  8
0
100
AcDbLine
 62
7
  6
CONTINUOUS
 10
81.1606016219
 20
165.7159219907
 11
81.3392585724
 21
165.7140410611
  0
LINE
  5
314
100
AcDbEntity
  8
0
100
AcDbLine
 62
7
  6
CONTINUOUS
 10
81.5592891454
 20
166.0243405741
 11
81.2461687438
 21
166.0722959326
  0
LINE
  5
315
100
AcDbEntity
  8
0
100
AcDbLine
 62
7
  6
CONTINUOUS
 10
93.713397745
 20
167.2481787164
 11
94.0258976258
 21
167.1843489312
  0
LINE
  5
316
100
AcDbEntity
  8
0
100
AcDbLine
 62
7
  6
CONTINUOUS
 10
94.0258976258
 20
167.5673276536
 11
93.7758978643
 21
167.6311574333
  0
LINE
  5
317
100
AcDbEntity
  8
0
100
AcDbLine
 62
7
  6
CONTINUOUS
 10
93.4633976258
 20
167.3758382924
 11
93.713397745
 21
167.2481787164
  0
LINE
  5
318
100
AcDbEntity
  8
0
100
AcDbLine
 62
7
  6
CONTINUOUS
 10
93.7758978643
 20
167.6311574333
 11
93.5883978643
 21
167.7588170372
  0
LINE
  5
319
100
AcDbEntity
  8
0
100
AcDbLine
 62
7
  6
CONTINUOUS
 10
92.213397745
 20
169.9290298127
 11
91.9633978047
 21
170.1205191516
  0
LINE
  5
31A
100
AcDbEntity
  8
0
100
AcDbLine
 62
7
  6
CONTINUOUS
 10
93.2133978643
 20
167.6311574333
 11
93.4633976258
 21
167.3758382924
  0
LINE
  5
31B
100
AcDbEntity
  8
0
100
AcDbLine
 62
7
  6
CONTINUOUS
 10
91.9008976854
 20
169.8013702534
 11
92.025897745
 21
169.6737106942
  0
LINE
  5
31C
100
AcDbEntity
  8
0
100
AcDbLine
 62
7
  6
CONTINUOUS
 10
92.400897745
 20
169.6737106942
 11
92.213397745
 21
169.9290298127
  0
LINE
  5
31D
100
AcDbEntity
  8
0
100
AcDbLine
 62
7
  6
CONTINUOUS
 10
93.5883978643
 20
167.7588170372
 11
93.4633976258
 21
167.9503063761
  0
LINE
  5
31E
100
AcDbEntity
  8
0
100
AcDbLine
 62
7
  6
CONTINUOUS
 10
93.0883978047
 20
167.8864765965
 11
93.2133978643
 21
167.6311574333
  0
LINE
  5
31F
100
AcDbEntity
  8
0
100
AcDbLine
 62
7
  6
CONTINUOUS
 10
97.838397745
 20
169.4183913969
 11
97.9008975066
 21
169.1630722784
  0
LINE
  5
320
100
AcDbEntity
  8
0
100
AcDbLine
 62
7
  6
CONTINUOUS
 10
98.2758975066
 20
169.1630722784
 11
98.213397745
 21
169.4822213553
  0
LINE
  5
321
100
AcDbEntity
  8
0
100
AcDbLine
 62
7
  6
CONTINUOUS
 10
100.8279809989
 20
128.3386041425
 11
100.8279809989
 21
127.9130722784
  0
LINE
  5
322
100
AcDbEntity
  8
KONSTRUKTIONSELEMENTE
100
AcDbLine
 62
7
  6
CONTINUOUS
 10
101.213397745
 20
120.7343489312
 11
101.213397745
 21
104.2343489312
  0
LINE
  5
323
100
AcDbEntity
  8
0
100
AcDbLine
 62
7
  6
CONTINUOUS
 10
101.6613147296
 20
129.1896681689
 11
101.6613147296
 21
128.3386041425
  0
LINE
  5
324
100
AcDbEntity
  8
0
100
AcDbLine
 62
7
  6
CONTINUOUS
 10
101.6613147296
 20
127.9130722784
 11
101.6613147296
 21
125.785412734
  0
LINE
  5
325
100
AcDbEntity
  8
0
100
AcDbLine
 62
7
  6
CONTINUOUS
 10
102.1821484603
 20
125.9981787406
 11
102.1821484603
 21
127.9130722784
  0
LINE
  5
326
100
AcDbEntity
  8
0
100
AcDbLine
 62
7
  6
CONTINUOUS
 10
102.1821484603
 20
128.3386041425
 11
102.1821484603
 21
129.1896681689
  0
LINE
  5
327
100
AcDbEntity
  8
0
100
AcDbLine
 62
7
  6
CONTINUOUS
 10
103.1196484603
 20
124.9343489312
 11
103.1196484603
 21
125.3598808326
  0
LINE
  5
328
100
AcDbEntity
  8
0
100
AcDbLine
 62
7
  6
CONTINUOUS
 10
103.3279809989
 20
127.9130722784
 11
103.3279809989
 21
128.3386041425
  0
LINE
  5
329
100
AcDbEntity
  8
KONSTRUKTIONSELEMENTE
100
AcDbLine
 62
7
  6
CONTINUOUS
 10
104.113397745
 20
120.9343489312
 11
104.113397745
 21
120.7343489312
  0
LINE
  5
32A
100
AcDbEntity
  8
0
100
AcDbLine
 62
7
  6
CONTINUOUS
 10
85.5154814087
 20
129.1896681689
 11
85.3071480691
 21
128.7641363047
  0
LINE
  5
32B
100
AcDbEntity
  8
0
100
AcDbLine
 62
7
  6
CONTINUOUS
 10
88.4321481623
 20
125.679029768
 11
88.6404812969
 21
126.1045617066
  0
LINE
  5
32C
100
AcDbEntity
  8
0
100
AcDbLine
 62
7
  6
CONTINUOUS
 10
85.7238147296
 20
128.4449871086
 11
86.1404813714
 21
129.0832852028
  0
LINE
  5
32D
100
AcDbEntity
  8
0
100
AcDbLine
 62
7
  6
CONTINUOUS
 10
108.0070137634
 20
162.4214245062
 11
108.3274731962
 21
162.741883939
  0
LINE
  5
32E
100
AcDbEntity
  8
0
100
AcDbLine
 62
7
  6
CONTINUOUS
 10
109.8114543282
 20
164.225865071
 11
110.131913761
 21
164.5463245038
  0
LINE
  5
32F
100
AcDbEntity
  8
0
100
AcDbLine
 62
7
  6
CONTINUOUS
 10
110.5146971682
 20
161.7133719797
 11
110.835156601
 21
162.0338314126
  0
LINE
  5
330
100
AcDbEntity
  8
0
100
AcDbLine
 62
7
  6
CONTINUOUS
 10
90.525897745
 20
168.5247744821
 11
91.5883977152
 21
168.5247744821
  0
LINE
  5
331
100
AcDbEntity
  8
0
100
AcDbLine
 62
7
  6
CONTINUOUS
 10
91.7133976854
 20
168.9077531599
 11
90.525897745
 21
168.9077531599
  0
LINE
  5
332
100
AcDbEntity
  8
0
100
AcDbLine
 62
7
  6
CONTINUOUS
 10
96.150897745
 20
169.8013702534
 11
97.275897745
 21
169.8013702534
  0
LINE
  5
333
100
AcDbEntity
  8
0
100
AcDbLine
 62
7
  6
CONTINUOUS
 10
90.525897745
 20
169.8652000331
 11
91.7133976854
 21
169.8652000331
  0
LINE
  5
334
100
AcDbEntity
  8
0
100
AcDbLine
 62
7
  6
CONTINUOUS
 10
97.275897745
 20
170.1843489312
 11
95.775897745
 21
170.1843489312
  0
LINE
  5
335
100
AcDbEntity
  8
0
100
AcDbLine
 62
7
  6
CONTINUOUS
 10
95.2758978643
 20
170.1843489312
 11
94.9008978643
 21
170.1843489312
  0
LINE
  5
336
100
AcDbEntity
  8
0
100
AcDbLine
 62
7
  6
CONTINUOUS
 10
93.4008978643
 20
170.1843489312
 11
93.0258976854
 21
170.1843489312
  0
LINE
  5
337
100
AcDbEntity
  8
0
100
AcDbLine
 62
7
  6
CONTINUOUS
 10
91.650897745
 20
170.1843489312
 11
90.150897745
 21
170.1843489312
  0
LINE
  5
338
100
AcDbEntity
  8
0
100
AcDbLine
 62
7
  6
CONTINUOUS
 10
91.9633978047
 20
170.1205191516
 11
91.650897745
 21
170.1843489312
  0
LINE
  5
339
100
AcDbEntity
  8
0
100
AcDbLine
 62
7
  6
CONTINUOUS
 10
97.5883979835
 20
170.1205191516
 11
97.275897745
 21
170.1843489312
  0
LINE
  5
33A
100
AcDbEntity
  8
0
100
AcDbLine
 62
7
  6
CONTINUOUS
 10
97.275897745
 20
169.8013702534
 11
97.5258975066
 21
169.7375404738
  0
LINE
  5
33B
100
AcDbEntity
  8
0
100
AcDbLine
 62
7
  6
CONTINUOUS
 10
91.7133976854
 20
169.8652000331
 11
91.9008976854
 21
169.8013702534
  0
LINE
  5
33C
100
AcDbEntity
  8
0
100
AcDbLine
 62
7
  6
CONTINUOUS
 10
97.838397745
 20
169.9928595923
 11
97.5883979835
 21
170.1205191516
  0
LINE
  5
33D
100
AcDbEntity
  8
0
100
AcDbLine
 62
7
  6
CONTINUOUS
 10
97.5258975066
 20
169.7375404738
 11
97.7133975066
 21
169.6098809146
  0
LINE
  5
33E
100
AcDbEntity
  8
0
100
AcDbLine
 62
7
  6
CONTINUOUS
 10
109.6729276393
 20
160.7470414612
 11
109.8270137634
 21
160.6014245062
  0
LINE
  5
33F
100
AcDbEntity
  8
0
100
AcDbLine
 62
7
  6
CONTINUOUS
 10
107.8529276393
 20
162.5670414612
 11
108.0070137634
 21
162.4214245062
  0
LINE
  5
340
100
AcDbEntity
  8
0
100
AcDbLine
 62
7
  6
CONTINUOUS
 10
109.8890870275
 20
162.3389821204
 11
110.5146971682
 21
161.7133719797
  0
LINE
  5
341
100
AcDbEntity
  8
0
100
AcDbLine
 62
7
  6
CONTINUOUS
 10
98.0883975066
 20
169.7375404738
 11
97.838397745
 21
169.9928595923
  0
LINE
  5
342
100
AcDbEntity
  8
0
100
AcDbLine
 62
7
  6
CONTINUOUS
 10
97.7133975066
 20
169.6098809146
 11
97.838397745
 21
169.4183913969
  0
LINE
  5
343
100
AcDbEntity
  8
0
100
AcDbLine
 62
7
  6
CONTINUOUS
 10
98.213397745
 20
169.4822213553
 11
98.0883975066
 21
169.7375404738
  0
LINE
  5
344
100
AcDbEntity
  8
0
100
AcDbLine
 62
7
  6
CONTINUOUS
 10
99.4738147296
 20
126.4237106048
 11
99.3696484603
 21
126.1045617066
  0
LINE
  5
345
100
AcDbEntity
  8
0
100
AcDbLine
 62
7
  6
CONTINUOUS
 10
94.7863147296
 20
129.402434101
 11
92.702981595
 21
124.9343489312
  0
LINE
  5
346
100
AcDbEntity
  8
0
100
AcDbLine
 62
7
  6
CONTINUOUS
 10
93.327981595
 20
124.9343489312
 11
95.4113147296
 21
129.402434101
  0
LINE
  5
347
100
AcDbEntity
  8
0
100
AcDbLine
 62
7
  6
CONTINUOUS
 10
90.3071478643
 20
125.4662638359
 11
89.6821481623
 21
124.2960510604
  0
LINE
  5
348
100
AcDbEntity
  8
0
100
AcDbLine
 62
7
  6
CONTINUOUS
 10
90.202981595
 20
124.2960510604
 11
90.827981595
 21
125.4662638359
  0
LINE
  5
349
100
AcDbEntity
  8
0
100
AcDbLine
 62
7
  6
CONTINUOUS
 10
88.2238147296
 20
126.4237106048
 11
87.8071481623
 21
125.785412734
  0
LINE
  5
34A
100
AcDbEntity
  8
0
100
AcDbLine
 62
7
  6
CONTINUOUS
 10
85.8279813714
 20
129.508817067
 11
85.5154814087
 21
129.1896681689
  0
LINE
  5
34B
100
AcDbEntity
  8
0
100
AcDbLine
 62
7
  6
CONTINUOUS
 10
109.8270137634
 20
160.6014245062
 11
110.1474731962
 21
160.921883939
  0
LINE
  5
34C
100
AcDbEntity
  8
0
100
AcDbLine
 62
7
  6
CONTINUOUS
 10
111.6314543282
 20
162.405865071
 11
111.951913761
 21
162.7263245038
  0
LINE
  5
34D
100
AcDbEntity
  8
RUNDUNGEN
100
AcDbLine
 62
7
  6
CONTINUOUS
 10
94.9787646098
 20
175.8673235956
 11
113.5746857965
 21
168.1646408353
  0
LINE
  5
34E
100
AcDbEntity
  8
0
100
AcDbLine
 62
7
  6
CONTINUOUS
 10
110.835156601
 20
162.0338314126
 11
110.2084939444
 21
162.6604940692
  0
LINE
  5
34F
100
AcDbEntity
  8
0
100
AcDbLine
 62
7
  6
CONTINUOUS
 10
109.7009976149
 20
164.3508998061
 11
109.8114543282
 21
164.225865071
  0
LINE
  5
350
100
AcDbEntity
  8
0
100
AcDbLine
 62
7
  6
CONTINUOUS
 10
99.7863147296
 20
125.785412734
 11
99.9946484603
 21
126.3173276387
  0
LINE
  5
351
100
AcDbEntity
  8
0
100
AcDbLine
 62
7
  6
CONTINUOUS
 10
88.1196481623
 20
125.3598808326
 11
88.4321481623
 21
125.679029768
  0
LINE
  5
352
100
AcDbEntity
  8
0
100
AcDbLine
 62
7
  6
CONTINUOUS
 10
86.1404813714
 20
129.0832852028
 11
86.4529814459
 21
129.2960511349
  0
LINE
  5
353
100
AcDbEntity
  8
RUNDUNGEN
100
AcDbLine
 62
7
  6
CONTINUOUS
 10
114.6570779968
 20
167.082248635
 11
122.0980686473
 21
149.1181080891
  0
LINE
  5
354
100
AcDbEntity
  8
BEZUGSACHSEN
100
AcDbLine
 62
7
  6
CONTINUOUS
 10
122.0980686473
 20
149.1181080891
 11
122.2382555015
 21
148.7796670843
  0
LINE
  5
355
100
AcDbEntity
  8
BEZUGSACHSEN
100
AcDbLine
 62
7
  6
CONTINUOUS
 10
117.713397745
 20
136.3576716113
 11
117.713397745
 21
130.9343489312
  0
LINE
  5
356
100
AcDbEntity
  8
RUNDUNGEN
100
AcDbLine
 62
7
  6
CONTINUOUS
 10
117.713397745
 20
136.3576668863
 11
117.713397745
 21
130.9343489312
  0
LINE
  5
357
100
AcDbEntity
  8
0
100
AcDbLine
 62
7
  6
CONTINUOUS
 10
99.3696484603
 20
126.1045617066
 11
99.1613147296
 21
125.785412734
  0
LINE
  5
358
100
AcDbEntity
  8
0
100
AcDbLine
 62
7
  6
CONTINUOUS
 10
99.4738147296
 20
125.3598808326
 11
99.7863147296
 21
125.785412734
  0
LINE
  5
359
100
AcDbEntity
  8
0
100
AcDbLine
 62
7
  6
CONTINUOUS
 10
87.8071481623
 20
125.785412734
 11
87.4946480133
 21
125.5726468019
  0
LINE
  5
35A
100
AcDbEntity
  8
0
100
AcDbLine
 62
7
  6
CONTINUOUS
 10
86.3488147296
 20
129.8279659651
 11
85.8279813714
 21
129.508817067
  0
LINE
  5
35B
100
AcDbEntity
  8
0
100
AcDbLine
 62
7
  6
CONTINUOUS
 10
87.5988147296
 20
125.0407319065
 11
88.1196481623
 21
125.3598808326
  0
LINE
  5
35C
100
AcDbEntity
  8
RUNDUNGEN
100
AcDbLine
 62
7
  6
CONTINUOUS
 10
126.213397745
 20
142.7343489312
 11
126.213397745
 21
140.6343489312
  0
LINE
  5
35D
100
AcDbEntity
  8
BEZUGSACHSEN
100
AcDbLine
 62
7
  6
CONTINUOUS
 10
122.2382555015
 20
147.2489333548
 11
120.575360186
 21
143.2343489312
  0
LINE
  5
35E
100
AcDbEntity
  8
BEZUGSACHSEN
100
AcDbLine
 62
7
  6
CONTINUOUS
 10
119.2912981426
 20
140.1343489312
 11
117.7895182125
 21
136.5087314563
  0
LINE
  5
35F
100
AcDbEntity
  8
BEZUGSACHSEN
100
AcDbLine
 62
7
  6
CONTINUOUS
 10
114.6035121306
 20
128.8170323635
 11
113.7484648032
 21
126.7527655092
  0
LINE
  5
360
100
AcDbEntity
  8
0
100
AcDbLine
 62
7
  6
CONTINUOUS
 10
96.9738147296
 20
127.1683915161
 11
97.3904809989
 21
127.4875404142
  0
LINE
  5
361
100
AcDbEntity
  8
0
100
AcDbLine
 62
7
  6
CONTINUOUS
 10
99.1613147296
 20
125.785412734
 11
98.8488147296
 21
125.5726468019
  0
LINE
  5
362
100
AcDbEntity
  8
0
100
AcDbLine
 62
7
  6
CONTINUOUS
 10
97.2863147296
 20
128.0194552444
 11
96.7654809989
 21
127.7003063463
  0
LINE
  5
363
100
AcDbEntity
  8
0
100
AcDbLine
 62
7
  6
CONTINUOUS
 10
98.9529809989
 20
125.0407319065
 11
99.4738147296
 21
125.3598808326
  0
LINE
  5
364
100
AcDbEntity
  8
KONSTRUKTIONSELEMENTE
100
AcDbLine
 62
7
  6
CONTINUOUS
 10
101.213397745
 20
104.2343489312
 11
99.713397745
 21
102.7343489312
  0
LINE
  5
365
100
AcDbEntity
  8
KONSTRUKTIONSELEMENTE
100
AcDbLine
 62
7
  6
CONTINUOUS
 10
189.5099979132
 20
102.7343489312
 11
200.5099979132
 21
102.7343489312
  0
LINE
  5
366
100
AcDbEntity
  8
KONSTRUKTIONSELEMENTE
100
AcDbLine
 62
7
  6
CONTINUOUS
 10
188.0099979132
 20
104.2343489312
 11
202.0099979132
 21
104.2343489312
  0
LINE
  5
367
100
AcDbEntity
  8
KONSTRUKTIONSELEMENTE
100
AcDbLine
 62
7
  6
CONTINUOUS
 10
189.5099979132
 20
102.7343489312
 11
188.0099979132
 21
104.2343489312
  0
LINE
  5
368
100
AcDbEntity
  8
KONSTRUKTIONSELEMENTE
100
AcDbLine
 62
7
  6
CONTINUOUS
 10
185.1099979132
 20
120.7343489312
 11
204.9099979132
 21
120.7343489312
  0
LINE
  5
369
100
AcDbEntity
  8
BEZUGSACHSEN
100
AcDbLine
 62
7
  6
CONTINUOUS
 10
180.0099979324
 20
120.9343489312
 11
210.009997894
 21
120.9343489312
  0
LINE
  5
36A
100
AcDbEntity
  8
0
100
AcDbLine
 62
7
  6
CONTINUOUS
 10
179.2954460673
 20
124.2960510604
 11
179.1373489283
 21
124.2960510604
  0
LINE
  5
36B
100
AcDbEntity
  8
0
100
AcDbLine
 62
7
  6
CONTINUOUS
 10
210.2595013112
 20
124.2960510604
 11
210.8826468981
 21
124.2960510604
  0
LINE
  5
36C
100
AcDbEntity
  8
0
100
AcDbLine
 62
7
  6
CONTINUOUS
 10
181.0130534328
 20
124.9343489312
 11
180.4480478148
 21
124.9343489312
  0
LINE
  5
36D
100
AcDbEntity
  8
0
100
AcDbLine
 62
7
  6
CONTINUOUS
 10
178.665038305
 20
124.9343489312
 11
179.5511442158
 21
124.9343489312
  0
LINE
  5
36E
100
AcDbEntity
  8
0
100
AcDbLine
 62
7
  6
CONTINUOUS
 10
209.6673877283
 20
124.9343489312
 11
210.211466182
 21
124.9343489312
  0
LINE
  5
36F
100
AcDbEntity
  8
0
100
AcDbLine
 62
7
  6
CONTINUOUS
 10
211.0841817658
 20
124.9343489312
 11
211.3549575215
 21
124.9343489312
  0
LINE
  5
370
100
AcDbEntity
  8
0
100
AcDbLine
 62
7
  6
CONTINUOUS
 10
179.6313406275
 20
125.0407319065
 11
179.107300525
 21
125.0407319065
  0
LINE
  5
371
100
AcDbEntity
  8
0
100
AcDbLine
 62
7
  6
CONTINUOUS
 10
209.4684002307
 20
125.0407319065
 11
210.0191572644
 21
125.0407319065
  0
LINE
  5
372
100
AcDbEntity
  8
0
100
AcDbLine
 62
7
  6
CONTINUOUS
 10
180.8904755958
 20
125.3598808326
 11
180.3271179228
 21
125.3598808326
  0
LINE
  5
373
100
AcDbEntity
  8
0
100
AcDbLine
 62
7
  6
CONTINUOUS
 10
179.6732411349
 20
125.3598808326
 11
179.1463492126
 21
125.3598808326
  0
LINE
  5
374
100
AcDbEntity
  8
0
100
AcDbLine
 62
7
  6
CONTINUOUS
 10
209.3504848828
 20
125.3598808326
 11
209.9067163899
 21
125.3598808326
  0
LINE
  5
375
100
AcDbEntity
  8
0
100
AcDbLine
 62
7
  6
CONTINUOUS
 10
180.6399271036
 20
125.4662638359
 11
180.0840408189
 21
125.4662638359
  0
LINE
  5
376
100
AcDbEntity
  8
0
100
AcDbLine
 62
7
  6
CONTINUOUS
 10
178.9084866045
 20
125.4662638359
 11
178.8047476211
 21
125.4662638359
  0
LINE
  5
377
100
AcDbEntity
  8
0
100
AcDbLine
 62
7
  6
CONTINUOUS
 10
210.7191992026
 20
125.4662638359
 11
211.2459480569
 21
125.4662638359
  0
LINE
  5
378
100
AcDbEntity
  8
0
100
AcDbLine
 62
7
  6
CONTINUOUS
 10
178.9629161707
 20
125.5726468019
 11
178.7217160592
 21
125.5726468019
  0
LINE
  5
379
100
AcDbEntity
  8
0
100
AcDbLine
 62
7
  6
CONTINUOUS
 10
210.1986634304
 20
125.5726468019
 11
210.5399209059
 21
125.5726468019
  0
LINE
  5
37A
100
AcDbEntity
  8
0
100
AcDbLine
 62
7
  6
CONTINUOUS
 10
180.4580022116
 20
125.679029768
 11
179.9066151638
 21
125.679029768
  0
LINE
  5
37B
100
AcDbEntity
  8
0
100
AcDbLine
 62
7
  6
CONTINUOUS
 10
209.3103369062
 20
125.679029768
 11
209.8696227779
 21
125.679029768
  0
LINE
  5
37C
100
AcDbEntity
  8
0
100
AcDbLine
 62
7
  6
CONTINUOUS
 10
179.6470661838
 20
125.785412734
 11
179.1186184083
 21
125.785412734
  0
LINE
  5
37D
100
AcDbEntity
  8
0
100
AcDbLine
 62
7
  6
CONTINUOUS
 10
178.9774802888
 20
125.785412734
 11
178.6355324858
 21
125.785412734
  0
LINE
  5
37E
100
AcDbEntity
  8
0
100
AcDbLine
 62
7
  6
CONTINUOUS
 10
210.1492551751
 20
125.785412734
 11
210.6839050387
 21
125.785412734
  0
LINE
  5
37F
100
AcDbEntity
  8
0
100
AcDbLine
 62
7
  6
CONTINUOUS
 10
180.3320637313
 20
125.9981787406
 11
179.7827761106
 21
125.9981787406
  0
LINE
  5
380
100
AcDbEntity
  8
0
100
AcDbLine
 62
7
  6
CONTINUOUS
 10
209.3426354335
 20
126.1045617066
 11
209.903250951
 21
126.1045617066
  0
LINE
  5
381
100
AcDbEntity
  8
0
100
AcDbLine
 62
7
  6
CONTINUOUS
 10
178.9299788369
 20
126.2109446727
 11
178.4596389017
 21
126.2109446727
  0
LINE
  5
382
100
AcDbEntity
  8
0
100
AcDbLine
 62
7
  6
CONTINUOUS
 10
179.5190734848
 20
126.3173276387
 11
179.0416489288
 21
126.3173276387
  0
LINE
  5
383
100
AcDbEntity
  8
0
100
AcDbLine
 62
7
  6
CONTINUOUS
 10
209.3891546498
 20
126.4237106048
 11
209.950051722
 21
126.4237106048
  0
LINE
  5
384
100
AcDbEntity
  8
0
100
AcDbLine
 62
7
  6
CONTINUOUS
 10
210.4214907394
 20
126.4237106048
 11
210.9519881258
 21
126.4237106048
  0
LINE
  5
385
100
AcDbEntity
  8
0
100
AcDbLine
 62
7
  6
CONTINUOUS
 10
179.4087736943
 20
126.7428595029
 11
178.9393217536
 21
126.7428595029
  0
LINE
  5
386
100
AcDbEntity
  8
0
100
AcDbLine
 62
7
  6
CONTINUOUS
 10
209.4967922608
 20
126.955625584
 11
210.0572086435
 21
126.955625584
  0
LINE
  5
387
100
AcDbEntity
  8
0
100
AcDbLine
 62
7
  6
CONTINUOUS
 10
210.6032959668
 20
127.06200855
 11
211.1322336595
 21
127.06200855
  0
LINE
  5
388
100
AcDbEntity
  8
0
100
AcDbLine
 62
7
  6
CONTINUOUS
 10
178.2527770406
 20
127.1683915161
 11
178.6691492884
 21
127.1683915161
  0
LINE
  5
389
100
AcDbEntity
  8
0
100
AcDbLine
 62
7
  6
CONTINUOUS
 10
179.2713246164
 20
127.2747744821
 11
178.7634111184
 21
127.2747744821
  0
LINE
  5
38A
100
AcDbEntity
  8
0
100
AcDbLine
 62
7
  6
CONTINUOUS
 10
178.5214689025
 20
127.4875404142
 11
178.2983912735
 21
127.4875404142
  0
LINE
  5
38B
100
AcDbEntity
  8
0
100
AcDbLine
 62
7
  6
CONTINUOUS
 10
178.3293915508
 20
127.5939233802
 11
178.4245028563
 21
127.5939233802
  0
LINE
  5
38C
100
AcDbEntity
  8
0
100
AcDbLine
 62
7
  6
CONTINUOUS
 10
179.1192185813
 20
127.7003063463
 11
178.5947586714
 21
127.7003063463
  0
LINE
  5
38D
100
AcDbEntity
  8
0
100
AcDbLine
 62
7
  6
CONTINUOUS
 10
210.783403869
 20
127.8066893123
 11
211.3114243042
 21
127.8066893123
  0
LINE
  5
38E
100
AcDbEntity
  8
0
100
AcDbLine
 62
7
  6
CONTINUOUS
 10
178.8665400675
 20
127.9130722784
 11
179.1069718827
 21
127.9130722784
  0
LINE
  5
38F
100
AcDbEntity
  8
0
100
AcDbLine
 62
7
  6
CONTINUOUS
 10
179.2746274178
 20
127.9130722784
 11
180.2506430922
 21
127.9130722784
  0
LINE
  5
390
100
AcDbEntity
  8
0
100
AcDbLine
 62
7
  6
CONTINUOUS
 10
209.7693528319
 20
127.9130722784
 11
210.3265284001
 21
127.9130722784
  0
LINE
  5
391
100
AcDbEntity
  8
0
100
AcDbLine
 62
7
  6
CONTINUOUS
 10
178.8402198014
 20
128.0194552444
 11
178.4181641384
 21
128.0194552444
  0
LINE
  5
392
100
AcDbEntity
  8
0
100
AcDbLine
 62
7
  6
CONTINUOUS
 10
178.8230463137
 20
128.1258382104
 11
178.210787938
 21
128.1258382104
  0
LINE
  5
393
100
AcDbEntity
  8
0
100
AcDbLine
 62
7
  6
CONTINUOUS
 10
180.1303431018
 20
128.3386041425
 11
179.1626378409
 21
128.3386041425
  0
LINE
  5
394
100
AcDbEntity
  8
0
100
AcDbLine
 62
7
  6
CONTINUOUS
 10
178.997763596
 20
128.3386041425
 11
178.7613341894
 21
128.3386041425
  0
LINE
  5
395
100
AcDbEntity
  8
0
100
AcDbLine
 62
7
  6
CONTINUOUS
 10
209.9610723956
 20
128.4449871086
 11
210.5153176794
 21
128.4449871086
  0
LINE
  5
396
100
AcDbEntity
  8
0
100
AcDbLine
 62
7
  6
CONTINUOUS
 10
210.9124992056
 20
128.4449871086
 11
211.4404085671
 21
128.4449871086
  0
LINE
  5
397
100
AcDbEntity
  8
0
100
AcDbLine
 62
7
  6
CONTINUOUS
 10
210.0906356883
 20
128.7641363047
 11
210.6427437833
 21
128.7641363047
  0
LINE
  5
398
100
AcDbEntity
  8
0
100
AcDbLine
 62
7
  6
CONTINUOUS
 10
211.0189706365
 20
129.0832852028
 11
211.4947295336
 21
129.0832852028
  0
LINE
  5
399
100
AcDbEntity
  8
0
100
AcDbLine
 62
7
  6
CONTINUOUS
 10
179.4812038292
 20
129.1896681689
 11
178.7801491014
 21
129.1896681689
  0
LINE
  5
39A
100
AcDbEntity
  8
0
100
AcDbLine
 62
7
  6
CONTINUOUS
 10
210.286010239
 20
129.1896681689
 11
210.8346943398
 21
129.1896681689
  0
LINE
  5
39B
100
AcDbEntity
  8
0
100
AcDbLine
 62
7
  6
CONTINUOUS
 10
211.1732655138
 20
129.2960511349
 11
211.4679063891
 21
129.2960511349
  0
LINE
  5
39C
100
AcDbEntity
  8
0
100
AcDbLine
 62
7
  6
CONTINUOUS
 10
177.7704646066
 20
129.402434101
 11
177.7235867512
 21
129.402434101
  0
LINE
  5
39D
100
AcDbEntity
  8
0
100
AcDbLine
 62
7
  6
CONTINUOUS
 10
177.6988990514
 20
129.402434101
 11
177.7045003375
 21
129.402434101
  0
LINE
  5
39E
100
AcDbEntity
  8
0
100
AcDbLine
 62
7
  6
CONTINUOUS
 10
177.8124447024
 20
129.402434101
 11
178.7836328515
 21
129.402434101
  0
LINE
  5
39F
100
AcDbEntity
  8
0
100
AcDbLine
 62
7
  6
CONTINUOUS
 10
211.6938141408
 20
129.402434101
 11
212.321096775
 21
129.402434101
  0
LINE
  5
3A0
100
AcDbEntity
  8
0
100
AcDbLine
 62
7
  6
CONTINUOUS
 10
210.4835421778
 20
129.508817067
 11
211.0283067952
 21
129.508817067
  0
LINE
  5
3A1
100
AcDbEntity
  8
0
100
AcDbLine
 62
7
  6
CONTINUOUS
 10
210.739612762
 20
129.8279659651
 11
211.2790052993
 21
129.8279659651
  0
LINE
  5
3A2
100
AcDbEntity
  8
0
100
AcDbLine
 62
7
  6
CONTINUOUS
 10
178.6575933486
 20
129.9343489312
 11
177.5858187467
 21
129.9343489312
  0
LINE
  5
3A3
100
AcDbEntity
  8
0
100
AcDbLine
 62
7
  6
CONTINUOUS
 10
210.9535668322
 20
129.9343489312
 11
211.4878450537
 21
129.9343489312
  0
LINE
  5
3A4
100
AcDbEntity
  8
0
100
AcDbLine
 62
7
  6
CONTINUOUS
 10
211.809652649
 20
129.9343489312
 11
212.4341770798
 21
129.9343489312
  0
LINE
  5
3A5
100
AcDbEntity
  8
0
100
AcDbLine
 62
7
  6
CONTINUOUS
 10
177.5858185608
 20
129.9343489312
 11
177.6988805482
 21
129.402434101
  0
LINE
  5
3A6
100
AcDbEntity
  8
BEZUGSACHSEN
100
AcDbLine
 62
7
  6
CONTINUOUS
 10
177.8263585194
 20
131.2075645717
 11
178.0969888582
 21
129.9343489312
  0
LINE
  5
3A7
100
AcDbEntity
  8
BEZUGSACHSEN
100
AcDbLine
 62
7
  6
CONTINUOUS
 10
178.7561405146
 20
126.8332842016
 11
178.8884228651
 21
126.2109446727
  0
LINE
  5
3A8
100
AcDbEntity
  8
BEZUGSACHSEN
100
AcDbLine
 62
7
  6
CONTINUOUS
 10
179.1597716665
 20
124.9343489312
 11
180.0099979132
 21
120.9343489312
  0
LINE
  5
3A9
100
AcDbEntity
  8
0
100
AcDbLine
 62
7
  6
CONTINUOUS
 10
207.8560057257
 20
134.332017474
 11
207.2757040942
 21
134.4875088276
  0
LINE
  5
3AA
100
AcDbEntity
  8
0
100
AcDbLine
 62
7
  6
CONTINUOUS
 10
207.2667352432
 20
134.4899120239
 11
206.6332723722
 21
134.6596478887
  0
LINE
  5
3AB
100
AcDbEntity
  8
RUNDUNGEN
100
AcDbLine
 62
7
  6
CONTINUOUS
 10
210.7549801958
 20
133.5552396059
 11
205.1983056137
 21
135.0441460728
  0
LINE
  5
3AC
100
AcDbEntity
  8
0
100
AcDbLine
 62
7
  6
CONTINUOUS
 10
180.0099979132
 20
140.6343489312
 11
180.0099979132
 21
142.7343489312
  0
LINE
  5
3AD
100
AcDbEntity
  8
RUNDUNGEN
100
AcDbLine
 62
7
  6
CONTINUOUS
 10
209.5099906451
 20
140.1343489312
 11
200.2131020529
 21
140.1343489312
  0
LINE
  5
3AE
100
AcDbEntity
  8
RUNDUNGEN
100
AcDbLine
 62
7
  6
CONTINUOUS
 10
189.8061381758
 20
140.1343489312
 11
180.5100043405
 21
140.1343489312
  0
LINE
  5
3AF
100
AcDbEntity
  8
KONSTRUKTIONSELEMENTE
100
AcDbLine
 62
7
  6
CONTINUOUS
 10
185.1099979132
 20
120.9343489312
 11
185.1099979132
 21
120.7343489312
  0
LINE
  5
3B0
100
AcDbEntity
  8
0
100
AcDbLine
 62
7
  6
CONTINUOUS
 10
183.3867490483
 20
134.6596547465
 11
182.7580068245
 21
134.4911837754
  0
LINE
  5
3B1
100
AcDbEntity
  8
0
100
AcDbLine
 62
7
  6
CONTINUOUS
 10
182.1639901006
 20
134.332017474
 11
182.7532605832
 21
134.4899120239
  0
LINE
  5
3B2
100
AcDbEntity
  8
BEZUGSACHSEN
100
AcDbLine
 62
7
  6
CONTINUOUS
 10
179.2650156307
 20
133.5552396059
 11
184.8216902128
 21
135.0441460728
  0
LINE
  5
3B3
100
AcDbEntity
  8
RUNDUNGEN
100
AcDbLine
 62
7
  6
CONTINUOUS
 10
180.5100043634
 20
143.2343489312
 11
190.0099979132
 21
143.2343489312
  0
LINE
  5
3B4
100
AcDbEntity
  8
RUNDUNGEN
100
AcDbLine
 62
7
  6
CONTINUOUS
 10
200.0099979132
 20
143.2343489312
 11
209.5099906803
 21
143.2343489312
  0
LINE
  5
3B5
100
AcDbEntity
  8
KONSTRUKTIONSELEMENTE
100
AcDbLine
 62
7
  6
CONTINUOUS
 10
188.0099979132
 20
120.7343489312
 11
188.0099979132
 21
104.2343489312
  0
LINE
  5
3B6
100
AcDbEntity
  8
BEZUGSACHSEN
100
AcDbLine
 62
7
  6
CONTINUOUS
 10
190.0099979132
 20
141.8057563078
 11
190.0099979132
 21
174.0195645306
  0
LINE
  5
3B7
100
AcDbEntity
  8
RUNDUNGEN
100
AcDbLine
 62
7
  6
CONTINUOUS
 10
200.0099979132
 20
141.8057563078
 11
200.0099979132
 21
174.0195645306
  0
LINE
  5
3B8
100
AcDbEntity
  8
0
100
AcDbLine
 62
7
  6
CONTINUOUS
 10
200.5099979132
 20
170.1843489312
 11
200.5099979132
 21
167.1843489312
  0
LINE
  5
3B9
100
AcDbEntity
  8
0
100
AcDbLine
 62
7
  6
CONTINUOUS
 10
200.5099979132
 20
166.0722959326
 11
200.5099979132
 21
164.2462305737
  0
LINE
  5
3BA
100
AcDbEntity
  8
0
100
AcDbLine
 62
7
  6
CONTINUOUS
 10
200.5099979132
 20
164.2424692204
 11
200.5099979132
 21
159.3585428858
  0
LINE
  5
3BB
100
AcDbEntity
  8
KONSTRUKTIONSELEMENTE
100
AcDbLine
 62
7
  6
CONTINUOUS
 10
202.0099979132
 20
120.7343489312
 11
202.0099979132
 21
104.2343489312
  0
LINE
  5
3BC
100
AcDbEntity
  8
KONSTRUKTIONSELEMENTE
100
AcDbLine
 62
7
  6
CONTINUOUS
 10
204.9099979132
 20
120.9343489312
 11
204.9099979132
 21
120.7343489312
  0
LINE
  5
3BD
100
AcDbEntity
  8
0
100
AcDbLine
 62
7
  6
CONTINUOUS
 10
200.0099979132
 20
159.3585428858
 11
200.5099979132
 21
159.3585428858
  0
LINE
  5
3BE
100
AcDbEntity
  8
0
100
AcDbLine
 62
7
  6
CONTINUOUS
 10
200.0099979132
 20
160.7727564271
 11
200.5099979132
 21
160.7727564271
  0
LINE
  5
3BF
100
AcDbEntity
  8
0
100
AcDbLine
 62
7
  6
CONTINUOUS
 10
200.0099979132
 20
161.03792147
 11
200.5099979132
 21
161.03792147
  0
LINE
  5
3C0
100
AcDbEntity
  8
0
100
AcDbLine
 62
7
  6
CONTINUOUS
 10
200.0099979132
 20
162.275358295
 11
200.5099979132
 21
162.275358295
  0
LINE
  5
3C1
100
AcDbEntity
  8
0
100
AcDbLine
 62
7
  6
CONTINUOUS
 10
200.0099979132
 20
162.5405233379
 11
200.5099979132
 21
162.5405233379
  0
LINE
  5
3C2
100
AcDbEntity
  8
0
100
AcDbLine
 62
7
  6
CONTINUOUS
 10
200.0099979132
 20
162.8940767707
 11
200.5099979132
 21
162.8940767707
  0
LINE
  5
3C3
100
AcDbEntity
  8
0
100
AcDbLine
 62
7
  6
CONTINUOUS
 10
200.0099979132
 20
163.9547369424
 11
200.5099979132
 21
163.9547369424
  0
LINE
  5
3C4
100
AcDbEntity
  8
0
100
AcDbLine
 62
7
  6
CONTINUOUS
 10
200.0099979132
 20
164.1305732572
 11
200.5099979132
 21
164.1305732572
  0
LINE
  5
3C5
100
AcDbEntity
  8
0
100
AcDbLine
 62
7
  6
CONTINUOUS
 10
200.0099979132
 20
164.1719466268
 11
200.5099979132
 21
164.1719466268
  0
LINE
  5
3C6
100
AcDbEntity
  8
0
100
AcDbLine
 62
7
  6
CONTINUOUS
 10
200.0099979132
 20
164.2462305737
 11
200.5099979132
 21
164.2462305737
  0
LINE
  5
3C7
100
AcDbEntity
  8
0
100
AcDbLine
 62
7
  6
CONTINUOUS
 10
200.0099979132
 20
164.3825739428
 11
200.5099979132
 21
164.3825739428
  0
LINE
  5
3C8
100
AcDbEntity
  8
0
100
AcDbLine
 62
7
  6
CONTINUOUS
 10
200.0099979132
 20
164.5631119493
 11
200.5099979132
 21
164.5631119493
  0
LINE
  5
3C9
100
AcDbEntity
  8
0
100
AcDbLine
 62
7
  6
CONTINUOUS
 10
200.0099979132
 20
164.7878443404
 11
200.5099979132
 21
164.7878443404
  0
LINE
  5
3CA
100
AcDbEntity
  8
0
100
AcDbLine
 62
7
  6
CONTINUOUS
 10
200.0099979132
 20
165.1451587471
 11
200.5099979132
 21
165.1451587471
  0
LINE
  5
3CB
100
AcDbEntity
  8
0
100
AcDbLine
 62
7
  6
CONTINUOUS
 10
200.0099979132
 20
165.4122042139
 11
200.5099979132
 21
165.4122042139
  0
LINE
  5
3CC
100
AcDbEntity
  8
0
100
AcDbLine
 62
7
  6
CONTINUOUS
 10
200.0099979132
 20
165.6341157163
 11
200.5099979132
 21
165.6341157163
  0
LINE
  5
3CD
100
AcDbEntity
  8
0
100
AcDbLine
 62
7
  6
CONTINUOUS
 10
200.0099979132
 20
165.8550862483
 11
200.5099979132
 21
165.8550862483
  0
LINE
  5
3CE
100
AcDbEntity
  8
0
100
AcDbLine
 62
7
  6
CONTINUOUS
 10
200.0099979132
 20
166.030922816
 11
200.5099979132
 21
166.030922816
  0
LINE
  5
3CF
100
AcDbEntity
  8
0
100
AcDbLine
 62
7
  6
CONTINUOUS
 10
200.0099979132
 20
166.0722959326
 11
200.5099979132
 21
166.0722959326
  0
LINE
  5
3D0
100
AcDbEntity
  8
0
100
AcDbLine
 62
7
  6
CONTINUOUS
 10
210.0099979132
 20
140.6343489312
 11
210.0099979132
 21
142.7343489312
  0
LINE
  5
3D1
100
AcDbEntity
  8
0
100
AcDbLine
 62
7
  6
CONTINUOUS
 10
200.0099979132
 20
167.1843489312
 11
200.5099979132
 21
167.1843489312
  0
LINE
  5
3D2
100
AcDbEntity
  8
0
100
AcDbLine
 62
7
  6
CONTINUOUS
 10
200.0099979132
 20
170.1843489312
 11
200.5099979132
 21
170.1843489312
  0
LINE
  5
3D3
100
AcDbEntity
  8
0
100
AcDbLine
 62
7
  6
CONTINUOUS
 10
210.0099979132
 20
120.9343489312
 11
210.7245497592
 21
124.2960510604
  0
LINE
  5
3D4
100
AcDbEntity
  8
0
100
AcDbLine
 62
7
  6
CONTINUOUS
 10
211.5487715853
 20
128.1737098803
 11
211.8099449808
 21
129.402434101
  0
LINE
  5
3D5
100
AcDbEntity
  8
0
100
AcDbLine
 62
7
  6
CONTINUOUS
 10
211.9230069683
 20
129.9343489312
 11
212.1936373071
 21
131.2075645717
  0
LINE
  5
3D6
100
AcDbEntity
  8
0
100
AcDbLine
 62
7
  6
CONTINUOUS
 10
212.3211152783
 20
129.402434101
 11
212.4341772657
 21
129.9343489312
  0
LINE
  5
3D7
100
AcDbEntity
  8
RUNDUNGEN
100
AcDbLine
 62
7
  6
CONTINUOUS
 10
198.0099979132
 20
176.0195645306
 11
192.0099979132
 21
176.0195645306
  0
LINE
  5
3D8
100
AcDbEntity
  8
KONSTRUKTIONSELEMENTE
100
AcDbLine
 62
7
  6
CONTINUOUS
 10
202.0099979132
 20
104.2343489312
 11
200.5099979132
 21
102.7343489312
  0
LWPOLYLINE
  5
3D9
100
AcDbEntity
  8
RUNDUNGEN
100
AcDbPolyline
 62
7
  6
CONTINUOUS
 90
7
 70
0
 10
66.0362990538
 20
56.3508260944
 10
66.0387665774
 20
55.9415788123
 10
66.0505878301
 20
55.36524102
 10
66.0723687969
 20
54.7839746694
 10
66.1042796965
 20
54.1988523458
 10
66.1464252216
 20
53.6109310566
 10
66.185142636
 20
53.1649531133
  0
LWPOLYLINE
  5
3DA
100
AcDbEntity
  8
BEZUGSACHSEN
100
AcDbPolyline
 62
7
  6
CONTINUOUS
 90
7
 70
0
 10
66.185142636
 20
59.5366990757
 10
66.1464252216
 20
59.0907211325
 10
66.1042796965
 20
58.5027998432
 10
66.0723687969
 20
57.9176775196
 10
66.0505878301
 20
57.3364111691
 10
66.0387665774
 20
56.7600733768
 10
66.0362990538
 20
56.3508260944
  0
LWPOLYLINE
  5
3DB
100
AcDbEntity
  8
BEZUGSACHSEN
100
AcDbPolyline
 62
7
  6
CONTINUOUS
 90
10
 70
0
 10
73.8162778046
 20
64.2585378558
 10
72.9990272447
 20
63.3306955729
 10
72.6314418006
 20
62.9194032252
 10
72.2942712479
 20
62.5529222074
 10
71.9898907472
 20
62.2367410893
 10
71.7197217351
 20
61.9731794215
 10
71.4877135138
 20
61.7644564536
 10
71.2902570487
 20
61.6038530945
 10
71.1272051396
 20
61.4868247827
 10
70.9996417265
 20
61.4085851399
  0
LWPOLYLINE
  5
3DC
100
AcDbEntity
  8
BEZUGSACHSEN
100
AcDbPolyline
 62
7
  6
CONTINUOUS
 90
7
 70
0
 10
76.9564574869
 20
67.5018960678
 10
76.4172399861
 20
66.9998394837
 10
75.8048331821
 20
66.3999497919
 10
75.24925089
 20
65.8291852725
 10
74.7378942979
 20
65.2830812683
 10
74.2617495733
 20
64.7591018582
 10
73.8162778046
 20
64.2585378558
  0
LINE
  5
3DD
100
AcDbEntity
  8
BEZUGSACHSEN
100
AcDbLine
 62
7
  6
CONTINUOUS
 10
70.9996417265
 20
61.4085851399
 11
70.9624350615
 21
61.3887107976
  0
LWPOLYLINE
  5
3DE
100
AcDbEntity
  8
BEZUGSACHSEN
100
AcDbPolyline
 62
7
  6
CONTINUOUS
 90
3
 70
0
 10
70.9624350615
 20
61.3887107976
 10
70.9097717918
 20
61.3636905256
 10
70.8757474681
 20
61.3508260945
  0
LINE
  5
3DF
100
AcDbEntity
  8
0
100
AcDbLine
 62
7
  6
CONTINUOUS
 10
75.5855534782
 20
51.3508260945
 11
75.5855534782
 21
50.8508260945
  0
LINE
  5
3E0
100
AcDbEntity
  8
0
100
AcDbLine
 62
7
  6
CONTINUOUS
 10
75.8507185211
 20
51.3508260945
 11
75.8507185211
 21
50.8508260945
  0
LINE
  5
3E1
100
AcDbEntity
  8
0
100
AcDbLine
 62
7
  6
CONTINUOUS
 10
77.088155346
 20
51.3508260945
 11
77.088155346
 21
50.8508260945
  0
LINE
  5
3E2
100
AcDbEntity
  8
0
100
AcDbLine
 62
7
  6
CONTINUOUS
 10
77.353320389
 20
51.3508260945
 11
77.353320389
 21
50.8508260945
  0
LINE
  5
3E3
100
AcDbEntity
  8
0
100
AcDbLine
 62
7
  6
CONTINUOUS
 10
77.7068738217
 20
51.3508260945
 11
77.7068738217
 21
50.8508260945
  0
LINE
  5
3E4
100
AcDbEntity
  8
0
100
AcDbLine
 62
7
  6
CONTINUOUS
 10
78.7675339935
 20
51.3508260945
 11
78.7675339935
 21
50.8508260945
  0
LINE
  5
3E5
100
AcDbEntity
  8
0
100
AcDbLine
 62
7
  6
CONTINUOUS
 10
79.0336392483
 20
51.3508260945
 11
79.0336392483
 21
50.8508260945
  0
LINE
  5
3E6
100
AcDbEntity
  8
0
100
AcDbLine
 62
7
  6
CONTINUOUS
 10
79.345819438
 20
51.3508260945
 11
79.345819438
 21
50.8508260945
  0
LINE
  5
3E7
100
AcDbEntity
  8
0
100
AcDbLine
 62
7
  6
CONTINUOUS
 10
79.6589398395
 20
51.3508260945
 11
79.6589398395
 21
50.8508260945
  0
LINE
  5
3E8
100
AcDbEntity
  8
0
100
AcDbLine
 62
7
  6
CONTINUOUS
 10
79.8385375077
 20
51.3508260945
 11
79.8385375077
 21
50.8508260945
  0
LINE
  5
3E9
100
AcDbEntity
  8
0
100
AcDbLine
 62
7
  6
CONTINUOUS
 10
80.0190755142
 20
51.3508260945
 11
80.0190755142
 21
50.8508260945
  0
LINE
  5
3EA
100
AcDbEntity
  8
0
100
AcDbLine
 62
7
  6
CONTINUOUS
 10
80.1102846661
 20
51.3508260945
 11
80.1102846661
 21
50.8508260945
  0
LINE
  5
3EB
100
AcDbEntity
  8
0
100
AcDbLine
 62
7
  6
CONTINUOUS
 10
80.1582400247
 20
51.3508260945
 11
80.1582400247
 21
50.8508260945
  0
LINE
  5
3EC
100
AcDbEntity
  8
0
100
AcDbLine
 62
7
  6
CONTINUOUS
 10
80.2287626183
 20
51.3508260945
 11
80.2287626183
 21
50.8508260945
  0
LINE
  5
3ED
100
AcDbEntity
  8
0
100
AcDbLine
 62
7
  6
CONTINUOUS
 10
80.315270205
 20
51.3508260945
 11
80.315270205
 21
50.8508260945
  0
LINE
  5
3EE
100
AcDbEntity
  8
0
100
AcDbLine
 62
7
  6
CONTINUOUS
 10
80.4469127674
 20
51.3508260945
 11
80.4469127674
 21
50.8508260945
  0
LINE
  5
3EF
100
AcDbEntity
  8
0
100
AcDbLine
 62
7
  6
CONTINUOUS
 10
80.6678832994
 20
51.3508260945
 11
80.6678832994
 21
50.8508260945
  0
LINE
  5
3F0
100
AcDbEntity
  8
0
100
AcDbLine
 62
7
  6
CONTINUOUS
 10
80.9339888071
 20
51.3508260945
 11
80.9339888071
 21
50.8508260945
  0
LINE
  5
3F1
100
AcDbEntity
  8
0
100
AcDbLine
 62
7
  6
CONTINUOUS
 10
81.2461687438
 20
51.3508260945
 11
81.2461687438
 21
50.8508260945
  0
LINE
  5
3F2
100
AcDbEntity
  8
0
100
AcDbLine
 62
7
  6
CONTINUOUS
 10
81.5592891454
 20
51.3508260945
 11
81.5592891454
 21
50.8508260945
  0
LINE
  5
3F3
100
AcDbEntity
  8
0
100
AcDbLine
 62
7
  6
CONTINUOUS
 10
81.7388870664
 20
51.3508260945
 11
81.7388870664
 21
50.8508260945
  0
LINE
  5
3F4
100
AcDbEntity
  8
0
100
AcDbLine
 62
7
  6
CONTINUOUS
 10
81.880872339
 20
51.3508260945
 11
81.880872339
 21
50.8508260945
  0
LWPOLYLINE
  5
3F5
100
AcDbEntity
  8
RUNDUNGEN
100
AcDbPolyline
 62
7
  6
CONTINUOUS
 90
21
 70
0
 10
76.9564716665
 20
45.1997307235
 10
77.8283489285
 20
44.4515750754
 10
78.9164429418
 20
43.6264627246
 10
80.1122988379
 20
42.8367483394
 10
81.408360377
 20
42.0982017537
 10
82.7974121668
 20
41.4233402837
 10
84.2704281221
 20
40.8228450383
 10
85.8169802409
 20
40.3055860954
 10
87.4254637969
 20
39.878223392
 10
89.0835724833
 20
39.5452446871
 10
90.7776764074
 20
39.3088137483
 10
92.4949293481
 20
39.1689352893
 10
94.2229986681
 20
39.123483294
 10
95.9509078643
 20
39.1699581198
 10
97.6677570595
 20
39.3108713966
 10
99.3612203084
 20
39.5483053253
 10
101.0184951845
 20
39.882224837
 10
102.6260165475
 20
40.3104458317
 10
104.1715324232
 20
40.8284704853
 10
105.643489086
 20
41.4296403534
 10
106.061818862
 20
41.6332147057
  0
LINE
  5
3F6
100
AcDbEntity
  8
RUNDUNGEN
100
AcDbLine
 62
7
  6
CONTINUOUS
 10
76.9564555495
 20
45.1997578822
 11
76.9564778956
 21
45.1997375799
  0
LWPOLYLINE
  5
3F7
100
AcDbEntity
  8
RUNDUNGEN
100
AcDbPolyline
 62
7
  6
CONTINUOUS
 90
8
 70
0
 10
72.9244184848
 20
49.4550926454
 10
73.7041797122
 20
48.5701490155
 10
74.1476519504
 20
48.0699679647
 10
74.6323878153
 20
47.5334909931
 10
75.1627690241
 20
46.9634844235
 10
75.7445718451
 20
46.3624163734
 10
76.3851138162
 20
45.7324981273
 10
76.9564555495
 20
45.1997578822
  0
LINE
  5
3F8
100
AcDbEntity
  8
0
100
AcDbLine
 62
7
  6
CONTINUOUS
 10
82.1479183115
 20
51.3508260945
 11
82.1479183115
 21
50.8508260945
  0
LINE
  5
3F9
100
AcDbEntity
  8
0
100
AcDbLine
 62
7
  6
CONTINUOUS
 10
82.5052327183
 20
51.3508260945
 11
82.5052327183
 21
50.8508260945
  0
LINE
  5
3FA
100
AcDbEntity
  8
0
100
AcDbLine
 62
7
  6
CONTINUOUS
 10
82.7741591778
 20
51.3508260945
 11
82.7741591778
 21
50.8508260945
  0
LINE
  5
3FB
100
AcDbEntity
  8
0
100
AcDbLine
 62
7
  6
CONTINUOUS
 10
82.9998315279
 20
51.3508260945
 11
82.9998315279
 21
50.8508260945
  0
LINE
  5
3FC
100
AcDbEntity
  8
0
100
AcDbLine
 62
7
  6
CONTINUOUS
 10
83.0919809233
 20
51.3508260945
 11
83.0919809233
 21
50.8508260945
  0
LINE
  5
3FD
100
AcDbEntity
  8
0
100
AcDbLine
 62
7
  6
CONTINUOUS
 10
83.0957422925
 20
51.3508260945
 11
83.0957422925
 21
50.8508260945
  0
LWPOLYLINE
  5
3FE
100
AcDbEntity
  8
RUNDUNGEN
100
AcDbPolyline
 62
7
  6
CONTINUOUS
 90
9
 70
0
 10
71.0033212389
 20
51.2910182847
 10
71.1368011685
 20
51.2084141859
 10
71.3051079406
 20
51.0863720221
 10
71.5037180868
 20
50.9234282839
 10
71.7311199853
 20
50.7177564503
 10
71.9869839902
 20
50.4678427742
 10
72.2707355749
 20
50.173755023
 10
72.5827750166
 20
49.8359359259
 10
72.9244184848
 20
49.4550926454
  0
LINE
  5
3FF
100
AcDbEntity
  8
0
100
AcDbLine
 62
7
  6
CONTINUOUS
 10
86.3488147296
 20
40.1642814336
 11
86.3488147296
 21
40.0818187085
  0
LINE
  5
400
100
AcDbEntity
  8
0
100
AcDbLine
 62
7
  6
CONTINUOUS
 10
86.9738147296
 20
39.9982233545
 11
86.9738147296
 21
39.8729789541
  0
LINE
  5
401
100
AcDbEntity
  8
0
100
AcDbLine
 62
7
  6
CONTINUOUS
 10
87.5988147296
 20
39.8434113381
 11
87.5988147296
 21
39.7355187293
  0
LINE
  5
402
100
AcDbEntity
  8
0
100
AcDbLine
 62
7
  6
CONTINUOUS
 10
88.1196481623
 20
39.7388184104
 11
88.1196481623
 21
39.6885226182
  0
LINE
  5
403
100
AcDbEntity
  8
0
100
AcDbLine
 62
7
  6
CONTINUOUS
 10
88.6404807605
 20
73.0674265387
 11
88.6404807605
 21
73.2272516424
  0
LINE
  5
404
100
AcDbEntity
  8
0
100
AcDbLine
 62
7
  6
CONTINUOUS
 10
90.150897745
 20
51.3508260945
 11
90.150897745
 21
50.8508260945
  0
LINE
  5
405
100
AcDbEntity
  8
RUNDUNGEN
100
AcDbLine
 62
7
  6
CONTINUOUS
 10
104.8834749566
 20
41.4676092696
 11
125.352570846
 21
44.3443530915
  0
LWPOLYLINE
  5
406
100
AcDbEntity
  8
RUNDUNGEN
100
AcDbPolyline
 62
7
  6
CONTINUOUS
 90
3
 70
0
 10
70.875664325
 20
51.3508260945
 10
70.9103537112
 20
51.3377099412
 10
71.0033212389
 20
51.2910182847
  0
LINE
  5
407
100
AcDbEntity
  8
0
100
AcDbLine
 62
7
  6
CONTINUOUS
 10
91.650897745
 20
51.3508260945
 11
91.650897745
 21
50.8508260945
  0
LINE
  5
408
100
AcDbEntity
  8
0
100
AcDbLine
 62
7
  6
CONTINUOUS
 10
91.6613147296
 20
39.2368371839
 11
91.6613147296
 21
39.0375352049
  0
LINE
  5
409
100
AcDbEntity
  8
0
100
AcDbLine
 62
7
  6
CONTINUOUS
 10
91.9633978047
 20
51.3508260945
 11
91.9633978047
 21
50.8508260945
  0
LINE
  5
40A
100
AcDbEntity
  8
0
100
AcDbLine
 62
7
  6
CONTINUOUS
 10
92.1821470298
 20
73.5072392851
 11
92.1821470298
 21
73.7051272072
  0
LINE
  5
40B
100
AcDbEntity
  8
0
100
AcDbLine
 62
7
  6
CONTINUOUS
 10
92.213397745
 20
51.3508260945
 11
92.213397745
 21
50.8508260945
  0
LINE
  5
40C
100
AcDbEntity
  8
0
100
AcDbLine
 62
7
  6
CONTINUOUS
 10
92.400897745
 20
51.3508260945
 11
92.400897745
 21
50.8508260945
  0
LINE
  5
40D
100
AcDbEntity
  8
0
100
AcDbLine
 62
7
  6
CONTINUOUS
 10
92.4633976854
 20
51.3508260945
 11
92.4633976854
 21
50.8508260945
  0
LINE
  5
40E
100
AcDbEntity
  8
0
100
AcDbLine
 62
7
  6
CONTINUOUS
 10
92.5258978047
 20
51.3508260945
 11
92.5258978047
 21
50.8508260945
  0
LINE
  5
40F
100
AcDbEntity
  8
0
100
AcDbLine
 62
7
  6
CONTINUOUS
 10
93.0154807605
 20
73.5464085382
 11
93.0154807605
 21
73.7508986732
  0
LINE
  5
410
100
AcDbEntity
  8
0
100
AcDbLine
 62
7
  6
CONTINUOUS
 10
93.0258976854
 20
51.3508260945
 11
93.0258976854
 21
50.8508260945
  0
LINE
  5
411
100
AcDbEntity
  8
0
100
AcDbLine
 62
7
  6
CONTINUOUS
 10
93.4008978643
 20
51.3508260945
 11
93.4008978643
 21
50.8508260945
  0
LINE
  5
412
100
AcDbEntity
  8
0
100
AcDbLine
 62
7
  6
CONTINUOUS
 10
93.4633976258
 20
51.3508260945
 11
93.4633976258
 21
50.8508260945
  0
LINE
  5
413
100
AcDbEntity
  8
0
100
AcDbLine
 62
7
  6
CONTINUOUS
 10
93.5883978643
 20
51.3508260945
 11
93.5883978643
 21
50.8508260945
  0
LINE
  5
414
100
AcDbEntity
  8
0
100
AcDbLine
 62
7
  6
CONTINUOUS
 10
93.7758978643
 20
51.3508260945
 11
93.7758978643
 21
50.8508260945
  0
LINE
  5
415
100
AcDbEntity
  8
0
100
AcDbLine
 62
7
  6
CONTINUOUS
 10
94.0258976258
 20
51.3508260945
 11
94.0258976258
 21
50.8508260945
  0
LINE
  5
416
100
AcDbEntity
  8
0
100
AcDbLine
 62
7
  6
CONTINUOUS
 10
94.275897745
 20
51.3508260945
 11
94.275897745
 21
50.8508260945
  0
LINE
  5
417
100
AcDbEntity
  8
0
100
AcDbLine
 62
7
  6
CONTINUOUS
 10
94.5258978643
 20
51.3508260945
 11
94.5258978643
 21
50.8508260945
  0
LINE
  5
418
100
AcDbEntity
  8
0
100
AcDbLine
 62
7
  6
CONTINUOUS
 10
94.7133978643
 20
51.3508260945
 11
94.7133978643
 21
50.8508260945
  0
LINE
  5
419
100
AcDbEntity
  8
0
100
AcDbLine
 62
7
  6
CONTINUOUS
 10
94.838397745
 20
51.3508260945
 11
94.838397745
 21
50.8508260945
  0
LINE
  5
41A
100
AcDbEntity
  8
0
100
AcDbLine
 62
7
  6
CONTINUOUS
 10
94.9008978643
 20
51.3508260945
 11
94.9008978643
 21
50.8508260945
  0
LINE
  5
41B
100
AcDbEntity
  8
0
100
AcDbLine
 62
7
  6
CONTINUOUS
 10
95.2758978643
 20
51.3508260945
 11
95.2758978643
 21
50.8508260945
  0
LINE
  5
41C
100
AcDbEntity
  8
0
100
AcDbLine
 62
7
  6
CONTINUOUS
 10
95.4113147296
 20
39.1554449168
 11
95.4113147296
 21
38.9507535159
  0
LINE
  5
41D
100
AcDbEntity
  8
0
100
AcDbLine
 62
7
  6
CONTINUOUS
 10
95.775897745
 20
51.3508260945
 11
95.775897745
 21
50.8508260945
  0
LINE
  5
41E
100
AcDbEntity
  8
0
100
AcDbLine
 62
7
  6
CONTINUOUS
 10
96.2446484603
 20
39.1940673718
 11
96.2446484603
 21
38.9965249819
  0
LINE
  5
41F
100
AcDbEntity
  8
0
100
AcDbLine
 62
7
  6
CONTINUOUS
 10
96.7654807605
 20
73.4648366328
 11
96.7654807605
 21
73.6641169841
  0
LINE
  5
420
100
AcDbEntity
  8
0
100
AcDbLine
 62
7
  6
CONTINUOUS
 10
97.275897745
 20
51.3508260945
 11
97.275897745
 21
50.8508260945
  0
LINE
  5
421
100
AcDbEntity
  8
0
100
AcDbLine
 62
7
  6
CONTINUOUS
 10
97.5883979835
 20
51.3508260945
 11
97.5883979835
 21
50.8508260945
  0
LINE
  5
422
100
AcDbEntity
  8
0
100
AcDbLine
 62
7
  6
CONTINUOUS
 10
97.838397745
 20
51.3508260945
 11
97.838397745
 21
50.8508260945
  0
LINE
  5
423
100
AcDbEntity
  8
0
100
AcDbLine
 62
7
  6
CONTINUOUS
 10
98.0883975066
 20
51.3508260945
 11
98.0883975066
 21
50.8508260945
  0
LINE
  5
424
100
AcDbEntity
  8
0
100
AcDbLine
 62
7
  6
CONTINUOUS
 10
98.213397745
 20
51.3508260945
 11
98.213397745
 21
50.8508260945
  0
LINE
  5
425
100
AcDbEntity
  8
0
100
AcDbLine
 62
7
  6
CONTINUOUS
 10
98.2758975066
 20
51.3508260945
 11
98.2758975066
 21
50.8508260945
  0
LINE
  5
426
100
AcDbEntity
  8
RUNDUNGEN
100
AcDbLine
 62
7
  6
CONTINUOUS
 10
121.013397745
 20
47.8508260945
 11
105.513397745
 21
47.8508260945
  0
LINE
  5
427
100
AcDbEntity
  8
0
100
AcDbLine
 62
7
  6
CONTINUOUS
 10
111.951913761
 20
50.8508260945
 11
107.4534704288
 21
50.8508260945
  0
LINE
  5
428
100
AcDbEntity
  8
0
100
AcDbLine
 62
7
  6
CONTINUOUS
 10
98.2758975066
 20
50.8508260945
 11
95.775897745
 21
50.8508260945
  0
LINE
  5
429
100
AcDbEntity
  8
0
100
AcDbLine
 62
7
  6
CONTINUOUS
 10
95.2758978643
 20
50.8508260945
 11
93.0258976854
 21
50.8508260945
  0
LINE
  5
42A
100
AcDbEntity
  8
0
100
AcDbLine
 62
7
  6
CONTINUOUS
 10
92.5258978047
 20
50.8508260945
 11
90.150897745
 21
50.8508260945
  0
LINE
  5
42B
100
AcDbEntity
  8
0
100
AcDbLine
 62
7
  6
CONTINUOUS
 10
83.0919809233
 20
50.8508260945
 11
75.5855534782
 21
50.8508260945
  0
LINE
  5
42C
100
AcDbEntity
  8
RUNDUNGEN
100
AcDbLine
 62
7
  6
CONTINUOUS
 10
125.213397745
 20
51.1008260945
 11
123.013397745
 21
51.1008260945
  0
LINE
  5
42D
100
AcDbEntity
  8
RUNDUNGEN
100
AcDbLine
 62
7
  6
CONTINUOUS
 10
68.1764861866
 20
51.3508260945
 11
120.2503097166
 21
51.3508260945
  0
LINE
  5
42E
100
AcDbEntity
  8
0
100
AcDbLine
 62
7
  6
CONTINUOUS
 10
99.7863147296
 20
39.6339563682
 11
99.7863147296
 21
39.4744005466
  0
LINE
  5
42F
100
AcDbEntity
  8
0
100
AcDbLine
 62
7
  6
CONTINUOUS
 10
100.3071473278
 20
72.9627547701
 11
100.3071473278
 21
73.0131295708
  0
LINE
  5
430
100
AcDbEntity
  8
0
100
AcDbLine
 62
7
  6
CONTINUOUS
 10
100.8279807605
 20
72.8578135512
 11
100.8279807605
 21
72.9661334597
  0
LINE
  5
431
100
AcDbEntity
  8
0
100
AcDbLine
 62
7
  6
CONTINUOUS
 10
101.4529807605
 20
72.703686529
 11
101.4529807605
 21
72.828673235
  0
LINE
  5
432
100
AcDbEntity
  8
0
100
AcDbLine
 62
7
  6
CONTINUOUS
 10
102.0779807605
 20
72.5371953533
 11
102.0779807605
 21
72.6198334806
  0
LINE
  5
433
100
AcDbEntity
  8
RUNDUNGEN
100
AcDbLine
 62
7
  6
CONTINUOUS
 10
117.4259853896
 20
51.2924180321
 11
117.4642026438
 21
51.3128607724
  0
LWPOLYLINE
  5
434
100
AcDbEntity
  8
RUNDUNGEN
100
AcDbPolyline
 62
7
  6
CONTINUOUS
 90
3
 70
0
 10
117.4642026438
 20
51.3128607724
 10
117.5179256422
 20
51.338351502
 10
117.5511406031
 20
51.3508260945
  0
LINE
  5
435
100
AcDbEntity
  8
0
100
AcDbLine
 62
7
  6
CONTINUOUS
 10
107.453397745
 20
51.3508260945
 11
107.453397745
 21
50.8508260945
  0
LINE
  5
436
100
AcDbEntity
  8
0
100
AcDbLine
 62
7
  6
CONTINUOUS
 10
110.131913761
 20
51.3508260945
 11
110.131913761
 21
50.8508260945
  0
LINE
  5
437
100
AcDbEntity
  8
0
100
AcDbLine
 62
7
  6
CONTINUOUS
 10
111.951913761
 20
51.3508260945
 11
111.951913761
 21
50.8508260945
  0
LWPOLYLINE
  5
438
100
AcDbEntity
  8
RUNDUNGEN
100
AcDbPolyline
 62
7
  6
CONTINUOUS
 90
10
 70
0
 10
114.7297407458
 20
48.5782334931
 10
115.5087821655
 20
49.4623032844
 10
115.8501256634
 20
49.8426547436
 10
116.1618683009
 20
50.1799178009
 10
116.4452971796
 20
50.473370382
 10
116.7007841554
 20
50.7225643227
 10
116.9277217264
 20
50.9274339617
 10
117.1257605394
 20
51.0895175431
 10
117.2933588744
 20
51.2106701957
 10
117.4259853896
 20
51.2924180321
  0
LWPOLYLINE
  5
439
100
AcDbEntity
  8
RUNDUNGEN
100
AcDbPolyline
 62
7
  6
CONTINUOUS
 90
3
 70
0
 10
114.0811296758
 20
47.8508260945
 10
114.2867517216
 20
48.078486079
 10
114.7297407458
 20
48.5782334931
  0
LINE
  5
43A
100
AcDbEntity
  8
BEZUGSACHSEN
100
AcDbLine
 62
7
  6
CONTINUOUS
 10
68.1764861866
 20
61.3508260945
 11
120.2503097166
 21
61.3508260945
  0
LINE
  5
43B
100
AcDbEntity
  8
RUNDUNGEN
100
AcDbLine
 62
7
  6
CONTINUOUS
 10
123.013397745
 20
61.6008260945
 11
125.213397745
 21
61.6008260945
  0
LINE
  5
43C
100
AcDbEntity
  8
RUNDUNGEN
100
AcDbLine
 62
7
  6
CONTINUOUS
 10
105.513397745
 20
64.8508260945
 11
121.013397745
 21
64.8508260945
  0
LWPOLYLINE
  5
43D
100
AcDbEntity
  8
BEZUGSACHSEN
100
AcDbPolyline
 62
7
  6
CONTINUOUS
 90
3
 70
0
 10
117.5510620259
 20
61.3508260945
 10
117.5183990642
 20
61.3630972673
 10
117.4293938941
 20
61.4073448088
  0
LINE
  5
43E
100
AcDbEntity
  8
RUNDUNGEN
100
AcDbLine
 62
7
  6
CONTINUOUS
 10
125.352570846
 20
68.3572990975
 11
104.8834749566
 21
71.2340429194
  0
LWPOLYLINE
  5
43F
100
AcDbEntity
  8
BEZUGSACHSEN
100
AcDbPolyline
 62
7
  6
CONTINUOUS
 90
9
 70
0
 10
117.4293938941
 20
61.4073448088
 10
117.3025137677
 20
61.4848842035
 10
117.1400421165
 20
61.6011741948
 10
116.9431436143
 20
61.7609789214
 10
116.7116650417
 20
61.9688739764
 10
116.4420030225
 20
62.2316003268
 10
116.138108933
 20
62.5469764464
 10
115.8013917905
 20
62.9127301739
 10
115.4342492389
 20
63.3233770452
  0
LWPOLYLINE
  5
440
100
AcDbEntity
  8
BEZUGSACHSEN
100
AcDbPolyline
 62
7
  6
CONTINUOUS
 90
7
 70
0
 10
122.3904960276
 20
56.3508260945
 10
122.3878659483
 20
56.7733798595
 10
122.3758216169
 20
57.3496888408
 10
122.3538153825
 20
57.9308987528
 10
122.3216841837
 20
58.5159438664
 10
122.2793209893
 20
59.1037609176
 10
122.2416536213
 20
59.5366982831
  0
LINE
  5
441
100
AcDbEntity
  8
RUNDUNGEN
100
AcDbLine
 62
7
  6
CONTINUOUS
 10
122.013397745
 20
63.8508260945
 11
122.013397745
 21
62.6008260945
  0
LINE
  5
442
100
AcDbEntity
  8
RUNDUNGEN
100
AcDbLine
 62
7
  6
CONTINUOUS
 10
122.013397745
 20
50.1008260945
 11
122.013397745
 21
48.8508260945
  0
LWPOLYLINE
  5
443
100
AcDbEntity
  8
RUNDUNGEN
100
AcDbPolyline
 62
7
  6
CONTINUOUS
 90
7
 70
0
 10
122.2416536213
 20
53.1649539059
 10
122.2793209893
 20
53.5978912715
 10
122.3216841837
 20
54.1857083227
 10
122.3538153825
 20
54.7707534364
 10
122.3758216169
 20
55.3519633485
 10
122.3878659483
 20
55.9282723298
 10
122.3904960276
 20
56.3508260945
  0
LWPOLYLINE
  5
444
100
AcDbEntity
  8
BEZUGSACHSEN
100
AcDbPolyline
 62
7
  6
CONTINUOUS
 90
21
 70
0
 10
106.061818862
 20
71.0684374834
 10
105.643489086
 20
71.2720118356
 10
104.1715324232
 20
71.8731817038
 10
102.6260165475
 20
72.3912063573
 10
101.0184951845
 20
72.819427352
 10
99.3612203084
 20
73.1533468638
 10
97.6677570595
 20
73.3907807924
 10
95.9509078643
 20
73.5316940693
 10
94.2229986681
 20
73.578168895
 10
92.4949293481
 20
73.5327168997
 10
90.7776764074
 20
73.3928384408
 10
89.0835724833
 20
73.1564075019
 10
87.4254637969
 20
72.823428797
 10
85.8169802409
 20
72.3960660936
 10
84.2704281221
 20
71.8788071507
 10
82.7974121668
 20
71.2783119054
 10
81.408360377
 20
70.6034504353
 10
80.1122988379
 20
69.8649038496
 10
78.9164429418
 20
69.0751894645
 10
77.8283489285
 20
68.2500771136
 10
76.9564716665
 20
67.5019214655
  0
LWPOLYLINE
  5
445
100
AcDbEntity
  8
BEZUGSACHSEN
100
AcDbPolyline
 62
7
  6
CONTINUOUS
 90
4
 70
0
 10
115.4342492389
 20
63.3233770452
 10
114.6178895207
 20
64.2501938953
 10
114.1728729856
 20
64.7503813384
 10
114.0816374438
 20
64.8508260945
  0
LINE
  5
446
100
AcDbEntity
  8
RUNDUNGEN
100
AcDbLine
 62
7
  6
CONTINUOUS
 10
126.213397745
 20
45.3346211603
 11
126.213397745
 21
50.1008260945
  0
LINE
  5
447
100
AcDbEntity
  8
RUNDUNGEN
100
AcDbLine
 62
7
  6
CONTINUOUS
 10
126.213397745
 20
62.6008260945
 11
126.213397745
 21
67.3670310288
  0
ARC
  5
448
100
AcDbEntity
  8
0
100
AcDbCircle
 62
7
  6
CONTINUOUS
 10
94.213397745
 20
147.9343489312
 40
15.0
100
AcDbArc
 50
321.7807975273
 51
328.6648669862
  0
ARC
  5
449
100
AcDbEntity
  8
0
100
AcDbCircle
 62
7
  6
CONTINUOUS
 10
94.213397745
 20
147.9343489312
 40
15.0
100
AcDbArc
 50
199.9063616
 51
218.2192914008
  0
ARC
  5
44A
100
AcDbEntity
  8
RUNDUNGEN
100
AcDbCircle
 62
7
  6
CONTINUOUS
 10
94.213397745
 20
147.9343489312
 40
15.0
100
AcDbArc
 50
341.7270294354
 51
199.9063616
  0
ARC
  5
44B
100
AcDbEntity
  8
BEZUGSACHSEN
100
AcDbCircle
 62
7
  6
CONTINUOUS
 10
115.213397745
 20
120.9343489312
 40
6.0
100
AcDbArc
 50
104.131931334
 51
179.9588212219
  0
ARC
  5
44C
100
AcDbEntity
  8
BEZUGSACHSEN
100
AcDbCircle
 62
7
  6
CONTINUOUS
 10
73.213397745
 20
120.9343489312
 40
6.0
100
AcDbArc
 50
0.0411792277
 51
75.868068666
  0
ARC
  5
44D
100
AcDbEntity
  8
BEZUGSACHSEN
100
AcDbCircle
 62
7
  6
CONTINUOUS
 10
120.3904960992
 20
148.0143010338
 40
2.0
100
AcDbArc
 50
337.4999821453
 51
22.4999747495
  0
ARC
  5
44E
100
AcDbEntity
  8
RUNDUNGEN
100
AcDbCircle
 62
7
  6
CONTINUOUS
 10
112.8093189318
 20
166.3168817702
 40
2.0
100
AcDbArc
 50
22.5
 51
67.5
  0
ARC
  5
44F
100
AcDbEntity
  8
RUNDUNGEN
100
AcDbCircle
 62
7
  6
CONTINUOUS
 10
94.213397745
 20
174.0195645306
 40
2.0
100
AcDbArc
 50
67.5
 51
112.5
  0
ARC
  5
450
100
AcDbEntity
  8
RUNDUNGEN
100
AcDbCircle
 62
7
  6
CONTINUOUS
 10
75.6174765583
 20
166.3168817702
 40
2.0
100
AcDbArc
 50
112.5
 51
157.5
  0
ARC
  5
451
100
AcDbEntity
  8
BEZUGSACHSEN
100
AcDbCircle
 62
7
  6
CONTINUOUS
 10
68.0362990537
 20
148.0143002197
 40
2.0
100
AcDbArc
 50
157.5000000065
 51
202.5000000046
  0
ARC
  5
452
100
AcDbEntity
  8
0
100
AcDbCircle
 62
7
  6
CONTINUOUS
 10
110.783397745
 20
161.7699405222
 40
1.51
100
AcDbArc
 50
39.298963631
 51
222.6494288323
  0
ARC
  5
453
100
AcDbEntity
  8
0
100
AcDbCircle
 62
7
  6
CONTINUOUS
 10
108.963397745
 20
163.5899405222
 40
1.51
100
AcDbArc
 50
39.298963631
 51
222.6494288323
  0
ARC
  5
454
100
AcDbEntity
  8
RUNDUNGEN
100
AcDbCircle
 62
7
  6
CONTINUOUS
 10
72.213397745
 20
130.9343489312
 40
1.5
100
AcDbArc
 50
180.0
 51
270.0
  0
ARC
  5
455
100
AcDbEntity
  8
RUNDUNGEN
100
AcDbCircle
 62
7
  6
CONTINUOUS
 10
116.213397745
 20
130.9343489312
 40
1.5
100
AcDbArc
 50
270.0
 51
360.0
  0
ARC
  5
456
100
AcDbEntity
  8
0
100
AcDbCircle
 62
7
  6
CONTINUOUS
 10
110.783397745
 20
161.7699405222
 40
1.06
100
AcDbArc
 50
147.5317819729
 51
233.1352001031
  0
ARC
  5
457
100
AcDbEntity
  8
0
100
AcDbCircle
 62
7
  6
CONTINUOUS
 10
110.783397745
 20
161.7699405222
 40
1.06
100
AcDbArc
 50
36.8647998969
 51
122.8445808202
  0
ARC
  5
458
100
AcDbEntity
  8
0
100
AcDbCircle
 62
7
  6
CONTINUOUS
 10
108.963397745
 20
163.5899405222
 40
1.06
100
AcDbArc
 50
45.8930494659
 51
233.1352001031
  0
ARC
  5
459
100
AcDbEntity
  8
BEZUGSACHSEN
100
AcDbCircle
 62
7
  6
CONTINUOUS
 10
69.713397745
 20
136.126048001
 40
1.0000000005
100
AcDbArc
 50
0.0000013161
 51
22.5000012159
  0
ARC
  5
45A
100
AcDbEntity
  8
BEZUGSACHSEN
100
AcDbCircle
 62
7
  6
CONTINUOUS
 10
72.8994039734
 20
128.4343490923
 40
0.9999999707
100
AcDbArc
 50
22.4999946856
 51
90.000008393
  0
ARC
  5
45B
100
AcDbEntity
  8
BEZUGSACHSEN
100
AcDbCircle
 62
7
  6
CONTINUOUS
 10
118.713397745
 20
136.1260571863
 40
0.999999873
100
AcDbArc
 50
157.5004850075
 51
180.0005249664
  0
ARC
  5
45C
100
AcDbEntity
  8
BEZUGSACHSEN
100
AcDbCircle
 62
7
  6
CONTINUOUS
 10
115.5273890433
 20
128.4343519743
 40
0.9999994467
100
AcDbArc
 50
89.9998498931
 51
157.5001036409
  0
ARC
  5
45D
100
AcDbEntity
  8
RUNDUNGEN
100
AcDbCircle
 62
7
  6
CONTINUOUS
 10
86.713397745
 20
140.6343489312
 40
0.5
100
AcDbArc
 50
180.0
 51
270.0
  0
ARC
  5
45E
100
AcDbEntity
  8
RUNDUNGEN
100
AcDbCircle
 62
7
  6
CONTINUOUS
 10
125.713397745
 20
140.6343489312
 40
0.5
100
AcDbArc
 50
270.0
 51
360.0
  0
ARC
  5
45F
100
AcDbEntity
  8
RUNDUNGEN
100
AcDbCircle
 62
7
  6
CONTINUOUS
 10
125.713397745
 20
142.7343489312
 40
0.5
100
AcDbArc
 50
0.0
 51
90.0
  0
ARC
  5
460
100
AcDbEntity
  8
RUNDUNGEN
100
AcDbCircle
 62
7
  6
CONTINUOUS
 10
86.713397745
 20
142.7343489312
 40
0.5
100
AcDbArc
 50
90.0
 51
180.0
  0
ARC
  5
461
100
AcDbEntity
  8
0
100
AcDbCircle
 62
7
  6
CONTINUOUS
 10
64.9969947332
 20
129.7673446078
 40
145.1996496775
100
AcDbArc
 50
358.4285327275
 51
358.6804854377
  0
ARC
  5
462
100
AcDbEntity
  8
0
100
AcDbCircle
 62
7
  6
CONTINUOUS
 10
74.3505609082
 20
140.433179942
 40
137.6130193643
100
AcDbArc
 50
355.0023288179
 51
355.2690478875
  0
ARC
  5
463
100
AcDbEntity
  8
0
100
AcDbCircle
 62
7
  6
CONTINUOUS
 10
77.2903415703
 20
139.7509902384
 40
134.0996149058
100
AcDbArc
 50
355.1636239464
 51
355.3790813035
  0
ARC
  5
464
100
AcDbEntity
  8
0
100
AcDbCircle
 62
7
  6
CONTINUOUS
 10
101.2065687328
 20
150.2967122324
 40
113.0306021614
100
AcDbArc
 50
347.0332877546
 51
348.0191504344
  0
ARC
  5
465
100
AcDbEntity
  8
0
100
AcDbCircle
 62
7
  6
CONTINUOUS
 10
105.7216406274
 20
150.5157336536
 40
108.1590994934
100
AcDbArc
 50
347.1196858482
 51
347.352990157
  0
ARC
  5
466
100
AcDbEntity
  8
0
100
AcDbCircle
 62
7
  6
CONTINUOUS
 10
109.6255700553
 20
149.7067658881
 40
104.6717268185
100
AcDbArc
 50
346.583266281
 51
347.3784518118
  0
ARC
  5
467
100
AcDbEntity
  8
0
100
AcDbCircle
 62
7
  6
CONTINUOUS
 10
114.8183360654
 20
148.4206740703
 40
98.8242499302
100
AcDbArc
 50
346.6808687831
 51
346.9343695305
  0
ARC
  5
468
100
AcDbEntity
  8
0
100
AcDbCircle
 62
7
  6
CONTINUOUS
 10
119.770362457
 20
147.3030393397
 40
94.2460643832
100
AcDbArc
 50
346.2701957861
 51
346.5736656785
  0
ARC
  5
469
100
AcDbEntity
  8
0
100
AcDbCircle
 62
7
  6
CONTINUOUS
 10
154.9051132227
 20
142.2993418825
 40
58.8017191116
100
AcDbArc
 50
343.164051808
 51
343.342766134
  0
ARC
  5
46A
100
AcDbEntity
  8
0
100
AcDbCircle
 62
7
  6
CONTINUOUS
 10
13.5340515536
 20
182.5161012435
 40
205.2320588212
100
AcDbArc
 50
344.138552596
 51
344.32371844
  0
ARC
  5
46B
100
AcDbEntity
  8
0
100
AcDbCircle
 62
7
  6
CONTINUOUS
 10
23.0052769466
 20
180.1501659612
 40
194.9650460919
100
AcDbArc
 50
344.0040337625
 51
344.199075656
  0
ARC
  5
46C
100
AcDbEntity
  8
0
100
AcDbCircle
 62
7
  6
CONTINUOUS
 10
33.9684054264
 20
176.475638233
 40
184.0462314943
100
AcDbArc
 50
344.219484244
 51
344.3914884834
  0
ARC
  5
46D
100
AcDbEntity
  8
0
100
AcDbCircle
 62
7
  6
CONTINUOUS
 10
68.6107312898
 20
158.6489946431
 40
146.6506726809
100
AcDbArc
 50
348.0060328621
 51
348.4878516853
  0
ARC
  5
46E
100
AcDbEntity
  8
0
100
AcDbCircle
 62
7
  6
CONTINUOUS
 10
75.1118198245
 20
172.8535808793
 40
142.6824905595
100
AcDbArc
 50
341.5960638714
 51
341.8659851448
  0
ARC
  5
46F
100
AcDbEntity
  8
0
100
AcDbCircle
 62
7
  6
CONTINUOUS
 10
90.5417790239
 20
153.9834117588
 40
124.228842426
100
AcDbArc
 50
347.3769320352
 51
348.008923901
  0
ARC
  5
470
100
AcDbEntity
  8
0
100
AcDbCircle
 62
7
  6
CONTINUOUS
 10
92.9555337014
 20
153.3540732942
 40
121.2369474746
100
AcDbArc
 50
347.5048840994
 51
347.8675594548
  0
ARC
  5
471
100
AcDbEntity
  8
0
100
AcDbCircle
 62
7
  6
CONTINUOUS
 10
104.2238122873
 20
165.8709210574
 40
112.6879969227
100
AcDbArc
 50
340.315520796
 51
340.6025004596
  0
ARC
  5
472
100
AcDbEntity
  8
0
100
AcDbCircle
 62
7
  6
CONTINUOUS
 10
109.8391467769
 20
164.2317069542
 40
106.3253935186
100
AcDbArc
 50
340.026830652
 51
340.3315152635
  0
ARC
  5
473
100
AcDbEntity
  8
0
100
AcDbCircle
 62
7
  6
CONTINUOUS
 10
119.0512094088
 20
155.1915750178
 40
96.4184947062
100
AcDbArc
 50
342.4417871726
 51
342.6405970825
  0
ARC
  5
474
100
AcDbEntity
  8
0
100
AcDbCircle
 62
7
  6
CONTINUOUS
 10
145.2968500081
 20
154.6696561623
 40
70.2935401894
100
AcDbArc
 50
338.0946961445
 51
338.3748011495
  0
ARC
  5
475
100
AcDbEntity
  8
0
100
AcDbCircle
 62
7
  6
CONTINUOUS
 10
148.0137572488
 20
153.7792810629
 40
66.9275451818
100
AcDbArc
 50
337.7571483525
 51
338.0520240713
  0
ARC
  5
476
100
AcDbEntity
  8
0
100
AcDbCircle
 62
7
  6
CONTINUOUS
 10
173.8942581244
 20
121.3360035063
 40
36.2365663255
100
AcDbArc
 50
6.3755393538
 51
6.8835632526
  0
ARC
  5
477
100
AcDbEntity
  8
0
100
AcDbCircle
 62
7
  6
CONTINUOUS
 10
174.5381833022
 20
121.1426976644
 40
35.0668073142
100
AcDbArc
 50
6.9071886657
 51
7.4327588887
  0
ARC
  5
478
100
AcDbEntity
  8
0
100
AcDbCircle
 62
7
  6
CONTINUOUS
 10
189.3541111267
 20
123.9489717314
 40
10.3048079937
100
AcDbArc
 50
172.1304826239
 51
173.9182885353
  0
ARC
  5
479
100
AcDbEntity
  8
0
100
AcDbCircle
 62
7
  6
CONTINUOUS
 10
189.6214635088
 20
123.8914710347
 40
10.0560109256
100
AcDbArc
 50
171.6034713976
 51
173.4375579063
  0
ARC
  5
47A
100
AcDbEntity
  8
0
100
AcDbCircle
 62
7
  6
CONTINUOUS
 10
181.0091334126
 20
127.2723742525
 40
2.8497985113
100
AcDbArc
 50
216.6151950064
 51
219.3286512691
  0
ARC
  5
47B
100
AcDbEntity
  8
0
100
AcDbCircle
 62
7
  6
CONTINUOUS
 10
180.8933608246
 20
124.5178423911
 40
2.1998247446
100
AcDbArc
 50
151.3475916107
 51
154.4603882199
  0
ARC
  5
47C
100
AcDbEntity
  8
0
100
AcDbCircle
 62
7
  6
CONTINUOUS
 10
180.4893856598
 20
126.4791051842
 40
2.1993661538
100
AcDbArc
 50
220.8434484107
 51
224.6170006642
  0
ARC
  5
47D
100
AcDbEntity
  8
0
100
AcDbCircle
 62
7
  6
CONTINUOUS
 10
180.1767390224
 20
126.9978931832
 40
1.941119439
100
AcDbArc
 50
162.1181667734
 51
165.3893088671
  0
ARC
  5
47E
100
AcDbEntity
  8
0
100
AcDbCircle
 62
7
  6
CONTINUOUS
 10
181.0249198611
 20
123.9067679947
 40
1.796646107
100
AcDbArc
 50
140.8645406978
 51
145.1141026158
  0
ARC
  5
47F
100
AcDbEntity
  8
0
100
AcDbCircle
 62
7
  6
CONTINUOUS
 10
180.5101217126
 20
123.9378069192
 40
1.7844749402
100
AcDbArc
 50
141.8248899225
 51
146.0512507485
  0
ARC
  5
480
100
AcDbEntity
  8
0
100
AcDbCircle
 62
7
  6
CONTINUOUS
 10
179.4796729049
 20
127.5619155532
 40
1.3885524198
100
AcDbArc
 50
156.0384995761
 51
160.7610596828
  0
ARC
  5
481
100
AcDbEntity
  8
0
100
AcDbCircle
 62
7
  6
CONTINUOUS
 10
170.4953006055
 20
130.1712685016
 40
41.1823291652
100
AcDbArc
 50
358.6341985956
 51
359.0783107912
  0
ARC
  5
482
100
AcDbEntity
  8
0
100
AcDbCircle
 62
7
  6
CONTINUOUS
 10
189.8620319752
 20
133.8004979465
 40
12.8479013564
100
AcDbArc
 50
219.2070097792
 51
220.4424899955
  0
ARC
  5
483
100
AcDbEntity
  8
0
100
AcDbCircle
 62
7
  6
CONTINUOUS
 10
190.142816971
 20
133.7758423463
 40
12.6235498515
100
AcDbArc
 50
219.8966938993
 51
221.1673086561
  0
ARC
  5
484
100
AcDbEntity
  8
0
100
AcDbCircle
 62
7
  6
CONTINUOUS
 10
189.7606473113
 20
133.1247069011
 40
12.5975244621
100
AcDbArc
 50
218.0520538456
 51
219.2915428122
  0
ARC
  5
485
100
AcDbEntity
  8
0
100
AcDbCircle
 62
7
  6
CONTINUOUS
 10
189.359317771
 20
132.903549297
 40
12.1157798064
100
AcDbArc
 50
206.5527190788
 51
207.6831817121
  0
ARC
  5
486
100
AcDbEntity
  8
0
100
AcDbCircle
 62
7
  6
CONTINUOUS
 10
189.3881922368
 20
130.0170778189
 40
11.5553745553
100
AcDbArc
 50
201.481914594
 51
202.6201667657
  0
ARC
  5
487
100
AcDbEntity
  8
0
100
AcDbCircle
 62
7
  6
CONTINUOUS
 10
189.2537904423
 20
128.3603856955
 40
11.0903645075
100
AcDbArc
 50
181.7616151292
 51
183.4121624622
  0
ARC
  5
488
100
AcDbEntity
  8
0
100
AcDbCircle
 62
7
  6
CONTINUOUS
 10
187.7474741527
 20
132.9732067083
 40
10.5629389333
100
AcDbArc
 50
207.9677647852
 51
209.9463431283
  0
ARC
  5
489
100
AcDbEntity
  8
0
100
AcDbCircle
 62
7
  6
CONTINUOUS
 10
188.0623060183
 20
132.9406636776
 40
10.365334431
100
AcDbArc
 50
209.8652127461
 51
210.3689105437
  0
ARC
  5
48A
100
AcDbEntity
  8
0
100
AcDbCircle
 62
7
  6
CONTINUOUS
 10
188.0480457261
 20
132.9324729166
 40
10.3488892342
100
AcDbArc
 50
209.3591574458
 51
209.8652019612
  0
ARC
  5
48B
100
AcDbEntity
  8
0
100
AcDbCircle
 62
7
  6
CONTINUOUS
 10
188.037724737
 20
132.9266586102
 40
10.3370431833
100
AcDbArc
 50
209.0133279778
 51
209.3591167836
  0
ARC
  5
48C
100
AcDbEntity
  8
0
100
AcDbCircle
 62
7
  6
CONTINUOUS
 10
183.8581213546
 20
134.616993247
 40
10.2655833976
100
AcDbArc
 50
248.8837117746
 51
250.5985458783
  0
ARC
  5
48D
100
AcDbEntity
  8
0
100
AcDbCircle
 62
7
  6
CONTINUOUS
 10
184.6810671121
 20
134.6355442743
 40
10.0203052013
100
AcDbArc
 50
246.2156664986
 51
247.7721351375
  0
ARC
  5
48E
100
AcDbEntity
  8
0
100
AcDbCircle
 62
7
  6
CONTINUOUS
 10
184.1107122061
 20
134.3360050446
 40
9.7409646118
100
AcDbArc
 50
245.5829749861
 51
247.1437209191
  0
ARC
  5
48F
100
AcDbEntity
  8
0
100
AcDbCircle
 62
7
  6
CONTINUOUS
 10
187.5861375385
 20
128.8531834741
 40
9.5541817938
100
AcDbArc
 50
201.4464052007
 51
203.5178565958
  0
ARC
  5
490
100
AcDbEntity
  8
0
100
AcDbCircle
 62
7
  6
CONTINUOUS
 10
185.0127728574
 20
131.9869843236
 40
8.4735800436
100
AcDbArc
 50
233.8232089733
 51
235.060190923
  0
ARC
  5
491
100
AcDbEntity
  8
0
100
AcDbCircle
 62
7
  6
CONTINUOUS
 10
181.0404046213
 20
129.8808851517
 40
3.4746418791
100
AcDbArc
 50
221.1616979286
 51
223.5354529361
  0
ARC
  5
492
100
AcDbEntity
  8
0
100
AcDbCircle
 62
7
  6
CONTINUOUS
 10
180.3967214846
 20
130.2604279051
 40
2.9894226262
100
AcDbArc
 50
225.5651910336
 51
228.5586785621
  0
ARC
  5
493
100
AcDbEntity
  8
BEZUGSACHSEN
100
AcDbCircle
 62
7
  6
CONTINUOUS
 10
179.7826537209
 20
131.6233879533
 40
2.0
100
AcDbArc
 50
105.0
 51
192.0
  0
ARC
  5
494
100
AcDbEntity
  8
0
100
AcDbCircle
 62
7
  6
CONTINUOUS
 10
196.5262841582
 20
127.3043050912
 40
15.0737894106
100
AcDbArc
 50
6.7777357459
 51
7.5928716042
  0
ARC
  5
495
100
AcDbEntity
  8
0
100
AcDbCircle
 62
7
  6
CONTINUOUS
 10
196.9230493761
 20
122.1531634882
 40
13.7089312002
100
AcDbArc
 50
14.44406392
 51
15.3642762198
  0
ARC
  5
496
100
AcDbEntity
  8
0
100
AcDbCircle
 62
7
  6
CONTINUOUS
 10
192.0960974608
 20
124.7805440713
 40
13.1570466873
100
AcDbArc
 50
175.6197727616
 51
176.5484956479
  0
ARC
  5
497
100
AcDbEntity
  8
0
100
AcDbCircle
 62
7
  6
CONTINUOUS
 10
199.5222139269
 20
121.5218856781
 40
11.0710477467
100
AcDbArc
 50
18.5324806762
 51
20.2837447444
  0
ARC
  5
498
100
AcDbEntity
  8
0
100
AcDbCircle
 62
7
  6
CONTINUOUS
 10
199.2589445853
 20
121.4500211508
 40
10.822485311
100
AcDbArc
 50
19.376999067
 51
21.1783274699
  0
ARC
  5
499
100
AcDbEntity
  8
0
100
AcDbCircle
 62
7
  6
CONTINUOUS
 10
207.095369852
 20
120.3627272181
 40
5.2454743392
100
AcDbArc
 50
60.6376704857
 51
63.1025020199
  0
ARC
  5
49A
100
AcDbEntity
  8
0
100
AcDbCircle
 62
7
  6
CONTINUOUS
 10
207.6734902015
 20
120.5734501733
 40
5.0456674538
100
AcDbArc
 50
59.8012533283
 51
62.2970670487
  0
ARC
  5
49B
100
AcDbEntity
  8
0
100
AcDbCircle
 62
7
  6
CONTINUOUS
 10
207.7672665099
 20
121.9748269344
 40
4.3423494544
100
AcDbArc
 50
53.5179605597
 51
55.9492789295
  0
ARC
  5
49C
100
AcDbEntity
  8
0
100
AcDbCircle
 62
7
  6
CONTINUOUS
 10
209.2125785306
 20
126.9903783976
 40
3.2253109185
100
AcDbArc
 50
45.6324120926
 51
48.4046654237
  0
ARC
  5
49D
100
AcDbEntity
  8
0
100
AcDbCircle
 62
7
  6
CONTINUOUS
 10
209.7031848751
 20
127.4863431706
 40
3.029479189
100
AcDbArc
 50
50.6191485949
 51
53.9069732531
  0
ARC
  5
49E
100
AcDbEntity
  8
0
100
AcDbCircle
 62
7
  6
CONTINUOUS
 10
192.5856748071
 20
134.5758142248
 40
20.2930687293
100
AcDbArc
 50
332.9902619419
 51
333.9972084286
  0
ARC
  5
49F
100
AcDbEntity
  8
0
100
AcDbCircle
 62
7
  6
CONTINUOUS
 10
196.0684217158
 20
128.5602839661
 40
17.8023807579
100
AcDbArc
 50
183.454646676
 51
184.4842900508
  0
ARC
  5
4A0
100
AcDbEntity
  8
0
100
AcDbCircle
 62
7
  6
CONTINUOUS
 10
200.5716275944
 20
132.47354696
 40
12.123914159
100
AcDbArc
 50
325.3057245289
 51
326.5198467679
  0
ARC
  5
4A1
100
AcDbEntity
  8
0
100
AcDbCircle
 62
7
  6
CONTINUOUS
 10
199.6706223409
 20
127.9045504745
 40
12.108425632
100
AcDbArc
 50
7.6136052785
 51
9.1401144574
  0
ARC
  5
4A2
100
AcDbEntity
  8
0
100
AcDbCircle
 62
7
  6
CONTINUOUS
 10
201.9048268393
 20
131.3740835912
 40
10.6262726219
100
AcDbArc
 50
323.4154214552
 51
325.5299878776
  0
ARC
  5
4A3
100
AcDbEntity
  8
0
100
AcDbCircle
 62
7
  6
CONTINUOUS
 10
207.5306973964
 20
130.9232508515
 40
6.5615141159
100
AcDbArc
 50
294.1143755685
 51
296.2958496146
  0
ARC
  5
4A4
100
AcDbEntity
  8
0
100
AcDbCircle
 62
7
  6
CONTINUOUS
 10
208.1162518971
 20
134.6887513838
 40
6.1989150847
100
AcDbArc
 50
299.5480311338
 51
301.4845480257
  0
ARC
  5
4A5
100
AcDbEntity
  8
0
100
AcDbCircle
 62
7
  6
CONTINUOUS
 10
208.0876541634
 20
135.4298418854
 40
6.1978946615
100
AcDbArc
 50
295.3331297572
 51
297.5421482781
  0
ARC
  5
4A6
100
AcDbEntity
  8
0
100
AcDbCircle
 62
7
  6
CONTINUOUS
 10
207.4450005743
 20
130.8997106319
 40
6.1608555338
100
AcDbArc
 50
298.1238696469
 51
300.1557534587
  0
ARC
  5
4A7
100
AcDbEntity
  8
0
100
AcDbCircle
 62
7
  6
CONTINUOUS
 10
208.6317536061
 20
135.2829471918
 40
6.0633952296
100
AcDbArc
 50
295.8868680745
 51
298.1017166733
  0
ARC
  5
4A8
100
AcDbEntity
  8
BEZUGSACHSEN
100
AcDbCircle
 62
7
  6
CONTINUOUS
 10
195.0099979132
 20
133.9343489312
 40
4.5
100
AcDbArc
 50
197.8104167004
 51
342.1895832996
  0
ARC
  5
4A9
100
AcDbEntity
  8
RUNDUNGEN
100
AcDbCircle
 62
7
  6
CONTINUOUS
 10
210.2373421056
 20
131.6233879533
 40
2.0
100
AcDbArc
 50
348.0
 51
75.0
  0
ARC
  5
4AA
100
AcDbEntity
  8
0
100
AcDbCircle
 62
7
  6
CONTINUOUS
 10
157.2494016441
 20
141.5853372189
 40
56.3511129653
100
AcDbArc
 50
342.3379668313
 51
343.1685450365
  0
ARC
  5
4AB
100
AcDbEntity
  8
0
100
AcDbCircle
 62
7
  6
CONTINUOUS
 10
157.8880949917
 20
142.2186843109
 40
55.8492034776
100
AcDbArc
 50
342.3319000769
 51
342.5449139925
  0
ARC
  5
4AC
100
AcDbEntity
  8
0
100
AcDbCircle
 62
7
  6
CONTINUOUS
 10
159.5237686819
 20
144.3797668136
 40
54.6029829871
100
AcDbArc
 50
339.9716153502
 51
340.4461640866
  0
ARC
  5
4AD
100
AcDbEntity
  8
0
100
AcDbCircle
 62
7
  6
CONTINUOUS
 10
159.4658625395
 20
140.883992905
 40
54.0263410608
100
AcDbArc
 50
342.1194035205
 51
342.3335199014
  0
ARC
  5
4AE
100
AcDbEntity
  8
0
100
AcDbCircle
 62
7
  6
CONTINUOUS
 10
160.0783948721
 20
141.5165505115
 40
53.5491194411
100
AcDbArc
 50
341.4582414205
 51
342.3364504819
  0
ARC
  5
4AF
100
AcDbEntity
  8
0
100
AcDbCircle
 62
7
  6
CONTINUOUS
 10
160.9510068649
 20
141.2291670218
 40
52.1350943389
100
AcDbArc
 50
341.7192179948
 51
341.9455069657
  0
ARC
  5
4B0
100
AcDbEntity
  8
0
100
AcDbCircle
 62
7
  6
CONTINUOUS
 10
162.1209413051
 20
140.8357880263
 40
51.3961178116
100
AcDbArc
 50
341.2276347864
 51
341.4536758198
  0
ARC
  5
4B1
100
AcDbEntity
  8
0
100
AcDbCircle
 62
7
  6
CONTINUOUS
 10
162.6421026688
 20
140.6677446295
 40
50.3532422371
100
AcDbArc
 50
341.026134994
 51
341.6980908654
  0
ARC
  5
4B2
100
AcDbEntity
  8
0
100
AcDbCircle
 62
7
  6
CONTINUOUS
 10
168.8588845557
 20
147.8682197122
 40
45.9440626717
100
AcDbArc
 50
335.4295501853
 51
336.0117150957
  0
ARC
  5
4B3
100
AcDbEntity
  8
0
100
AcDbCircle
 62
7
  6
CONTINUOUS
 10
221.5243907182
 20
143.5736805012
 40
45.4892459238
100
AcDbArc
 50
203.0194361655
 51
203.6030570338
  0
ARC
  5
4B4
100
AcDbEntity
  8
0
100
AcDbCircle
 62
7
  6
CONTINUOUS
 10
170.1415826531
 20
147.3635720845
 40
44.0666069686
100
AcDbArc
 50
335.0343071363
 51
335.6431194959
  0
ARC
  5
4B5
100
AcDbEntity
  8
0
100
AcDbCircle
 62
7
  6
CONTINUOUS
 10
215.9843057753
 20
140.8088973242
 40
39.7301441726
100
AcDbArc
 50
199.9985884325
 51
200.4068532494
  0
ARC
  5
4B6
100
AcDbEntity
  8
0
100
AcDbCircle
 62
7
  6
CONTINUOUS
 10
215.6248546957
 20
136.321300719
 40
38.5237409387
100
AcDbArc
 50
195.9824923363
 51
196.5311596586
  0
ARC
  5
4B7
100
AcDbEntity
  8
0
100
AcDbCircle
 62
7
  6
CONTINUOUS
 10
178.0533126042
 20
139.8656043223
 40
35.5388148056
100
AcDbArc
 50
336.6596676309
 51
337.7758289624
  0
ARC
  5
4B8
100
AcDbEntity
  8
0
100
AcDbCircle
 62
7
  6
CONTINUOUS
 10
178.7351964257
 20
139.5607872139
 40
34.3016621925
100
AcDbArc
 50
336.3220752612
 51
337.4811979907
  0
ARC
  5
4B9
100
AcDbEntity
  8
0
100
AcDbCircle
 62
7
  6
CONTINUOUS
 10
180.6666253627
 20
143.5024136918
 40
33.6032160663
100
AcDbArc
 50
333.3784857686
 51
334.5895643214
  0
ARC
  5
4BA
100
AcDbEntity
  8
0
100
AcDbCircle
 62
7
  6
CONTINUOUS
 10
209.4809230769
 20
139.6950752321
 40
33.1335122241
100
AcDbArc
 50
201.2238852907
 51
201.8842580226
  0
ARC
  5
4BB
100
AcDbEntity
  8
0
100
AcDbCircle
 62
7
  6
CONTINUOUS
 10
209.0615172748
 20
139.4774501837
 40
32.1751824861
100
AcDbArc
 50
201.4711026554
 51
202.0459185912
  0
ARC
  5
4BC
100
AcDbEntity
  8
0
100
AcDbCircle
 62
7
  6
CONTINUOUS
 10
193.2010344675
 20
140.1054730055
 40
20.7388706473
100
AcDbArc
 50
328.2411549155
 51
329.2724527449
  0
ARC
  5
4BD
100
AcDbEntity
  8
0
100
AcDbCircle
 62
7
  6
CONTINUOUS
 10
193.2414884063
 20
139.9597974311
 40
20.1621280829
100
AcDbArc
 50
327.7119384337
 51
328.778557452
  0
ARC
  5
4BE
100
AcDbEntity
  8
0
100
AcDbCircle
 62
7
  6
CONTINUOUS
 10
200.4575170429
 20
136.9046328002
 40
13.1422136738
100
AcDbArc
 50
323.4779807347
 51
324.6238253424
  0
ARC
  5
4BF
100
AcDbEntity
  8
0
100
AcDbCircle
 62
7
  6
CONTINUOUS
 10
201.786851659
 20
137.0262231186
 40
11.9128454526
100
AcDbArc
 50
320.8735772408
 51
322.8255894112
  0
ARC
  5
4C0
100
AcDbEntity
  8
0
100
AcDbCircle
 62
7
  6
CONTINUOUS
 10
201.4677922642
 20
137.0049495728
 40
11.7250052899
100
AcDbArc
 50
320.2582187161
 51
322.2578313968
  0
ARC
  5
4C1
100
AcDbEntity
  8
RUNDUNGEN
100
AcDbCircle
 62
7
  6
CONTINUOUS
 10
207.0099979132
 20
141.805637847
 40
7.0
100
AcDbArc
 50
179.9990303867
 51
255.0003475644
  0
ARC
  5
4C2
100
AcDbEntity
  8
BEZUGSACHSEN
100
AcDbCircle
 62
7
  6
CONTINUOUS
 10
183.0099979132
 20
141.805637847
 40
7.0
100
AcDbArc
 50
284.9996524356
 51
0.0009696133
  0
ARC
  5
4C3
100
AcDbEntity
  8
RUNDUNGEN
100
AcDbCircle
 62
7
  6
CONTINUOUS
 10
209.5099979132
 20
140.6343489312
 40
0.5
100
AcDbArc
 50
270.0
 51
360.0
  0
ARC
  5
4C4
100
AcDbEntity
  8
RUNDUNGEN
100
AcDbCircle
 62
7
  6
CONTINUOUS
 10
180.5099979132
 20
140.6343489312
 40
0.5
100
AcDbArc
 50
180.0
 51
270.0
  0
ARC
  5
4C5
100
AcDbEntity
  8
RUNDUNGEN
100
AcDbCircle
 62
7
  6
CONTINUOUS
 10
180.5099979132
 20
142.7343489312
 40
0.5
100
AcDbArc
 50
90.0
 51
180.0
  0
ARC
  5
4C6
100
AcDbEntity
  8
RUNDUNGEN
100
AcDbCircle
 62
7
  6
CONTINUOUS
 10
209.5099979132
 20
142.7343489312
 40
0.5
100
AcDbArc
 50
0.0
 51
90.0
  0
ARC
  5
4C7
100
AcDbEntity
  8
0
100
AcDbCircle
 62
7
  6
CONTINUOUS
 10
256.3196442399
 20
130.602732743
 40
77.3511794449
100
AcDbArc
 50
183.5706093106
 51
183.8864794646
  0
ARC
  5
4C8
100
AcDbEntity
  8
0
100
AcDbCircle
 62
7
  6
CONTINUOUS
 10
254.8954196111
 20
130.2000034078
 40
75.3777349172
100
AcDbArc
 50
183.4387817412
 51
183.6815847616
  0
ARC
  5
4C9
100
AcDbEntity
  8
0
100
AcDbCircle
 62
7
  6
CONTINUOUS
 10
290.2074411626
 20
150.5852893696
 40
114.4540394689
100
AcDbArc
 50
192.3110093855
 51
192.5245539004
  0
ARC
  5
4CA
100
AcDbEntity
  8
0
100
AcDbCircle
 62
7
  6
CONTINUOUS
 10
287.1709453289
 20
136.1386023938
 40
108.6876920976
100
AcDbArc
 50
185.2970853837
 51
185.4660728139
  0
ARC
  5
4CB
100
AcDbEntity
  8
0
100
AcDbCircle
 62
7
  6
CONTINUOUS
 10
283.6918516574
 20
149.135607993
 40
107.7791229028
100
AcDbArc
 50
192.5828866823
 51
192.758835423
  0
ARC
  5
4CC
100
AcDbEntity
  8
0
100
AcDbCircle
 62
7
  6
CONTINUOUS
 10
279.2715584287
 20
148.1341242156
 40
103.2467988107
100
AcDbArc
 50
192.7585339704
 51
192.9853627752
  0
ARC
  5
4CD
100
AcDbEntity
  8
0
100
AcDbCircle
 62
7
  6
CONTINUOUS
 10
256.3030850356
 20
146.1433388782
 40
80.3548516145
100
AcDbArc
 50
194.4148376353
 51
194.6758549253
  0
ARC
  5
4CE
100
AcDbEntity
  8
0
100
AcDbCircle
 62
7
  6
CONTINUOUS
 10
251.589804385
 20
151.0642869876
 40
76.613474412
100
AcDbArc
 50
198.0901747102
 51
198.5091601657
  0
ARC
  5
4CF
100
AcDbEntity
  8
0
100
AcDbCircle
 62
7
  6
CONTINUOUS
 10
250.750504566
 20
145.8037412119
 40
74.8418527721
100
AcDbArc
 50
195.1762596321
 51
195.4579656942
  0
ARC
  5
4D0
100
AcDbEntity
  8
0
100
AcDbCircle
 62
7
  6
CONTINUOUS
 10
245.1431346693
 20
151.176291545
 40
70.0422289431
100
AcDbArc
 50
201.0676792067
 51
201.3477142739
  0
ARC
  5
4D1
100
AcDbEntity
  8
0
100
AcDbCircle
 62
7
  6
CONTINUOUS
 10
242.3132935657
 20
150.2719952619
 40
66.5649383707
100
AcDbArc
 50
201.3868875167
 51
201.6822099064
  0
ARC
  5
4D2
100
AcDbEntity
  8
0
100
AcDbCircle
 62
7
  6
CONTINUOUS
 10
231.39721087
 20
141.1536943164
 40
54.9115043165
100
AcDbArc
 50
197.254828921
 51
197.8783224956
  0
ARC
  5
4D3
100
AcDbEntity
  8
0
100
AcDbCircle
 62
7
  6
CONTINUOUS
 10
298.234373285
 20
152.3342261452
 40
122.6692947745
100
AcDbArc
 50
191.9983583975
 51
192.303784958
  0
ARC
  5
4D4
100
AcDbEntity
  8
0
100
AcDbCircle
 62
7
  6
CONTINUOUS
 10
276.631259366
 20
156.6383188325
 40
102.2852399828
100
AcDbArc
 50
196.8696471548
 51
197.0565524816
  0
ARC
  5
4D5
100
AcDbEntity
  8
BEZUGSACHSEN
100
AcDbCircle
 62
7
  6
CONTINUOUS
 10
192.0099979132
 20
174.0195645306
 40
2.0
100
AcDbArc
 50
90.0
 51
180.0
  0
ARC
  5
4D6
100
AcDbEntity
  8
RUNDUNGEN
100
AcDbCircle
 62
7
  6
CONTINUOUS
 10
198.0099979132
 20
174.0195645306
 40
2.0
100
AcDbArc
 50
0.0
 51
90.0
  0
ARC
  5
4D7
100
AcDbEntity
  8
0
100
AcDbCircle
 62
7
  6
CONTINUOUS
 10
-199.4815121381
 20
242.6711927405
 40
425.5726216544
100
AcDbArc
 50
344.2223089898
 51
344.3562147604
  0
ARC
  5
4D8
100
AcDbEntity
  8
0
100
AcDbCircle
 62
7
  6
CONTINUOUS
 10
-161.1272718792
 20
232.9803305498
 40
385.4911607064
100
AcDbArc
 50
344.0357232663
 51
344.1836830604
  0
ARC
  5
4D9
100
AcDbEntity
  8
0
100
AcDbCircle
 62
7
  6
CONTINUOUS
 10
338.6086136978
 20
160.6531282901
 40
163.8920290849
100
AcDbArc
 50
190.9983765288
 51
191.4298037443
  0
ARC
  5
4DA
100
AcDbEntity
  8
0
100
AcDbCircle
 62
7
  6
CONTINUOUS
 10
321.4092645005
 20
158.6489946356
 40
146.650672644
100
AcDbArc
 50
191.5121483164
 51
191.9939671379
  0
ARC
  5
4DB
100
AcDbEntity
  8
0
100
AcDbCircle
 62
7
  6
CONTINUOUS
 10
312.7042607028
 20
155.3924516654
 40
137.4588491768
100
AcDbArc
 50
191.6323065582
 51
191.855307297
  0
ARC
  5
4DC
100
AcDbEntity
  8
0
100
AcDbCircle
 62
7
  6
CONTINUOUS
 10
824.7226155204
 20
293.7847068701
 40
666.5830469431
100
AcDbArc
 50
194.4088009283
 51
194.5977024623
  0
ARC
  5
4DD
100
AcDbEntity
  8
0
100
AcDbCircle
 62
7
  6
CONTINUOUS
 10
732.7313662758
 20
273.7571083538
 40
572.350281424
100
AcDbArc
 50
194.7626853346
 51
194.9610126664
  0
ARC
  5
4DE
100
AcDbEntity
  8
0
100
AcDbCircle
 62
7
  6
CONTINUOUS
 10
681.5284897181
 20
261.2922663812
 40
519.1361551389
100
AcDbArc
 50
194.8876961339
 51
195.1064907206
  0
ARC
  5
4DF
100
AcDbEntity
  8
0
100
AcDbCircle
 62
7
  6
CONTINUOUS
 10
94.2082409678
 20
44.2266432591
 40
29.5483389494
100
AcDbArc
 50
85.0351669754
 51
92.3134531866
  0
ARC
  5
4E0
100
AcDbEntity
  8
0
100
AcDbCircle
 62
7
  6
CONTINUOUS
 10
94.0398657148
 20
46.5740013032
 40
27.1946522598
100
AcDbArc
 50
93.917034756
 51
101.4519363234
  0
ARC
  5
4E1
100
AcDbEntity
  8
0
100
AcDbCircle
 62
7
  6
CONTINUOUS
 10
95.5250510752
 20
47.3653371857
 40
26.144250479
100
AcDbArc
 50
76.894822211
 51
78.2972968074
  0
ARC
  5
4E2
100
AcDbEntity
  8
0
100
AcDbCircle
 62
7
  6
CONTINUOUS
 10
94.3879292432
 20
50.645268865
 40
23.2812882458
100
AcDbArc
 50
70.7123837172
 51
72.3341734899
  0
ARC
  5
4E3
100
AcDbEntity
  8
0
100
AcDbCircle
 62
7
  6
CONTINUOUS
 10
93.1531034586
 20
53.4110421529
 40
21.1809135574
100
AcDbArc
 50
63.9048384271
 51
65.0792590253
  0
ARC
  5
4E4
100
AcDbEntity
  8
RUNDUNGEN
100
AcDbCircle
 62
7
  6
CONTINUOUS
 10
83.7534013526
 20
39.3041702504
 40
12.0
100
AcDbArc
 50
35.822584297
 51
58.4663105625
  0
ARC
  5
4E5
100
AcDbEntity
  8
RUNDUNGEN
100
AcDbCircle
 62
7
  6
CONTINUOUS
 10
68.1764865755
 20
53.3508260953
 40
2.0000000008
100
AcDbArc
 50
185.3326045673
 51
269.9998783495
  0
ARC
  5
4E6
100
AcDbEntity
  8
BEZUGSACHSEN
100
AcDbCircle
 62
7
  6
CONTINUOUS
 10
68.1764865755
 20
59.3508260938
 40
2.0000000008
100
AcDbArc
 50
90.0001216505
 51
174.6673954327
  0
ARC
  5
4E7
100
AcDbEntity
  8
0
100
AcDbCircle
 62
7
  6
CONTINUOUS
 10
94.3869297753
 20
66.1276508858
 40
27.1946522598
100
AcDbArc
 50
273.917034756
 51
281.4519363234
  0
ARC
  5
4E8
100
AcDbEntity
  8
0
100
AcDbCircle
 62
7
  6
CONTINUOUS
 10
92.9017444149
 20
65.3363150035
 40
26.1442504792
100
AcDbArc
 50
256.894822211
 51
258.2972968074
  0
ARC
  5
4E9
100
AcDbEntity
  8
0
100
AcDbCircle
 62
7
  6
CONTINUOUS
 10
94.0388662469
 20
62.0563833241
 40
23.2812882458
100
AcDbArc
 50
250.7123837172
 51
252.3341734899
  0
ARC
  5
4EA
100
AcDbEntity
  8
0
100
AcDbCircle
 62
7
  6
CONTINUOUS
 10
95.2740540343
 20
59.291375643
 40
21.1817604147
100
AcDbArc
 50
243.9108756604
 51
245.0792436125
  0
ARC
  5
4EB
100
AcDbEntity
  8
0
100
AcDbCircle
 62
7
  6
CONTINUOUS
 10
94.213397745
 20
56.3508260945
 40
12.25
100
AcDbArc
 50
318.9411952004
 51
335.9159202613
  0
ARC
  5
4EC
100
AcDbEntity
  8
0
100
AcDbCircle
 62
7
  6
CONTINUOUS
 10
94.213397745
 20
56.3508260945
 40
12.25
100
AcDbArc
 50
204.8235607709
 51
276.0332317197
  0
ARC
  5
4ED
100
AcDbEntity
  8
0
100
AcDbCircle
 62
7
  6
CONTINUOUS
 10
94.213397745
 20
56.3508260945
 40
12.25
100
AcDbArc
 50
24.0840797387
 51
41.0588070774
  0
ARC
  5
4EE
100
AcDbEntity
  8
0
100
AcDbCircle
 62
7
  6
CONTINUOUS
 10
94.213397745
 20
56.3508260945
 40
12.25
100
AcDbArc
 50
83.9667259116
 51
155.9159273512
  0
ARC
  5
4EF
100
AcDbEntity
  8
RUNDUNGEN
100
AcDbCircle
 62
7
  6
CONTINUOUS
 10
94.213397745
 20
56.3508260945
 40
12.0
100
AcDbArc
 50
318.6193598918
 51
335.3626502732
  0
ARC
  5
4F0
100
AcDbEntity
  8
RUNDUNGEN
100
AcDbCircle
 62
7
  6
CONTINUOUS
 10
94.213397745
 20
56.3508260945
 40
12.0
100
AcDbArc
 50
24.6373497275
 51
41.3806401091
  0
ARC
  5
4F1
100
AcDbEntity
  8
RUNDUNGEN
100
AcDbCircle
 62
7
  6
CONTINUOUS
 10
94.213397745
 20
56.3508260945
 40
12.0
100
AcDbArc
 50
85.0969116331
 51
155.3626502732
  0
ARC
  5
4F2
100
AcDbEntity
  8
RUNDUNGEN
100
AcDbCircle
 62
7
  6
CONTINUOUS
 10
94.213397745
 20
56.3508260945
 40
12.0
100
AcDbArc
 50
204.6373497275
 51
274.9030883649
  0
ARC
  5
4F3
100
AcDbEntity
  8
RUNDUNGEN
100
AcDbCircle
 62
7
  6
CONTINUOUS
 10
94.213397745
 20
56.3508260945
 40
8.0
100
AcDbArc
 50
218.6939598145
 51
238.4663105625
  0
ARC
  5
4F4
100
AcDbEntity
  8
RUNDUNGEN
100
AcDbCircle
 62
7
  6
CONTINUOUS
 10
94.213397745
 20
56.3508260945
 40
8.0
100
AcDbArc
 50
121.5336894375
 51
141.306040174
  0
ARC
  5
4F5
100
AcDbEntity
  8
0
100
AcDbCircle
 62
7
  6
CONTINUOUS
 10
87.4691530601
 20
79.2662557362
 40
39.5830784887
100
AcDbArc
 50
270.9416221062
 51
271.2723381351
  0
ARC
  5
4F6
100
AcDbEntity
  8
0
100
AcDbCircle
 62
7
  6
CONTINUOUS
 10
90.6995016547
 20
71.1892567148
 40
31.6062002251
100
AcDbArc
 50
264.3700133082
 51
265.3180278248
  0
ARC
  5
4F7
100
AcDbEntity
  8
0
100
AcDbCircle
 62
7
  6
CONTINUOUS
 10
94.2185545223
 20
68.47500893
 40
29.5483389494
100
AcDbArc
 50
265.0351669754
 51
272.3134531866
  0
ARC
  5
4F8
100
AcDbEntity
  8
RUNDUNGEN
100
AcDbCircle
 62
7
  6
CONTINUOUS
 10
83.7534013526
 20
73.3974819387
 40
12.0
100
AcDbArc
 50
301.5336894375
 51
324.177415703
  0
ARC
  5
4F9
100
AcDbEntity
  8
0
100
AcDbCircle
 62
7
  6
CONTINUOUS
 10
100.9576494196
 20
33.4350159444
 40
39.5834590606
100
AcDbArc
 50
90.9416231709
 51
91.2718590421
  0
ARC
  5
4FA
100
AcDbEntity
  8
0
100
AcDbCircle
 62
7
  6
CONTINUOUS
 10
97.7272938354
 20
41.5123954745
 40
31.6062002248
100
AcDbArc
 50
84.3700133082
 51
85.3180278248
  0
ARC
  5
4FB
100
AcDbEntity
  8
RUNDUNGEN
100
AcDbCircle
 62
7
  6
CONTINUOUS
 10
103.213397745
 20
53.3508260945
 40
12.0
100
AcDbArc
 50
215.822584297
 51
278.0
  0
ARC
  5
4FC
100
AcDbEntity
  8
RUNDUNGEN
100
AcDbCircle
 62
7
  6
CONTINUOUS
 10
105.513397745
 20
52.8508260945
 40
5.0
100
AcDbArc
 50
197.493510728
 51
270.0
  0
ARC
  5
4FD
100
AcDbEntity
  8
RUNDUNGEN
100
AcDbCircle
 62
7
  6
CONTINUOUS
 10
120.2503096317
 20
53.3508260953
 40
2.0000000008
100
AcDbArc
 50
270.0000259096
 51
354.6674009968
  0
ARC
  5
4FE
100
AcDbEntity
  8
RUNDUNGEN
100
AcDbCircle
 62
7
  6
CONTINUOUS
 10
125.213397745
 20
45.3346211603
 40
1.0
100
AcDbArc
 50
278.0
 51
360.0
  0
ARC
  5
4FF
100
AcDbEntity
  8
RUNDUNGEN
100
AcDbCircle
 62
7
  6
CONTINUOUS
 10
123.013397745
 20
50.1008260945
 40
1.0
100
AcDbArc
 50
90.0
 51
180.0
  0
ARC
  5
500
100
AcDbEntity
  8
RUNDUNGEN
100
AcDbCircle
 62
7
  6
CONTINUOUS
 10
125.213397745
 20
50.1008260945
 40
1.0
100
AcDbArc
 50
0.0
 51
90.0
  0
ARC
  5
501
100
AcDbEntity
  8
RUNDUNGEN
100
AcDbCircle
 62
7
  6
CONTINUOUS
 10
121.013397745
 20
48.8508260945
 40
1.0
100
AcDbArc
 50
270.0
 51
360.0
  0
ARC
  5
502
100
AcDbEntity
  8
RUNDUNGEN
100
AcDbCircle
 62
7
  6
CONTINUOUS
 10
103.213397745
 20
59.3508260945
 40
12.0
100
AcDbArc
 50
82.0
 51
144.177415703
  0
ARC
  5
503
100
AcDbEntity
  8
RUNDUNGEN
100
AcDbCircle
 62
7
  6
CONTINUOUS
 10
105.513397745
 20
59.8508260945
 40
5.0
100
AcDbArc
 50
90.0
 51
162.5064892723
  0
ARC
  5
504
100
AcDbEntity
  8
BEZUGSACHSEN
100
AcDbCircle
 62
7
  6
CONTINUOUS
 10
120.2503096317
 20
59.3508260938
 40
2.0000000008
100
AcDbArc
 50
5.3325990032
 51
89.9999740904
  0
ARC
  5
505
100
AcDbEntity
  8
RUNDUNGEN
100
AcDbCircle
 62
7
  6
CONTINUOUS
 10
125.213397745
 20
67.3670310288
 40
1.0
100
AcDbArc
 50
0.0
 51
82.0
  0
ARC
  5
506
100
AcDbEntity
  8
RUNDUNGEN
100
AcDbCircle
 62
7
  6
CONTINUOUS
 10
123.013397745
 20
62.6008260945
 40
1.0
100
AcDbArc
 50
180.0
 51
270.0
  0
ARC
  5
507
100
AcDbEntity
  8
RUNDUNGEN
100
AcDbCircle
 62
7
  6
CONTINUOUS
 10
125.213397745
 20
62.6008260945
 40
1.0
100
AcDbArc
 50
270.0
 51
360.0
  0
ARC
  5
508
100
AcDbEntity
  8
RUNDUNGEN
100
AcDbCircle
 62
7
  6
CONTINUOUS
 10
121.013397745
 20
63.8508260945
 40
1.0
100
AcDbArc
 50
0.0
 51
90.0
  0
SPLINE
  5
509
100
AcDbEntity
  8
0
100
AcDbSpline
 62
7
  6
CONTINUOUS
 70
0
 71
3
 72
9
 73
5
 74
0
 42
0.0000001
 43
0.0000001
 44
0.0000000001
 40
0.0
 40
0.0
 40
0.0
 40
0.0
 40
0.2613413634
 40
1.0
 40
1.0
 40
1.0
 40
1.0
 10
90.3453352915
 20
134.6596478887
 30
0.0
 10
90.0885723238
 20
134.6825474494
 30
0.0
 10
89.1070129426
 20
134.7798287757
 30
0.0
 10
88.1290149758
 20
134.9158614066
 30
0.0
 10
87.4118007289
 20
135.044157063
 30
0.0
  0
SPLINE
  5
50A
100
AcDbEntity
  8
0
100
AcDbSpline
 62
7
  6
CONTINUOUS
 70
0
 71
3
 72
9
 73
5
 74
0
 42
0.0000001
 43
0.0000001
 44
0.0000000001
 40
0.0
 40
0.0
 40
0.0
 40
0.0
 40
0.2375710288
 40
1.0
 40
1.0
 40
1.0
 40
1.0
 10
101.0149947612
 20
135.044157063
 30
0.0
 10
100.7843245051
 20
135.002894648
 30
0.0
 10
99.8111645182
 20
134.8416227968
 30
0.0
 10
98.8305977293
 20
134.7264608731
 30
0.0
 10
98.0815377791
 20
134.6596547465
 30
0.0
  0
SPLINE
  5
50B
100
AcDbEntity
  8
0
100
AcDbSpline
 62
7
  6
CONTINUOUS
 70
0
 71
3
 72
9
 73
5
 74
0
 42
0.0000001
 43
0.0000001
 44
0.0000000001
 40
0.0
 40
0.0
 40
0.0
 40
0.0
 40
0.4999998567
 40
1.0
 40
1.0
 40
1.0
 40
1.0
 10
98.0821210667
 20
134.659716903
 30
0.0
 10
96.7953677868
 20
134.5449557238
 30
0.0
 10
94.2134180801
 20
134.3128301834
 30
0.0
 10
91.6314682525
 20
134.5449541345
 30
0.0
 10
90.3447141191
 20
134.6597140812
 30
0.0
  0
SPLINE
  5
50C
100
AcDbEntity
  8
0
100
AcDbSpline
 62
7
  6
CONTINUOUS
 70
0
 71
3
 72
9
 73
5
 74
0
 42
0.0000001
 43
0.0000001
 44
0.0000000001
 40
0.0
 40
0.0
 40
0.0
 40
0.0
 40
0.4845750231
 40
1.0
 40
1.0
 40
1.0
 40
1.0
 10
103.1370340065
 20
135.8069110834
 30
0.0
 10
102.8286984096
 20
135.6097366661
 30
0.0
 10
102.1355505837
 20
135.2895935443
 30
0.0
 10
101.3982022889
 20
135.1127054243
 30
0.0
 10
101.0149947612
 20
135.044157063
 30
0.0
  0
SPLINE
  5
50D
100
AcDbEntity
  8
0
100
AcDbSpline
 62
7
  6
CONTINUOUS
 70
0
 71
3
 72
9
 73
5
 74
0
 42
0.0000001
 43
0.0000001
 44
0.0000000001
 40
0.0
 40
0.0
 40
0.0
 40
0.0
 40
0.5154250321
 40
1.0
 40
1.0
 40
1.0
 40
1.0
 10
87.4118007289
 20
135.044157063
 30
0.0
 10
87.0285912476
 20
135.1127057737
 30
0.0
 10
86.29123932
 20
135.2895950579
 30
0.0
 10
85.5980883862
 20
135.6097408765
 30
0.0
 10
85.2897518779
 20
135.8069171814
 30
0.0
  0
SPLINE
  5
50E
100
AcDbEntity
  8
0
100
AcDbSpline
 62
7
  6
CONTINUOUS
 70
0
 71
3
 72
9
 73
5
 74
0
 42
0.0000001
 43
0.0000001
 44
0.0000000001
 40
0.0
 40
0.0
 40
0.0
 40
0.0
 40
0.231891319
 40
1.0
 40
1.0
 40
1.0
 40
1.0
 10
105.9981162936
 20
138.6542487873
 30
0.0
 10
105.9872270108
 20
138.6404205162
 30
0.0
 10
105.9412860609
 20
138.5799857468
 30
0.0
 10
105.89830316
 20
138.5173721276
 30
0.0
 10
105.8658505979
 20
138.4689380877
 30
0.0
  0
SPLINE
  5
50F
100
AcDbEntity
  8
0
100
AcDbSpline
 62
7
  6
CONTINUOUS
 70
0
 71
3
 72
10
 73
6
 74
0
 42
0.0000001
 43
0.0000001
 44
0.0000000001
 40
0.0
 40
0.0
 40
0.0
 40
0.0
 40
0.2321228202
 40
0.4780625644
 40
1.0
 40
1.0
 40
1.0
 40
1.0
 10
105.8658505979
 20
138.4689380877
 30
0.0
 10
105.8049557368
 20
138.3780573354
 30
0.0
 10
105.6774985368
 20
138.1922047159
 30
0.0
 10
105.3939075808
 20
137.8156141252
 30
0.0
 10
105.1523473522
 20
137.5448901535
 30
0.0
 10
104.9794894108
 20
137.3698845154
 30
0.0
  0
SPLINE
  5
510
100
AcDbEntity
  8
0
100
AcDbSpline
 62
7
  6
CONTINUOUS
 70
0
 71
3
 72
9
 73
5
 74
0
 42
0.0000001
 43
0.0000001
 44
0.0000000001
 40
0.0
 40
0.0
 40
0.0
 40
0.0
 40
0.4769673265
 40
1.0
 40
1.0
 40
1.0
 40
1.0
 10
104.9794894108
 20
137.3698845154
 30
0.0
 10
104.7091131397
 20
137.0961591941
 30
0.0
 10
104.133065283
 20
136.5309140641
 30
0.0
 10
103.4924754262
 20
136.0342087257
 30
0.0
 10
103.1370340292
 20
135.806911096
 30
0.0
  0
SPLINE
  5
511
100
AcDbEntity
  8
0
100
AcDbSpline
 62
7
  6
CONTINUOUS
 70
0
 71
3
 72
9
 73
5
 74
0
 42
0.0000001
 43
0.0000001
 44
0.0000000001
 40
0.0
 40
0.0
 40
0.0
 40
0.0
 40
0.5230326629
 40
1.0
 40
1.0
 40
1.0
 40
1.0
 10
85.2897497743
 20
135.8069183499
 30
0.0
 10
84.9343109982
 20
136.0342158077
 30
0.0
 10
84.2937253941
 20
136.530919157
 30
0.0
 10
83.7176798447
 20
137.0961603855
 30
0.0
 10
83.4473050202
 20
137.3698842097
 30
0.0
  0
SPLINE
  5
512
100
AcDbEntity
  8
0
100
AcDbSpline
 62
7
  6
CONTINUOUS
 70
0
 71
3
 72
10
 73
6
 74
0
 42
0.0000001
 43
0.0000001
 44
0.0000000001
 40
0.0
 40
0.0
 40
0.0
 40
0.0
 40
0.5219375469
 40
0.7678751381
 40
1.0
 40
1.0
 40
1.0
 40
1.0
 10
83.4473050202
 20
137.3698842097
 30
0.0
 10
83.2744472378
 20
137.5448900154
 30
0.0
 10
83.0328919209
 20
137.8156164318
 30
0.0
 10
82.7492923742
 20
138.1922006064
 30
0.0
 10
82.6218414727
 20
138.3780574928
 30
0.0
 10
82.5609450313
 20
138.4689383204
 30
0.0
  0
SPLINE
  5
513
100
AcDbEntity
  8
0
100
AcDbSpline
 62
7
  6
CONTINUOUS
 70
0
 71
3
 72
9
 73
5
 74
0
 42
0.0000001
 43
0.0000001
 44
0.0000000001
 40
0.0
 40
0.0
 40
0.0
 40
0.0
 40
0.2668184429
 40
1.0
 40
1.0
 40
1.0
 40
1.0
 10
82.5609450313
 20
138.4689383204
 30
0.0
 10
82.5496733708
 20
138.4857607518
 30
0.0
 10
82.5071190492
 20
138.5485901287
 30
0.0
 10
82.463114368
 20
138.6105184742
 30
0.0
 10
82.4286894963
 20
138.6542343874
 30
0.0
  0
SPLINE
  5
514
100
AcDbEntity
  8
BEZUGSACHSEN
100
AcDbSpline
 62
7
  6
CONTINUOUS
 70
0
 71
3
 72
25
 73
21
 74
0
 42
0.0000001
 43
0.0000001
 44
0.0000000001
 40
0.0
 40
0.0
 40
0.0
 40
0.0
 40
0.0219652485
 40
0.0857364385
 40
0.1863705394
 40
0.3170777157
 40
0.3913352644
 40
0.4702652359
 40
0.552994455
 40
0.6387414496
 40
0.7268329739
 40
0.7715807818
 40
0.816713085
 40
0.8621765764
 40
0.9079225286
 40
0.9308912258
 40
0.9539118797
 40
0.9769638761
 40
0.9884981507
 40
1.0
 40
1.0
 40
1.0
 40
1.0
 10
74.6783306869
 20
126.7527655092
 30
0.0
 10
74.7972049028
 20
126.7339239089
 30
0.0
 10
75.2609227609
 20
126.6585839875
 30
0.0
 10
76.2664070837
 20
126.4794935019
 30
0.0
 10
77.8496306376
 20
126.1486760582
 30
0.0
 10
79.4734896522
 20
125.7369125297
 30
0.0
 10
80.9660022009
 20
125.2978097877
 30
0.0
 10
82.1955240182
 20
124.8979883934
 30
0.0
 10
83.4718168598
 20
124.4402925904
 30
0.0
 10
84.7796681842
 20
123.9239162495
 30
0.0
 10
85.8782307536
 20
123.4458912143
 30
0.0
 10
86.7600744851
 20
123.029366302
 30
0.0
 10
87.4228104687
 20
122.696313337
 30
0.0
 10
88.0796827248
 20
122.3401655629
 30
0.0
 10
88.6165023482
 20
122.0180855269
 30
0.0
 10
89.0324240118
 20
121.7354375937
 30
0.0
 10
89.3329926065
 20
121.5054467434
 30
0.0
 10
89.5666038779
 20
121.2915949217
 30
0.0
 10
89.7294692107
 20
121.0981303209
 30
0.0
 10
89.7975360355
 20
120.9908946373
 30
0.0
 10
89.8253687911
 20
120.9343489312
 30
0.0
  0
SPLINE
  5
515
100
AcDbEntity
  8
BEZUGSACHSEN
100
AcDbSpline
 62
7
  6
CONTINUOUS
 70
0
 71
3
 72
25
 73
21
 74
0
 42
0.0000001
 43
0.0000001
 44
0.0000000001
 40
0.0
 40
0.0
 40
0.0
 40
0.0
 40
0.0115010595
 40
0.0230326955
 40
0.0460835778
 40
0.0691040881
 40
0.0920727111
 40
0.1378187143
 40
0.1832824205
 40
0.2284149863
 40
0.2731630886
 40
0.3612551399
 40
0.4470026938
 40
0.5297325815
 40
0.6086633438
 40
0.6829215994
 40
0.8136301218
 40
0.9142649287
 40
0.978035579
 40
1.0
 40
1.0
 40
1.0
 40
1.0
 10
98.601426699
 20
120.9343489312
 30
0.0
 10
98.6292575402
 20
120.9908907478
 30
0.0
 10
98.6973107822
 20
121.0981135689
 30
0.0
 10
98.8601810251
 20
121.2915405871
 30
0.0
 10
99.0937374416
 20
121.5054177983
 30
0.0
 10
99.394316212
 20
121.7353867663
 30
0.0
 10
99.8102281454
 20
122.0180451043
 30
0.0
 10
100.3470472546
 20
122.3401297171
 30
0.0
 10
101.0039222338
 20
122.6962777327
 30
0.0
 10
101.6666589081
 20
123.0293386871
 30
0.0
 10
102.5485087474
 20
123.4458643608
 30
0.0
 10
103.6470765715
 20
123.9238957841
 30
0.0
 10
104.9549364171
 20
124.4402764076
 30
0.0
 10
106.2312390342
 20
124.8979771868
 30
0.0
 10
107.4607715633
 20
125.2978035892
 30
0.0
 10
108.9532989966
 20
125.7369103122
 30
0.0
 10
110.5771723093
 20
126.1486781561
 30
0.0
 10
112.16040393
 20
126.4794966952
 30
0.0
 10
113.1658847
 20
126.6585857367
 30
0.0
 10
113.6295950922
 20
126.7339245457
 30
0.0
 10
113.7484648032
 20
126.7527655092
 30
0.0
  0
SPLINE
  5
516
100
AcDbEntity
  8
0
100
AcDbSpline
 62
7
  6
CONTINUOUS
 70
0
 71
3
 72
8
 73
4
 74
0
 42
0.0000001
 43
0.0000001
 44
0.0000000001
 40
0.0
 40
0.0
 40
0.0
 40
0.0
 40
1.0
 40
1.0
 40
1.0
 40
1.0
 10
178.7801491014
 20
129.1896681689
 30
0.0
 10
178.8525246838
 20
128.9059386379
 30
0.0
 10
178.925059767
 20
128.62224974
 30
0.0
 10
178.997763596
 20
128.3386041425
 30
0.0
  0
LINE
  5
517
100
AcDbEntity
  8
0
100
AcDbLine
 62
7
  6
CONTINUOUS
 10
178.7613341894
 20
128.3386041425
 11
178.8665400675
 21
127.9130722784
  0
LINE
  5
518
100
AcDbEntity
  8
0
100
AcDbLine
 62
7
  6
CONTINUOUS
 10
178.6304308577
 20
127.2747744821
 11
178.6498477115
 21
127.2213075062
  0
LINE
  5
519
100
AcDbEntity
  8
0
100
AcDbLine
 62
7
  6
CONTINUOUS
 10
178.8449628965
 20
126.6364765369
 11
178.895105109
 21
126.4237106048
  0
LINE
  5
51A
100
AcDbEntity
  8
0
100
AcDbLine
 62
7
  6
CONTINUOUS
 10
178.895105109
 20
126.4237106048
 11
178.9474153505
 21
126.1045617066
  0
LINE
  5
51B
100
AcDbEntity
  8
0
100
AcDbLine
 62
7
  6
CONTINUOUS
 10
178.4596389017
 20
126.2109446727
 11
178.4779064796
 21
126.1397451832
  0
LINE
  5
51C
100
AcDbEntity
  8
0
100
AcDbLine
 62
7
  6
CONTINUOUS
 10
178.5698423328
 20
125.785412734
 11
178.5902151943
 21
125.7140346757
  0
LINE
  5
51D
100
AcDbEntity
  8
0
100
AcDbLine
 62
7
  6
CONTINUOUS
 10
177.6556968006
 20
129.9343489312
 11
177.7556234204
 21
129.4712076371
  0
LINE
  5
51E
100
AcDbEntity
  8
0
100
AcDbLine
 62
7
  6
CONTINUOUS
 10
177.7556234204
 20
129.4712076371
 11
177.7723314907
 21
129.3937776257
  0
LINE
  5
51F
100
AcDbEntity
  8
0
100
AcDbLine
 62
7
  6
CONTINUOUS
 10
177.7723314907
 20
129.3937776257
 11
178.0544100639
 21
128.0869382347
  0
LINE
  5
520
100
AcDbEntity
  8
0
100
AcDbLine
 62
7
  6
CONTINUOUS
 10
178.0544100639
 20
128.0869382347
 11
178.073421397
 21
127.9988883274
  0
LINE
  5
521
100
AcDbEntity
  8
0
100
AcDbLine
 62
7
  6
CONTINUOUS
 10
178.073421397
 20
127.9988883274
 11
178.1399090522
 21
127.690982789
  0
LINE
  5
522
100
AcDbEntity
  8
0
100
AcDbLine
 62
7
  6
CONTINUOUS
 10
178.1399090522
 20
127.690982789
 11
178.1536756908
 21
127.6272347769
  0
LINE
  5
523
100
AcDbEntity
  8
0
100
AcDbLine
 62
7
  6
CONTINUOUS
 10
178.1536756908
 20
127.6272347769
 11
178.2527770406
 21
127.1683915161
  0
LINE
  5
524
100
AcDbEntity
  8
0
100
AcDbLine
 62
7
  6
CONTINUOUS
 10
177.7045003375
 20
129.402434101
 11
177.7088498174
 21
129.3810837634
  0
LINE
  5
525
100
AcDbEntity
  8
0
100
AcDbLine
 62
7
  6
CONTINUOUS
 10
178.5013812822
 20
125.6557384034
 11
178.4770458086
 21
125.7650173162
  0
LINE
  5
526
100
AcDbEntity
  8
0
100
AcDbLine
 62
7
  6
CONTINUOUS
 10
178.3853155257
 20
126.181614056
 11
178.3826082663
 21
126.1940214331
  0
LINE
  5
527
100
AcDbEntity
  8
0
100
AcDbLine
 62
7
  6
CONTINUOUS
 10
178.9570016402
 20
124.8657305935
 11
178.9537598304
 21
124.8761697488
  0
LINE
  5
528
100
AcDbEntity
  8
0
100
AcDbLine
 62
7
  6
CONTINUOUS
 10
178.9537598304
 20
124.8761697488
 11
178.9357388716
 21
124.9343308393
  0
LINE
  5
529
100
AcDbEntity
  8
0
100
AcDbLine
 62
7
  6
CONTINUOUS
 10
212.315495489
 20
129.402434101
 11
212.31114601
 21
129.3810837676
  0
LINE
  5
52A
100
AcDbEntity
  8
0
100
AcDbLine
 62
7
  6
CONTINUOUS
 10
211.2393191386
 20
125.4440930174
 11
211.2459480569
 21
125.4662638359
  0
LINE
  5
52B
100
AcDbEntity
  8
0
100
AcDbLine
 62
7
  6
CONTINUOUS
 10
211.6099552045
 20
128.7641363047
 11
211.6659296541
 21
129.1896681689
  0
LINE
  5
52C
100
AcDbEntity
  8
0
100
AcDbLine
 62
7
  6
CONTINUOUS
 10
211.5566867774
 20
128.4449871086
 11
211.6099552045
 21
128.7641363047
  0
LINE
  5
52D
100
AcDbEntity
  8
0
100
AcDbLine
 62
7
  6
CONTINUOUS
 10
211.4533443695
 20
127.9130722784
 11
211.5566867774
 21
128.4449871086
  0
LINE
  5
52E
100
AcDbEntity
  8
0
100
AcDbLine
 62
7
  6
CONTINUOUS
 10
211.2274917224
 20
126.955625584
 11
211.4533443695
 21
127.9130722784
  0
SPLINE
  5
52F
100
AcDbEntity
  8
0
100
AcDbSpline
 62
7
  6
CONTINUOUS
 70
0
 71
3
 72
8
 73
4
 74
0
 42
0.0000001
 43
0.0000001
 44
0.0000000001
 40
0.0
 40
0.0
 40
0.0
 40
0.0
 40
1.0
 40
1.0
 40
1.0
 40
1.0
 10
210.2932260932
 20
127.06200855
 30
0.0
 10
210.361252714
 20
127.3101818388
 30
0.0
 10
210.4290799895
 20
127.5584098474
 30
0.0
 10
210.4967180681
 20
127.8066893123
 30
0.0
  0
LINE
  5
530
100
AcDbEntity
  8
0
100
AcDbLine
 62
7
  6
CONTINUOUS
 10
210.1581409747
 20
126.4237106048
 11
210.2932260932
 21
127.06200855
  0
LINE
  5
531
100
AcDbEntity
  8
0
100
AcDbLine
 62
7
  6
CONTINUOUS
 10
210.5669337929
 20
125.2189122482
 11
210.519083096
 21
125.0713862189
  0
LINE
  5
532
100
AcDbEntity
  8
0
100
AcDbLine
 62
7
  6
CONTINUOUS
 10
210.4548817148
 20
124.8757442433
 11
210.4482268861
 21
124.855613492
  0
LINE
  5
533
100
AcDbEntity
  8
0
100
AcDbLine
 62
7
  6
CONTINUOUS
 10
211.5487742823
 20
128.1737093946
 11
211.4913487595
 21
127.9049384999
  0
LINE
  5
534
100
AcDbEntity
  8
0
100
AcDbLine
 62
7
  6
CONTINUOUS
 10
211.4913487595
 20
127.9049384999
 11
211.4845806297
 21
127.8734440394
  0
LINE
  5
535
100
AcDbEntity
  8
0
100
AcDbLine
 62
7
  6
CONTINUOUS
 10
211.3209178394
 20
127.1236849858
 11
211.2808534407
 21
126.943627122
  0
LINE
  5
536
100
AcDbEntity
  8
0
100
AcDbLine
 62
7
  6
CONTINUOUS
 10
211.2808534407
 20
126.943627122
 11
211.2565247845
 21
126.834960246
  0
LINE
  5
537
100
AcDbEntity
  8
0
100
AcDbLine
 62
7
  6
CONTINUOUS
 10
211.1592237237
 20
126.4054272675
 11
211.1542896233
 21
126.3838619895
  0
LINE
  5
538
100
AcDbEntity
  8
0
100
AcDbLine
 62
7
  6
CONTINUOUS
 10
211.1542896233
 20
126.3838619895
 11
211.0841992478
 21
126.0797707762
  0
LINE
  5
539
100
AcDbEntity
  8
0
100
AcDbLine
 62
7
  6
CONTINUOUS
 10
210.9844117453
 20
125.6540699628
 11
210.9813825979
 21
125.6412797781
  0
LINE
  5
53A
100
AcDbEntity
  8
0
100
AcDbLine
 62
7
  6
CONTINUOUS
 10
210.9813825979
 20
125.6412797781
 11
210.9520188162
 21
125.5176977393
  0
LINE
  5
53B
100
AcDbEntity
  8
0
100
AcDbLine
 62
7
  6
CONTINUOUS
 10
210.9520188162
 20
125.5176977393
 11
210.9397156266
 21
125.4661345889
  0
LINE
  5
53C
100
AcDbEntity
  8
0
100
AcDbLine
 62
7
  6
CONTINUOUS
 10
178.2449662314
 20
126.8332835075
 11
178.1829649186
 21
127.12664183
  0
LINE
  5
53D
100
AcDbEntity
  8
0
100
AcDbLine
 62
7
  6
CONTINUOUS
 10
178.1829649186
 20
127.12664183
 11
178.1802989057
 21
127.1393310024
  0
LINE
  5
53E
100
AcDbEntity
  8
0
100
AcDbLine
 62
7
  6
CONTINUOUS
 10
178.1802989057
 20
127.1393310024
 11
178.1774728566
 21
127.152788622
  0
LINE
  5
53F
100
AcDbEntity
  8
0
100
AcDbLine
 62
7
  6
CONTINUOUS
 10
178.0685805556
 20
127.6765925174
 11
178.0276645181
 21
127.8760431714
  0
LINE
  5
540
100
AcDbEntity
  8
0
100
AcDbLine
 62
7
  6
CONTINUOUS
 10
178.0276645181
 20
127.8760431714
 11
177.9668543103
 21
128.1750997406
  0
LINE
  5
541
100
AcDbEntity
  8
0
100
AcDbLine
 62
7
  6
CONTINUOUS
 10
177.7268567707
 20
129.3856134289
 11
177.7235867512
 21
129.402434101
  0
LINE
  5
542
100
AcDbEntity
  8
0
100
AcDbLine
 62
7
  6
CONTINUOUS
 10
211.809652649
 20
129.9343489312
 11
211.7517018133
 21
129.6682211728
  0
LINE
  5
543
100
AcDbEntity
  8
0
100
AcDbLine
 62
7
  6
CONTINUOUS
 10
211.7517018133
 20
129.6682211728
 11
211.7149616276
 21
129.4995253448
  0
LINE
  5
544
100
AcDbEntity
  8
0
100
AcDbLine
 62
7
  6
CONTINUOUS
 10
211.7149616276
 20
129.4995253448
 11
211.6938141408
 21
129.402434101
  0
SPLINE
  5
545
100
AcDbEntity
  8
BEZUGSACHSEN
100
AcDbSpline
 62
7
  6
CONTINUOUS
 70
0
 71
3
 72
22
 73
18
 74
0
 42
0.0000001
 43
0.0000001
 44
0.0000000001
 40
0.0
 40
0.0
 40
0.0
 40
0.0
 40
0.1738806098
 40
0.3385089888
 40
0.4149499978
 40
0.4865321718
 40
0.5528457297
 40
0.6137603728
 40
0.6694509635
 40
0.7204018418
 40
0.7673876557
 40
0.8114382258
 40
0.8538206645
 40
0.8961684436
 40
0.9413089715
 40
0.967230035
 40
1.0
 40
1.0
 40
1.0
 40
1.0
 10
195.0099979132
 20
126.7527655092
 30
0.0
 10
196.0127821708
 20
126.7527655092
 30
0.0
 10
197.965118356
 20
126.7174492623
 30
0.0
 10
200.3551335881
 20
126.5736868869
 30
0.0
 10
202.1477454016
 20
126.3758858007
 30
0.0
 10
203.3700192163
 20
126.1884443834
 30
0.0
 10
204.4930204231
 20
125.9537977352
 30
0.0
 10
205.5094114788
 20
125.6675061422
 30
0.0
 10
206.4148660718
 20
125.3258005773
 30
0.0
 10
207.2076304951
 20
124.9257263619
 30
0.0
 10
207.8878111989
 20
124.4651421262
 30
0.0
 10
208.4566536502
 20
123.9423835996
 30
0.0
 10
208.9160091886
 20
123.3541454937
 30
0.0
 10
209.2675407079
 20
122.6883261805
 30
0.0
 10
209.4585711462
 20
122.0575539325
 30
0.0
 10
209.5366864526
 20
121.4628550641
 30
0.0
 10
209.5315373003
 20
121.1220127432
 30
0.0
 10
209.5092114069
 20
120.9343489312
 30
0.0
  0
LINE
  5
546
100
AcDbEntity
  8
0
100
AcDbLine
 62
7
  6
CONTINUOUS
 10
178.6355324858
 20
125.785412734
 11
178.6159622778
 21
125.8560412132
  0
LINE
  5
547
100
AcDbEntity
  8
0
100
AcDbLine
 62
7
  6
CONTINUOUS
 10
178.7561365093
 20
126.8332835042
 11
178.7309394454
 21
126.9521060736
  0
LINE
  5
548
100
AcDbEntity
  8
0
100
AcDbLine
 62
7
  6
CONTINUOUS
 10
178.7309394454
 20
126.9521060736
 11
178.7071828071
 21
127.0646546713
  0
LINE
  5
549
100
AcDbEntity
  8
0
100
AcDbLine
 62
7
  6
CONTINUOUS
 10
179.1186184083
 20
125.785412734
 11
179.0416489288
 21
126.3173276387
  0
LINE
  5
54A
100
AcDbEntity
  8
0
100
AcDbLine
 62
7
  6
CONTINUOUS
 10
179.0416489288
 20
126.3173276387
 11
178.9393217536
 21
126.7428595029
  0
LINE
  5
54B
100
AcDbEntity
  8
0
100
AcDbLine
 62
7
  6
CONTINUOUS
 10
178.7634111184
 20
127.2747744821
 11
178.7350549158
 21
127.3451269192
  0
LINE
  5
54C
100
AcDbEntity
  8
0
100
AcDbLine
 62
7
  6
CONTINUOUS
 10
178.1830867536
 20
127.7003063463
 11
178.1214837519
 21
127.9830686849
  0
LINE
  5
54D
100
AcDbEntity
  8
0
100
AcDbLine
 62
7
  6
CONTINUOUS
 10
178.1214837519
 20
127.9830686849
 11
178.1160538554
 21
128.0079950963
  0
LINE
  5
54E
100
AcDbEntity
  8
0
100
AcDbLine
 62
7
  6
CONTINUOUS
 10
178.1160538554
 20
128.0079950963
 11
178.0958383184
 21
128.1008002102
  0
LINE
  5
54F
100
AcDbEntity
  8
0
100
AcDbLine
 62
7
  6
CONTINUOUS
 10
178.0958383184
 20
128.1008002102
 11
177.8124447024
 21
129.402434101
  0
LINE
  5
550
100
AcDbEntity
  8
0
100
AcDbLine
 62
7
  6
CONTINUOUS
 10
178.2591168312
 20
129.402434101
 11
178.1335723653
 21
129.9343489312
  0
LINE
  5
551
100
AcDbEntity
  8
0
100
AcDbLine
 62
7
  6
CONTINUOUS
 10
177.7235867512
 20
129.402434101
 11
177.6478318058
 21
129.7569488738
  0
LINE
  5
552
100
AcDbEntity
  8
0
100
AcDbLine
 62
7
  6
CONTINUOUS
 10
177.6478318058
 20
129.7569488738
 11
177.6099253346
 21
129.9343489312
  0
SPLINE
  5
553
100
AcDbEntity
  8
BEZUGSACHSEN
100
AcDbSpline
 62
7
  6
CONTINUOUS
 70
0
 71
3
 72
22
 73
18
 74
0
 42
0.0000001
 43
0.0000001
 44
0.0000000001
 40
0.0
 40
0.0
 40
0.0
 40
0.0
 40
0.1738806098
 40
0.3385089888
 40
0.4149499978
 40
0.4865321718
 40
0.5528457297
 40
0.6137603728
 40
0.6694509635
 40
0.7204018418
 40
0.7673876557
 40
0.8114382258
 40
0.8538206645
 40
0.8961684436
 40
0.9413089715
 40
0.967230035
 40
1.0
 40
1.0
 40
1.0
 40
1.0
 10
195.0099979132
 20
126.7527655092
 30
0.0
 10
194.0072136556
 20
126.7527655092
 30
0.0
 10
192.0548774704
 20
126.7174492623
 30
0.0
 10
189.6648622384
 20
126.5736868869
 30
0.0
 10
187.8722504248
 20
126.3758858007
 30
0.0
 10
186.6499766102
 20
126.1884443834
 30
0.0
 10
185.5269754034
 20
125.9537977352
 30
0.0
 10
184.5105843476
 20
125.6675061422
 30
0.0
 10
183.6051297547
 20
125.3258005773
 30
0.0
 10
182.8123653314
 20
124.9257263619
 30
0.0
 10
182.1321846276
 20
124.4651421263
 30
0.0
 10
181.5633421763
 20
123.9423835996
 30
0.0
 10
181.1039866379
 20
123.3541454937
 30
0.0
 10
180.7524551185
 20
122.6883261805
 30
0.0
 10
180.5614246803
 20
122.0575539325
 30
0.0
 10
180.4833093739
 20
121.4628550641
 30
0.0
 10
180.4884585261
 20
121.1220127432
 30
0.0
 10
180.5107844195
 20
120.9343489312
 30
0.0
  0
LINE
  5
554
100
AcDbEntity
  8
0
100
AcDbLine
 62
7
  6
CONTINUOUS
 10
209.4967922608
 20
126.955625584
 11
209.3891546498
 21
126.4237106048
  0
LINE
  5
555
100
AcDbEntity
  8
0
100
AcDbLine
 62
7
  6
CONTINUOUS
 10
209.3891546498
 20
126.4237106048
 11
209.3426354335
 21
126.1045617066
  0
LINE
  5
556
100
AcDbEntity
  8
0
100
AcDbLine
 62
7
  6
CONTINUOUS
 10
209.3426354335
 20
126.1045617066
 11
209.3103369062
 21
125.679029768
  0
LINE
  5
557
100
AcDbEntity
  8
0
100
AcDbLine
 62
7
  6
CONTINUOUS
 10
179.6534055767
 20
125.6786932773
 11
179.6470661838
 21
125.785412734
  0
LINE
  5
558
100
AcDbEntity
  8
0
100
AcDbLine
 62
7
  6
CONTINUOUS
 10
179.6470661838
 20
125.785412734
 11
179.6344256162
 21
125.8735240834
  0
LINE
  5
559
100
AcDbEntity
  8
0
100
AcDbLine
 62
7
  6
CONTINUOUS
 10
178.6043801224
 20
128.1258378436
 11
178.3261817077
 21
129.402434101
  0
LINE
  5
55A
100
AcDbEntity
  8
0
100
AcDbLine
 62
7
  6
CONTINUOUS
 10
178.7836328515
 20
129.402434101
 11
178.6575933486
 21
129.9343489312
  0
LINE
  5
55B
100
AcDbEntity
  8
0
100
AcDbLine
 62
7
  6
CONTINUOUS
 10
180.2506430922
 20
127.9130722784
 11
180.1303431018
 21
128.3386041425
  0
LINE
  5
55C
100
AcDbEntity
  8
0
100
AcDbLine
 62
7
  6
CONTINUOUS
 10
179.7061044405
 20
128.3386041425
 11
179.6974720504
 21
128.3711753319
  0
SPLINE
  5
55D
100
AcDbEntity
  8
0
100
AcDbSpline
 62
7
  6
CONTINUOUS
 70
0
 71
3
 72
8
 73
4
 74
0
 42
0.0000001
 43
0.0000001
 44
0.0000000001
 40
0.0
 40
0.0
 40
0.0
 40
0.0
 40
1.0
 40
1.0
 40
1.0
 40
1.0
 10
179.6974720504
 20
128.3711753319
 30
0.0
 10
179.6251856408
 20
128.643954148
 30
0.0
 10
179.5530999408
 20
128.9167862225
 30
0.0
 10
179.4812038292
 20
129.1896681689
 30
0.0
  0
LINE
  5
55E
100
AcDbEntity
  8
0
100
AcDbLine
 62
7
  6
CONTINUOUS
 10
212.3232888028
 20
129.9343489312
 11
212.2075511456
 21
129.402434101
  0
LINE
  5
55F
100
AcDbEntity
  8
0
100
AcDbLine
 62
7
  6
CONTINUOUS
 10
181.0130534328
 20
124.9343489312
 11
180.8904755958
 21
125.3598808326
  0
LINE
  5
560
100
AcDbEntity
  8
0
100
AcDbLine
 62
7
  6
CONTINUOUS
 10
210.9124992056
 20
128.4449871086
 11
210.9044202778
 21
128.4050998991
  0
LINE
  5
561
100
AcDbEntity
  8
0
100
AcDbLine
 62
7
  6
CONTINUOUS
 10
210.9044202778
 20
128.4050998991
 11
210.783403869
 21
127.8066893123
  0
LINE
  5
562
100
AcDbEntity
  8
0
100
AcDbLine
 62
7
  6
CONTINUOUS
 10
210.783403869
 20
127.8066893123
 11
210.6032959668
 21
127.06200855
  0
LINE
  5
563
100
AcDbEntity
  8
0
100
AcDbLine
 62
7
  6
CONTINUOUS
 10
211.4404085671
 20
128.4449871086
 11
211.3114243042
 21
127.8066893123
  0
LINE
  5
564
100
AcDbEntity
  8
0
100
AcDbLine
 62
7
  6
CONTINUOUS
 10
211.3114243042
 20
127.8066893123
 11
211.1322336595
 21
127.06200855
  0
LINE
  5
565
100
AcDbEntity
  8
0
100
AcDbLine
 62
7
  6
CONTINUOUS
 10
179.6934675209
 20
127.9130722784
 11
179.5745276874
 21
128.3386041425
  0
SPLINE
  5
566
100
AcDbEntity
  8
0
100
AcDbSpline
 62
7
  6
CONTINUOUS
 70
0
 71
3
 72
8
 73
4
 74
0
 42
0.0000001
 43
0.0000001
 44
0.0000000001
 40
0.0
 40
0.0
 40
0.0
 40
0.0
 40
1.0
 40
1.0
 40
1.0
 40
1.0
 10
179.1626378409
 20
128.3386041425
 30
0.0
 10
179.0880984057
 20
128.622241182
 30
0.0
 10
179.0137568659
 20
128.9059302938
 30
0.0
 10
178.9396021908
 20
129.1896681689
 30
0.0
  0
LINE
  5
567
100
AcDbEntity
  8
0
100
AcDbLine
 62
7
  6
CONTINUOUS
 10
209.903250951
 20
126.1045617066
 11
209.8696227779
 21
125.679029768
  0
LINE
  5
568
100
AcDbEntity
  8
0
100
AcDbLine
 62
7
  6
CONTINUOUS
 10
209.950051722
 20
126.4237106048
 11
209.903250951
 21
126.1045617066
  0
LINE
  5
569
100
AcDbEntity
  8
0
100
AcDbLine
 62
7
  6
CONTINUOUS
 10
210.0572086435
 20
126.955625584
 11
209.950051722
 21
126.4237106048
  0
LINE
  5
56A
100
AcDbEntity
  8
0
100
AcDbLine
 62
7
  6
CONTINUOUS
 10
180.4480478148
 20
124.9343489312
 11
180.3271179228
 21
125.3598808326
  0
ENDSEC
  0
SECTION
  2
OBJECTS
  0
DICTIONARY
  5
C
100
AcDbDictionary
280
0
281
1
  3
ACAD_GROUP
350
D
  3
ACAD_MLINESTYLE
350
17
  3
ACAD_LAYOUT
350
1A
  3
ACAD_PLOTSETTINGS
350
19
  3
ACAD_PLOTSTYLENAME
350
E
  0
DICTIONARY
  5
D
102
{ACAD_REACTORS
330
C
102
}
100
AcDbDictionary
280
0
281
1
  0
ACDBDICTIONARYWDFLT
  5
E
102
{ACAD_REACTORS
330
C
102
}
100
AcDbDictionary
281
1
  3
Normal
350
F
100
AcDbDictionaryWithDefault
340
F
  0
DICTIONARY
  5
17
102
{ACAD_REACTORS
330
C
102
}
100
AcDbDictionary
280
0
281
1
  3
Standard
350
18
  0
DICTIONARY
  5
19
102
{ACAD_REACTORS
330
C
102
}
100
AcDbDictionary
281
1
  0
DICTIONARY
  5
1A
102
{ACAD_REACTORS
330
C
102
}
100
AcDbDictionary
281
1
  3
Model
350
56B
  3
Layout1
350
56C
  0
ACDBPLACEHOLDER
  5
F
102
{ACAD_REACTORS
330
E
102
}
  0
MLINESTYLE
  5
18
102
{ACAD_REACTORS
330
17
102
}
100
AcDbMlineStyle
  2
STANDARD
 70
0
  3

 62
256
 51
90.0
 52
90.0
 71
2
 49
0.5
 62
256
  6
BYLAYER
 49
-0.5
 62
256
  6
BYLAYER
  0
LAYOUT
  5
56B
102
{ACAD_REACTORS
330
1A
102
}
100
AcDbPlotSettings
  1

  2
none_device
  4
ISO_A4_(297.00_x_210.00_MM)
  6

 40
0.0
 41
0.0
 42
0.0
 43
0.0
 44
297.0
 45
210.0
 46
0.0
 47
0.0
 48
0.0
 49
0.0
140
0.0
141
0.0
142
1.0
143
1.0
 70
1024
 72
1
 73
0
 74
0
  7

 75
0
147
1.0
148
0.0
149
0.0
100
AcDbLayout
  1
Model
 70
0
 71
0
 10
0.0
 20
0.0
 11
297.0
 21
210.0
 12
0.0
 22
0.0
 32
0.0
 14
0.0
 24
0.0
 34
0.0
 15
0.0
 25
0.0
 35
0.0
146
0.0
 13
0.0
 23
0.0
 33
0.0
 16
1.0
 26
0.0
 36
0.0
 17
0.0
 27
1.0
 37
0.0
 76
0
330
20E
345
0
346
0
  0
LAYOUT
  5
56C
102
{ACAD_REACTORS
330
1A
102
}
100
AcDbPlotSettings
  1

  2
none_device
  4
ISO_A4_(297.00_x_210.00_MM)
  6

 40
0.0
 41
0.0
 42
0.0
 43
0.0
 44
297.0
 45
210.0
 46
0.0
 47
0.0
 48
0.0
 49
0.0
140
0.0
141
0.0
142
1.0
143
1.0
 70
0
 72
1
 73
0
 74
0
  7

 75
0
147
1.0
148
0.0
149
0.0
100
AcDbLayout
  1
Layout1
 70
0
 71
1
 10
0.0
 20
0.0
 11
297.0
 21
210.0
 12
0.0
 22
0.0
 32
0.0
 14
0.0
 24
0.0
 34
0.0
 15
0.0
 25
0.0
 35
0.0
146
0.0
 13
0.0
 23
0.0
 33
0.0
 16
1.0
 26
0.0
 36
0.0
 17
0.0
 27
1.0
 37
0.0
 76
0
330
20F
345
0
346
0
  0
ENDSEC
  0
EOF
