999
DXF file: VRS-F_0_4t_M10_7104029_M35305-P-2.dxf
999
Pro/ENGINEER 2011490 by Parametric Technology Corporation
  0
SECTION
  2
HEADER
  9
$ACADVER
  1
AC1015
  9
$DWGCODEPAGE
  3
ANSI_1252
  9
$EXTMAX
 10
297.0
 20
210.0
 30
0.0
  9
$EXTMIN
 10
0.0
 20
0.0
 30
0.0
  9
$LIMMIN
 10
0.0
 20
0.0
  9
$LIMMAX
 10
297.0
 20
210.0
  9
$VIEWCTR
 10
148.5
 20
105.0
  9
$VIEWSIZE
 40
210.0
  9
$CLAYER
  8
0
  9
$LTSCALE
 40
16.335
  9
$CELTYPE
  6
BYLAYER
  9
$DIMSCALE
 40
1.0
  9
$DIMASZ
 40
3.5
  9
$DIMEXO
 40
1.85625
  9
$DIMDLI
 40
11.286
  9
$DIMEXE
 40
5.346
  9
$DIMCEN
 40
2.673
  9
$DIMLFAC
 40
1.0
  9
$DIMBLK
  1
_FILLED
  9
$DIMTXT
 40
3.5
  9
$DIMTOL
 70
1
  9
$DIMLIM
 70
0
  9
$DIMTFAC
 40
1.0
  9
$DIMTP
 40
0.005
  9
$DIMTM
 40
0.005
  9
$PDMODE
 70
3
  9
$PDSIZE
 40
0.3125
  9
$HANDSEED
  5
4F3
  9
$TILEMODE
 70
1
  9
$MEASUREMENT
 70
1
  9
$INSUNITS
 70
4
  0
ENDSEC
  0
SECTION
  2
CLASSES
  0
CLASS
  1
ACDBDICTIONARYWDFLT
  2
AcDbDictionaryWithDefault
  3
AutoCAD 2000
 90
0
280
0
281
0
  0
CLASS
  1
ACDBPLACEHOLDER
  2
AcDbPlaceHolder
  3
AutoCAD 2000
 90
0
280
0
281
0
  0
CLASS
  1
LAYOUT
  2
AcDbLayout
  3
AutoCAD 2000
 90
0
280
0
281
0
  0
ENDSEC
  0
SECTION
  2
TABLES
  0
TABLE
  2
VPORT
  5
8
100
AcDbSymbolTable
 70
2
  0
VPORT
  5
1F4
100
AcDbSymbolTableRecord
100
AcDbViewportTableRecord
  2
*ACTIVE
 70
0
 10
0.0
 20
0.0
 11
1.0
 21
1.0
 12
148.5
 22
105.0
 13
0.0
 23
0.0
 14
1.0
 24
1.0
 15
0.0
 25
0.0
 16
0.0
 26
0.0
 36
1.0
 17
0.0
 27
0.0
 37
0.0
 40
210.0
 41
1.4142857143
 42
50.0
 43
0.0
 44
0.0
 50
0.0
 51
0.0
 71
0
 72
100
 73
1
 74
1
 75
0
 76
0
 77
0
 78
0
  0
ENDTAB
  0
TABLE
  2
LTYPE
  5
5
100
AcDbSymbolTable
 70
6
  0
LTYPE
  5
14
100
AcDbSymbolTableRecord
100
AcDbLinetypeTableRecord
  2
BYBLOCK
 70
0
  3

 72
65
 73
0
 40
0.0
  0
LTYPE
  5
15
100
AcDbSymbolTableRecord
100
AcDbLinetypeTableRecord
  2
BYLAYER
 70
0
  3

 72
65
 73
0
 40
0.0
  0
LTYPE
  5
16
100
AcDbSymbolTableRecord
100
AcDbLinetypeTableRecord
  2
CONTINUOUS
 70
64
  3
Solid line
 72
65
 73
0
 40
0.0
  0
LTYPE
  5
1F5
100
AcDbSymbolTableRecord
100
AcDbLinetypeTableRecord
  2
CENTER
 70
64
  3
____ _ ____ _ ____ _ ____ _ ____ _ ____ _ ____
 72
65
 73
4
 40
0.6
 49
0.375
 74
0
 49
-0.075
 74
0
 49
0.075
 74
0
 49
-0.075
 74
0
  0
LTYPE
  5
1F6
100
AcDbSymbolTableRecord
100
AcDbLinetypeTableRecord
  2
HIDDEN
 70
64
  3
- - - - - - - - - - - - - - - - - - - -
 72
65
 73
2
 40
0.2
 49
0.1
 74
0
 49
-0.1
 74
0
  0
LTYPE
  5
1F7
100
AcDbSymbolTableRecord
100
AcDbLinetypeTableRecord
  2
PHANTOM
 70
64
  3
_____ _ _ _____ _ _ _____ _ _ _____
 72
65
 73
6
 40
0.8
 49
0.45
 74
0
 49
-0.05
 74
0
 49
0.1
 74
0
 49
-0.05
 74
0
 49
0.1
 74
0
 49
-0.05
 74
0
  0
LTYPE
  5
1F8
100
AcDbSymbolTableRecord
100
AcDbLinetypeTableRecord
  2
DOT
 70
64
  3
. . . . . . . . . . . . . . . . . . . .
 72
65
 73
2
 40
0.2
 49
0.1
 74
0
 49
-0.1
 74
0
  0
LTYPE
  5
1F9
100
AcDbSymbolTableRecord
100
AcDbLinetypeTableRecord
  2
DASHED
 70
64
  3
- - - - - - - - - - - - - - - - - - - -
 72
65
 73
2
 40
0.2
 49
0.1
 74
0
 49
-0.1
 74
0
  0
ENDTAB
  0
TABLE
  2
LAYER
  5
2
100
AcDbSymbolTable
 70
36
  0
LAYER
  5
10
100
AcDbSymbolTableRecord
100
AcDbLayerTableRecord
  2
0
 70
0
 62
7
  6
CONTINUOUS
370
-3
390
F
  0
LAYER
  5
1FA
100
AcDbSymbolTableRecord
100
AcDbLayerTableRecord
  2
DEFAULT_1
 70
0
 62
7
  6
CENTER
370
-3
390
F
  0
LAYER
  5
1FB
100
AcDbSymbolTableRecord
100
AcDbLayerTableRecord
  2
DEFAULT_2
 70
0
 62
8
  6
HIDDEN
370
-3
390
F
  0
LAYER
  5
1FC
100
AcDbSymbolTableRecord
100
AcDbLayerTableRecord
  2
DEFAULT_3
 70
0
 62
7
  6
PHANTOM
370
-3
390
F
  0
LAYER
  5
1FD
100
AcDbSymbolTableRecord
100
AcDbLayerTableRecord
  2
BEZUGSACHSEN
 70
0
 62
7
  6
CONTINUOUS
370
-3
390
F
  0
LAYER
  5
1FE
100
AcDbSymbolTableRecord
100
AcDbLayerTableRecord
  2
BEZUGSEBENEN
 70
0
 62
7
  6
CONTINUOUS
370
-3
390
F
  0
LAYER
  5
1FF
100
AcDbSymbolTableRecord
100
AcDbLayerTableRecord
  2
BG_STARTBEZUEGE
 70
0
 62
7
  6
CONTINUOUS
370
-3
390
F
  0
LAYER
  5
200
100
AcDbSymbolTableRecord
100
AcDbLayerTableRecord
  2
FASEN
 70
0
 62
7
  6
CONTINUOUS
370
-3
390
F
  0
LAYER
  5
201
100
AcDbSymbolTableRecord
100
AcDbLayerTableRecord
  2
FLAECHEN
 70
0
 62
7
  6
CONTINUOUS
370
-3
390
F
  0
LAYER
  5
202
100
AcDbSymbolTableRecord
100
AcDbLayerTableRecord
  2
GEWINDE
 70
0
 62
7
  6
CONTINUOUS
370
-3
390
F
  0
LAYER
  5
203
100
AcDbSymbolTableRecord
100
AcDbLayerTableRecord
  2
HILFEN
 70
0
 62
7
  6
CONTINUOUS
370
-3
390
F
  0
LAYER
  5
204
100
AcDbSymbolTableRecord
100
AcDbLayerTableRecord
  2
KONSTRUKTIONSELEMENTE
 70
0
 62
7
  6
CONTINUOUS
370
-3
390
F
  0
LAYER
  5
205
100
AcDbSymbolTableRecord
100
AcDbLayerTableRecord
  2
KURVEN
 70
0
 62
7
  6
CONTINUOUS
370
-3
390
F
  0
LAYER
  5
206
100
AcDbSymbolTableRecord
100
AcDbLayerTableRecord
  2
NORM
 70
0
 62
7
  6
CONTINUOUS
370
-3
390
F
  0
LAYER
  5
207
100
AcDbSymbolTableRecord
100
AcDbLayerTableRecord
  2
PLATZIERUNG
 70
0
 62
7
  6
CONTINUOUS
370
-3
390
F
  0
LAYER
  5
208
100
AcDbSymbolTableRecord
100
AcDbLayerTableRecord
  2
RUNDUNGEN
 70
0
 62
7
  6
CONTINUOUS
370
-3
390
F
  0
LAYER
  5
209
100
AcDbSymbolTableRecord
100
AcDbLayerTableRecord
  2
TEIL_STARTBEZUEGE
 70
0
 62
7
  6
CONTINUOUS
370
-3
390
F
  0
LAYER
  5
20A
100
AcDbSymbolTableRecord
100
AcDbLayerTableRecord
  2
T_STARTBEZUEGE
 70
0
 62
7
  6
CONTINUOUS
370
-3
390
F
  0
LAYER
  5
20B
100
AcDbSymbolTableRecord
100
AcDbLayerTableRecord
  2
ZEICHNUNGSBEMASSUNGEN
 70
0
 62
7
  6
CONTINUOUS
370
-3
390
F
  0
ENDTAB
  0
TABLE
  2
STYLE
  5
3
100
AcDbSymbolTable
 70
1
  0
STYLE
  5
11
100
AcDbSymbolTableRecord
100
AcDbTextStyleTableRecord
  2
STANDARD
 70
0
 40
0.0
 41
0.7
 50
0.0
 71
0
 42
0.2
  3
txt
  4

  0
STYLE
  5
20C
100
AcDbSymbolTableRecord
100
AcDbTextStyleTableRecord
  2
TEXTSTYLE_1
 70
0
 40
0.0
 41
0.8
 50
0.0
 71
0
 42
0.2
  3
gdt
  4

  0
ENDTAB
  0
TABLE
  2
VIEW
  5
6
100
AcDbSymbolTable
 70
0
  0
ENDTAB
  0
TABLE
  2
UCS
  5
7
100
AcDbSymbolTable
 70
0
  0
ENDTAB
  0
TABLE
  2
APPID
  5
9
100
AcDbSymbolTable
 70
1
  0
APPID
  5
20D
100
AcDbSymbolTableRecord
100
AcDbRegAppTableRecord
  2
ACAD
 70
0
  0
ENDTAB
  0
TABLE
  2
BLOCK_RECORD
  5
1
100
AcDbSymbolTable
 70
0
  0
BLOCK_RECORD
  5
20E
100
AcDbSymbolTableRecord
100
AcDbBlockTableRecord
  2
*Model_Space
  0
BLOCK_RECORD
  5
20F
100
AcDbSymbolTableRecord
100
AcDbBlockTableRecord
  2
*Paper_Space
  0
ENDTAB
  0
TABLE
  2
DIMSTYLE
  5
A
100
AcDbSymbolTable
 70
1
100
AcDbDimStyleTable
 71
0
  0
DIMSTYLE
105
210
100
AcDbSymbolTableRecord
100
AcDbDimStyleTableRecord
  2
STANDARD
 70
0
  3

  4

 40
1.0
 41
3.5
 42
0.0625
 43
0.38
 44
0.18
 45
0.0
 46
0.0
 47
0.005
 48
0.005
140
3.5
141
0.09
142
0.0
143
25.4
144
1.0
145
0.0
146
1.0
147
0.09
 71
1.0
 72
0.0
 73
0
 74
0
 75
0
 76
0
 77
1
 78
8
170
0
171
2
172
0
173
0
174
0
175
0
176
0
177
0
178
5
270
2
271
3
272
3
273
2
274
2
275
0
280
0
281
0
282
0
283
1
284
8
285
0
286
0
287
3
288
0
340
11
  0
ENDTAB
  0
ENDSEC
  0
SECTION
  2
BLOCKS
  0
BLOCK
  5
20
100
AcDbEntity
  8
0
100
AcDbBlockBegin
  2
*Model_Space
 70
0
 10
0.0
 20
0.0
 30
0.0
  3
*Model_Space
  1

  0
ENDBLK
  5
21
100
AcDbEntity
  8
0
100
AcDbBlockEnd
  0
BLOCK
  5
1C
100
AcDbEntity
  8
0
100
AcDbBlockBegin
  2
*Paper_Space
 70
0
 10
0.0
 20
0.0
 30
0.0
  3
*Paper_Space
  1

  0
ENDBLK
  5
1D
100
AcDbEntity
  8
0
100
AcDbBlockEnd
  0
ENDSEC
  0
SECTION
  2
ENTITIES
  0
MTEXT
  5
211
100
AcDbEntity
  8
0
100
AcDbMText
 62
5
  6
CONTINUOUS
  7
STANDARD
 71
1
 72
1
 10
179.0865682859
 20
142.2998425592
 30
0.0
 11
0.0
 21
1.0
 31
0.0
 44
0.9
  1
VRS 0,4t RUD
 40
3.0
 41
28.0714285714
  0
MTEXT
  5
212
100
AcDbEntity
  8
0
100
AcDbMText
 62
5
  6
CONTINUOUS
  7
STANDARD
 71
1
 72
1
 10
77.818245088
 20
69.287830645
 30
0.0
 11
1.0
 21
0.0
 31
0.0
 44
0.9
  1
VRS 0,4t RUD
 40
3.0
 41
28.0714285714
  0
LINE
  5
213
100
AcDbEntity
  8
0
100
AcDbLine
 62
7
  6
CONTINUOUS
 10
0.0
 20
0.0
 11
0.0
 21
210.0
  0
LINE
  5
214
100
AcDbEntity
  8
0
100
AcDbLine
 62
7
  6
CONTINUOUS
 10
0.0
 20
0.0
 11
297.0
 21
0.0
  0
LINE
  5
215
100
AcDbEntity
  8
0
100
AcDbLine
 62
7
  6
CONTINUOUS
 10
0.0
 20
210.0
 11
297.0
 21
210.0
  0
LINE
  5
216
100
AcDbEntity
  8
0
100
AcDbLine
 62
7
  6
CONTINUOUS
 10
297.0
 20
0.0
 11
297.0
 21
210.0
  0
LINE
  5
217
100
AcDbEntity
  8
KONSTRUKTIONSELEMENTE
100
AcDbLine
 62
7
  6
CONTINUOUS
 10
88.2740303973
 20
112.0101009273
 11
96.2736709393
 21
112.0101009273
  0
LINE
  5
218
100
AcDbEntity
  8
KONSTRUKTIONSELEMENTE
100
AcDbLine
 62
7
  6
CONTINUOUS
 10
87.2738506683
 20
113.0101009273
 11
97.2738506683
 21
113.0101009273
  0
LINE
  5
219
100
AcDbEntity
  8
RUNDUNGEN
100
AcDbLine
 62
7
  6
CONTINUOUS
 10
76.2308664589
 20
166.0648792869
 11
91.6998255197
 21
172.4723319256
  0
LINE
  5
21A
100
AcDbEntity
  8
KONSTRUKTIONSELEMENTE
100
AcDbLine
 62
7
  6
CONTINUOUS
 10
87.2738506683
 20
113.0101009273
 11
88.2738506683
 21
112.0101009273
  0
LINE
  5
21B
100
AcDbEntity
  8
BEZUGSACHSEN
100
AcDbLine
 62
7
  6
CONTINUOUS
 10
69.0177704838
 20
149.7989754542
 11
69.1430948817
 21
150.1015353153
  0
LINE
  5
21C
100
AcDbEntity
  8
RUNDUNGEN
100
AcDbLine
 62
7
  6
CONTINUOUS
 10
69.1430948817
 20
150.1015353153
 11
75.4190723087
 21
165.2530851367
  0
LINE
  5
21D
100
AcDbEntity
  8
0
100
AcDbLine
 62
7
  6
CONTINUOUS
 10
80.6618315803
 20
164.4681395244
 11
80.4776894703
 21
164.2839974144
  0
LINE
  5
21E
100
AcDbEntity
  8
0
100
AcDbLine
 62
7
  6
CONTINUOUS
 10
79.0782071587
 20
162.8845151029
 11
78.1943236822
 21
162.0006316264
  0
LINE
  5
21F
100
AcDbEntity
  8
0
100
AcDbLine
 62
7
  6
CONTINUOUS
 10
77.8996958216
 20
161.7060037658
 11
77.6787249525
 21
161.4850328966
  0
LINE
  5
220
100
AcDbEntity
  8
0
100
AcDbLine
 62
7
  6
CONTINUOUS
 10
76.6475275984
 20
160.4538355425
 11
76.4265567293
 21
160.2328646734
  0
LINE
  5
221
100
AcDbEntity
  8
0
100
AcDbLine
 62
7
  6
CONTINUOUS
 10
78.6033548431
 20
162.0335422038
 11
79.3030959989
 21
162.7332833596
  0
LINE
  5
222
100
AcDbEntity
  8
0
100
AcDbLine
 62
7
  6
CONTINUOUS
 10
80.7033618204
 20
164.0583250644
 11
80.9243326895
 21
164.2792959335
  0
LINE
  5
223
100
AcDbEntity
  8
0
100
AcDbLine
 62
7
  6
CONTINUOUS
 10
80.88358617
 20
164.6146699975
 11
80.6618315803
 21
164.4681395244
  0
LINE
  5
224
100
AcDbEntity
  8
0
100
AcDbLine
 62
7
  6
CONTINUOUS
 10
79.2999615378
 20
163.0310453652
 11
79.0782071587
 21
162.8845151029
  0
LINE
  5
225
100
AcDbEntity
  8
0
100
AcDbLine
 62
7
  6
CONTINUOUS
 10
81.67265578
 20
163.8992570629
 11
81.4509016117
 21
163.7527270113
  0
LINE
  5
226
100
AcDbEntity
  8
0
100
AcDbLine
 62
7
  6
CONTINUOUS
 10
80.9243326895
 20
164.2792959335
 11
81.0724301824
 21
164.3521693097
  0
LINE
  5
227
100
AcDbEntity
  8
0
100
AcDbLine
 62
7
  6
CONTINUOUS
 10
79.3030959989
 20
162.7332833596
 11
79.4511934918
 21
162.8061567358
  0
LINE
  5
228
100
AcDbEntity
  8
0
100
AcDbLine
 62
7
  6
CONTINUOUS
 10
90.346767921
 20
167.1994626009
 11
90.190517921
 21
167.1462711179
  0
LINE
  5
229
100
AcDbEntity
  8
RUNDUNGEN
100
AcDbLine
 62
7
  6
CONTINUOUS
 10
72.7738506683
 20
139.6357462259
 11
72.7738506683
 21
134.2101009273
  0
LINE
  5
22A
100
AcDbEntity
  8
BEZUGSACHSEN
100
AcDbLine
 62
7
  6
CONTINUOUS
 10
72.7738506683
 20
134.2101009273
 11
72.7738506683
 21
139.6357414318
  0
LINE
  5
22B
100
AcDbEntity
  8
0
100
AcDbLine
 62
7
  6
CONTINUOUS
 10
80.6304884442
 20
163.9102275715
 11
80.7033618204
 21
164.0583250644
  0
LINE
  5
22C
100
AcDbEntity
  8
0
100
AcDbLine
 62
7
  6
CONTINUOUS
 10
79.9401503556
 20
162.3171998719
 11
79.8672769794
 21
162.169102379
  0
LINE
  5
22D
100
AcDbEntity
  8
0
100
AcDbLine
 62
7
  6
CONTINUOUS
 10
80.4776894703
 20
164.2839974144
 11
80.3679873349
 21
164.0990711624
  0
LINE
  5
22E
100
AcDbEntity
  8
0
100
AcDbLine
 62
7
  6
CONTINUOUS
 10
81.3333638503
 20
164.3122065109
 11
81.5543347195
 21
164.53317738
  0
LINE
  5
22F
100
AcDbEntity
  8
0
100
AcDbLine
 62
7
  6
CONTINUOUS
 10
81.4509016117
 20
163.7527270113
 11
81.2299307426
 21
163.5317561422
  0
LINE
  5
230
100
AcDbEntity
  8
0
100
AcDbLine
 62
7
  6
CONTINUOUS
 10
79.8672769794
 20
162.169102379
 11
79.1675358236
 21
161.4693612232
  0
LINE
  5
231
100
AcDbEntity
  8
0
100
AcDbLine
 62
7
  6
CONTINUOUS
 10
79.3932081737
 20
161.2436888731
 11
80.0192922326
 21
161.8697729321
  0
LINE
  5
232
100
AcDbEntity
  8
0
100
AcDbLine
 62
7
  6
CONTINUOUS
 10
81.4556030927
 20
163.3060837921
 11
81.6765739618
 21
163.5270546612
  0
LINE
  5
233
100
AcDbEntity
  8
0
100
AcDbLine
 62
7
  6
CONTINUOUS
 10
81.3882145493
 20
162.6369022098
 11
81.1672438909
 21
162.4159315514
  0
LINE
  5
234
100
AcDbEntity
  8
0
100
AcDbLine
 62
7
  6
CONTINUOUS
 10
82.240754916
 20
162.962873707
 11
81.94612695
 21
162.668245741
  0
LINE
  5
235
100
AcDbEntity
  8
0
100
AcDbLine
 62
7
  6
CONTINUOUS
 10
78.7835793508
 20
159.054353389
 11
79.0782071587
 21
159.3489811969
  0
LINE
  5
236
100
AcDbEntity
  8
0
100
AcDbLine
 62
7
  6
CONTINUOUS
 10
79.9620906352
 20
160.2328646734
 11
80.1830615043
 21
160.4538355425
  0
LINE
  5
237
100
AcDbEntity
  8
0
100
AcDbLine
 62
7
  6
CONTINUOUS
 10
81.1037735292
 20
161.3745475674
 11
81.3615727361
 21
161.6323467743
  0
LINE
  5
238
100
AcDbEntity
  8
0
100
AcDbLine
 62
7
  6
CONTINUOUS
 10
82.1717993264
 20
162.4425733646
 11
82.4664272924
 21
162.7372013306
  0
LINE
  5
239
100
AcDbEntity
  8
0
100
AcDbLine
 62
7
  6
CONTINUOUS
 10
81.9500447333
 20
162.2960428948
 11
82.1717993264
 21
162.4425733646
  0
LINE
  5
23A
100
AcDbEntity
  8
0
100
AcDbLine
 62
7
  6
CONTINUOUS
 10
81.6765739618
 20
163.5270546612
 11
81.8614997924
 21
163.6367563751
  0
LINE
  5
23B
100
AcDbEntity
  8
0
100
AcDbLine
 62
7
  6
CONTINUOUS
 10
81.2706768406
 20
163.1963816567
 11
81.4556030927
 21
163.3060837921
  0
LINE
  5
23C
100
AcDbEntity
  8
0
100
AcDbLine
 62
7
  6
CONTINUOUS
 10
81.94612695
 20
162.668245741
 11
81.7612011194
 21
162.5585440271
  0
LINE
  5
23D
100
AcDbEntity
  8
0
100
AcDbLine
 62
7
  6
CONTINUOUS
 10
90.3988513537
 20
166.9335051858
 11
90.6071846374
 21
167.0398881518
  0
LINE
  5
23E
100
AcDbEntity
  8
0
100
AcDbLine
 62
7
  6
CONTINUOUS
 10
81.2299307426
 20
163.5317561422
 11
81.0818332497
 21
163.458882766
  0
LINE
  5
23F
100
AcDbEntity
  8
0
100
AcDbLine
 62
7
  6
CONTINUOUS
 10
81.8951940904
 20
163.9713471399
 11
81.67265578
 21
163.8992570629
  0
LINE
  5
240
100
AcDbEntity
  8
0
100
AcDbLine
 62
7
  6
CONTINUOUS
 10
81.0481389516
 20
163.1242920012
 11
81.2706768406
 21
163.1963816567
  0
LINE
  5
241
100
AcDbEntity
  8
BEZUGSACHSEN
100
AcDbLine
 62
7
  6
CONTINUOUS
 10
75.8790071678
 20
132.0864344999
 11
75.6692701886
 21
132.5927843597
  0
LINE
  5
242
100
AcDbEntity
  8
BEZUGSACHSEN
100
AcDbLine
 62
7
  6
CONTINUOUS
 10
72.6977302008
 20
139.7667164995
 11
69.0177704838
 21
148.6509251571
  0
LINE
  5
243
100
AcDbEntity
  8
0
100
AcDbLine
 62
7
  6
CONTINUOUS
 10
80.3679873349
 20
164.0990711624
 11
80.2958976794
 21
163.8765332734
  0
LINE
  5
244
100
AcDbEntity
  8
0
100
AcDbLine
 62
7
  6
CONTINUOUS
 10
80.1650389851
 20
162.1659679179
 11
80.2371288514
 21
162.3885060176
  0
LINE
  5
245
100
AcDbEntity
  8
0
100
AcDbLine
 62
7
  6
CONTINUOUS
 10
82.3504566299
 20
163.1477995376
 11
82.240754916
 21
162.962873707
  0
LINE
  5
246
100
AcDbEntity
  8
0
100
AcDbLine
 62
7
  6
CONTINUOUS
 10
82.4664272924
 20
162.7372013306
 11
82.6129573407
 21
162.9589555022
  0
LINE
  5
247
100
AcDbEntity
  8
0
100
AcDbLine
 62
7
  6
CONTINUOUS
 10
90.4509346374
 20
167.305845567
 11
90.346767921
 21
167.1994626009
  0
LINE
  5
248
100
AcDbEntity
  8
0
100
AcDbLine
 62
7
  6
CONTINUOUS
 10
92.6905180701
 20
166.188824349
 11
92.5342680701
 21
166.0824413457
  0
LINE
  5
249
100
AcDbEntity
  8
0
100
AcDbLine
 62
7
  6
CONTINUOUS
 10
95.190517772
 20
166.188824349
 11
95.034267772
 21
166.0824413457
  0
LINE
  5
24A
100
AcDbEntity
  8
0
100
AcDbLine
 62
7
  6
CONTINUOUS
 10
92.5863512047
 20
165.763292415
 11
92.7946846374
 21
165.869675395
  0
LINE
  5
24B
100
AcDbEntity
  8
0
100
AcDbLine
 62
7
  6
CONTINUOUS
 10
95.0863515027
 20
165.763292415
 11
95.2946846374
 21
165.869675395
  0
LINE
  5
24C
100
AcDbEntity
  8
KONSTRUKTIONSELEMENTE
100
AcDbLine
 62
7
  6
CONTINUOUS
 10
84.1238506683
 20
127.0101009273
 11
100.4238506683
 21
127.0101009273
  0
LINE
  5
24D
100
AcDbEntity
  8
BEZUGSACHSEN
100
AcDbLine
 62
7
  6
CONTINUOUS
 10
104.7738506683
 20
127.2101009273
 11
79.7738506683
 21
127.2101009273
  0
LINE
  5
24E
100
AcDbEntity
  8
0
100
AcDbLine
 62
7
  6
CONTINUOUS
 10
80.5952271263
 20
163.7245180202
 11
80.6304884442
 21
163.9102275715
  0
LINE
  5
24F
100
AcDbEntity
  8
0
100
AcDbLine
 62
7
  6
CONTINUOUS
 10
82.3857179214
 20
163.3335091152
 11
82.3504566299
 21
163.1477995376
  0
LINE
  5
250
100
AcDbEntity
  8
0
100
AcDbLine
 62
7
  6
CONTINUOUS
 10
82.6129573407
 20
162.9589555022
 11
82.6850474079
 21
163.1814938225
  0
LINE
  5
251
100
AcDbEntity
  8
0
100
AcDbLine
 62
7
  6
CONTINUOUS
 10
90.6071846374
 20
167.0398881518
 11
90.7634346374
 21
167.2526540839
  0
LINE
  5
252
100
AcDbEntity
  8
0
100
AcDbLine
 62
7
  6
CONTINUOUS
 10
92.7946846374
 20
165.869675395
 11
93.0030180701
 21
166.0824413457
  0
LINE
  5
253
100
AcDbEntity
  8
0
100
AcDbLine
 62
7
  6
CONTINUOUS
 10
95.2946846374
 20
165.869675395
 11
95.503017772
 21
166.0824413457
  0
LINE
  5
254
100
AcDbEntity
  8
0
100
AcDbLine
 62
7
  6
CONTINUOUS
 10
88.5655172952
 20
130.7207392239
 11
88.1488506683
 21
130.6356328511
  0
LINE
  5
255
100
AcDbEntity
  8
0
100
AcDbLine
 62
7
  6
CONTINUOUS
 10
88.1488506683
 20
130.2101009273
 11
88.6488506683
 21
130.2952073076
  0
LINE
  5
256
100
AcDbEntity
  8
0
100
AcDbLine
 62
7
  6
CONTINUOUS
 10
90.3155174144
 20
129.6994626307
 11
90.7321841605
 21
129.6994626307
  0
LINE
  5
257
100
AcDbEntity
  8
0
100
AcDbLine
 62
7
  6
CONTINUOUS
 10
93.8988506683
 20
130.2101009273
 11
94.3988506683
 21
130.2101009273
  0
LINE
  5
258
100
AcDbEntity
  8
0
100
AcDbLine
 62
7
  6
CONTINUOUS
 10
91.2321841605
 20
130.6356328511
 11
90.815517176
 21
130.6356328511
  0
LINE
  5
259
100
AcDbEntity
  8
0
100
AcDbLine
 62
7
  6
CONTINUOUS
 10
91.8988506683
 20
131.4015902662
 11
93.8988506683
 21
131.4015902662
  0
LINE
  5
25A
100
AcDbEntity
  8
0
100
AcDbLine
 62
7
  6
CONTINUOUS
 10
94.3988506683
 20
131.4015902662
 11
95.2321836837
 21
131.4015902662
  0
LINE
  5
25B
100
AcDbEntity
  8
0
100
AcDbLine
 62
7
  6
CONTINUOUS
 10
95.2321836837
 20
131.9122286224
 11
94.3988506683
 21
131.9122286224
  0
LINE
  5
25C
100
AcDbEntity
  8
0
100
AcDbLine
 62
7
  6
CONTINUOUS
 10
93.8988506683
 20
131.9122286224
 11
92.4821841605
 21
131.9122286224
  0
LINE
  5
25D
100
AcDbEntity
  8
0
100
AcDbLine
 62
7
  6
CONTINUOUS
 10
87.6488506683
 20
130.2952073076
 11
88.1488506683
 21
130.2101009273
  0
LINE
  5
25E
100
AcDbEntity
  8
0
100
AcDbLine
 62
7
  6
CONTINUOUS
 10
97.2321836837
 20
130.2952073076
 11
97.7321836837
 21
130.2101009273
  0
LINE
  5
25F
100
AcDbEntity
  8
0
100
AcDbLine
 62
7
  6
CONTINUOUS
 10
88.1488506683
 20
130.6356328511
 11
87.7321840413
 21
130.7207392239
  0
LINE
  5
260
100
AcDbEntity
  8
0
100
AcDbLine
 62
7
  6
CONTINUOUS
 10
97.7321836837
 20
130.5505264485
 11
97.3155176528
 21
130.6356328511
  0
LINE
  5
261
100
AcDbEntity
  8
0
100
AcDbLine
 62
7
  6
CONTINUOUS
 10
87.2321839817
 20
130.5505264485
 11
87.6488506683
 21
130.2952073076
  0
LINE
  5
262
100
AcDbEntity
  8
0
100
AcDbLine
 62
7
  6
CONTINUOUS
 10
87.7321840413
 20
130.7207392239
 11
87.4821839817
 21
130.8909519696
  0
LINE
  5
263
100
AcDbEntity
  8
0
100
AcDbLine
 62
7
  6
CONTINUOUS
 10
86.9821840115
 20
130.8058455968
 11
87.2321839817
 21
130.5505264485
  0
LINE
  5
264
100
AcDbEntity
  8
0
100
AcDbLine
 62
7
  6
CONTINUOUS
 10
79.9385831251
 20
162.4660808747
 11
79.9401503556
 21
162.3171998719
  0
LINE
  5
265
100
AcDbEntity
  8
0
100
AcDbLine
 62
7
  6
CONTINUOUS
 10
80.2958976794
 20
163.8765332734
 11
80.2990321405
 21
163.5787712678
  0
LINE
  5
266
100
AcDbEntity
  8
0
100
AcDbLine
 62
7
  6
CONTINUOUS
 10
82.6850474079
 20
163.1814938225
 11
82.6819129336
 21
163.4792558413
  0
LINE
  5
267
100
AcDbEntity
  8
0
100
AcDbLine
 62
7
  6
CONTINUOUS
 10
92.7946846374
 20
166.3483987981
 11
92.6905180701
 21
166.188824349
  0
LINE
  5
268
100
AcDbEntity
  8
0
100
AcDbLine
 62
7
  6
CONTINUOUS
 10
95.2946846374
 20
166.3483987981
 11
95.190517772
 21
166.188824349
  0
LINE
  5
269
100
AcDbEntity
  8
0
100
AcDbLine
 62
7
  6
CONTINUOUS
 10
87.7321840413
 20
133.6994626903
 11
88.1488506683
 21
133.7845690631
  0
LINE
  5
26A
100
AcDbEntity
  8
0
100
AcDbLine
 62
7
  6
CONTINUOUS
 10
88.1488506683
 20
134.2101009273
 11
87.6488506683
 21
134.1249945545
  0
LINE
  5
26B
100
AcDbEntity
  8
0
100
AcDbLine
 62
7
  6
CONTINUOUS
 10
95.8988506683
 20
132.5930796051
 11
96.5655176528
 21
132.5930796051
  0
LINE
  5
26C
100
AcDbEntity
  8
0
100
AcDbLine
 62
7
  6
CONTINUOUS
 10
96.9821836837
 20
132.5930796051
 11
97.8988506683
 21
132.5930796051
  0
LINE
  5
26D
100
AcDbEntity
  8
0
100
AcDbLine
 62
7
  6
CONTINUOUS
 10
97.8988506683
 20
132.9335050964
 11
96.9821836837
 21
132.9335050964
  0
LINE
  5
26E
100
AcDbEntity
  8
0
100
AcDbLine
 62
7
  6
CONTINUOUS
 10
96.5655176528
 20
132.9335050964
 11
95.8988506683
 21
132.9335050964
  0
LINE
  5
26F
100
AcDbEntity
  8
0
100
AcDbLine
 62
7
  6
CONTINUOUS
 10
73.7738506683
 20
133.2101009273
 11
74.7453906561
 21
133.2101009273
  0
LINE
  5
270
100
AcDbEntity
  8
0
100
AcDbLine
 62
7
  6
CONTINUOUS
 10
109.8023106804
 20
133.2101009273
 11
110.7738506683
 21
133.2101009273
  0
LINE
  5
271
100
AcDbEntity
  8
0
100
AcDbLine
 62
7
  6
CONTINUOUS
 10
96.9821836837
 20
133.6143563175
 11
96.5655176528
 21
133.6143563175
  0
LINE
  5
272
100
AcDbEntity
  8
0
100
AcDbLine
 62
7
  6
CONTINUOUS
 10
94.3988506683
 20
134.2101009273
 11
93.8988506683
 21
134.2101009273
  0
LINE
  5
273
100
AcDbEntity
  8
0
100
AcDbLine
 62
7
  6
CONTINUOUS
 10
88.6488506683
 20
134.1249945545
 11
88.1488506683
 21
134.2101009273
  0
LINE
  5
274
100
AcDbEntity
  8
0
100
AcDbLine
 62
7
  6
CONTINUOUS
 10
88.1488506683
 20
133.7845690631
 11
88.5655172952
 21
133.6994626903
  0
LINE
  5
275
100
AcDbEntity
  8
0
100
AcDbLine
 62
7
  6
CONTINUOUS
 10
96.9821836837
 20
130.3803136879
 11
97.2321836837
 21
130.2952073076
  0
LINE
  5
276
100
AcDbEntity
  8
0
100
AcDbLine
 62
7
  6
CONTINUOUS
 10
89.0655174144
 20
133.869675436
 11
88.6488506683
 21
134.1249945545
  0
LINE
  5
277
100
AcDbEntity
  8
0
100
AcDbLine
 62
7
  6
CONTINUOUS
 10
88.5655172952
 20
133.6994626903
 11
88.8155174144
 21
133.5292499447
  0
LINE
  5
278
100
AcDbEntity
  8
0
100
AcDbLine
 62
7
  6
CONTINUOUS
 10
89.3155174144
 20
133.6143563175
 11
89.0655174144
 21
133.869675436
  0
LINE
  5
279
100
AcDbEntity
  8
0
100
AcDbLine
 62
7
  6
CONTINUOUS
 10
87.4821839817
 20
130.8909519696
 11
87.1488506683
 21
131.4015902662
  0
LINE
  5
27A
100
AcDbEntity
  8
0
100
AcDbLine
 62
7
  6
CONTINUOUS
 10
86.8155173399
 20
131.1462711477
 11
86.9821840115
 21
130.8058455968
  0
LINE
  5
27B
100
AcDbEntity
  8
0
100
AcDbLine
 62
7
  6
CONTINUOUS
 10
86.7321840041
 20
131.4015902662
 11
86.8155173399
 21
131.1462711477
  0
LINE
  5
27C
100
AcDbEntity
  8
0
100
AcDbLine
 62
7
  6
CONTINUOUS
 10
80.2371288514
 20
162.3885060176
 11
80.1971660525
 21
162.6494396855
  0
LINE
  5
27D
100
AcDbEntity
  8
KONSTRUKTIONSELEMENTE
100
AcDbLine
 62
7
  6
CONTINUOUS
 10
84.1238506683
 20
127.2101009273
 11
84.1238506683
 21
127.0101009273
  0
LINE
  5
27E
100
AcDbEntity
  8
0
100
AcDbLine
 62
7
  6
CONTINUOUS
 10
84.2738506683
 20
143.5101009273
 11
84.2738506683
 21
145.0101009273
  0
LINE
  5
27F
100
AcDbEntity
  8
0
100
AcDbLine
 62
7
  6
CONTINUOUS
 10
90.503017921
 20
167.465420016
 11
90.4509346374
 21
167.305845567
  0
LINE
  5
280
100
AcDbEntity
  8
0
100
AcDbLine
 62
7
  6
CONTINUOUS
 10
90.7634346374
 20
167.2526540839
 11
90.815517921
 21
167.412228533
  0
LINE
  5
281
100
AcDbEntity
  8
0
100
AcDbLine
 62
7
  6
CONTINUOUS
 10
93.0030180701
 20
166.0824413457
 11
93.1071846374
 21
166.2952073151
  0
LINE
  5
282
100
AcDbEntity
  8
0
100
AcDbLine
 62
7
  6
CONTINUOUS
 10
95.503017772
 20
166.0824413457
 11
95.6071846374
 21
166.2952073151
  0
LINE
  5
283
100
AcDbEntity
  8
0
100
AcDbLine
 62
7
  6
CONTINUOUS
 10
96.7321836837
 20
130.5505264485
 11
96.9821836837
 21
130.3803136879
  0
LINE
  5
284
100
AcDbEntity
  8
0
100
AcDbLine
 62
7
  6
CONTINUOUS
 10
97.3155176528
 20
130.6356328511
 11
97.0655176528
 21
130.8058455968
  0
LINE
  5
285
100
AcDbEntity
  8
0
100
AcDbLine
 62
7
  6
CONTINUOUS
 10
88.8155174144
 20
133.5292499447
 11
89.1488506683
 21
133.0186114692
  0
LINE
  5
286
100
AcDbEntity
  8
0
100
AcDbLine
 62
7
  6
CONTINUOUS
 10
89.4821839221
 20
133.2739308262
 11
89.3155174144
 21
133.6143563175
  0
LINE
  5
287
100
AcDbEntity
  8
0
100
AcDbLine
 62
7
  6
CONTINUOUS
 10
89.5655174144
 20
133.0186114692
 11
89.4821839221
 21
133.2739308262
  0
LINE
  5
288
100
AcDbEntity
  8
0
100
AcDbLine
 62
7
  6
CONTINUOUS
 10
86.6488506683
 20
131.8271222496
 11
86.7321840041
 21
131.4015902662
  0
LINE
  5
289
100
AcDbEntity
  8
0
100
AcDbLine
 62
7
  6
CONTINUOUS
 10
87.1488506683
 20
131.4015902662
 11
87.065517325
 21
131.9122286224
  0
LINE
  5
28A
100
AcDbEntity
  8
0
100
AcDbLine
 62
7
  6
CONTINUOUS
 10
86.6488506683
 20
132.5930796051
 11
86.6488506683
 21
131.8271222496
  0
LINE
  5
28B
100
AcDbEntity
  8
0
100
AcDbLine
 62
7
  6
CONTINUOUS
 10
87.065517325
 20
131.9122286224
 11
87.065517325
 21
132.5079732322
  0
LINE
  5
28C
100
AcDbEntity
  8
KONSTRUKTIONSELEMENTE
100
AcDbLine
 62
7
  6
CONTINUOUS
 10
87.2738506683
 20
127.0101009273
 11
87.2738506683
 21
113.0101009273
  0
LINE
  5
28D
100
AcDbEntity
  8
0
100
AcDbLine
 62
7
  6
CONTINUOUS
 10
88.86748408
 20
143.0101009273
 11
88.86748408
 21
138.4993140291
  0
LINE
  5
28E
100
AcDbEntity
  8
0
100
AcDbLine
 62
7
  6
CONTINUOUS
 10
88.8884346374
 20
168.2101009273
 11
88.8884346374
 21
165.7101009273
  0
LINE
  5
28F
100
AcDbEntity
  8
BEZUGSACHSEN
100
AcDbLine
 62
7
  6
CONTINUOUS
 10
89.1668076762
 20
143.0101009273
 11
89.1668076762
 21
138.4633828263
  0
LINE
  5
290
100
AcDbEntity
  8
0
100
AcDbLine
 62
7
  6
CONTINUOUS
 10
89.2009346374
 20
165.7101009273
 11
89.2009346374
 21
166.8271222198
  0
LINE
  5
291
100
AcDbEntity
  8
0
100
AcDbLine
 62
7
  6
CONTINUOUS
 10
89.2009346374
 20
167.1462711179
 11
89.2009346374
 21
167.9441435122
  0
LINE
  5
292
100
AcDbEntity
  8
0
100
AcDbLine
 62
7
  6
CONTINUOUS
 10
89.2321839221
 20
132.5079732322
 11
89.2321839221
 21
131.9122286224
  0
LINE
  5
293
100
AcDbEntity
  8
0
100
AcDbLine
 62
7
  6
CONTINUOUS
 10
87.065517325
 20
132.5079732322
 11
87.1488506683
 21
133.0186114692
  0
LINE
  5
294
100
AcDbEntity
  8
0
100
AcDbLine
 62
7
  6
CONTINUOUS
 10
93.1071846374
 20
166.2952073151
 11
93.1592680701
 21
166.5611647302
  0
LINE
  5
295
100
AcDbEntity
  8
0
100
AcDbLine
 62
7
  6
CONTINUOUS
 10
86.7321840041
 20
133.0186114692
 11
86.6488506683
 21
132.5930796051
  0
LINE
  5
296
100
AcDbEntity
  8
0
100
AcDbLine
 62
7
  6
CONTINUOUS
 10
92.8467680701
 20
166.5611647302
 11
92.7946846374
 21
166.3483987981
  0
LINE
  5
297
100
AcDbEntity
  8
0
100
AcDbLine
 62
7
  6
CONTINUOUS
 10
103.9866841108
 20
161.54848412
 11
104.2503478686
 21
161.8121478778
  0
LINE
  5
298
100
AcDbEntity
  8
0
100
AcDbLine
 62
7
  6
CONTINUOUS
 10
105.4812012311
 20
163.0430012403
 11
105.7448649889
 21
163.3066649981
  0
LINE
  5
299
100
AcDbEntity
  8
0
100
AcDbLine
 62
7
  6
CONTINUOUS
 10
79.8625754985
 20
162.6157455982
 11
79.9385831251
 21
162.4660808747
  0
LINE
  5
29A
100
AcDbEntity
  8
0
100
AcDbLine
 62
7
  6
CONTINUOUS
 10
79.0782071587
 20
159.3489811969
 11
77.8996958216
 21
161.7060037658
  0
LINE
  5
29B
100
AcDbEntity
  8
0
100
AcDbLine
 62
7
  6
CONTINUOUS
 10
77.6787249525
 20
161.4850328966
 11
78.705220852
 21
159.427339643
  0
LINE
  5
29C
100
AcDbEntity
  8
0
100
AcDbLine
 62
7
  6
CONTINUOUS
 10
82.6819129336
 20
163.4792558413
 11
82.6051217707
 21
163.7033611979
  0
LINE
  5
29D
100
AcDbEntity
  8
0
100
AcDbLine
 62
7
  6
CONTINUOUS
 10
82.3465388432
 20
163.5200023871
 11
82.3857179214
 21
163.3335091152
  0
LINE
  5
29E
100
AcDbEntity
  8
0
100
AcDbLine
 62
7
  6
CONTINUOUS
 10
89.6488506683
 20
132.5930796051
 11
89.5655174144
 21
133.0186114692
  0
LINE
  5
29F
100
AcDbEntity
  8
0
100
AcDbLine
 62
7
  6
CONTINUOUS
 10
89.1488506683
 20
133.0186114692
 11
89.2321839221
 21
132.5079732322
  0
LINE
  5
2A0
100
AcDbEntity
  8
0
100
AcDbLine
 62
7
  6
CONTINUOUS
 10
89.6488506683
 20
131.8271222496
 11
89.6488506683
 21
132.5930796051
  0
LINE
  5
2A1
100
AcDbEntity
  8
0
100
AcDbLine
 62
7
  6
CONTINUOUS
 10
89.7738506683
 20
145.5101009273
 11
89.7738506683
 21
145.8101009273
  0
LINE
  5
2A2
100
AcDbEntity
  8
BEZUGSACHSEN
100
AcDbLine
 62
7
  6
CONTINUOUS
 10
90.271343778
 20
143.0101009273
 11
90.271343778
 21
138.3352598595
  0
LINE
  5
2A3
100
AcDbEntity
  8
0
100
AcDbLine
 62
7
  6
CONTINUOUS
 10
90.503017921
 20
167.6249946141
 11
90.503017921
 21
167.465420016
  0
LINE
  5
2A4
100
AcDbEntity
  8
0
100
AcDbLine
 62
7
  6
CONTINUOUS
 10
90.5706673742
 20
143.0101009273
 11
90.5706673742
 21
138.3047352956
  0
LINE
  5
2A5
100
AcDbEntity
  8
0
100
AcDbLine
 62
7
  6
CONTINUOUS
 10
90.815517921
 20
167.412228533
 11
90.815517921
 21
167.6249946141
  0
LINE
  5
2A6
100
AcDbEntity
  8
BEZUGSACHSEN
100
AcDbLine
 62
7
  6
CONTINUOUS
 10
91.1693145665
 20
143.0101009273
 11
91.1693145665
 21
138.2555078552
  0
LINE
  5
2A7
100
AcDbEntity
  8
0
100
AcDbLine
 62
7
  6
CONTINUOUS
 10
91.284267921
 20
168.2101009273
 11
91.284267921
 21
166.5611647302
  0
LINE
  5
2A8
100
AcDbEntity
  8
0
100
AcDbLine
 62
7
  6
CONTINUOUS
 10
91.5967680701
 20
166.5611647302
 11
91.5967680701
 21
168.2101009273
  0
LINE
  5
2A9
100
AcDbEntity
  8
0
100
AcDbLine
 62
7
  6
CONTINUOUS
 10
91.8988506683
 20
131.9122286224
 11
91.8988506683
 21
131.4015902662
  0
LINE
  5
2AA
100
AcDbEntity
  8
0
100
AcDbLine
 62
7
  6
CONTINUOUS
 10
92.2738506683
 20
145.5101009273
 11
92.2738506683
 21
145.8101009273
  0
LINE
  5
2AB
100
AcDbEntity
  8
0
100
AcDbLine
 62
7
  6
CONTINUOUS
 10
89.2321839221
 20
131.9122286224
 11
89.1488506683
 21
131.4015902662
  0
LINE
  5
2AC
100
AcDbEntity
  8
0
100
AcDbLine
 62
7
  6
CONTINUOUS
 10
95.6071846374
 20
166.2952073151
 11
95.659267772
 21
166.5611647302
  0
LINE
  5
2AD
100
AcDbEntity
  8
0
100
AcDbLine
 62
7
  6
CONTINUOUS
 10
89.5655174144
 20
131.4015902662
 11
89.6488506683
 21
131.8271222496
  0
LINE
  5
2AE
100
AcDbEntity
  8
0
100
AcDbLine
 62
7
  6
CONTINUOUS
 10
95.346767772
 20
166.5611647302
 11
95.2946846374
 21
166.3483987981
  0
LINE
  5
2AF
100
AcDbEntity
  8
0
100
AcDbLine
 62
7
  6
CONTINUOUS
 10
86.8155173399
 20
133.2739308262
 11
86.7321840041
 21
133.0186114692
  0
LINE
  5
2B0
100
AcDbEntity
  8
0
100
AcDbLine
 62
7
  6
CONTINUOUS
 10
86.9821840115
 20
133.6143563175
 11
86.8155173399
 21
133.2739308262
  0
LINE
  5
2B1
100
AcDbEntity
  8
0
100
AcDbLine
 62
7
  6
CONTINUOUS
 10
106.0475764983
 20
160.9770720338
 11
106.3112402561
 21
161.2407357915
  0
LINE
  5
2B2
100
AcDbEntity
  8
0
100
AcDbLine
 62
7
  6
CONTINUOUS
 10
105.4866841108
 20
160.04848412
 11
105.7503478686
 21
160.3121478778
  0
LINE
  5
2B3
100
AcDbEntity
  8
0
100
AcDbLine
 62
7
  6
CONTINUOUS
 10
106.9812012311
 20
161.5430012403
 11
107.2448649889
 21
161.8066649981
  0
LINE
  5
2B4
100
AcDbEntity
  8
RUNDUNGEN
100
AcDbLine
 62
7
  6
CONTINUOUS
 10
118.2738506683
 20
143.0101009273
 11
84.7744507337
 21
143.0101009273
  0
LINE
  5
2B5
100
AcDbEntity
  8
0
100
AcDbLine
 62
7
  6
CONTINUOUS
 10
80.2990321405
 20
163.5787712678
 11
80.4126516147
 21
163.3914942752
  0
LINE
  5
2B6
100
AcDbEntity
  8
0
100
AcDbLine
 62
7
  6
CONTINUOUS
 10
80.1971660525
 20
162.6494396855
 11
80.1211584259
 21
162.799104409
  0
LINE
  5
2B7
100
AcDbEntity
  8
0
100
AcDbLine
 62
7
  6
CONTINUOUS
 10
80.6712346475
 20
163.5748529806
 11
80.5952271263
 21
163.7245180202
  0
LINE
  5
2B8
100
AcDbEntity
  8
0
100
AcDbLine
 62
7
  6
CONTINUOUS
 10
96.5655176528
 20
130.8909519696
 11
96.7321836837
 21
130.5505264485
  0
LINE
  5
2B9
100
AcDbEntity
  8
0
100
AcDbLine
 62
7
  6
CONTINUOUS
 10
97.0655176528
 20
130.8058455968
 11
96.9821836837
 21
131.0611647749
  0
LINE
  5
2BA
100
AcDbEntity
  8
0
100
AcDbLine
 62
7
  6
CONTINUOUS
 10
92.8467680701
 20
168.2101009273
 11
92.8467680701
 21
166.5611647302
  0
LINE
  5
2BB
100
AcDbEntity
  8
0
100
AcDbLine
 62
7
  6
CONTINUOUS
 10
93.1592680701
 20
166.5611647302
 11
93.1592680701
 21
168.2101009273
  0
LINE
  5
2BC
100
AcDbEntity
  8
BEZUGSACHSEN
100
AcDbLine
 62
7
  6
CONTINUOUS
 10
93.37838677
 20
143.0101009273
 11
93.37838677
 21
138.2555140399
  0
LINE
  5
2BD
100
AcDbEntity
  8
0
100
AcDbLine
 62
7
  6
CONTINUOUS
 10
93.5759346374
 20
168.2101009273
 11
93.5759346374
 21
165.7101009273
  0
LINE
  5
2BE
100
AcDbEntity
  8
0
100
AcDbLine
 62
7
  6
CONTINUOUS
 10
93.8884346374
 20
166.0292498627
 11
93.8884346374
 21
167.8909520292
  0
LINE
  5
2BF
100
AcDbEntity
  8
0
100
AcDbLine
 62
7
  6
CONTINUOUS
 10
93.8988506683
 20
133.5292499447
 11
93.8988506683
 21
131.9122286224
  0
LINE
  5
2C0
100
AcDbEntity
  8
0
100
AcDbLine
 62
7
  6
CONTINUOUS
 10
93.8988506683
 20
131.4015902662
 11
93.8988506683
 21
130.2101009273
  0
LINE
  5
2C1
100
AcDbEntity
  8
0
100
AcDbLine
 62
7
  6
CONTINUOUS
 10
93.9770339624
 20
143.0101009273
 11
93.9770339624
 21
138.3047352115
  0
LINE
  5
2C2
100
AcDbEntity
  8
BEZUGSACHSEN
100
AcDbLine
 62
7
  6
CONTINUOUS
 10
94.2763575586
 20
143.0101009273
 11
94.2763575586
 21
138.3352604783
  0
LINE
  5
2C3
100
AcDbEntity
  8
0
100
AcDbLine
 62
7
  6
CONTINUOUS
 10
94.3988506683
 20
130.2101009273
 11
94.3988506683
 21
131.4015902662
  0
LINE
  5
2C4
100
AcDbEntity
  8
0
100
AcDbLine
 62
7
  6
CONTINUOUS
 10
94.3988506683
 20
131.9122286224
 11
94.3988506683
 21
134.2101009273
  0
LINE
  5
2C5
100
AcDbEntity
  8
0
100
AcDbLine
 62
7
  6
CONTINUOUS
 10
94.7738506683
 20
145.5101009273
 11
94.7738506683
 21
145.8101009273
  0
LINE
  5
2C6
100
AcDbEntity
  8
0
100
AcDbLine
 62
7
  6
CONTINUOUS
 10
95.2321836837
 20
131.4015902662
 11
95.2321836837
 21
131.9122286224
  0
LINE
  5
2C7
100
AcDbEntity
  8
0
100
AcDbLine
 62
7
  6
CONTINUOUS
 10
95.346767772
 20
167.35903705
 11
95.346767772
 21
166.5611647302
  0
LINE
  5
2C8
100
AcDbEntity
  8
BEZUGSACHSEN
100
AcDbLine
 62
7
  6
CONTINUOUS
 10
95.3808936603
 20
143.0101009273
 11
95.3808936603
 21
138.4633827168
  0
LINE
  5
2C9
100
AcDbEntity
  8
0
100
AcDbLine
 62
7
  6
CONTINUOUS
 10
95.659267772
 20
166.5611647302
 11
95.659267772
 21
167.35903705
  0
LINE
  5
2CA
100
AcDbEntity
  8
0
100
AcDbLine
 62
7
  6
CONTINUOUS
 10
95.6802172565
 20
143.0101009273
 11
95.6802172565
 21
138.4993138924
  0
LINE
  5
2CB
100
AcDbEntity
  8
0
100
AcDbLine
 62
7
  6
CONTINUOUS
 10
89.4821839221
 20
131.1462711477
 11
89.5655174144
 21
131.4015902662
  0
LINE
  5
2CC
100
AcDbEntity
  8
0
100
AcDbLine
 62
7
  6
CONTINUOUS
 10
89.3155174144
 20
130.8058455968
 11
89.4821839221
 21
131.1462711477
  0
LINE
  5
2CD
100
AcDbEntity
  8
0
100
AcDbLine
 62
7
  6
CONTINUOUS
 10
87.1488506683
 20
133.0186114692
 11
87.4821839817
 21
133.5292499447
  0
LINE
  5
2CE
100
AcDbEntity
  8
RUNDUNGEN
100
AcDbLine
 62
7
  6
CONTINUOUS
 10
84.7744507336
 20
145.5101009273
 11
118.2738506683
 21
145.5101009273
  0
LINE
  5
2CF
100
AcDbEntity
  8
0
100
AcDbLine
 62
7
  6
CONTINUOUS
 10
89.7738506683
 20
145.8101009273
 11
94.7738506683
 21
145.8101009273
  0
LINE
  5
2D0
100
AcDbEntity
  8
0
100
AcDbLine
 62
7
  6
CONTINUOUS
 10
78.1943236822
 20
162.0006316264
 11
79.9620906352
 21
160.2328646734
  0
LINE
  5
2D1
100
AcDbEntity
  8
0
100
AcDbLine
 62
7
  6
CONTINUOUS
 10
80.1830615043
 20
160.4538355425
 11
79.3932081737
 21
161.2436888731
  0
LINE
  5
2D2
100
AcDbEntity
  8
0
100
AcDbLine
 62
7
  6
CONTINUOUS
 10
79.1675358236
 20
161.4693612232
 11
78.6033548431
 21
162.0335422038
  0
LINE
  5
2D3
100
AcDbEntity
  8
0
100
AcDbLine
 62
7
  6
CONTINUOUS
 10
91.284267921
 20
166.5611647302
 11
91.3363513537
 21
166.2952073151
  0
LINE
  5
2D4
100
AcDbEntity
  8
0
100
AcDbLine
 62
7
  6
CONTINUOUS
 10
95.8988506683
 20
132.9335050964
 11
95.8988506683
 21
132.5930796051
  0
LINE
  5
2D5
100
AcDbEntity
  8
0
100
AcDbLine
 62
7
  6
CONTINUOUS
 10
96.5655176528
 20
133.6143563175
 11
96.5655176528
 21
132.9335050964
  0
LINE
  5
2D6
100
AcDbEntity
  8
0
100
AcDbLine
 62
7
  6
CONTINUOUS
 10
96.5655176528
 20
132.5930796051
 11
96.5655176528
 21
130.8909519696
  0
LINE
  5
2D7
100
AcDbEntity
  8
0
100
AcDbLine
 62
7
  6
CONTINUOUS
 10
96.9821836837
 20
131.0611647749
 11
96.9821836837
 21
132.5930796051
  0
LINE
  5
2D8
100
AcDbEntity
  8
0
100
AcDbLine
 62
7
  6
CONTINUOUS
 10
96.9821836837
 20
132.9335050964
 11
96.9821836837
 21
133.6143563175
  0
LINE
  5
2D9
100
AcDbEntity
  8
KONSTRUKTIONSELEMENTE
100
AcDbLine
 62
7
  6
CONTINUOUS
 10
97.2738506683
 20
127.0101009273
 11
97.2738506683
 21
113.0101009273
  0
LINE
  5
2DA
100
AcDbEntity
  8
0
100
AcDbLine
 62
7
  6
CONTINUOUS
 10
97.7321836837
 20
130.2101009273
 11
97.7321836837
 21
130.5505264485
  0
LINE
  5
2DB
100
AcDbEntity
  8
0
100
AcDbLine
 62
7
  6
CONTINUOUS
 10
97.8988506683
 20
132.5930796051
 11
97.8988506683
 21
132.9335050964
  0
LINE
  5
2DC
100
AcDbEntity
  8
0
100
AcDbLine
 62
7
  6
CONTINUOUS
 10
90.815517176
 20
130.6356328511
 11
90.3155174144
 21
129.6994626307
  0
LINE
  5
2DD
100
AcDbEntity
  8
0
100
AcDbLine
 62
7
  6
CONTINUOUS
 10
90.7321841605
 20
129.6994626307
 11
91.2321841605
 21
130.6356328511
  0
LINE
  5
2DE
100
AcDbEntity
  8
0
100
AcDbLine
 62
7
  6
CONTINUOUS
 10
89.1488506683
 20
131.4015902662
 11
88.8155174144
 21
130.8909519696
  0
LINE
  5
2DF
100
AcDbEntity
  8
0
100
AcDbLine
 62
7
  6
CONTINUOUS
 10
87.2321839817
 20
133.869675436
 11
86.9821840115
 21
133.6143563175
  0
LINE
  5
2E0
100
AcDbEntity
  8
0
100
AcDbLine
 62
7
  6
CONTINUOUS
 10
87.4821839817
 20
133.5292499447
 11
87.7321840413
 21
133.6994626903
  0
LINE
  5
2E1
100
AcDbEntity
  8
0
100
AcDbLine
 62
7
  6
CONTINUOUS
 10
87.6488506683
 20
134.1249945545
 11
87.2321839817
 21
133.869675436
  0
LINE
  5
2E2
100
AcDbEntity
  8
0
100
AcDbLine
 62
7
  6
CONTINUOUS
 10
79.7497392181
 20
162.7285818786
 11
79.8625754985
 21
162.6157455982
  0
LINE
  5
2E3
100
AcDbEntity
  8
0
100
AcDbLine
 62
7
  6
CONTINUOUS
 10
80.1211584259
 20
162.799104409
 11
79.9707100872
 21
162.9495527477
  0
LINE
  5
2E4
100
AcDbEntity
  8
0
100
AcDbLine
 62
7
  6
CONTINUOUS
 10
80.4126516147
 20
163.3914942752
 11
80.5630999534
 21
163.2410459365
  0
LINE
  5
2E5
100
AcDbEntity
  8
0
100
AcDbLine
 62
7
  6
CONTINUOUS
 10
80.7464587642
 20
163.499628864
 11
80.6712346475
 21
163.5748529806
  0
LINE
  5
2E6
100
AcDbEntity
  8
0
100
AcDbLine
 62
7
  6
CONTINUOUS
 10
82.2337026682
 20
163.6328385621
 11
82.3465388432
 21
163.5200023871
  0
LINE
  5
2E7
100
AcDbEntity
  8
0
100
AcDbLine
 62
7
  6
CONTINUOUS
 10
82.6051217707
 20
163.7033611979
 11
82.417061479
 21
163.8914214896
  0
LINE
  5
2E8
100
AcDbEntity
  8
0
100
AcDbLine
 62
7
  6
CONTINUOUS
 10
90.8676013537
 20
165.7101009273
 11
90.3988513537
 21
166.9335051858
  0
LINE
  5
2E9
100
AcDbEntity
  8
0
100
AcDbLine
 62
7
  6
CONTINUOUS
 10
90.0863512792
 20
166.8271222198
 11
90.503017921
 21
165.7101009273
  0
LINE
  5
2EA
100
AcDbEntity
  8
0
100
AcDbLine
 62
7
  6
CONTINUOUS
 10
90.4509346374
 20
167.7845690632
 11
90.503017921
 21
167.6249946141
  0
LINE
  5
2EB
100
AcDbEntity
  8
0
100
AcDbLine
 62
7
  6
CONTINUOUS
 10
90.815517921
 20
167.6249946141
 11
90.7634346374
 21
167.7845690632
  0
LINE
  5
2EC
100
AcDbEntity
  8
0
100
AcDbLine
 62
7
  6
CONTINUOUS
 10
91.6488512047
 20
166.3483987981
 11
91.5967680701
 21
166.5611647302
  0
LINE
  5
2ED
100
AcDbEntity
  8
KONSTRUKTIONSELEMENTE
100
AcDbLine
 62
7
  6
CONTINUOUS
 10
100.4238506683
 20
127.2101009273
 11
100.4238506683
 21
127.0101009273
  0
LINE
  5
2EE
100
AcDbEntity
  8
0
100
AcDbLine
 62
7
  6
CONTINUOUS
 10
93.8988506683
 20
134.2101009273
 11
91.8988506683
 21
131.9122286224
  0
LINE
  5
2EF
100
AcDbEntity
  8
0
100
AcDbLine
 62
7
  6
CONTINUOUS
 10
92.4821841605
 20
131.9122286224
 11
93.8988506683
 21
133.5292499447
  0
LINE
  5
2F0
100
AcDbEntity
  8
0
100
AcDbLine
 62
7
  6
CONTINUOUS
 10
89.0655174144
 20
130.5505264485
 11
89.3155174144
 21
130.8058455968
  0
LINE
  5
2F1
100
AcDbEntity
  8
0
100
AcDbLine
 62
7
  6
CONTINUOUS
 10
88.8155174144
 20
130.8909519696
 11
88.5655172952
 21
130.7207392239
  0
LINE
  5
2F2
100
AcDbEntity
  8
0
100
AcDbLine
 62
7
  6
CONTINUOUS
 10
78.705220852
 20
159.427339643
 11
76.6475275984
 21
160.4538355425
  0
LINE
  5
2F3
100
AcDbEntity
  8
0
100
AcDbLine
 62
7
  6
CONTINUOUS
 10
76.4265567293
 20
160.2328646734
 11
78.7835793508
 21
159.054353389
  0
LINE
  5
2F4
100
AcDbEntity
  8
0
100
AcDbLine
 62
7
  6
CONTINUOUS
 10
81.1672438909
 20
162.4159315514
 11
81.3545204619
 21
162.3023116557
  0
LINE
  5
2F5
100
AcDbEntity
  8
0
100
AcDbLine
 62
7
  6
CONTINUOUS
 10
80.5630999534
 20
163.2410459365
 11
80.750376946
 21
163.1274264623
  0
LINE
  5
2F6
100
AcDbEntity
  8
0
100
AcDbLine
 62
7
  6
CONTINUOUS
 10
91.3363513537
 20
166.2952073151
 11
91.4405180701
 21
166.0824413457
  0
LINE
  5
2F7
100
AcDbEntity
  8
0
100
AcDbLine
 62
7
  6
CONTINUOUS
 10
95.2946846374
 20
167.5718029821
 11
95.346767772
 21
167.35903705
  0
LINE
  5
2F8
100
AcDbEntity
  8
0
100
AcDbLine
 62
7
  6
CONTINUOUS
 10
95.659267772
 20
167.35903705
 11
95.6071846374
 21
167.6249946141
  0
LINE
  5
2F9
100
AcDbEntity
  8
0
100
AcDbLine
 62
7
  6
CONTINUOUS
 10
88.6488506683
 20
130.2952073076
 11
89.0655174144
 21
130.5505264485
  0
LINE
  5
2FA
100
AcDbEntity
  8
0
100
AcDbLine
 62
7
  6
CONTINUOUS
 10
81.3615727361
 20
161.6323467743
 11
80.1650389851
 21
162.1659679179
  0
LINE
  5
2FB
100
AcDbEntity
  8
0
100
AcDbLine
 62
7
  6
CONTINUOUS
 10
80.0192922326
 20
161.8697729321
 11
81.1037735292
 21
161.3745475674
  0
LINE
  5
2FC
100
AcDbEntity
  8
0
100
AcDbLine
 62
7
  6
CONTINUOUS
 10
79.6000744946
 20
162.8045895052
 11
79.7497392181
 21
162.7285818786
  0
LINE
  5
2FD
100
AcDbEntity
  8
0
100
AcDbLine
 62
7
  6
CONTINUOUS
 10
79.9707100872
 20
162.9495527477
 11
79.8210453637
 21
163.0255603743
  0
LINE
  5
2FE
100
AcDbEntity
  8
0
100
AcDbLine
 62
7
  6
CONTINUOUS
 10
81.5378794835
 20
162.5608947939
 11
81.3882145493
 21
162.6369022098
  0
LINE
  5
2FF
100
AcDbEntity
  8
0
100
AcDbLine
 62
7
  6
CONTINUOUS
 10
80.8961236984
 20
163.4236214481
 11
80.7464587642
 21
163.499628864
  0
LINE
  5
300
100
AcDbEntity
  8
0
100
AcDbLine
 62
7
  6
CONTINUOUS
 10
81.5543347195
 20
164.53317738
 11
81.4046697853
 21
164.6091847959
  0
LINE
  5
301
100
AcDbEntity
  8
0
100
AcDbLine
 62
7
  6
CONTINUOUS
 10
90.7634346374
 20
167.7845690632
 11
90.6071846374
 21
167.9973349952
  0
LINE
  5
302
100
AcDbEntity
  8
0
100
AcDbLine
 62
7
  6
CONTINUOUS
 10
91.7530180701
 20
166.188824349
 11
91.6488512047
 21
166.3483987981
  0
LINE
  5
303
100
AcDbEntity
  8
0
100
AcDbLine
 62
7
  6
CONTINUOUS
 10
95.6071846374
 20
167.6249946141
 11
95.503017772
 21
167.8377605462
  0
LINE
  5
304
100
AcDbEntity
  8
0
100
AcDbLine
 62
7
  6
CONTINUOUS
 10
79.8210453637
 20
163.0255603743
 11
79.5601116958
 21
163.0655231732
  0
LINE
  5
305
100
AcDbEntity
  8
0
100
AcDbLine
 62
7
  6
CONTINUOUS
 10
81.3545204619
 20
162.3023116557
 11
81.6530664385
 21
162.2247369698
  0
LINE
  5
306
100
AcDbEntity
  8
0
100
AcDbLine
 62
7
  6
CONTINUOUS
 10
82.417061479
 20
163.8914214896
 11
82.1929560961
 21
163.9682126788
  0
LINE
  5
307
100
AcDbEntity
  8
0
100
AcDbLine
 62
7
  6
CONTINUOUS
 10
81.2213109745
 20
164.3506018684
 11
81.3333638503
 21
164.3122065109
  0
LINE
  5
308
100
AcDbEntity
  8
0
100
AcDbLine
 62
7
  6
CONTINUOUS
 10
91.4405180701
 20
166.0824413457
 11
91.6488512047
 21
165.869675395
  0
LINE
  5
309
100
AcDbEntity
  8
0
100
AcDbLine
 62
7
  6
CONTINUOUS
 10
90.346767921
 20
167.8909520292
 11
90.4509346374
 21
167.7845690632
  0
LINE
  5
30A
100
AcDbEntity
  8
0
100
AcDbLine
 62
7
  6
CONTINUOUS
 10
95.190517772
 20
167.7313775801
 11
95.2946846374
 21
167.5718029821
  0
LINE
  5
30B
100
AcDbEntity
  8
RUNDUNGEN
100
AcDbLine
 62
7
  6
CONTINUOUS
 10
111.7738506683
 20
139.6357462259
 11
111.7738506683
 21
134.2101009273
  0
LINE
  5
30C
100
AcDbEntity
  8
BEZUGSACHSEN
100
AcDbLine
 62
7
  6
CONTINUOUS
 10
111.7738506683
 20
139.6357438874
 11
111.7738506683
 21
134.2101009273
  0
LINE
  5
30D
100
AcDbEntity
  8
0
100
AcDbLine
 62
7
  6
CONTINUOUS
 10
81.7612011194
 20
162.5585440271
 11
81.5378794835
 21
162.5608947939
  0
LINE
  5
30E
100
AcDbEntity
  8
0
100
AcDbLine
 62
7
  6
CONTINUOUS
 10
79.4511934918
 20
162.8061567358
 11
79.6000744946
 21
162.8045895052
  0
LINE
  5
30F
100
AcDbEntity
  8
0
100
AcDbLine
 62
7
  6
CONTINUOUS
 10
80.750376946
 20
163.1274264623
 11
81.0481389516
 21
163.1242920012
  0
LINE
  5
310
100
AcDbEntity
  8
0
100
AcDbLine
 62
7
  6
CONTINUOUS
 10
82.1929560961
 20
163.9682126788
 11
81.8951940904
 21
163.9713471399
  0
LINE
  5
311
100
AcDbEntity
  8
0
100
AcDbLine
 62
7
  6
CONTINUOUS
 10
81.4046697853
 20
164.6091847959
 11
81.1437361173
 21
164.6491475947
  0
LINE
  5
312
100
AcDbEntity
  8
0
100
AcDbLine
 62
7
  6
CONTINUOUS
 10
82.0472093436
 20
163.672017693
 11
82.2337026682
 21
163.6328385621
  0
LINE
  5
313
100
AcDbEntity
  8
0
100
AcDbLine
 62
7
  6
CONTINUOUS
 10
91.6488512047
 20
165.869675395
 11
91.8571846374
 21
165.763292415
  0
LINE
  5
314
100
AcDbEntity
  8
0
100
AcDbLine
 62
7
  6
CONTINUOUS
 10
91.9092680701
 20
166.0824413457
 11
91.7530180701
 21
166.188824349
  0
LINE
  5
315
100
AcDbEntity
  8
0
100
AcDbLine
 62
7
  6
CONTINUOUS
 10
90.6071846374
 20
167.9973349952
 11
90.3988513537
 21
168.1569094443
  0
LINE
  5
316
100
AcDbEntity
  8
0
100
AcDbLine
 62
7
  6
CONTINUOUS
 10
95.503017772
 20
167.8377605462
 11
95.2946846374
 21
168.0505264783
  0
LINE
  5
317
100
AcDbEntity
  8
BEZUGSACHSEN
100
AcDbLine
 62
7
  6
CONTINUOUS
 10
115.5299308527
 20
148.6509251571
 11
114.2289588597
 21
145.5101009273
  0
LINE
  5
318
100
AcDbEntity
  8
BEZUGSACHSEN
100
AcDbLine
 62
7
  6
CONTINUOUS
 10
113.1934249538
 20
143.0101009273
 11
111.8499711358
 21
139.7667164995
  0
LINE
  5
319
100
AcDbEntity
  8
BEZUGSACHSEN
100
AcDbLine
 62
7
  6
CONTINUOUS
 10
108.8784311479
 20
132.5927843597
 11
108.6686941687
 21
132.0864344999
  0
LINE
  5
31A
100
AcDbEntity
  8
0
100
AcDbLine
 62
7
  6
CONTINUOUS
 10
95.034267772
 20
166.0824413457
 11
94.8259346374
 21
166.0292498627
  0
LINE
  5
31B
100
AcDbEntity
  8
0
100
AcDbLine
 62
7
  6
CONTINUOUS
 10
92.5342680701
 20
166.0824413457
 11
92.3259346374
 21
166.0292498627
  0
LINE
  5
31C
100
AcDbEntity
  8
0
100
AcDbLine
 62
7
  6
CONTINUOUS
 10
81.6530664385
 20
162.2247369698
 11
81.9500447333
 21
162.2960428948
  0
LINE
  5
31D
100
AcDbEntity
  8
0
100
AcDbLine
 62
7
  6
CONTINUOUS
 10
94.8259346374
 20
165.7101009273
 11
95.0863515027
 21
165.763292415
  0
LINE
  5
31E
100
AcDbEntity
  8
0
100
AcDbLine
 62
7
  6
CONTINUOUS
 10
92.3259346374
 20
165.7101009273
 11
92.5863512047
 21
165.763292415
  0
LINE
  5
31F
100
AcDbEntity
  8
0
100
AcDbLine
 62
7
  6
CONTINUOUS
 10
81.0818332497
 20
163.458882766
 11
80.8961236984
 21
163.4236214481
  0
LINE
  5
320
100
AcDbEntity
  8
0
100
AcDbLine
 62
7
  6
CONTINUOUS
 10
81.8614997924
 20
163.6367563751
 11
82.0472093436
 21
163.672017693
  0
LINE
  5
321
100
AcDbEntity
  8
0
100
AcDbLine
 62
7
  6
CONTINUOUS
 10
79.5601116958
 20
163.0655231732
 11
79.2999615378
 21
163.0310453652
  0
LINE
  5
322
100
AcDbEntity
  8
0
100
AcDbLine
 62
7
  6
CONTINUOUS
 10
81.1437361173
 20
164.6491475947
 11
80.88358617
 21
164.6146699975
  0
LINE
  5
323
100
AcDbEntity
  8
0
100
AcDbLine
 62
7
  6
CONTINUOUS
 10
88.8884346374
 20
165.7101009273
 11
89.2009346374
 21
165.7101009273
  0
LINE
  5
324
100
AcDbEntity
  8
0
100
AcDbLine
 62
7
  6
CONTINUOUS
 10
90.503017921
 20
165.7101009273
 11
90.8676013537
 21
165.7101009273
  0
LINE
  5
325
100
AcDbEntity
  8
0
100
AcDbLine
 62
7
  6
CONTINUOUS
 10
92.1176012047
 20
165.7101009273
 11
92.3259346374
 21
165.7101009273
  0
LINE
  5
326
100
AcDbEntity
  8
0
100
AcDbLine
 62
7
  6
CONTINUOUS
 10
93.5759346374
 20
165.7101009273
 11
94.8259346374
 21
165.7101009273
  0
LINE
  5
327
100
AcDbEntity
  8
0
100
AcDbLine
 62
7
  6
CONTINUOUS
 10
94.8259346374
 20
166.0292498627
 11
93.8884346374
 21
166.0292498627
  0
LINE
  5
328
100
AcDbEntity
  8
0
100
AcDbLine
 62
7
  6
CONTINUOUS
 10
92.3259346374
 20
166.0292498627
 11
92.1176012047
 21
166.0292498627
  0
LINE
  5
329
100
AcDbEntity
  8
0
100
AcDbLine
 62
7
  6
CONTINUOUS
 10
89.2009346374
 20
166.8271222198
 11
90.0863512792
 21
166.8271222198
  0
LINE
  5
32A
100
AcDbEntity
  8
0
100
AcDbLine
 62
7
  6
CONTINUOUS
 10
90.190517921
 20
167.1462711179
 11
89.2009346374
 21
167.1462711179
  0
LINE
  5
32B
100
AcDbEntity
  8
0
100
AcDbLine
 62
7
  6
CONTINUOUS
 10
81.0724301824
 20
164.3521693097
 11
81.2213109745
 21
164.3506018684
  0
LINE
  5
32C
100
AcDbEntity
  8
0
100
AcDbLine
 62
7
  6
CONTINUOUS
 10
91.8571846374
 20
165.763292415
 11
92.1176012047
 21
165.7101009273
  0
LINE
  5
32D
100
AcDbEntity
  8
0
100
AcDbLine
 62
7
  6
CONTINUOUS
 10
90.3988513537
 20
168.1569094443
 11
90.1384346374
 21
168.2101009273
  0
LINE
  5
32E
100
AcDbEntity
  8
0
100
AcDbLine
 62
7
  6
CONTINUOUS
 10
92.1176012047
 20
166.0292498627
 11
91.9092680701
 21
166.0824413457
  0
LINE
  5
32F
100
AcDbEntity
  8
0
100
AcDbLine
 62
7
  6
CONTINUOUS
 10
90.190517921
 20
167.9441435122
 11
90.346767921
 21
167.8909520292
  0
LINE
  5
330
100
AcDbEntity
  8
0
100
AcDbLine
 62
7
  6
CONTINUOUS
 10
95.2946846374
 20
168.0505264783
 11
95.0863515027
 21
168.1569094443
  0
LINE
  5
331
100
AcDbEntity
  8
0
100
AcDbLine
 62
7
  6
CONTINUOUS
 10
95.034267772
 20
167.8377605462
 11
95.190517772
 21
167.7313775801
  0
LINE
  5
332
100
AcDbEntity
  8
0
100
AcDbLine
 62
7
  6
CONTINUOUS
 10
105.3341767324
 20
160.1957220201
 11
105.4866841108
 21
160.04848412
  0
LINE
  5
333
100
AcDbEntity
  8
0
100
AcDbLine
 62
7
  6
CONTINUOUS
 10
103.8341767324
 20
161.6957220201
 11
103.9866841108
 21
161.54848412
  0
LINE
  5
334
100
AcDbEntity
  8
0
100
AcDbLine
 62
7
  6
CONTINUOUS
 10
105.5319232242
 20
161.4927253078
 11
106.0475764983
 21
160.9770720338
  0
LINE
  5
335
100
AcDbEntity
  8
0
100
AcDbLine
 62
7
  6
CONTINUOUS
 10
106.3112402561
 20
161.2407357915
 11
105.7944950759
 21
161.7574809717
  0
LINE
  5
336
100
AcDbEntity
  8
0
100
AcDbLine
 62
7
  6
CONTINUOUS
 10
105.3664396448
 20
163.1694859937
 11
105.4812012311
 21
163.0430012403
  0
LINE
  5
337
100
AcDbEntity
  8
KONSTRUKTIONSELEMENTE
100
AcDbLine
 62
7
  6
CONTINUOUS
 10
97.2738506683
 20
113.0101009273
 11
96.2738506683
 21
112.0101009273
  0
LINE
  5
338
100
AcDbEntity
  8
0
100
AcDbLine
 62
7
  6
CONTINUOUS
 10
93.8884346374
 20
167.8909520292
 11
94.8259346374
 21
167.8909520292
  0
LINE
  5
339
100
AcDbEntity
  8
0
100
AcDbLine
 62
7
  6
CONTINUOUS
 10
89.2009346374
 20
167.9441435122
 11
90.190517921
 21
167.9441435122
  0
LINE
  5
33A
100
AcDbEntity
  8
0
100
AcDbLine
 62
7
  6
CONTINUOUS
 10
94.8259346374
 20
168.2101009273
 11
93.5759346374
 21
168.2101009273
  0
LINE
  5
33B
100
AcDbEntity
  8
0
100
AcDbLine
 62
7
  6
CONTINUOUS
 10
93.1592680701
 20
168.2101009273
 11
92.8467680701
 21
168.2101009273
  0
LINE
  5
33C
100
AcDbEntity
  8
0
100
AcDbLine
 62
7
  6
CONTINUOUS
 10
91.5967680701
 20
168.2101009273
 11
91.284267921
 21
168.2101009273
  0
LINE
  5
33D
100
AcDbEntity
  8
0
100
AcDbLine
 62
7
  6
CONTINUOUS
 10
90.1384346374
 20
168.2101009273
 11
88.8884346374
 21
168.2101009273
  0
LINE
  5
33E
100
AcDbEntity
  8
0
100
AcDbLine
 62
7
  6
CONTINUOUS
 10
95.0863515027
 20
168.1569094443
 11
94.8259346374
 21
168.2101009273
  0
LINE
  5
33F
100
AcDbEntity
  8
0
100
AcDbLine
 62
7
  6
CONTINUOUS
 10
94.8259346374
 20
167.8909520292
 11
95.034267772
 21
167.8377605462
  0
LINE
  5
340
100
AcDbEntity
  8
RUNDUNGEN
100
AcDbLine
 62
7
  6
CONTINUOUS
 10
92.8478758168
 20
172.4723319256
 11
108.3168348776
 21
166.0648792869
  0
LINE
  5
341
100
AcDbEntity
  8
RUNDUNGEN
100
AcDbLine
 62
7
  6
CONTINUOUS
 10
109.1286290278
 20
165.2530851367
 11
115.4046058841
 21
150.101536693
  0
LINE
  5
342
100
AcDbEntity
  8
BEZUGSACHSEN
100
AcDbLine
 62
7
  6
CONTINUOUS
 10
115.4046058841
 20
150.101536693
 11
115.5299308527
 21
149.7989754542
  0
LINE
  5
343
100
AcDbEntity
  8
RUNDUNGEN
100
AcDbLine
 62
7
  6
CONTINUOUS
 10
118.7738506683
 20
145.0101009273
 11
118.7738506683
 21
143.5101009273
  0
LINE
  5
344
100
AcDbEntity
  8
KONSTRUKTIONSELEMENTE
100
AcDbLine
 62
7
  6
CONTINUOUS
 10
176.6083041849
 20
112.0101009273
 11
184.6083041849
 21
112.0101009273
  0
LINE
  5
345
100
AcDbEntity
  8
KONSTRUKTIONSELEMENTE
100
AcDbLine
 62
7
  6
CONTINUOUS
 10
175.6083041849
 20
113.0101009273
 11
185.6083041849
 21
113.0101009273
  0
LINE
  5
346
100
AcDbEntity
  8
KONSTRUKTIONSELEMENTE
100
AcDbLine
 62
7
  6
CONTINUOUS
 10
176.6083041849
 20
112.0101009273
 11
175.6083041849
 21
113.0101009273
  0
LINE
  5
347
100
AcDbEntity
  8
0
100
AcDbLine
 62
7
  6
CONTINUOUS
 10
166.1479648347
 20
131.9119302139
 11
166.3039914147
 21
131.4015902662
  0
LINE
  5
348
100
AcDbEntity
  8
BEZUGSACHSEN
100
AcDbLine
 62
7
  6
CONTINUOUS
 10
165.584198727
 20
135.4660778736
 11
165.9681894147
 21
134.2101009273
  0
LINE
  5
349
100
AcDbEntity
  8
BEZUGSACHSEN
100
AcDbLine
 62
7
  6
CONTINUOUS
 10
167.1911121405
 20
130.2101009273
 11
168.1083041849
 21
127.2101009273
  0
LINE
  5
34A
100
AcDbEntity
  8
0
100
AcDbLine
 62
7
  6
CONTINUOUS
 10
169.6083041849
 20
143.5101009273
 11
169.6083041849
 21
145.0101009273
  0
LINE
  5
34B
100
AcDbEntity
  8
RUNDUNGEN
100
AcDbLine
 62
7
  6
CONTINUOUS
 10
169.6083041849
 20
143.5101009273
 11
169.6083041849
 21
145.0101009273
  0
LINE
  5
34C
100
AcDbEntity
  8
KONSTRUKTIONSELEMENTE
100
AcDbLine
 62
7
  6
CONTINUOUS
 10
172.4583041849
 20
127.0101009273
 11
188.7583041849
 21
127.0101009273
  0
LINE
  5
34D
100
AcDbEntity
  8
BEZUGSACHSEN
100
AcDbLine
 62
7
  6
CONTINUOUS
 10
168.1083042935
 20
127.2101009273
 11
193.1083040762
 21
127.2101009273
  0
LINE
  5
34E
100
AcDbEntity
  8
KONSTRUKTIONSELEMENTE
100
AcDbLine
 62
7
  6
CONTINUOUS
 10
172.4583041849
 20
127.2101009273
 11
172.4583041849
 21
127.0101009273
  0
LINE
  5
34F
100
AcDbEntity
  8
0
100
AcDbLine
 62
7
  6
CONTINUOUS
 10
172.6083041849
 20
143.5101009273
 11
172.6083041849
 21
145.0101009273
  0
LINE
  5
350
100
AcDbEntity
  8
RUNDUNGEN
100
AcDbLine
 62
7
  6
CONTINUOUS
 10
172.6083041849
 20
143.5101009273
 11
172.6083041849
 21
145.0101009273
  0
LINE
  5
351
100
AcDbEntity
  8
0
100
AcDbLine
 62
7
  6
CONTINUOUS
 10
167.3472299349
 20
129.6994626307
 11
166.8879542551
 21
129.6994626307
  0
LINE
  5
352
100
AcDbEntity
  8
0
100
AcDbLine
 62
7
  6
CONTINUOUS
 10
193.7633167492
 20
129.6994626307
 11
194.3286541147
 21
129.6994626307
  0
LINE
  5
353
100
AcDbEntity
  8
0
100
AcDbLine
 62
7
  6
CONTINUOUS
 10
168.0266457254
 20
130.2101009273
 11
167.4766709901
 21
130.2101009273
  0
LINE
  5
354
100
AcDbEntity
  8
0
100
AcDbLine
 62
7
  6
CONTINUOUS
 10
166.737623478
 20
130.2101009273
 11
167.3137645373
 21
130.2101009273
  0
LINE
  5
355
100
AcDbEntity
  8
0
100
AcDbLine
 62
7
  6
CONTINUOUS
 10
193.5558148863
 20
130.2101009273
 11
194.0934629054
 21
130.2101009273
  0
LINE
  5
356
100
AcDbEntity
  8
0
100
AcDbLine
 62
7
  6
CONTINUOUS
 10
193.4596962153
 20
130.2952073076
 11
194.0013282225
 21
130.2952073076
  0
LINE
  5
357
100
AcDbEntity
  8
0
100
AcDbLine
 62
7
  6
CONTINUOUS
 10
167.9122028023
 20
130.5505264485
 11
167.3628582402
 21
130.5505264485
  0
LINE
  5
358
100
AcDbEntity
  8
0
100
AcDbLine
 62
7
  6
CONTINUOUS
 10
193.4293689577
 20
130.5505264485
 11
193.974468039
 21
130.5505264485
  0
LINE
  5
359
100
AcDbEntity
  8
0
100
AcDbLine
 62
7
  6
CONTINUOUS
 10
167.7590523464
 20
130.6356328511
 11
167.2140822098
 21
130.6356328511
  0
LINE
  5
35A
100
AcDbEntity
  8
0
100
AcDbLine
 62
7
  6
CONTINUOUS
 10
166.6064724352
 20
130.6356328511
 11
166.5661729936
 21
130.6356328511
  0
LINE
  5
35B
100
AcDbEntity
  8
0
100
AcDbLine
 62
7
  6
CONTINUOUS
 10
194.4235233699
 20
130.6356328511
 11
194.6504353761
 21
130.6356328511
  0
LINE
  5
35C
100
AcDbEntity
  8
0
100
AcDbLine
 62
7
  6
CONTINUOUS
 10
194.1606335053
 20
130.7207392239
 11
194.3448214528
 21
130.7207392239
  0
LINE
  5
35D
100
AcDbEntity
  8
0
100
AcDbLine
 62
7
  6
CONTINUOUS
 10
167.6337238645
 20
130.8058455968
 11
167.0912946197
 21
130.8058455968
  0
LINE
  5
35E
100
AcDbEntity
  8
0
100
AcDbLine
 62
7
  6
CONTINUOUS
 10
193.4409651284
 20
130.8058455968
 11
193.9881261622
 21
130.8058455968
  0
LINE
  5
35F
100
AcDbEntity
  8
0
100
AcDbLine
 62
7
  6
CONTINUOUS
 10
194.1531441145
 20
130.8909519696
 11
194.4462627872
 21
130.8909519696
  0
LINE
  5
360
100
AcDbEntity
  8
0
100
AcDbLine
 62
7
  6
CONTINUOUS
 10
167.527997422
 20
131.0611647749
 11
166.9866184537
 21
131.0611647749
  0
LINE
  5
361
100
AcDbEntity
  8
0
100
AcDbLine
 62
7
  6
CONTINUOUS
 10
193.5042179762
 20
131.1462711477
 11
194.0525053788
 21
131.1462711477
  0
LINE
  5
362
100
AcDbEntity
  8
0
100
AcDbLine
 62
7
  6
CONTINUOUS
 10
166.3039947906
 20
131.4015902662
 11
166.3704552769
 21
131.4015902662
  0
LINE
  5
363
100
AcDbEntity
  8
0
100
AcDbLine
 62
7
  6
CONTINUOUS
 10
166.417949825
 20
131.4015902662
 11
166.7769225305
 21
131.4015902662
  0
LINE
  5
364
100
AcDbEntity
  8
0
100
AcDbLine
 62
7
  6
CONTINUOUS
 10
193.5641382586
 20
131.4015902662
 11
194.1128433656
 21
131.4015902662
  0
LINE
  5
365
100
AcDbEntity
  8
0
100
AcDbLine
 62
7
  6
CONTINUOUS
 10
194.2320578091
 20
131.4015902662
 11
194.6644787184
 21
131.4015902662
  0
LINE
  5
366
100
AcDbEntity
  8
0
100
AcDbLine
 62
7
  6
CONTINUOUS
 10
194.7268138428
 20
131.4015902662
 11
194.9090931508
 21
131.4015902662
  0
LINE
  5
367
100
AcDbEntity
  8
0
100
AcDbLine
 62
7
  6
CONTINUOUS
 10
193.6811545151
 20
131.8271222496
 11
194.2299761652
 21
131.8271222496
  0
LINE
  5
368
100
AcDbEntity
  8
0
100
AcDbLine
 62
7
  6
CONTINUOUS
 10
166.2131488338
 20
131.9122286224
 11
166.1489408851
 21
131.9122286224
  0
LINE
  5
369
100
AcDbEntity
  8
0
100
AcDbLine
 62
7
  6
CONTINUOUS
 10
166.6124908526
 20
131.9122286224
 11
166.2598062293
 21
131.9122286224
  0
LINE
  5
36A
100
AcDbEntity
  8
0
100
AcDbLine
 62
7
  6
CONTINUOUS
 10
194.3775545787
 20
131.9122286224
 11
194.8379522219
 21
131.9122286224
  0
LINE
  5
36B
100
AcDbEntity
  8
0
100
AcDbLine
 62
7
  6
CONTINUOUS
 10
194.8973764733
 20
131.9122286224
 11
195.0652753111
 21
131.9122286224
  0
LINE
  5
36C
100
AcDbEntity
  8
KONSTRUKTIONSELEMENTE
100
AcDbLine
 62
7
  6
CONTINUOUS
 10
175.6083041849
 20
127.0101009273
 11
175.6083041849
 21
113.0101009273
  0
LINE
  5
36D
100
AcDbEntity
  8
BEZUGSACHSEN
100
AcDbLine
 62
7
  6
CONTINUOUS
 10
176.3583041849
 20
145.3313898432
 11
176.3583041849
 21
171.0865126269
  0
LINE
  5
36E
100
AcDbEntity
  8
0
100
AcDbLine
 62
7
  6
CONTINUOUS
 10
194.5737388548
 20
132.5079732322
 11
195.0247965701
 21
132.5079732322
  0
LINE
  5
36F
100
AcDbEntity
  8
0
100
AcDbLine
 62
7
  6
CONTINUOUS
 10
166.2614644542
 20
132.5930796051
 11
166.3935626567
 21
132.5930796051
  0
LINE
  5
370
100
AcDbEntity
  8
0
100
AcDbLine
 62
7
  6
CONTINUOUS
 10
166.4883532698
 20
132.5930796051
 11
167.2787823108
 21
132.5930796051
  0
LINE
  5
371
100
AcDbEntity
  8
0
100
AcDbLine
 62
7
  6
CONTINUOUS
 10
193.937826059
 20
132.5930796051
 11
194.48535608
 21
132.5930796051
  0
LINE
  5
372
100
AcDbEntity
  8
0
100
AcDbLine
 62
7
  6
CONTINUOUS
 10
167.1649949622
 20
132.9335050964
 11
166.3779336978
 21
132.9335050964
  0
LINE
  5
373
100
AcDbEntity
  8
0
100
AcDbLine
 62
7
  6
CONTINUOUS
 10
166.2842366843
 20
132.9335050964
 11
166.1536592353
 21
132.9335050964
  0
LINE
  5
374
100
AcDbEntity
  8
0
100
AcDbLine
 62
7
  6
CONTINUOUS
 10
194.1045480328
 20
133.0186114692
 11
194.6506161892
 21
133.0186114692
  0
LINE
  5
375
100
AcDbEntity
  8
0
100
AcDbLine
 62
7
  6
CONTINUOUS
 10
194.7633179774
 20
133.0186114692
 11
195.1723444044
 21
133.0186114692
  0
LINE
  5
376
100
AcDbEntity
  8
0
100
AcDbLine
 62
7
  6
CONTINUOUS
 10
194.2134060009
 20
133.2739308262
 11
194.7583392987
 21
133.2739308262
  0
LINE
  5
377
100
AcDbEntity
  8
0
100
AcDbLine
 62
7
  6
CONTINUOUS
 10
195.0121760796
 20
133.5292499447
 11
195.2798836349
 21
133.5292499447
  0
LINE
  5
378
100
AcDbEntity
  8
0
100
AcDbLine
 62
7
  6
CONTINUOUS
 10
166.6959202815
 20
133.6143563175
 11
166.0658425497
 21
133.6143563175
  0
LINE
  5
379
100
AcDbEntity
  8
0
100
AcDbLine
 62
7
  6
CONTINUOUS
 10
194.3722664712
 20
133.6143563175
 11
194.9152952584
 21
133.6143563175
  0
LINE
  5
37A
100
AcDbEntity
  8
0
100
AcDbLine
 62
7
  6
CONTINUOUS
 10
195.1243624931
 20
133.6994626903
 11
195.2906320054
 21
133.6994626903
  0
LINE
  5
37B
100
AcDbEntity
  8
0
100
AcDbLine
 62
7
  6
CONTINUOUS
 10
194.521809547
 20
133.869675436
 11
195.0625212394
 21
133.869675436
  0
LINE
  5
37C
100
AcDbEntity
  8
0
100
AcDbLine
 62
7
  6
CONTINUOUS
 10
194.7056206692
 20
134.1249945545
 11
195.2430585306
 21
134.1249945545
  0
LINE
  5
37D
100
AcDbEntity
  8
0
100
AcDbLine
 62
7
  6
CONTINUOUS
 10
166.0744955583
 20
134.2101009273
 11
165.5056183865
 21
134.2101009273
  0
LINE
  5
37E
100
AcDbEntity
  8
0
100
AcDbLine
 62
7
  6
CONTINUOUS
 10
194.8407591585
 20
134.2101009273
 11
195.7109899832
 21
134.2101009273
  0
LINE
  5
37F
100
AcDbEntity
  8
RUNDUNGEN
100
AcDbLine
 62
7
  6
CONTINUOUS
 10
194.5861810765
 20
137.3535241701
 11
190.0465708691
 21
138.5699090591
  0
LINE
  5
380
100
AcDbEntity
  8
RUNDUNGEN
100
AcDbLine
 62
7
  6
CONTINUOUS
 10
184.8583041849
 20
145.3313898432
 11
184.8583041849
 21
171.0865126269
  0
LINE
  5
381
100
AcDbEntity
  8
0
100
AcDbLine
 62
7
  6
CONTINUOUS
 10
185.3583041849
 20
168.2101009273
 11
185.3583041849
 21
165.7101009273
  0
LINE
  5
382
100
AcDbEntity
  8
0
100
AcDbLine
 62
7
  6
CONTINUOUS
 10
185.3583041849
 20
164.6491475947
 11
185.3583041849
 21
163.1274264623
  0
LINE
  5
383
100
AcDbEntity
  8
0
100
AcDbLine
 62
7
  6
CONTINUOUS
 10
185.3583041849
 20
163.1242920012
 11
185.3583041849
 21
159.054353389
  0
LINE
  5
384
100
AcDbEntity
  8
KONSTRUKTIONSELEMENTE
100
AcDbLine
 62
7
  6
CONTINUOUS
 10
185.6083041849
 20
127.0101009273
 11
185.6083041849
 21
113.0101009273
  0
LINE
  5
385
100
AcDbEntity
  8
BEZUGSACHSEN
100
AcDbLine
 62
7
  6
CONTINUOUS
 10
166.6304272933
 20
137.3535241701
 11
171.1700375006
 21
138.5699090591
  0
LINE
  5
386
100
AcDbEntity
  8
RUNDUNGEN
100
AcDbLine
 62
7
  6
CONTINUOUS
 10
191.1083041849
 20
143.0101009273
 11
185.2555414265
 21
143.0101009273
  0
LINE
  5
387
100
AcDbEntity
  8
RUNDUNGEN
100
AcDbLine
 62
7
  6
CONTINUOUS
 10
175.9686041423
 20
143.0101009273
 11
170.1083041849
 21
143.0101009273
  0
LINE
  5
388
100
AcDbEntity
  8
RUNDUNGEN
100
AcDbLine
 62
7
  6
CONTINUOUS
 10
188.6083041849
 20
143.5101009273
 11
188.6083041849
 21
145.0101009273
  0
LINE
  5
389
100
AcDbEntity
  8
KONSTRUKTIONSELEMENTE
100
AcDbLine
 62
7
  6
CONTINUOUS
 10
188.7583041849
 20
127.2101009273
 11
188.7583041849
 21
127.0101009273
  0
LINE
  5
38A
100
AcDbEntity
  8
RUNDUNGEN
100
AcDbLine
 62
7
  6
CONTINUOUS
 10
170.1083041849
 20
145.5101009273
 11
176.3583041849
 21
145.5101009273
  0
LINE
  5
38B
100
AcDbEntity
  8
RUNDUNGEN
100
AcDbLine
 62
7
  6
CONTINUOUS
 10
184.8583041849
 20
145.5101009273
 11
191.1083041849
 21
145.5101009273
  0
LINE
  5
38C
100
AcDbEntity
  8
RUNDUNGEN
100
AcDbLine
 62
7
  6
CONTINUOUS
 10
191.6083041849
 20
143.5101009273
 11
191.6083041849
 21
145.0101009273
  0
LINE
  5
38D
100
AcDbEntity
  8
0
100
AcDbLine
 62
7
  6
CONTINUOUS
 10
193.1083041849
 20
127.2101009273
 11
193.8693784348
 21
129.6994626307
  0
LINE
  5
38E
100
AcDbEntity
  8
0
100
AcDbLine
 62
7
  6
CONTINUOUS
 10
195.2484189551
 20
134.2101009273
 11
195.6324096428
 21
135.4660778736
  0
LINE
  5
38F
100
AcDbEntity
  8
0
100
AcDbLine
 62
7
  6
CONTINUOUS
 10
184.8583041849
 20
159.054353389
 11
185.3583041849
 21
159.054353389
  0
LINE
  5
390
100
AcDbEntity
  8
0
100
AcDbLine
 62
7
  6
CONTINUOUS
 10
184.8583041849
 20
160.2328646734
 11
185.3583041849
 21
160.2328646734
  0
LINE
  5
391
100
AcDbEntity
  8
0
100
AcDbLine
 62
7
  6
CONTINUOUS
 10
184.8583041849
 20
160.4538355425
 11
185.3583041849
 21
160.4538355425
  0
LINE
  5
392
100
AcDbEntity
  8
0
100
AcDbLine
 62
7
  6
CONTINUOUS
 10
184.8583041849
 20
161.4850328966
 11
185.3583041849
 21
161.4850328966
  0
LINE
  5
393
100
AcDbEntity
  8
0
100
AcDbLine
 62
7
  6
CONTINUOUS
 10
184.8583041849
 20
161.7060037658
 11
185.3583041849
 21
161.7060037658
  0
LINE
  5
394
100
AcDbEntity
  8
0
100
AcDbLine
 62
7
  6
CONTINUOUS
 10
184.8583041849
 20
162.0006316264
 11
185.3583041849
 21
162.0006316264
  0
LINE
  5
395
100
AcDbEntity
  8
0
100
AcDbLine
 62
7
  6
CONTINUOUS
 10
184.8583041849
 20
162.8845151029
 11
185.3583041849
 21
162.8845151029
  0
LINE
  5
396
100
AcDbEntity
  8
0
100
AcDbLine
 62
7
  6
CONTINUOUS
 10
184.8583041849
 20
163.0310453652
 11
185.3583041849
 21
163.0310453652
  0
LINE
  5
397
100
AcDbEntity
  8
0
100
AcDbLine
 62
7
  6
CONTINUOUS
 10
184.8583041849
 20
163.0655231732
 11
185.3583041849
 21
163.0655231732
  0
LINE
  5
398
100
AcDbEntity
  8
0
100
AcDbLine
 62
7
  6
CONTINUOUS
 10
184.8583041849
 20
163.1274264623
 11
185.3583041849
 21
163.1274264623
  0
LINE
  5
399
100
AcDbEntity
  8
0
100
AcDbLine
 62
7
  6
CONTINUOUS
 10
184.8583041849
 20
163.2410459365
 11
185.3583041849
 21
163.2410459365
  0
LINE
  5
39A
100
AcDbEntity
  8
0
100
AcDbLine
 62
7
  6
CONTINUOUS
 10
184.8583041849
 20
163.3914942752
 11
185.3583041849
 21
163.3914942752
  0
LINE
  5
39B
100
AcDbEntity
  8
0
100
AcDbLine
 62
7
  6
CONTINUOUS
 10
184.8583041849
 20
163.5787712678
 11
185.3583041849
 21
163.5787712678
  0
LINE
  5
39C
100
AcDbEntity
  8
0
100
AcDbLine
 62
7
  6
CONTINUOUS
 10
184.8583041849
 20
163.8765332734
 11
185.3583041849
 21
163.8765332734
  0
LINE
  5
39D
100
AcDbEntity
  8
0
100
AcDbLine
 62
7
  6
CONTINUOUS
 10
184.8583041849
 20
164.0990711624
 11
185.3583041849
 21
164.0990711624
  0
LINE
  5
39E
100
AcDbEntity
  8
0
100
AcDbLine
 62
7
  6
CONTINUOUS
 10
184.8583041849
 20
164.2839974144
 11
185.3583041849
 21
164.2839974144
  0
LINE
  5
39F
100
AcDbEntity
  8
0
100
AcDbLine
 62
7
  6
CONTINUOUS
 10
184.8583041849
 20
164.4681395244
 11
185.3583041849
 21
164.4681395244
  0
LINE
  5
3A0
100
AcDbEntity
  8
0
100
AcDbLine
 62
7
  6
CONTINUOUS
 10
184.8583041849
 20
164.6146699975
 11
185.3583041849
 21
164.6146699975
  0
LINE
  5
3A1
100
AcDbEntity
  8
0
100
AcDbLine
 62
7
  6
CONTINUOUS
 10
184.8583041849
 20
164.6491475947
 11
185.3583041849
 21
164.6491475947
  0
LINE
  5
3A2
100
AcDbEntity
  8
0
100
AcDbLine
 62
7
  6
CONTINUOUS
 10
184.8583041849
 20
165.7101009273
 11
185.3583041849
 21
165.7101009273
  0
LINE
  5
3A3
100
AcDbEntity
  8
KONSTRUKTIONSELEMENTE
100
AcDbLine
 62
7
  6
CONTINUOUS
 10
185.6083041849
 20
113.0101009273
 11
184.6083041849
 21
112.0101009273
  0
LINE
  5
3A4
100
AcDbEntity
  8
0
100
AcDbLine
 62
7
  6
CONTINUOUS
 10
184.8583041849
 20
168.2101009273
 11
185.3583041849
 21
168.2101009273
  0
LINE
  5
3A5
100
AcDbEntity
  8
RUNDUNGEN
100
AcDbLine
 62
7
  6
CONTINUOUS
 10
183.3583041849
 20
172.5865126269
 11
177.8583041849
 21
172.5865126269
  0
LWPOLYLINE
  5
3A6
100
AcDbEntity
  8
RUNDUNGEN
100
AcDbPolyline
 62
7
  6
CONTINUOUS
 90
7
 70
0
 10
68.903590989
 20
67.9181458689
 10
68.905637097
 20
67.5593773788
 10
68.9160085002
 20
67.0334407599
 10
68.935329398
 20
66.5024189608
 10
68.963776622
 20
65.9672637886
 10
69.0014720403
 20
65.4289560416
 10
69.0350794954
 20
65.0322868671
  0
LWPOLYLINE
  5
3A7
100
AcDbEntity
  8
BEZUGSACHSEN
100
AcDbPolyline
 62
7
  6
CONTINUOUS
 90
7
 70
0
 10
69.0350794954
 20
70.8040048707
 10
69.0014720403
 20
70.4073356962
 10
68.963776622
 20
69.8690279492
 10
68.935329398
 20
69.333872777
 10
68.9160085002
 20
68.8028509779
 10
68.905637097
 20
68.276914359
 10
68.903590989
 20
67.9181458689
  0
LWPOLYLINE
  5
3A8
100
AcDbEntity
  8
BEZUGSACHSEN
100
AcDbPolyline
 62
7
  6
CONTINUOUS
 90
19
 70
0
 10
78.3639539391
 20
78.1001060826
 10
77.7450366059
 20
77.5444157101
 10
77.069354001
 20
76.8974014838
 10
76.4649090982
 20
76.2837329939
 10
75.9202299565
 20
75.7048335132
 10
75.4262461189
 20
75.1622429271
 10
74.9777786127
 20
74.6599423269
 10
74.5684762274
 20
74.1991683836
 10
74.1959617744
 20
73.7841893989
 10
73.8573258799
 20
73.4170973759
 10
73.5508149653
 20
73.0996188514
 10
73.2758254971
 20
72.8328327956
 10
73.0304592408
 20
72.6147934257
 10
72.8151503506
 20
72.4441624395
 10
72.6302811514
 20
72.3179843629
 10
72.4782692838
 20
72.2331516347
 10
72.366305358
 20
72.1863784318
 10
72.3032159093
 20
72.169821366
 10
72.2882595777
 20
72.168146517
  0
LINE
  5
3A9
100
AcDbEntity
  8
0
100
AcDbLine
 62
7
  6
CONTINUOUS
 10
76.4265567293
 20
63.6681458689
 11
76.4265567293
 21
63.1681458689
  0
LINE
  5
3AA
100
AcDbEntity
  8
0
100
AcDbLine
 62
7
  6
CONTINUOUS
 10
76.6475275984
 20
63.6681458689
 11
76.6475275984
 21
63.1681458689
  0
LINE
  5
3AB
100
AcDbEntity
  8
0
100
AcDbLine
 62
7
  6
CONTINUOUS
 10
77.6787249525
 20
63.6681458689
 11
77.6787249525
 21
63.1681458689
  0
LINE
  5
3AC
100
AcDbEntity
  8
0
100
AcDbLine
 62
7
  6
CONTINUOUS
 10
77.8996958216
 20
63.6681458689
 11
77.8996958216
 21
63.1681458689
  0
LINE
  5
3AD
100
AcDbEntity
  8
0
100
AcDbLine
 62
7
  6
CONTINUOUS
 10
78.1943236822
 20
63.6681458689
 11
78.1943236822
 21
63.1681458689
  0
LINE
  5
3AE
100
AcDbEntity
  8
0
100
AcDbLine
 62
7
  6
CONTINUOUS
 10
79.0782071587
 20
63.6681458689
 11
79.0782071587
 21
63.1681458689
  0
LINE
  5
3AF
100
AcDbEntity
  8
0
100
AcDbLine
 62
7
  6
CONTINUOUS
 10
79.2999615378
 20
63.6681458689
 11
79.2999615378
 21
63.1681458689
  0
LINE
  5
3B0
100
AcDbEntity
  8
0
100
AcDbLine
 62
7
  6
CONTINUOUS
 10
79.5601116958
 20
63.6681458689
 11
79.5601116958
 21
63.1681458689
  0
LINE
  5
3B1
100
AcDbEntity
  8
0
100
AcDbLine
 62
7
  6
CONTINUOUS
 10
79.8210453637
 20
63.6681458689
 11
79.8210453637
 21
63.1681458689
  0
LINE
  5
3B2
100
AcDbEntity
  8
0
100
AcDbLine
 62
7
  6
CONTINUOUS
 10
79.9707100872
 20
63.6681458689
 11
79.9707100872
 21
63.1681458689
  0
LINE
  5
3B3
100
AcDbEntity
  8
0
100
AcDbLine
 62
7
  6
CONTINUOUS
 10
80.1211584259
 20
63.6681458689
 11
80.1211584259
 21
63.1681458689
  0
LINE
  5
3B4
100
AcDbEntity
  8
0
100
AcDbLine
 62
7
  6
CONTINUOUS
 10
80.1971660525
 20
63.6681458689
 11
80.1971660525
 21
63.1681458689
  0
LINE
  5
3B5
100
AcDbEntity
  8
0
100
AcDbLine
 62
7
  6
CONTINUOUS
 10
80.2371288514
 20
63.6681458689
 11
80.2371288514
 21
63.1681458689
  0
LINE
  5
3B6
100
AcDbEntity
  8
0
100
AcDbLine
 62
7
  6
CONTINUOUS
 10
80.2958976794
 20
63.6681458689
 11
80.2958976794
 21
63.1681458689
  0
LINE
  5
3B7
100
AcDbEntity
  8
0
100
AcDbLine
 62
7
  6
CONTINUOUS
 10
80.3679873349
 20
63.6681458689
 11
80.3679873349
 21
63.1681458689
  0
LINE
  5
3B8
100
AcDbEntity
  8
0
100
AcDbLine
 62
7
  6
CONTINUOUS
 10
80.4776894703
 20
63.6681458689
 11
80.4776894703
 21
63.1681458689
  0
LINE
  5
3B9
100
AcDbEntity
  8
0
100
AcDbLine
 62
7
  6
CONTINUOUS
 10
80.6618315803
 20
63.6681458689
 11
80.6618315803
 21
63.1681458689
  0
LINE
  5
3BA
100
AcDbEntity
  8
0
100
AcDbLine
 62
7
  6
CONTINUOUS
 10
80.88358617
 20
63.6681458689
 11
80.88358617
 21
63.1681458689
  0
LINE
  5
3BB
100
AcDbEntity
  8
0
100
AcDbLine
 62
7
  6
CONTINUOUS
 10
81.1437361173
 20
63.6681458689
 11
81.1437361173
 21
63.1681458689
  0
LINE
  5
3BC
100
AcDbEntity
  8
0
100
AcDbLine
 62
7
  6
CONTINUOUS
 10
81.4046697853
 20
63.6681458689
 11
81.4046697853
 21
63.1681458689
  0
LINE
  5
3BD
100
AcDbEntity
  8
0
100
AcDbLine
 62
7
  6
CONTINUOUS
 10
81.5543347195
 20
63.6681458689
 11
81.5543347195
 21
63.1681458689
  0
LINE
  5
3BE
100
AcDbEntity
  8
0
100
AcDbLine
 62
7
  6
CONTINUOUS
 10
81.67265578
 20
63.6681458689
 11
81.67265578
 21
63.1681458689
  0
LWPOLYLINE
  5
3BF
100
AcDbEntity
  8
RUNDUNGEN
100
AcDbPolyline
 62
7
  6
CONTINUOUS
 90
20
 70
0
 10
78.3639726045
 20
57.7361699284
 10
79.284801423
 20
56.9872253078
 10
80.4215159445
 20
56.1877089301
 10
81.6619591736
 20
55.4468391196
 10
82.9954597519
 20
54.7797181788
 10
84.411925026
 20
54.1978421151
 10
85.8993879648
 20
53.7108455795
 10
87.4447402741
 20
53.3262910519
 10
89.0333726558
 20
53.049442839
 10
90.6506115062
 20
52.8832959876
 10
92.2819967073
 20
52.8284989133
 10
93.9132961015
 20
52.8844014066
 10
95.5302983022
 20
53.0516549678
 10
97.1185452416
 20
53.3295872716
 10
98.6633720364
 20
53.7151829239
 10
100.1501900949
 20
54.2031602091
 10
101.5659086013
 20
54.7859408766
 10
102.8985796115
 20
55.4538794315
 10
104.138140772
 20
56.1954798863
 10
105.1639515904
 20
56.9181458689
  0
LINE
  5
3C0
100
AcDbEntity
  8
0
100
AcDbLine
 62
7
  6
CONTINUOUS
 10
81.8951940904
 20
63.6681458689
 11
81.8951940904
 21
63.1681458689
  0
LINE
  5
3C1
100
AcDbEntity
  8
0
100
AcDbLine
 62
7
  6
CONTINUOUS
 10
82.1929560961
 20
63.6681458689
 11
82.1929560961
 21
63.1681458689
  0
LINE
  5
3C2
100
AcDbEntity
  8
0
100
AcDbLine
 62
7
  6
CONTINUOUS
 10
82.417061479
 20
63.6681458689
 11
82.417061479
 21
63.1681458689
  0
LINE
  5
3C3
100
AcDbEntity
  8
0
100
AcDbLine
 62
7
  6
CONTINUOUS
 10
82.6051217707
 20
63.6681458689
 11
82.6051217707
 21
63.1681458689
  0
LINE
  5
3C4
100
AcDbEntity
  8
0
100
AcDbLine
 62
7
  6
CONTINUOUS
 10
82.6819129336
 20
63.6681458689
 11
82.6819129336
 21
63.1681458689
  0
LINE
  5
3C5
100
AcDbEntity
  8
0
100
AcDbLine
 62
7
  6
CONTINUOUS
 10
88.1488506683
 20
53.2035869534
 11
88.1488506683
 21
53.1514699357
  0
LINE
  5
3C6
100
AcDbEntity
  8
0
100
AcDbLine
 62
7
  6
CONTINUOUS
 10
88.6488506683
 20
53.1164528196
 11
88.6488506683
 21
53.0866537102
  0
LINE
  5
3C7
100
AcDbEntity
  8
0
100
AcDbLine
 62
7
  6
CONTINUOUS
 10
88.8884346374
 20
63.6681458689
 11
88.8884346374
 21
63.1681458689
  0
LINE
  5
3C8
100
AcDbEntity
  8
RUNDUNGEN
100
AcDbLine
 62
7
  6
CONTINUOUS
 10
98.9820546008
 20
56.9181458689
 11
114.7738506683
 21
56.9181458689
  0
LINE
  5
3C9
100
AcDbEntity
  8
0
100
AcDbLine
 62
7
  6
CONTINUOUS
 10
90.1384346374
 20
63.6681458689
 11
90.1384346374
 21
63.1681458689
  0
LINE
  5
3CA
100
AcDbEntity
  8
0
100
AcDbLine
 62
7
  6
CONTINUOUS
 10
90.1488506683
 20
82.9014474069
 11
90.1488506683
 21
82.9776963773
  0
LINE
  5
3CB
100
AcDbEntity
  8
0
100
AcDbLine
 62
7
  6
CONTINUOUS
 10
90.3988513537
 20
63.6681458689
 11
90.3988513537
 21
63.1681458689
  0
LINE
  5
3CC
100
AcDbEntity
  8
0
100
AcDbLine
 62
7
  6
CONTINUOUS
 10
90.6071846374
 20
63.6681458689
 11
90.6071846374
 21
63.1681458689
  0
LINE
  5
3CD
100
AcDbEntity
  8
0
100
AcDbLine
 62
7
  6
CONTINUOUS
 10
90.6488506683
 20
82.9528148507
 11
90.6488506683
 21
83.0208316673
  0
LINE
  5
3CE
100
AcDbEntity
  8
0
100
AcDbLine
 62
7
  6
CONTINUOUS
 10
90.7634346374
 20
63.6681458689
 11
90.7634346374
 21
63.1681458689
  0
LINE
  5
3CF
100
AcDbEntity
  8
0
100
AcDbLine
 62
7
  6
CONTINUOUS
 10
90.815517921
 20
63.6681458689
 11
90.815517921
 21
63.1681458689
  0
LINE
  5
3D0
100
AcDbEntity
  8
0
100
AcDbLine
 62
7
  6
CONTINUOUS
 10
90.8676013537
 20
63.6681458689
 11
90.8676013537
 21
63.1681458689
  0
LINE
  5
3D1
100
AcDbEntity
  8
0
100
AcDbLine
 62
7
  6
CONTINUOUS
 10
91.284267921
 20
63.6681458689
 11
91.284267921
 21
63.1681458689
  0
LINE
  5
3D2
100
AcDbEntity
  8
0
100
AcDbLine
 62
7
  6
CONTINUOUS
 10
91.5967680701
 20
63.6681458689
 11
91.5967680701
 21
63.1681458689
  0
LINE
  5
3D3
100
AcDbEntity
  8
0
100
AcDbLine
 62
7
  6
CONTINUOUS
 10
91.6488512047
 20
63.6681458689
 11
91.6488512047
 21
63.1681458689
  0
LINE
  5
3D4
100
AcDbEntity
  8
0
100
AcDbLine
 62
7
  6
CONTINUOUS
 10
91.7530180701
 20
63.6681458689
 11
91.7530180701
 21
63.1681458689
  0
LINE
  5
3D5
100
AcDbEntity
  8
0
100
AcDbLine
 62
7
  6
CONTINUOUS
 10
91.9092680701
 20
63.6681458689
 11
91.9092680701
 21
63.1681458689
  0
LINE
  5
3D6
100
AcDbEntity
  8
0
100
AcDbLine
 62
7
  6
CONTINUOUS
 10
92.1176012047
 20
63.6681458689
 11
92.1176012047
 21
63.1681458689
  0
LINE
  5
3D7
100
AcDbEntity
  8
0
100
AcDbLine
 62
7
  6
CONTINUOUS
 10
92.3259346374
 20
63.6681458689
 11
92.3259346374
 21
63.1681458689
  0
LINE
  5
3D8
100
AcDbEntity
  8
0
100
AcDbLine
 62
7
  6
CONTINUOUS
 10
92.5342680701
 20
63.6681458689
 11
92.5342680701
 21
63.1681458689
  0
LINE
  5
3D9
100
AcDbEntity
  8
RUNDUNGEN
100
AcDbLine
 62
7
  6
CONTINUOUS
 10
114.7738506683
 20
61.1681458689
 11
103.2738506683
 21
61.1681458689
  0
LWPOLYLINE
  5
3DA
100
AcDbEntity
  8
RUNDUNGEN
100
AcDbPolyline
 62
7
  6
CONTINUOUS
 90
19
 70
0
 10
72.2882639817
 20
63.668145221
 10
72.3032920538
 20
63.6664579908
 10
72.3665967604
 20
63.6498156188
 10
72.4788810588
 20
63.6028418603
 10
72.6313194417
 20
63.517662313
 10
72.8167320683
 20
63.3909605771
 10
73.0327906418
 20
63.2195344846
 10
73.2792910248
 20
63.0002300641
 10
73.5556579567
 20
62.7318023635
 10
73.8637543899
 20
62.4123609086
 10
74.2039606123
 20
62.0432860862
 10
74.5777916515
 20
61.6266628051
 10
74.9879330819
 20
61.1649185083
 10
75.4363121966
 20
60.6628591314
 10
75.9294033424
 20
60.1215259893
 10
76.4722613305
 20
59.544905468
 10
77.074327767
 20
58.9339749598
 10
77.7476193532
 20
58.2894837057
 10
78.3639540938
 20
57.7361855206
  0
LINE
  5
3DB
100
AcDbEntity
  8
0
100
AcDbLine
 62
7
  6
CONTINUOUS
 10
92.6905180701
 20
63.6681458689
 11
92.6905180701
 21
63.1681458689
  0
LINE
  5
3DC
100
AcDbEntity
  8
0
100
AcDbLine
 62
7
  6
CONTINUOUS
 10
92.7946846374
 20
63.6681458689
 11
92.7946846374
 21
63.1681458689
  0
LINE
  5
3DD
100
AcDbEntity
  8
0
100
AcDbLine
 62
7
  6
CONTINUOUS
 10
92.8467680701
 20
63.6681458689
 11
92.8467680701
 21
63.1681458689
  0
LINE
  5
3DE
100
AcDbEntity
  8
0
100
AcDbLine
 62
7
  6
CONTINUOUS
 10
93.1592680701
 20
63.6681458689
 11
93.1592680701
 21
63.1681458689
  0
LINE
  5
3DF
100
AcDbEntity
  8
0
100
AcDbLine
 62
7
  6
CONTINUOUS
 10
93.5759346374
 20
63.6681458689
 11
93.5759346374
 21
63.1681458689
  0
LINE
  5
3E0
100
AcDbEntity
  8
0
100
AcDbLine
 62
7
  6
CONTINUOUS
 10
93.8988506683
 20
52.8839063805
 11
93.8988506683
 21
52.8154600705
  0
LINE
  5
3E1
100
AcDbEntity
  8
0
100
AcDbLine
 62
7
  6
CONTINUOUS
 10
94.3988506683
 20
52.9346244245
 11
94.3988506683
 21
52.8585953605
  0
LINE
  5
3E2
100
AcDbEntity
  8
0
100
AcDbLine
 62
7
  6
CONTINUOUS
 10
94.8259346374
 20
63.6681458689
 11
94.8259346374
 21
63.1681458689
  0
LINE
  5
3E3
100
AcDbEntity
  8
0
100
AcDbLine
 62
7
  6
CONTINUOUS
 10
95.0863515027
 20
63.6681458689
 11
95.0863515027
 21
63.1681458689
  0
LINE
  5
3E4
100
AcDbEntity
  8
0
100
AcDbLine
 62
7
  6
CONTINUOUS
 10
95.2946846374
 20
63.6681458689
 11
95.2946846374
 21
63.1681458689
  0
LINE
  5
3E5
100
AcDbEntity
  8
0
100
AcDbLine
 62
7
  6
CONTINUOUS
 10
107.2448649889
 20
63.1681458689
 11
103.5241487539
 21
63.1681458689
  0
LINE
  5
3E6
100
AcDbEntity
  8
0
100
AcDbLine
 62
7
  6
CONTINUOUS
 10
95.659267772
 20
63.1681458689
 11
93.5759346374
 21
63.1681458689
  0
LINE
  5
3E7
100
AcDbEntity
  8
0
100
AcDbLine
 62
7
  6
CONTINUOUS
 10
93.1592680701
 20
63.1681458689
 11
91.284267921
 21
63.1681458689
  0
LINE
  5
3E8
100
AcDbEntity
  8
0
100
AcDbLine
 62
7
  6
CONTINUOUS
 10
90.8676013537
 20
63.1681458689
 11
88.8884346374
 21
63.1681458689
  0
LINE
  5
3E9
100
AcDbEntity
  8
0
100
AcDbLine
 62
7
  6
CONTINUOUS
 10
82.6819129336
 20
63.1681458689
 11
76.4265567293
 21
63.1681458689
  0
LINE
  5
3EA
100
AcDbEntity
  8
RUNDUNGEN
100
AcDbLine
 62
7
  6
CONTINUOUS
 10
117.7738506683
 20
63.6681458689
 11
116.7738506683
 21
63.6681458689
  0
LINE
  5
3EB
100
AcDbEntity
  8
RUNDUNGEN
100
AcDbLine
 62
7
  6
CONTINUOUS
 10
70.5289144235
 20
63.6681458689
 11
114.0187865351
 21
63.6681458689
  0
LINE
  5
3EC
100
AcDbEntity
  8
0
100
AcDbLine
 62
7
  6
CONTINUOUS
 10
95.503017772
 20
63.6681458689
 11
95.503017772
 21
63.1681458689
  0
LINE
  5
3ED
100
AcDbEntity
  8
0
100
AcDbLine
 62
7
  6
CONTINUOUS
 10
95.6071846374
 20
63.6681458689
 11
95.6071846374
 21
63.1681458689
  0
LINE
  5
3EE
100
AcDbEntity
  8
0
100
AcDbLine
 62
7
  6
CONTINUOUS
 10
95.659267772
 20
63.6681458689
 11
95.659267772
 21
63.1681458689
  0
LINE
  5
3EF
100
AcDbEntity
  8
0
100
AcDbLine
 62
7
  6
CONTINUOUS
 10
95.8988506683
 20
82.7201426378
 11
95.8988506683
 21
82.7496380276
  0
LINE
  5
3F0
100
AcDbEntity
  8
0
100
AcDbLine
 62
7
  6
CONTINUOUS
 10
96.3988506683
 20
82.6326460725
 11
96.3988506683
 21
82.6848218021
  0
LINE
  5
3F1
100
AcDbEntity
  8
0
100
AcDbLine
 62
7
  6
CONTINUOUS
 10
103.5238506683
 20
63.6681458689
 11
103.5238506683
 21
63.1681458689
  0
LINE
  5
3F2
100
AcDbEntity
  8
BEZUGSACHSEN
100
AcDbLine
 62
7
  6
CONTINUOUS
 10
70.5289144235
 20
72.1681458689
 11
114.0187865351
 21
72.1681458689
  0
LINE
  5
3F3
100
AcDbEntity
  8
RUNDUNGEN
100
AcDbLine
 62
7
  6
CONTINUOUS
 10
116.7738506683
 20
72.1681458689
 11
117.7738506683
 21
72.1681458689
  0
LINE
  5
3F4
100
AcDbEntity
  8
0
100
AcDbLine
 62
7
  6
CONTINUOUS
 10
105.7448649889
 20
63.6681458689
 11
105.7448649889
 21
63.1681458689
  0
LINE
  5
3F5
100
AcDbEntity
  8
RUNDUNGEN
100
AcDbLine
 62
7
  6
CONTINUOUS
 10
109.5626166428
 20
61.1681458689
 11
109.9760871062
 21
61.6335998959
  0
LWPOLYLINE
  5
3F6
100
AcDbEntity
  8
RUNDUNGEN
100
AcDbPolyline
 62
7
  6
CONTINUOUS
 90
12
 70
0
 10
109.9760871062
 20
61.6335998959
 10
110.3495794881
 20
62.0497220942
 10
110.6894700797
 20
62.4182322993
 10
110.9972429593
 20
62.7370312999
 10
111.2732416638
 20
63.0047305145
 10
111.5193081747
 20
63.2232366138
 10
111.7348314117
 20
63.3938115686
 10
111.9196057877
 20
63.5196623638
 10
112.0712776719
 20
63.6040373936
 10
112.1826970137
 20
63.6503475984
 10
112.2451063802
 20
63.6665706963
 10
112.2594603459
 20
63.6681452226
  0
LINE
  5
3F7
100
AcDbEntity
  8
RUNDUNGEN
100
AcDbLine
 62
7
  6
CONTINUOUS
 10
103.2738506683
 20
74.6681458689
 11
114.7738506683
 21
74.6681458689
  0
LWPOLYLINE
  5
3F8
100
AcDbEntity
  8
BEZUGSACHSEN
100
AcDbPolyline
 62
7
  6
CONTINUOUS
 90
13
 70
0
 10
112.2594658672
 20
72.1681465154
 10
112.2451866275
 20
72.1697082714
 10
112.1830012893
 20
72.1858430307
 10
112.0719142152
 20
72.2319457133
 10
111.920678203
 20
72.3159656922
 10
111.7364500417
 20
72.4412876368
 10
111.521675044
 20
72.6110657979
 10
111.2767393535
 20
72.8283077197
 10
111.0021135956
 20
73.0943678799
 10
110.6959218376
 20
73.4112066411
 10
110.3575976405
 20
73.7777360657
 10
109.9854189711
 20
74.1922145792
 10
109.5625673683
 20
74.6681458689
  0
LINE
  5
3F9
100
AcDbEntity
  8
0
100
AcDbLine
 62
7
  6
CONTINUOUS
 10
107.2448649889
 20
63.6681458689
 11
107.2448649889
 21
63.1681458689
  0
LINE
  5
3FA
100
AcDbEntity
  8
RUNDUNGEN
100
AcDbLine
 62
7
  6
CONTINUOUS
 10
114.7738506683
 20
78.9181458689
 11
98.9820546008
 21
78.9181458689
  0
LWPOLYLINE
  5
3FB
100
AcDbEntity
  8
BEZUGSACHSEN
100
AcDbPolyline
 62
7
  6
CONTINUOUS
 90
20
 70
0
 10
105.1639515904
 20
78.9181458689
 10
104.138140772
 20
79.6408118515
 10
102.8985796115
 20
80.3824123063
 10
101.5659086013
 20
81.0503508612
 10
100.1501900949
 20
81.6331315287
 10
98.6633720364
 20
82.121108814
 10
97.1185452416
 20
82.5067044662
 10
95.5302983022
 20
82.78463677
 10
93.9132961015
 20
82.9518903312
 10
92.2819967073
 20
83.0077928245
 10
90.6506115062
 20
82.9529957502
 10
89.0333726558
 20
82.7868488988
 10
87.4447402741
 20
82.5100006859
 10
85.8993879648
 20
82.1254461583
 10
84.411925026
 20
81.6384496227
 10
82.9954597519
 20
81.0565735591
 10
81.6619591736
 20
80.3894526182
 10
80.4215159445
 20
79.6485828077
 10
79.284801423
 20
78.84906643
 10
78.3639726045
 20
78.1001218094
  0
LWPOLYLINE
  5
3FC
100
AcDbEntity
  8
BEZUGSACHSEN
100
AcDbPolyline
 62
7
  6
CONTINUOUS
 90
7
 70
0
 10
115.6441097758
 20
67.9181458689
 10
115.6419105912
 20
68.2901810034
 10
115.6313189912
 20
68.8160652694
 10
115.6117801528
 20
69.3470309599
 10
115.5831165053
 20
69.8821186024
 10
115.5452050636
 20
70.420347932
 10
115.5126213488
 20
70.8040041043
  0
LINE
  5
3FD
100
AcDbEntity
  8
RUNDUNGEN
100
AcDbLine
 62
7
  6
CONTINUOUS
 10
115.7738506683
 20
73.6681458689
 11
115.7738506683
 21
73.1681458689
  0
LINE
  5
3FE
100
AcDbEntity
  8
RUNDUNGEN
100
AcDbLine
 62
7
  6
CONTINUOUS
 10
115.7738506683
 20
62.6681458689
 11
115.7738506683
 21
62.1681458689
  0
LWPOLYLINE
  5
3FF
100
AcDbEntity
  8
RUNDUNGEN
100
AcDbPolyline
 62
7
  6
CONTINUOUS
 90
7
 70
0
 10
115.5126213488
 20
65.0322876335
 10
115.5452050636
 20
65.4159438058
 10
115.5831165053
 20
65.9541731355
 10
115.6117801528
 20
66.489260778
 10
115.6313189912
 20
67.0202264686
 10
115.6419105912
 20
67.5461107345
 10
115.6441097758
 20
67.9181458689
  0
LINE
  5
400
100
AcDbEntity
  8
RUNDUNGEN
100
AcDbLine
 62
7
  6
CONTINUOUS
 10
118.7738506683
 20
60.9181458689
 11
118.7738506683
 21
62.6681458689
  0
LINE
  5
401
100
AcDbEntity
  8
RUNDUNGEN
100
AcDbLine
 62
7
  6
CONTINUOUS
 10
118.7738506683
 20
73.1681458689
 11
118.7738506683
 21
74.9181458689
  0
ARC
  5
402
100
AcDbEntity
  8
BEZUGSACHSEN
100
AcDbCircle
 62
7
  6
CONTINUOUS
 10
74.7738506683
 20
127.2101009273
 40
5.0
100
AcDbArc
 50
0.0
 51
77.2303865883
  0
ARC
  5
403
100
AcDbEntity
  8
BEZUGSACHSEN
100
AcDbCircle
 62
7
  6
CONTINUOUS
 10
85.6242060584
 20
145.7413509273
 40
5.0
100
AcDbArc
 50
207.5467144367
 51
224.6474603225
  0
ARC
  5
404
100
AcDbEntity
  8
RUNDUNGEN
100
AcDbCircle
 62
7
  6
CONTINUOUS
 10
85.6242060584
 20
145.7413509273
 40
5.0
100
AcDbArc
 50
207.5467144367
 51
228.318614542
  0
ARC
  5
405
100
AcDbEntity
  8
RUNDUNGEN
100
AcDbCircle
 62
7
  6
CONTINUOUS
 10
73.7738506683
 20
134.2101009273
 40
1.0
100
AcDbArc
 50
180.0
 51
270.0
  0
ARC
  5
406
100
AcDbEntity
  8
BEZUGSACHSEN
100
AcDbCircle
 62
7
  6
CONTINUOUS
 10
74.7453910789
 20
132.2101013941
 40
0.9999999066
100
AcDbArc
 50
22.4999845593
 51
90.0000242219
  0
ARC
  5
407
100
AcDbEntity
  8
BEZUGSACHSEN
100
AcDbCircle
 62
7
  6
CONTINUOUS
 10
71.7738506683
 20
139.3840423718
 40
0.9999997272
100
AcDbArc
 50
359.9994668798
 51
22.4995074591
  0
ARC
  5
408
100
AcDbEntity
  8
RUNDUNGEN
100
AcDbCircle
 62
7
  6
CONTINUOUS
 10
84.7738506683
 20
143.5101009273
 40
0.5
100
AcDbArc
 50
180.0
 51
270.0
  0
ARC
  5
409
100
AcDbEntity
  8
RUNDUNGEN
100
AcDbCircle
 62
7
  6
CONTINUOUS
 10
84.7738506683
 20
145.0101009273
 40
0.5
100
AcDbArc
 50
90.0
 51
180.0
  0
ARC
  5
40A
100
AcDbEntity
  8
0
100
AcDbCircle
 62
7
  6
CONTINUOUS
 10
90.3913703058
 20
156.962733854
 40
18.5142246394
100
AcDbArc
 50
262.9838278117
 51
263.3180380407
  0
ARC
  5
40B
100
AcDbEntity
  8
0
100
AcDbCircle
 62
7
  6
CONTINUOUS
 10
94.2384905724
 20
156.2796120182
 40
17.8261810219
100
AcDbArc
 50
276.7225560852
 51
277.1324118561
  0
ARC
  5
40C
100
AcDbEntity
  8
0
100
AcDbCircle
 62
7
  6
CONTINUOUS
 10
90.2930515646
 20
156.1344452614
 40
17.6801292897
100
AcDbArc
 50
262.8577353229
 51
262.9721855468
  0
ARC
  5
40D
100
AcDbEntity
  8
0
100
AcDbCircle
 62
7
  6
CONTINUOUS
 10
92.2738506683
 20
153.2101009273
 40
15.0
100
AcDbArc
 50
228.3198055131
 51
229.3357703763
  0
ARC
  5
40E
100
AcDbEntity
  8
0
100
AcDbCircle
 62
7
  6
CONTINUOUS
 10
92.2738506683
 20
153.2101009273
 40
15.0
100
AcDbArc
 50
310.6642498434
 51
311.6800498572
  0
ARC
  5
40F
100
AcDbEntity
  8
0
100
AcDbCircle
 62
7
  6
CONTINUOUS
 10
92.2738506683
 20
153.2101009273
 40
15.0
100
AcDbArc
 50
265.5407412102
 51
274.4595626198
  0
ARC
  5
410
100
AcDbEntity
  8
BEZUGSACHSEN
100
AcDbCircle
 62
7
  6
CONTINUOUS
 10
92.2738506683
 20
149.2101009273
 40
12.5
100
AcDbArc
 50
342.7852021845
 51
345.5083194415
  0
ARC
  5
411
100
AcDbEntity
  8
BEZUGSACHSEN
100
AcDbCircle
 62
7
  6
CONTINUOUS
 10
92.2738506683
 20
149.2101009273
 40
12.5
100
AcDbArc
 50
194.4916805585
 51
207.5478133357
  0
ARC
  5
412
100
AcDbEntity
  8
RUNDUNGEN
100
AcDbCircle
 62
7
  6
CONTINUOUS
 10
92.2738506683
 20
149.2101009273
 40
12.5
100
AcDbArc
 50
342.7852021845
 51
207.5478133357
  0
ARC
  5
413
100
AcDbEntity
  8
RUNDUNGEN
100
AcDbCircle
 62
7
  6
CONTINUOUS
 10
92.2738506683
 20
171.0865126269
 40
1.5
100
AcDbArc
 50
67.5
 51
112.5
  0
ARC
  5
414
100
AcDbEntity
  8
RUNDUNGEN
100
AcDbCircle
 62
7
  6
CONTINUOUS
 10
76.8048916075
 20
164.6790599881
 40
1.5
100
AcDbArc
 50
112.5
 51
157.5
  0
ARC
  5
415
100
AcDbEntity
  8
BEZUGSACHSEN
100
AcDbCircle
 62
7
  6
CONTINUOUS
 10
70.4035907509
 20
149.2249526434
 40
1.5
100
AcDbArc
 50
157.5000966532
 51
202.5000683439
  0
ARC
  5
416
100
AcDbEntity
  8
BEZUGSACHSEN
100
AcDbCircle
 62
7
  6
CONTINUOUS
 10
109.7738506683
 20
127.2101009273
 40
5.0
100
AcDbArc
 50
102.7696134117
 51
180.0
  0
ARC
  5
417
100
AcDbEntity
  8
RUNDUNGEN
100
AcDbCircle
 62
7
  6
CONTINUOUS
 10
98.9234952781
 20
145.7413509273
 40
5.0
100
AcDbArc
 50
311.680951574
 51
326.8849091002
  0
ARC
  5
418
100
AcDbEntity
  8
BEZUGSACHSEN
100
AcDbCircle
 62
7
  6
CONTINUOUS
 10
98.9234952781
 20
145.7413509273
 40
5.0
100
AcDbArc
 50
315.3527770305
 51
326.8849091002
  0
ARC
  5
419
100
AcDbEntity
  8
RUNDUNGEN
100
AcDbCircle
 62
7
  6
CONTINUOUS
 10
110.7738506683
 20
134.2101009273
 40
1.0
100
AcDbArc
 50
270.0
 51
360.0
  0
ARC
  5
41A
100
AcDbEntity
  8
BEZUGSACHSEN
100
AcDbCircle
 62
7
  6
CONTINUOUS
 10
109.8023105379
 20
132.2101010081
 40
0.9999999838
100
AcDbArc
 50
89.9999918339
 51
157.5000011528
  0
ARC
  5
41B
100
AcDbEntity
  8
BEZUGSACHSEN
100
AcDbCircle
 62
7
  6
CONTINUOUS
 10
112.7738506683
 20
139.3840371491
 40
0.9999999177
100
AcDbArc
 50
157.5002160809
 51
180.0002338839
  0
ARC
  5
41C
100
AcDbEntity
  8
RUNDUNGEN
100
AcDbCircle
 62
7
  6
CONTINUOUS
 10
118.2738506683
 20
143.5101009273
 40
0.5
100
AcDbArc
 50
270.0
 51
360.0
  0
ARC
  5
41D
100
AcDbEntity
  8
RUNDUNGEN
100
AcDbCircle
 62
7
  6
CONTINUOUS
 10
118.2738506683
 20
145.0101009273
 40
0.5
100
AcDbArc
 50
0.0
 51
90.0
  0
ARC
  5
41E
100
AcDbEntity
  8
BEZUGSACHSEN
100
AcDbCircle
 62
7
  6
CONTINUOUS
 10
114.1441101203
 20
149.2249537669
 40
1.5
100
AcDbArc
 50
337.4998988125
 51
22.4998568986
  0
ARC
  5
41F
100
AcDbEntity
  8
RUNDUNGEN
100
AcDbCircle
 62
7
  6
CONTINUOUS
 10
107.7428097291
 20
164.6790599881
 40
1.5
100
AcDbArc
 50
22.5
 51
67.5
  0
ARC
  5
420
100
AcDbEntity
  8
0
100
AcDbCircle
 62
7
  6
CONTINUOUS
 10
106.2738506683
 20
161.0194984406
 40
1.25
100
AcDbArc
 50
39.0304446498
 51
221.239813447
  0
ARC
  5
421
100
AcDbEntity
  8
0
100
AcDbCircle
 62
7
  6
CONTINUOUS
 10
104.7738506683
 20
162.5194984406
 40
1.25
100
AcDbArc
 50
39.0304446498
 51
221.239813447
  0
ARC
  5
422
100
AcDbEntity
  8
0
100
AcDbCircle
 62
7
  6
CONTINUOUS
 10
106.2738506683
 20
161.0194984406
 40
0.88
100
AcDbArc
 50
147.4688671253
 51
233.4952415783
  0
ARC
  5
423
100
AcDbEntity
  8
0
100
AcDbCircle
 62
7
  6
CONTINUOUS
 10
106.2738506683
 20
161.0194984406
 40
0.88
100
AcDbArc
 50
36.5047584217
 51
123.0056861701
  0
ARC
  5
424
100
AcDbEntity
  8
0
100
AcDbCircle
 62
7
  6
CONTINUOUS
 10
104.7738506683
 20
162.5194984406
 40
0.88
100
AcDbArc
 50
47.6447948634
 51
233.4952415783
  0
ARC
  5
425
100
AcDbEntity
  8
0
100
AcDbCircle
 62
7
  6
CONTINUOUS
 10
22.642614122
 20
162.7171616322
 40
173.7538741946
100
AcDbArc
 50
349.4170900124
 51
349.5312675188
  0
ARC
  5
426
100
AcDbEntity
  8
0
100
AcDbCircle
 62
7
  6
CONTINUOUS
 10
57.4848060973
 20
167.2329321633
 40
141.9373647795
100
AcDbArc
 50
346.1810411215
 51
346.2990055155
  0
ARC
  5
427
100
AcDbEntity
  8
0
100
AcDbCircle
 62
7
  6
CONTINUOUS
 10
111.8329336648
 20
168.2468052502
 40
89.4966153986
100
AcDbArc
 50
336.8196919455
 51
336.9973843167
  0
ARC
  5
428
100
AcDbEntity
  8
0
100
AcDbCircle
 62
7
  6
CONTINUOUS
 10
122.5386910057
 20
142.2196175743
 40
72.5049554062
100
AcDbArc
 50
351.0108876107
 51
351.4192016224
  0
ARC
  5
429
100
AcDbEntity
  8
0
100
AcDbCircle
 62
7
  6
CONTINUOUS
 10
-8.9778560522
 20
208.368877848
 40
217.2282869203
100
AcDbArc
 50
339.5602612555
 51
339.7039289203
  0
ARC
  5
42A
100
AcDbEntity
  8
0
100
AcDbCircle
 62
7
  6
CONTINUOUS
 10
39.9707251861
 20
192.8454392447
 40
165.8466701577
100
AcDbArc
 50
338.6969027808
 51
338.8546103903
  0
ARC
  5
42B
100
AcDbEntity
  8
0
100
AcDbCircle
 62
7
  6
CONTINUOUS
 10
48.4598360814
 20
189.8363003542
 40
156.3349989274
100
AcDbArc
 50
338.5211699749
 51
338.6886674757
  0
ARC
  5
42C
100
AcDbEntity
  8
0
100
AcDbCircle
 62
7
  6
CONTINUOUS
 10
72.3278529755
 20
175.1530600089
 40
129.9834478925
100
AcDbArc
 50
340.2110250272
 51
340.3305863067
  0
ARC
  5
42D
100
AcDbEntity
  8
0
100
AcDbCircle
 62
7
  6
CONTINUOUS
 10
107.9857824508
 20
169.7342040766
 40
94.1213479898
100
AcDbArc
 50
337.040035309
 51
337.2087268578
  0
ARC
  5
42E
100
AcDbEntity
  8
0
100
AcDbCircle
 62
7
  6
CONTINUOUS
 10
126.1277858763
 20
147.825572609
 40
70.6144260087
100
AcDbArc
 50
347.8959615094
 51
348.2485143427
  0
ARC
  5
42F
100
AcDbEntity
  8
0
100
AcDbCircle
 62
7
  6
CONTINUOUS
 10
156.990430039
 20
147.1988474743
 40
40.8520168314
100
AcDbArc
 50
336.6012654182
 51
337.2510121237
  0
ARC
  5
430
100
AcDbEntity
  8
0
100
AcDbCircle
 62
7
  6
CONTINUOUS
 10
168.5725181607
 20
138.3027438841
 40
27.2176667637
100
AcDbArc
 50
350.0810266176
 51
350.6262081749
  0
ARC
  5
431
100
AcDbEntity
  8
0
100
AcDbCircle
 62
7
  6
CONTINUOUS
 10
169.1865251657
 20
132.0045653936
 40
24.8305525742
100
AcDbArc
 50
356.6429268416
 51
357.2329133277
  0
ARC
  5
432
100
AcDbEntity
  8
0
100
AcDbCircle
 62
7
  6
CONTINUOUS
 10
169.4432237359
 20
131.7678601512
 40
24.0170161333
100
AcDbArc
 50
357.0946439559
 51
357.7043724545
  0
ARC
  5
433
100
AcDbEntity
  8
0
100
AcDbCircle
 62
7
  6
CONTINUOUS
 10
176.6971028656
 20
137.6058619881
 40
11.7691025562
100
AcDbArc
 50
215.2949343011
 51
216.3167060958
  0
ARC
  5
434
100
AcDbEntity
  8
0
100
AcDbCircle
 62
7
  6
CONTINUOUS
 10
176.6434203291
 20
137.0412333065
 40
11.5489894123
100
AcDbArc
 50
214.1952727138
 51
215.2225208712
  0
ARC
  5
435
100
AcDbEntity
  8
0
100
AcDbCircle
 62
7
  6
CONTINUOUS
 10
176.945737891
 20
137.5310809661
 40
11.4866181273
100
AcDbArc
 50
215.8372158529
 51
216.8915815063
  0
ARC
  5
436
100
AcDbEntity
  8
0
100
AcDbCircle
 62
7
  6
CONTINUOUS
 10
184.7804405235
 20
136.5361376076
 40
11.1935803442
100
AcDbArc
 50
328.699284346
 51
329.7135447957
  0
ARC
  5
437
100
AcDbEntity
  8
0
100
AcDbCircle
 62
7
  6
CONTINUOUS
 10
184.5054366816
 20
134.2950372581
 40
10.8016270645
100
AcDbArc
 50
356.3865858385
 51
356.8392518208
  0
ARC
  5
438
100
AcDbEntity
  8
0
100
AcDbCircle
 62
7
  6
CONTINUOUS
 10
184.520077673
 20
134.294112717
 40
10.7869569109
100
AcDbArc
 50
355.9339585514
 51
356.3865856615
  0
ARC
  5
439
100
AcDbEntity
  8
0
100
AcDbCircle
 62
7
  6
CONTINUOUS
 10
184.3957274885
 20
130.376352779
 40
9.7709770003
100
AcDbArc
 50
2.0198571228
 51
3.018941608
  0
ARC
  5
43A
100
AcDbEntity
  8
0
100
AcDbCircle
 62
7
  6
CONTINUOUS
 10
186.2690298286
 20
135.363691479
 40
9.4339206645
100
AcDbArc
 50
327.5025758594
 51
329.3229977996
  0
ARC
  5
43B
100
AcDbEntity
  8
0
100
AcDbCircle
 62
7
  6
CONTINUOUS
 10
186.7616248951
 20
134.4407434686
 40
8.6839136952
100
AcDbArc
 50
356.2294169991
 51
357.9162541873
  0
ARC
  5
43C
100
AcDbEntity
  8
0
100
AcDbCircle
 62
7
  6
CONTINUOUS
 10
186.3240045657
 20
129.616606968
 40
7.7072561234
100
AcDbArc
 50
5.051259067
 51
6.9598654845
  0
ARC
  5
43D
100
AcDbEntity
  8
0
100
AcDbCircle
 62
7
  6
CONTINUOUS
 10
186.0261953795
 20
129.5417037096
 40
7.471593026
100
AcDbArc
 50
5.7880687928
 51
7.7598402304
  0
ARC
  5
43E
100
AcDbEntity
  8
0
100
AcDbCircle
 62
7
  6
CONTINUOUS
 10
171.0866709372
 20
134.5894643597
 40
5.7231566706
100
AcDbArc
 50
227.3460682881
 51
228.6189853399
  0
ARC
  5
43F
100
AcDbEntity
  8
0
100
AcDbCircle
 62
7
  6
CONTINUOUS
 10
170.4147290471
 20
135.234217734
 40
5.3103297133
100
AcDbArc
 50
239.9936229161
 51
241.8841244441
  0
ARC
  5
440
100
AcDbEntity
  8
0
100
AcDbCircle
 62
7
  6
CONTINUOUS
 10
169.8683502009
 20
135.1030141523
 40
5.1964058982
100
AcDbArc
 50
239.2835879976
 51
241.1735191524
  0
ARC
  5
441
100
AcDbEntity
  8
0
100
AcDbCircle
 62
7
  6
CONTINUOUS
 10
169.60483802
 20
134.764489806
 40
5.0270819533
100
AcDbArc
 50
242.7529989036
 51
244.9543369017
  0
ARC
  5
442
100
AcDbEntity
  8
BEZUGSACHSEN
100
AcDbCircle
 62
7
  6
CONTINUOUS
 10
180.6083041849
 20
137.2101009273
 40
4.0
100
AcDbArc
 50
185.8667885188
 51
354.1332114812
  0
ARC
  5
443
100
AcDbEntity
  8
BEZUGSACHSEN
100
AcDbCircle
 62
7
  6
CONTINUOUS
 10
167.0186558609
 20
135.9046354307
 40
1.5
100
AcDbArc
 50
105.0
 51
197.0
  0
ARC
  5
444
100
AcDbEntity
  8
0
100
AcDbCircle
 62
7
  6
CONTINUOUS
 10
162.2858251661
 20
142.3265875634
 40
34.3964968909
100
AcDbArc
 50
345.1657538305
 51
346.3512859823
  0
ARC
  5
445
100
AcDbEntity
  8
0
100
AcDbCircle
 62
7
  6
CONTINUOUS
 10
163.3358117674
 20
142.0497653171
 40
33.3106308976
100
AcDbArc
 50
344.6476775648
 51
344.990660451
  0
ARC
  5
446
100
AcDbEntity
  8
0
100
AcDbCircle
 62
7
  6
CONTINUOUS
 10
163.8031266305
 20
141.9212993389
 40
32.8259798239
100
AcDbArc
 50
344.1830357731
 51
344.6479540973
  0
ARC
  5
447
100
AcDbEntity
  8
0
100
AcDbCircle
 62
7
  6
CONTINUOUS
 10
164.3729812064
 20
141.7596750686
 40
32.2336483216
100
AcDbArc
 50
343.5970477174
 51
344.1833597393
  0
ARC
  5
448
100
AcDbEntity
  8
0
100
AcDbCircle
 62
7
  6
CONTINUOUS
 10
164.8092032142
 20
141.6317377648
 40
31.7790524748
100
AcDbArc
 50
343.3896735378
 51
343.5962274912
  0
ARC
  5
449
100
AcDbEntity
  8
0
100
AcDbCircle
 62
7
  6
CONTINUOUS
 10
165.1828019663
 20
141.5200804824
 40
31.3891251284
100
AcDbArc
 50
343.0005553943
 51
343.3900397003
  0
ARC
  5
44A
100
AcDbEntity
  8
0
100
AcDbCircle
 62
7
  6
CONTINUOUS
 10
165.9030982416
 20
141.2988889297
 40
30.6356322467
100
AcDbArc
 50
342.1577802919
 51
343.0023126429
  0
ARC
  5
44B
100
AcDbEntity
  8
BEZUGSACHSEN
100
AcDbCircle
 62
7
  6
CONTINUOUS
 10
169.3583041849
 20
145.3313898432
 40
7.0
100
AcDbArc
 50
284.9998929547
 51
0.0001066761
  0
ARC
  5
44C
100
AcDbEntity
  8
RUNDUNGEN
100
AcDbCircle
 62
7
  6
CONTINUOUS
 10
170.1083041849
 20
143.5101009273
 40
0.5
100
AcDbArc
 50
180.0
 51
270.0
  0
ARC
  5
44D
100
AcDbEntity
  8
RUNDUNGEN
100
AcDbCircle
 62
7
  6
CONTINUOUS
 10
173.1083041849
 20
143.5101009273
 40
0.5
100
AcDbArc
 50
180.0
 51
269.9999999999
  0
ARC
  5
44E
100
AcDbEntity
  8
RUNDUNGEN
100
AcDbCircle
 62
7
  6
CONTINUOUS
 10
173.1083041849
 20
145.0101009273
 40
0.5
100
AcDbArc
 50
90.0
 51
180.0
  0
ARC
  5
44F
100
AcDbEntity
  8
RUNDUNGEN
100
AcDbCircle
 62
7
  6
CONTINUOUS
 10
170.1083041849
 20
145.0101009273
 40
0.5
100
AcDbArc
 50
90.0
 51
180.0
  0
ARC
  5
450
100
AcDbEntity
  8
0
100
AcDbCircle
 62
7
  6
CONTINUOUS
 10
175.4601940323
 20
139.6705392957
 40
21.0056516355
100
AcDbArc
 50
334.2675416308
 51
335.0381508117
  0
ARC
  5
451
100
AcDbEntity
  8
0
100
AcDbCircle
 62
7
  6
CONTINUOUS
 10
184.7480722355
 20
140.4163492547
 40
12.3605810797
100
AcDbArc
 50
326.1388289603
 51
327.0837964673
  0
ARC
  5
452
100
AcDbEntity
  8
0
100
AcDbCircle
 62
7
  6
CONTINUOUS
 10
186.2756184137
 20
140.2745100838
 40
10.8734320017
100
AcDbArc
 50
324.0949447307
 51
325.5592126929
  0
ARC
  5
453
100
AcDbEntity
  8
0
100
AcDbCircle
 62
7
  6
CONTINUOUS
 10
185.9699868814
 20
140.2201881622
 40
10.6518863489
100
AcDbArc
 50
323.4027260779
 51
325.095010246
  0
ARC
  5
454
100
AcDbEntity
  8
0
100
AcDbCircle
 62
7
  6
CONTINUOUS
 10
176.0859710366
 20
144.6421141208
 40
21.8209736908
100
AcDbArc
 50
329.6438021849
 51
330.4176758619
  0
ARC
  5
455
100
AcDbEntity
  8
0
100
AcDbCircle
 62
7
  6
CONTINUOUS
 10
176.2054966516
 20
144.4262772742
 40
21.1406991476
100
AcDbArc
 50
329.2410823567
 51
330.0430139929
  0
ARC
  5
456
100
AcDbEntity
  8
RUNDUNGEN
100
AcDbCircle
 62
7
  6
CONTINUOUS
 10
188.1083041849
 20
143.5101009273
 40
0.5
100
AcDbArc
 50
270.0
 51
360.0
  0
ARC
  5
457
100
AcDbEntity
  8
RUNDUNGEN
100
AcDbCircle
 62
7
  6
CONTINUOUS
 10
188.1083041849
 20
145.0101009273
 40
0.5
100
AcDbArc
 50
0.0
 51
89.9999999998
  0
ARC
  5
458
100
AcDbEntity
  8
0
100
AcDbCircle
 62
7
  6
CONTINUOUS
 10
132.4899953115
 20
154.9674917122
 40
66.5543615455
100
AcDbArc
 50
338.7132197014
 51
338.974883274
  0
ARC
  5
459
100
AcDbEntity
  8
0
100
AcDbCircle
 62
7
  6
CONTINUOUS
 10
131.8372912925
 20
151.7003285741
 40
66.2511168635
100
AcDbArc
 50
340.7462562693
 51
341.3167360498
  0
ARC
  5
45A
100
AcDbEntity
  8
0
100
AcDbCircle
 62
7
  6
CONTINUOUS
 10
134.7301913206
 20
151.4743287831
 40
63.4149337972
100
AcDbArc
 50
340.0660152746
 51
340.6647212058
  0
ARC
  5
45B
100
AcDbEntity
  8
0
100
AcDbCircle
 62
7
  6
CONTINUOUS
 10
137.5852192475
 20
150.3603186564
 40
59.8569094644
100
AcDbArc
 50
339.8077789461
 51
340.281298063
  0
ARC
  5
45C
100
AcDbEntity
  8
0
100
AcDbCircle
 62
7
  6
CONTINUOUS
 10
143.0423200278
 20
157.3236609272
 40
57.0345218648
100
AcDbArc
 50
335.2478541513
 51
335.4365339445
  0
ARC
  5
45D
100
AcDbEntity
  8
0
100
AcDbCircle
 62
7
  6
CONTINUOUS
 10
143.7979806007
 20
156.9752599573
 40
56.2024124145
100
AcDbArc
 50
335.0571700327
 51
335.2478563342
  0
ARC
  5
45E
100
AcDbEntity
  8
0
100
AcDbCircle
 62
7
  6
CONTINUOUS
 10
145.1716193438
 20
156.3666914379
 40
54.2067563242
100
AcDbArc
 50
334.7852261503
 51
335.1823023439
  0
ARC
  5
45F
100
AcDbEntity
  8
0
100
AcDbCircle
 62
7
  6
CONTINUOUS
 10
160.1914203677
 20
150.1821241105
 40
38.597956818
100
AcDbArc
 50
333.5975087911
 51
334.1583821889
  0
ARC
  5
460
100
AcDbEntity
  8
0
100
AcDbCircle
 62
7
  6
CONTINUOUS
 10
198.9207687355
 20
142.3240088444
 40
34.3861559869
100
AcDbArc
 50
193.6658426262
 51
194.8343647535
  0
ARC
  5
461
100
AcDbEntity
  8
0
100
AcDbCircle
 62
7
  6
CONTINUOUS
 10
197.389654803
 20
141.1538365215
 40
32.5792170574
100
AcDbArc
 50
193.5345824815
 51
195.511933584
  0
ARC
  5
462
100
AcDbEntity
  8
0
100
AcDbCircle
 62
7
  6
CONTINUOUS
 10
197.1451917409
 20
141.8493664953
 40
32.5482237674
100
AcDbArc
 50
195.0039571962
 51
196.9817908918
  0
ARC
  5
463
100
AcDbEntity
  8
0
100
AcDbCircle
 62
7
  6
CONTINUOUS
 10
195.9777643678
 20
140.7634266355
 40
31.1143442263
100
AcDbArc
 50
195.5145218573
 51
196.5273636143
  0
ARC
  5
464
100
AcDbEntity
  8
RUNDUNGEN
100
AcDbCircle
 62
7
  6
CONTINUOUS
 10
191.8583041849
 20
145.3313898432
 40
7.0
100
AcDbArc
 50
179.9998933239
 51
255.0001070453
  0
ARC
  5
465
100
AcDbEntity
  8
0
100
AcDbCircle
 62
7
  6
CONTINUOUS
 10
193.0115626839
 20
136.6705786109
 40
3.6457444847
100
AcDbArc
 50
305.4171355254
 51
307.295197692
  0
ARC
  5
466
100
AcDbEntity
  8
0
100
AcDbCircle
 62
7
  6
CONTINUOUS
 10
192.2193588096
 20
133.4641722479
 40
3.4705610378
100
AcDbArc
 50
305.4117221053
 51
305.8116119497
  0
ARC
  5
467
100
AcDbEntity
  8
0
100
AcDbCircle
 62
7
  6
CONTINUOUS
 10
193.1722396275
 20
136.4571241509
 40
3.3785789699
100
AcDbArc
 50
307.3208777843
 51
307.7181909142
  0
ARC
  5
468
100
AcDbEntity
  8
0
100
AcDbCircle
 62
7
  6
CONTINUOUS
 10
192.9834076763
 20
137.0095025768
 40
3.3595243895
100
AcDbArc
 50
300.8395694212
 51
303.5635418514
  0
ARC
  5
469
100
AcDbEntity
  8
0
100
AcDbCircle
 62
7
  6
CONTINUOUS
 10
193.5172483764
 20
136.9449339689
 40
3.3061274914
100
AcDbArc
 50
301.4667391723
 51
304.1876893664
  0
ARC
  5
46A
100
AcDbEntity
  8
0
100
AcDbCircle
 62
7
  6
CONTINUOUS
 10
192.3845519419
 20
133.2382249172
 40
3.1906724637
100
AcDbArc
 50
305.7800821472
 51
307.9065233425
  0
ARC
  5
46B
100
AcDbEntity
  8
0
100
AcDbCircle
 62
7
  6
CONTINUOUS
 10
192.4943921918
 20
132.8409312185
 40
3.0786839994
100
AcDbArc
 50
301.2920621638
 51
304.2197224745
  0
ARC
  5
46C
100
AcDbEntity
  8
0
100
AcDbCircle
 62
7
  6
CONTINUOUS
 10
192.9449049503
 20
129.6534692035
 40
1.6177333575
100
AcDbArc
 50
37.3817896976
 51
41.279415916
  0
ARC
  5
46D
100
AcDbEntity
  8
RUNDUNGEN
100
AcDbCircle
 62
7
  6
CONTINUOUS
 10
194.1979525088
 20
135.9046354307
 40
1.5
100
AcDbArc
 50
343.0
 51
75.0
  0
ARC
  5
46E
100
AcDbEntity
  8
0
100
AcDbCircle
 62
7
  6
CONTINUOUS
 10
194.0864118654
 20
133.0295528216
 40
1.3780150137
100
AcDbArc
 50
29.0872676412
 51
33.2231533821
  0
ARC
  5
46F
100
AcDbEntity
  8
RUNDUNGEN
100
AcDbCircle
 62
7
  6
CONTINUOUS
 10
191.1083041849
 20
143.5101009273
 40
0.5
100
AcDbArc
 50
270.0
 51
360.0
  0
ARC
  5
470
100
AcDbEntity
  8
RUNDUNGEN
100
AcDbCircle
 62
7
  6
CONTINUOUS
 10
191.1083041849
 20
145.0101009273
 40
0.5
100
AcDbArc
 50
0.0
 51
90.0
  0
ARC
  5
471
100
AcDbEntity
  8
0
100
AcDbCircle
 62
7
  6
CONTINUOUS
 10
255.0149902155
 20
167.002060531
 40
95.0828177054
100
AcDbArc
 50
202.2095865289
 51
202.3758670538
  0
ARC
  5
472
100
AcDbEntity
  8
0
100
AcDbCircle
 62
7
  6
CONTINUOUS
 10
251.0504355053
 20
165.4978543049
 40
90.3431416831
100
AcDbArc
 50
202.4065816201
 51
202.5818394904
  0
ARC
  5
473
100
AcDbEntity
  8
0
100
AcDbCircle
 62
7
  6
CONTINUOUS
 10
231.2360333928
 20
152.3320741824
 40
68.2123625929
100
AcDbArc
 50
198.5463664971
 51
198.8253689798
  0
ARC
  5
474
100
AcDbEntity
  8
0
100
AcDbCircle
 62
7
  6
CONTINUOUS
 10
228.0409731251
 20
151.2367868702
 40
64.8347750233
100
AcDbArc
 50
198.9663761327
 51
199.4016227291
  0
ARC
  5
475
100
AcDbEntity
  8
0
100
AcDbCircle
 62
7
  6
CONTINUOUS
 10
218.7418080118
 20
153.416709474
 40
56.4860557588
100
AcDbArc
 50
203.502207035
 51
203.8792909693
  0
ARC
  5
476
100
AcDbEntity
  8
BEZUGSACHSEN
100
AcDbCircle
 62
7
  6
CONTINUOUS
 10
177.8583041849
 20
171.0865126269
 40
1.5
100
AcDbArc
 50
90.0
 51
180.0
  0
ARC
  5
477
100
AcDbEntity
  8
RUNDUNGEN
100
AcDbCircle
 62
7
  6
CONTINUOUS
 10
183.3583041849
 20
171.0865126269
 40
1.5
100
AcDbArc
 50
0.0
 51
90.0
  0
ARC
  5
478
100
AcDbEntity
  8
0
100
AcDbCircle
 62
7
  6
CONTINUOUS
 10
83.3547951361
 20
56.8835254861
 40
27.1359912389
100
AcDbArc
 50
73.9413460621
 51
74.4073444887
  0
ARC
  5
479
100
AcDbEntity
  8
0
100
AcDbCircle
 62
7
  6
CONTINUOUS
 10
92.2492965585
 20
61.5499368877
 40
21.5304609724
100
AcDbArc
 50
94.2629581093
 51
95.5985054871
  0
ARC
  5
47A
100
AcDbEntity
  8
0
100
AcDbCircle
 62
7
  6
CONTINUOUS
 10
93.430089713
 20
61.7443876012
 40
21.1498304043
100
AcDbArc
 50
81.9308543551
 51
83.2967413712
  0
ARC
  5
47B
100
AcDbEntity
  8
0
100
AcDbCircle
 62
7
  6
CONTINUOUS
 10
91.4379469864
 20
62.8688573055
 40
20.4275063156
100
AcDbArc
 50
74.4944985181
 51
75.9449468443
  0
ARC
  5
47C
100
AcDbEntity
  8
RUNDUNGEN
100
AcDbCircle
 62
7
  6
CONTINUOUS
 10
92.2738506683
 20
54.9181458689
 40
5.0
100
AcDbArc
 50
41.8103148958
 51
90.0
  0
ARC
  5
47D
100
AcDbEntity
  8
RUNDUNGEN
100
AcDbCircle
 62
7
  6
CONTINUOUS
 10
70.5289836857
 20
65.1682217985
 40
1.500081914
100
AcDbArc
 50
185.1992872741
 51
269.9974055994
  0
ARC
  5
47E
100
AcDbEntity
  8
0
100
AcDbCircle
 62
7
  6
CONTINUOUS
 10
88.1336351977
 20
76.1923930153
 40
23.1114827698
100
AcDbArc
 50
271.2773787759
 51
271.6470960779
  0
ARC
  5
47F
100
AcDbEntity
  8
0
100
AcDbCircle
 62
7
  6
CONTINUOUS
 10
92.298404778
 20
74.2863548504
 40
21.5304609727
100
AcDbArc
 50
274.2629581093
 51
275.5985054871
  0
ARC
  5
480
100
AcDbEntity
  8
0
100
AcDbCircle
 62
7
  6
CONTINUOUS
 10
91.1176116235
 20
74.0919041364
 40
21.1498304041
100
AcDbArc
 50
261.9308543551
 51
263.2967413712
  0
ARC
  5
481
100
AcDbEntity
  8
0
100
AcDbCircle
 62
7
  6
CONTINUOUS
 10
93.1097543502
 20
72.9674344325
 40
20.4275063157
100
AcDbArc
 50
254.4944985181
 51
255.9449468443
  0
ARC
  5
482
100
AcDbEntity
  8
0
100
AcDbCircle
 62
7
  6
CONTINUOUS
 10
92.2738506683
 20
67.9181458689
 40
10.25
100
AcDbArc
 50
327.1586616682
 51
335.4975345197
  0
ARC
  5
483
100
AcDbEntity
  8
0
100
AcDbCircle
 62
7
  6
CONTINUOUS
 10
92.2738506683
 20
67.9181458689
 40
10.25
100
AcDbArc
 50
204.501258881
 51
290.8096664652
  0
ARC
  5
484
100
AcDbEntity
  8
0
100
AcDbCircle
 62
7
  6
CONTINUOUS
 10
92.2738506683
 20
67.9181458689
 40
10.25
100
AcDbArc
 50
69.1903438897
 51
155.5013930846
  0
ARC
  5
485
100
AcDbEntity
  8
0
100
AcDbCircle
 62
7
  6
CONTINUOUS
 10
92.2738506683
 20
67.9181458689
 40
10.25
100
AcDbArc
 50
24.5012010942
 51
32.840314375
  0
ARC
  5
486
100
AcDbEntity
  8
RUNDUNGEN
100
AcDbCircle
 62
7
  6
CONTINUOUS
 10
92.2738506683
 20
67.9181458689
 40
10.0
100
AcDbArc
 50
327.8083696592
 51
334.8411804996
  0
ARC
  5
487
100
AcDbEntity
  8
RUNDUNGEN
100
AcDbCircle
 62
7
  6
CONTINUOUS
 10
92.2738506683
 20
67.9181458689
 40
10.0
100
AcDbArc
 50
25.1588195026
 51
32.191630338
  0
ARC
  5
488
100
AcDbEntity
  8
RUNDUNGEN
100
AcDbCircle
 62
7
  6
CONTINUOUS
 10
92.2738506683
 20
67.9181458689
 40
10.0
100
AcDbArc
 50
69.8433948355
 51
154.8411804996
  0
ARC
  5
489
100
AcDbEntity
  8
RUNDUNGEN
100
AcDbCircle
 62
7
  6
CONTINUOUS
 10
92.2738506683
 20
67.9181458689
 40
10.0
100
AcDbArc
 50
205.1588195026
 51
290.1566051624
  0
ARC
  5
48A
100
AcDbEntity
  8
RUNDUNGEN
100
AcDbCircle
 62
7
  6
CONTINUOUS
 10
92.2738506683
 20
67.9181458689
 40
8.0
100
AcDbArc
 50
90.0
 51
147.8509145224
  0
ARC
  5
48B
100
AcDbEntity
  8
RUNDUNGEN
100
AcDbCircle
 62
7
  6
CONTINUOUS
 10
92.2738506683
 20
67.9181458689
 40
8.0
100
AcDbArc
 50
212.1490854768
 51
270.0
  0
ARC
  5
48C
100
AcDbEntity
  8
RUNDUNGEN
100
AcDbCircle
 62
7
  6
CONTINUOUS
 10
92.2738506683
 20
80.9181458689
 40
5.0
100
AcDbArc
 50
270.0
 51
318.1896851042
  0
ARC
  5
48D
100
AcDbEntity
  8
BEZUGSACHSEN
100
AcDbCircle
 62
7
  6
CONTINUOUS
 10
70.5290402704
 20
70.6680079747
 40
1.5001559237
100
AcDbArc
 50
90.0047554726
 51
174.7985516537
  0
ARC
  5
48E
100
AcDbEntity
  8
0
100
AcDbCircle
 62
7
  6
CONTINUOUS
 10
96.4140735367
 20
59.6435959654
 40
23.1117856166
100
AcDbArc
 50
91.2773803793
 51
91.6421066615
  0
ARC
  5
48F
100
AcDbEntity
  8
RUNDUNGEN
100
AcDbCircle
 62
7
  6
CONTINUOUS
 10
98.9820546008
 20
60.9181458689
 40
4.0
100
AcDbArc
 50
221.8103148958
 51
270.0
  0
ARC
  5
490
100
AcDbEntity
  8
RUNDUNGEN
100
AcDbCircle
 62
7
  6
CONTINUOUS
 10
103.2738506683
 20
64.1681458689
 40
3.0
100
AcDbArc
 50
189.6035407662
 51
270.0
  0
ARC
  5
491
100
AcDbEntity
  8
RUNDUNGEN
100
AcDbCircle
 62
7
  6
CONTINUOUS
 10
114.7738506683
 20
60.9181458689
 40
4.0
100
AcDbArc
 50
270.0
 51
360.0
  0
ARC
  5
492
100
AcDbEntity
  8
RUNDUNGEN
100
AcDbCircle
 62
7
  6
CONTINUOUS
 10
114.7738506683
 20
62.1681458689
 40
1.0
100
AcDbArc
 50
270.0
 51
360.0
  0
ARC
  5
493
100
AcDbEntity
  8
RUNDUNGEN
100
AcDbCircle
 62
7
  6
CONTINUOUS
 10
114.018717297
 20
65.1682217983
 40
1.5000819139
100
AcDbArc
 50
270.0026731832
 51
354.8007340012
  0
ARC
  5
494
100
AcDbEntity
  8
RUNDUNGEN
100
AcDbCircle
 62
7
  6
CONTINUOUS
 10
116.7738506683
 20
62.6681458689
 40
1.0
100
AcDbArc
 50
90.0
 51
180.0
  0
ARC
  5
495
100
AcDbEntity
  8
RUNDUNGEN
100
AcDbCircle
 62
7
  6
CONTINUOUS
 10
117.7738506683
 20
62.6681458689
 40
1.0
100
AcDbArc
 50
0.0
 51
90.0
  0
ARC
  5
496
100
AcDbEntity
  8
0
100
AcDbCircle
 62
7
  6
CONTINUOUS
 10
101.1926179308
 20
78.9517439862
 40
27.13492911
100
AcDbArc
 50
253.9385442181
 51
254.4073505682
  0
ARC
  5
497
100
AcDbEntity
  8
RUNDUNGEN
100
AcDbCircle
 62
7
  6
CONTINUOUS
 10
114.7738506683
 20
74.9181458689
 40
4.0
100
AcDbArc
 50
0.0
 51
90.0
  0
ARC
  5
498
100
AcDbEntity
  8
RUNDUNGEN
100
AcDbCircle
 62
7
  6
CONTINUOUS
 10
98.9820546008
 20
74.9181458689
 40
4.0
100
AcDbArc
 50
90.0
 51
138.1896851042
  0
ARC
  5
499
100
AcDbEntity
  8
RUNDUNGEN
100
AcDbCircle
 62
7
  6
CONTINUOUS
 10
103.2738506683
 20
71.6681458689
 40
3.0
100
AcDbArc
 50
90.0
 51
170.3964587721
  0
ARC
  5
49A
100
AcDbEntity
  8
BEZUGSACHSEN
100
AcDbCircle
 62
7
  6
CONTINUOUS
 10
114.0186607123
 20
70.668007975
 40
1.5001559236
100
AcDbArc
 50
5.2014270674
 51
89.9951657485
  0
ARC
  5
49B
100
AcDbEntity
  8
RUNDUNGEN
100
AcDbCircle
 62
7
  6
CONTINUOUS
 10
116.7738506683
 20
73.1681458689
 40
1.0
100
AcDbArc
 50
180.0
 51
270.0
  0
ARC
  5
49C
100
AcDbEntity
  8
RUNDUNGEN
100
AcDbCircle
 62
7
  6
CONTINUOUS
 10
117.7738506683
 20
73.1681458689
 40
1.0
100
AcDbArc
 50
270.0
 51
360.0
  0
ARC
  5
49D
100
AcDbEntity
  8
RUNDUNGEN
100
AcDbCircle
 62
7
  6
CONTINUOUS
 10
114.7738506683
 20
73.6681458689
 40
1.0
100
AcDbArc
 50
0.0
 51
90.0
  0
SPLINE
  5
49E
100
AcDbEntity
  8
0
100
AcDbSpline
 62
7
  6
CONTINUOUS
 70
0
 71
3
 72
9
 73
5
 74
0
 42
0.0000001
 43
0.0000001
 44
0.0000000001
 40
0.0
 40
0.0
 40
0.0
 40
0.0
 40
0.5095138455
 40
1.0
 40
1.0
 40
1.0
 40
1.0
 10
91.1078560061
 20
138.2554977599
 30
0.0
 10
90.6187640825
 20
138.2936402367
 30
0.0
 10
89.6617354437
 20
138.4023165898
 30
0.0
 10
88.7061246791
 20
138.5191916105
 30
0.0
 10
88.2370910784
 20
138.5742702148
 30
0.0
  0
SPLINE
  5
49F
100
AcDbEntity
  8
0
100
AcDbSpline
 62
7
  6
CONTINUOUS
 70
0
 71
3
 72
9
 73
5
 74
0
 42
0.0000001
 43
0.0000001
 44
0.0000000001
 40
0.0
 40
0.0
 40
0.0
 40
0.0
 40
0.4904863133
 40
1.0
 40
1.0
 40
1.0
 40
1.0
 10
96.3106102319
 20
138.5742695456
 30
0.0
 10
95.8415958247
 20
138.5191929786
 30
0.0
 10
94.8860241291
 20
138.4023251523
 30
0.0
 10
93.9290354585
 20
138.2936489693
 30
0.0
 10
93.4399640358
 20
138.2555054852
 30
0.0
  0
SPLINE
  5
4A0
100
AcDbEntity
  8
0
100
AcDbSpline
 62
7
  6
CONTINUOUS
 70
0
 71
3
 72
9
 73
5
 74
0
 42
0.0000001
 43
0.0000001
 44
0.0000000001
 40
0.0
 40
0.0
 40
0.0
 40
0.0
 40
0.4882029225
 40
1.0
 40
1.0
 40
1.0
 40
1.0
 10
98.1221447201
 20
138.9299177485
 30
0.0
 10
97.8570342383
 20
138.8484308045
 30
0.0
 10
97.3037432656
 20
138.7144245394
 30
0.0
 10
96.7418527288
 20
138.6277226965
 30
0.0
 10
96.4533508606
 20
138.5915943931
 30
0.0
  0
SPLINE
  5
4A1
100
AcDbEntity
  8
0
100
AcDbSpline
 62
7
  6
CONTINUOUS
 70
0
 71
3
 72
9
 73
5
 74
0
 42
0.0000001
 43
0.0000001
 44
0.0000000001
 40
0.0
 40
0.0
 40
0.0
 40
0.0
 40
0.5117956042
 40
1.0
 40
1.0
 40
1.0
 40
1.0
 10
88.0934034088
 20
138.591713237
 30
0.0
 10
87.8049956238
 20
138.6278492898
 30
0.0
 10
87.2432875474
 20
138.7145601368
 30
0.0
 10
86.6901801418
 20
138.8485624278
 30
0.0
 10
86.4251574135
 20
138.9300404666
 30
0.0
  0
SPLINE
  5
4A2
100
AcDbEntity
  8
0
100
AcDbSpline
 62
7
  6
CONTINUOUS
 70
0
 71
3
 72
16
 73
12
 74
0
 42
0.0000001
 43
0.0000001
 44
0.0000000001
 40
0.0
 40
0.0
 40
0.0
 40
0.0
 40
0.0395480245
 40
0.0856067893
 40
0.1910652756
 40
0.3085071802
 40
0.4341760921
 40
0.5663742375
 40
0.7045517915
 40
0.8489148283
 40
1.0
 40
1.0
 40
1.0
 40
1.0
 10
102.0482207937
 20
141.8319786791
 30
0.0
 10
101.9986789902
 20
141.7894197584
 30
0.0
 10
101.8982351553
 20
141.6895519728
 30
0.0
 10
101.6858855174
 20
141.4562396178
 30
0.0
 10
101.3934297065
 20
141.1218591871
 30
0.0
 10
100.9994320934
 20
140.7018886374
 30
0.0
 10
100.5481439782
 20
140.276247591
 30
0.0
 10
100.0365859644
 20
139.8672851451
 30
0.0
 10
99.4611921987
 20
139.4933856993
 30
0.0
 10
98.8199423479
 20
139.1712445275
 30
0.0
 10
98.3605872506
 20
139.0032093661
 30
0.0
 10
98.1220881746
 20
138.9299021495
 30
0.0
  0
LINE
  5
4A3
100
AcDbEntity
  8
0
100
AcDbLine
 62
7
  6
CONTINUOUS
 10
96.3252539382
 20
138.5759923747
 11
96.3106102319
 21
138.5742695456
  0
SPLINE
  5
4A4
100
AcDbEntity
  8
0
100
AcDbSpline
 62
7
  6
CONTINUOUS
 70
0
 71
3
 72
16
 73
12
 74
0
 42
0.0000001
 43
0.0000001
 44
0.0000000001
 40
0.0
 40
0.0
 40
0.0
 40
0.0
 40
0.1510867438
 40
0.2954546936
 40
0.4336329623
 40
0.5658309536
 40
0.6914983406
 40
0.8089387183
 40
0.914396134
 40
0.9604509352
 40
1.0
 40
1.0
 40
1.0
 40
1.0
 10
86.4252002835
 20
138.9300286313
 30
0.0
 10
86.18672437
 20
139.0033450299
 30
0.0
 10
85.7274157773
 20
139.1714114696
 30
0.0
 10
85.086222827
 20
139.493549717
 30
0.0
 10
84.510891795
 20
139.8674516513
 30
0.0
 10
83.9993937493
 20
140.2763930926
 30
0.0
 10
83.5481579815
 20
140.7020018138
 30
0.0
 10
83.1542015192
 20
141.1219317737
 30
0.0
 10
82.8617893543
 20
141.4562844932
 30
0.0
 10
82.6494475763
 20
141.6895568622
 30
0.0
 10
82.5490228367
 20
141.7894193044
 30
0.0
 10
82.4994840909
 20
141.831975568
 30
0.0
  0
SPLINE
  5
4A5
100
AcDbEntity
  8
BEZUGSACHSEN
100
AcDbSpline
 62
7
  6
CONTINUOUS
 70
0
 71
3
 72
29
 73
25
 74
0
 42
0.0000001
 43
0.0000001
 44
0.0000000001
 40
0.0
 40
0.0
 40
0.0
 40
0.0
 40
0.0109284669
 40
0.0220791152
 40
0.0334537933
 40
0.0449334216
 40
0.0679990372
 40
0.0911202826
 40
0.1026789373
 40
0.1142295649
 40
0.1372955499
 40
0.1603055551
 40
0.1832482309
 40
0.2288899824
 40
0.2741477508
 40
0.3189452169
 40
0.3632018418
 40
0.4497373428
 40
0.5330100153
 40
0.686431415
 40
0.8164238853
 40
0.9158495547
 40
0.9785125572
 40
1.0
 40
1.0
 40
1.0
 40
1.0
 10
95.8713309565
 20
127.2101009273
 30
0.0
 10
95.8538570767
 20
127.2584490809
 30
0.0
 10
95.8352797164
 20
127.363354592
 30
0.0
 10
95.8650349071
 20
127.5206650741
 30
0.0
 10
95.9365724971
 20
127.6651738591
 30
0.0
 10
96.0652057014
 20
127.8395177295
 30
0.0
 10
96.2611909837
 20
128.0290993716
 30
0.0
 10
96.4763280362
 20
128.1952412749
 30
0.0
 10
96.6550995441
 20
128.3191457514
 30
0.0
 10
96.8371158099
 20
128.4377283347
 30
0.0
 10
97.0693681761
 20
128.5776929209
 30
0.0
 10
97.353082267
 20
128.7356414367
 30
0.0
 10
97.7350840244
 20
128.9350407832
 30
0.0
 10
98.2177673719
 20
129.1673282079
 30
0.0
 10
98.801487627
 20
129.4258587908
 30
0.0
 10
99.3855170901
 20
129.6670686105
 30
0.0
 10
100.1556067472
 20
129.9659179951
 30
0.0
 10
101.1045424513
 20
130.3035872081
 30
0.0
 10
102.5528549712
 20
130.7671841394
 30
0.0
 10
104.2169040929
 20
131.2247262373
 30
0.0
 10
105.9740528153
 20
131.6216416351
 30
0.0
 10
107.3246154716
 20
131.875515543
 30
0.0
 10
108.1771181898
 20
132.0136381264
 30
0.0
 10
108.5686665265
 20
132.0718895293
 30
0.0
 10
108.6686941687
 20
132.0864344999
 30
0.0
  0
SPLINE
  5
4A6
100
AcDbEntity
  8
BEZUGSACHSEN
100
AcDbSpline
 62
7
  6
CONTINUOUS
 70
0
 71
3
 72
30
 73
26
 74
0
 42
0.0000001
 43
0.0000001
 44
0.0000000001
 40
0.0
 40
0.0
 40
0.0
 40
0.0
 40
0.0214836987
 40
0.0841374262
 40
0.1835505318
 40
0.3135283692
 40
0.4669337449
 40
0.55019816
 40
0.6367254189
 40
0.6809780213
 40
0.7257715048
 40
0.7710253295
 40
0.816663245
 40
0.839604075
 40
0.8626123083
 40
0.8856766111
 40
0.8972263066
 40
0.908784434
 40
0.931904001
 40
0.9549715494
 40
0.9664492246
 40
0.9778453821
 40
0.9834669081
 40
0.9890508187
 40
1.0
 40
1.0
 40
1.0
 40
1.0
 10
75.8790071678
 20
132.0864344999
 30
0.0
 10
75.9790207615
 20
132.0718916955
 30
0.0
 10
76.3705217371
 20
132.0136477301
 30
0.0
 10
77.2229344039
 20
131.8755404242
 30
0.0
 10
78.573375101
 20
131.6216968534
 30
0.0
 10
80.3303874977
 20
131.2248264367
 30
0.0
 10
81.994321248
 20
130.7673373337
 30
0.0
 10
83.4425437788
 20
130.3037936408
 30
0.0
 10
84.391426955
 20
129.9661640533
 30
0.0
 10
85.1614784331
 20
129.6673508782
 30
0.0
 10
85.7454827173
 20
129.4261717635
 30
0.0
 10
86.329180025
 20
129.1676730441
 30
0.0
 10
86.8118502746
 20
128.9354220247
 30
0.0
 10
87.1938484897
 20
128.736060012
 30
0.0
 10
87.4775608625
 20
128.5781383811
 30
0.0
 10
87.7098280931
 20
128.4382191028
 30
0.0
 10
87.8918383151
 20
128.3196429347
 30
0.0
 10
88.0706464289
 20
128.1957987405
 30
0.0
 10
88.2857587595
 20
128.0296483859
 30
0.0
 10
88.4819919711
 20
127.840247853
 30
0.0
 10
88.6105790716
 20
127.6658306231
 30
0.0
 10
88.6708817595
 20
127.5447363553
 30
0.0
 10
88.6980688672
 20
127.441456172
 30
0.0
 10
88.7069637159
 20
127.3372702842
 30
0.0
 10
88.6938779694
 20
127.2585423512
 30
0.0
 10
88.6763703801
 20
127.2101009273
 30
0.0
  0
LINE
  5
4A7
100
AcDbEntity
  8
0
100
AcDbLine
 62
7
  6
CONTINUOUS
 10
166.0658425497
 20
133.6143563175
 11
166.0743742062
 21
133.587738918
  0
LINE
  5
4A8
100
AcDbEntity
  8
0
100
AcDbLine
 62
7
  6
CONTINUOUS
 10
166.0743742062
 20
133.587738918
 11
166.2842366843
 21
132.9335050964
  0
LINE
  5
4A9
100
AcDbEntity
  8
0
100
AcDbLine
 62
7
  6
CONTINUOUS
 10
166.1536592353
 20
132.9335050964
 11
166.1716429525
 21
132.8767029056
  0
LINE
  5
4AA
100
AcDbEntity
  8
0
100
AcDbLine
 62
7
  6
CONTINUOUS
 10
166.1716429525
 20
132.8767029056
 11
166.2614644542
 21
132.5930796051
  0
LINE
  5
4AB
100
AcDbEntity
  8
0
100
AcDbLine
 62
7
  6
CONTINUOUS
 10
166.3935626567
 20
132.5930796051
 11
166.4024342715
 21
132.5654666918
  0
SPLINE
  5
4AC
100
AcDbEntity
  8
0
100
AcDbSpline
 62
7
  6
CONTINUOUS
 70
0
 71
3
 72
8
 73
4
 74
0
 42
0.0000001
 43
0.0000001
 44
0.0000000001
 40
0.0
 40
0.0
 40
0.0
 40
0.0
 40
1.0
 40
1.0
 40
1.0
 40
1.0
 10
166.4024342715
 20
132.5654666918
 30
0.0
 10
166.5818073232
 20
132.0071862198
 30
0.0
 10
166.7615051519
 20
131.4490099651
 30
0.0
 10
166.9415691703
 20
130.8909519696
 30
0.0
  0
LINE
  5
4AD
100
AcDbEntity
  8
0
100
AcDbLine
 62
7
  6
CONTINUOUS
 10
165.7152003704
 20
133.5292499447
 11
166.047588287
 21
132.4497636199
  0
LINE
  5
4AE
100
AcDbEntity
  8
0
100
AcDbLine
 62
7
  6
CONTINUOUS
 10
166.047588287
 20
132.4497636199
 11
166.2131488338
 21
131.9122286224
  0
LINE
  5
4AF
100
AcDbEntity
  8
0
100
AcDbLine
 62
7
  6
CONTINUOUS
 10
166.3704552769
 20
131.4015902662
 11
166.3745727132
 21
131.388225809
  0
LINE
  5
4B0
100
AcDbEntity
  8
0
100
AcDbLine
 62
7
  6
CONTINUOUS
 10
166.3745727132
 20
131.388225809
 11
166.3839470979
 21
131.3577984955
  0
LINE
  5
4B1
100
AcDbEntity
  8
0
100
AcDbLine
 62
7
  6
CONTINUOUS
 10
166.3839470979
 20
131.3577984955
 11
166.737623478
 21
130.2101009273
  0
LINE
  5
4B2
100
AcDbEntity
  8
0
100
AcDbLine
 62
7
  6
CONTINUOUS
 10
165.5056183865
 20
134.2101009273
 11
165.5080799952
 21
134.1999732283
  0
LINE
  5
4B3
100
AcDbEntity
  8
0
100
AcDbLine
 62
7
  6
CONTINUOUS
 10
165.6807031921
 20
133.5202729204
 11
165.7066036988
 21
133.4230949391
  0
LINE
  5
4B4
100
AcDbEntity
  8
0
100
AcDbLine
 62
7
  6
CONTINUOUS
 10
166.7261123009
 20
130.1646276446
 11
166.6725903853
 21
130.3209806721
  0
LINE
  5
4B5
100
AcDbEntity
  8
0
100
AcDbLine
 62
7
  6
CONTINUOUS
 10
194.8461530928
 20
131.4015902662
 11
194.8358072006
 21
131.3680094905
  0
LINE
  5
4B6
100
AcDbEntity
  8
0
100
AcDbLine
 62
7
  6
CONTINUOUS
 10
194.8358072006
 20
131.3680094905
 11
194.7848116447
 21
131.2024939819
  0
LINE
  5
4B7
100
AcDbEntity
  8
0
100
AcDbLine
 62
7
  6
CONTINUOUS
 10
194.7848116447
 20
131.2024939819
 11
194.7235289286
 21
131.003603477
  0
LINE
  5
4B8
100
AcDbEntity
  8
0
100
AcDbLine
 62
7
  6
CONTINUOUS
 10
194.7235289286
 20
131.003603477
 11
194.6623048722
 21
130.8049186784
  0
LINE
  5
4B9
100
AcDbEntity
  8
0
100
AcDbLine
 62
7
  6
CONTINUOUS
 10
194.6623048722
 20
130.8049186784
 11
194.6101362105
 21
130.6356327661
  0
LINE
  5
4BA
100
AcDbEntity
  8
0
100
AcDbLine
 62
7
  6
CONTINUOUS
 10
195.5359051776
 20
133.5202729204
 11
195.5100046709
 21
133.4230949391
  0
LINE
  5
4BB
100
AcDbEntity
  8
0
100
AcDbLine
 62
7
  6
CONTINUOUS
 10
194.3286541147
 20
129.6994626307
 11
194.3828159886
 21
129.853868308
  0
LINE
  5
4BC
100
AcDbEntity
  8
0
100
AcDbLine
 62
7
  6
CONTINUOUS
 10
194.5972318899
 20
130.4776910879
 11
194.6504353761
 21
130.6356328511
  0
LINE
  5
4BD
100
AcDbEntity
  8
0
100
AcDbLine
 62
7
  6
CONTINUOUS
 10
194.9296739866
 20
133.3578557451
 11
194.9709813621
 21
133.4434051617
  0
LINE
  5
4BE
100
AcDbEntity
  8
0
100
AcDbLine
 62
7
  6
CONTINUOUS
 10
194.9709813621
 20
133.4434051617
 11
195.0121760796
 21
133.5292499447
  0
LINE
  5
4BF
100
AcDbEntity
  8
0
100
AcDbLine
 62
7
  6
CONTINUOUS
 10
194.2320578091
 20
131.4015902662
 11
194.3775545787
 21
131.9122286224
  0
LINE
  5
4C0
100
AcDbEntity
  8
0
100
AcDbLine
 62
7
  6
CONTINUOUS
 10
194.3775545787
 20
131.9122286224
 11
194.5737388548
 21
132.5079732322
  0
SPLINE
  5
4C1
100
AcDbEntity
  8
0
100
AcDbSpline
 62
7
  6
CONTINUOUS
 70
0
 71
3
 72
9
 73
5
 74
0
 42
0.0000001
 43
0.0000001
 44
0.0000000001
 40
0.0
 40
0.0
 40
0.0
 40
0.0
 40
0.2439438575
 40
1.0
 40
1.0
 40
1.0
 40
1.0
 10
195.4397963436
 20
134.1249945545
 30
0.0
 10
195.4348523991
 20
134.1321539367
 30
0.0
 10
195.4142314299
 20
134.1612569829
 30
0.0
 10
195.3922387121
 20
134.1893817352
 30
0.0
 10
195.3749801181
 20
134.2101009273
 30
0.0
  0
LINE
  5
4C2
100
AcDbEntity
  8
0
100
AcDbLine
 62
7
  6
CONTINUOUS
 10
195.2999055538
 20
133.2739308262
 11
195.3138360445
 21
133.3305130111
  0
LINE
  5
4C3
100
AcDbEntity
  8
0
100
AcDbLine
 62
7
  6
CONTINUOUS
 10
195.2313166505
 20
133.0186114692
 11
195.2999055538
 21
133.2739308262
  0
LINE
  5
4C4
100
AcDbEntity
  8
0
100
AcDbLine
 62
7
  6
CONTINUOUS
 10
195.1095315775
 20
132.5930796051
 11
195.2313166505
 21
133.0186114692
  0
LINE
  5
4C5
100
AcDbEntity
  8
0
100
AcDbLine
 62
7
  6
CONTINUOUS
 10
194.8708482892
 20
131.8271222496
 11
195.1095315775
 21
132.5930796051
  0
LINE
  5
4C6
100
AcDbEntity
  8
0
100
AcDbLine
 62
7
  6
CONTINUOUS
 10
194.7268138428
 20
131.4015902662
 11
194.8708482892
 21
131.8271222496
  0
LINE
  5
4C7
100
AcDbEntity
  8
0
100
AcDbLine
 62
7
  6
CONTINUOUS
 10
194.6133830481
 20
131.0893063359
 11
194.6352495636
 21
131.1462711477
  0
SPLINE
  5
4C8
100
AcDbEntity
  8
0
100
AcDbSpline
 62
7
  6
CONTINUOUS
 70
0
 71
3
 72
8
 73
4
 74
0
 42
0.0000001
 43
0.0000001
 44
0.0000000001
 40
0.0
 40
0.0
 40
0.0
 40
0.0
 40
1.0
 40
1.0
 40
1.0
 40
1.0
 10
166.9866184537
 20
131.0611647749
 30
0.0
 10
166.8201746234
 20
131.571687307
 30
0.0
 10
166.6540991261
 20
132.0823300425
 30
0.0
 10
166.4883532698
 20
132.5930796051
 30
0.0
  0
LINE
  5
4C9
100
AcDbEntity
  8
0
100
AcDbLine
 62
7
  6
CONTINUOUS
 10
166.7312522898
 20
132.5930796051
 11
166.6180120823
 21
132.9335050964
  0
LINE
  5
4CA
100
AcDbEntity
  8
0
100
AcDbLine
 62
7
  6
CONTINUOUS
 10
166.3779336978
 20
132.9335050964
 11
166.1574082055
 21
133.6143563175
  0
LINE
  5
4CB
100
AcDbEntity
  8
0
100
AcDbLine
 62
7
  6
CONTINUOUS
 10
167.4766709901
 20
130.2101009273
 11
167.3628582402
 21
130.5505264485
  0
LINE
  5
4CC
100
AcDbEntity
  8
0
100
AcDbLine
 62
7
  6
CONTINUOUS
 10
166.7871557988
 20
130.2101009273
 11
166.4274168546
 21
131.3710269018
  0
LINE
  5
4CD
100
AcDbEntity
  8
0
100
AcDbLine
 62
7
  6
CONTINUOUS
 10
166.4274168546
 20
131.3710269018
 11
166.417949825
 21
131.4015902662
  0
LINE
  5
4CE
100
AcDbEntity
  8
0
100
AcDbLine
 62
7
  6
CONTINUOUS
 10
166.5260823533
 20
131.4015902662
 11
166.36604356
 21
131.9122286224
  0
LINE
  5
4CF
100
AcDbEntity
  8
0
100
AcDbLine
 62
7
  6
CONTINUOUS
 10
166.2598062293
 20
131.9122286224
 11
166.0675999292
 21
132.5330704223
  0
LINE
  5
4D0
100
AcDbEntity
  8
0
100
AcDbLine
 62
7
  6
CONTINUOUS
 10
166.0675999292
 20
132.5330704223
 11
165.5487536764
 21
134.2101009273
  0
SPLINE
  5
4D1
100
AcDbEntity
  8
0
100
AcDbSpline
 62
7
  6
CONTINUOUS
 70
0
 71
3
 72
9
 73
5
 74
0
 42
0.0000001
 43
0.0000001
 44
0.0000000001
 40
0.0
 40
0.0
 40
0.0
 40
0.0
 40
0.2575922438
 40
1.0
 40
1.0
 40
1.0
 40
1.0
 10
193.4596962153
 20
130.2952073076
 30
0.0
 10
193.4682114309
 20
130.2882045705
 30
0.0
 10
193.5010308326
 20
130.260732732
 30
0.0
 10
193.5328742575
 20
130.2320864394
 30
0.0
 10
193.5558148863
 20
130.2101009273
 30
0.0
  0
SPLINE
  5
4D2
100
AcDbEntity
  8
BEZUGSACHSEN
100
AcDbSpline
 62
7
  6
CONTINUOUS
 70
0
 71
3
 72
22
 73
18
 74
0
 42
0.0000001
 43
0.0000001
 44
0.0000000001
 40
0.0
 40
0.0
 40
0.0
 40
0.0
 40
0.1739896529
 40
0.3390081096
 40
0.4157535641
 40
0.4876496833
 40
0.5541800227
 40
0.6150622086
 40
0.6702850031
 40
0.720121895
 40
0.7652186804
 40
0.8066271513
 40
0.8459376375
 40
0.8855886434
 40
0.9304525984
 40
0.9594824215
 40
1.0
 40
1.0
 40
1.0
 40
1.0
 10
180.6083041849
 20
132.0864344999
 30
0.0
 10
179.7448119372
 20
132.0864344999
 30
0.0
 10
178.062259619
 20
132.0591588274
 30
0.0
 10
176.0010307083
 20
131.948330395
 30
0.0
 10
174.4515033596
 20
131.7966895515
 30
0.0
 10
173.3929849219
 20
131.6533156942
 30
0.0
 10
172.4197249603
 20
131.4740951849
 30
0.0
 10
171.5393757256
 20
131.2553557987
 30
0.0
 10
170.7572270294
 20
130.994021752
 30
0.0
 10
170.0768251229
 20
130.6860596019
 30
0.0
 10
169.4998761932
 20
130.327933233
 30
0.0
 10
169.0279280124
 20
129.9138826445
 30
0.0
 10
168.6632584142
 20
129.4348661418
 30
0.0
 10
168.4105146643
 20
128.8683334157
 30
0.0
 10
168.3191061119
 20
128.3047986564
 30
0.0
 10
168.3466324374
 20
127.7361064443
 30
0.0
 10
168.4310459961
 20
127.3966522596
 30
0.0
 10
168.5061030367
 20
127.2101009273
 30
0.0
  0
SPLINE
  5
4D3
100
AcDbEntity
  8
BEZUGSACHSEN
100
AcDbSpline
 62
7
  6
CONTINUOUS
 70
0
 71
3
 72
22
 73
18
 74
0
 42
0.0000001
 43
0.0000001
 44
0.0000000001
 40
0.0
 40
0.0
 40
0.0
 40
0.0
 40
0.1739896529
 40
0.3390081096
 40
0.4157535641
 40
0.4876496833
 40
0.5541800227
 40
0.6150622086
 40
0.6702850031
 40
0.720121895
 40
0.7652186804
 40
0.8066271513
 40
0.8459376375
 40
0.8855886434
 40
0.9304525984
 40
0.9594824215
 40
1.0
 40
1.0
 40
1.0
 40
1.0
 10
180.6083041849
 20
132.0864344999
 30
0.0
 10
181.4717964325
 20
132.0864344999
 30
0.0
 10
183.1543487507
 20
132.0591588274
 30
0.0
 10
185.2155776614
 20
131.948330395
 30
0.0
 10
186.7651050101
 20
131.7966895515
 30
0.0
 10
187.8236234478
 20
131.6533156942
 30
0.0
 10
188.7968834095
 20
131.4740951849
 30
0.0
 10
189.6772326441
 20
131.2553557987
 30
0.0
 10
190.4593813403
 20
130.994021752
 30
0.0
 10
191.1397832469
 20
130.6860596019
 30
0.0
 10
191.7167321765
 20
130.327933233
 30
0.0
 10
192.1886803574
 20
129.9138826445
 30
0.0
 10
192.5533499555
 20
129.4348661418
 30
0.0
 10
192.8060937054
 20
128.8683334157
 30
0.0
 10
192.8975022578
 20
128.3047986564
 30
0.0
 10
192.8699759323
 20
127.7361064443
 30
0.0
 10
192.7855623736
 20
127.3966522596
 30
0.0
 10
192.710505333
 20
127.2101009273
 30
0.0
  0
LINE
  5
4D4
100
AcDbEntity
  8
0
100
AcDbLine
 62
7
  6
CONTINUOUS
 10
167.3137645373
 20
130.2101009273
 11
167.2887607187
 21
130.2906961568
  0
LINE
  5
4D5
100
AcDbEntity
  8
0
100
AcDbLine
 62
7
  6
CONTINUOUS
 10
167.2887607187
 20
130.2906961568
 11
167.2813173156
 21
130.3146895587
  0
LINE
  5
4D6
100
AcDbEntity
  8
0
100
AcDbLine
 62
7
  6
CONTINUOUS
 10
166.2588660295
 20
133.6143553923
 11
166.249995074
 21
133.6430147819
  0
LINE
  5
4D7
100
AcDbEntity
  8
0
100
AcDbLine
 62
7
  6
CONTINUOUS
 10
166.249995074
 20
133.6430147819
 11
166.2419893945
 21
133.6688791474
  0
LINE
  5
4D8
100
AcDbEntity
  8
0
100
AcDbLine
 62
7
  6
CONTINUOUS
 10
166.2419893945
 20
133.6688791474
 11
166.0744955583
 21
134.2101009273
  0
LINE
  5
4D9
100
AcDbEntity
  8
0
100
AcDbLine
 62
7
  6
CONTINUOUS
 10
195.0652753111
 20
131.9122286224
 11
195.0248393967
 21
131.7800230383
  0
LINE
  5
4DA
100
AcDbEntity
  8
0
100
AcDbLine
 62
7
  6
CONTINUOUS
 10
195.0248393967
 20
131.7800230383
 11
194.9090931508
 21
131.4015902662
  0
SPLINE
  5
4DB
100
AcDbEntity
  8
0
100
AcDbSpline
 62
7
  6
CONTINUOUS
 70
0
 71
3
 72
8
 73
4
 74
0
 42
0.0000001
 43
0.0000001
 44
0.0000000001
 40
0.0
 40
0.0
 40
0.0
 40
0.0
 40
1.0
 40
1.0
 40
1.0
 40
1.0
 10
167.527997422
 20
131.0611647749
 30
0.0
 10
167.3689749587
 20
131.5470622869
 30
0.0
 10
167.2103205825
 20
132.0330803881
 30
0.0
 10
167.0519958327
 20
132.5192056906
 30
0.0
  0
LINE
  5
4DC
100
AcDbEntity
  8
0
100
AcDbLine
 62
7
  6
CONTINUOUS
 10
167.0519958327
 20
132.5192056906
 11
167.0279388548
 21
132.5930796051
  0
LINE
  5
4DD
100
AcDbEntity
  8
0
100
AcDbLine
 62
7
  6
CONTINUOUS
 10
167.2787823108
 20
132.5930796051
 11
167.1649949622
 21
132.9335050964
  0
LINE
  5
4DE
100
AcDbEntity
  8
0
100
AcDbLine
 62
7
  6
CONTINUOUS
 10
166.917151313
 20
132.9335050964
 11
166.6959202815
 21
133.6143563175
  0
LINE
  5
4DF
100
AcDbEntity
  8
0
100
AcDbLine
 62
7
  6
CONTINUOUS
 10
194.6234677306
 20
130.6356328511
 11
194.5683493922
 21
130.4779322566
  0
LINE
  5
4E0
100
AcDbEntity
  8
0
100
AcDbLine
 62
7
  6
CONTINUOUS
 10
194.3456870273
 20
129.853817685
 11
194.289464992
 21
129.6994626307
  0
SPLINE
  5
4E1
100
AcDbEntity
  8
0
100
AcDbSpline
 62
7
  6
CONTINUOUS
 70
0
 71
3
 72
8
 73
4
 74
0
 42
0.0000001
 43
0.0000001
 44
0.0000000001
 40
0.0
 40
0.0
 40
0.0
 40
0.0
 40
1.0
 40
1.0
 40
1.0
 40
1.0
 10
193.937826059
 20
132.5930796051
 30
0.0
 10
193.852404984
 20
132.3377149178
 30
0.0
 10
193.766850535
 20
132.0823948014
 30
0.0
 10
193.6811545151
 20
131.8271222496
 30
0.0
  0
LINE
  5
4E2
100
AcDbEntity
  8
0
100
AcDbLine
 62
7
  6
CONTINUOUS
 10
168.0266457254
 20
130.2101009273
 11
167.9122028023
 21
130.5505264485
  0
LINE
  5
4E3
100
AcDbEntity
  8
0
100
AcDbLine
 62
7
  6
CONTINUOUS
 10
193.6811545151
 20
131.8271222496
 11
193.5641382586
 21
131.4015902662
  0
LINE
  5
4E4
100
AcDbEntity
  8
0
100
AcDbLine
 62
7
  6
CONTINUOUS
 10
193.5641382586
 20
131.4015902662
 11
193.5042179762
 21
131.1462711477
  0
LINE
  5
4E5
100
AcDbEntity
  8
0
100
AcDbLine
 62
7
  6
CONTINUOUS
 10
195.2798836349
 20
133.5292499447
 11
195.26214706
 21
133.4437346089
  0
LINE
  5
4E6
100
AcDbEntity
  8
0
100
AcDbLine
 62
7
  6
CONTINUOUS
 10
195.1723444044
 20
133.0186114692
 11
195.0247965701
 21
132.5079732322
  0
LINE
  5
4E7
100
AcDbEntity
  8
0
100
AcDbLine
 62
7
  6
CONTINUOUS
 10
195.0247965701
 20
132.5079732322
 11
194.8379522219
 21
131.9122286224
  0
SPLINE
  5
4E8
100
AcDbEntity
  8
0
100
AcDbSpline
 62
7
  6
CONTINUOUS
 70
0
 71
3
 72
8
 73
4
 74
0
 42
0.0000001
 43
0.0000001
 44
0.0000000001
 40
0.0
 40
0.0
 40
0.0
 40
0.0
 40
1.0
 40
1.0
 40
1.0
 40
1.0
 10
194.8379522219
 20
131.9122286224
 30
0.0
 10
194.7802672236
 20
131.741968509
 30
0.0
 10
194.7224447346
 20
131.5717549106
 30
0.0
 10
194.6644787184
 20
131.4015902662
 30
0.0
  0
LINE
  5
4E9
100
AcDbEntity
  8
0
100
AcDbLine
 62
7
  6
CONTINUOUS
 10
194.4829157705
 20
130.975383206
 11
194.4462627872
 21
130.8909519696
  0
LINE
  5
4EA
100
AcDbEntity
  8
0
100
AcDbLine
 62
7
  6
CONTINUOUS
 10
194.2299761652
 20
131.8271222496
 11
194.1128433656
 21
131.4015902662
  0
LINE
  5
4EB
100
AcDbEntity
  8
0
100
AcDbLine
 62
7
  6
CONTINUOUS
 10
194.1128433656
 20
131.4015902662
 11
194.0525053788
 21
131.1462711477
  0
LINE
  5
4EC
100
AcDbEntity
  8
0
100
AcDbLine
 62
7
  6
CONTINUOUS
 10
194.0525053788
 20
131.1462711477
 11
193.9881261622
 21
130.8058455968
  0
SPLINE
  5
4ED
100
AcDbEntity
  8
0
100
AcDbSpline
 62
7
  6
CONTINUOUS
 70
0
 71
3
 72
9
 73
5
 74
0
 42
0.0000001
 43
0.0000001
 44
0.0000000001
 40
0.0
 40
0.0
 40
0.0
 40
0.0
 40
0.2573665293
 40
1.0
 40
1.0
 40
1.0
 40
1.0
 10
194.0013282225
 20
130.2952073076
 30
0.0
 10
194.0094969327
 20
130.2882011823
 30
0.0
 10
194.0409960866
 20
130.2607007588
 30
0.0
 10
194.0715075259
 20
130.2320609904
 30
0.0
 10
194.0934629054
 20
130.2101009273
 30
0.0
  0
LINE
  5
4EE
100
AcDbEntity
  8
0
100
AcDbLine
 62
7
  6
CONTINUOUS
 10
194.48535608
 20
132.5930796051
 11
194.2299761652
 21
131.8271222496
  0
LINE
  5
4EF
100
AcDbEntity
  8
0
100
AcDbLine
 62
7
  6
CONTINUOUS
 10
195.0829885245
 20
133.8978530264
 11
195.0625212394
 21
133.869675436
  0
LINE
  5
4F0
100
AcDbEntity
  8
0
100
AcDbLine
 62
7
  6
CONTINUOUS
 10
193.9484880083
 20
130.2100884905
 11
193.9321472708
 21
130.1644449945
  0
ENDSEC
  0
SECTION
  2
OBJECTS
  0
DICTIONARY
  5
C
100
AcDbDictionary
280
0
281
1
  3
ACAD_GROUP
350
D
  3
ACAD_MLINESTYLE
350
17
  3
ACAD_LAYOUT
350
1A
  3
ACAD_PLOTSETTINGS
350
19
  3
ACAD_PLOTSTYLENAME
350
E
  0
DICTIONARY
  5
D
102
{ACAD_REACTORS
330
C
102
}
100
AcDbDictionary
280
0
281
1
  0
ACDBDICTIONARYWDFLT
  5
E
102
{ACAD_REACTORS
330
C
102
}
100
AcDbDictionary
281
1
  3
Normal
350
F
100
AcDbDictionaryWithDefault
340
F
  0
DICTIONARY
  5
17
102
{ACAD_REACTORS
330
C
102
}
100
AcDbDictionary
280
0
281
1
  3
Standard
350
18
  0
DICTIONARY
  5
19
102
{ACAD_REACTORS
330
C
102
}
100
AcDbDictionary
281
1
  0
DICTIONARY
  5
1A
102
{ACAD_REACTORS
330
C
102
}
100
AcDbDictionary
281
1
  3
Model
350
4F1
  3
Layout1
350
4F2
  0
ACDBPLACEHOLDER
  5
F
102
{ACAD_REACTORS
330
E
102
}
  0
MLINESTYLE
  5
18
102
{ACAD_REACTORS
330
17
102
}
100
AcDbMlineStyle
  2
STANDARD
 70
0
  3

 62
256
 51
90.0
 52
90.0
 71
2
 49
0.5
 62
256
  6
BYLAYER
 49
-0.5
 62
256
  6
BYLAYER
  0
LAYOUT
  5
4F1
102
{ACAD_REACTORS
330
1A
102
}
100
AcDbPlotSettings
  1

  2
none_device
  4
ISO_A4_(297.00_x_210.00_MM)
  6

 40
0.0
 41
0.0
 42
0.0
 43
0.0
 44
297.0
 45
210.0
 46
0.0
 47
0.0
 48
0.0
 49
0.0
140
0.0
141
0.0
142
1.0
143
1.0
 70
1024
 72
1
 73
0
 74
0
  7

 75
0
147
1.0
148
0.0
149
0.0
100
AcDbLayout
  1
Model
 70
0
 71
0
 10
0.0
 20
0.0
 11
297.0
 21
210.0
 12
0.0
 22
0.0
 32
0.0
 14
0.0
 24
0.0
 34
0.0
 15
0.0
 25
0.0
 35
0.0
146
0.0
 13
0.0
 23
0.0
 33
0.0
 16
1.0
 26
0.0
 36
0.0
 17
0.0
 27
1.0
 37
0.0
 76
0
330
20E
345
0
346
0
  0
LAYOUT
  5
4F2
102
{ACAD_REACTORS
330
1A
102
}
100
AcDbPlotSettings
  1

  2
none_device
  4
ISO_A4_(297.00_x_210.00_MM)
  6

 40
0.0
 41
0.0
 42
0.0
 43
0.0
 44
297.0
 45
210.0
 46
0.0
 47
0.0
 48
0.0
 49
0.0
140
0.0
141
0.0
142
1.0
143
1.0
 70
0
 72
1
 73
0
 74
0
  7

 75
0
147
1.0
148
0.0
149
0.0
100
AcDbLayout
  1
Layout1
 70
0
 71
1
 10
0.0
 20
0.0
 11
297.0
 21
210.0
 12
0.0
 22
0.0
 32
0.0
 14
0.0
 24
0.0
 34
0.0
 15
0.0
 25
0.0
 35
0.0
146
0.0
 13
0.0
 23
0.0
 33
0.0
 16
1.0
 26
0.0
 36
0.0
 17
0.0
 27
1.0
 37
0.0
 76
0
330
20F
345
0
346
0
  0
ENDSEC
  0
EOF
