999
DXF file: VRS-F_0_1t_M6_7900906_M35303-P-2.dxf
999
Pro/ENGINEER 2011490 by Parametric Technology Corporation
  0
SECTION
  2
HEADER
  9
$ACADVER
  1
AC1015
  9
$DWGCODEPAGE
  3
ANSI_1252
  9
$EXTMAX
 10
297.0
 20
210.0
 30
0.0
  9
$EXTMIN
 10
0.0
 20
0.0
 30
0.0
  9
$LIMMIN
 10
0.0
 20
0.0
  9
$LIMMAX
 10
297.0
 20
210.0
  9
$VIEWCTR
 10
148.5
 20
105.0
  9
$VIEWSIZE
 40
210.0
  9
$CLAYER
  8
0
  9
$LTSCALE
 40
16.335
  9
$CELTYPE
  6
BYLAYER
  9
$DIMSCALE
 40
1.0
  9
$DIMASZ
 40
3.5
  9
$DIMEXO
 40
1.85625
  9
$DIMDLI
 40
11.286
  9
$DIMEXE
 40
5.346
  9
$DIMCEN
 40
2.673
  9
$DIMLFAC
 40
1.0
  9
$DIMBLK
  1
_FILLED
  9
$DIMTXT
 40
3.5
  9
$DIMTOL
 70
1
  9
$DIMLIM
 70
0
  9
$DIMTFAC
 40
1.0
  9
$DIMTP
 40
0.005
  9
$DIMTM
 40
0.005
  9
$PDMODE
 70
3
  9
$PDSIZE
 40
0.3125
  9
$HANDSEED
  5
544
  9
$TILEMODE
 70
1
  9
$MEASUREMENT
 70
1
  9
$INSUNITS
 70
4
  0
ENDSEC
  0
SECTION
  2
CLASSES
  0
CLASS
  1
ACDBDICTIONARYWDFLT
  2
AcDbDictionaryWithDefault
  3
AutoCAD 2000
 90
0
280
0
281
0
  0
CLASS
  1
ACDBPLACEHOLDER
  2
AcDbPlaceHolder
  3
AutoCAD 2000
 90
0
280
0
281
0
  0
CLASS
  1
LAYOUT
  2
AcDbLayout
  3
AutoCAD 2000
 90
0
280
0
281
0
  0
ENDSEC
  0
SECTION
  2
TABLES
  0
TABLE
  2
VPORT
  5
8
100
AcDbSymbolTable
 70
2
  0
VPORT
  5
1F4
100
AcDbSymbolTableRecord
100
AcDbViewportTableRecord
  2
*ACTIVE
 70
0
 10
0.0
 20
0.0
 11
1.0
 21
1.0
 12
148.5
 22
105.0
 13
0.0
 23
0.0
 14
1.0
 24
1.0
 15
0.0
 25
0.0
 16
0.0
 26
0.0
 36
1.0
 17
0.0
 27
0.0
 37
0.0
 40
210.0
 41
1.4142857143
 42
50.0
 43
0.0
 44
0.0
 50
0.0
 51
0.0
 71
0
 72
100
 73
1
 74
1
 75
0
 76
0
 77
0
 78
0
  0
ENDTAB
  0
TABLE
  2
LTYPE
  5
5
100
AcDbSymbolTable
 70
6
  0
LTYPE
  5
14
100
AcDbSymbolTableRecord
100
AcDbLinetypeTableRecord
  2
BYBLOCK
 70
0
  3

 72
65
 73
0
 40
0.0
  0
LTYPE
  5
15
100
AcDbSymbolTableRecord
100
AcDbLinetypeTableRecord
  2
BYLAYER
 70
0
  3

 72
65
 73
0
 40
0.0
  0
LTYPE
  5
16
100
AcDbSymbolTableRecord
100
AcDbLinetypeTableRecord
  2
CONTINUOUS
 70
64
  3
Solid line
 72
65
 73
0
 40
0.0
  0
LTYPE
  5
1F5
100
AcDbSymbolTableRecord
100
AcDbLinetypeTableRecord
  2
CENTER
 70
64
  3
____ _ ____ _ ____ _ ____ _ ____ _ ____ _ ____
 72
65
 73
4
 40
0.6
 49
0.375
 74
0
 49
-0.075
 74
0
 49
0.075
 74
0
 49
-0.075
 74
0
  0
LTYPE
  5
1F6
100
AcDbSymbolTableRecord
100
AcDbLinetypeTableRecord
  2
HIDDEN
 70
64
  3
- - - - - - - - - - - - - - - - - - - -
 72
65
 73
2
 40
0.2
 49
0.1
 74
0
 49
-0.1
 74
0
  0
LTYPE
  5
1F7
100
AcDbSymbolTableRecord
100
AcDbLinetypeTableRecord
  2
PHANTOM
 70
64
  3
_____ _ _ _____ _ _ _____ _ _ _____
 72
65
 73
6
 40
0.8
 49
0.45
 74
0
 49
-0.05
 74
0
 49
0.1
 74
0
 49
-0.05
 74
0
 49
0.1
 74
0
 49
-0.05
 74
0
  0
LTYPE
  5
1F8
100
AcDbSymbolTableRecord
100
AcDbLinetypeTableRecord
  2
DOT
 70
64
  3
. . . . . . . . . . . . . . . . . . . .
 72
65
 73
2
 40
0.2
 49
0.1
 74
0
 49
-0.1
 74
0
  0
LTYPE
  5
1F9
100
AcDbSymbolTableRecord
100
AcDbLinetypeTableRecord
  2
DASHED
 70
64
  3
- - - - - - - - - - - - - - - - - - - -
 72
65
 73
2
 40
0.2
 49
0.1
 74
0
 49
-0.1
 74
0
  0
ENDTAB
  0
TABLE
  2
LAYER
  5
2
100
AcDbSymbolTable
 70
36
  0
LAYER
  5
10
100
AcDbSymbolTableRecord
100
AcDbLayerTableRecord
  2
0
 70
0
 62
7
  6
CONTINUOUS
370
-3
390
F
  0
LAYER
  5
1FA
100
AcDbSymbolTableRecord
100
AcDbLayerTableRecord
  2
DEFAULT_1
 70
0
 62
7
  6
CENTER
370
-3
390
F
  0
LAYER
  5
1FB
100
AcDbSymbolTableRecord
100
AcDbLayerTableRecord
  2
DEFAULT_2
 70
0
 62
8
  6
HIDDEN
370
-3
390
F
  0
LAYER
  5
1FC
100
AcDbSymbolTableRecord
100
AcDbLayerTableRecord
  2
DEFAULT_3
 70
0
 62
7
  6
PHANTOM
370
-3
390
F
  0
LAYER
  5
1FD
100
AcDbSymbolTableRecord
100
AcDbLayerTableRecord
  2
BEZUGSACHSEN
 70
0
 62
7
  6
CONTINUOUS
370
-3
390
F
  0
LAYER
  5
1FE
100
AcDbSymbolTableRecord
100
AcDbLayerTableRecord
  2
BEZUGSEBENEN
 70
0
 62
7
  6
CONTINUOUS
370
-3
390
F
  0
LAYER
  5
1FF
100
AcDbSymbolTableRecord
100
AcDbLayerTableRecord
  2
BG_STARTBEZUEGE
 70
0
 62
7
  6
CONTINUOUS
370
-3
390
F
  0
LAYER
  5
200
100
AcDbSymbolTableRecord
100
AcDbLayerTableRecord
  2
FASEN
 70
0
 62
7
  6
CONTINUOUS
370
-3
390
F
  0
LAYER
  5
201
100
AcDbSymbolTableRecord
100
AcDbLayerTableRecord
  2
FLAECHEN
 70
0
 62
7
  6
CONTINUOUS
370
-3
390
F
  0
LAYER
  5
202
100
AcDbSymbolTableRecord
100
AcDbLayerTableRecord
  2
FLAECHENVERBUND
 70
0
 62
7
  6
CONTINUOUS
370
-3
390
F
  0
LAYER
  5
203
100
AcDbSymbolTableRecord
100
AcDbLayerTableRecord
  2
GEWINDE
 70
0
 62
7
  6
CONTINUOUS
370
-3
390
F
  0
LAYER
  5
204
100
AcDbSymbolTableRecord
100
AcDbLayerTableRecord
  2
HILFEN
 70
0
 62
7
  6
CONTINUOUS
370
-3
390
F
  0
LAYER
  5
205
100
AcDbSymbolTableRecord
100
AcDbLayerTableRecord
  2
KONSTRUKTIONSELEMENTE
 70
0
 62
7
  6
CONTINUOUS
370
-3
390
F
  0
LAYER
  5
206
100
AcDbSymbolTableRecord
100
AcDbLayerTableRecord
  2
KURVEN
 70
0
 62
7
  6
CONTINUOUS
370
-3
390
F
  0
LAYER
  5
207
100
AcDbSymbolTableRecord
100
AcDbLayerTableRecord
  2
NORM
 70
0
 62
7
  6
CONTINUOUS
370
-3
390
F
  0
LAYER
  5
208
100
AcDbSymbolTableRecord
100
AcDbLayerTableRecord
  2
PLATZIERUNG
 70
0
 62
7
  6
CONTINUOUS
370
-3
390
F
  0
LAYER
  5
209
100
AcDbSymbolTableRecord
100
AcDbLayerTableRecord
  2
RUNDUNGEN
 70
0
 62
7
  6
CONTINUOUS
370
-3
390
F
  0
LAYER
  5
20A
100
AcDbSymbolTableRecord
100
AcDbLayerTableRecord
  2
TEIL_STARTBEZUEGE
 70
0
 62
7
  6
CONTINUOUS
370
-3
390
F
  0
LAYER
  5
20B
100
AcDbSymbolTableRecord
100
AcDbLayerTableRecord
  2
T_STARTBEZUEGE
 70
0
 62
7
  6
CONTINUOUS
370
-3
390
F
  0
LAYER
  5
20C
100
AcDbSymbolTableRecord
100
AcDbLayerTableRecord
  2
ZEICHNUNGSBEMASSUNGEN
 70
0
 62
7
  6
CONTINUOUS
370
-3
390
F
  0
ENDTAB
  0
TABLE
  2
STYLE
  5
3
100
AcDbSymbolTable
 70
1
  0
STYLE
  5
11
100
AcDbSymbolTableRecord
100
AcDbTextStyleTableRecord
  2
STANDARD
 70
0
 40
0.0
 41
0.7
 50
0.0
 71
0
 42
0.2
  3
txt
  4

  0
STYLE
  5
20D
100
AcDbSymbolTableRecord
100
AcDbTextStyleTableRecord
  2
TEXTSTYLE_1
 70
0
 40
0.0
 41
0.8
 50
0.0
 71
0
 42
0.2
  3
gdt
  4

  0
ENDTAB
  0
TABLE
  2
VIEW
  5
6
100
AcDbSymbolTable
 70
0
  0
ENDTAB
  0
TABLE
  2
UCS
  5
7
100
AcDbSymbolTable
 70
0
  0
ENDTAB
  0
TABLE
  2
APPID
  5
9
100
AcDbSymbolTable
 70
1
  0
APPID
  5
20E
100
AcDbSymbolTableRecord
100
AcDbRegAppTableRecord
  2
ACAD
 70
0
  0
ENDTAB
  0
TABLE
  2
BLOCK_RECORD
  5
1
100
AcDbSymbolTable
 70
0
  0
BLOCK_RECORD
  5
20F
100
AcDbSymbolTableRecord
100
AcDbBlockTableRecord
  2
*Model_Space
  0
BLOCK_RECORD
  5
210
100
AcDbSymbolTableRecord
100
AcDbBlockTableRecord
  2
*Paper_Space
  0
ENDTAB
  0
TABLE
  2
DIMSTYLE
  5
A
100
AcDbSymbolTable
 70
1
100
AcDbDimStyleTable
 71
0
  0
DIMSTYLE
105
211
100
AcDbSymbolTableRecord
100
AcDbDimStyleTableRecord
  2
STANDARD
 70
0
  3

  4

 40
1.0
 41
3.5
 42
0.0625
 43
0.38
 44
0.18
 45
0.0
 46
0.0
 47
0.005
 48
0.005
140
3.5
141
0.09
142
0.0
143
25.4
144
1.0
145
0.0
146
1.0
147
0.09
 71
1.0
 72
0.0
 73
0
 74
0
 75
0
 76
0
 77
1
 78
8
170
0
171
2
172
0
173
0
174
0
175
0
176
0
177
0
178
5
270
2
271
3
272
3
273
2
274
2
275
0
280
0
281
0
282
0
283
1
284
8
285
0
286
0
287
3
288
0
340
11
  0
ENDTAB
  0
ENDSEC
  0
SECTION
  2
BLOCKS
  0
BLOCK
  5
20
100
AcDbEntity
  8
0
100
AcDbBlockBegin
  2
*Model_Space
 70
0
 10
0.0
 20
0.0
 30
0.0
  3
*Model_Space
  1

  0
ENDBLK
  5
21
100
AcDbEntity
  8
0
100
AcDbBlockEnd
  0
BLOCK
  5
1C
100
AcDbEntity
  8
0
100
AcDbBlockBegin
  2
*Paper_Space
 70
0
 10
0.0
 20
0.0
 30
0.0
  3
*Paper_Space
  1

  0
ENDBLK
  5
1D
100
AcDbEntity
  8
0
100
AcDbBlockEnd
  0
ENDSEC
  0
SECTION
  2
ENTITIES
  0
MTEXT
  5
212
100
AcDbEntity
  8
0
100
AcDbMText
 62
5
  6
CONTINUOUS
  7
STANDARD
 71
1
 72
1
 10
183.5864487492
 20
130.5666689886
 30
0.0
 11
0.0
 21
1.0
 31
0.0
 44
0.9
  1
VRS 0,1t RUD
 40
2.5
 41
22.8571428571
  0
MTEXT
  5
213
100
AcDbEntity
  8
0
100
AcDbMText
 62
5
  6
CONTINUOUS
  7
STANDARD
 71
1
 72
1
 10
90.7524506029
 20
64.3344136131
 30
0.0
 11
1.0
 21
0.0
 31
0.0
 44
0.9
  1
VRS 0,1t RUD
 40
2.5
 41
22.8571428571
  0
LINE
  5
214
100
AcDbEntity
  8
0
100
AcDbLine
 62
7
  6
CONTINUOUS
 10
0.0
 20
0.0
 11
0.0
 21
210.0
  0
LINE
  5
215
100
AcDbEntity
  8
0
100
AcDbLine
 62
7
  6
CONTINUOUS
 10
0.0
 20
0.0
 11
297.0
 21
0.0
  0
LINE
  5
216
100
AcDbEntity
  8
0
100
AcDbLine
 62
7
  6
CONTINUOUS
 10
0.0
 20
210.0
 11
297.0
 21
210.0
  0
LINE
  5
217
100
AcDbEntity
  8
0
100
AcDbLine
 62
7
  6
CONTINUOUS
 10
297.0
 20
0.0
 11
297.0
 21
210.0
  0
LINE
  5
218
100
AcDbEntity
  8
KONSTRUKTIONSELEMENTE
100
AcDbLine
 62
7
  6
CONTINUOUS
 10
100.4156856915
 20
110.4805119265
 11
105.0156856915
 21
110.4805119265
  0
LINE
  5
219
100
AcDbEntity
  8
KONSTRUKTIONSELEMENTE
100
AcDbLine
 62
7
  6
CONTINUOUS
 10
99.7156856915
 20
111.1805119265
 11
105.7156856915
 21
111.1805119265
  0
LINE
  5
21A
100
AcDbEntity
  8
KONSTRUKTIONSELEMENTE
100
AcDbLine
 62
7
  6
CONTINUOUS
 10
96.2157993024
 20
119.4805119265
 11
109.2155720805
 21
119.4805119265
  0
LINE
  5
21B
100
AcDbEntity
  8
BEZUGSACHSEN
100
AcDbLine
 62
7
  6
CONTINUOUS
 10
114.2156856915
 20
119.6805119265
 11
91.2156856915
 21
119.6805119265
  0
LINE
  5
21C
100
AcDbEntity
  8
0
100
AcDbLine
 62
7
  6
CONTINUOUS
 10
101.9240189453
 20
119.9198736299
 11
102.3406856915
 21
119.9198736299
  0
LINE
  5
21D
100
AcDbEntity
  8
KONSTRUKTIONSELEMENTE
100
AcDbLine
 62
7
  6
CONTINUOUS
 10
99.7156856915
 20
111.1805119265
 11
100.4156856915
 21
110.4805119265
  0
LINE
  5
21E
100
AcDbEntity
  8
0
100
AcDbLine
 62
7
  6
CONTINUOUS
 10
100.1740188261
 20
120.9411502231
 11
99.7573521992
 21
120.8560438503
  0
LINE
  5
21F
100
AcDbEntity
  8
0
100
AcDbLine
 62
7
  6
CONTINUOUS
 10
99.7573521992
 20
120.4305119265
 11
100.2573521992
 21
120.5156183068
  0
LINE
  5
220
100
AcDbEntity
  8
0
100
AcDbLine
 62
7
  6
CONTINUOUS
 10
104.0073521992
 20
120.4305119265
 11
104.5073521992
 21
120.4305119265
  0
LINE
  5
221
100
AcDbEntity
  8
0
100
AcDbLine
 62
7
  6
CONTINUOUS
 10
102.8406856915
 20
120.8560438503
 11
102.4240187069
 21
120.8560438503
  0
LINE
  5
222
100
AcDbEntity
  8
0
100
AcDbLine
 62
7
  6
CONTINUOUS
 10
105.1740187069
 20
122.8134906042
 11
105.8406856915
 21
122.8134906042
  0
LINE
  5
223
100
AcDbEntity
  8
0
100
AcDbLine
 62
7
  6
CONTINUOUS
 10
106.2573521992
 20
122.8134906042
 11
107.1740191838
 21
122.8134906042
  0
LINE
  5
224
100
AcDbEntity
  8
0
100
AcDbLine
 62
7
  6
CONTINUOUS
 10
88.2156856915
 20
122.9305119265
 11
89.2013129758
 21
122.9305119265
  0
LINE
  5
225
100
AcDbEntity
  8
0
100
AcDbLine
 62
7
  6
CONTINUOUS
 10
116.2300584071
 20
122.9305119265
 11
117.2156856915
 21
122.9305119265
  0
LINE
  5
226
100
AcDbEntity
  8
0
100
AcDbLine
 62
7
  6
CONTINUOUS
 10
99.2573521992
 20
120.5156183068
 11
99.7573521992
 21
120.4305119265
  0
LINE
  5
227
100
AcDbEntity
  8
0
100
AcDbLine
 62
7
  6
CONTINUOUS
 10
106.5073521992
 20
120.5156183068
 11
107.0073521992
 21
120.4305119265
  0
LINE
  5
228
100
AcDbEntity
  8
0
100
AcDbLine
 62
7
  6
CONTINUOUS
 10
99.7573521992
 20
120.8560438503
 11
99.3406855723
 21
120.9411502231
  0
LINE
  5
229
100
AcDbEntity
  8
0
100
AcDbLine
 62
7
  6
CONTINUOUS
 10
107.0073521992
 20
120.7709374476
 11
106.5906852146
 21
120.8560438503
  0
LINE
  5
22A
100
AcDbEntity
  8
0
100
AcDbLine
 62
7
  6
CONTINUOUS
 10
106.2573521992
 20
120.6007246871
 11
106.5073521992
 21
120.5156183068
  0
LINE
  5
22B
100
AcDbEntity
  8
0
100
AcDbLine
 62
7
  6
CONTINUOUS
 10
98.8406855127
 20
120.7709374476
 11
99.2573521992
 21
120.5156183068
  0
LINE
  5
22C
100
AcDbEntity
  8
0
100
AcDbLine
 62
7
  6
CONTINUOUS
 10
99.3406855723
 20
120.9411502231
 11
99.0906855127
 21
121.1113629688
  0
LINE
  5
22D
100
AcDbEntity
  8
BEZUGSACHSEN
100
AcDbLine
 62
7
  6
CONTINUOUS
 10
91.2156856915
 20
119.6805119265
 11
90.1251925084
 21
122.3131953589
  0
LINE
  5
22E
100
AcDbEntity
  8
BEZUGSACHSEN
100
AcDbLine
 62
7
  6
CONTINUOUS
 10
87.139565224
 20
129.521137241
 11
84.0791190104
 21
136.9097079968
  0
LINE
  5
22F
100
AcDbEntity
  8
RUNDUNGEN
100
AcDbLine
 62
7
  6
CONTINUOUS
 10
87.2156856915
 20
129.2198775361
 11
87.2156856915
 21
123.9305119265
  0
LINE
  5
230
100
AcDbEntity
  8
BEZUGSACHSEN
100
AcDbLine
 62
7
  6
CONTINUOUS
 10
87.2156856915
 20
123.9308144853
 11
87.2156856915
 21
129.2198773546
  0
LINE
  5
231
100
AcDbEntity
  8
BEZUGSACHSEN
100
AcDbLine
 62
7
  6
CONTINUOUS
 10
84.0791190104
 20
137.6750748615
 11
84.1673354161
 21
137.8880481046
  0
LINE
  5
232
100
AcDbEntity
  8
RUNDUNGEN
100
AcDbLine
 62
7
  6
CONTINUOUS
 10
84.1673354161
 20
137.8880481046
 11
89.1885655374
 21
150.0103699632
  0
LINE
  5
233
100
AcDbEntity
  8
RUNDUNGEN
100
AcDbLine
 62
7
  6
CONTINUOUS
 10
89.7297616375
 20
150.5515660634
 11
102.3330022591
 21
155.7719992587
  0
LINE
  5
234
100
AcDbEntity
  8
0
100
AcDbLine
 62
7
  6
CONTINUOUS
 10
99.3406855723
 20
123.9198736895
 11
99.7573521992
 21
124.0049800623
  0
LINE
  5
235
100
AcDbEntity
  8
0
100
AcDbLine
 62
7
  6
CONTINUOUS
 10
99.7573521992
 20
124.4305119265
 11
99.2573521992
 21
124.3454055537
  0
LINE
  5
236
100
AcDbEntity
  8
0
100
AcDbLine
 62
7
  6
CONTINUOUS
 10
107.1740191838
 20
123.1539160956
 11
106.2573521992
 21
123.1539160956
  0
LINE
  5
237
100
AcDbEntity
  8
0
100
AcDbLine
 62
7
  6
CONTINUOUS
 10
105.8406856915
 20
123.1539160956
 11
105.1740187069
 21
123.1539160956
  0
LINE
  5
238
100
AcDbEntity
  8
0
100
AcDbLine
 62
7
  6
CONTINUOUS
 10
106.2573521992
 20
123.8347673167
 11
105.8406856915
 21
123.8347673167
  0
LINE
  5
239
100
AcDbEntity
  8
0
100
AcDbLine
 62
7
  6
CONTINUOUS
 10
104.5073521992
 20
124.4305119265
 11
104.0073521992
 21
124.4305119265
  0
LINE
  5
23A
100
AcDbEntity
  8
0
100
AcDbLine
 62
7
  6
CONTINUOUS
 10
100.2573521992
 20
124.3454055537
 11
99.7573521992
 21
124.4305119265
  0
LINE
  5
23B
100
AcDbEntity
  8
0
100
AcDbLine
 62
7
  6
CONTINUOUS
 10
99.7573521992
 20
124.0049800623
 11
100.1740188261
 21
123.9198736895
  0
LINE
  5
23C
100
AcDbEntity
  8
0
100
AcDbLine
 62
7
  6
CONTINUOUS
 10
100.6740189453
 20
124.0900864352
 11
100.2573521992
 21
124.3454055537
  0
LINE
  5
23D
100
AcDbEntity
  8
0
100
AcDbLine
 62
7
  6
CONTINUOUS
 10
100.1740188261
 20
123.9198736895
 11
100.4240189453
 21
123.7496609438
  0
LINE
  5
23E
100
AcDbEntity
  8
0
100
AcDbLine
 62
7
  6
CONTINUOUS
 10
98.5906855425
 20
121.0262565959
 11
98.8406855127
 21
120.7709374476
  0
LINE
  5
23F
100
AcDbEntity
  8
0
100
AcDbLine
 62
7
  6
CONTINUOUS
 10
93.4031266545
 20
148.9795556756
 11
93.3454549301
 21
148.8015253644
  0
LINE
  5
240
100
AcDbEntity
  8
0
100
AcDbLine
 62
7
  6
CONTINUOUS
 10
93.2407679747
 20
147.43307308
 11
93.2984398677
 21
147.6111035597
  0
LINE
  5
241
100
AcDbEntity
  8
0
100
AcDbLine
 62
7
  6
CONTINUOUS
 10
93.6131275419
 20
148.8284808028
 11
93.6714262429
 21
148.9469587972
  0
LINE
  5
242
100
AcDbEntity
  8
0
100
AcDbLine
 62
7
  6
CONTINUOUS
 10
93.0608570711
 20
147.5540586432
 11
93.0025583701
 21
147.4355806489
  0
LINE
  5
243
100
AcDbEntity
  8
0
100
AcDbLine
 62
7
  6
CONTINUOUS
 10
93.4908883629
 20
149.1274966772
 11
93.4031266545
 21
148.9795556756
  0
LINE
  5
244
100
AcDbEntity
  8
0
100
AcDbLine
 62
7
  6
CONTINUOUS
 10
93.6382020508
 20
149.2748103652
 11
93.4908883629
 21
149.1274966772
  0
LINE
  5
245
100
AcDbEntity
  8
0
100
AcDbLine
 62
7
  6
CONTINUOUS
 10
92.3713025136
 20
148.007910828
 11
91.6641957324
 21
147.3008040468
  0
LINE
  5
246
100
AcDbEntity
  8
0
100
AcDbLine
 62
7
  6
CONTINUOUS
 10
91.4284934439
 20
147.0651017583
 11
91.2517167486
 21
146.888325063
  0
LINE
  5
247
100
AcDbEntity
  8
0
100
AcDbLine
 62
7
  6
CONTINUOUS
 10
90.4267588653
 20
146.0633671797
 11
90.24998217
 21
145.8865904844
  0
LINE
  5
248
100
AcDbEntity
  8
0
100
AcDbLine
 62
7
  6
CONTINUOUS
 10
91.9914206611
 20
147.3271325087
 11
92.5512135857
 21
147.8869254333
  0
LINE
  5
249
100
AcDbEntity
  8
0
100
AcDbLine
 62
7
  6
CONTINUOUS
 10
93.6714262429
 20
148.9469587972
 11
93.8482029382
 21
149.1237354925
  0
LINE
  5
24A
100
AcDbEntity
  8
0
100
AcDbLine
 62
7
  6
CONTINUOUS
 10
94.1754278669
 20
149.1500639544
 11
94.3522045622
 21
149.3268406497
  0
LINE
  5
24B
100
AcDbEntity
  8
0
100
AcDbLine
 62
7
  6
CONTINUOUS
 10
94.269458076
 20
148.7024803547
 11
94.0926813807
 21
148.5257036594
  0
LINE
  5
24C
100
AcDbEntity
  8
0
100
AcDbLine
 62
7
  6
CONTINUOUS
 10
93.0025583701
 20
147.4355806489
 11
92.4427654455
 21
146.8757877242
  0
LINE
  5
24D
100
AcDbEntity
  8
0
100
AcDbLine
 62
7
  6
CONTINUOUS
 10
92.6233033256
 20
146.6952498442
 11
93.1241705727
 21
147.1961170913
  0
LINE
  5
24E
100
AcDbEntity
  8
0
100
AcDbLine
 62
7
  6
CONTINUOUS
 10
94.2732192607
 20
148.3451657793
 11
94.449995956
 21
148.5219424746
  0
LINE
  5
24F
100
AcDbEntity
  8
0
100
AcDbLine
 62
7
  6
CONTINUOUS
 10
94.219308426
 20
147.8098205135
 11
94.0425318993
 21
147.6330439868
  0
LINE
  5
250
100
AcDbEntity
  8
0
100
AcDbLine
 62
7
  6
CONTINUOUS
 10
93.8156057226
 20
149.3920347437
 11
93.6382020508
 21
149.2748103652
  0
LINE
  5
251
100
AcDbEntity
  8
0
100
AcDbLine
 62
7
  6
CONTINUOUS
 10
92.5487060168
 20
148.1251350378
 11
92.3713025136
 21
148.007910828
  0
LINE
  5
252
100
AcDbEntity
  8
0
100
AcDbLine
 62
7
  6
CONTINUOUS
 10
94.4468614106
 20
148.819704396
 11
94.269458076
 21
148.7024803547
  0
LINE
  5
253
100
AcDbEntity
  8
0
100
AcDbLine
 62
7
  6
CONTINUOUS
 10
94.449995956
 20
148.5219424746
 11
94.5979366205
 21
148.6097038458
  0
LINE
  5
254
100
AcDbEntity
  8
0
100
AcDbLine
 62
7
  6
CONTINUOUS
 10
94.1252782591
 20
148.257404071
 11
94.2732192607
 21
148.3451657793
  0
LINE
  5
255
100
AcDbEntity
  8
0
100
AcDbLine
 62
7
  6
CONTINUOUS
 10
93.8482029382
 20
149.1237354925
 11
93.9666809325
 21
149.1820341934
  0
LINE
  5
256
100
AcDbEntity
  8
0
100
AcDbLine
 62
7
  6
CONTINUOUS
 10
92.5512135857
 20
147.8869254333
 11
92.66969158
 21
147.9452241343
  0
LINE
  5
257
100
AcDbEntity
  8
0
100
AcDbLine
 62
7
  6
CONTINUOUS
 10
94.0926813807
 20
148.5257036594
 11
93.9742033863
 21
148.4674049584
  0
LINE
  5
258
100
AcDbEntity
  8
0
100
AcDbLine
 62
7
  6
CONTINUOUS
 10
106.0073521992
 20
120.7709374476
 11
106.2573521992
 21
120.6007246871
  0
LINE
  5
259
100
AcDbEntity
  8
0
100
AcDbLine
 62
7
  6
CONTINUOUS
 10
106.5906852146
 20
120.8560438503
 11
106.3406852146
 21
121.0262565959
  0
LINE
  5
25A
100
AcDbEntity
  8
0
100
AcDbLine
 62
7
  6
CONTINUOUS
 10
100.9240189453
 20
123.8347673167
 11
100.6740189453
 21
124.0900864352
  0
LINE
  5
25B
100
AcDbEntity
  8
0
100
AcDbLine
 62
7
  6
CONTINUOUS
 10
99.0906855127
 20
121.1113629688
 11
98.7573521992
 21
121.6220012654
  0
LINE
  5
25C
100
AcDbEntity
  8
0
100
AcDbLine
 62
7
  6
CONTINUOUS
 10
98.4240188708
 20
121.3666821469
 11
98.5906855425
 21
121.0262565959
  0
LINE
  5
25D
100
AcDbEntity
  8
0
100
AcDbLine
 62
7
  6
CONTINUOUS
 10
93.0596032867
 20
147.6731634455
 11
93.0608570711
 21
147.5540586432
  0
LINE
  5
25E
100
AcDbEntity
  8
0
100
AcDbLine
 62
7
  6
CONTINUOUS
 10
93.3454549301
 20
148.8015253644
 11
93.347962499
 21
148.5633157599
  0
LINE
  5
25F
100
AcDbEntity
  8
0
100
AcDbLine
 62
7
  6
CONTINUOUS
 10
93.5849184876
 20
148.6799131618
 11
93.6131275419
 21
148.8284808028
  0
LINE
  5
260
100
AcDbEntity
  8
0
100
AcDbLine
 62
7
  6
CONTINUOUS
 10
95.0173111237
 20
148.3671060378
 11
94.9891020905
 21
148.2185383758
  0
LINE
  5
261
100
AcDbEntity
  8
0
100
AcDbLine
 62
7
  6
CONTINUOUS
 10
95.1991026592
 20
148.0674631474
 11
95.2567747129
 21
148.2454938037
  0
LINE
  5
262
100
AcDbEntity
  8
0
100
AcDbLine
 62
7
  6
CONTINUOUS
 10
94.9891020905
 20
148.2185383758
 11
94.9013407194
 21
148.0705977113
  0
LINE
  5
263
100
AcDbEntity
  8
0
100
AcDbLine
 62
7
  6
CONTINUOUS
 10
95.0818786205
 20
147.8900598101
 11
95.1991026592
 21
148.0674631474
  0
LINE
  5
264
100
AcDbEntity
  8
0
100
AcDbLine
 62
7
  6
CONTINUOUS
 10
101.257352676
 20
151.4571076382
 11
101.174019303
 21
151.3720012654
  0
LINE
  5
265
100
AcDbEntity
  8
0
100
AcDbLine
 62
7
  6
CONTINUOUS
 10
94.9013407194
 20
148.0705977113
 11
94.6656383466
 21
147.8348953385
  0
LINE
  5
266
100
AcDbEntity
  8
0
100
AcDbLine
 62
7
  6
CONTINUOUS
 10
92.1356002672
 20
144.9437814569
 11
92.3713025136
 21
145.1794837032
  0
LINE
  5
267
100
AcDbEntity
  8
0
100
AcDbLine
 62
7
  6
CONTINUOUS
 10
93.0784092948
 20
145.8865904844
 11
93.2551859901
 21
146.0633671797
  0
LINE
  5
268
100
AcDbEntity
  8
0
100
AcDbLine
 62
7
  6
CONTINUOUS
 10
93.99175561
 20
146.7999367996
 11
94.1979949755
 21
147.0061761651
  0
LINE
  5
269
100
AcDbEntity
  8
0
100
AcDbLine
 62
7
  6
CONTINUOUS
 10
94.8461762477
 20
147.6543574374
 11
95.0818786205
 21
147.8900598101
  0
LINE
  5
26A
100
AcDbEntity
  8
0
100
AcDbLine
 62
7
  6
CONTINUOUS
 10
103.0490194222
 20
150.5634906638
 11
102.9240194222
 21
150.4783842612
  0
LINE
  5
26B
100
AcDbEntity
  8
0
100
AcDbLine
 62
7
  6
CONTINUOUS
 10
94.6687725733
 20
147.5371330615
 11
94.8461762477
 21
147.6543574374
  0
LINE
  5
26C
100
AcDbEntity
  8
0
100
AcDbLine
 62
7
  6
CONTINUOUS
 10
94.6656383466
 20
147.8348953385
 11
94.5176976821
 21
147.7471339674
  0
LINE
  5
26D
100
AcDbEntity
  8
0
100
AcDbLine
 62
7
  6
CONTINUOUS
 10
101.2156860491
 20
151.1592353333
 11
101.382352676
 21
151.2443417061
  0
LINE
  5
26E
100
AcDbEntity
  8
0
100
AcDbLine
 62
7
  6
CONTINUOUS
 10
102.9656859299
 20
150.2230651166
 11
103.132352676
 21
150.3081715006
  0
LINE
  5
26F
100
AcDbEntity
  8
0
100
AcDbLine
 62
7
  6
CONTINUOUS
 10
101.174019303
 20
151.3720012654
 11
101.049019303
 21
151.3294480789
  0
LINE
  5
270
100
AcDbEntity
  8
0
100
AcDbLine
 62
7
  6
CONTINUOUS
 10
94.6248920589
 20
148.8773764576
 11
94.4468614106
 21
148.819704396
  0
LINE
  5
271
100
AcDbEntity
  8
0
100
AcDbLine
 62
7
  6
CONTINUOUS
 10
93.9472479479
 20
148.1997323466
 11
94.1252782591
 21
148.257404071
  0
LINE
  5
272
100
AcDbEntity
  8
0
100
AcDbLine
 62
7
  6
CONTINUOUS
 10
100.4240189453
 20
123.7496609438
 11
100.7573521992
 21
123.2390224684
  0
LINE
  5
273
100
AcDbEntity
  8
0
100
AcDbLine
 62
7
  6
CONTINUOUS
 10
101.0906854531
 20
123.4943418253
 11
100.9240189453
 21
123.8347673167
  0
LINE
  5
274
100
AcDbEntity
  8
0
100
AcDbLine
 62
7
  6
CONTINUOUS
 10
98.340685535
 20
121.6220012654
 11
98.4240188708
 21
121.3666821469
  0
LINE
  5
275
100
AcDbEntity
  8
0
100
AcDbLine
 62
7
  6
CONTINUOUS
 10
95.2567747129
 20
148.2454938037
 11
95.2542671335
 21
148.4837034187
  0
LINE
  5
276
100
AcDbEntity
  8
0
100
AcDbLine
 62
7
  6
CONTINUOUS
 10
94.7156856915
 20
133.9805119265
 11
94.7156856915
 21
135.4805119265
  0
LINE
  5
277
100
AcDbEntity
  8
KONSTRUKTIONSELEMENTE
100
AcDbLine
 62
7
  6
CONTINUOUS
 10
96.2156856915
 20
119.6805119265
 11
96.2156856915
 21
119.4805119265
  0
LINE
  5
278
100
AcDbEntity
  8
0
100
AcDbLine
 62
7
  6
CONTINUOUS
 10
103.132352676
 20
150.6911502231
 11
103.0490194222
 21
150.5634906638
  0
LINE
  5
279
100
AcDbEntity
  8
0
100
AcDbLine
 62
7
  6
CONTINUOUS
 10
101.382352676
 20
151.2443417061
 11
101.507352676
 21
151.4145544518
  0
LINE
  5
27A
100
AcDbEntity
  8
0
100
AcDbLine
 62
7
  6
CONTINUOUS
 10
103.132352676
 20
150.3081715006
 11
103.2990194222
 21
150.4783842612
  0
LINE
  5
27B
100
AcDbEntity
  8
0
100
AcDbLine
 62
7
  6
CONTINUOUS
 10
105.0490191838
 20
150.5634906638
 11
104.9240191838
 21
150.4783842612
  0
LINE
  5
27C
100
AcDbEntity
  8
0
100
AcDbLine
 62
7
  6
CONTINUOUS
 10
104.9656861683
 20
150.2230651166
 11
105.132352676
 21
150.3081715006
  0
LINE
  5
27D
100
AcDbEntity
  8
RUNDUNGEN
100
AcDbLine
 62
7
  6
CONTINUOUS
 10
128.7156856915
 20
133.4805119265
 11
95.2162857569
 21
133.4805119265
  0
LINE
  5
27E
100
AcDbEntity
  8
0
100
AcDbLine
 62
7
  6
CONTINUOUS
 10
92.3713025136
 20
145.1794837032
 11
91.4284934439
 21
147.0651017583
  0
LINE
  5
27F
100
AcDbEntity
  8
0
100
AcDbLine
 62
7
  6
CONTINUOUS
 10
91.2517167486
 20
146.888325063
 11
92.0729134682
 21
145.2421704601
  0
LINE
  5
280
100
AcDbEntity
  8
0
100
AcDbLine
 62
7
  6
CONTINUOUS
 10
105.8406856915
 20
121.1113629688
 11
106.0073521992
 21
120.7709374476
  0
LINE
  5
281
100
AcDbEntity
  8
0
100
AcDbLine
 62
7
  6
CONTINUOUS
 10
101.1740189453
 20
123.2390224684
 11
101.0906854531
 21
123.4943418253
  0
LINE
  5
282
100
AcDbEntity
  8
0
100
AcDbLine
 62
7
  6
CONTINUOUS
 10
94.9859678612
 20
148.5163006554
 11
95.0173111237
 21
148.3671060378
  0
LINE
  5
283
100
AcDbEntity
  8
0
100
AcDbLine
 62
7
  6
CONTINUOUS
 10
98.2573521992
 20
122.0475332487
 11
98.340685535
 21
121.6220012654
  0
LINE
  5
284
100
AcDbEntity
  8
0
100
AcDbLine
 62
7
  6
CONTINUOUS
 10
98.7573521992
 20
121.6220012654
 11
98.6740188559
 21
122.1326396216
  0
LINE
  5
285
100
AcDbEntity
  8
0
100
AcDbLine
 62
7
  6
CONTINUOUS
 10
93.2984398677
 20
147.6111035597
 11
93.2664696286
 21
147.8198504941
  0
LINE
  5
286
100
AcDbEntity
  8
0
100
AcDbLine
 62
7
  6
CONTINUOUS
 10
98.2573521992
 20
122.8134906042
 11
98.2573521992
 21
122.0475332487
  0
LINE
  5
287
100
AcDbEntity
  8
0
100
AcDbLine
 62
7
  6
CONTINUOUS
 10
98.6740188559
 20
122.1326396216
 11
98.6740188559
 21
122.7283842314
  0
LINE
  5
288
100
AcDbEntity
  8
0
100
AcDbLine
 62
7
  6
CONTINUOUS
 10
99.3093191033
 20
133.4805119265
 11
99.3093191033
 21
128.7458097973
  0
LINE
  5
289
100
AcDbEntity
  8
BEZUGSACHSEN
100
AcDbLine
 62
7
  6
CONTINUOUS
 10
99.6086426995
 20
133.4805119265
 11
99.6086426995
 21
128.6695769065
  0
LINE
  5
28A
100
AcDbEntity
  8
KONSTRUKTIONSELEMENTE
100
AcDbLine
 62
7
  6
CONTINUOUS
 10
99.7156856915
 20
119.4805119265
 11
99.7156856915
 21
111.1805119265
  0
LINE
  5
28B
100
AcDbEntity
  8
0
100
AcDbLine
 62
7
  6
CONTINUOUS
 10
100.007352676
 20
152.1805119265
 11
100.007352676
 21
150.1805119265
  0
LINE
  5
28C
100
AcDbEntity
  8
0
100
AcDbLine
 62
7
  6
CONTINUOUS
 10
101.299019303
 20
151.5847671974
 11
101.257352676
 21
151.4571076382
  0
LINE
  5
28D
100
AcDbEntity
  8
0
100
AcDbLine
 62
7
  6
CONTINUOUS
 10
101.507352676
 20
151.4145544518
 11
101.549019303
 21
151.542214011
  0
LINE
  5
28E
100
AcDbEntity
  8
0
100
AcDbLine
 62
7
  6
CONTINUOUS
 10
103.2990194222
 20
150.4783842612
 11
103.382352676
 21
150.6485970367
  0
LINE
  5
28F
100
AcDbEntity
  8
0
100
AcDbLine
 62
7
  6
CONTINUOUS
 10
105.132352676
 20
150.6911502231
 11
105.0490191838
 21
150.5634906638
  0
LINE
  5
290
100
AcDbEntity
  8
0
100
AcDbLine
 62
7
  6
CONTINUOUS
 10
105.132352676
 20
150.3081715006
 11
105.2990191838
 21
150.4783842612
  0
LINE
  5
291
100
AcDbEntity
  8
RUNDUNGEN
100
AcDbLine
 62
7
  6
CONTINUOUS
 10
95.2162857568
 20
135.9805119265
 11
128.7156856915
 21
135.9805119265
  0
LINE
  5
292
100
AcDbEntity
  8
0
100
AcDbLine
 62
7
  6
CONTINUOUS
 10
100.2156856915
 20
136.2805119265
 11
105.2156856915
 21
136.2805119265
  0
LINE
  5
293
100
AcDbEntity
  8
0
100
AcDbLine
 62
7
  6
CONTINUOUS
 10
91.6641957324
 20
147.3008040468
 11
93.0784092948
 21
145.8865904844
  0
LINE
  5
294
100
AcDbEntity
  8
0
100
AcDbLine
 62
7
  6
CONTINUOUS
 10
93.347962499
 20
148.5633157599
 11
93.4388580784
 21
148.4134941659
  0
LINE
  5
295
100
AcDbEntity
  8
0
100
AcDbLine
 62
7
  6
CONTINUOUS
 10
92.9987971854
 20
147.7928952242
 11
93.0596032867
 21
147.6731634455
  0
LINE
  5
296
100
AcDbEntity
  8
0
100
AcDbLine
 62
7
  6
CONTINUOUS
 10
93.2664696286
 20
147.8198504941
 11
93.2056635274
 21
147.9395822729
  0
LINE
  5
297
100
AcDbEntity
  8
0
100
AcDbLine
 62
7
  6
CONTINUOUS
 10
93.6457245046
 20
148.5601811302
 11
93.5849184876
 21
148.6799131618
  0
LINE
  5
298
100
AcDbEntity
  8
0
100
AcDbLine
 62
7
  6
CONTINUOUS
 10
95.2542671335
 20
148.4837034187
 11
95.1928342032
 21
148.662987704
  0
LINE
  5
299
100
AcDbEntity
  8
0
100
AcDbLine
 62
7
  6
CONTINUOUS
 10
101.2573521992
 20
122.8134906042
 11
101.1740189453
 21
123.2390224684
  0
LINE
  5
29A
100
AcDbEntity
  8
0
100
AcDbLine
 62
7
  6
CONTINUOUS
 10
100.7573521992
 20
123.2390224684
 11
100.8406854531
 21
122.7283842314
  0
LINE
  5
29B
100
AcDbEntity
  8
0
100
AcDbLine
 62
7
  6
CONTINUOUS
 10
100.2156856915
 20
135.9805119265
 11
100.2156856915
 21
136.2805119265
  0
LINE
  5
29C
100
AcDbEntity
  8
0
100
AcDbLine
 62
7
  6
CONTINUOUS
 10
100.257352676
 20
150.1805119265
 11
100.257352676
 21
151.0741289604
  0
LINE
  5
29D
100
AcDbEntity
  8
0
100
AcDbLine
 62
7
  6
CONTINUOUS
 10
100.257352676
 20
151.3294480789
 11
100.257352676
 21
151.9677459944
  0
LINE
  5
29E
100
AcDbEntity
  8
BEZUGSACHSEN
100
AcDbLine
 62
7
  6
CONTINUOUS
 10
100.7131788012
 20
133.4805119265
 11
100.7131788012
 21
128.4425504544
  0
LINE
  5
29F
100
AcDbEntity
  8
0
100
AcDbLine
 62
7
  6
CONTINUOUS
 10
100.8406854531
 20
122.7283842314
 11
100.8406854531
 21
122.1326396216
  0
LINE
  5
2A0
100
AcDbEntity
  8
0
100
AcDbLine
 62
7
  6
CONTINUOUS
 10
101.0125023974
 20
133.4805119265
 11
101.0125023974
 21
128.3971493469
  0
LINE
  5
2A1
100
AcDbEntity
  8
0
100
AcDbLine
 62
7
  6
CONTINUOUS
 10
101.2573521992
 20
122.0475332487
 11
101.2573521992
 21
122.8134906042
  0
LINE
  5
2A2
100
AcDbEntity
  8
0
100
AcDbLine
 62
7
  6
CONTINUOUS
 10
101.299019303
 20
151.7124268759
 11
101.299019303
 21
151.5847671974
  0
LINE
  5
2A3
100
AcDbEntity
  8
0
100
AcDbLine
 62
7
  6
CONTINUOUS
 10
101.549019303
 20
151.542214011
 11
101.549019303
 21
151.7124268759
  0
LINE
  5
2A4
100
AcDbEntity
  8
BEZUGSACHSEN
100
AcDbLine
 62
7
  6
CONTINUOUS
 10
101.6111495898
 20
133.4805119265
 11
101.6111495898
 21
128.3303933691
  0
LINE
  5
2A5
100
AcDbEntity
  8
0
100
AcDbLine
 62
7
  6
CONTINUOUS
 10
101.924019303
 20
152.1805119265
 11
101.924019303
 21
150.8613629688
  0
LINE
  5
2A6
100
AcDbEntity
  8
0
100
AcDbLine
 62
7
  6
CONTINUOUS
 10
102.1740194222
 20
150.8613629688
 11
102.1740194222
 21
152.1805119265
  0
LINE
  5
2A7
100
AcDbEntity
  8
0
100
AcDbLine
 62
7
  6
CONTINUOUS
 10
102.7156856915
 20
135.9805119265
 11
102.7156856915
 21
136.2805119265
  0
LINE
  5
2A8
100
AcDbEntity
  8
0
100
AcDbLine
 62
7
  6
CONTINUOUS
 10
98.6740188559
 20
122.7283842314
 11
98.7573521992
 21
123.2390224684
  0
LINE
  5
2A9
100
AcDbEntity
  8
0
100
AcDbLine
 62
7
  6
CONTINUOUS
 10
103.382352676
 20
150.6485970367
 11
103.4240194222
 21
150.8613629688
  0
LINE
  5
2AA
100
AcDbEntity
  8
0
100
AcDbLine
 62
7
  6
CONTINUOUS
 10
98.340685535
 20
123.2390224684
 11
98.2573521992
 21
122.8134906042
  0
LINE
  5
2AB
100
AcDbEntity
  8
0
100
AcDbLine
 62
7
  6
CONTINUOUS
 10
103.1740194222
 20
150.8613629688
 11
103.132352676
 21
150.6911502231
  0
LINE
  5
2AC
100
AcDbEntity
  8
0
100
AcDbLine
 62
7
  6
CONTINUOUS
 10
105.1740191838
 20
150.8613629688
 11
105.132352676
 21
150.6911502231
  0
LINE
  5
2AD
100
AcDbEntity
  8
0
100
AcDbLine
 62
7
  6
CONTINUOUS
 10
105.2990191838
 20
150.4783842612
 11
105.382352676
 21
150.6485970367
  0
LINE
  5
2AE
100
AcDbEntity
  8
0
100
AcDbLine
 62
7
  6
CONTINUOUS
 10
92.0729134682
 20
145.2421704601
 11
90.4267588653
 21
146.0633671797
  0
LINE
  5
2AF
100
AcDbEntity
  8
0
100
AcDbLine
 62
7
  6
CONTINUOUS
 10
90.24998217
 20
145.8865904844
 11
92.1356002672
 21
144.9437814569
  0
LINE
  5
2B0
100
AcDbEntity
  8
0
100
AcDbLine
 62
7
  6
CONTINUOUS
 10
93.2551859901
 20
146.0633671797
 11
92.6233033256
 21
146.6952498442
  0
LINE
  5
2B1
100
AcDbEntity
  8
0
100
AcDbLine
 62
7
  6
CONTINUOUS
 10
92.4427654455
 20
146.8757877242
 11
91.9914206611
 21
147.3271325087
  0
LINE
  5
2B2
100
AcDbEntity
  8
0
100
AcDbLine
 62
7
  6
CONTINUOUS
 10
92.9085281611
 20
147.8831642486
 11
92.9987971854
 21
147.7928952242
  0
LINE
  5
2B3
100
AcDbEntity
  8
0
100
AcDbLine
 62
7
  6
CONTINUOUS
 10
93.2056635274
 20
147.9395822729
 11
93.0853048564
 21
148.0599409439
  0
LINE
  5
2B4
100
AcDbEntity
  8
0
100
AcDbLine
 62
7
  6
CONTINUOUS
 10
93.4388580784
 20
148.4134941659
 11
93.5592167494
 21
148.2931354949
  0
LINE
  5
2B5
100
AcDbEntity
  8
0
100
AcDbLine
 62
7
  6
CONTINUOUS
 10
93.705903798
 20
148.5000018368
 11
93.6457245046
 21
148.5601811302
  0
LINE
  5
2B6
100
AcDbEntity
  8
0
100
AcDbLine
 62
7
  6
CONTINUOUS
 10
106.3406852146
 20
121.0262565959
 11
106.2573521992
 21
121.281575774
  0
LINE
  5
2B7
100
AcDbEntity
  8
0
100
AcDbLine
 62
7
  6
CONTINUOUS
 10
103.1740194222
 20
152.1805119265
 11
103.1740194222
 21
150.8613629688
  0
LINE
  5
2B8
100
AcDbEntity
  8
0
100
AcDbLine
 62
7
  6
CONTINUOUS
 10
103.4240194222
 20
150.8613629688
 11
103.4240194222
 21
152.1805119265
  0
LINE
  5
2B9
100
AcDbEntity
  8
0
100
AcDbLine
 62
7
  6
CONTINUOUS
 10
103.5073521992
 20
123.8347673167
 11
103.5073521992
 21
123.1539160956
  0
LINE
  5
2BA
100
AcDbEntity
  8
0
100
AcDbLine
 62
7
  6
CONTINUOUS
 10
103.757352676
 20
152.1805119265
 11
103.757352676
 21
150.1805119265
  0
LINE
  5
2BB
100
AcDbEntity
  8
BEZUGSACHSEN
100
AcDbLine
 62
7
  6
CONTINUOUS
 10
103.8202217932
 20
133.4805119265
 11
103.8202217932
 21
128.3304542718
  0
LINE
  5
2BC
100
AcDbEntity
  8
0
100
AcDbLine
 62
7
  6
CONTINUOUS
 10
104.0073521992
 20
123.7496609438
 11
104.0073521992
 21
120.4305119265
  0
LINE
  5
2BD
100
AcDbEntity
  8
0
100
AcDbLine
 62
7
  6
CONTINUOUS
 10
104.007352676
 20
150.4358310748
 11
104.007352676
 21
151.925192808
  0
LINE
  5
2BE
100
AcDbEntity
  8
0
100
AcDbLine
 62
7
  6
CONTINUOUS
 10
104.4188689856
 20
133.4805119265
 11
104.4188689856
 21
128.3972424556
  0
LINE
  5
2BF
100
AcDbEntity
  8
0
100
AcDbLine
 62
7
  6
CONTINUOUS
 10
104.5073521992
 20
120.4305119265
 11
104.5073521992
 21
124.4305119265
  0
LINE
  5
2C0
100
AcDbEntity
  8
BEZUGSACHSEN
100
AcDbLine
 62
7
  6
CONTINUOUS
 10
104.7181925818
 20
133.4805119265
 11
104.7181925818
 21
128.4425155406
  0
LINE
  5
2C1
100
AcDbEntity
  8
0
100
AcDbLine
 62
7
  6
CONTINUOUS
 10
105.1740187069
 20
123.1539160956
 11
105.1740187069
 21
122.8134906042
  0
LINE
  5
2C2
100
AcDbEntity
  8
0
100
AcDbLine
 62
7
  6
CONTINUOUS
 10
105.1740191838
 20
151.4996608246
 11
105.1740191838
 21
150.8613629688
  0
LINE
  5
2C3
100
AcDbEntity
  8
0
100
AcDbLine
 62
7
  6
CONTINUOUS
 10
105.2156856915
 20
135.9805119265
 11
105.2156856915
 21
136.2805119265
  0
LINE
  5
2C4
100
AcDbEntity
  8
0
100
AcDbLine
 62
7
  6
CONTINUOUS
 10
105.4240191838
 20
150.8613629688
 11
105.4240191838
 21
151.4996608246
  0
LINE
  5
2C5
100
AcDbEntity
  8
KONSTRUKTIONSELEMENTE
100
AcDbLine
 62
7
  6
CONTINUOUS
 10
105.7156856915
 20
119.4805119265
 11
105.7156856915
 21
111.1805119265
  0
LINE
  5
2C6
100
AcDbEntity
  8
BEZUGSACHSEN
100
AcDbLine
 62
7
  6
CONTINUOUS
 10
105.8227286835
 20
133.4805119265
 11
105.8227286835
 21
128.6695772165
  0
LINE
  5
2C7
100
AcDbEntity
  8
0
100
AcDbLine
 62
7
  6
CONTINUOUS
 10
105.8406856915
 20
123.8347673167
 11
105.8406856915
 21
123.1539160956
  0
LINE
  5
2C8
100
AcDbEntity
  8
0
100
AcDbLine
 62
7
  6
CONTINUOUS
 10
105.8406856915
 20
122.8134906042
 11
105.8406856915
 21
121.1113629688
  0
LINE
  5
2C9
100
AcDbEntity
  8
0
100
AcDbLine
 62
7
  6
CONTINUOUS
 10
100.8406854531
 20
122.1326396216
 11
100.7573521992
 21
121.6220012654
  0
LINE
  5
2CA
100
AcDbEntity
  8
0
100
AcDbLine
 62
7
  6
CONTINUOUS
 10
105.382352676
 20
150.6485970367
 11
105.4240191838
 21
150.8613629688
  0
LINE
  5
2CB
100
AcDbEntity
  8
0
100
AcDbLine
 62
7
  6
CONTINUOUS
 10
101.1740189453
 20
121.6220012654
 11
101.2573521992
 21
122.0475332487
  0
LINE
  5
2CC
100
AcDbEntity
  8
0
100
AcDbLine
 62
7
  6
CONTINUOUS
 10
98.4240188708
 20
123.4943418253
 11
98.340685535
 21
123.2390224684
  0
LINE
  5
2CD
100
AcDbEntity
  8
0
100
AcDbLine
 62
7
  6
CONTINUOUS
 10
111.8186220318
 20
146.5496178415
 11
112.0393551238
 21
146.7703509335
  0
LINE
  5
2CE
100
AcDbEntity
  8
0
100
AcDbLine
 62
7
  6
CONTINUOUS
 10
113.0334376154
 20
147.764433425
 11
113.2541707074
 21
147.9851665171
  0
LINE
  5
2CF
100
AcDbEntity
  8
0
100
AcDbLine
 62
7
  6
CONTINUOUS
 10
94.1979949755
 20
147.0061761651
 11
93.2407679747
 21
147.43307308
  0
LINE
  5
2D0
100
AcDbEntity
  8
0
100
AcDbLine
 62
7
  6
CONTINUOUS
 10
93.1241705727
 20
147.1961170913
 11
93.99175561
 21
146.7999367996
  0
LINE
  5
2D1
100
AcDbEntity
  8
0
100
AcDbLine
 62
7
  6
CONTINUOUS
 10
92.7887963823
 20
147.9439703498
 11
92.9085281611
 21
147.8831642486
  0
LINE
  5
2D2
100
AcDbEntity
  8
0
100
AcDbLine
 62
7
  6
CONTINUOUS
 10
93.0853048564
 20
148.0599409439
 11
92.9655730776
 21
148.1207470451
  0
LINE
  5
2D3
100
AcDbEntity
  8
0
100
AcDbLine
 62
7
  6
CONTINUOUS
 10
94.3390403734
 20
147.7490145808
 11
94.219308426
 21
147.8098205135
  0
LINE
  5
2D4
100
AcDbEntity
  8
0
100
AcDbLine
 62
7
  6
CONTINUOUS
 10
94.0425318993
 20
147.6330439868
 11
94.1923531562
 21
147.5421480703
  0
LINE
  5
2D5
100
AcDbEntity
  8
0
100
AcDbLine
 62
7
  6
CONTINUOUS
 10
93.5592167494
 20
148.2931354949
 11
93.7090383434
 21
148.2022399155
  0
LINE
  5
2D6
100
AcDbEntity
  8
0
100
AcDbLine
 62
7
  6
CONTINUOUS
 10
94.8956989212
 20
148.6065695954
 11
94.9859678612
 21
148.5163006554
  0
LINE
  5
2D7
100
AcDbEntity
  8
0
100
AcDbLine
 62
7
  6
CONTINUOUS
 10
95.1928342032
 20
148.662987704
 11
95.0423859698
 21
148.8134359374
  0
LINE
  5
2D8
100
AcDbEntity
  8
0
100
AcDbLine
 62
7
  6
CONTINUOUS
 10
101.5906860491
 20
150.1805119265
 11
101.2156860491
 21
151.1592353333
  0
LINE
  5
2D9
100
AcDbEntity
  8
0
100
AcDbLine
 62
7
  6
CONTINUOUS
 10
100.9656859895
 20
151.0741289604
 11
101.299019303
 21
150.1805119265
  0
LINE
  5
2DA
100
AcDbEntity
  8
0
100
AcDbLine
 62
7
  6
CONTINUOUS
 10
101.257352676
 20
151.8400864352
 11
101.299019303
 21
151.7124268759
  0
LINE
  5
2DB
100
AcDbEntity
  8
0
100
AcDbLine
 62
7
  6
CONTINUOUS
 10
101.549019303
 20
151.7124268759
 11
101.507352676
 21
151.8400864352
  0
LINE
  5
2DC
100
AcDbEntity
  8
0
100
AcDbLine
 62
7
  6
CONTINUOUS
 10
102.2156859299
 20
150.6911502231
 11
102.1740194222
 21
150.8613629688
  0
LINE
  5
2DD
100
AcDbEntity
  8
0
100
AcDbLine
 62
7
  6
CONTINUOUS
 10
101.924019303
 20
150.8613629688
 11
101.9656860491
 21
150.6485970367
  0
LINE
  5
2DE
100
AcDbEntity
  8
0
100
AcDbLine
 62
7
  6
CONTINUOUS
 10
106.1220522797
 20
133.4805119265
 11
106.1220522797
 21
128.7458097238
  0
LINE
  5
2DF
100
AcDbEntity
  8
0
100
AcDbLine
 62
7
  6
CONTINUOUS
 10
106.2573521992
 20
121.281575774
 11
106.2573521992
 21
122.8134906042
  0
LINE
  5
2E0
100
AcDbEntity
  8
0
100
AcDbLine
 62
7
  6
CONTINUOUS
 10
106.2573521992
 20
123.1539160956
 11
106.2573521992
 21
123.8347673167
  0
LINE
  5
2E1
100
AcDbEntity
  8
0
100
AcDbLine
 62
7
  6
CONTINUOUS
 10
107.0073521992
 20
120.4305119265
 11
107.0073521992
 21
120.7709374476
  0
LINE
  5
2E2
100
AcDbEntity
  8
0
100
AcDbLine
 62
7
  6
CONTINUOUS
 10
107.1740191838
 20
122.8134906042
 11
107.1740191838
 21
123.1539160956
  0
LINE
  5
2E3
100
AcDbEntity
  8
0
100
AcDbLine
 62
7
  6
CONTINUOUS
 10
101.0906854531
 20
121.3666821469
 11
101.1740189453
 21
121.6220012654
  0
LINE
  5
2E4
100
AcDbEntity
  8
0
100
AcDbLine
 62
7
  6
CONTINUOUS
 10
98.5906855425
 20
123.8347673167
 11
98.4240188708
 21
123.4943418253
  0
LINE
  5
2E5
100
AcDbEntity
  8
0
100
AcDbLine
 62
7
  6
CONTINUOUS
 10
98.7573521992
 20
123.2390224684
 11
99.0906855127
 21
123.7496609438
  0
LINE
  5
2E6
100
AcDbEntity
  8
0
100
AcDbLine
 62
7
  6
CONTINUOUS
 10
113.5046084673
 20
146.0784469895
 11
113.7253415594
 21
146.2991800815
  0
LINE
  5
2E7
100
AcDbEntity
  8
0
100
AcDbLine
 62
7
  6
CONTINUOUS
 10
113.0386220318
 20
145.3296178415
 11
113.2593551238
 21
145.5503509335
  0
LINE
  5
2E8
100
AcDbEntity
  8
0
100
AcDbLine
 62
7
  6
CONTINUOUS
 10
114.2534376154
 20
146.544433425
 11
114.4741707074
 21
146.7651665171
  0
LINE
  5
2E9
100
AcDbEntity
  8
0
100
AcDbLine
 62
7
  6
CONTINUOUS
 10
94.1923531562
 20
147.5421480703
 11
94.4311899374
 21
147.4800883215
  0
LINE
  5
2EA
100
AcDbEntity
  8
0
100
AcDbLine
 62
7
  6
CONTINUOUS
 10
95.0423859698
 20
148.8134359374
 11
94.8631016635
 21
148.8748688887
  0
LINE
  5
2EB
100
AcDbEntity
  8
0
100
AcDbLine
 62
7
  6
CONTINUOUS
 10
94.0857855662
 20
149.1807802404
 11
94.1754278669
 21
149.1500639544
  0
LINE
  5
2EC
100
AcDbEntity
  8
0
100
AcDbLine
 62
7
  6
CONTINUOUS
 10
93.8256357453
 20
148.4391959041
 11
93.705903798
 21
148.5000018368
  0
LINE
  5
2ED
100
AcDbEntity
  8
0
100
AcDbLine
 62
7
  6
CONTINUOUS
 10
94.3522045622
 20
149.3268406497
 11
94.2324726148
 21
149.3876465824
  0
LINE
  5
2EE
100
AcDbEntity
  8
0
100
AcDbLine
 62
7
  6
CONTINUOUS
 10
101.507352676
 20
151.8400864352
 11
101.382352676
 21
152.0102991808
  0
LINE
  5
2EF
100
AcDbEntity
  8
0
100
AcDbLine
 62
7
  6
CONTINUOUS
 10
102.2990194222
 20
150.5634906638
 11
102.2156859299
 21
150.6911502231
  0
LINE
  5
2F0
100
AcDbEntity
  8
0
100
AcDbLine
 62
7
  6
CONTINUOUS
 10
101.9656860491
 20
150.6485970367
 11
102.0490194222
 21
150.4783842612
  0
LINE
  5
2F1
100
AcDbEntity
  8
0
100
AcDbLine
 62
7
  6
CONTINUOUS
 10
105.132352676
 20
151.6698735703
 11
105.1740191838
 21
151.4996608246
  0
LINE
  5
2F2
100
AcDbEntity
  8
0
100
AcDbLine
 62
7
  6
CONTINUOUS
 10
105.4240191838
 20
151.4996608246
 11
105.382352676
 21
151.7124268759
  0
LINE
  5
2F3
100
AcDbEntity
  8
KONSTRUKTIONSELEMENTE
100
AcDbLine
 62
7
  6
CONTINUOUS
 10
109.2156856915
 20
119.6805119265
 11
109.2156856915
 21
119.4805119265
  0
LINE
  5
2F4
100
AcDbEntity
  8
0
100
AcDbLine
 62
7
  6
CONTINUOUS
 10
100.9240189453
 20
121.0262565959
 11
101.0906854531
 21
121.3666821469
  0
LINE
  5
2F5
100
AcDbEntity
  8
0
100
AcDbLine
 62
7
  6
CONTINUOUS
 10
102.4240187069
 20
120.8560438503
 11
101.9240189453
 21
119.9198736299
  0
LINE
  5
2F6
100
AcDbEntity
  8
0
100
AcDbLine
 62
7
  6
CONTINUOUS
 10
100.7573521992
 20
121.6220012654
 11
100.4240189453
 21
121.1113629688
  0
LINE
  5
2F7
100
AcDbEntity
  8
0
100
AcDbLine
 62
7
  6
CONTINUOUS
 10
98.8406855127
 20
124.0900864352
 11
98.5906855425
 21
123.8347673167
  0
LINE
  5
2F8
100
AcDbEntity
  8
0
100
AcDbLine
 62
7
  6
CONTINUOUS
 10
94.4311899374
 20
147.4800883215
 11
94.6687725733
 21
147.5371330615
  0
LINE
  5
2F9
100
AcDbEntity
  8
0
100
AcDbLine
 62
7
  6
CONTINUOUS
 10
94.5176976821
 20
147.7471339674
 11
94.3390403734
 21
147.7490145808
  0
LINE
  5
2FA
100
AcDbEntity
  8
0
100
AcDbLine
 62
7
  6
CONTINUOUS
 10
92.66969158
 20
147.9452241343
 11
92.7887963823
 21
147.9439703498
  0
LINE
  5
2FB
100
AcDbEntity
  8
0
100
AcDbLine
 62
7
  6
CONTINUOUS
 10
93.7090383434
 20
148.2022399155
 11
93.9472479479
 21
148.1997323466
  0
LINE
  5
2FC
100
AcDbEntity
  8
0
100
AcDbLine
 62
7
  6
CONTINUOUS
 10
94.8631016635
 20
148.8748688887
 11
94.6248920589
 21
148.8773764576
  0
LINE
  5
2FD
100
AcDbEntity
  8
0
100
AcDbLine
 62
7
  6
CONTINUOUS
 10
93.9666809325
 20
149.1820341934
 11
94.0857855662
 21
149.1807802404
  0
LINE
  5
2FE
100
AcDbEntity
  8
0
100
AcDbLine
 62
7
  6
CONTINUOUS
 10
92.9655730776
 20
148.1207470451
 11
92.7568261432
 21
148.1527172842
  0
LINE
  5
2FF
100
AcDbEntity
  8
0
100
AcDbLine
 62
7
  6
CONTINUOUS
 10
94.2324726148
 20
149.3876465824
 11
94.0237256805
 21
149.4196168214
  0
LINE
  5
300
100
AcDbEntity
  8
0
100
AcDbLine
 62
7
  6
CONTINUOUS
 10
94.7465042615
 20
148.6379129001
 11
94.8956989212
 21
148.6065695954
  0
LINE
  5
301
100
AcDbEntity
  8
0
100
AcDbLine
 62
7
  6
CONTINUOUS
 10
102.2156859299
 20
150.3081715006
 11
102.382352676
 21
150.2230651166
  0
LINE
  5
302
100
AcDbEntity
  8
0
100
AcDbLine
 62
7
  6
CONTINUOUS
 10
102.4240194222
 20
150.4783842612
 11
102.2990194222
 21
150.5634906638
  0
LINE
  5
303
100
AcDbEntity
  8
0
100
AcDbLine
 62
7
  6
CONTINUOUS
 10
101.382352676
 20
152.0102991808
 11
101.2156860491
 21
152.1379587401
  0
LINE
  5
304
100
AcDbEntity
  8
0
100
AcDbLine
 62
7
  6
CONTINUOUS
 10
102.0490194222
 20
150.4783842612
 11
102.2156859299
 21
150.3081715006
  0
LINE
  5
305
100
AcDbEntity
  8
0
100
AcDbLine
 62
7
  6
CONTINUOUS
 10
101.174019303
 20
151.925192808
 11
101.257352676
 21
151.8400864352
  0
LINE
  5
306
100
AcDbEntity
  8
0
100
AcDbLine
 62
7
  6
CONTINUOUS
 10
105.0490191838
 20
151.7975332487
 11
105.132352676
 21
151.6698735703
  0
LINE
  5
307
100
AcDbEntity
  8
0
100
AcDbLine
 62
7
  6
CONTINUOUS
 10
105.382352676
 20
151.7124268759
 11
105.2990191838
 21
151.8826396216
  0
LINE
  5
308
100
AcDbEntity
  8
0
100
AcDbLine
 62
7
  6
CONTINUOUS
 10
102.3406856915
 20
119.9198736299
 11
102.8406856915
 21
120.8560438503
  0
LINE
  5
309
100
AcDbEntity
  8
0
100
AcDbLine
 62
7
  6
CONTINUOUS
 10
104.0073521992
 20
124.4305119265
 11
103.5073521992
 21
123.8347673167
  0
LINE
  5
30A
100
AcDbEntity
  8
0
100
AcDbLine
 62
7
  6
CONTINUOUS
 10
103.5073521992
 20
123.1539160956
 11
104.0073521992
 21
123.7496609438
  0
LINE
  5
30B
100
AcDbEntity
  8
0
100
AcDbLine
 62
7
  6
CONTINUOUS
 10
100.6740189453
 20
120.7709374476
 11
100.9240189453
 21
121.0262565959
  0
LINE
  5
30C
100
AcDbEntity
  8
0
100
AcDbLine
 62
7
  6
CONTINUOUS
 10
99.0906855127
 20
123.7496609438
 11
99.3406855723
 21
123.9198736895
  0
LINE
  5
30D
100
AcDbEntity
  8
0
100
AcDbLine
 62
7
  6
CONTINUOUS
 10
99.2573521992
 20
124.3454055537
 11
98.8406855127
 21
124.0900864352
  0
LINE
  5
30E
100
AcDbEntity
  8
0
100
AcDbLine
 62
7
  6
CONTINUOUS
 10
104.9240191838
 20
150.4783842612
 11
104.757352676
 21
150.4358310748
  0
LINE
  5
30F
100
AcDbEntity
  8
0
100
AcDbLine
 62
7
  6
CONTINUOUS
 10
102.9240194222
 20
150.4783842612
 11
102.757352676
 21
150.4358310748
  0
LINE
  5
310
100
AcDbEntity
  8
0
100
AcDbLine
 62
7
  6
CONTINUOUS
 10
104.757352676
 20
150.1805119265
 11
104.9656861683
 21
150.2230651166
  0
LINE
  5
311
100
AcDbEntity
  8
0
100
AcDbLine
 62
7
  6
CONTINUOUS
 10
102.757352676
 20
150.1805119265
 11
102.9656859299
 21
150.2230651166
  0
LINE
  5
312
100
AcDbEntity
  8
0
100
AcDbLine
 62
7
  6
CONTINUOUS
 10
93.9742033863
 20
148.4674049584
 11
93.8256357453
 21
148.4391959041
  0
LINE
  5
313
100
AcDbEntity
  8
0
100
AcDbLine
 62
7
  6
CONTINUOUS
 10
94.5979366205
 20
148.6097038458
 11
94.7465042615
 21
148.6379129001
  0
LINE
  5
314
100
AcDbEntity
  8
0
100
AcDbLine
 62
7
  6
CONTINUOUS
 10
92.7568261432
 20
148.1527172842
 11
92.5487060168
 21
148.1251350378
  0
LINE
  5
315
100
AcDbEntity
  8
0
100
AcDbLine
 62
7
  6
CONTINUOUS
 10
94.0237256805
 20
149.4196168214
 11
93.8156057226
 21
149.3920347437
  0
LINE
  5
316
100
AcDbEntity
  8
0
100
AcDbLine
 62
7
  6
CONTINUOUS
 10
100.007352676
 20
150.1805119265
 11
100.257352676
 21
150.1805119265
  0
LINE
  5
317
100
AcDbEntity
  8
0
100
AcDbLine
 62
7
  6
CONTINUOUS
 10
101.299019303
 20
150.1805119265
 11
101.5906860491
 21
150.1805119265
  0
LINE
  5
318
100
AcDbEntity
  8
0
100
AcDbLine
 62
7
  6
CONTINUOUS
 10
102.5906859299
 20
150.1805119265
 11
102.757352676
 21
150.1805119265
  0
LINE
  5
319
100
AcDbEntity
  8
0
100
AcDbLine
 62
7
  6
CONTINUOUS
 10
103.757352676
 20
150.1805119265
 11
104.757352676
 21
150.1805119265
  0
LINE
  5
31A
100
AcDbEntity
  8
0
100
AcDbLine
 62
7
  6
CONTINUOUS
 10
104.757352676
 20
150.4358310748
 11
104.007352676
 21
150.4358310748
  0
LINE
  5
31B
100
AcDbEntity
  8
0
100
AcDbLine
 62
7
  6
CONTINUOUS
 10
102.757352676
 20
150.4358310748
 11
102.5906859299
 21
150.4358310748
  0
LINE
  5
31C
100
AcDbEntity
  8
0
100
AcDbLine
 62
7
  6
CONTINUOUS
 10
100.257352676
 20
151.0741289604
 11
100.9656859895
 21
151.0741289604
  0
LINE
  5
31D
100
AcDbEntity
  8
0
100
AcDbLine
 62
7
  6
CONTINUOUS
 10
101.049019303
 20
151.3294480789
 11
100.257352676
 21
151.3294480789
  0
LINE
  5
31E
100
AcDbEntity
  8
0
100
AcDbLine
 62
7
  6
CONTINUOUS
 10
104.007352676
 20
151.925192808
 11
104.757352676
 21
151.925192808
  0
LINE
  5
31F
100
AcDbEntity
  8
0
100
AcDbLine
 62
7
  6
CONTINUOUS
 10
100.257352676
 20
151.9677459944
 11
101.049019303
 21
151.9677459944
  0
LINE
  5
320
100
AcDbEntity
  8
0
100
AcDbLine
 62
7
  6
CONTINUOUS
 10
102.382352676
 20
150.2230651166
 11
102.5906859299
 21
150.1805119265
  0
LINE
  5
321
100
AcDbEntity
  8
0
100
AcDbLine
 62
7
  6
CONTINUOUS
 10
101.2156860491
 20
152.1379587401
 11
101.007352676
 21
152.1805119265
  0
LINE
  5
322
100
AcDbEntity
  8
0
100
AcDbLine
 62
7
  6
CONTINUOUS
 10
102.5906859299
 20
150.4358310748
 11
102.4240194222
 21
150.4783842612
  0
LINE
  5
323
100
AcDbEntity
  8
0
100
AcDbLine
 62
7
  6
CONTINUOUS
 10
104.757352676
 20
151.925192808
 11
104.9240191838
 21
151.8826396216
  0
LINE
  5
324
100
AcDbEntity
  8
0
100
AcDbLine
 62
7
  6
CONTINUOUS
 10
101.049019303
 20
151.9677459944
 11
101.174019303
 21
151.925192808
  0
LINE
  5
325
100
AcDbEntity
  8
0
100
AcDbLine
 62
7
  6
CONTINUOUS
 10
105.132352676
 20
152.0528523672
 11
104.9656861683
 21
152.1379587401
  0
LINE
  5
326
100
AcDbEntity
  8
0
100
AcDbLine
 62
7
  6
CONTINUOUS
 10
104.9240191838
 20
151.8826396216
 11
105.0490191838
 21
151.7975332487
  0
LINE
  5
327
100
AcDbEntity
  8
0
100
AcDbLine
 62
7
  6
CONTINUOUS
 10
113.0855546862
 20
146.4975007706
 11
113.5046084673
 21
146.0784469895
  0
LINE
  5
328
100
AcDbEntity
  8
0
100
AcDbLine
 62
7
  6
CONTINUOUS
 10
105.2990191838
 20
151.8826396216
 11
105.132352676
 21
152.0528523672
  0
LINE
  5
329
100
AcDbEntity
  8
0
100
AcDbLine
 62
7
  6
CONTINUOUS
 10
100.4240189453
 20
121.1113629688
 11
100.1740188261
 21
120.9411502231
  0
LINE
  5
32A
100
AcDbEntity
  8
0
100
AcDbLine
 62
7
  6
CONTINUOUS
 10
104.757352676
 20
152.1805119265
 11
103.757352676
 21
152.1805119265
  0
LINE
  5
32B
100
AcDbEntity
  8
0
100
AcDbLine
 62
7
  6
CONTINUOUS
 10
103.4240194222
 20
152.1805119265
 11
103.1740194222
 21
152.1805119265
  0
LINE
  5
32C
100
AcDbEntity
  8
0
100
AcDbLine
 62
7
  6
CONTINUOUS
 10
102.1740194222
 20
152.1805119265
 11
101.924019303
 21
152.1805119265
  0
LINE
  5
32D
100
AcDbEntity
  8
0
100
AcDbLine
 62
7
  6
CONTINUOUS
 10
101.007352676
 20
152.1805119265
 11
100.007352676
 21
152.1805119265
  0
LINE
  5
32E
100
AcDbEntity
  8
0
100
AcDbLine
 62
7
  6
CONTINUOUS
 10
104.9656861683
 20
152.1379587401
 11
104.757352676
 21
152.1805119265
  0
LINE
  5
32F
100
AcDbEntity
  8
RUNDUNGEN
100
AcDbLine
 62
7
  6
CONTINUOUS
 10
103.0983691238
 20
155.7719992587
 11
115.7016097454
 21
150.5515660634
  0
LINE
  5
330
100
AcDbEntity
  8
0
100
AcDbLine
 62
7
  6
CONTINUOUS
 10
113.7253415594
 20
146.2991800815
 11
113.3062877783
 21
146.7182338626
  0
LINE
  5
331
100
AcDbEntity
  8
0
100
AcDbLine
 62
7
  6
CONTINUOUS
 10
112.9405712982
 20
147.865455044
 11
113.0334376154
 21
147.764433425
  0
LINE
  5
332
100
AcDbEntity
  8
BEZUGSACHSEN
100
AcDbLine
 62
7
  6
CONTINUOUS
 10
118.2156856915
 20
129.2198767234
 11
118.2156856915
 21
123.9308144579
  0
LINE
  5
333
100
AcDbEntity
  8
RUNDUNGEN
100
AcDbLine
 62
7
  6
CONTINUOUS
 10
118.2156856915
 20
129.2198775361
 11
118.2156856915
 21
123.9305119265
  0
LINE
  5
334
100
AcDbEntity
  8
0
100
AcDbLine
 62
7
  6
CONTINUOUS
 10
100.2573521992
 20
120.5156183068
 11
100.6740189453
 21
120.7709374476
  0
LINE
  5
335
100
AcDbEntity
  8
RUNDUNGEN
100
AcDbLine
 62
7
  6
CONTINUOUS
 10
116.2428058456
 20
150.0103699632
 11
121.2640370473
 21
137.8880454961
  0
LINE
  5
336
100
AcDbEntity
  8
BEZUGSACHSEN
100
AcDbLine
 62
7
  6
CONTINUOUS
 10
121.2640370473
 20
137.8880454961
 11
121.3522523726
 21
137.6750748615
  0
LINE
  5
337
100
AcDbEntity
  8
0
100
AcDbLine
 62
7
  6
CONTINUOUS
 10
121.3522523726
 20
136.9097079968
 11
120.9673667582
 21
135.9805119265
  0
LINE
  5
338
100
AcDbEntity
  8
0
100
AcDbLine
 62
7
  6
CONTINUOUS
 10
119.9318328522
 20
133.4805119265
 11
118.291806159
 21
129.521137241
  0
LINE
  5
339
100
AcDbEntity
  8
0
100
AcDbLine
 62
7
  6
CONTINUOUS
 10
115.3061788746
 20
122.3131953589
 11
114.2156856915
 21
119.6805119265
  0
LINE
  5
33A
100
AcDbEntity
  8
BEZUGSACHSEN
100
AcDbLine
 62
7
  6
CONTINUOUS
 10
114.2156856915
 20
119.6805119265
 11
115.3061788746
 21
122.3131953589
  0
LINE
  5
33B
100
AcDbEntity
  8
BEZUGSACHSEN
100
AcDbLine
 62
7
  6
CONTINUOUS
 10
118.291806159
 20
129.521137241
 11
119.9318328522
 21
133.4805119265
  0
LINE
  5
33C
100
AcDbEntity
  8
BEZUGSACHSEN
100
AcDbLine
 62
7
  6
CONTINUOUS
 10
120.9673667582
 20
135.9805119265
 11
121.3522523726
 21
136.9097079968
  0
LINE
  5
33D
100
AcDbEntity
  8
KONSTRUKTIONSELEMENTE
100
AcDbLine
 62
7
  6
CONTINUOUS
 10
105.7156856915
 20
111.1805119265
 11
105.0156856915
 21
110.4805119265
  0
LINE
  5
33E
100
AcDbEntity
  8
RUNDUNGEN
100
AcDbLine
 62
7
  6
CONTINUOUS
 10
129.2156856915
 20
135.4805119265
 11
129.2156856915
 21
133.9805119265
  0
LINE
  5
33F
100
AcDbEntity
  8
KONSTRUKTIONSELEMENTE
100
AcDbLine
 62
7
  6
CONTINUOUS
 10
182.5218297962
 20
110.4805119265
 11
187.1218297962
 21
110.4805119265
  0
LINE
  5
340
100
AcDbEntity
  8
KONSTRUKTIONSELEMENTE
100
AcDbLine
 62
7
  6
CONTINUOUS
 10
181.8218297962
 20
111.1805119265
 11
187.8218297962
 21
111.1805119265
  0
LINE
  5
341
100
AcDbEntity
  8
KONSTRUKTIONSELEMENTE
100
AcDbLine
 62
7
  6
CONTINUOUS
 10
182.5218297962
 20
110.4805119265
 11
181.8218297962
 21
111.1805119265
  0
LINE
  5
342
100
AcDbEntity
  8
BEZUGSACHSEN
100
AcDbLine
 62
7
  6
CONTINUOUS
 10
173.3218297962
 20
119.6805119265
 11
173.0111696244
 21
120.4305119265
  0
LINE
  5
343
100
AcDbEntity
  8
BEZUGSACHSEN
100
AcDbLine
 62
7
  6
CONTINUOUS
 10
171.3543153749
 20
124.4305119265
 11
170.7544983309
 21
125.878598369
  0
LINE
  5
344
100
AcDbEntity
  8
0
100
AcDbLine
 62
7
  6
CONTINUOUS
 10
173.5563657996
 20
121.1113629688
 11
173.4299562018
 21
121.4517885197
  0
LINE
  5
345
100
AcDbEntity
  8
0
100
AcDbLine
 62
7
  6
CONTINUOUS
 10
173.8218297962
 20
133.9805119265
 11
173.8218297962
 21
135.4805119265
  0
LINE
  5
346
100
AcDbEntity
  8
RUNDUNGEN
100
AcDbLine
 62
7
  6
CONTINUOUS
 10
173.8218297962
 20
133.9805119265
 11
173.8218297962
 21
135.4805119265
  0
LINE
  5
347
100
AcDbEntity
  8
KONSTRUKTIONSELEMENTE
100
AcDbLine
 62
7
  6
CONTINUOUS
 10
178.3218297962
 20
119.4805119265
 11
191.3218297962
 21
119.4805119265
  0
LINE
  5
348
100
AcDbEntity
  8
BEZUGSACHSEN
100
AcDbLine
 62
7
  6
CONTINUOUS
 10
173.3221432524
 20
119.6805119265
 11
196.3215163399
 21
119.6805119265
  0
LINE
  5
349
100
AcDbEntity
  8
0
100
AcDbLine
 62
7
  6
CONTINUOUS
 10
196.3939286435
 20
119.9198736299
 11
196.9363331309
 21
119.9198736299
  0
LINE
  5
34A
100
AcDbEntity
  8
0
100
AcDbLine
 62
7
  6
CONTINUOUS
 10
172.5815198442
 20
120.4305119265
 11
174.1364089093
 21
120.4305119265
  0
LINE
  5
34B
100
AcDbEntity
  8
0
100
AcDbLine
 62
7
  6
CONTINUOUS
 10
174.7542364449
 20
120.4305119265
 11
175.7239199516
 21
120.4305119265
  0
LINE
  5
34C
100
AcDbEntity
  8
0
100
AcDbLine
 62
7
  6
CONTINUOUS
 10
196.2559872484
 20
120.4305119265
 11
196.8141863749
 21
120.4305119265
  0
LINE
  5
34D
100
AcDbEntity
  8
0
100
AcDbLine
 62
7
  6
CONTINUOUS
 10
176.000443993
 20
120.5156183068
 11
175.2860202405
 21
120.5156183068
  0
LINE
  5
34E
100
AcDbEntity
  8
0
100
AcDbLine
 62
7
  6
CONTINUOUS
 10
174.2183380957
 20
120.5156183068
 11
173.6169713573
 21
120.5156183068
  0
LINE
  5
34F
100
AcDbEntity
  8
0
100
AcDbLine
 62
7
  6
CONTINUOUS
 10
172.7957554325
 20
120.5156183068
 11
172.5011620411
 21
120.5156183068
  0
LINE
  5
350
100
AcDbEntity
  8
0
100
AcDbLine
 62
7
  6
CONTINUOUS
 10
196.1516828304
 20
120.5156183068
 11
196.7163825903
 21
120.5156183068
  0
LINE
  5
351
100
AcDbEntity
  8
0
100
AcDbLine
 62
7
  6
CONTINUOUS
 10
176.1341035361
 20
120.6858310748
 11
175.4054760742
 21
120.6858310748
  0
LINE
  5
352
100
AcDbEntity
  8
0
100
AcDbLine
 62
7
  6
CONTINUOUS
 10
174.1944086676
 20
120.6858310748
 11
173.628756463
 21
120.6858310748
  0
LINE
  5
353
100
AcDbEntity
  8
0
100
AcDbLine
 62
7
  6
CONTINUOUS
 10
174.8542850009
 20
120.7709374476
 11
174.581724234
 21
120.7709374476
  0
LINE
  5
354
100
AcDbEntity
  8
0
100
AcDbLine
 62
7
  6
CONTINUOUS
 10
172.6868790682
 20
120.7709374476
 11
172.3665818108
 21
120.7709374476
  0
LINE
  5
355
100
AcDbEntity
  8
0
100
AcDbLine
 62
7
  6
CONTINUOUS
 10
196.1278797893
 20
120.7709374476
 11
196.6985319064
 21
120.7709374476
  0
LINE
  5
356
100
AcDbEntity
  8
0
100
AcDbLine
 62
7
  6
CONTINUOUS
 10
174.9374518877
 20
120.8560438503
 11
174.2876772465
 21
120.8560438503
  0
LINE
  5
357
100
AcDbEntity
  8
0
100
AcDbLine
 62
7
  6
CONTINUOUS
 10
173.2943654898
 20
120.8560438503
 11
173.1911349376
 21
120.8560438503
  0
LINE
  5
358
100
AcDbEntity
  8
0
100
AcDbLine
 62
7
  6
CONTINUOUS
 10
197.1959410558
 20
120.8560438503
 11
197.3465515538
 21
120.8560438503
  0
LINE
  5
359
100
AcDbEntity
  8
0
100
AcDbLine
 62
7
  6
CONTINUOUS
 10
176.1066964257
 20
120.9411502231
 11
175.3741237419
 21
120.9411502231
  0
LINE
  5
35A
100
AcDbEntity
  8
0
100
AcDbLine
 62
7
  6
CONTINUOUS
 10
174.8104861983
 20
120.9411502231
 11
174.1666620049
 21
120.9411502231
  0
LINE
  5
35B
100
AcDbEntity
  8
0
100
AcDbLine
 62
7
  6
CONTINUOUS
 10
173.365331705
 20
120.9411502231
 11
173.0564899184
 21
120.9411502231
  0
LINE
  5
35C
100
AcDbEntity
  8
0
100
AcDbLine
 62
7
  6
CONTINUOUS
 10
196.92338463
 20
120.9411502231
 11
197.1254140197
 21
120.9411502231
  0
LINE
  5
35D
100
AcDbEntity
  8
0
100
AcDbLine
 62
7
  6
CONTINUOUS
 10
172.5780027007
 20
121.0262565959
 11
172.2474542981
 21
121.0262565959
  0
LINE
  5
35E
100
AcDbEntity
  8
0
100
AcDbLine
 62
7
  6
CONTINUOUS
 10
196.1516968795
 20
121.0262565959
 11
196.7260158192
 21
121.0262565959
  0
LINE
  5
35F
100
AcDbEntity
  8
0
100
AcDbLine
 62
7
  6
CONTINUOUS
 10
176.0096930824
 20
121.1113629688
 11
175.2805685101
 21
121.1113629688
  0
LINE
  5
360
100
AcDbEntity
  8
0
100
AcDbLine
 62
7
  6
CONTINUOUS
 10
174.6850000764
 20
121.1113629688
 11
173.5563657996
 21
121.1113629688
  0
LINE
  5
361
100
AcDbEntity
  8
0
100
AcDbLine
 62
7
  6
CONTINUOUS
 10
173.3737244498
 20
121.1113629688
 11
172.9131385619
 21
121.1113629688
  0
LINE
  5
362
100
AcDbEntity
  8
0
100
AcDbLine
 62
7
  6
CONTINUOUS
 10
196.924480173
 20
121.1113629688
 11
197.2461219677
 21
121.1113629688
  0
LINE
  5
363
100
AcDbEntity
  8
0
100
AcDbLine
 62
7
  6
CONTINUOUS
 10
173.2920718067
 20
121.3666821469
 11
172.7578585347
 21
121.3666821469
  0
LINE
  5
364
100
AcDbEntity
  8
0
100
AcDbLine
 62
7
  6
CONTINUOUS
 10
172.4329809254
 20
121.3666821469
 11
172.0991128833
 21
121.3666821469
  0
LINE
  5
365
100
AcDbEntity
  8
0
100
AcDbLine
 62
7
  6
CONTINUOUS
 10
196.2403849565
 20
121.3666821469
 11
196.8168198173
 21
121.3666821469
  0
LINE
  5
366
100
AcDbEntity
  8
0
100
AcDbLine
 62
7
  6
CONTINUOUS
 10
175.7037877902
 20
121.4517885197
 11
174.9895752022
 21
121.4517885197
  0
LINE
  5
367
100
AcDbEntity
  8
0
100
AcDbLine
 62
7
  6
CONTINUOUS
 10
174.0403529209
 20
121.4517885197
 11
173.4299562018
 21
121.4517885197
  0
LINE
  5
368
100
AcDbEntity
  8
0
100
AcDbLine
 62
7
  6
CONTINUOUS
 10
172.3242362208
 20
121.6220012654
 11
171.9901722283
 21
121.6220012654
  0
LINE
  5
369
100
AcDbEntity
  8
0
100
AcDbLine
 62
7
  6
CONTINUOUS
 10
196.3219382781
 20
121.6220012654
 11
196.8992197839
 21
121.6220012654
  0
LINE
  5
36A
100
AcDbEntity
  8
0
100
AcDbLine
 62
7
  6
CONTINUOUS
 10
197.0421232153
 20
121.6220012654
 11
197.5170613899
 21
121.6220012654
  0
LINE
  5
36B
100
AcDbEntity
  8
0
100
AcDbLine
 62
7
  6
CONTINUOUS
 10
175.3480200392
 20
121.7071076382
 11
174.6531483746
 21
121.7071076382
  0
LINE
  5
36C
100
AcDbEntity
  8
0
100
AcDbLine
 62
7
  6
CONTINUOUS
 10
172.1431537045
 20
122.0475332487
 11
171.811022716
 21
122.0475332487
  0
LINE
  5
36D
100
AcDbEntity
  8
0
100
AcDbLine
 62
7
  6
CONTINUOUS
 10
196.4787999401
 20
122.0475332487
 11
197.056476927
 21
122.0475332487
  0
LINE
  5
36E
100
AcDbEntity
  8
0
100
AcDbLine
 62
7
  6
CONTINUOUS
 10
174.3429960796
 20
122.1326396216
 11
173.70221873
 21
122.1326396216
  0
LINE
  5
36F
100
AcDbEntity
  8
0
100
AcDbLine
 62
7
  6
CONTINUOUS
 10
173.4445448644
 20
122.1326396216
 11
173.1145753901
 21
122.1326396216
  0
LINE
  5
370
100
AcDbEntity
  8
0
100
AcDbLine
 62
7
  6
CONTINUOUS
 10
197.2374483359
 20
122.1326396216
 11
197.7434020163
 21
122.1326396216
  0
LINE
  5
371
100
AcDbEntity
  8
0
100
AcDbLine
 62
7
  6
CONTINUOUS
 10
172.90750097
 20
122.2177459944
 11
172.3861681953
 21
122.2177459944
  0
LINE
  5
372
100
AcDbEntity
  8
0
100
AcDbLine
 62
7
  6
CONTINUOUS
 10
174.1397418991
 20
122.3028523672
 11
173.5071000387
 21
122.3028523672
  0
LINE
  5
373
100
AcDbEntity
  8
0
100
AcDbLine
 62
7
  6
CONTINUOUS
 10
174.0183649829
 20
122.4730651129
 11
173.3891016415
 21
122.4730651129
  0
LINE
  5
374
100
AcDbEntity
  8
0
100
AcDbLine
 62
7
  6
CONTINUOUS
 10
173.2144733922
 20
122.4730651129
 11
172.9272628901
 21
122.4730651129
  0
LINE
  5
375
100
AcDbEntity
  8
0
100
AcDbLine
 62
7
  6
CONTINUOUS
 10
172.7449360254
 20
122.4730651129
 11
172.3163522068
 21
122.4730651129
  0
LINE
  5
376
100
AcDbEntity
  8
0
100
AcDbLine
 62
7
  6
CONTINUOUS
 10
174.3011905522
 20
122.4730651129
 11
175.2503466997
 21
122.4730651129
  0
LINE
  5
377
100
AcDbEntity
  8
0
100
AcDbLine
 62
7
  6
CONTINUOUS
 10
173.973953544
 20
122.6432778586
 11
173.3438006224
 21
122.6432778586
  0
LINE
  5
378
100
AcDbEntity
  8
0
100
AcDbLine
 62
7
  6
CONTINUOUS
 10
173.1343700347
 20
122.6432778586
 11
172.8194283075
 21
122.6432778586
  0
LINE
  5
379
100
AcDbEntity
  8
0
100
AcDbLine
 62
7
  6
CONTINUOUS
 10
172.5962886189
 20
122.6432778586
 11
172.3064082893
 21
122.6432778586
  0
LINE
  5
37A
100
AcDbEntity
  8
0
100
AcDbLine
 62
7
  6
CONTINUOUS
 10
174.0100174201
 20
122.7283842314
 11
173.3762115032
 21
122.7283842314
  0
LINE
  5
37B
100
AcDbEntity
  8
0
100
AcDbLine
 62
7
  6
CONTINUOUS
 10
172.3596120537
 20
122.7283842314
 11
172.5062275478
 21
122.7283842314
  0
LINE
  5
37C
100
AcDbEntity
  8
0
100
AcDbLine
 62
7
  6
CONTINUOUS
 10
197.4967050261
 20
122.7283842314
 11
197.99270323
 21
122.7283842314
  0
LINE
  5
37D
100
AcDbEntity
  8
0
100
AcDbLine
 62
7
  6
CONTINUOUS
 10
174.9599185908
 20
122.8134906042
 11
174.267099075
 21
122.8134906042
  0
LINE
  5
37E
100
AcDbEntity
  8
0
100
AcDbLine
 62
7
  6
CONTINUOUS
 10
171.817510743
 20
122.8134906042
 11
171.4934947193
 21
122.8134906042
  0
LINE
  5
37F
100
AcDbEntity
  8
0
100
AcDbLine
 62
7
  6
CONTINUOUS
 10
173.4865628612
 20
122.8134906042
 11
173.7279479452
 21
122.8134906042
  0
LINE
  5
380
100
AcDbEntity
  8
0
100
AcDbLine
 62
7
  6
CONTINUOUS
 10
196.8178690379
 20
122.8134906042
 11
197.3936238393
 21
122.8134906042
  0
LINE
  5
381
100
AcDbEntity
  8
0
100
AcDbLine
 62
7
  6
CONTINUOUS
 10
176.8218297962
 20
133.9805119265
 11
176.8218297962
 21
135.4805119265
  0
LINE
  5
382
100
AcDbEntity
  8
RUNDUNGEN
100
AcDbLine
 62
7
  6
CONTINUOUS
 10
176.8218297962
 20
133.9805119265
 11
176.8218297962
 21
135.4805119265
  0
LINE
  5
383
100
AcDbEntity
  8
KONSTRUKTIONSELEMENTE
100
AcDbLine
 62
7
  6
CONTINUOUS
 10
178.3218297962
 20
119.6805119265
 11
178.3218297962
 21
119.4805119265
  0
LINE
  5
384
100
AcDbEntity
  8
0
100
AcDbLine
 62
7
  6
CONTINUOUS
 10
173.0817958781
 20
122.8985969771
 11
172.616863211
 21
122.8985969771
  0
LINE
  5
385
100
AcDbEntity
  8
0
100
AcDbLine
 62
7
  6
CONTINUOUS
 10
174.7178556821
 20
122.9837033499
 11
174.0370416984
 21
122.9837033499
  0
LINE
  5
386
100
AcDbEntity
  8
0
100
AcDbLine
 62
7
  6
CONTINUOUS
 10
174.5285345363
 20
123.0688097227
 11
173.8577317738
 21
123.0688097227
  0
LINE
  5
387
100
AcDbEntity
  8
0
100
AcDbLine
 62
7
  6
CONTINUOUS
 10
173.0486329637
 20
123.0688097227
 11
172.4578627227
 21
123.0688097227
  0
LINE
  5
388
100
AcDbEntity
  8
0
100
AcDbLine
 62
7
  6
CONTINUOUS
 10
174.2124832383
 20
123.1539160956
 11
173.3209615156
 21
123.1539160956
  0
LINE
  5
389
100
AcDbEntity
  8
0
100
AcDbLine
 62
7
  6
CONTINUOUS
 10
172.9013730646
 20
123.1539160956
 11
172.1716212655
 21
123.1539160956
  0
LINE
  5
38A
100
AcDbEntity
  8
0
100
AcDbLine
 62
7
  6
CONTINUOUS
 10
198.2152160267
 20
123.1539160956
 11
198.278489926
 21
123.1539160956
  0
LINE
  5
38B
100
AcDbEntity
  8
0
100
AcDbLine
 62
7
  6
CONTINUOUS
 10
171.6367659121
 20
123.2390224684
 11
171.3196990148
 21
123.2390224684
  0
LINE
  5
38C
100
AcDbEntity
  8
0
100
AcDbLine
 62
7
  6
CONTINUOUS
 10
197.0359043429
 20
123.2390224684
 11
197.6093021271
 21
123.2390224684
  0
LINE
  5
38D
100
AcDbEntity
  8
0
100
AcDbLine
 62
7
  6
CONTINUOUS
 10
197.7443555147
 20
123.2390224684
 11
198.1943764839
 21
123.2390224684
  0
LINE
  5
38E
100
AcDbEntity
  8
0
100
AcDbLine
 62
7
  6
CONTINUOUS
 10
171.5283877909
 20
123.4943418253
 11
171.2167117132
 21
123.4943418253
  0
LINE
  5
38F
100
AcDbEntity
  8
0
100
AcDbLine
 62
7
  6
CONTINUOUS
 10
197.1774437495
 20
123.4943418253
 11
197.7489910474
 21
123.4943418253
  0
LINE
  5
390
100
AcDbEntity
  8
0
100
AcDbLine
 62
7
  6
CONTINUOUS
 10
198.0612206136
 20
123.7496609438
 11
198.3558742411
 21
123.7496609438
  0
LINE
  5
391
100
AcDbEntity
  8
0
100
AcDbLine
 62
7
  6
CONTINUOUS
 10
171.3839218764
 20
123.8347673167
 11
171.0820780183
 21
123.8347673167
  0
LINE
  5
392
100
AcDbEntity
  8
0
100
AcDbLine
 62
7
  6
CONTINUOUS
 10
197.3825851829
 20
123.8347673167
 11
197.9510150193
 21
123.8347673167
  0
LINE
  5
393
100
AcDbEntity
  8
0
100
AcDbLine
 62
7
  6
CONTINUOUS
 10
198.4666479013
 20
123.8347673167
 11
198.5609853376
 21
123.8347673167
  0
LINE
  5
394
100
AcDbEntity
  8
0
100
AcDbLine
 62
7
  6
CONTINUOUS
 10
198.1998724716
 20
123.9198736895
 11
198.3828983815
 21
123.9198736895
  0
LINE
  5
395
100
AcDbEntity
  8
0
100
AcDbLine
 62
7
  6
CONTINUOUS
 10
171.2756570918
 20
124.0900864352
 11
170.9880063019
 21
124.0900864352
  0
LINE
  5
396
100
AcDbEntity
  8
0
100
AcDbLine
 62
7
  6
CONTINUOUS
 10
197.5725209229
 20
124.0900864352
 11
198.1371414001
 21
124.0900864352
  0
LINE
  5
397
100
AcDbEntity
  8
0
100
AcDbLine
 62
7
  6
CONTINUOUS
 10
171.1673923072
 20
124.3454055537
 11
170.907235505
 21
124.3454055537
  0
LINE
  5
398
100
AcDbEntity
  8
0
100
AcDbLine
 62
7
  6
CONTINUOUS
 10
197.8012595781
 20
124.3454055537
 11
198.3605692696
 21
124.3454055537
  0
LINE
  5
399
100
AcDbEntity
  8
0
100
AcDbLine
 62
7
  6
CONTINUOUS
 10
171.9915859335
 20
124.4305119265
 11
170.9113731239
 21
124.4305119265
  0
LINE
  5
39A
100
AcDbEntity
  8
0
100
AcDbLine
 62
7
  6
CONTINUOUS
 10
197.9604068742
 20
124.4305119265
 11
198.7708644619
 21
124.4305119265
  0
LINE
  5
39B
100
AcDbEntity
  8
BEZUGSACHSEN
100
AcDbLine
 62
7
  6
CONTINUOUS
 10
181.3218297962
 20
133.7171543679
 11
181.3218297962
 21
154.8481197262
  0
LINE
  5
39C
100
AcDbEntity
  8
BEZUGSACHSEN
100
AcDbLine
 62
7
  6
CONTINUOUS
 10
181.0985826478
 20
126.2333760676
 11
181.098478018
 21
126.2342479505
  0
LINE
  5
39D
100
AcDbEntity
  8
KONSTRUKTIONSELEMENTE
100
AcDbLine
 62
7
  6
CONTINUOUS
 10
181.8218297962
 20
119.4805119265
 11
181.8218297962
 21
111.1805119265
  0
LINE
  5
39E
100
AcDbEntity
  8
RUNDUNGEN
100
AcDbLine
 62
7
  6
CONTINUOUS
 10
198.2241003218
 20
127.2272065359
 11
192.0277709856
 21
128.8875079776
  0
LINE
  5
39F
100
AcDbEntity
  8
KONSTRUKTIONSELEMENTE
100
AcDbLine
 62
7
  6
CONTINUOUS
 10
187.8218297962
 20
119.4805119265
 11
187.8218297962
 21
111.1805119265
  0
LINE
  5
3A0
100
AcDbEntity
  8
RUNDUNGEN
100
AcDbLine
 62
7
  6
CONTINUOUS
 10
188.3218297962
 20
133.7171543679
 11
188.3218297962
 21
154.8481197262
  0
LINE
  5
3A1
100
AcDbEntity
  8
0
100
AcDbLine
 62
7
  6
CONTINUOUS
 10
188.8218297962
 20
152.1805119265
 11
188.8218297962
 21
150.1805119265
  0
LINE
  5
3A2
100
AcDbEntity
  8
0
100
AcDbLine
 62
7
  6
CONTINUOUS
 10
188.8218297962
 20
149.4196168214
 11
188.8218297962
 21
148.2022399155
  0
LINE
  5
3A3
100
AcDbEntity
  8
0
100
AcDbLine
 62
7
  6
CONTINUOUS
 10
188.8218297962
 20
148.1997323466
 11
188.8218297962
 21
144.9437814569
  0
LINE
  5
3A4
100
AcDbEntity
  8
BEZUGSACHSEN
100
AcDbLine
 62
7
  6
CONTINUOUS
 10
171.4195592705
 20
127.2272065359
 11
177.6158886067
 21
128.8875079776
  0
LINE
  5
3A5
100
AcDbEntity
  8
RUNDUNGEN
100
AcDbLine
 62
7
  6
CONTINUOUS
 10
195.3218297962
 20
133.4805119265
 11
188.3281394437
 21
133.4805119265
  0
LINE
  5
3A6
100
AcDbEntity
  8
RUNDUNGEN
100
AcDbLine
 62
7
  6
CONTINUOUS
 10
181.3138588491
 20
133.4805119265
 11
174.3218297962
 21
133.4805119265
  0
LINE
  5
3A7
100
AcDbEntity
  8
KONSTRUKTIONSELEMENTE
100
AcDbLine
 62
7
  6
CONTINUOUS
 10
191.3218297962
 20
119.6805119265
 11
191.3218297962
 21
119.4805119265
  0
LINE
  5
3A8
100
AcDbEntity
  8
RUNDUNGEN
100
AcDbLine
 62
7
  6
CONTINUOUS
 10
188.5450769445
 20
126.2333760676
 11
188.5451815743
 21
126.2342479505
  0
LINE
  5
3A9
100
AcDbEntity
  8
RUNDUNGEN
100
AcDbLine
 62
7
  6
CONTINUOUS
 10
174.3218297962
 20
135.9805119265
 11
181.3218297962
 21
135.9805119265
  0
LINE
  5
3AA
100
AcDbEntity
  8
RUNDUNGEN
100
AcDbLine
 62
7
  6
CONTINUOUS
 10
188.3218297962
 20
135.9805119265
 11
195.3218297962
 21
135.9805119265
  0
LINE
  5
3AB
100
AcDbEntity
  8
RUNDUNGEN
100
AcDbLine
 62
7
  6
CONTINUOUS
 10
192.8218297962
 20
133.9805119265
 11
192.8218297962
 21
135.4805119265
  0
LINE
  5
3AC
100
AcDbEntity
  8
RUNDUNGEN
100
AcDbLine
 62
7
  6
CONTINUOUS
 10
195.8218297962
 20
133.9805119265
 11
195.8218297962
 21
135.4805119265
  0
LINE
  5
3AD
100
AcDbEntity
  8
0
100
AcDbLine
 62
7
  6
CONTINUOUS
 10
188.3218297962
 20
144.9437814569
 11
188.8218297962
 21
144.9437814569
  0
LINE
  5
3AE
100
AcDbEntity
  8
0
100
AcDbLine
 62
7
  6
CONTINUOUS
 10
188.3218297962
 20
145.8865904844
 11
188.8218297962
 21
145.8865904844
  0
LINE
  5
3AF
100
AcDbEntity
  8
0
100
AcDbLine
 62
7
  6
CONTINUOUS
 10
188.3218297962
 20
146.0633671797
 11
188.8218297962
 21
146.0633671797
  0
LINE
  5
3B0
100
AcDbEntity
  8
0
100
AcDbLine
 62
7
  6
CONTINUOUS
 10
188.3218297962
 20
146.888325063
 11
188.8218297962
 21
146.888325063
  0
LINE
  5
3B1
100
AcDbEntity
  8
0
100
AcDbLine
 62
7
  6
CONTINUOUS
 10
188.3218297962
 20
147.0651017583
 11
188.8218297962
 21
147.0651017583
  0
LINE
  5
3B2
100
AcDbEntity
  8
0
100
AcDbLine
 62
7
  6
CONTINUOUS
 10
188.3218297962
 20
147.3008040468
 11
188.8218297962
 21
147.3008040468
  0
LINE
  5
3B3
100
AcDbEntity
  8
0
100
AcDbLine
 62
7
  6
CONTINUOUS
 10
198.8891612614
 20
125.878598369
 11
198.2893442174
 21
124.4305119265
  0
LINE
  5
3B4
100
AcDbEntity
  8
0
100
AcDbLine
 62
7
  6
CONTINUOUS
 10
196.4170155697
 20
119.9103107119
 11
196.3218297962
 21
119.6805119265
  0
LINE
  5
3B5
100
AcDbEntity
  8
0
100
AcDbLine
 62
7
  6
CONTINUOUS
 10
188.3218297962
 20
148.007910828
 11
188.8218297962
 21
148.007910828
  0
LINE
  5
3B6
100
AcDbEntity
  8
0
100
AcDbLine
 62
7
  6
CONTINUOUS
 10
188.3218297962
 20
148.1251350378
 11
188.8218297962
 21
148.1251350378
  0
LINE
  5
3B7
100
AcDbEntity
  8
0
100
AcDbLine
 62
7
  6
CONTINUOUS
 10
188.3218297962
 20
148.1527172842
 11
188.8218297962
 21
148.1527172842
  0
LINE
  5
3B8
100
AcDbEntity
  8
0
100
AcDbLine
 62
7
  6
CONTINUOUS
 10
188.3218297962
 20
148.2022399155
 11
188.8218297962
 21
148.2022399155
  0
LINE
  5
3B9
100
AcDbEntity
  8
0
100
AcDbLine
 62
7
  6
CONTINUOUS
 10
188.3218297962
 20
148.2931354949
 11
188.8218297962
 21
148.2931354949
  0
LINE
  5
3BA
100
AcDbEntity
  8
0
100
AcDbLine
 62
7
  6
CONTINUOUS
 10
188.3218297962
 20
148.4134941659
 11
188.8218297962
 21
148.4134941659
  0
LINE
  5
3BB
100
AcDbEntity
  8
0
100
AcDbLine
 62
7
  6
CONTINUOUS
 10
188.3218297962
 20
148.5633157599
 11
188.8218297962
 21
148.5633157599
  0
LINE
  5
3BC
100
AcDbEntity
  8
0
100
AcDbLine
 62
7
  6
CONTINUOUS
 10
188.3218297962
 20
148.8015253644
 11
188.8218297962
 21
148.8015253644
  0
LINE
  5
3BD
100
AcDbEntity
  8
0
100
AcDbLine
 62
7
  6
CONTINUOUS
 10
188.3218297962
 20
148.9795556756
 11
188.8218297962
 21
148.9795556756
  0
LINE
  5
3BE
100
AcDbEntity
  8
0
100
AcDbLine
 62
7
  6
CONTINUOUS
 10
188.3218297962
 20
149.1274966772
 11
188.8218297962
 21
149.1274966772
  0
LINE
  5
3BF
100
AcDbEntity
  8
0
100
AcDbLine
 62
7
  6
CONTINUOUS
 10
188.3218297962
 20
149.2748103652
 11
188.8218297962
 21
149.2748103652
  0
LINE
  5
3C0
100
AcDbEntity
  8
0
100
AcDbLine
 62
7
  6
CONTINUOUS
 10
188.3218297962
 20
149.3920347437
 11
188.8218297962
 21
149.3920347437
  0
LINE
  5
3C1
100
AcDbEntity
  8
0
100
AcDbLine
 62
7
  6
CONTINUOUS
 10
188.3218297962
 20
149.4196168214
 11
188.8218297962
 21
149.4196168214
  0
LINE
  5
3C2
100
AcDbEntity
  8
0
100
AcDbLine
 62
7
  6
CONTINUOUS
 10
188.3218297962
 20
150.1805119265
 11
188.8218297962
 21
150.1805119265
  0
LINE
  5
3C3
100
AcDbEntity
  8
0
100
AcDbLine
 62
7
  6
CONTINUOUS
 10
188.3218297962
 20
152.1805119265
 11
188.8218297962
 21
152.1805119265
  0
LINE
  5
3C4
100
AcDbEntity
  8
KONSTRUKTIONSELEMENTE
100
AcDbLine
 62
7
  6
CONTINUOUS
 10
187.8218297962
 20
111.1805119265
 11
187.1218297962
 21
110.4805119265
  0
LINE
  5
3C5
100
AcDbEntity
  8
RUNDUNGEN
100
AcDbLine
 62
7
  6
CONTINUOUS
 10
187.3218297962
 20
155.8481197262
 11
182.3218297962
 21
155.8481197262
  0
LWPOLYLINE
  5
3C6
100
AcDbEntity
  8
RUNDUNGEN
100
AcDbPolyline
 62
7
  6
CONTINUOUS
 90
6
 70
0
 10
84.0029986356
 20
63.3187944728
 10
84.0043480754
 20
63.0054349189
 10
84.0115825728
 20
62.5282138896
 10
84.0251381296
 20
62.0488215603
 10
84.0450878464
 20
61.5678119003
 10
84.0714567983
 20
61.0857169656
  0
LWPOLYLINE
  5
3C7
100
AcDbEntity
  8
BEZUGSACHSEN
100
AcDbPolyline
 62
7
  6
CONTINUOUS
 90
7
 70
0
 10
84.0936951185
 20
65.8891762978
 10
84.0714567983
 20
65.55187198
 10
84.0450878464
 20
65.0697770453
 10
84.0251381296
 20
64.5887673853
 10
84.0115825728
 20
64.109375056
 10
84.0043480754
 20
63.6321540266
 10
84.0029986356
 20
63.3187944728
  0
LWPOLYLINE
  5
3C8
100
AcDbEntity
  8
BEZUGSACHSEN
100
AcDbPolyline
 62
7
  6
CONTINUOUS
 90
15
 70
0
 10
89.9400513729
 20
70.844304774
 10
89.5911687674
 20
70.3468193286
 10
89.1824649799
 20
69.7532014734
 10
88.8099672938
 20
69.2087762321
 10
88.4700427658
 20
68.7175054012
 10
88.1594808145
 20
68.2822070147
 10
87.8769519146
 20
67.9061958187
 10
87.6214440954
 20
67.5906252734
 10
87.3930259013
 20
67.3352710236
 10
87.1942927365
 20
67.1396174539
 10
87.0230013703
 20
66.9960057473
 10
86.8807602499
 20
66.8992795527
 10
86.7712622555
 20
66.8437112005
 10
86.7018085546
 20
66.8216897201
 10
86.6776340183
 20
66.8187952484
  0
LINE
  5
3C9
100
AcDbEntity
  8
BEZUGSACHSEN
100
AcDbLine
 62
7
  6
CONTINUOUS
 10
89.9400513729
 20
70.844304774
 11
89.9401032294
 21
70.844378031
  0
LINE
  5
3CA
100
AcDbEntity
  8
RUNDUNGEN
100
AcDbLine
 62
7
  6
CONTINUOUS
 10
84.0714567983
 20
61.0857169656
 11
84.0936951185
 21
60.7484126478
  0
LINE
  5
3CB
100
AcDbEntity
  8
0
100
AcDbLine
 62
7
  6
CONTINUOUS
 10
90.24998217
 20
59.8187944728
 11
90.24998217
 21
59.3187944728
  0
LINE
  5
3CC
100
AcDbEntity
  8
0
100
AcDbLine
 62
7
  6
CONTINUOUS
 10
90.4267588653
 20
59.8187944728
 11
90.4267588653
 21
59.3187944728
  0
LINE
  5
3CD
100
AcDbEntity
  8
0
100
AcDbLine
 62
7
  6
CONTINUOUS
 10
91.2517167486
 20
59.8187944728
 11
91.2517167486
 21
59.3187944728
  0
LINE
  5
3CE
100
AcDbEntity
  8
0
100
AcDbLine
 62
7
  6
CONTINUOUS
 10
91.4284934439
 20
59.8187944728
 11
91.4284934439
 21
59.3187944728
  0
LINE
  5
3CF
100
AcDbEntity
  8
0
100
AcDbLine
 62
7
  6
CONTINUOUS
 10
91.6641957324
 20
59.8187944728
 11
91.6641957324
 21
59.3187944728
  0
LINE
  5
3D0
100
AcDbEntity
  8
0
100
AcDbLine
 62
7
  6
CONTINUOUS
 10
92.3713025136
 20
59.8187944728
 11
92.3713025136
 21
59.3187944728
  0
LINE
  5
3D1
100
AcDbEntity
  8
0
100
AcDbLine
 62
7
  6
CONTINUOUS
 10
92.5487060168
 20
59.8187944728
 11
92.5487060168
 21
59.3187944728
  0
LINE
  5
3D2
100
AcDbEntity
  8
0
100
AcDbLine
 62
7
  6
CONTINUOUS
 10
92.7568261432
 20
59.8187944728
 11
92.7568261432
 21
59.3187944728
  0
LINE
  5
3D3
100
AcDbEntity
  8
0
100
AcDbLine
 62
7
  6
CONTINUOUS
 10
92.9655730776
 20
59.8187944728
 11
92.9655730776
 21
59.3187944728
  0
LINE
  5
3D4
100
AcDbEntity
  8
0
100
AcDbLine
 62
7
  6
CONTINUOUS
 10
93.0853048564
 20
59.8187944728
 11
93.0853048564
 21
59.3187944728
  0
LINE
  5
3D5
100
AcDbEntity
  8
0
100
AcDbLine
 62
7
  6
CONTINUOUS
 10
93.2056635274
 20
59.8187944728
 11
93.2056635274
 21
59.3187944728
  0
LINE
  5
3D6
100
AcDbEntity
  8
0
100
AcDbLine
 62
7
  6
CONTINUOUS
 10
93.2664696286
 20
59.8187944728
 11
93.2664696286
 21
59.3187944728
  0
LINE
  5
3D7
100
AcDbEntity
  8
0
100
AcDbLine
 62
7
  6
CONTINUOUS
 10
93.2984398677
 20
59.8187944728
 11
93.2984398677
 21
59.3187944728
  0
LINE
  5
3D8
100
AcDbEntity
  8
0
100
AcDbLine
 62
7
  6
CONTINUOUS
 10
93.3454549301
 20
59.8187944728
 11
93.3454549301
 21
59.3187944728
  0
LINE
  5
3D9
100
AcDbEntity
  8
0
100
AcDbLine
 62
7
  6
CONTINUOUS
 10
93.4031266545
 20
59.8187944728
 11
93.4031266545
 21
59.3187944728
  0
LINE
  5
3DA
100
AcDbEntity
  8
0
100
AcDbLine
 62
7
  6
CONTINUOUS
 10
93.4908883629
 20
59.8187944728
 11
93.4908883629
 21
59.3187944728
  0
LINE
  5
3DB
100
AcDbEntity
  8
0
100
AcDbLine
 62
7
  6
CONTINUOUS
 10
93.6382020508
 20
59.8187944728
 11
93.6382020508
 21
59.3187944728
  0
LINE
  5
3DC
100
AcDbEntity
  8
0
100
AcDbLine
 62
7
  6
CONTINUOUS
 10
93.8156057226
 20
59.8187944728
 11
93.8156057226
 21
59.3187944728
  0
LINE
  5
3DD
100
AcDbEntity
  8
0
100
AcDbLine
 62
7
  6
CONTINUOUS
 10
94.0237256805
 20
59.8187944728
 11
94.0237256805
 21
59.3187944728
  0
LINE
  5
3DE
100
AcDbEntity
  8
0
100
AcDbLine
 62
7
  6
CONTINUOUS
 10
94.2324726148
 20
59.8187944728
 11
94.2324726148
 21
59.3187944728
  0
LINE
  5
3DF
100
AcDbEntity
  8
0
100
AcDbLine
 62
7
  6
CONTINUOUS
 10
94.3522045622
 20
59.8187944728
 11
94.3522045622
 21
59.3187944728
  0
LINE
  5
3E0
100
AcDbEntity
  8
0
100
AcDbLine
 62
7
  6
CONTINUOUS
 10
94.4468614106
 20
59.8187944728
 11
94.4468614106
 21
59.3187944728
  0
LINE
  5
3E1
100
AcDbEntity
  8
0
100
AcDbLine
 62
7
  6
CONTINUOUS
 10
94.6248920589
 20
59.8187944728
 11
94.6248920589
 21
59.3187944728
  0
LINE
  5
3E2
100
AcDbEntity
  8
0
100
AcDbLine
 62
7
  6
CONTINUOUS
 10
94.8631016635
 20
59.8187944728
 11
94.8631016635
 21
59.3187944728
  0
LINE
  5
3E3
100
AcDbEntity
  8
0
100
AcDbLine
 62
7
  6
CONTINUOUS
 10
95.0423859698
 20
59.8187944728
 11
95.0423859698
 21
59.3187944728
  0
LWPOLYLINE
  5
3E4
100
AcDbEntity
  8
RUNDUNGEN
100
AcDbPolyline
 62
7
  6
CONTINUOUS
 90
22
 70
0
 10
89.9401074744
 20
55.7932139251
 10
90.6312855916
 20
54.8896326722
 10
91.4827400824
 20
53.9372780867
 10
92.4029856863
 20
53.0621249355
 10
93.3861462524
 20
52.2676012213
 10
94.4261774914
 20
51.5572202405
 10
95.5163650719
 20
50.9343436379
 10
96.6500829782
 20
50.4020934015
 10
97.820254516
 20
49.963003753
 10
99.0198238199
 20
49.6193641066
 10
100.2415180346
 20
49.3727517059
 10
101.4780437353
 20
49.2245442354
 10
102.7219730446
 20
49.1753442629
 10
103.9658771901
 20
49.2255479452
 10
105.2023192265
 20
49.374758686
 10
106.4238686075
 20
49.6223725488
 10
107.6232246765
 20
49.967007637
 10
108.793109879
 20
50.4070822432
 10
109.9264628279
 20
50.9402989491
 10
111.0162021299
 20
51.5641148768
 10
112.055700669
 20
52.2753975798
 10
112.1093094497
 20
52.3187944728
  0
LINE
  5
3E5
100
AcDbEntity
  8
RUNDUNGEN
100
AcDbLine
 62
7
  6
CONTINUOUS
 10
89.9400515594
 20
55.7932839077
 11
89.9401032294
 21
55.7932109146
  0
LINE
  5
3E6
100
AcDbEntity
  8
0
100
AcDbLine
 62
7
  6
CONTINUOUS
 10
95.1928342032
 20
59.8187944728
 11
95.1928342032
 21
59.3187944728
  0
LINE
  5
3E7
100
AcDbEntity
  8
0
100
AcDbLine
 62
7
  6
CONTINUOUS
 10
95.2542671335
 20
59.8187944728
 11
95.2542671335
 21
59.3187944728
  0
LINE
  5
3E8
100
AcDbEntity
  8
0
100
AcDbLine
 62
7
  6
CONTINUOUS
 10
100.007352676
 20
59.8187944728
 11
100.007352676
 21
59.3187944728
  0
LINE
  5
3E9
100
AcDbEntity
  8
0
100
AcDbLine
 62
7
  6
CONTINUOUS
 10
101.007352676
 20
59.8187944728
 11
101.007352676
 21
59.3187944728
  0
LINE
  5
3EA
100
AcDbEntity
  8
0
100
AcDbLine
 62
7
  6
CONTINUOUS
 10
101.2156860491
 20
59.8187944728
 11
101.2156860491
 21
59.3187944728
  0
LINE
  5
3EB
100
AcDbEntity
  8
0
100
AcDbLine
 62
7
  6
CONTINUOUS
 10
101.382352676
 20
59.8187944728
 11
101.382352676
 21
59.3187944728
  0
LINE
  5
3EC
100
AcDbEntity
  8
0
100
AcDbLine
 62
7
  6
CONTINUOUS
 10
101.507352676
 20
59.8187944728
 11
101.507352676
 21
59.3187944728
  0
LINE
  5
3ED
100
AcDbEntity
  8
0
100
AcDbLine
 62
7
  6
CONTINUOUS
 10
101.549019303
 20
59.8187944728
 11
101.549019303
 21
59.3187944728
  0
LINE
  5
3EE
100
AcDbEntity
  8
0
100
AcDbLine
 62
7
  6
CONTINUOUS
 10
101.5906860491
 20
59.8187944728
 11
101.5906860491
 21
59.3187944728
  0
LINE
  5
3EF
100
AcDbEntity
  8
0
100
AcDbLine
 62
7
  6
CONTINUOUS
 10
101.924019303
 20
59.8187944728
 11
101.924019303
 21
59.3187944728
  0
LINE
  5
3F0
100
AcDbEntity
  8
0
100
AcDbLine
 62
7
  6
CONTINUOUS
 10
102.1740194222
 20
59.8187944728
 11
102.1740194222
 21
59.3187944728
  0
LINE
  5
3F1
100
AcDbEntity
  8
0
100
AcDbLine
 62
7
  6
CONTINUOUS
 10
102.2156859299
 20
59.8187944728
 11
102.2156859299
 21
59.3187944728
  0
LINE
  5
3F2
100
AcDbEntity
  8
0
100
AcDbLine
 62
7
  6
CONTINUOUS
 10
102.2990194222
 20
59.8187944728
 11
102.2990194222
 21
59.3187944728
  0
LINE
  5
3F3
100
AcDbEntity
  8
0
100
AcDbLine
 62
7
  6
CONTINUOUS
 10
102.4240194222
 20
59.8187944728
 11
102.4240194222
 21
59.3187944728
  0
LINE
  5
3F4
100
AcDbEntity
  8
0
100
AcDbLine
 62
7
  6
CONTINUOUS
 10
102.5906859299
 20
59.8187944728
 11
102.5906859299
 21
59.3187944728
  0
LINE
  5
3F5
100
AcDbEntity
  8
0
100
AcDbLine
 62
7
  6
CONTINUOUS
 10
102.757352676
 20
59.8187944728
 11
102.757352676
 21
59.3187944728
  0
LINE
  5
3F6
100
AcDbEntity
  8
0
100
AcDbLine
 62
7
  6
CONTINUOUS
 10
102.9240194222
 20
59.8187944728
 11
102.9240194222
 21
59.3187944728
  0
LINE
  5
3F7
100
AcDbEntity
  8
0
100
AcDbLine
 62
7
  6
CONTINUOUS
 10
103.0490194222
 20
59.8187944728
 11
103.0490194222
 21
59.3187944728
  0
LINE
  5
3F8
100
AcDbEntity
  8
RUNDUNGEN
100
AcDbLine
 62
7
  6
CONTINUOUS
 10
109.423889624
 20
52.3187944728
 11
125.2156856915
 21
52.3187944728
  0
LINE
  5
3F9
100
AcDbEntity
  8
0
100
AcDbLine
 62
7
  6
CONTINUOUS
 10
103.132352676
 20
59.8187944728
 11
103.132352676
 21
59.3187944728
  0
LINE
  5
3FA
100
AcDbEntity
  8
0
100
AcDbLine
 62
7
  6
CONTINUOUS
 10
103.1740194222
 20
59.8187944728
 11
103.1740194222
 21
59.3187944728
  0
LINE
  5
3FB
100
AcDbEntity
  8
0
100
AcDbLine
 62
7
  6
CONTINUOUS
 10
103.4240194222
 20
59.8187944728
 11
103.4240194222
 21
59.3187944728
  0
LINE
  5
3FC
100
AcDbEntity
  8
0
100
AcDbLine
 62
7
  6
CONTINUOUS
 10
103.757352676
 20
59.8187944728
 11
103.757352676
 21
59.3187944728
  0
LINE
  5
3FD
100
AcDbEntity
  8
0
100
AcDbLine
 62
7
  6
CONTINUOUS
 10
104.757352676
 20
59.8187944728
 11
104.757352676
 21
59.3187944728
  0
LINE
  5
3FE
100
AcDbEntity
  8
0
100
AcDbLine
 62
7
  6
CONTINUOUS
 10
104.9656861683
 20
59.8187944728
 11
104.9656861683
 21
59.3187944728
  0
LINE
  5
3FF
100
AcDbEntity
  8
0
100
AcDbLine
 62
7
  6
CONTINUOUS
 10
105.132352676
 20
59.8187944728
 11
105.132352676
 21
59.3187944728
  0
LINE
  5
400
100
AcDbEntity
  8
0
100
AcDbLine
 62
7
  6
CONTINUOUS
 10
105.2990191838
 20
59.8187944728
 11
105.2990191838
 21
59.3187944728
  0
LINE
  5
401
100
AcDbEntity
  8
0
100
AcDbLine
 62
7
  6
CONTINUOUS
 10
105.382352676
 20
59.8187944728
 11
105.382352676
 21
59.3187944728
  0
LINE
  5
402
100
AcDbEntity
  8
0
100
AcDbLine
 62
7
  6
CONTINUOUS
 10
105.4240191838
 20
59.8187944728
 11
105.4240191838
 21
59.3187944728
  0
LINE
  5
403
100
AcDbEntity
  8
RUNDUNGEN
100
AcDbLine
 62
7
  6
CONTINUOUS
 10
125.2156856915
 20
56.5687944728
 11
113.7156856915
 21
56.5687944728
  0
LINE
  5
404
100
AcDbEntity
  8
RUNDUNGEN
100
AcDbLine
 62
7
  6
CONTINUOUS
 10
128.2156856915
 20
59.0687944728
 11
127.2156856915
 21
59.0687944728
  0
LINE
  5
405
100
AcDbEntity
  8
0
100
AcDbLine
 62
7
  6
CONTINUOUS
 10
114.4741707074
 20
59.3187944728
 11
111.4459309367
 21
59.3187944728
  0
LINE
  5
406
100
AcDbEntity
  8
0
100
AcDbLine
 62
7
  6
CONTINUOUS
 10
105.4240191838
 20
59.3187944728
 11
103.757352676
 21
59.3187944728
  0
LINE
  5
407
100
AcDbEntity
  8
0
100
AcDbLine
 62
7
  6
CONTINUOUS
 10
103.4240194222
 20
59.3187944728
 11
101.924019303
 21
59.3187944728
  0
LINE
  5
408
100
AcDbEntity
  8
0
100
AcDbLine
 62
7
  6
CONTINUOUS
 10
101.5906860491
 20
59.3187944728
 11
100.007352676
 21
59.3187944728
  0
LINE
  5
409
100
AcDbEntity
  8
0
100
AcDbLine
 62
7
  6
CONTINUOUS
 10
95.2542671335
 20
59.3187944728
 11
90.24998217
 21
59.3187944728
  0
LINE
  5
40A
100
AcDbEntity
  8
RUNDUNGEN
100
AcDbLine
 62
7
  6
CONTINUOUS
 10
85.0912138212
 20
59.8187944728
 11
120.3401582253
 21
59.8187944728
  0
LWPOLYLINE
  5
40B
100
AcDbEntity
  8
RUNDUNGEN
100
AcDbPolyline
 62
7
  6
CONTINUOUS
 90
15
 70
0
 10
86.6776280297
 20
59.8187936975
 10
86.7017857614
 20
59.8159036416
 10
86.7712407279
 20
59.7938865389
 10
86.880766795
 20
59.7383055116
 10
87.0231086711
 20
59.641501764
 10
87.1946371399
 20
59.4976574344
 10
87.3936679392
 20
59.3016424275
 10
87.6224310126
 20
59.0458002438
 10
87.8781525028
 20
58.729848813
 10
88.1605285978
 20
58.3539462134
 10
88.4706140074
 20
57.9192679529
 10
88.8094254738
 20
57.4296024951
 10
89.1809871415
 20
56.8865466241
 10
89.5899222593
 20
56.2925652085
 10
89.9400515594
 20
55.7932839077
  0
LINE
  5
40C
100
AcDbEntity
  8
RUNDUNGEN
100
AcDbLine
 62
7
  6
CONTINUOUS
 10
110.7156856915
 20
59.5687944728
 11
110.7156856915
 21
59.8187944728
  0
LINE
  5
40D
100
AcDbEntity
  8
RUNDUNGEN
100
AcDbLine
 62
7
  6
CONTINUOUS
 10
110.7156856915
 20
66.8187944728
 11
110.7156856915
 21
67.0687944728
  0
LINE
  5
40E
100
AcDbEntity
  8
0
100
AcDbLine
 62
7
  6
CONTINUOUS
 10
111.4456856915
 20
59.8187944728
 11
111.4456856915
 21
59.3187944728
  0
LINE
  5
40F
100
AcDbEntity
  8
0
100
AcDbLine
 62
7
  6
CONTINUOUS
 10
113.2541707074
 20
59.8187944728
 11
113.2541707074
 21
59.3187944728
  0
LWPOLYLINE
  5
410
100
AcDbEntity
  8
RUNDUNGEN
100
AcDbPolyline
 62
7
  6
CONTINUOUS
 90
14
 70
0
 10
116.0316378531
 20
56.5687944728
 10
116.2571272601
 20
56.8963980062
 10
116.6281757077
 20
57.4386781764
 10
116.9665655566
 20
57.9275559983
 10
117.276320269
 20
58.3614480977
 10
117.5584116193
 20
58.7365244579
 10
117.8138560768
 20
59.0515904075
 10
118.0422995368
 20
59.3064726885
 10
118.2409165747
 20
59.5014659154
 10
118.4119000342
 20
59.6442573288
 10
118.5535006094
 20
59.7400176024
 10
118.6621286476
 20
59.7946991497
 10
118.7306205078
 20
59.8161054082
 10
118.753777394
 20
59.8187938657
  0
LINE
  5
411
100
AcDbEntity
  8
0
100
AcDbLine
 62
7
  6
CONTINUOUS
 10
114.4741707074
 20
59.8187944728
 11
114.4741707074
 21
59.3187944728
  0
LINE
  5
412
100
AcDbEntity
  8
BEZUGSACHSEN
100
AcDbLine
 62
7
  6
CONTINUOUS
 10
85.0912138212
 20
66.8187944728
 11
120.3401582253
 21
66.8187944728
  0
LINE
  5
413
100
AcDbEntity
  8
RUNDUNGEN
100
AcDbLine
 62
7
  6
CONTINUOUS
 10
127.2156856915
 20
67.5687944728
 11
128.2156856915
 21
67.5687944728
  0
LINE
  5
414
100
AcDbEntity
  8
RUNDUNGEN
100
AcDbLine
 62
7
  6
CONTINUOUS
 10
113.7156856915
 20
70.0687944728
 11
125.2156856915
 21
70.0687944728
  0
LWPOLYLINE
  5
415
100
AcDbEntity
  8
BEZUGSACHSEN
100
AcDbPolyline
 62
7
  6
CONTINUOUS
 90
14
 70
0
 10
118.7537688245
 20
66.81879508
 10
118.7305844767
 20
66.8214903638
 10
118.6620764996
 20
66.8429108728
 10
118.5534652549
 20
66.8975921531
 10
118.4119540301
 20
66.9932908366
 10
118.2411783787
 20
67.1358851643
 10
118.0428185479
 20
67.3305717006
 10
117.8146583006
 20
67.5850547412
 10
117.5593853313
 20
67.8998137877
 10
117.2771672146
 20
68.2749814302
 10
116.9670249153
 20
68.709377456
 10
116.6277424547
 20
69.1995421885
 10
116.2559446004
 20
69.7429191116
 10
116.0316364887
 20
70.0687944728
  0
LWPOLYLINE
  5
416
100
AcDbEntity
  8
BEZUGSACHSEN
100
AcDbPolyline
 62
7
  6
CONTINUOUS
 90
6
 70
0
 10
121.4283713181
 20
63.3187944728
 10
121.426907226
 20
63.6455476594
 10
121.4194974754
 20
64.1227896209
 10
121.4057632189
 20
64.6021594854
 10
121.3856421971
 20
65.0831110783
 10
121.3591033979
 20
65.5651040255
  0
LWPOLYLINE
  5
417
100
AcDbEntity
  8
RUNDUNGEN
100
AcDbPolyline
 62
7
  6
CONTINUOUS
 90
7
 70
0
 10
121.3376772069
 20
60.7484088161
 10
121.3591033979
 20
61.0724849201
 10
121.3856421971
 20
61.5544778672
 10
121.4057632189
 20
62.0354294601
 10
121.4194974753
 20
62.5147993246
 10
121.426907226
 20
62.992041286
 10
121.4283713181
 20
63.3187944728
  0
LINE
  5
418
100
AcDbEntity
  8
BEZUGSACHSEN
100
AcDbLine
 62
7
  6
CONTINUOUS
 10
121.3591033979
 20
65.5651040255
 11
121.3376772069
 21
65.8891801296
  0
LINE
  5
419
100
AcDbEntity
  8
RUNDUNGEN
100
AcDbLine
 62
7
  6
CONTINUOUS
 10
125.2156856915
 20
74.3187944728
 11
109.423889624
 21
74.3187944728
  0
LWPOLYLINE
  5
41A
100
AcDbEntity
  8
BEZUGSACHSEN
100
AcDbPolyline
 62
7
  6
CONTINUOUS
 90
22
 70
0
 10
112.1093094497
 20
74.3187944728
 10
112.055700669
 20
74.3621913658
 10
111.0162021299
 20
75.0734740688
 10
109.9264628279
 20
75.6972899965
 10
108.793109879
 20
76.2305067024
 10
107.6232246765
 20
76.6705813086
 10
106.4238686075
 20
77.0152163968
 10
105.2023192265
 20
77.2628302596
 10
103.9658771901
 20
77.4120410004
 10
102.7219730446
 20
77.4622446828
 10
101.4780437353
 20
77.4130447102
 10
100.2415180346
 20
77.2648372397
 10
99.0198238199
 20
77.018224839
 10
97.820254516
 20
76.6745851926
 10
96.6500829782
 20
76.2354955441
 10
95.5163650719
 20
75.7032453078
 10
94.4261774914
 20
75.0803687051
 10
93.3861462524
 20
74.3699877243
 10
92.4029856863
 20
73.5754640101
 10
91.4827400824
 20
72.700310859
 10
90.6312855916
 20
71.7479562734
 10
89.9401074744
 20
70.8443750205
  0
LINE
  5
41B
100
AcDbEntity
  8
RUNDUNGEN
100
AcDbLine
 62
7
  6
CONTINUOUS
 10
126.2156856915
 20
69.0687944728
 11
126.2156856915
 21
68.5687944728
  0
LINE
  5
41C
100
AcDbEntity
  8
RUNDUNGEN
100
AcDbLine
 62
7
  6
CONTINUOUS
 10
126.2156856915
 20
58.0687944728
 11
126.2156856915
 21
57.5687944728
  0
LINE
  5
41D
100
AcDbEntity
  8
RUNDUNGEN
100
AcDbLine
 62
7
  6
CONTINUOUS
 10
129.2156856915
 20
56.3187944728
 11
129.2156856915
 21
58.0687944728
  0
LINE
  5
41E
100
AcDbEntity
  8
RUNDUNGEN
100
AcDbLine
 62
7
  6
CONTINUOUS
 10
129.2156856915
 20
68.5687944728
 11
129.2156856915
 21
70.3187944728
  0
ARC
  5
41F
100
AcDbEntity
  8
0
100
AcDbCircle
 62
7
  6
CONTINUOUS
 10
95.5070040361
 20
112.5544261217
 40
16.6320603527
100
AcDbArc
 50
75.6781012867
 51
79.3973867437
  0
ARC
  5
420
100
AcDbEntity
  8
RUNDUNGEN
100
AcDbCircle
 62
7
  6
CONTINUOUS
 10
88.2156856915
 20
123.9305119265
 40
1.0
100
AcDbArc
 50
180.0
 51
270.0
  0
ARC
  5
421
100
AcDbEntity
  8
BEZUGSACHSEN
100
AcDbCircle
 62
7
  6
CONTINUOUS
 10
86.2156856915
 20
129.1384594524
 40
0.9999998545
100
AcDbArc
 50
359.9996766361
 51
22.49970125
  0
ARC
  5
422
100
AcDbEntity
  8
BEZUGSACHSEN
100
AcDbCircle
 62
7
  6
CONTINUOUS
 10
89.2013280516
 20
121.9305274168
 40
0.9999967389
100
AcDbArc
 50
22.4995105728
 51
90.0008637919
  0
ARC
  5
423
100
AcDbEntity
  8
0
100
AcDbCircle
 62
7
  6
CONTINUOUS
 10
104.0957654799
 20
143.607663856
 40
14.9634514235
100
AcDbArc
 50
280.6616256698
 51
281.006718569
  0
ARC
  5
424
100
AcDbEntity
  8
0
100
AcDbCircle
 62
7
  6
CONTINUOUS
 10
101.3308704565
 20
143.584516338
 40
14.9398285672
100
AcDbArc
 50
258.9938781686
 51
259.3397943145
  0
ARC
  5
425
100
AcDbEntity
  8
0
100
AcDbCircle
 62
7
  6
CONTINUOUS
 10
102.7156856915
 20
140.7805119265
 40
12.5
100
AcDbArc
 50
255.6673453491
 51
284.3326603917
  0
ARC
  5
426
100
AcDbEntity
  8
BEZUGSACHSEN
100
AcDbCircle
 62
7
  6
CONTINUOUS
 10
102.7156856915
 20
137.2805119265
 40
10.0
100
AcDbArc
 50
327.1223375514
 51
337.668023862
  0
ARC
  5
427
100
AcDbEntity
  8
BEZUGSACHSEN
100
AcDbCircle
 62
7
  6
CONTINUOUS
 10
102.7156856915
 20
137.2805119265
 40
10.0
100
AcDbArc
 50
198.0506629574
 51
212.8745759043
  0
ARC
  5
428
100
AcDbEntity
  8
RUNDUNGEN
100
AcDbCircle
 62
7
  6
CONTINUOUS
 10
102.7156856915
 20
137.2805119265
 40
10.0
100
AcDbArc
 50
327.1223375514
 51
337.668023862
  0
ARC
  5
429
100
AcDbEntity
  8
RUNDUNGEN
100
AcDbCircle
 62
7
  6
CONTINUOUS
 10
102.7156856915
 20
137.2805119265
 40
10.0
100
AcDbArc
 50
352.5287782073
 51
212.8745759043
  0
ARC
  5
42A
100
AcDbEntity
  8
0
100
AcDbCircle
 62
7
  6
CONTINUOUS
 10
98.5165604181
 20
134.5662262122
 40
5.0
100
AcDbArc
 50
212.8708025985
 51
228.2816408579
  0
ARC
  5
42B
100
AcDbEntity
  8
RUNDUNGEN
100
AcDbCircle
 62
7
  6
CONTINUOUS
 10
102.7156856915
 20
154.8481197262
 40
1.0
100
AcDbArc
 50
67.5
 51
112.5
  0
ARC
  5
42C
100
AcDbEntity
  8
RUNDUNGEN
100
AcDbCircle
 62
7
  6
CONTINUOUS
 10
90.1124450699
 20
149.6276865309
 40
1.0
100
AcDbArc
 50
112.5
 51
157.5
  0
ARC
  5
42D
100
AcDbEntity
  8
BEZUGSACHSEN
100
AcDbCircle
 62
7
  6
CONTINUOUS
 10
85.0029986276
 20
137.2923916337
 40
1.0
100
AcDbArc
 50
157.5000126851
 51
202.5000089697
  0
ARC
  5
42E
100
AcDbEntity
  8
RUNDUNGEN
100
AcDbCircle
 62
7
  6
CONTINUOUS
 10
95.2156856915
 20
133.9805119265
 40
0.5
100
AcDbArc
 50
180.0
 51
270.0
  0
ARC
  5
42F
100
AcDbEntity
  8
RUNDUNGEN
100
AcDbCircle
 62
7
  6
CONTINUOUS
 10
95.2156856915
 20
135.4805119265
 40
0.5
100
AcDbArc
 50
90.0
 51
180.0
  0
ARC
  5
430
100
AcDbEntity
  8
0
100
AcDbCircle
 62
7
  6
CONTINUOUS
 10
110.0010970547
 20
112.2073229957
 40
16.9873604323
100
AcDbArc
 50
100.6415865191
 51
104.2830471389
  0
ARC
  5
431
100
AcDbEntity
  8
RUNDUNGEN
100
AcDbCircle
 62
7
  6
CONTINUOUS
 10
117.2156856915
 20
123.9305119265
 40
1.0
100
AcDbArc
 50
270.0
 51
360.0
  0
ARC
  5
432
100
AcDbEntity
  8
BEZUGSACHSEN
100
AcDbCircle
 62
7
  6
CONTINUOUS
 10
116.230058402
 20
121.9305119344
 40
0.9999999983
100
AcDbArc
 50
89.999999709
 51
157.5000003085
  0
ARC
  5
433
100
AcDbEntity
  8
BEZUGSACHSEN
100
AcDbCircle
 62
7
  6
CONTINUOUS
 10
119.2156856915
 20
129.1384746567
 40
0.9999994619
100
AcDbArc
 50
157.501103593
 51
180.0011945101
  0
ARC
  5
434
100
AcDbEntity
  8
0
100
AcDbCircle
 62
7
  6
CONTINUOUS
 10
106.9148109648
 20
134.5662262122
 40
5.0
100
AcDbArc
 50
311.7160968334
 51
327.1230246555
  0
ARC
  5
435
100
AcDbEntity
  8
0
100
AcDbCircle
 62
7
  6
CONTINUOUS
 10
113.6856856915
 20
146.1181028574
 40
1.02
100
AcDbArc
 50
39.3737290539
 51
230.6262709461
  0
ARC
  5
436
100
AcDbEntity
  8
0
100
AcDbCircle
 62
7
  6
CONTINUOUS
 10
112.4656856915
 20
147.3381028574
 40
1.02
100
AcDbArc
 50
39.3737290539
 51
230.6262709461
  0
ARC
  5
437
100
AcDbEntity
  8
BEZUGSACHSEN
100
AcDbCircle
 62
7
  6
CONTINUOUS
 10
120.4283714527
 20
137.2923947787
 40
1.0
100
AcDbArc
 50
337.4998531172
 51
22.4997922756
  0
ARC
  5
438
100
AcDbEntity
  8
BEZUGSACHSEN
100
AcDbCircle
 62
7
  6
CONTINUOUS
 10
115.3189263131
 20
149.6276865309
 40
1.0
100
AcDbArc
 50
22.5
 51
67.5
  0
ARC
  5
439
100
AcDbEntity
  8
RUNDUNGEN
100
AcDbCircle
 62
7
  6
CONTINUOUS
 10
115.3189263131
 20
149.6276865309
 40
1.0
100
AcDbArc
 50
22.5
 51
67.5
  0
ARC
  5
43A
100
AcDbEntity
  8
0
100
AcDbCircle
 62
7
  6
CONTINUOUS
 10
113.6856856915
 20
146.1181028574
 40
0.71
100
AcDbArc
 50
147.6992605573
 51
233.0967497698
  0
ARC
  5
43B
100
AcDbEntity
  8
0
100
AcDbCircle
 62
7
  6
CONTINUOUS
 10
113.6856856915
 20
146.1181028574
 40
0.71
100
AcDbArc
 50
36.9032502302
 51
122.3007394427
  0
ARC
  5
43C
100
AcDbEntity
  8
0
100
AcDbCircle
 62
7
  6
CONTINUOUS
 10
112.4656856915
 20
147.3381028574
 40
0.71
100
AcDbArc
 50
47.9966661296
 51
233.0967497698
  0
ARC
  5
43D
100
AcDbEntity
  8
RUNDUNGEN
100
AcDbCircle
 62
7
  6
CONTINUOUS
 10
128.7156856915
 20
133.9805119265
 40
0.5
100
AcDbArc
 50
270.0
 51
360.0
  0
ARC
  5
43E
100
AcDbEntity
  8
RUNDUNGEN
100
AcDbCircle
 62
7
  6
CONTINUOUS
 10
128.7156856915
 20
135.4805119265
 40
0.5
100
AcDbArc
 50
0.0
 51
90.0
  0
ARC
  5
43F
100
AcDbEntity
  8
0
100
AcDbCircle
 62
7
  6
CONTINUOUS
 10
68.6411450555
 20
188.3383402594
 40
144.4669744796
100
AcDbArc
 50
333.0274978104
 51
333.2167039066
  0
ARC
  5
440
100
AcDbEntity
  8
0
100
AcDbCircle
 62
7
  6
CONTINUOUS
 10
78.7489252915
 20
183.5786382369
 40
132.7880967715
100
AcDbArc
 50
332.7670140904
 51
332.9733228914
  0
ARC
  5
441
100
AcDbEntity
  8
0
100
AcDbCircle
 62
7
  6
CONTINUOUS
 10
91.4854785233
 20
170.0707836797
 40
116.6282000924
100
AcDbArc
 50
335.3167527754
 51
335.4547198138
  0
ARC
  5
442
100
AcDbEntity
  8
0
100
AcDbCircle
 62
7
  6
CONTINUOUS
 10
126.3761972075
 20
162.3775590924
 40
81.2771818259
100
AcDbArc
 50
331.2137103813
 51
331.418873086
  0
ARC
  5
443
100
AcDbEntity
  8
0
100
AcDbCircle
 62
7
  6
CONTINUOUS
 10
130.8187378613
 20
160.1142098922
 40
75.7924309176
100
AcDbArc
 50
330.8873274185
 51
331.1080116687
  0
ARC
  5
444
100
AcDbEntity
  8
BEZUGSACHSEN
100
AcDbCircle
 62
7
  6
CONTINUOUS
 10
171.6783783156
 20
126.2612807096
 40
1.0
100
AcDbArc
 50
105.0
 51
202.5
  0
ARC
  5
445
100
AcDbEntity
  8
BEZUGSACHSEN
100
AcDbCircle
 62
7
  6
CONTINUOUS
 10
176.3218297962
 20
133.7171468664
 40
5.0
100
AcDbArc
 50
284.9995679954
 51
0.0000859611
  0
ARC
  5
446
100
AcDbEntity
  8
RUNDUNGEN
100
AcDbCircle
 62
7
  6
CONTINUOUS
 10
174.3218297962
 20
133.9805119265
 40
0.5
100
AcDbArc
 50
180.0
 51
270.0
  0
ARC
  5
447
100
AcDbEntity
  8
RUNDUNGEN
100
AcDbCircle
 62
7
  6
CONTINUOUS
 10
177.3218297962
 20
133.9805119265
 40
0.5
100
AcDbArc
 50
180.0
 51
269.9999999999
  0
ARC
  5
448
100
AcDbEntity
  8
RUNDUNGEN
100
AcDbCircle
 62
7
  6
CONTINUOUS
 10
177.3218297962
 20
135.4805119265
 40
0.5
100
AcDbArc
 50
90.0
 51
180.0
  0
ARC
  5
449
100
AcDbEntity
  8
RUNDUNGEN
100
AcDbCircle
 62
7
  6
CONTINUOUS
 10
174.3218297962
 20
135.4805119265
 40
0.5
100
AcDbArc
 50
90.0
 51
180.0
  0
ARC
  5
44A
100
AcDbEntity
  8
RUNDUNGEN
100
AcDbCircle
 62
7
  6
CONTINUOUS
 10
184.8218297962
 20
126.6805119265
 40
3.75
100
AcDbArc
 50
186.8354249512
 51
353.1645750488
  0
ARC
  5
44B
100
AcDbEntity
  8
BEZUGSACHSEN
100
AcDbCircle
 62
7
  6
CONTINUOUS
 10
184.8218297962
 20
126.6805119265
 40
3.75
100
AcDbArc
 50
186.843255978
 51
353.156744022
  0
ARC
  5
44C
100
AcDbEntity
  8
RUNDUNGEN
100
AcDbCircle
 62
7
  6
CONTINUOUS
 10
193.3218297962
 20
133.7171468664
 40
5.0
100
AcDbArc
 50
179.9999140389
 51
255.0004320046
  0
ARC
  5
44D
100
AcDbEntity
  8
RUNDUNGEN
100
AcDbCircle
 62
7
  6
CONTINUOUS
 10
192.3218297962
 20
133.9805119265
 40
0.5
100
AcDbArc
 50
270.0
 51
360.0
  0
ARC
  5
44E
100
AcDbEntity
  8
RUNDUNGEN
100
AcDbCircle
 62
7
  6
CONTINUOUS
 10
192.3218297962
 20
135.4805119265
 40
0.5
100
AcDbArc
 50
0.0
 51
89.9999999998
  0
ARC
  5
44F
100
AcDbEntity
  8
BEZUGSACHSEN
100
AcDbCircle
 62
7
  6
CONTINUOUS
 10
182.3218297962
 20
154.8481197262
 40
1.0
100
AcDbArc
 50
90.0
 51
180.0
  0
ARC
  5
450
100
AcDbEntity
  8
RUNDUNGEN
100
AcDbCircle
 62
7
  6
CONTINUOUS
 10
187.3218297962
 20
154.8481197262
 40
1.0
100
AcDbArc
 50
0.0
 51
90.0
  0
ARC
  5
451
100
AcDbEntity
  8
0
100
AcDbCircle
 62
7
  6
CONTINUOUS
 10
196.8794825436
 20
140.1725433872
 40
28.2644071422
100
AcDbArc
 50
221.4788703101
 51
222.4066522812
  0
ARC
  5
452
100
AcDbEntity
  8
RUNDUNGEN
100
AcDbCircle
 62
7
  6
CONTINUOUS
 10
197.9652812767
 20
126.2612807096
 40
1.0
100
AcDbArc
 50
337.5
 51
75.0
  0
ARC
  5
453
100
AcDbEntity
  8
RUNDUNGEN
100
AcDbCircle
 62
7
  6
CONTINUOUS
 10
195.3218297962
 20
133.9805119265
 40
0.5
100
AcDbArc
 50
270.0
 51
360.0
  0
ARC
  5
454
100
AcDbEntity
  8
RUNDUNGEN
100
AcDbCircle
 62
7
  6
CONTINUOUS
 10
195.3218297962
 20
135.4805119265
 40
0.5
100
AcDbArc
 50
0.0
 51
90.0
  0
ARC
  5
455
100
AcDbEntity
  8
0
100
AcDbCircle
 62
7
  6
CONTINUOUS
 10
218.7964848537
 20
151.6517774335
 40
54.3634323442
100
AcDbArc
 50
212.2492310291
 51
212.4615958835
  0
ARC
  5
456
100
AcDbEntity
  8
0
100
AcDbCircle
 62
7
  6
CONTINUOUS
 10
213.4147842574
 20
149.3928786591
 40
48.3812076134
100
AcDbArc
 50
213.9233573859
 51
214.0520633393
  0
ARC
  5
457
100
AcDbEntity
  8
0
100
AcDbCircle
 62
7
  6
CONTINUOUS
 10
212.7650957279
 20
148.9534796359
 40
47.5968820331
100
AcDbArc
 50
214.0517450786
 51
214.2981889528
  0
ARC
  5
458
100
AcDbEntity
  8
0
100
AcDbCircle
 62
7
  6
CONTINUOUS
 10
211.389331216
 20
148.6903625581
 40
46.1666993952
100
AcDbArc
 50
214.6027530963
 51
214.8597941962
  0
ARC
  5
459
100
AcDbEntity
  8
0
100
AcDbCircle
 62
7
  6
CONTINUOUS
 10
210.4479277421
 20
146.2760993754
 40
44.4064969148
100
AcDbArc
 50
214.5197596511
 51
214.7881674558
  0
ARC
  5
45A
100
AcDbEntity
  8
0
100
AcDbCircle
 62
7
  6
CONTINUOUS
 10
209.623104091
 20
145.703076033
 40
43.4021614099
100
AcDbArc
 50
214.788158178
 51
215.0607486206
  0
ARC
  5
45B
100
AcDbEntity
  8
0
100
AcDbCircle
 62
7
  6
CONTINUOUS
 10
208.4306156295
 20
146.8836959362
 40
42.1910167187
100
AcDbArc
 50
215.3503169607
 51
215.6342182267
  0
ARC
  5
45C
100
AcDbEntity
  8
0
100
AcDbCircle
 62
7
  6
CONTINUOUS
 10
208.3074345203
 20
145.4459121429
 40
42.0247035051
100
AcDbArc
 50
215.3839942319
 51
215.6691408197
  0
ARC
  5
45D
100
AcDbEntity
  8
0
100
AcDbCircle
 62
7
  6
CONTINUOUS
 10
205.4313569096
 20
143.647169503
 40
38.1208740018
100
AcDbArc
 50
216.23987297
 51
216.5577118989
  0
ARC
  5
45E
100
AcDbEntity
  8
0
100
AcDbCircle
 62
7
  6
CONTINUOUS
 10
203.3634024856
 20
145.65658784
 40
37.1764426553
100
AcDbArc
 50
218.2452887312
 51
218.5800826072
  0
ARC
  5
45F
100
AcDbEntity
  8
0
100
AcDbCircle
 62
7
  6
CONTINUOUS
 10
202.2681404197
 20
145.4160812681
 40
35.9852111444
100
AcDbArc
 50
218.9106546803
 51
219.2621951381
  0
ARC
  5
460
100
AcDbEntity
  8
0
100
AcDbCircle
 62
7
  6
CONTINUOUS
 10
201.5827957586
 20
144.8558780907
 40
35.100041723
100
AcDbArc
 50
219.2621827378
 51
219.6195024339
  0
ARC
  5
461
100
AcDbEntity
  8
0
100
AcDbCircle
 62
7
  6
CONTINUOUS
 10
200.6543008466
 20
142.4462761731
 40
33.3525878744
100
AcDbArc
 50
219.3884300112
 51
219.767805133
  0
ARC
  5
462
100
AcDbEntity
  8
0
100
AcDbCircle
 62
7
  6
CONTINUOUS
 10
199.6221350337
 20
142.2109505873
 40
32.2134415051
100
AcDbArc
 50
220.122612575
 51
220.5227553003
  0
ARC
  5
463
100
AcDbEntity
  8
0
100
AcDbCircle
 62
7
  6
CONTINUOUS
 10
199.3967287519
 20
143.3672321412
 40
31.9313949275
100
AcDbArc
 50
220.0671095839
 51
220.8700467228
  0
ARC
  5
464
100
AcDbEntity
  8
0
100
AcDbCircle
 62
7
  6
CONTINUOUS
 10
198.9700105571
 20
141.6535241093
 40
31.3555425534
100
AcDbArc
 50
220.5227393446
 51
220.930002699
  0
ARC
  5
465
100
AcDbEntity
  8
0
100
AcDbCircle
 62
7
  6
CONTINUOUS
 10
251.8354493801
 20
164.2113131346
 40
87.218983154
100
AcDbArc
 50
209.6142370902
 51
209.7429362347
  0
ARC
  5
466
100
AcDbEntity
  8
0
100
AcDbCircle
 62
7
  6
CONTINUOUS
 10
247.6644137002
 20
164.5803395947
 40
85.925464134
100
AcDbArc
 50
209.4737742883
 51
209.6695213386
  0
ARC
  5
467
100
AcDbEntity
  8
0
100
AcDbCircle
 62
7
  6
CONTINUOUS
 10
22.4986322751
 20
207.9147180499
 40
194.6305138872
100
AcDbArc
 50
334.0439030556
 51
334.2109717971
  0
ARC
  5
468
100
AcDbEntity
  8
0
100
AcDbCircle
 62
7
  6
CONTINUOUS
 10
303.2747084022
 20
175.9183357862
 40
142.0830378065
100
AcDbArc
 50
201.5043172171
 51
201.6519417153
  0
ARC
  5
469
100
AcDbEntity
  8
0
100
AcDbCircle
 62
7
  6
CONTINUOUS
 10
270.4518729194
 20
164.0216478741
 40
107.2040647919
100
AcDbArc
 50
203.4460705417
 51
203.6445362292
  0
ARC
  5
46A
100
AcDbEntity
  8
0
100
AcDbCircle
 62
7
  6
CONTINUOUS
 10
266.25364558
 20
173.6023452547
 40
106.4143646027
100
AcDbArc
 50
208.71633034
 51
208.92553716
  0
ARC
  5
46B
100
AcDbEntity
  8
0
100
AcDbCircle
 62
7
  6
CONTINUOUS
 10
499.4743871825
 20
272.8941063097
 40
359.4992998479
100
AcDbArc
 50
204.7945112938
 51
204.9140993587
  0
ARC
  5
46C
100
AcDbEntity
  8
0
100
AcDbCircle
 62
7
  6
CONTINUOUS
 10
1805.6326188289
 20
817.0329668992
 40
1775.1880705519
100
AcDbArc
 50
202.9668253182
 51
203.1045717204
  0
ARC
  5
46D
100
AcDbEntity
  8
0
100
AcDbCircle
 62
7
  6
CONTINUOUS
 10
1487.3032578511
 20
685.0080821027
 40
1430.5130350591
100
AcDbArc
 50
203.0744957484
 51
203.2452632166
  0
ARC
  5
46E
100
AcDbEntity
  8
RUNDUNGEN
100
AcDbCircle
 62
7
  6
CONTINUOUS
 10
102.7156856915
 20
50.3187944728
 40
5.0
100
AcDbArc
 50
41.8103148958
 51
90.0
  0
ARC
  5
46F
100
AcDbEntity
  8
RUNDUNGEN
100
AcDbCircle
 62
7
  6
CONTINUOUS
 10
85.091263302
 20
60.818846217
 40
1.0000559373
100
AcDbArc
 50
184.0386725052
 51
269.9969620142
  0
ARC
  5
470
100
AcDbEntity
  8
0
100
AcDbCircle
 62
7
  6
CONTINUOUS
 10
102.7156856915
 20
63.3187944728
 40
8.25
100
AcDbArc
 50
205.2873351069
 51
278.5219706194
  0
ARC
  5
471
100
AcDbEntity
  8
0
100
AcDbCircle
 62
7
  6
CONTINUOUS
 10
102.7156856915
 20
63.3187944728
 40
8.25
100
AcDbArc
 50
81.4777483083
 51
154.8997639383
  0
ARC
  5
472
100
AcDbEntity
  8
RUNDUNGEN
100
AcDbCircle
 62
7
  6
CONTINUOUS
 10
102.7156856915
 20
63.3187944728
 40
8.0
100
AcDbArc
 50
205.980801201
 51
270.0
  0
ARC
  5
473
100
AcDbEntity
  8
RUNDUNGEN
100
AcDbCircle
 62
7
  6
CONTINUOUS
 10
102.7156856915
 20
63.3187944728
 40
8.0
100
AcDbArc
 50
90.0
 51
154.0191988
  0
ARC
  5
474
100
AcDbEntity
  8
RUNDUNGEN
100
AcDbCircle
 62
7
  6
CONTINUOUS
 10
102.7156856915
 20
76.3187944728
 40
5.0
100
AcDbArc
 50
270.0
 51
318.1896851042
  0
ARC
  5
475
100
AcDbEntity
  8
BEZUGSACHSEN
100
AcDbCircle
 62
7
  6
CONTINUOUS
 10
85.0912633019
 20
65.8187427287
 40
1.0000559371
100
AcDbArc
 50
90.0030379792
 51
175.9613275015
  0
ARC
  5
476
100
AcDbEntity
  8
RUNDUNGEN
100
AcDbCircle
 62
7
  6
CONTINUOUS
 10
125.2156856915
 20
56.3187944728
 40
4.0
100
AcDbArc
 50
270.0
 51
360.0
  0
ARC
  5
477
100
AcDbEntity
  8
RUNDUNGEN
100
AcDbCircle
 62
7
  6
CONTINUOUS
 10
109.423889624
 20
56.3187944728
 40
4.0
100
AcDbArc
 50
221.8103148958
 51
270.0
  0
ARC
  5
478
100
AcDbEntity
  8
RUNDUNGEN
100
AcDbCircle
 62
7
  6
CONTINUOUS
 10
113.7156856915
 20
59.5687944728
 40
3.0
100
AcDbArc
 50
180.0
 51
270.0
  0
ARC
  5
479
100
AcDbEntity
  8
RUNDUNGEN
100
AcDbCircle
 62
7
  6
CONTINUOUS
 10
120.34010945
 20
60.8188462167
 40
1.0000559368
100
AcDbArc
 50
270.0028309876
 51
355.9610640436
  0
ARC
  5
47A
100
AcDbEntity
  8
RUNDUNGEN
100
AcDbCircle
 62
7
  6
CONTINUOUS
 10
127.2156856915
 20
58.0687944728
 40
1.0
100
AcDbArc
 50
90.0
 51
180.0
  0
ARC
  5
47B
100
AcDbEntity
  8
RUNDUNGEN
100
AcDbCircle
 62
7
  6
CONTINUOUS
 10
128.2156856915
 20
58.0687944728
 40
1.0
100
AcDbArc
 50
0.0
 51
90.0
  0
ARC
  5
47C
100
AcDbEntity
  8
RUNDUNGEN
100
AcDbCircle
 62
7
  6
CONTINUOUS
 10
125.2156856915
 20
57.5687944728
 40
1.0
100
AcDbArc
 50
270.0
 51
360.0
  0
ARC
  5
47D
100
AcDbEntity
  8
RUNDUNGEN
100
AcDbCircle
 62
7
  6
CONTINUOUS
 10
113.7156856915
 20
67.0687944728
 40
3.0
100
AcDbArc
 50
90.0
 51
180.0
  0
ARC
  5
47E
100
AcDbEntity
  8
RUNDUNGEN
100
AcDbCircle
 62
7
  6
CONTINUOUS
 10
109.423889624
 20
70.3187944728
 40
4.0
100
AcDbArc
 50
90.0
 51
138.1896851042
  0
ARC
  5
47F
100
AcDbEntity
  8
BEZUGSACHSEN
100
AcDbCircle
 62
7
  6
CONTINUOUS
 10
120.3401094502
 20
65.8187427291
 40
1.0000559365
100
AcDbArc
 50
4.0389359448
 51
89.997169024
  0
ARC
  5
480
100
AcDbEntity
  8
RUNDUNGEN
100
AcDbCircle
 62
7
  6
CONTINUOUS
 10
125.2156856915
 20
70.3187944728
 40
4.0
100
AcDbArc
 50
0.0
 51
90.0
  0
ARC
  5
481
100
AcDbEntity
  8
RUNDUNGEN
100
AcDbCircle
 62
7
  6
CONTINUOUS
 10
127.2156856915
 20
68.5687944728
 40
1.0
100
AcDbArc
 50
180.0
 51
270.0
  0
ARC
  5
482
100
AcDbEntity
  8
RUNDUNGEN
100
AcDbCircle
 62
7
  6
CONTINUOUS
 10
128.2156856915
 20
68.5687944728
 40
1.0
100
AcDbArc
 50
270.0
 51
360.0
  0
ARC
  5
483
100
AcDbEntity
  8
RUNDUNGEN
100
AcDbCircle
 62
7
  6
CONTINUOUS
 10
125.2156856915
 20
69.0687944728
 40
1.0
100
AcDbArc
 50
0.0
 51
90.0
  0
SPLINE
  5
484
100
AcDbEntity
  8
0
100
AcDbSpline
 62
7
  6
CONTINUOUS
 70
0
 71
3
 72
9
 73
5
 74
0
 42
0.0000001
 43
0.0000001
 44
0.0000000001
 40
0.0
 40
0.0
 40
0.0
 40
0.0
 40
0.4788367693
 40
1.0
 40
1.0
 40
1.0
 40
1.0
 10
110.2420221476
 20
130.833979016
 30
0.0
 10
110.180031358
 20
130.7787159882
 30
0.0
 10
110.054026606
 20
130.6594961855
 30
0.0
 10
109.9271614254
 20
130.5412376265
 30
0.0
 10
109.8602111904
 20
130.480511173
 30
0.0
  0
SPLINE
  5
485
100
AcDbEntity
  8
0
100
AcDbSpline
 62
7
  6
CONTINUOUS
 70
0
 71
3
 72
13
 73
9
 74
0
 42
0.0000001
 43
0.0000001
 44
0.0000000001
 40
0.0
 40
0.0
 40
0.0
 40
0.0
 40
0.2212095894
 40
0.4632911029
 40
0.5905353105
 40
0.7220567894
 40
0.8584061852
 40
1.0
 40
1.0
 40
1.0
 40
1.0
 10
109.8602111904
 20
130.480511173
 30
0.0
 10
109.6770007479
 20
130.3143102944
 30
0.0
 10
109.2942676398
 20
129.9649089824
 30
0.0
 10
108.7562460701
 20
129.576967844
 30
0.0
 10
108.2613408366
 20
129.3129827546
 30
0.0
 10
107.8516877365
 20
129.1453773943
 30
0.0
 10
107.4122958306
 20
129.0143155726
 30
0.0
 10
107.108067513
 20
128.9497167393
 30
0.0
 10
106.9526489878
 20
128.919468081
 30
0.0
  0
SPLINE
  5
486
100
AcDbEntity
  8
0
100
AcDbSpline
 62
7
  6
CONTINUOUS
 70
0
 71
3
 72
13
 73
9
 74
0
 42
0.0000001
 43
0.0000001
 44
0.0000000001
 40
0.0
 40
0.0
 40
0.0
 40
0.0
 40
0.1415932035
 40
0.2779434111
 40
0.4094653531
 40
0.53671009
 40
0.7787903563
 40
1.0
 40
1.0
 40
1.0
 40
1.0
 10
98.478649858
 20
128.9194791654
 30
0.0
 10
98.3232350247
 20
128.9497254522
 30
0.0
 10
98.019013885
 20
129.014329463
 30
0.0
 10
97.5796365988
 20
129.1454055729
 30
0.0
 10
97.1699847113
 20
129.3129945472
 30
0.0
 10
96.6750998724
 20
129.5769925446
 30
0.0
 10
96.1370852964
 20
129.9649156824
 30
0.0
 10
95.7543669491
 20
130.3143157839
 30
0.0
 10
95.5711602914
 20
130.4805130344
 30
0.0
  0
SPLINE
  5
487
100
AcDbEntity
  8
0
100
AcDbSpline
 62
7
  6
CONTINUOUS
 70
0
 71
3
 72
9
 73
5
 74
0
 42
0.0000001
 43
0.0000001
 44
0.0000000001
 40
0.0
 40
0.0
 40
0.0
 40
0.0
 40
0.5211721324
 40
1.0
 40
1.0
 40
1.0
 40
1.0
 10
95.5711602914
 20
130.4805130344
 30
0.0
 10
95.5041855125
 20
130.5412623721
 30
0.0
 10
95.3772733783
 20
130.6595606627
 30
0.0
 10
95.2512203857
 20
130.7788186394
 30
0.0
 10
95.1892109785
 20
130.8341026585
 30
0.0
  0
LINE
  5
488
100
AcDbEntity
  8
0
100
AcDbLine
 62
7
  6
CONTINUOUS
 10
173.1343700347
 20
122.6432778586
 11
173.2144733922
 21
122.4730651129
  0
LINE
  5
489
100
AcDbEntity
  8
0
100
AcDbLine
 62
7
  6
CONTINUOUS
 10
173.2144733922
 20
122.4730651129
 11
173.2687914489
 21
122.3921284555
  0
LINE
  5
48A
100
AcDbEntity
  8
0
100
AcDbLine
 62
7
  6
CONTINUOUS
 10
175.018064842
 20
121.1113629688
 11
175.0581490165
 21
120.9411502231
  0
LINE
  5
48B
100
AcDbEntity
  8
0
100
AcDbLine
 62
7
  6
CONTINUOUS
 10
173.0042116447
 20
122.0475332487
 11
173.2376883885
 21
121.5368948925
  0
LINE
  5
48C
100
AcDbEntity
  8
0
100
AcDbLine
 62
7
  6
CONTINUOUS
 10
173.2376883885
 20
121.5368948925
 11
173.3737244498
 21
121.1113629688
  0
LINE
  5
48D
100
AcDbEntity
  8
0
100
AcDbLine
 62
7
  6
CONTINUOUS
 10
172.1469598976
 20
122.8134906042
 11
172.2007355035
 21
122.6432778586
  0
LINE
  5
48E
100
AcDbEntity
  8
0
100
AcDbLine
 62
7
  6
CONTINUOUS
 10
171.3330894136
 20
124.4305119265
 11
171.347392773
 21
124.397263568
  0
SPLINE
  5
48F
100
AcDbEntity
  8
0
100
AcDbSpline
 62
7
  6
CONTINUOUS
 70
0
 71
3
 72
8
 73
4
 74
0
 42
0.0000001
 43
0.0000001
 44
0.0000000001
 40
0.0
 40
0.0
 40
0.0
 40
0.0
 40
1.0
 40
1.0
 40
1.0
 40
1.0
 10
171.347392773
 20
124.397263568
 30
0.0
 10
171.5583942585
 20
123.9068066199
 30
0.0
 10
171.7697005061
 20
123.4164806366
 30
0.0
 10
171.9813576987
 20
122.9263063026
 30
0.0
  0
LINE
  5
490
100
AcDbEntity
  8
0
100
AcDbLine
 62
7
  6
CONTINUOUS
 10
171.9813576987
 20
122.9263063026
 11
172.0484604995
 21
122.7709362822
  0
LINE
  5
491
100
AcDbEntity
  8
0
100
AcDbLine
 62
7
  6
CONTINUOUS
 10
172.0484604995
 20
122.7709362822
 11
172.1188957954
 21
122.6079209502
  0
SPLINE
  5
492
100
AcDbEntity
  8
0
100
AcDbSpline
 62
7
  6
CONTINUOUS
 70
0
 71
3
 72
8
 73
4
 74
0
 42
0.0000001
 43
0.0000001
 44
0.0000000001
 40
0.0
 40
0.0
 40
0.0
 40
0.0
 40
1.0
 40
1.0
 40
1.0
 40
1.0
 10
172.1188957954
 20
122.6079209502
 30
0.0
 10
172.3645372045
 20
122.0395365676
 30
0.0
 10
172.6106656269
 20
121.4713623099
 30
0.0
 10
172.8573751451
 20
120.9034407292
 30
0.0
  0
LINE
  5
493
100
AcDbEntity
  8
0
100
AcDbLine
 62
7
  6
CONTINUOUS
 10
172.8573751451
 20
120.9034407292
 11
172.9349128559
 21
120.7250029587
  0
LINE
  5
494
100
AcDbEntity
  8
0
100
AcDbLine
 62
7
  6
CONTINUOUS
 10
172.9349128559
 20
120.7250029587
 11
173.0162194051
 21
120.5380068361
  0
LINE
  5
495
100
AcDbEntity
  8
0
100
AcDbLine
 62
7
  6
CONTINUOUS
 10
173.0162194051
 20
120.5380068361
 11
173.0629820636
 21
120.4305119265
  0
LINE
  5
496
100
AcDbEntity
  8
0
100
AcDbLine
 62
7
  6
CONTINUOUS
 10
172.9441419703
 20
120.9411502231
 11
172.9923785437
 21
120.8558810477
  0
LINE
  5
497
100
AcDbEntity
  8
0
100
AcDbLine
 62
7
  6
CONTINUOUS
 10
172.9923785437
 20
120.8558810477
 11
173.0406047599
 21
120.7709374476
  0
LINE
  5
498
100
AcDbEntity
  8
0
100
AcDbLine
 62
7
  6
CONTINUOUS
 10
171.1313040456
 20
124.4305119265
 11
171.1421995773
 21
124.4048057003
  0
LINE
  5
499
100
AcDbEntity
  8
0
100
AcDbLine
 62
7
  6
CONTINUOUS
 10
171.1421995773
 20
124.4048057003
 11
171.1620461807
 21
124.3579832476
  0
LINE
  5
49A
100
AcDbEntity
  8
0
100
AcDbLine
 62
7
  6
CONTINUOUS
 10
172.0991128833
 20
121.3666821469
 11
171.9901722283
 21
121.6220012654
  0
LINE
  5
49B
100
AcDbEntity
  8
0
100
AcDbLine
 62
7
  6
CONTINUOUS
 10
171.9901722283
 20
121.6220012654
 11
171.811022716
 21
122.0475332487
  0
LINE
  5
49C
100
AcDbEntity
  8
0
100
AcDbLine
 62
7
  6
CONTINUOUS
 10
171.811022716
 20
122.0475332487
 11
171.4934947193
 21
122.8134906042
  0
LINE
  5
49D
100
AcDbEntity
  8
0
100
AcDbLine
 62
7
  6
CONTINUOUS
 10
171.4934947193
 20
122.8134906042
 11
171.3196990148
 21
123.2390224684
  0
LINE
  5
49E
100
AcDbEntity
  8
0
100
AcDbLine
 62
7
  6
CONTINUOUS
 10
171.3196990148
 20
123.2390224684
 11
171.2167117132
 21
123.4943418253
  0
LINE
  5
49F
100
AcDbEntity
  8
0
100
AcDbLine
 62
7
  6
CONTINUOUS
 10
198.2487929162
 20
123.2390224684
 11
198.3454859712
 21
123.4943418253
  0
LINE
  5
4A0
100
AcDbEntity
  8
0
100
AcDbLine
 62
7
  6
CONTINUOUS
 10
198.0807892733
 20
122.8134906042
 11
198.2487929162
 21
123.2390224684
  0
LINE
  5
4A1
100
AcDbEntity
  8
0
100
AcDbLine
 62
7
  6
CONTINUOUS
 10
197.7615589808
 20
122.0475332487
 11
198.0807892733
 21
122.8134906042
  0
LINE
  5
4A2
100
AcDbEntity
  8
0
100
AcDbLine
 62
7
  6
CONTINUOUS
 10
197.574368325
 20
121.6220012654
 11
197.7615589808
 21
122.0475332487
  0
LINE
  5
4A3
100
AcDbEntity
  8
0
100
AcDbLine
 62
7
  6
CONTINUOUS
 10
197.2374483359
 20
122.1326396216
 11
197.4967050261
 21
122.7283842314
  0
LINE
  5
4A4
100
AcDbEntity
  8
0
100
AcDbLine
 62
7
  6
CONTINUOUS
 10
197.0421232153
 20
121.6220012654
 11
197.2374483359
 21
122.1326396216
  0
LINE
  5
4A5
100
AcDbEntity
  8
0
100
AcDbLine
 62
7
  6
CONTINUOUS
 10
198.2397295458
 20
123.1539159351
 11
198.0955120834
 21
122.8073635758
  0
LINE
  5
4A6
100
AcDbEntity
  8
0
100
AcDbLine
 62
7
  6
CONTINUOUS
 10
198.0955120834
 20
122.8073635758
 11
198.0227764603
 21
122.6325943107
  0
LINE
  5
4A7
100
AcDbEntity
  8
0
100
AcDbLine
 62
7
  6
CONTINUOUS
 10
198.0227764603
 20
122.6325943107
 11
197.7919584143
 21
122.0780455361
  0
LINE
  5
4A8
100
AcDbEntity
  8
0
100
AcDbLine
 62
7
  6
CONTINUOUS
 10
197.7919584143
 20
122.0780455361
 11
197.7766432523
 21
122.041253675
  0
LINE
  5
4A9
100
AcDbEntity
  8
0
100
AcDbLine
 62
7
  6
CONTINUOUS
 10
197.7766432523
 20
122.041253675
 11
197.5980125167
 21
121.6121582016
  0
LINE
  5
4AA
100
AcDbEntity
  8
0
100
AcDbLine
 62
7
  6
CONTINUOUS
 10
197.5980125167
 20
121.6121582016
 11
197.5622140064
 21
121.5261724997
  0
LINE
  5
4AB
100
AcDbEntity
  8
0
100
AcDbLine
 62
7
  6
CONTINUOUS
 10
197.5622140064
 20
121.5261724997
 11
197.4901350044
 21
121.3530508792
  0
LINE
  5
4AC
100
AcDbEntity
  8
0
100
AcDbLine
 62
7
  6
CONTINUOUS
 10
197.4901350044
 20
121.3530508792
 11
197.3449519225
 21
121.0043765157
  0
LINE
  5
4AD
100
AcDbEntity
  8
0
100
AcDbLine
 62
7
  6
CONTINUOUS
 10
197.3449519225
 20
121.0043765157
 11
197.3335506352
 21
120.9769967583
  0
LINE
  5
4AE
100
AcDbEntity
  8
0
100
AcDbLine
 62
7
  6
CONTINUOUS
 10
197.3335506352
 20
120.9769967583
 11
197.2930502669
 21
120.8797387985
  0
LINE
  5
4AF
100
AcDbEntity
  8
0
100
AcDbLine
 62
7
  6
CONTINUOUS
 10
197.2930502669
 20
120.8797387985
 11
197.2831822887
 21
120.8560422512
  0
LINE
  5
4B0
100
AcDbEntity
  8
0
100
AcDbLine
 62
7
  6
CONTINUOUS
 10
198.5609853376
 20
123.8347673167
 11
198.54713072
 21
123.8013747558
  0
LINE
  5
4B1
100
AcDbEntity
  8
0
100
AcDbLine
 62
7
  6
CONTINUOUS
 10
198.54713072
 20
123.8013747558
 11
198.5138179664
 21
123.721084427
  0
LINE
  5
4B2
100
AcDbEntity
  8
0
100
AcDbLine
 62
7
  6
CONTINUOUS
 10
198.5138179664
 20
123.721084427
 11
198.4666844944
 21
123.607484545
  0
LINE
  5
4B3
100
AcDbEntity
  8
0
100
AcDbLine
 62
7
  6
CONTINUOUS
 10
198.4666844944
 20
123.607484545
 11
198.3725192331
 21
123.3805338098
  0
LINE
  5
4B4
100
AcDbEntity
  8
0
100
AcDbLine
 62
7
  6
CONTINUOUS
 10
198.3725192331
 20
123.3805338098
 11
198.304254438
 21
123.2160099721
  0
LINE
  5
4B5
100
AcDbEntity
  8
0
100
AcDbLine
 62
7
  6
CONTINUOUS
 10
198.304254438
 20
123.2160099721
 11
198.278489926
 21
123.1539160956
  0
LINE
  5
4B6
100
AcDbEntity
  8
0
100
AcDbLine
 62
7
  6
CONTINUOUS
 10
175.3741237419
 20
120.9411502231
 11
175.2805685101
 21
121.1113629688
  0
LINE
  5
4B7
100
AcDbEntity
  8
0
100
AcDbLine
 62
7
  6
CONTINUOUS
 10
173.3891016415
 20
122.4730651129
 11
173.3438006224
 21
122.6432778586
  0
SPLINE
  5
4B8
100
AcDbEntity
  8
0
100
AcDbSpline
 62
7
  6
CONTINUOUS
 70
0
 71
3
 72
8
 73
4
 74
0
 42
0.0000001
 43
0.0000001
 44
0.0000000001
 40
0.0
 40
0.0
 40
0.0
 40
0.0
 40
1.0
 40
1.0
 40
1.0
 40
1.0
 10
172.7578585347
 20
121.3666821469
 30
0.0
 10
172.6338007546
 20
121.650299727
 30
0.0
 10
172.5099086724
 20
121.9339898335
 30
0.0
 10
172.3861681953
 20
122.2177459944
 30
0.0
  0
LINE
  5
4B9
100
AcDbEntity
  8
0
100
AcDbLine
 62
7
  6
CONTINUOUS
 10
172.2007355035
 20
122.6432778586
 11
172.072619144
 21
122.9376292705
  0
LINE
  5
4BA
100
AcDbEntity
  8
0
100
AcDbLine
 62
7
  6
CONTINUOUS
 10
172.072619144
 20
122.9376292705
 11
172.0623807456
 21
122.9611643543
  0
LINE
  5
4BB
100
AcDbEntity
  8
0
100
AcDbLine
 62
7
  6
CONTINUOUS
 10
172.0623807456
 20
122.9611643543
 11
172.0321223835
 21
123.0307297693
  0
LINE
  5
4BC
100
AcDbEntity
  8
0
100
AcDbLine
 62
7
  6
CONTINUOUS
 10
172.0321223835
 20
123.0307297693
 11
172.0092553417
 21
123.083312342
  0
SPLINE
  5
4BD
100
AcDbEntity
  8
0
100
AcDbSpline
 62
7
  6
CONTINUOUS
 70
0
 71
3
 72
8
 73
4
 74
0
 42
0.0000001
 43
0.0000001
 44
0.0000000001
 40
0.0
 40
0.0
 40
0.0
 40
0.0
 40
1.0
 40
1.0
 40
1.0
 40
1.0
 10
172.0092553417
 20
123.083312342
 30
0.0
 10
171.8140448654
 20
123.5322343822
 30
0.0
 10
171.6191812076
 20
123.9813073554
 30
0.0
 10
171.4246217526
 20
124.4305119265
 30
0.0
  0
LINE
  5
4BE
100
AcDbEntity
  8
0
100
AcDbLine
 62
7
  6
CONTINUOUS
 10
173.1680936463
 20
120.4305119265
 11
173.1491771573
 21
120.4736030509
  0
LINE
  5
4BF
100
AcDbEntity
  8
0
100
AcDbLine
 62
7
  6
CONTINUOUS
 10
173.1491771573
 20
120.4736030509
 11
173.0936146754
 21
120.6002166207
  0
LINE
  5
4C0
100
AcDbEntity
  8
0
100
AcDbLine
 62
7
  6
CONTINUOUS
 10
173.0936146754
 20
120.6002166207
 11
173.0189642495
 21
120.7704294755
  0
LINE
  5
4C1
100
AcDbEntity
  8
0
100
AcDbLine
 62
7
  6
CONTINUOUS
 10
173.0189642495
 20
120.7704294755
 11
172.9441419703
 21
120.9411502231
  0
SPLINE
  5
4C2
100
AcDbEntity
  8
0
100
AcDbSpline
 62
7
  6
CONTINUOUS
 70
0
 71
3
 72
8
 73
4
 74
0
 42
0.0000001
 43
0.0000001
 44
0.0000000001
 40
0.0
 40
0.0
 40
0.0
 40
0.0
 40
1.0
 40
1.0
 40
1.0
 40
1.0
 10
196.8178690379
 20
122.8134906042
 30
0.0
 10
196.7050122892
 20
122.558097941
 30
0.0
 10
196.5919939433
 20
122.3027766146
 30
0.0
 10
196.4787999401
 20
122.0475332487
 30
0.0
  0
LINE
  5
4C3
100
AcDbEntity
  8
0
100
AcDbLine
 62
7
  6
CONTINUOUS
 10
196.4787999401
 20
122.0475332487
 11
196.3219382781
 21
121.6220012654
  0
LINE
  5
4C4
100
AcDbEntity
  8
0
100
AcDbLine
 62
7
  6
CONTINUOUS
 10
196.3219382781
 20
121.6220012654
 11
196.2403849565
 21
121.3666821469
  0
LINE
  5
4C5
100
AcDbEntity
  8
0
100
AcDbLine
 62
7
  6
CONTINUOUS
 10
171.2369183409
 20
124.350491873
 11
171.2228470357
 21
124.3835143742
  0
LINE
  5
4C6
100
AcDbEntity
  8
0
100
AcDbLine
 62
7
  6
CONTINUOUS
 10
171.2228470357
 20
124.3835143742
 11
171.2028221631
 21
124.4305119265
  0
LINE
  5
4C7
100
AcDbEntity
  8
0
100
AcDbLine
 62
7
  6
CONTINUOUS
 10
172.5477968071
 20
123.1539076188
 11
172.5107024875
 21
123.2388734674
  0
SPLINE
  5
4C8
100
AcDbEntity
  8
0
100
AcDbSpline
 62
7
  6
CONTINUOUS
 70
0
 71
3
 72
8
 73
4
 74
0
 42
0.0000001
 43
0.0000001
 44
0.0000000001
 40
0.0
 40
0.0
 40
0.0
 40
0.0
 40
1.0
 40
1.0
 40
1.0
 40
1.0
 10
172.5107024875
 20
123.2388734674
 30
0.0
 10
172.3373696906
 20
123.6359581054
 30
0.0
 10
172.1643424487
 20
124.0331762313
 30
0.0
 10
171.9915859335
 20
124.4305119265
 30
0.0
  0
LINE
  5
4C9
100
AcDbEntity
  8
0
100
AcDbLine
 62
7
  6
CONTINUOUS
 10
174.1668419693
 20
121.1113629688
 11
174.1352406949
 21
121.1964123455
  0
LINE
  5
4CA
100
AcDbEntity
  8
0
100
AcDbLine
 62
7
  6
CONTINUOUS
 10
174.1352406949
 20
121.1964123455
 11
174.0403529209
 21
121.4517885197
  0
LINE
  5
4CB
100
AcDbEntity
  8
0
100
AcDbLine
 62
7
  6
CONTINUOUS
 10
174.0403529209
 20
121.4517885197
 11
173.8812409674
 21
121.7908717882
  0
LINE
  5
4CC
100
AcDbEntity
  8
0
100
AcDbLine
 62
7
  6
CONTINUOUS
 10
174.0183649829
 20
122.4730651129
 11
173.9961653312
 21
122.5581080639
  0
LINE
  5
4CD
100
AcDbEntity
  8
0
100
AcDbLine
 62
7
  6
CONTINUOUS
 10
173.9961653312
 20
122.5581080639
 11
173.973953544
 21
122.6432778586
  0
SPLINE
  5
4CE
100
AcDbEntity
  8
0
100
AcDbSpline
 62
7
  6
CONTINUOUS
 70
0
 71
3
 72
8
 73
4
 74
0
 42
0.0000001
 43
0.0000001
 44
0.0000000001
 40
0.0
 40
0.0
 40
0.0
 40
0.0
 40
1.0
 40
1.0
 40
1.0
 40
1.0
 10
197.3936238393
 20
122.8134906042
 30
0.0
 10
197.2813860483
 20
122.558107925
 30
0.0
 10
197.1690076141
 20
122.3027870029
 30
0.0
 10
197.056476927
 20
122.0475332487
 30
0.0
  0
LINE
  5
4CF
100
AcDbEntity
  8
0
100
AcDbLine
 62
7
  6
CONTINUOUS
 10
196.8992197839
 20
121.6220012654
 11
196.8168198173
 21
121.3666821469
  0
LINE
  5
4D0
100
AcDbEntity
  8
0
100
AcDbLine
 62
7
  6
CONTINUOUS
 10
197.056476927
 20
122.0475332487
 11
196.8992197839
 21
121.6220012654
  0
SPLINE
  5
4D1
100
AcDbEntity
  8
0
100
AcDbSpline
 62
7
  6
CONTINUOUS
 70
0
 71
3
 72
8
 73
4
 74
0
 42
0.0000001
 43
0.0000001
 44
0.0000000001
 40
0.0
 40
0.0
 40
0.0
 40
0.0
 40
1.0
 40
1.0
 40
1.0
 40
1.0
 10
197.7434020163
 20
122.1326396216
 30
0.0
 10
197.6681000737
 20
121.9623626684
 30
0.0
 10
197.5926556139
 20
121.7921486621
 30
0.0
 10
197.5170613899
 20
121.6220012654
 30
0.0
  0
LINE
  5
4D2
100
AcDbEntity
  8
0
100
AcDbLine
 62
7
  6
CONTINUOUS
 10
197.99270323
 20
122.7283842314
 11
197.7434020163
 21
122.1326396216
  0
LINE
  5
4D3
100
AcDbEntity
  8
0
100
AcDbLine
 62
7
  6
CONTINUOUS
 10
198.1943764839
 20
123.2390224684
 11
197.99270323
 21
122.7283842314
  0
ELLIPSE
  5
4D4
100
AcDbEntity
  8
0
100
AcDbEllipse
 62
7
  6
CONTINUOUS
 10
184.8218297962
 20
124.7964463328
 30
0.0
 11
14.0975786714
 21
0.0
 31
0.0
 40
0.2279598157
 41
-2.4766226074
 42
-2.442507012
  0
ELLIPSE
  5
4D5
100
AcDbEntity
  8
0
100
AcDbEllipse
 62
7
  6
CONTINUOUS
 10
184.8218297962
 20
131.259112579
 30
0.0
 11
16.1537843477
 21
0.0
 31
0.0
 40
0.7096506269
 41
-2.3023138204
 42
-2.2911300065
  0
ELLIPSE
  5
4D6
100
AcDbEntity
  8
0
100
AcDbEllipse
 62
7
  6
CONTINUOUS
 10
184.8218297962
 20
121.8340981986
 30
0.0
 11
12.8759676939
 21
-0.0
 31
0.0
 40
0.2279598157
 41
2.6752177635
 42
2.7074241124
  0
ELLIPSE
  5
4D7
100
AcDbEntity
  8
0
100
AcDbEllipse
 62
7
  6
CONTINUOUS
 10
184.8218297962
 20
120.9499120055
 30
0.0
 11
12.0568903034
 21
0.0
 31
0.0
 40
0.70965945
 41
2.8913467378
 42
2.9118274282
  0
ELLIPSE
  5
4D8
100
AcDbEntity
  8
0
100
AcDbEllipse
 62
7
  6
CONTINUOUS
 10
184.8218297962
 20
158.1782601173
 30
0.0
 11
-0.0
 21
57.1654849211
 31
0.0
 40
0.2610032176
 41
-4.0472738556
 42
-4.0415849047
  0
ELLIPSE
  5
4D9
100
AcDbEntity
  8
0
100
AcDbEllipse
 62
7
  6
CONTINUOUS
 10
184.8218297962
 20
136.9716972636
 30
0.0
 11
-0.0
 21
19.6121050303
 31
0.0
 40
0.8872353151
 41
2.428935964
 42
2.4490827388
  0
ELLIPSE
  5
4DA
100
AcDbEntity
  8
0
100
AcDbEllipse
 62
7
  6
CONTINUOUS
 10
184.8218297962
 20
125.5034155411
 30
0.0
 11
14.2528567236
 21
-0.0
 31
0.0
 40
0.4061275948
 41
3.818561526
 42
3.9169156761
  0
ELLIPSE
  5
4DB
100
AcDbEntity
  8
0
100
AcDbEllipse
 62
7
  6
CONTINUOUS
 10
184.8218297962
 20
134.6916856147
 30
0.0
 11
16.918999246
 21
0.0
 31
0.0
 40
0.9797015264
 41
-2.2163617362
 42
-2.1990950976
  0
ELLIPSE
  5
4DC
100
AcDbEntity
  8
0
100
AcDbEllipse
 62
7
  6
CONTINUOUS
 10
184.8218297962
 20
117.7138155194
 30
0.0
 11
10.770875657
 21
0.0
 31
0.0
 40
0.7096506269
 41
2.705689429
 42
2.7179377816
  0
ELLIPSE
  5
4DD
100
AcDbEntity
  8
0
100
AcDbEllipse
 62
7
  6
CONTINUOUS
 10
184.8218297962
 20
118.7669507222
 30
0.0
 11
11.5462550223
 21
0.0
 31
0.0
 40
0.3438626989
 41
8.8706797334
 42
8.895695985
  0
ELLIPSE
  5
4DE
100
AcDbEntity
  8
0
100
AcDbEllipse
 62
7
  6
CONTINUOUS
 10
184.8218297962
 20
132.511013433
 30
0.0
 11
16.0820254931
 21
-0.0
 31
0.0
 40
0.9797016263
 41
3.9823334196
 42
3.9986825208
  0
ELLIPSE
  5
4DF
100
AcDbEntity
  8
0
100
AcDbEllipse
 62
7
  6
CONTINUOUS
 10
184.8218297962
 20
124.8022582662
 30
0.0
 11
13.9101262653
 21
0.0
 31
0.0
 40
0.4621421851
 41
-2.429282965
 42
-2.4116557467
  0
ELLIPSE
  5
4E0
100
AcDbEntity
  8
0
100
AcDbEllipse
 62
7
  6
CONTINUOUS
 10
184.8218297962
 20
122.3349782166
 30
0.0
 11
13.0825202226
 21
-0.0
 31
0.0
 40
0.2279598359
 41
-2.4854628653
 42
-2.4489253055
  0
ELLIPSE
  5
4E1
100
AcDbEntity
  8
0
100
AcDbEllipse
 62
7
  6
CONTINUOUS
 10
184.8218297962
 20
129.225068567
 30
0.0
 11
15.3454465231
 21
-0.0
 31
0.0
 40
0.7096550384
 41
-2.5023661361
 42
-2.4827462883
  0
ELLIPSE
  5
4E2
100
AcDbEntity
  8
0
100
AcDbEllipse
 62
7
  6
CONTINUOUS
 10
184.8218297962
 20
240.9857987301
 30
0.0
 11
0.0
 21
127.2259838611
 31
0.0
 40
0.2609927077
 41
-3.5156714011
 42
-3.5101405311
  0
ELLIPSE
  5
4E3
100
AcDbEntity
  8
0
100
AcDbEllipse
 62
7
  6
CONTINUOUS
 10
184.8218297962
 20
120.4842653248
 30
0.0
 11
11.4659858658
 21
0.0
 31
0.0
 40
0.9797015264
 41
3.0857384561
 42
3.1009088613
  0
ELLIPSE
  5
4E4
100
AcDbEntity
  8
0
100
AcDbEllipse
 62
7
  6
CONTINUOUS
 10
184.8218297962
 20
119.7655334221
 30
0.0
 11
11.9557487526
 21
0.0
 31
0.0
 40
0.3438625761
 41
2.8515853621
 42
2.8731213837
  0
ELLIPSE
  5
4E5
100
AcDbEntity
  8
0
100
AcDbEllipse
 62
7
  6
CONTINUOUS
 10
184.8218297962
 20
122.1968580147
 30
0.0
 11
12.9527753173
 21
0.0
 31
0.0
 40
0.3438605686
 41
2.9250251698
 42
2.9445495735
  0
ELLIPSE
  5
4E6
100
AcDbEntity
  8
0
100
AcDbEllipse
 62
7
  6
CONTINUOUS
 10
184.8218297962
 20
122.614201123
 30
0.0
 11
12.7182790833
 21
-0.0
 31
0.0
 40
0.70965945
 41
9.3743881056
 42
9.383827376
  0
ELLIPSE
  5
4E7
100
AcDbEntity
  8
0
100
AcDbEllipse
 62
7
  6
CONTINUOUS
 10
184.8218297962
 20
129.5383359693
 30
0.0
 11
-0.0
 21
21.9567660964
 31
0.0
 40
0.6064072719
 41
-4.4092426953
 42
-4.4011097114
  0
ELLIPSE
  5
4E8
100
AcDbEntity
  8
0
100
AcDbEllipse
 62
7
  6
CONTINUOUS
 10
184.8218297962
 20
143.1432104312
 30
0.0
 11
-0.0
 21
29.6304290708
 31
0.0
 40
0.606407194
 41
2.4265173081
 42
2.4353233194
  0
ELLIPSE
  5
4E9
100
AcDbEntity
  8
0
100
AcDbEllipse
 62
7
  6
CONTINUOUS
 10
184.8218297962
 20
126.358861736
 30
0.0
 11
14.2064077438
 21
-0.0
 31
0.0
 40
0.7096595175
 41
3.7494948304
 42
3.7598161462
  0
ELLIPSE
  5
4EA
100
AcDbEntity
  8
0
100
AcDbEllipse
 62
7
  6
CONTINUOUS
 10
184.8218297962
 20
122.6527244596
 30
0.0
 11
13.1397146785
 21
0.0
 31
0.0
 40
0.3438605993
 41
-2.6489041942
 42
-2.6273994713
  0
ELLIPSE
  5
4EB
100
AcDbEntity
  8
0
100
AcDbEllipse
 62
7
  6
CONTINUOUS
 10
184.8218297962
 20
121.0756222912
 30
0.0
 11
12.5631879389
 21
-0.0
 31
0.0
 40
0.2279598359
 41
-2.9447858373
 42
-2.9143871603
  0
ELLIPSE
  5
4EC
100
AcDbEntity
  8
0
100
AcDbEllipse
 62
7
  6
CONTINUOUS
 10
184.8218297962
 20
125.5658173771
 30
0.0
 11
13.624634922
 21
0.0
 31
0.0
 40
0.8682520127
 41
-2.7242545892
 42
-2.7005180464
  0
ELLIPSE
  5
4ED
100
AcDbEntity
  8
0
100
AcDbEllipse
 62
7
  6
CONTINUOUS
 10
184.8218297962
 20
136.7774634817
 30
0.0
 11
0.0
 21
26.0398097185
 31
0.0
 40
0.6064105606
 41
-4.0627619141
 42
-4.0503904733
  0
ELLIPSE
  5
4EE
100
AcDbEntity
  8
0
100
AcDbEllipse
 62
7
  6
CONTINUOUS
 10
184.8218297962
 20
137.7759722091
 30
0.0
 11
-0.0
 21
26.6030009704
 31
0.0
 40
0.6064106644
 41
-4.1720240695
 42
-4.1607939981
  0
ELLIPSE
  5
4EF
100
AcDbEntity
  8
0
100
AcDbEllipse
 62
7
  6
CONTINUOUS
 10
184.8218297962
 20
127.5265479368
 30
0.0
 11
14.38887454
 21
0.0
 31
0.0
 40
0.8682519268
 41
-2.8841270014
 42
-2.8629329933
  0
ELLIPSE
  5
4F0
100
AcDbEntity
  8
0
100
AcDbEllipse
 62
7
  6
CONTINUOUS
 10
184.8218297962
 20
124.3528099018
 30
0.0
 11
13.9146322014
 21
-0.0
 31
0.0
 40
0.2279598157
 41
3.1170938006
 42
3.1439269564
  0
ELLIPSE
  5
4F1
100
AcDbEntity
  8
0
100
AcDbEllipse
 62
7
  6
CONTINUOUS
 10
184.8218297962
 20
124.093405209
 30
0.0
 11
13.8345626851
 21
-0.0
 31
0.0
 40
0.1706373825
 41
0.1069522193
 42
0.1432896956
  0
ELLIPSE
  5
4F2
100
AcDbEntity
  8
0
100
AcDbEllipse
 62
7
  6
CONTINUOUS
 10
184.8218297962
 20
125.0582326877
 30
0.0
 11
13.8014567309
 21
0.0
 31
0.0
 40
0.6335116597
 41
-0.1109565436
 42
-0.0816181914
  0
ELLIPSE
  5
4F3
100
AcDbEntity
  8
0
100
AcDbEllipse
 62
7
  6
CONTINUOUS
 10
184.8218297962
 20
128.8475597511
 30
0.0
 11
0.0
 21
16.1752950617
 31
0.0
 40
0.8872399419
 41
-1.8858886332
 42
-1.8693307008
  0
ELLIPSE
  5
4F4
100
AcDbEntity
  8
0
100
AcDbEllipse
 62
7
  6
CONTINUOUS
 10
184.8218297962
 20
194.6409392936
 30
0.0
 11
-0.0
 21
88.0153689492
 31
0.0
 40
0.2609953352
 41
3.7710571402
 42
3.7775977466
  0
ELLIPSE
  5
4F5
100
AcDbEntity
  8
0
100
AcDbEllipse
 62
7
  6
CONTINUOUS
 10
184.8218297962
 20
210.5128278097
 30
0.0
 11
-0.0
 21
101.4438605218
 31
0.0
 40
0.2609951744
 41
3.6320256433
 42
3.6391035176
  0
ELLIPSE
  5
4F6
100
AcDbEntity
  8
0
100
AcDbEllipse
 62
7
  6
CONTINUOUS
 10
184.8218297962
 20
129.8841188615
 30
0.0
 11
-0.0
 21
16.6137890424
 31
0.0
 40
0.8872398157
 41
-2.1514028696
 42
-2.1331315533
  0
ELLIPSE
  5
4F7
100
AcDbEntity
  8
0
100
AcDbEllipse
 62
7
  6
CONTINUOUS
 10
184.8218297962
 20
124.1849522553
 30
0.0
 11
13.4515776096
 21
0.0
 31
0.0
 40
0.6335117189
 41
5.838043953
 42
5.8709869533
  0
ELLIPSE
  5
4F8
100
AcDbEntity
  8
0
100
AcDbEllipse
 62
7
  6
CONTINUOUS
 10
184.8218297962
 20
121.0855457208
 30
0.0
 11
12.5917669403
 21
-0.0
 31
0.0
 40
0.1706373975
 41
-0.3097931719
 42
-0.2684652654
  0
ELLIPSE
  5
4F9
100
AcDbEntity
  8
0
100
AcDbEllipse
 62
7
  6
CONTINUOUS
 10
184.8218297962
 20
132.3737816403
 30
0.0
 11
0.0
 21
26.500475573
 31
0.0
 40
0.5045254238
 41
-2.0097463963
 42
-1.9885630748
  0
ELLIPSE
  5
4FA
100
AcDbEntity
  8
0
100
AcDbEllipse
 62
7
  6
CONTINUOUS
 10
184.8218297962
 20
121.0654844315
 30
0.0
 11
12.1028230438
 21
-0.0
 31
0.0
 40
0.7096563251
 41
-0.0144767489
 42
0.0053416677
  0
ELLIPSE
  5
4FB
100
AcDbEntity
  8
0
100
AcDbEllipse
 62
7
  6
CONTINUOUS
 10
184.8218297962
 20
120.4654924021
 30
0.0
 11
12.3220066469
 21
-0.0
 31
0.0
 40
0.2049902984
 41
0.1552420369
 42
0.1894439514
  0
ELLIPSE
  5
4FC
100
AcDbEntity
  8
0
100
AcDbEllipse
 62
7
  6
CONTINUOUS
 10
184.8218297962
 20
124.8543550324
 30
0.0
 11
14.133414973
 21
0.0
 31
0.0
 40
0.2049902984
 41
5.9547684234
 42
5.9856448003
  0
ELLIPSE
  5
4FD
100
AcDbEntity
  8
0
100
AcDbEllipse
 62
7
  6
CONTINUOUS
 10
184.8218297962
 20
129.2944317972
 30
0.0
 11
15.3730092795
 21
0.0
 31
0.0
 40
0.7096563251
 41
-0.5331505218
 42
-0.5151288091
  0
ELLIPSE
  5
4FE
100
AcDbEntity
  8
0
100
AcDbEllipse
 62
7
  6
CONTINUOUS
 10
184.8218297962
 20
155.38289591
 30
0.0
 11
0.0
 21
41.1006924503
 31
0.0
 40
0.504525128
 41
3.8143984834
 42
3.8340928827
  0
ELLIPSE
  5
4FF
100
AcDbEntity
  8
0
100
AcDbEllipse
 62
7
  6
CONTINUOUS
 10
184.8218297962
 20
165.9171353332
 30
0.0
 11
0.0
 21
58.4039763945
 31
0.0
 40
0.3371649734
 41
3.8055321769
 42
3.8195260973
  0
ELLIPSE
  5
500
100
AcDbEntity
  8
0
100
AcDbEllipse
 62
7
  6
CONTINUOUS
 10
184.8218297962
 20
133.2861318602
 30
0.0
 11
0.0
 21
21.0617504779
 31
0.0
 40
0.7299505483
 41
-2.0361573279
 42
-2.0047483878
  0
ELLIPSE
  5
501
100
AcDbEntity
  8
0
100
AcDbEllipse
 62
7
  6
CONTINUOUS
 10
184.8218297962
 20
120.0668951537
 30
0.0
 11
11.6310287541
 21
0.0
 31
0.0
 40
0.1706373975
 41
0.1842517562
 42
0.2280644182
  0
ELLIPSE
  5
502
100
AcDbEntity
  8
0
100
AcDbEllipse
 62
7
  6
CONTINUOUS
 10
184.8218297962
 20
120.487608494
 30
0.0
 11
11.8731825495
 21
-0.0
 31
0.0
 40
0.7096506269
 41
2.8724118467
 42
2.8828749329
  0
ELLIPSE
  5
503
100
AcDbEntity
  8
0
100
AcDbEllipse
 62
7
  6
CONTINUOUS
 10
184.8218297962
 20
121.0246085806
 30
0.0
 11
12.472063806
 21
-0.0
 31
0.0
 40
0.3438625761
 41
2.7113211764
 42
2.7330491629
  0
ELLIPSE
  5
504
100
AcDbEntity
  8
0
100
AcDbEllipse
 62
7
  6
CONTINUOUS
 10
184.8218297962
 20
136.7401965707
 30
0.0
 11
17.7052473772
 21
0.0
 31
0.0
 40
0.9797015264
 41
-2.2257587949
 42
-2.2094758081
  0
ELLIPSE
  5
505
100
AcDbEntity
  8
0
100
AcDbEllipse
 62
7
  6
CONTINUOUS
 10
184.8218297962
 20
127.9195404858
 30
0.0
 11
15.1783202471
 21
-0.0
 31
0.0
 40
0.4621421431
 41
-2.3779945731
 42
-2.3610602008
  0
ELLIPSE
  5
506
100
AcDbEntity
  8
0
100
AcDbEllipse
 62
7
  6
CONTINUOUS
 10
184.8218297962
 20
125.139907024
 30
0.0
 11
14.2392147424
 21
0.0
 31
0.0
 40
0.2279598157
 41
-2.4832167295
 42
-2.4496267656
  0
ELLIPSE
  5
507
100
AcDbEntity
  8
0
100
AcDbEllipse
 62
7
  6
CONTINUOUS
 10
184.8218297962
 20
125.099001273
 30
0.0
 11
13.7102083449
 21
0.0
 31
0.0
 40
0.1706373825
 41
-0.3279699537
 42
-0.2897821147
  0
ELLIPSE
  5
508
100
AcDbEntity
  8
0
100
AcDbEllipse
 62
7
  6
CONTINUOUS
 10
184.8218297962
 20
122.6784395189
 30
0.0
 11
13.2241565146
 21
0.0
 31
0.0
 40
0.2279598963
 41
-2.4924197603
 42
-2.4564811311
  0
ELLIPSE
  5
509
100
AcDbEntity
  8
0
100
AcDbEllipse
 62
7
  6
CONTINUOUS
 10
184.8218297962
 20
128.4853196044
 30
0.0
 11
15.0514774552
 21
0.0
 31
0.0
 40
0.7096506269
 41
-2.3573382446
 42
-2.3460187816
  0
ELLIPSE
  5
50A
100
AcDbEntity
  8
0
100
AcDbEllipse
 62
7
  6
CONTINUOUS
 10
184.8218297962
 20
128.8434454936
 30
0.0
 11
14.7945254726
 21
-0.0
 31
0.0
 40
0.6335117565
 41
-0.5318862307
 42
-0.5005619351
  0
ELLIPSE
  5
50B
100
AcDbEntity
  8
0
100
AcDbEllipse
 62
7
  6
CONTINUOUS
 10
184.8218297962
 20
118.9719252062
 30
0.0
 11
11.6956668597
 21
-0.0
 31
0.0
 40
0.2279598359
 41
2.5240925121
 42
2.5627235947
  0
ELLIPSE
  5
50C
100
AcDbEntity
  8
0
100
AcDbEllipse
 62
7
  6
CONTINUOUS
 10
184.8218297962
 20
117.2515012057
 30
0.0
 11
10.5871410989
 21
0.0
 31
0.0
 40
0.7096595513
 41
2.6668583614
 42
2.6921682424
  0
ELLIPSE
  5
50D
100
AcDbEntity
  8
0
100
AcDbEllipse
 62
7
  6
CONTINUOUS
 10
184.8218297962
 20
137.815500761
 30
0.0
 11
0.0
 21
39.9376446725
 31
0.0
 40
0.2610031104
 41
-4.2761679324
 42
-4.2691027709
  0
ELLIPSE
  5
50E
100
AcDbEntity
  8
0
100
AcDbEllipse
 62
7
  6
CONTINUOUS
 10
184.8218297962
 20
138.3192176314
 30
0.0
 11
-0.0
 21
20.1821349623
 31
0.0
 40
0.8872358196
 41
-3.7455236303
 42
-3.7228728322
  0
ELLIPSE
  5
50F
100
AcDbEntity
  8
0
100
AcDbEllipse
 62
7
  6
CONTINUOUS
 10
184.8218297962
 20
125.843180331
 30
0.0
 11
14.3916417418
 21
-0.0
 31
0.0
 40
0.4061277118
 41
-2.4537913191
 42
-2.3554336042
  0
ELLIPSE
  5
510
100
AcDbEntity
  8
0
100
AcDbEllipse
 62
7
  6
CONTINUOUS
 10
184.8218297962
 20
134.559522692
 30
0.0
 11
16.8682732048
 21
0.0
 31
0.0
 40
0.9797015264
 41
-2.3060426828
 42
-2.2905542922
  0
ELLIPSE
  5
511
100
AcDbEntity
  8
0
100
AcDbEllipse
 62
7
  6
CONTINUOUS
 10
184.8218297962
 20
172.4065875252
 30
0.0
 11
-0.0
 21
69.2041060316
 31
0.0
 40
0.2609927077
 41
-3.9063651683
 42
-3.9010216859
  0
ELLIPSE
  5
512
100
AcDbEntity
  8
0
100
AcDbEllipse
 62
7
  6
CONTINUOUS
 10
184.8218297962
 20
123.2596686514
 30
0.0
 11
12.5312258014
 21
0.0
 31
0.0
 40
0.9797015264
 41
-3.091364012
 42
-3.0774766935
  0
ELLIPSE
  5
513
100
AcDbEntity
  8
0
100
AcDbEllipse
 62
7
  6
CONTINUOUS
 10
184.8218297962
 20
121.762693474
 30
0.0
 11
12.7747353389
 21
-0.0
 31
0.0
 40
0.3438605686
 41
2.9199437183
 42
2.9397610007
  0
ELLIPSE
  5
514
100
AcDbEntity
  8
0
100
AcDbEllipse
 62
7
  6
CONTINUOUS
 10
184.8218297962
 20
135.9223471028
 30
0.0
 11
0.0
 21
18.6154094378
 31
0.0
 40
0.887239813
 41
-2.2775019815
 42
-2.2596031041
  0
ELLIPSE
  5
515
100
AcDbEntity
  8
0
100
AcDbEllipse
 62
7
  6
CONTINUOUS
 10
184.8218297962
 20
233.8736862855
 30
0.0
 11
0.0
 21
120.1028482478
 31
0.0
 40
0.2609962384
 41
-2.7364348037
 42
-2.7293029945
  0
ELLIPSE
  5
516
100
AcDbEntity
  8
0
100
AcDbEllipse
 62
7
  6
CONTINUOUS
 10
184.8218297962
 20
123.0868888057
 30
0.0
 11
13.3177546004
 21
-0.0
 31
0.0
 40
0.3438605686
 41
-2.6539347696
 42
-2.6327779081
  0
ELLIPSE
  5
517
100
AcDbEntity
  8
0
100
AcDbEllipse
 62
7
  6
CONTINUOUS
 10
184.8218297962
 20
130.5946608861
 30
0.0
 11
15.3465019025
 21
-0.0
 31
0.0
 40
0.9797015264
 41
-2.4590752693
 42
-2.4443978981
  0
ELLIPSE
  5
518
100
AcDbEntity
  8
0
100
AcDbEllipse
 62
7
  6
CONTINUOUS
 10
184.8218297962
 20
228.2583959105
 30
0.0
 11
0.0
 21
116.4579109417
 31
0.0
 40
0.2609924933
 41
-3.5497417398
 42
-3.5441823892
  0
ELLIPSE
  5
519
100
AcDbEntity
  8
0
100
AcDbEllipse
 62
7
  6
CONTINUOUS
 10
184.8218297962
 20
133.997834974
 30
0.0
 11
16.6526893353
 21
-0.0
 31
0.0
 40
0.9797015264
 41
-2.4075325104
 42
-2.3933897318
  0
ELLIPSE
  5
51A
100
AcDbEntity
  8
0
100
AcDbEllipse
 62
7
  6
CONTINUOUS
 10
184.8218297962
 20
125.5616266218
 30
0.0
 11
14.3325824504
 21
-0.0
 31
0.0
 40
0.3438605686
 41
-2.631180417
 42
-2.6112771809
  0
ELLIPSE
  5
51B
100
AcDbEntity
  8
0
100
AcDbEllipse
 62
7
  6
CONTINUOUS
 10
184.8218297962
 20
119.2879555459
 30
0.0
 11
11.7599074221
 21
-0.0
 31
0.0
 40
0.3438605993
 41
2.8331305288
 42
2.8551439678
  0
ELLIPSE
  5
51C
100
AcDbEntity
  8
0
100
AcDbEllipse
 62
7
  6
CONTINUOUS
 10
184.8218297962
 20
119.8564950344
 30
0.0
 11
11.2250383066
 21
0.0
 31
0.0
 40
0.9797016762
 41
3.0661075301
 42
3.0816210966
  0
ELLIPSE
  5
51D
100
AcDbEntity
  8
0
100
AcDbEllipse
 62
7
  6
CONTINUOUS
 10
184.8218297962
 20
131.9038565604
 30
0.0
 11
0.0
 21
29.1137627776
 31
0.0
 40
0.4166302622
 41
-4.3326255703
 42
-4.3168377405
  0
ELLIPSE
  5
51E
100
AcDbEntity
  8
0
100
AcDbEllipse
 62
7
  6
CONTINUOUS
 10
184.8218297962
 20
148.8844441592
 30
0.0
 11
0.0
 21
32.868572634
 31
0.0
 40
0.6064106644
 41
-3.8006030453
 42
-3.7878113924
  0
ELLIPSE
  5
51F
100
AcDbEntity
  8
0
100
AcDbEllipse
 62
7
  6
CONTINUOUS
 10
184.8218297962
 20
165.9028801035
 30
0.0
 11
0.0
 21
57.3796447843
 31
0.0
 40
0.33716457
 41
-2.5003981942
 42
-2.4856660818
  0
ELLIPSE
  5
520
100
AcDbEntity
  8
0
100
AcDbEllipse
 62
7
  6
CONTINUOUS
 10
184.8218297962
 20
133.7826724935
 30
0.0
 11
16.0686291016
 21
-0.0
 31
0.0
 40
0.9797015264
 41
-2.3930509104
 42
-2.3869439381
  0
ELLIPSE
  5
521
100
AcDbEntity
  8
0
100
AcDbEllipse
 62
7
  6
CONTINUOUS
 10
184.8218297962
 20
125.5351206503
 30
0.0
 11
13.7859243463
 21
0.0
 31
0.0
 40
0.3438605686
 41
-2.6153156144
 42
-2.5944244874
  0
ELLIPSE
  5
522
100
AcDbEntity
  8
0
100
AcDbEllipse
 62
7
  6
CONTINUOUS
 10
184.8218297962
 20
119.2614495696
 30
0.0
 11
11.2132493171
 21
0.0
 31
0.0
 40
0.3438605993
 41
2.8102969439
 42
2.8335476773
  0
ELLIPSE
  5
523
100
AcDbEntity
  8
0
100
AcDbEllipse
 62
7
  6
CONTINUOUS
 10
184.8218297962
 20
119.6413324881
 30
0.0
 11
10.6409780603
 21
0.0
 31
0.0
 40
0.9797016762
 41
3.0453302525
 42
3.057629559
  0
ELLIPSE
  5
524
100
AcDbEntity
  8
0
100
AcDbEllipse
 62
7
  6
CONTINUOUS
 10
184.8218297962
 20
120.3747151975
 30
0.0
 11
11.3090898307
 21
0.0
 31
0.0
 40
0.7096506269
 41
2.8439433139
 42
2.8550169651
  0
ELLIPSE
  5
525
100
AcDbEntity
  8
0
100
AcDbEllipse
 62
7
  6
CONTINUOUS
 10
184.8218297962
 20
136.5250340901
 30
0.0
 11
17.1211871435
 21
-0.0
 31
0.0
 40
0.9797015264
 41
-2.2020341255
 42
-2.1846309398
  0
ELLIPSE
  5
526
100
AcDbEntity
  8
0
100
AcDbEllipse
 62
7
  6
CONTINUOUS
 10
184.8218297962
 20
127.871663134
 30
0.0
 11
14.6272976329
 21
-0.0
 31
0.0
 40
0.4621421431
 41
-2.3513944487
 42
-2.3333379861
  0
ELLIPSE
  5
527
100
AcDbEntity
  8
0
100
AcDbEllipse
 62
7
  6
CONTINUOUS
 10
184.8218297962
 20
125.1282578384
 30
0.0
 11
13.6956113708
 21
-0.0
 31
0.0
 40
0.2279598157
 41
-2.4569625364
 42
-2.4212445945
  0
ELLIPSE
  5
528
100
AcDbEntity
  8
0
100
AcDbEllipse
 62
7
  6
CONTINUOUS
 10
184.8218297962
 20
122.666790325
 30
0.0
 11
12.6805531413
 21
0.0
 31
0.0
 40
0.2279598963
 41
-2.4646492786
 42
-2.4591771322
  0
ELLIPSE
  5
529
100
AcDbEntity
  8
0
100
AcDbEllipse
 62
7
  6
CONTINUOUS
 10
184.8218297962
 20
128.3724263079
 30
0.0
 11
14.4873847364
 21
-0.0
 31
0.0
 40
0.7096506269
 41
-2.3337214173
 42
-2.3216659921
  0
ELLIPSE
  5
52A
100
AcDbEntity
  8
0
100
AcDbEllipse
 62
7
  6
CONTINUOUS
 10
184.8218297962
 20
118.9602760185
 30
0.0
 11
11.1520634876
 21
0.0
 31
0.0
 40
0.2279598359
 41
2.4832532613
 42
2.5249162114
  0
ELLIPSE
  5
52B
100
AcDbEntity
  8
0
100
AcDbEllipse
 62
7
  6
CONTINUOUS
 10
184.8218297962
 20
117.1386050698
 30
0.0
 11
10.0230478159
 21
-0.0
 31
0.0
 40
0.7096595513
 41
2.6194948203
 42
2.6468904188
  0
ELLIPSE
  5
52C
100
AcDbEntity
  8
0
100
AcDbEllipse
 62
7
  6
CONTINUOUS
 10
184.8218297962
 20
134.524805943
 30
0.0
 11
0.0
 21
36.0481495429
 31
0.0
 40
0.2610031104
 41
-4.3260283937
 42
-4.3183700241
  0
ELLIPSE
  5
52D
100
AcDbEntity
  8
0
100
AcDbEllipse
 62
7
  6
CONTINUOUS
 10
184.8218297962
 20
138.0344433011
 30
0.0
 11
0.0
 21
19.5089544422
 31
0.0
 40
0.8872358196
 41
-3.720766801
 42
-3.6963994533
  0
ELLIPSE
  5
52E
100
AcDbEntity
  8
0
100
AcDbEllipse
 62
7
  6
CONTINUOUS
 10
184.8218297962
 20
125.8062056682
 30
0.0
 11
13.8428413616
 21
0.0
 31
0.0
 40
0.4061277118
 41
-2.4294840848
 42
-2.3245539084
  0
ELLIPSE
  5
52F
100
AcDbEntity
  8
0
100
AcDbEllipse
 62
7
  6
CONTINUOUS
 10
184.8218297962
 20
134.3443602115
 30
0.0
 11
16.2842129712
 21
0.0
 31
0.0
 40
0.9797015264
 41
-2.2862741592
 42
-2.2698537509
  0
ELLIPSE
  5
530
100
AcDbEntity
  8
0
100
AcDbEllipse
 62
7
  6
CONTINUOUS
 10
184.8218297962
 20
164.6971861847
 30
0.0
 11
0.0
 21
61.5758661381
 31
0.0
 40
0.2609960776
 41
-2.3591896774
 42
-2.3513782098
  0
ELLIPSE
  5
531
100
AcDbEntity
  8
0
100
AcDbEllipse
 62
7
  6
CONTINUOUS
 10
184.8218297962
 20
122.2397906894
 30
0.0
 11
0.0
 21
12.8273253851
 31
0.0
 40
0.8872396869
 41
-1.6855577706
 42
-1.6655434086
  0
ELLIPSE
  5
532
100
AcDbEntity
  8
0
100
AcDbEllipse
 62
7
  6
CONTINUOUS
 10
184.8218297962
 20
237.1645543929
 30
0.0
 11
0.0
 21
123.992519094
 31
0.0
 40
0.2609962384
 41
-2.7306647827
 42
-2.723844991
  0
ELLIPSE
  5
533
100
AcDbEntity
  8
0
100
AcDbEllipse
 62
7
  6
CONTINUOUS
 10
184.8218297962
 20
136.2071188697
 30
0.0
 11
0.0
 21
19.2885863857
 31
0.0
 40
0.887239813
 41
-2.2671620817
 42
-2.2500300676
  0
ELLIPSE
  5
534
100
AcDbEntity
  8
0
100
AcDbEllipse
 62
7
  6
CONTINUOUS
 10
184.8218297962
 20
128.9334135484
 30
0.0
 11
15.3540443967
 21
0.0
 31
0.0
 40
0.6335117565
 41
-0.5212075962
 42
-0.4911941241
  0
ELLIPSE
  5
535
100
AcDbEntity
  8
0
100
AcDbEllipse
 62
7
  6
CONTINUOUS
 10
184.8218297962
 20
125.1055284793
 30
0.0
 11
14.2527545896
 21
0.0
 31
0.0
 40
0.1706373825
 41
-0.3178697795
 42
-0.2812431073
  0
ELLIPSE
  5
536
100
AcDbEntity
  8
0
100
AcDbEllipse
 62
7
  6
CONTINUOUS
 10
184.8218297962
 20
120.2198042771
 30
0.0
 11
11.3394711395
 21
0.0
 31
0.0
 40
0.6335118158
 41
0.0411902153
 42
0.0767955392
  0
ELLIPSE
  5
537
100
AcDbEntity
  8
0
100
AcDbEllipse
 62
7
  6
CONTINUOUS
 10
184.8218297962
 20
120.073422361
 30
0.0
 11
12.173574999
 21
0.0
 31
0.0
 40
0.1706373975
 41
0.1727616434
 42
0.2145153306
  0
ELLIPSE
  5
538
100
AcDbEntity
  8
0
100
AcDbEllipse
 62
7
  6
CONTINUOUS
 10
184.8218297962
 20
120.3097723488
 30
0.0
 11
11.898990067
 21
-0.0
 31
0.0
 40
0.6335118158
 41
0.027310617
 42
0.0612157096
  0
ELLIPSE
  5
539
100
AcDbEntity
  8
0
100
AcDbEllipse
 62
7
  6
CONTINUOUS
 10
184.8218297962
 20
122.5245625372
 30
0.0
 11
0.0
 21
13.5005024458
 31
0.0
 40
0.8872396869
 41
-1.7010577146
 42
-1.6820069181
  0
ELLIPSE
  5
53A
100
AcDbEntity
  8
0
100
AcDbEllipse
 62
7
  6
CONTINUOUS
 10
184.8218297962
 20
167.988058347
 30
0.0
 11
-0.0
 21
65.465541096
 31
0.0
 40
0.2609960776
 41
-2.3707896858
 42
-2.3633543396
  0
ELLIPSE
  5
53B
100
AcDbEntity
  8
0
100
AcDbEllipse
 62
7
  6
CONTINUOUS
 10
184.8218297962
 20
121.6827160368
 30
0.0
 11
12.8243894309
 21
-0.0
 31
0.0
 40
0.2049902984
 41
-0.3198861491
 42
-0.2859664729
  0
ELLIPSE
  5
53C
100
AcDbEntity
  8
0
100
AcDbEllipse
 62
7
  6
CONTINUOUS
 10
184.8218297962
 20
125.4419259554
 30
0.0
 11
13.8420225481
 21
0.0
 31
0.0
 40
0.7096561413
 41
-0.4759509717
 42
-0.4565522252
  0
ELLIPSE
  5
53D
100
AcDbEntity
  8
0
100
AcDbEllipse
 62
7
  6
CONTINUOUS
 10
184.8218297962
 20
147.5469672176
 30
0.0
 11
0.0
 21
36.1284746266
 31
0.0
 40
0.5045252727
 41
-2.3916252009
 42
-2.3711135944
  0
ELLIPSE
  5
53E
100
AcDbEntity
  8
0
100
AcDbEllipse
 62
7
  6
CONTINUOUS
 10
184.8218297962
 20
140.2097235376
 30
0.0
 11
-0.0
 21
31.4727104922
 31
0.0
 40
0.504524977
 41
-2.1403064532
 42
-2.1211570937
  0
ELLIPSE
  5
53F
100
AcDbEntity
  8
0
100
AcDbEllipse
 62
7
  6
CONTINUOUS
 10
184.8218297962
 20
124.9179874246
 30
0.0
 11
13.6338092092
 21
0.0
 31
0.0
 40
0.7096561413
 41
-0.12104871
 42
-0.1033446938
  0
ELLIPSE
  5
540
100
AcDbEntity
  8
0
100
AcDbEllipse
 62
7
  6
CONTINUOUS
 10
184.8218297962
 20
123.6371313977
 30
0.0
 11
13.6310321891
 21
-0.0
 31
0.0
 40
0.2049902984
 41
0.1013614103
 42
0.1320290851
  0
ELLIPSE
  5
541
100
AcDbEntity
  8
0
100
AcDbEllipse
 62
7
  6
CONTINUOUS
 10
184.8218297962
 20
167.8748265199
 30
0.0
 11
0.0
 21
59.922290026
 31
0.0
 40
0.33716457
 41
-2.4985678925
 42
-2.47294808
  0
ENDSEC
  0
SECTION
  2
OBJECTS
  0
DICTIONARY
  5
C
100
AcDbDictionary
280
0
281
1
  3
ACAD_GROUP
350
D
  3
ACAD_MLINESTYLE
350
17
  3
ACAD_LAYOUT
350
1A
  3
ACAD_PLOTSETTINGS
350
19
  3
ACAD_PLOTSTYLENAME
350
E
  0
DICTIONARY
  5
D
102
{ACAD_REACTORS
330
C
102
}
100
AcDbDictionary
280
0
281
1
  0
ACDBDICTIONARYWDFLT
  5
E
102
{ACAD_REACTORS
330
C
102
}
100
AcDbDictionary
281
1
  3
Normal
350
F
100
AcDbDictionaryWithDefault
340
F
  0
DICTIONARY
  5
17
102
{ACAD_REACTORS
330
C
102
}
100
AcDbDictionary
280
0
281
1
  3
Standard
350
18
  0
DICTIONARY
  5
19
102
{ACAD_REACTORS
330
C
102
}
100
AcDbDictionary
281
1
  0
DICTIONARY
  5
1A
102
{ACAD_REACTORS
330
C
102
}
100
AcDbDictionary
281
1
  3
Model
350
542
  3
Layout1
350
543
  0
ACDBPLACEHOLDER
  5
F
102
{ACAD_REACTORS
330
E
102
}
  0
MLINESTYLE
  5
18
102
{ACAD_REACTORS
330
17
102
}
100
AcDbMlineStyle
  2
STANDARD
 70
0
  3

 62
256
 51
90.0
 52
90.0
 71
2
 49
0.5
 62
256
  6
BYLAYER
 49
-0.5
 62
256
  6
BYLAYER
  0
LAYOUT
  5
542
102
{ACAD_REACTORS
330
1A
102
}
100
AcDbPlotSettings
  1

  2
none_device
  4
ISO_A4_(297.00_x_210.00_MM)
  6

 40
0.0
 41
0.0
 42
0.0
 43
0.0
 44
297.0
 45
210.0
 46
0.0
 47
0.0
 48
0.0
 49
0.0
140
0.0
141
0.0
142
1.0
143
1.0
 70
1024
 72
1
 73
0
 74
0
  7

 75
0
147
1.0
148
0.0
149
0.0
100
AcDbLayout
  1
Model
 70
0
 71
0
 10
0.0
 20
0.0
 11
297.0
 21
210.0
 12
0.0
 22
0.0
 32
0.0
 14
0.0
 24
0.0
 34
0.0
 15
0.0
 25
0.0
 35
0.0
146
0.0
 13
0.0
 23
0.0
 33
0.0
 16
1.0
 26
0.0
 36
0.0
 17
0.0
 27
1.0
 37
0.0
 76
0
330
20F
345
0
346
0
  0
LAYOUT
  5
543
102
{ACAD_REACTORS
330
1A
102
}
100
AcDbPlotSettings
  1

  2
none_device
  4
ISO_A4_(297.00_x_210.00_MM)
  6

 40
0.0
 41
0.0
 42
0.0
 43
0.0
 44
297.0
 45
210.0
 46
0.0
 47
0.0
 48
0.0
 49
0.0
140
0.0
141
0.0
142
1.0
143
1.0
 70
0
 72
1
 73
0
 74
0
  7

 75
0
147
1.0
148
0.0
149
0.0
100
AcDbLayout
  1
Layout1
 70
0
 71
1
 10
0.0
 20
0.0
 11
297.0
 21
210.0
 12
0.0
 22
0.0
 32
0.0
 14
0.0
 24
0.0
 34
0.0
 15
0.0
 25
0.0
 35
0.0
146
0.0
 13
0.0
 23
0.0
 33
0.0
 16
1.0
 26
0.0
 36
0.0
 17
0.0
 27
1.0
 37
0.0
 76
0
330
210
345
0
346
0
  0
ENDSEC
  0
EOF
